  0
SECTION
  2
HEADER
  9
$ACADVER
  1
AC1027
  9
$ACADMAINTVER
 70
    20
  9
$DWGCODEPAGE
  3
ANSI_1252
  9
$REQUIREDVERSIONS
160
                 0
  9
$INSBASE
 10
0.0
 20
0.0
 30
0.0
  9
$EXTMIN
 10
874.5307398058914
 20
1752.168759748034
 30
-0.00000001
  9
$EXTMAX
 10
1253.691472925114
 20
2086.499982703223
 30
0.00000001
  9
$LIMMIN
 10
0.0
 20
0.0
  9
$LIMMAX
 10
12.0
 20
9.0
  9
$ORTHOMODE
 70
     0
  9
$REGENMODE
 70
     1
  9
$FILLMODE
 70
     1
  9
$QTEXTMODE
 70
     0
  9
$MIRRTEXT
 70
     0
  9
$LTSCALE
 40
1.0
  9
$ATTMODE
 70
     1
  9
$TEXTSIZE
 40
0.2
  9
$TRACEWID
 40
0.05
  9
$TEXTSTYLE
  7
Standard
  9
$CLAYER
  8
0
  9
$CELTYPE
  6
ByLayer
  9
$CECOLOR
 62
   256
  9
$CELTSCALE
 40
1.0
  9
$DISPSILH
 70
     0
  9
$DIMSCALE
 40
1.0
  9
$DIMASZ
 40
0.18
  9
$DIMEXO
 40
0.0625
  9
$DIMDLI
 40
0.38
  9
$DIMRND
 40
0.0
  9
$DIMDLE
 40
0.0
  9
$DIMEXE
 40
0.18
  9
$DIMTP
 40
0.0
  9
$DIMTM
 40
0.0
  9
$DIMTXT
 40
0.18
  9
$DIMCEN
 40
0.09
  9
$DIMTSZ
 40
0.0
  9
$DIMTOL
 70
     0
  9
$DIMLIM
 70
     0
  9
$DIMTIH
 70
     1
  9
$DIMTOH
 70
     1
  9
$DIMSE1
 70
     0
  9
$DIMSE2
 70
     0
  9
$DIMTAD
 70
     0
  9
$DIMZIN
 70
     0
  9
$DIMBLK
  1

  9
$DIMASO
 70
     1
  9
$DIMSHO
 70
     1
  9
$DIMPOST
  1

  9
$DIMAPOST
  1

  9
$DIMALT
 70
     0
  9
$DIMALTD
 70
     2
  9
$DIMALTF
 40
25.4
  9
$DIMLFAC
 40
1.0
  9
$DIMTOFL
 70
     0
  9
$DIMTVP
 40
0.0
  9
$DIMTIX
 70
     0
  9
$DIMSOXD
 70
     0
  9
$DIMSAH
 70
     0
  9
$DIMBLK1
  1

  9
$DIMBLK2
  1

  9
$DIMSTYLE
  2
Standard
  9
$DIMCLRD
 70
     0
  9
$DIMCLRE
 70
     0
  9
$DIMCLRT
 70
     0
  9
$DIMTFAC
 40
1.0
  9
$DIMGAP
 40
0.09
  9
$DIMJUST
 70
     0
  9
$DIMSD1
 70
     0
  9
$DIMSD2
 70
     0
  9
$DIMTOLJ
 70
     1
  9
$DIMTZIN
 70
     0
  9
$DIMALTZ
 70
     0
  9
$DIMALTTZ
 70
     0
  9
$DIMUPT
 70
     0
  9
$DIMDEC
 70
     4
  9
$DIMTDEC
 70
     4
  9
$DIMALTU
 70
     2
  9
$DIMALTTD
 70
     2
  9
$DIMTXSTY
  7
Standard
  9
$DIMAUNIT
 70
     0
  9
$DIMADEC
 70
     0
  9
$DIMALTRND
 40
0.0
  9
$DIMAZIN
 70
     0
  9
$DIMDSEP
 70
    46
  9
$DIMATFIT
 70
     3
  9
$DIMFRAC
 70
     0
  9
$DIMLDRBLK
  1

  9
$DIMLUNIT
 70
     2
  9
$DIMLWD
 70
    -2
  9
$DIMLWE
 70
    -2
  9
$DIMTMOVE
 70
     0
  9
$DIMFXL
 40
1.0
  9
$DIMFXLON
 70
     0
  9
$DIMJOGANG
 40
0.7853981633974483
  9
$DIMTFILL
 70
     0
  9
$DIMTFILLCLR
 70
     0
  9
$DIMARCSYM
 70
     0
  9
$DIMLTYPE
  6

  9
$DIMLTEX1
  6

  9
$DIMLTEX2
  6

  9
$DIMTXTDIRECTION
 70
     0
  9
$LUNITS
 70
     2
  9
$LUPREC
 70
     4
  9
$SKETCHINC
 40
0.1
  9
$FILLETRAD
 40
0.0
  9
$AUNITS
 70
     0
  9
$AUPREC
 70
     0
  9
$MENU
  1
.
  9
$ELEVATION
 40
0.0
  9
$PELEVATION
 40
0.0
  9
$THICKNESS
 40
0.0
  9
$LIMCHECK
 70
     0
  9
$CHAMFERA
 40
0.0
  9
$CHAMFERB
 40
0.0
  9
$CHAMFERC
 40
0.0
  9
$CHAMFERD
 40
0.0
  9
$SKPOLY
 70
     0
  9
$TDCREATE
 40
2457550.715210220
  9
$TDUCREATE
 40
2457550.631876887
  9
$TDUPDATE
 40
2457550.715210220
  9
$TDUUPDATE
 40
2457550.631876887
  9
$TDINDWG
 40
0.0000149884
  9
$TDUSRTIMER
 40
0.0000149884
  9
$USRTIMER
 70
     1
  9
$ANGBASE
 50
0.0
  9
$ANGDIR
 70
     0
  9
$PDMODE
 70
     0
  9
$PDSIZE
 40
0.0
  9
$PLINEWID
 40
0.0
  9
$SPLFRAME
 70
     0
  9
$SPLINETYPE
 70
     6
  9
$SPLINESEGS
 70
     8
  9
$HANDSEED
  5
328
  9
$SURFTAB1
 70
     6
  9
$SURFTAB2
 70
     6
  9
$SURFTYPE
 70
     6
  9
$SURFU
 70
     6
  9
$SURFV
 70
     6
  9
$UCSBASE
  2

  9
$UCSNAME
  2

  9
$UCSORG
 10
0.0
 20
0.0
 30
0.0
  9
$UCSXDIR
 10
1.0
 20
0.0
 30
0.0
  9
$UCSYDIR
 10
0.0
 20
1.0
 30
0.0
  9
$UCSORTHOREF
  2

  9
$UCSORTHOVIEW
 70
     0
  9
$UCSORGTOP
 10
0.0
 20
0.0
 30
0.0
  9
$UCSORGBOTTOM
 10
0.0
 20
0.0
 30
0.0
  9
$UCSORGLEFT
 10
0.0
 20
0.0
 30
0.0
  9
$UCSORGRIGHT
 10
0.0
 20
0.0
 30
0.0
  9
$UCSORGFRONT
 10
0.0
 20
0.0
 30
0.0
  9
$UCSORGBACK
 10
0.0
 20
0.0
 30
0.0
  9
$PUCSBASE
  2

  9
$PUCSNAME
  2

  9
$PUCSORG
 10
0.0
 20
0.0
 30
0.0
  9
$PUCSXDIR
 10
1.0
 20
0.0
 30
0.0
  9
$PUCSYDIR
 10
0.0
 20
1.0
 30
0.0
  9
$PUCSORTHOREF
  2

  9
$PUCSORTHOVIEW
 70
     0
  9
$PUCSORGTOP
 10
0.0
 20
0.0
 30
0.0
  9
$PUCSORGBOTTOM
 10
0.0
 20
0.0
 30
0.0
  9
$PUCSORGLEFT
 10
0.0
 20
0.0
 30
0.0
  9
$PUCSORGRIGHT
 10
0.0
 20
0.0
 30
0.0
  9
$PUCSORGFRONT
 10
0.0
 20
0.0
 30
0.0
  9
$PUCSORGBACK
 10
0.0
 20
0.0
 30
0.0
  9
$USERI1
 70
     0
  9
$USERI2
 70
     0
  9
$USERI3
 70
     0
  9
$USERI4
 70
     0
  9
$USERI5
 70
     0
  9
$USERR1
 40
0.0
  9
$USERR2
 40
0.0
  9
$USERR3
 40
0.0
  9
$USERR4
 40
0.0
  9
$USERR5
 40
0.0
  9
$WORLDVIEW
 70
     1
  9
$SHADEDGE
 70
     3
  9
$SHADEDIF
 70
    70
  9
$TILEMODE
 70
     1
  9
$MAXACTVP
 70
    64
  9
$PINSBASE
 10
0.0
 20
0.0
 30
0.0
  9
$PLIMCHECK
 70
     0
  9
$PEXTMIN
 10
1.000000000000000E+20
 20
1.000000000000000E+20
 30
1.000000000000000E+20
  9
$PEXTMAX
 10
-1.000000000000000E+20
 20
-1.000000000000000E+20
 30
-1.000000000000000E+20
  9
$PLIMMIN
 10
0.0
 20
0.0
  9
$PLIMMAX
 10
12.0
 20
9.0
  9
$UNITMODE
 70
     0
  9
$VISRETAIN
 70
     1
  9
$PLINEGEN
 70
     0
  9
$PSLTSCALE
 70
     1
  9
$TREEDEPTH
 70
  3020
  9
$CMLSTYLE
  2
Standard
  9
$CMLJUST
 70
     0
  9
$CMLSCALE
 40
1.0
  9
$PROXYGRAPHICS
 70
     1
  9
$MEASUREMENT
 70
     1
  9
$CELWEIGHT
370
    -1
  9
$ENDCAPS
280
     0
  9
$JOINSTYLE
280
     0
  9
$LWDISPLAY
290
     0
  9
$INSUNITS
 70
     4
  9
$HYPERLINKBASE
  1

  9
$STYLESHEET
  1

  9
$XEDIT
290
     1
  9
$CEPSNTYPE
380
     0
  9
$PSTYLEMODE
290
     1
  9
$FINGERPRINTGUID
  2
{2A5105C1-36E6-4135-9487-46BC57BB6A86}
  9
$VERSIONGUID
  2
{C24B3AD9-658E-4A12-9C12-30CC6E4D4012}
  9
$EXTNAMES
290
     1
  9
$PSVPSCALE
 40
0.0
  9
$OLESTARTUP
290
     0
  9
$SORTENTS
280
   127
  9
$INDEXCTL
280
     0
  9
$HIDETEXT
280
     1
  9
$XCLIPFRAME
280
     2
  9
$HALOGAP
280
     0
  9
$OBSCOLOR
 70
   257
  9
$OBSLTYPE
280
     0
  9
$INTERSECTIONDISPLAY
280
     0
  9
$INTERSECTIONCOLOR
 70
   257
  9
$DIMASSOC
280
     2
  9
$PROJECTNAME
  1

  9
$CAMERADISPLAY
290
     0
  9
$LENSLENGTH
 40
50.0
  9
$CAMERAHEIGHT
 40
0.0
  9
$STEPSPERSEC
 40
2.0
  9
$STEPSIZE
 40
6.0
  9
$3DDWFPREC
 40
2.0
  9
$PSOLWIDTH
 40
0.25
  9
$PSOLHEIGHT
 40
4.0
  9
$LOFTANG1
 40
1.570796326794896
  9
$LOFTANG2
 40
1.570796326794896
  9
$LOFTMAG1
 40
0.0
  9
$LOFTMAG2
 40
0.0
  9
$LOFTPARAM
 70
     7
  9
$LOFTNORMALS
280
     1
  9
$LATITUDE
 40
37.795
  9
$LONGITUDE
 40
-122.394
  9
$NORTHDIRECTION
 40
0.0
  9
$TIMEZONE
 70
 -8000
  9
$LIGHTGLYPHDISPLAY
280
     1
  9
$TILEMODELIGHTSYNCH
280
     1
  9
$CMATERIAL
347
11
  9
$SOLIDHIST
280
     0
  9
$SHOWHIST
280
     1
  9
$DWFFRAME
280
     2
  9
$DGNFRAME
280
     0
  9
$REALWORLDSCALE
290
     1
  9
$INTERFERECOLOR
 62
     1
  9
$INTERFEREOBJVS
345
33
  9
$INTERFEREVPVS
346
30
  9
$CSHADOW
280
     0
  9
$SHADOWPLANELOCATION
 40
0.0
  0
ENDSEC
  0
SECTION
  2
CLASSES
  0
CLASS
  1
ACDBDICTIONARYWDFLT
  2
AcDbDictionaryWithDefault
  3
ObjectDBX Classes
 90
        0
 91
        1
280
     0
281
     0
  0
CLASS
  1
MATERIAL
  2
AcDbMaterial
  3
ObjectDBX Classes
 90
     1153
 91
        3
280
     0
281
     0
  0
CLASS
  1
VISUALSTYLE
  2
AcDbVisualStyle
  3
ObjectDBX Classes
 90
     4095
 91
       24
280
     0
281
     0
  0
CLASS
  1
SCALE
  2
AcDbScale
  3
ObjectDBX Classes
 90
     1153
 91
       17
280
     0
281
     0
  0
CLASS
  1
TABLESTYLE
  2
AcDbTableStyle
  3
ObjectDBX Classes
 90
     4095
 91
        1
280
     0
281
     0
  0
CLASS
  1
MLEADERSTYLE
  2
AcDbMLeaderStyle
  3
ACDB_MLEADERSTYLE_CLASS
 90
     4095
 91
        1
280
     0
281
     0
  0
CLASS
  1
ACDBSECTIONVIEWSTYLE
  2
AcDbSectionViewStyle
  3
ObjectDBX Classes
 90
     1025
 91
        1
280
     0
281
     0
  0
CLASS
  1
ACDBDETAILVIEWSTYLE
  2
AcDbDetailViewStyle
  3
ObjectDBX Classes
 90
     1025
 91
        1
280
     0
281
     0
  0
CLASS
  1
RASTERVARIABLES
  2
AcDbRasterVariables
  3
ISM
 90
        0
 91
        1
280
     0
281
     0
  0
CLASS
  1
DICTIONARYVAR
  2
AcDbDictionaryVar
  3
ObjectDBX Classes
 90
        0
 91
        5
280
     0
281
     0
  0
CLASS
  1
CELLSTYLEMAP
  2
AcDbCellStyleMap
  3
ObjectDBX Classes
 90
     1152
 91
        2
280
     0
281
     0
  0
CLASS
  1
SORTENTSTABLE
  2
AcDbSortentsTable
  3
ObjectDBX Classes
 90
        0
 91
        1
280
     0
281
     0
  0
ENDSEC
  0
SECTION
  2
TABLES
  0
TABLE
  2
VPORT
  5
8
330
0
100
AcDbSymbolTable
 70
     1
  0
VPORT
  5
57
330
8
100
AcDbSymbolTableRecord
100
AcDbViewportTableRecord
  2
*Active
 70
     0
 10
0.0
 20
0.0
 11
1.0
 21
1.0
 12
1064.111106365502
 22
1919.334371225628
 13
0.0
 23
0.0
 14
1.0
 24
1.0
 15
0.0
 25
0.0
 16
0.0
 26
0.0
 36
1.0
 17
0.0
 27
0.0
 37
0.0
 40
334.3312229551889
 41
1.134087118061485
 42
50.0
 43
0.0
 44
0.0
 50
0.0
 51
0.0
 71
     0
 72
  1000
 73
     1
 74
     1
 75
     0
 76
     0
 77
     0
 78
     0
281
     0
 65
     1
110
0.0
120
0.0
130
0.0
111
1.0
121
0.0
131
0.0
112
0.0
122
1.0
132
0.0
 79
     0
146
0.0
 60
     3
 61
     5
292
     1
282
     1
141
0.0
142
0.0
 63
   250
421
  3355443
  0
ENDTAB
  0
TABLE
  2
LTYPE
  5
5
330
0
100
AcDbSymbolTable
 70
     3
  0
LTYPE
  5
5B
330
5
100
AcDbSymbolTableRecord
100
AcDbLinetypeTableRecord
  2
ByBlock
 70
     0
  3

 72
    65
 73
     0
 40
0.0
  0
LTYPE
  5
5C
330
5
100
AcDbSymbolTableRecord
100
AcDbLinetypeTableRecord
  2
ByLayer
 70
     0
  3

 72
    65
 73
     0
 40
0.0
  0
LTYPE
  5
5D
330
5
100
AcDbSymbolTableRecord
100
AcDbLinetypeTableRecord
  2
Continuous
 70
     0
  3
Solid line
 72
    65
 73
     0
 40
0.0
  0
LTYPE
  5
69
330
5
100
AcDbSymbolTableRecord
100
AcDbLinetypeTableRecord
  2
PHANTOM2
 70
     0
  3
___ _ _ ___ _ _ ___ _ _ ___ _ _
 72
    65
 73
     6
 40
1.25
 49
0.625
 74
     0
 49
-0.125
 74
     0
 49
0.125
 74
     0
 49
-0.125
 74
     0
 49
0.125
 74
     0
 49
-0.125
 74
     0
  0
LTYPE
  5
86
330
5
100
AcDbSymbolTableRecord
100
AcDbLinetypeTableRecord
  2
Nascosto 1_5 mm
 70
     0
  3

 72
    65
 73
     2
 40
2.2
 49
1.5
 74
     0
 49
-0.7000000000000001
 74
     0
  0
ENDTAB
  0
TABLE
  2
LAYER
  5
2
330
0
100
AcDbSymbolTable
 70
     3
  0
LAYER
  5
54
330
2
100
AcDbSymbolTableRecord
100
AcDbLayerTableRecord
  2
0
 70
     0
 62
     7
  6
Continuous
370
    -3
390
F
347
21
348
0
  0
LAYER
  5
85
330
2
100
AcDbSymbolTableRecord
100
AcDbLayerTableRecord
  2
P-SANR-FIXT
 70
     0
 62
     6
  6
Continuous
370
    18
390
F
347
21
348
0
  0
ENDTAB
  0
TABLE
  2
STYLE
  5
3
330
0
100
AcDbSymbolTable
 70
     2
  0
STYLE
  5
55
330
3
100
AcDbSymbolTableRecord
100
AcDbTextStyleTableRecord
  2
Standard
 70
     0
 40
0.0
 41
1.0
 50
0.0
 71
     0
 42
0.2
  3
txt
  4

  0
STYLE
  5
5A
330
3
100
AcDbSymbolTableRecord
100
AcDbTextStyleTableRecord
  2
Annotative
 70
     0
 40
0.0
 41
1.0
 50
0.0
 71
     0
 42
0.2
  3
txt
  4

1001
AcadAnnotative
1000
AnnotativeData
1002
{
1070
     1
1070
     1
1002
}
  0
ENDTAB
  0
TABLE
  2
VIEW
  5
6
330
0
100
AcDbSymbolTable
 70
     0
  0
ENDTAB
  0
TABLE
  2
UCS
  5
7
330
0
100
AcDbSymbolTable
 70
     0
  0
ENDTAB
  0
TABLE
  2
APPID
  5
9
330
0
100
AcDbSymbolTable
 70
     3
  0
APPID
  5
56
330
9
100
AcDbSymbolTableRecord
100
AcDbRegAppTableRecord
  2
ACAD
 70
     0
  0
APPID
  5
5E
330
9
100
AcDbSymbolTableRecord
100
AcDbRegAppTableRecord
  2
AcadAnnotative
 70
     0
  0
APPID
  5
79
330
9
100
AcDbSymbolTableRecord
100
AcDbRegAppTableRecord
  2
REVIT
 70
     0
  0
ENDTAB
  0
TABLE
  2
DIMSTYLE
  5
A
330
0
100
AcDbSymbolTable
 70
     2
100
AcDbDimStyleTable
 71
     0
  0
DIMSTYLE
105
58
330
A
100
AcDbSymbolTableRecord
100
AcDbDimStyleTableRecord
  2
Standard
 70
     0
340
55
  0
DIMSTYLE
105
59
330
A
100
AcDbSymbolTableRecord
100
AcDbDimStyleTableRecord
  2
Annotative
 70
     0
340
55
1001
AcadAnnotative
1000
AnnotativeData
1002
{
1070
     1
1070
     1
1002
}
  0
ENDTAB
  0
TABLE
  2
BLOCK_RECORD
  5
1
330
0
100
AcDbSymbolTable
 70
     4
  0
BLOCK_RECORD
  5
71
102
{ACAD_XDICTIONARY
360
323
102
}
330
1
100
AcDbSymbolTableRecord
100
AcDbBlockTableRecord
  2
*Model_Space
340
74
 70
     0
280
     1
281
     0
  0
BLOCK_RECORD
  5
6D
330
1
100
AcDbSymbolTableRecord
100
AcDbBlockTableRecord
  2
*Paper_Space
340
70
 70
     0
280
     1
281
     0
  0
BLOCK_RECORD
  5
75
330
1
100
AcDbSymbolTableRecord
100
AcDbBlockTableRecord
  2
*Paper_Space0
340
78
 70
     0
280
     1
281
     0
  0
BLOCK_RECORD
  5
87
330
1
100
AcDbSymbolTableRecord
100
AcDbBlockTableRecord
  2
Automatic flow rate regulator valve_Caleffi_121 DN15 - 1_2__-859151-Est - Idraulica
340
0
102
{BLKREFS
331
16A
102
}
 70
     0
280
     1
281
     0
  0
BLOCK_RECORD
  5
16B
330
1
100
AcDbSymbolTableRecord
100
AcDbBlockTableRecord
  2
Automatic flow rate regulator valve_Caleffi_121 DN15 - 1_2__-V1-Est - Idraulica
340
0
102
{BLKREFS
331
297
102
}
 70
     0
280
     1
281
     0
  0
BLOCK_RECORD
  5
298
330
1
100
AcDbSymbolTableRecord
100
AcDbBlockTableRecord
  2
Automatic flow rate regulator valve_Caleffi_121 DN15 - 1_2__-V2-Est - Idraulica
340
0
102
{BLKREFS
331
31D
102
}
 70
     0
280
     1
281
     0
  0
ENDTAB
  0
ENDSEC
  0
SECTION
  2
BLOCKS
  0
BLOCK
  5
72
330
71
100
AcDbEntity
  8
0
100
AcDbBlockBegin
  2
*Model_Space
 70
     0
 10
0.0
 20
0.0
 30
0.0
  3
*Model_Space
  1

  0
ENDBLK
  5
73
330
71
100
AcDbEntity
  8
0
100
AcDbBlockEnd
  0
BLOCK
  5
6E
330
6D
100
AcDbEntity
 67
     1
  8
0
100
AcDbBlockBegin
  2
*Paper_Space
 70
     0
 10
0.0
 20
0.0
 30
0.0
  3
*Paper_Space
  1

  0
ENDBLK
  5
6F
330
6D
100
AcDbEntity
 67
     1
  8
0
100
AcDbBlockEnd
  0
BLOCK
  5
76
330
75
100
AcDbEntity
 67
     1
  8
0
100
AcDbBlockBegin
  2
*Paper_Space0
 70
     0
 10
0.0
 20
0.0
 30
0.0
  3
*Paper_Space0
  1

  0
ENDBLK
  5
77
330
75
100
AcDbEntity
 67
     1
  8
0
100
AcDbBlockEnd
  0
BLOCK
  5
168
330
87
100
AcDbEntity
  8
0
100
AcDbBlockBegin
  2
Automatic flow rate regulator valve_Caleffi_121 DN15 - 1_2__-859151-Est - Idraulica
 70
     0
 10
0.0
 20
0.0
 30
0.0
  3
Automatic flow rate regulator valve_Caleffi_121 DN15 - 1_2__-859151-Est - Idraulica
  1

  0
LINE
  5
88
330
87
100
AcDbEntity
  8
P-SANR-FIXT
100
AcDbLine
 10
908.5392474484544
 20
2051.499982693223
 30
0.0
 11
911.3401720744322
 21
2051.499982693223
 31
0.0
  0
LINE
  5
89
330
87
100
AcDbEntity
  8
P-SANR-FIXT
100
AcDbLine
 10
919.3607494758261
 20
2086.499982693224
 30
0.0
 11
915.0959057259738
 21
2086.499982693223
 31
0.0
  0
ARC
  5
8A
330
87
100
AcDbEntity
  8
P-SANR-FIXT
100
AcDbCircle
 10
915.0959057259738
 20
2082.999982693223
 30
0.0
 40
3.499999999999772
100
AcDbArc
 50
89.99999999999628
 51
169.839383043041
  0
ARC
  5
8B
330
87
100
AcDbEntity
  8
P-SANR-FIXT
100
AcDbCircle
 10
1108.514215304853
 20
2048.335771759627
 30
0.0
 40
200.0
100
AcDbArc
 50
169.8393830430387
 51
179.0934825196371
  0
ARC
  5
8C
330
87
100
AcDbEntity
  8
P-SANR-FIXT
100
AcDbCircle
 10
760.5642795920559
 20
2048.335771759627
 30
0.0
 40
200.0
100
AcDbArc
 50
0.9065174803621102
 51
10.16061695696043
  0
ARC
  5
8D
330
87
100
AcDbEntity
  8
P-SANR-FIXT
100
AcDbCircle
 10
953.982589170935
 20
2082.999982693223
 30
0.0
 40
3.500000000000039
100
AcDbArc
 50
10.1606169569618
 51
90.0
  0
LINE
  5
8E
330
87
100
AcDbEntity
  8
P-SANR-FIXT
100
AcDbLine
 10
953.982589170935
 20
2086.499982693223
 30
0.0
 11
949.7177454210829
 21
2086.499982693224
 31
0.0
  0
LINE
  5
8F
330
87
100
AcDbEntity
  8
P-SANR-FIXT
100
AcDbLine
 10
957.7383228224769
 20
2051.499982693223
 30
0.0
 11
960.5392474484546
 21
2051.499982693223
 31
0.0
  0
LWPOLYLINE
  5
90
330
87
100
AcDbEntity
  8
P-SANR-FIXT
100
AcDbPolyline
 90
        3
 70
   128
 43
0.0
 10
918.3897786255814
 20
2086.496338218196
 10
918.5014610387522
 20
2086.49977871403
 10
918.5176530671013
 20
2086.499866122093
  0
LWPOLYLINE
  5
91
330
87
100
AcDbEntity
  8
P-SANR-FIXT
100
AcDbPolyline
 90
        3
 70
   128
 43
0.0
 10
918.539247448456
 20
2086.499982693224
 10
918.5520457418803
 20
2086.499982693224
 10
918.5904201476141
 20
2086.499982693224
  0
LWPOLYLINE
  5
92
330
87
100
AcDbEntity
  8
P-SANR-FIXT
100
AcDbPolyline
 90
        4
 70
   128
 43
0.0
 10
950.4946149892974
 20
2086.499982693224
 10
950.5089078019784
 20
2086.499982693224
 10
950.535517651863
 20
2086.499982693224
 10
950.539247448456
 20
2086.499982693224
  0
LWPOLYLINE
  5
93
330
87
100
AcDbEntity
  8
P-SANR-FIXT
100
AcDbPolyline
 90
       79
 70
   128
 43
0.0
 10
950.5264491550317
 20
2086.499982693224
 10
950.4880747492979
 20
2086.499982693224
 10
950.4241856221179
 20
2086.499982693224
 10
950.334883982466
 20
2086.499982693224
 10
950.2203126939159
 20
2086.499982693224
 10
950.0806550460884
 20
2086.499982693224
 10
949.9161344614284
 20
2086.499982693224
 10
949.727014137775
 20
2086.499982693224
 10
949.513596627303
 20
2086.499982693224
 10
949.2762233525022
 20
2086.499982693224
 10
949.0152740599755
 20
2086.499982693224
 10
948.7311662129247
 20
2086.499982693224
 10
948.4243543232985
 20
2086.499982693224
 10
948.0953292246706
 20
2086.499982693224
 10
947.7446172870109
 20
2086.499982693224
 10
947.3727795746048
 20
2086.499982693224
 10
946.980410948471
 20
2086.499982693224
 10
946.5681391147104
 20
2086.499982693224
 10
946.1366236203106
 20
2086.499982693224
 10
945.6865547980106
 20
2086.499982693224
 10
945.218652661917
 20
2086.499982693224
 10
944.7336657556332
 20
2086.499982693224
 10
944.2323699547515
 20
2086.499982693224
 10
943.7155672256155
 20
2086.499982693224
 10
943.1840843423463
 20
2086.499982693224
 10
942.6387715641805
 20
2086.499982693224
 10
942.0805012752358
 20
2086.499982693224
 10
941.5101665888835
 20
2086.499982693224
 10
940.9286799189562
 20
2086.499982693224
 10
940.3369715200827
 20
2086.499982693224
 10
939.7359879994764
 20
2086.499982693224
 10
939.1266908025672
 20
2086.499982693224
 10
938.510054674894
 20
2086.499982693224
 10
937.8870661027189
 20
2086.499982693224
 10
937.25872173486
 20
2086.499982693224
 10
936.6260267882665
 20
2086.499982693224
 10
935.9899934398852
 20
2086.499982693224
 10
935.3516392073935
 20
2086.499982693224
 10
934.7119853213884
 20
2086.499982693224
 10
934.0720550916355
 20
2086.499982693224
 10
933.4328722699911
 20
2086.499982693224
 10
932.7954594126182
 20
2086.499982693224
 10
932.1608362441141
 20
2086.499982693224
 10
931.5300180261701
 20
2086.499982693224
 10
930.9040139333669
 20
2086.499982693224
 10
930.2838254387122
 20
2086.499982693224
 10
929.6704447114986
 20
2086.499982693224
 10
929.0648530300416
 20
2086.499982693224
 10
928.4680192118456
 20
2086.499982693224
 10
927.8808980637018
 20
2086.499982693224
 10
927.3044288542013
 20
2086.499982693224
 10
926.7395338111061
 20
2086.499982693224
 10
926.1871166459808
 20
2086.499982693224
 10
925.6480611084462
 20
2086.499982693224
 10
925.1232295723704
 20
2086.499982693224
 10
924.613461656253
 20
2086.499982693224
 10
924.1195728800153
 20
2086.499982693224
 10
923.6423533603414
 20
2086.499982693224
 10
923.1825665466619
 20
2086.499982693224
 10
922.7409479997961
 20
2086.499982693224
 10
922.3182042152117
 20
2086.499982693224
 10
921.9150114927835
 20
2086.499982693224
 10
921.5320148548576
 20
2086.499982693224
 10
921.1698270143534
 20
2086.499982693224
 10
920.8290273945527
 20
2086.499982693224
 10
920.5101612021474
 20
2086.499982693224
 10
920.2137385550241
 20
2086.499982693224
 10
919.9402336661847
 20
2086.499982693224
 10
919.6900840851068
 20
2086.499982693224
 10
919.4636899977576
 20
2086.499982693224
 10
919.261413586382
 20
2086.499982693224
 10
919.0835784500885
 20
2086.499982693224
 10
918.9304690871587
 20
2086.499982693224
 10
918.8023304399118
 20
2086.499982693224
 10
918.6993675028489
 20
2086.499982693224
 10
918.6217449947045
 20
2086.499982693224
 10
918.5695870949336
 20
2086.499982693224
 10
918.5429772450492
 20
2086.499982693224
 10
918.539247448456
 20
2086.499982693224
  0
LINE
  5
94
330
87
100
AcDbEntity
  8
P-SANR-FIXT
100
AcDbLine
 10
911.3254158681398
 20
2051.499982693223
 30
0.0
 11
957.753079028769
 21
2051.499982693223
 31
0.0
  0
LINE
  5
95
330
87
100
AcDbEntity
  8
P-SANR-FIXT
100
AcDbLine
 10
874.5468756419574
 20
1965.499999999996
 30
0.0
 11
876.6086326044325
 21
1961.92893218813
 31
0.0
  0
LINE
  5
96
330
87
100
AcDbEntity
  8
P-SANR-FIXT
100
AcDbLine
 10
876.6086326044325
 20
2038.071067811861
 30
0.0
 11
874.5468756419574
 21
2034.499999999996
 31
0.0
  0
LINE
  5
97
330
87
100
AcDbEntity
  8
P-SANR-FIXT
100
AcDbLine
 10
923.0983356198928
 20
1969.499999999995
 30
0.0
 11
933.3288739889917
 21
1969.499999999995
 31
0.0
  0
LWPOLYLINE
  5
98
330
87
100
AcDbEntity
  8
P-SANR-FIXT
100
AcDbPolyline
 90
       19
 70
   128
 43
0.0
 10
952.6934098653734
 20
1976.435943679143
 10
951.7356093791052
 20
1975.680417514305
 10
950.7483620427738
 20
1974.963797493543
 10
949.7332472415155
 20
1974.287230056019
 10
948.6918889424662
 20
1973.651797565308
 10
947.6259530967601
 20
1973.058516577841
 10
946.5371449743621
 20
1972.508336216641
 10
945.4272064360015
 20
1972.002136652918
 10
944.297913146566
 20
1971.540727697992
 10
943.1510717344151
 20
1971.124847507761
 10
941.9885169011619
 20
1970.755161401814
 10
940.8121084865413
 20
1970.432260799058
 10
939.6237284930629
 20
1970.156662271575
 10
938.4252780752087
 20
1969.928806718218
 10
937.2186744979913
 20
1969.749058659267
 10
936.0058480697393
 20
1969.617705653271
 10
934.7887390540154
 20
1969.534957837019
 10
933.569294565609
 20
1969.500947589366
 10
933.3288739889917
 20
1969.499999999996
  0
LWPOLYLINE
  5
99
330
87
100
AcDbEntity
  8
P-SANR-FIXT
100
AcDbPolyline
 90
       49
 70
   128
 43
0.0
 10
956.0975640977105
 20
1975.505080417288
 10
956.0663701165735
 20
1975.585729018097
 10
956.0319760034447
 20
1975.665065682091
 10
955.9944367815685
 20
1975.742963487532
 10
955.9538125056912
 20
1975.819297814549
 10
955.9101681659891
 20
1975.893946544502
 10
955.8635735840944
 20
1975.966790255347
 10
955.8141033013994
 20
1976.037712412687
 10
955.7618364598026
 20
1976.106599556198
 10
955.7068566751013
 20
1976.173341481146
 10
955.6492519032227
 20
1976.23783141469
 10
955.5891142995132
 20
1976.299966186691
 10
955.5265400713102
 20
1976.359646394771
 10
955.4616293240302
 20
1976.416776563326
 10
955.3944859010222
 20
1976.471265296275
 10
955.3252172174396
 20
1976.523025423269
 10
955.2539340883999
 20
1976.571974139145
 10
955.1807505517029
 20
1976.6180331364
 10
955.1057836853958
 20
1976.661128730464
 10
955.0291534204729
 20
1976.70119197758
 10
954.950982349011
 20
1976.738158785099
 10
954.8713955280488
 20
1976.771970014014
 10
954.7905202795222
 20
1976.802571573571
 10
954.7084859865762
 20
1976.829914507805
 10
954.6254238865804
 20
1976.853955073853
 10
954.541466861175
 20
1976.874654811936
 10
954.4567492236913
 20
1976.891980606891
 10
954.371406504277
 20
1976.905904741141
 10
954.2855752330778
 20
1976.916404939041
 10
954.1993927218179
 20
1976.923464402516
 10
954.1129968441305
 20
1976.927071837929
 10
954.0265258149901
 20
1976.927221474153
 10
953.9401179695968
 20
1976.923913071803
 10
953.8539115420707
 20
1976.917151923615
 10
953.768044444306
 20
1976.906948845986
 10
953.682654045342
 20
1976.893320161662
 10
953.5978769516013
 20
1976.876287673632
 10
953.5138487883489
 20
1976.855878630242
 10
953.4307039827213
 20
1976.832125681609
 10
953.3485755486706
 20
1976.805066827384
 10
953.2675948741717
 20
1976.77474535596
 10
953.1878915110286
 20
1976.741209775223
 10
953.1095929676201
 20
1976.70451373495
 10
953.0328245049126
 20
1976.664715940977
 10
952.9577089360703
 20
1976.621880061283
 10
952.8843664299794
 20
1976.576074624139
 10
952.8129143190042
 20
1976.527372908474
 10
952.7434669112796
 20
1976.475852826642
 10
952.6934098653734
 20
1976.435943679143
  0
LINE
  5
9A
330
87
100
AcDbEntity
  8
P-SANR-FIXT
100
AcDbLine
 10
959.8656348175323
 20
1968.999999999996
 30
0.0
 11
965.7184485172113
 21
1968.999999999996
 31
0.0
  0
LINE
  5
9B
330
87
100
AcDbEntity
  8
P-SANR-FIXT
100
AcDbLine
 10
965.7184485172113
 20
2030.999999999996
 30
0.0
 11
960.5468756419575
 21
2030.999999999996
 31
0.0
  0
LWPOLYLINE
  5
9C
330
87
100
AcDbEntity
  8
P-SANR-FIXT
100
AcDbPolyline
 90
       21
 70
   128
 43
0.0
 10
965.7184485172113
 20
2030.999999999996
 10
965.7984271855847
 20
2031.001599786674
 10
965.8782779051495
 20
2031.006396587391
 10
965.9578729317891
 20
2031.014382728288
 10
966.0370849304397
 20
2031.025545433244
 10
966.1157871788015
 20
2031.039866844313
 10
966.1938537700654
 20
2031.057324050292
 10
966.2711598143395
 20
2031.077889123374
 10
966.3475816384435
 20
2031.101529163831
 10
966.4229969837615
 20
2031.12820635264
 10
966.4972852018285
 20
2031.15787801199
 10
966.5703274473433
 20
2031.190496673556
 10
966.6420068682942
 20
2031.226010154437
 10
966.7122087928987
 20
2031.264361640641
 10
966.7808209130532
 20
2031.305489777969
 10
966.8477334640014
 20
2031.349328770177
 10
966.9128393999361
 20
2031.395808484227
 10
966.9760345652482
 20
2031.444854562494
 10
967.0372178611541
 20
2031.496388541714
 10
967.0962914074324
 20
2031.550327978514
 10
967.1326620795843
 20
2031.585786437623
  0
LWPOLYLINE
  5
9D
330
87
100
AcDbEntity
  8
P-SANR-FIXT
100
AcDbPolyline
 90
       21
 70
   128
 43
0.0
 10
967.1326620795843
 20
1968.414213562368
 10
967.0749774008188
 20
1968.469635801117
 10
967.0151225652169
 20
1968.52270693609
 10
966.9531933277472
 20
1968.573342064791
 10
966.8892887619788
 20
1968.621460181817
 10
966.8235111015849
 20
1968.666984308445
 10
966.7559655767901
 20
1968.709841615784
 10
966.686760246025
 20
1968.749963541285
 10
966.6160058230561
 20
1968.787285898425
 10
966.5438154998662
 20
1968.821748979395
 10
966.4703047655732
 20
1968.853297650617
 10
966.3955912216703
 20
1968.881881440947
 10
966.3197943938895
 20
1968.907454622418
 10
966.2430355409865
 20
1968.929976283396
 10
966.1654374607513
 20
1968.949410394026
 10
966.087124293559
 20
1968.965725863878
 10
966.0082213237711
 20
1968.97889659168
 10
965.9288547793076
 20
1968.988901507077
 10
965.8491516297091
 20
1968.995724604339
 10
965.7692393830124
 20
1968.999354967967
 10
965.7184485172113
 20
1968.999999999995
  0
LINE
  5
9E
330
87
100
AcDbEntity
  8
P-SANR-FIXT
100
AcDbLine
 10
992.4851186794828
 20
2038.071067811861
 30
0.0
 11
973.6179434538229
 21
2038.071067811861
 31
0.0
  0
LINE
  5
9F
330
87
100
AcDbEntity
  8
P-SANR-FIXT
100
AcDbLine
 10
973.6179434538227
 20
1961.92893218813
 30
0.0
 11
992.4851186794823
 21
1961.92893218813
 31
0.0
  0
LINE
  5
A0
330
87
100
AcDbEntity
  8
P-SANR-FIXT
100
AcDbLine
 10
901.9610892043306
 20
2031.585786437623
 30
0.0
 11
895.4758078300919
 21
2038.071067811861
 31
0.0
  0
LINE
  5
A1
330
87
100
AcDbEntity
  8
P-SANR-FIXT
100
AcDbLine
 10
895.4758078300919
 20
1961.92893218813
 30
0.0
 11
901.9610892043306
 21
1968.414213562368
 31
0.0
  0
LWPOLYLINE
  5
A2
330
87
100
AcDbEntity
  8
P-SANR-FIXT
100
AcDbPolyline
 90
       21
 70
   128
 43
0.0
 10
901.9610892043306
 20
2031.585786437623
 10
902.0187738830962
 20
2031.530364198875
 10
902.0786287186979
 20
2031.477293063902
 10
902.1405579561678
 20
2031.426657935201
 10
902.2044625219361
 20
2031.378539818175
 10
902.27024018233
 20
2031.333015691546
 10
902.3377857071251
 20
2031.290158384207
 10
902.40699103789
 20
2031.250036458707
 10
902.4777454608589
 20
2031.212714101567
 10
902.5499357840487
 20
2031.178251020596
 10
902.6234465183417
 20
2031.146702349374
 10
902.6981600622447
 20
2031.118118559044
 10
902.7739568900253
 20
2031.092545377573
 10
902.8507157429285
 20
2031.070023716596
 10
902.9283138231637
 20
2031.050589605966
 10
903.0066269903562
 20
2031.034274136114
 10
903.0855299601439
 20
2031.021103408312
 10
903.1648965046073
 20
2031.011098492915
 10
903.2445996542058
 20
2031.004275395652
 10
903.3245119009025
 20
2031.000645032025
 10
903.3753027667039
 20
2030.999999999996
  0
LWPOLYLINE
  5
A3
330
87
100
AcDbEntity
  8
P-SANR-FIXT
100
AcDbPolyline
 90
       21
 70
   128
 43
0.0
 10
903.3753027667039
 20
1968.999999999995
 10
903.2953240983303
 20
1968.998400213317
 10
903.2154733787654
 20
1968.993603412601
 10
903.1358783521259
 20
1968.985617271703
 10
903.0566663534752
 20
1968.974454566747
 10
902.9779641051135
 20
1968.960133155678
 10
902.8998975138495
 20
1968.942675949699
 10
902.8225914695756
 20
1968.922110876617
 10
902.7461696454714
 20
1968.89847083616
 10
902.6707543001535
 20
1968.871793647351
 10
902.5964660820864
 20
1968.842121988001
 10
902.5234238365719
 20
1968.809503326436
 10
902.4517444156208
 20
1968.773989845554
 10
902.3815424910162
 20
1968.735638359351
 10
902.3129303708619
 20
1968.694510222022
 10
902.2460178199136
 20
1968.650671229815
 10
902.180911883979
 20
1968.604191515764
 10
902.1177167186667
 20
1968.555145437497
 10
902.0565334227606
 20
1968.503611458277
 10
901.9974598764825
 20
1968.449672021477
 10
901.9610892043306
 20
1968.414213562368
  0
LINE
  5
A4
330
87
100
AcDbEntity
  8
P-SANR-FIXT
100
AcDbLine
 10
876.6086326044325
 20
1961.92893218813
 30
0.0
 11
895.4758078300919
 21
1961.92893218813
 31
0.0
  0
LINE
  5
A5
330
87
100
AcDbEntity
  8
P-SANR-FIXT
100
AcDbLine
 10
895.4758078300919
 20
2038.071067811861
 30
0.0
 11
876.6086326044325
 21
2038.071067811861
 31
0.0
  0
LINE
  5
A6
330
87
100
AcDbEntity
  8
P-SANR-FIXT
100
AcDbLine
 10
903.3753027667039
 20
1968.999999999995
 30
0.0
 11
909.2281164663827
 21
1968.999999999995
 31
0.0
  0
LINE
  5
A7
330
87
100
AcDbEntity
  8
P-SANR-FIXT
100
AcDbLine
 10
908.5468756419574
 20
2030.999999999997
 30
0.0
 11
903.3753027667039
 21
2030.999999999997
 31
0.0
  0
LINE
  5
A8
330
87
100
AcDbEntity
  8
P-SANR-FIXT
100
AcDbLine
 10
909.2281164663827
 20
1968.999999999996
 30
0.0
 11
909.9421904697539
 21
1969.499999999996
 31
0.0
  0
LINE
  5
A9
330
87
100
AcDbEntity
  8
P-SANR-FIXT
100
AcDbLine
 10
909.9421904697539
 20
1969.499999999996
 30
0.0
 11
923.0983356198928
 21
1969.499999999996
 31
0.0
  0
LINE
  5
AA
330
87
100
AcDbEntity
  8
P-SANR-FIXT
100
AcDbLine
 10
956.0975640977105
 20
1975.505080417288
 30
0.0
 11
957.9862495759606
 21
1970.315959713344
 31
0.0
  0
LWPOLYLINE
  5
AB
330
87
100
AcDbEntity
  8
P-SANR-FIXT
100
AcDbPolyline
 90
       32
 70
   128
 43
0.0
 10
959.8656348175323
 20
1968.999999999996
 10
959.7856561491589
 20
1969.001599786674
 10
959.705805429594
 20
1969.00639658739
 10
959.6262104029543
 20
1969.014382728288
 10
959.5469984043036
 20
1969.025545433244
 10
959.4682961559422
 20
1969.039866844313
 10
959.3902295646781
 20
1969.057324050291
 10
959.312923520404
 20
1969.077889123374
 10
959.2365016963
 20
1969.101529163831
 10
959.1610863509821
 20
1969.12820635264
 10
959.086798132915
 20
1969.15787801199
 10
959.0137558874003
 20
1969.190496673556
 10
958.9420764664494
 20
1969.226010154437
 10
958.8718745418448
 20
1969.264361640641
 10
958.8032624216905
 20
1969.305489777969
 10
958.7363498707423
 20
1969.349328770176
 10
958.6712439348076
 20
1969.395808484227
 10
958.6080487694953
 20
1969.444854562494
 10
958.5468654735894
 20
1969.496388541714
 10
958.4877919273113
 20
1969.550327978513
 10
958.4309226357332
 20
1969.606586581301
 10
958.3763485775905
 20
1969.665074348313
 10
958.3241570597344
 20
1969.725697711598
 10
958.2744315774595
 20
1969.788359686709
 10
958.2272516809302
 20
1969.852960027851
 10
958.1826928479166
 20
1969.919395388259
 10
958.1408263630457
 20
1969.98755948553
 10
958.1017192037624
 20
1970.057343271648
 10
958.0654339331792
 20
1970.128635107442
 10
958.0320285999889
 20
1970.201320941183
 10
958.0015566455978
 20
1970.275284491042
 10
957.9862495759606
 20
1970.315959713344
  0
LINE
  5
AC
330
87
100
AcDbEntity
  8
P-SANR-FIXT
100
AcDbLine
 10
967.1326620795843
 20
1968.414213562368
 30
0.0
 11
973.6179434538227
 21
1961.92893218813
 31
0.0
  0
LINE
  5
AD
330
87
100
AcDbEntity
  8
P-SANR-FIXT
100
AcDbLine
 10
973.6179434538229
 20
2038.071067811861
 30
0.0
 11
967.1326620795843
 21
2031.585786437623
 31
0.0
  0
LINE
  5
AE
330
87
100
AcDbEntity
  8
P-SANR-FIXT
100
AcDbLine
 10
992.4851186794827
 20
1961.92893218813
 30
0.0
 11
994.5468756419575
 21
1965.499999999996
 31
0.0
  0
LINE
  5
AF
330
87
100
AcDbEntity
  8
P-SANR-FIXT
100
AcDbLine
 10
994.5468756419575
 20
2034.499999999996
 30
0.0
 11
992.4851186794828
 21
2038.071067811861
 31
0.0
  0
LINE
  5
B0
330
87
100
AcDbEntity
  8
P-SANR-FIXT
100
AcDbLine
 10
907.0468756419575
 20
2045.999999999996
 30
0.0
 11
907.0468756419575
 21
2042.199999999996
 31
0.0
  0
LINE
  5
B1
330
87
100
AcDbEntity
  8
P-SANR-FIXT
100
AcDbLine
 10
962.0468756419574
 20
2042.199999999996
 30
0.0
 11
962.0468756419574
 21
2045.999999999996
 31
0.0
  0
LINE
  5
B2
330
87
100
AcDbEntity
  8
P-SANR-FIXT
100
AcDbLine
 10
907.0468756419575
 20
2042.199999999996
 30
0.0
 11
908.5468756419574
 21
2040.699999999996
 31
0.0
  0
LINE
  5
B3
330
87
100
AcDbEntity
  8
P-SANR-FIXT
100
AcDbLine
 10
960.5468756419575
 20
2040.699999999996
 30
0.0
 11
962.0468756419574
 21
2042.199999999996
 31
0.0
  0
LINE
  5
B4
330
87
100
AcDbEntity
  8
P-SANR-FIXT
100
AcDbLine
 10
908.5468756419574
 20
2040.699999999996
 30
0.0
 11
908.5468756419574
 21
2030.999999999996
 31
0.0
  0
LINE
  5
B5
330
87
100
AcDbEntity
  8
P-SANR-FIXT
100
AcDbLine
 10
960.5468756419575
 20
2030.999999999996
 30
0.0
 11
960.5468756419575
 21
2040.699999999996
 31
0.0
  0
LINE
  5
B6
330
87
100
AcDbEntity
  8
P-SANR-FIXT
100
AcDbLine
 10
916.5468756419574
 20
2051.499982693224
 30
0.0
 11
916.5468756419574
 21
2050.799999999996
 31
0.0
  0
LINE
  5
B7
330
87
100
AcDbEntity
  8
P-SANR-FIXT
100
AcDbLine
 10
952.5468756419574
 20
2050.799999999996
 30
0.0
 11
952.5468756419574
 21
2051.499982693224
 31
0.0
  0
LINE
  5
B8
330
87
100
AcDbEntity
  8
P-SANR-FIXT
100
AcDbLine
 10
909.5468756419574
 20
2050.799999999996
 30
0.0
 11
908.5468756419574
 21
2049.799999999996
 31
0.0
  0
LINE
  5
B9
330
87
100
AcDbEntity
  8
P-SANR-FIXT
100
AcDbLine
 10
960.5468756419575
 20
2049.799999999996
 30
0.0
 11
959.5468756419576
 21
2050.799999999996
 31
0.0
  0
LINE
  5
BA
330
87
100
AcDbEntity
  8
P-SANR-FIXT
100
AcDbLine
 10
908.5468756419574
 20
2049.799999999996
 30
0.0
 11
908.5468756419574
 21
2047.499999999996
 31
0.0
  0
LINE
  5
BB
330
87
100
AcDbEntity
  8
P-SANR-FIXT
100
AcDbLine
 10
960.5468756419575
 20
2047.499999999996
 30
0.0
 11
960.5468756419575
 21
2049.799999999996
 31
0.0
  0
LINE
  5
BC
330
87
100
AcDbEntity
  8
P-SANR-FIXT
100
AcDbLine
 10
908.5468756419574
 20
2047.499999999996
 30
0.0
 11
907.0468756419575
 21
2045.999999999996
 31
0.0
  0
LINE
  5
BD
330
87
100
AcDbEntity
  8
P-SANR-FIXT
100
AcDbLine
 10
962.0468756419574
 20
2045.999999999996
 30
0.0
 11
960.5468756419575
 21
2047.499999999996
 31
0.0
  0
LINE
  5
BE
330
87
100
AcDbEntity
  8
P-SANR-FIXT
100
AcDbLine
 10
874.5468756419558
 20
1969.581326294445
 30
0.0
 11
874.546875641956
 21
1970.587405800401
 31
0.0
  0
SPLINE
  5
BF
330
87
100
AcDbEntity
  8
P-SANR-FIXT
100
AcDbSpline
210
0.0
220
0.0
230
1.0
 70
     8
 71
     3
 72
     8
 73
     4
 74
     0
 42
0.000000001
 43
0.0000000001
 40
-0.5018782743135948
 40
-0.5018782743135948
 40
-0.5018782743135948
 40
-0.5018782743135948
 40
-0.5
 40
-0.5
 40
-0.5
 40
-0.5
 10
874.5560062528445
 20
1970.136779259835
 30
0.0
 10
874.5559980693005
 20
1970.126759925777
 30
0.0
 10
874.555989964741
 20
1970.116740822417
 30
0.0
 10
874.5559822585702
 20
1970.106721940418
 30
0.0
  0
SPLINE
  5
C0
330
87
100
AcDbEntity
  8
P-SANR-FIXT
100
AcDbSpline
210
0.0
220
0.0
230
1.0
 70
     8
 71
     3
 72
     8
 73
     4
 74
     0
 42
0.000000001
 43
0.0000000001
 40
-0.5018782743136039
 40
-0.5018782743136039
 40
-0.5018782743136039
 40
-0.5018782743136039
 40
-0.5
 40
-0.5
 40
-0.5
 40
-0.5
 10
874.5560062528445
 20
2029.892532120962
 30
0.0
 10
874.5559980693005
 20
2029.882512786903
 30
0.0
 10
874.555989964741
 20
2029.872493683543
 30
0.0
 10
874.5559822585704
 20
2029.862474801544
 30
0.0
  0
LINE
  5
C1
330
87
100
AcDbEntity
  8
P-SANR-FIXT
100
AcDbLine
 10
874.546875641956
 20
2029.415406902398
 30
0.0
 11
874.5468756419558
 21
2030.420439005077
 31
0.0
  0
SPLINE
  5
C2
330
87
100
AcDbEntity
  8
P-SANR-FIXT
100
AcDbSpline
210
0.0
220
0.0
230
1.0
 70
     8
 71
     3
 72
    10
 73
     6
 74
     0
 42
0.000000001
 43
0.0000000001
 40
-1.0
 40
-1.0
 40
-1.0
 40
-1.0
 40
-0.6666666666666666
 40
-0.3333333333333333
 40
0.0
 40
0.0
 40
0.0
 40
0.0
 10
876.6086326044311
 20
1962.07295894918
 30
0.0
 10
875.6943410534061
 20
1963.879344179473
 30
0.0
 10
874.4753931259371
 20
1967.479748699974
 30
0.0
 10
874.4845821441574
 20
1972.796443506248
 30
0.0
 10
875.6983713245555
 20
1976.378593702544
 30
0.0
 10
876.6086326044309
 20
1978.171288189684
 30
0.0
  0
SPLINE
  5
C3
330
87
100
AcDbEntity
  8
P-SANR-FIXT
100
AcDbSpline
210
0.0
220
0.0
230
1.0
 70
     8
 71
     3
 72
     9
 73
     5
 74
     0
 42
0.000000001
 43
0.0000000001
 40
-1.0
 40
-1.0
 40
-1.0
 40
-1.0
 40
-0.5
 40
0.0
 40
0.0
 40
0.0
 40
0.0
 10
876.6086326044309
 20
1983.901670759491
 30
0.0
 10
875.9361195168509
 20
1986.571448568718
 30
0.0
 10
874.9199802688584
 20
1991.924281251363
 30
0.0
 10
874.5616148752008
 20
1997.303668062388
 30
0.0
 10
874.5468756419557
 20
1999.999999999995
 30
0.0
  0
LINE
  5
C4
330
87
100
AcDbEntity
  8
P-SANR-FIXT
100
AcDbLine
 10
874.5468756419557
 20
1999.999999999995
 30
0.0
 11
874.5468756419558
 21
1965.499999999995
 31
0.0
  0
LINE
  5
C5
330
87
100
AcDbEntity
  8
P-SANR-FIXT
100
AcDbLine
 10
874.5468756419558
 20
2034.499999999995
 30
0.0
 11
874.5468756419557
 21
1999.999999999995
 31
0.0
  0
SPLINE
  5
C6
330
87
100
AcDbEntity
  8
P-SANR-FIXT
100
AcDbSpline
210
0.0
220
0.0
230
1.0
 70
     8
 71
     3
 72
     9
 73
     5
 74
     0
 42
0.000000001
 43
0.0000000001
 40
-1.0
 40
-1.0
 40
-1.0
 40
-1.0
 40
-0.5
 40
0.0
 40
0.0
 40
0.0
 40
0.0
 10
874.5468756419557
 20
1999.999999999995
 30
0.0
 10
874.5616148752008
 20
2002.696331937602
 30
0.0
 10
874.9199802688583
 20
2008.075718748627
 30
0.0
 10
875.9361195168509
 20
2013.428551431272
 30
0.0
 10
876.6086326044309
 20
2016.0983292405
 30
0.0
  0
SPLINE
  5
C7
330
87
100
AcDbEntity
  8
P-SANR-FIXT
100
AcDbSpline
210
0.0
220
0.0
230
1.0
 70
     8
 71
     3
 72
    10
 73
     6
 74
     0
 42
0.000000001
 43
0.0000000001
 40
-1.0
 40
-1.0
 40
-1.0
 40
-1.0
 40
-0.6666666666666666
 40
-0.3333333333333333
 40
0.0
 40
0.0
 40
0.0
 40
0.0
 10
876.6086326044309
 20
2021.828711810306
 30
0.0
 10
875.6943410534059
 20
2023.6350970406
 30
0.0
 10
874.4753931259369
 20
2027.235501561101
 30
0.0
 10
874.4845821441575
 20
2032.552196367375
 30
0.0
 10
875.6983713245555
 20
2036.13434656367
 30
0.0
 10
876.6086326044311
 20
2037.92704105081
 30
0.0
  0
SPLINE
  5
C8
330
87
100
AcDbEntity
  8
P-SANR-FIXT
100
AcDbSpline
210
0.0
220
0.0
230
1.0
 70
     8
 71
     3
 72
     9
 73
     5
 74
     0
 42
0.000000001
 43
0.0000000001
 40
0.0
 40
0.0
 40
0.0
 40
0.0
 40
0.5
 40
1.0
 40
1.0
 40
1.0
 40
1.0
 10
933.32887398899
 20
2006.0856351242
 30
0.0
 10
932.4479723109293
 20
2006.107503826636
 30
0.0
 10
930.6896417362738
 20
2006.195621233203
 30
0.0
 10
928.9382567245501
 20
2006.372256491582
 30
0.0
 10
928.064300609421
 20
2006.482575032533
 30
0.0
  0
SPLINE
  5
C9
330
87
100
AcDbEntity
  8
P-SANR-FIXT
100
AcDbSpline
210
0.0
220
0.0
230
1.0
 70
     8
 71
     3
 72
     9
 73
     5
 74
     0
 42
0.000000001
 43
0.0000000001
 40
0.0
 40
0.0
 40
0.0
 40
0.0
 40
0.5
 40
1.0
 40
1.0
 40
1.0
 40
1.0
 10
928.064300609421
 20
2006.482575032533
 30
0.0
 10
927.2252372446091
 20
2007.319381427204
 30
0.0
 10
925.5585130482089
 20
2008.988337108872
 30
0.0
 10
923.9145939182558
 20
2010.63458966358
 30
0.0
 10
923.098335619891
 20
2011.448540022062
 30
0.0
  0
SPLINE
  5
CA
330
87
100
AcDbEntity
  8
P-SANR-FIXT
100
AcDbSpline
210
0.0
220
0.0
230
1.0
 70
     8
 71
     3
 72
    10
 73
     6
 74
     0
 42
0.000000001
 43
0.0000000001
 40
0.0
 40
0.0
 40
0.0
 40
0.0
 40
0.3333333333333333
 40
0.6666666666666666
 40
1.0
 40
1.0
 40
1.0
 40
1.0
 10
952.6934098653715
 20
2005.610799630891
 30
0.0
 10
950.9049306222024
 20
2005.681168774801
 30
0.0
 10
946.9836128681928
 20
2005.739799743987
 30
0.0
 10
940.3401860428088
 20
2005.921697720574
 30
0.0
 10
935.6675456946801
 20
2006.023645125492
 30
0.0
 10
933.32887398899
 20
2006.0856351242
 30
0.0
  0
SPLINE
  5
CB
330
87
100
AcDbEntity
  8
P-SANR-FIXT
100
AcDbSpline
210
0.0
220
0.0
230
1.0
 70
     8
 71
     3
 72
     9
 73
     5
 74
     0
 42
0.000000001
 43
0.0000000001
 40
-1.0
 40
-1.0
 40
-1.0
 40
-1.0
 40
-0.5
 40
0.0
 40
0.0
 40
0.0
 40
0.0
 10
956.0975640977089
 20
2011.58374975041
 30
0.0
 10
955.9633498676285
 20
2010.724284151095
 30
0.0
 10
955.6764467899144
 20
2009.014622765467
 30
0.0
 10
955.3508318543737
 20
2007.323501005843
 30
0.0
 10
955.1778756971462
 20
2006.482575032533
 30
0.0
  0
SPLINE
  5
CC
330
87
100
AcDbEntity
  8
P-SANR-FIXT
100
AcDbSpline
210
0.0
220
0.0
230
1.0
 70
     8
 71
     3
 72
    15
 73
    11
 74
     0
 42
0.000000001
 43
0.0000000001
 40
0.0
 40
0.0
 40
0.0
 40
0.0
 40
0.2
 40
0.3
 40
0.4
 40
0.5
 40
0.6
 40
0.7
 40
0.8
 40
1.0
 40
1.0
 40
1.0
 40
1.0
 10
955.1778756971462
 20
2006.482575032533
 30
0.0
 10
955.0310669981945
 20
2006.382182958039
 30
0.0
 10
954.7941460851687
 20
2006.241995208934
 30
0.0
 10
954.4596918872686
 20
2006.071060209829
 30
0.0
 10
954.2016686540916
 20
2005.954822849124
 30
0.0
 10
953.9391262575113
 20
2005.851658404506
 30
0.0
 10
953.6758250902572
 20
2005.763881452466
 30
0.0
 10
953.4145256010011
 20
2005.693772797186
 30
0.0
 10
953.0754900247275
 20
2005.62539186722
 30
0.0
 10
952.8380444535283
 20
2005.608673415606
 30
0.0
 10
952.6934098653715
 20
2005.610799630891
 30
0.0
  0
SPLINE
  5
CD
330
87
100
AcDbEntity
  8
P-SANR-FIXT
100
AcDbSpline
210
0.0
220
0.0
230
1.0
 70
     8
 71
     3
 72
     8
 73
     4
 74
     0
 42
0.000000001
 43
0.0000000001
 40
0.0
 40
0.0
 40
0.0
 40
0.0
 40
0.125
 40
0.125
 40
0.125
 40
0.125
 10
965.7184485172095
 20
1991.455996254677
 30
0.0
 10
965.3606929921377
 20
1991.576789917759
 30
0.0
 10
965.0159003786191
 20
1991.715501905146
 30
0.0
 10
964.6831789848468
 20
1991.873116290056
 30
0.0
  0
SPLINE
  5
CE
330
87
100
AcDbEntity
  8
P-SANR-FIXT
100
AcDbSpline
210
0.0
220
0.0
230
1.0
 70
     8
 71
     3
 72
     9
 73
     5
 74
     0
 42
0.000000001
 43
0.0000000001
 40
0.25
 40
0.25
 40
0.25
 40
0.25
 40
0.5
 40
0.6876333491394775
 40
0.6876333491394775
 40
0.6876333491394775
 40
0.6876333491394775
 10
963.7203367709597
 20
1992.403650710582
 30
0.0
 10
963.1013954787835
 20
1992.796457216939
 30
0.0
 10
962.1192280508534
 20
1993.636254099282
 30
0.0
 10
961.2590450827637
 20
1994.624012439221
 30
0.0
 10
960.9691798719083
 20
1995.093491466815
 30
0.0
  0
SPLINE
  5
CF
330
87
100
AcDbEntity
  8
P-SANR-FIXT
100
AcDbSpline
210
0.0
220
0.0
230
1.0
 70
     8
 71
     3
 72
     8
 73
     4
 74
     0
 42
0.000000001
 43
0.0000000001
 40
0.7919680276402764
 40
0.7919680276402764
 40
0.7919680276402764
 40
0.7919680276402764
 40
1.0
 40
1.0
 40
1.0
 40
1.0
 10
960.5336274727408
 20
1995.90311815197
 30
0.0
 10
960.2561787140016
 20
1996.446867340612
 30
0.0
 10
960.0344918123006
 20
1997.019820940227
 30
0.0
 10
959.8656348175305
 20
1997.625961721379
 30
0.0
  0
SPLINE
  5
D0
330
87
100
AcDbEntity
  8
P-SANR-FIXT
100
AcDbSpline
210
0.0
220
0.0
230
1.0
 70
     8
 71
     3
 72
    13
 73
     9
 74
     0
 42
0.000000001
 43
0.0000000001
 40
0.0
 40
0.0
 40
0.0
 40
0.0
 40
0.1666666666666666
 40
0.3333333333333333
 40
0.5
 40
0.6666666666666666
 40
0.8333333333333332
 40
1.0
 40
1.0
 40
1.0
 40
1.0
 10
960.5468756419558
 20
2030.999999999995
 30
0.0
 10
960.5368241948488
 20
2030.999999999995
 30
0.0
 10
960.5098455017923
 20
2030.914453421909
 30
0.0
 10
960.4687016181854
 20
2030.530961626785
 30
0.0
 10
960.3670272330417
 20
2029.900149725829
 30
0.0
 10
960.2946043326332
 20
2029.024925840619
 30
0.0
 10
960.3412149032319
 20
2027.901133416293
 30
0.0
 10
960.4117411592927
 20
2026.992841822341
 30
0.0
 10
960.460192681656
 20
2026.499999999995
 30
0.0
  0
SPLINE
  5
D1
330
87
100
AcDbEntity
  8
P-SANR-FIXT
100
AcDbSpline
210
0.0
220
0.0
230
1.0
 70
     8
 71
     3
 72
     9
 73
     5
 74
     0
 42
0.000000001
 43
0.0000000001
 40
0.0
 40
0.0
 40
0.0
 40
0.0
 40
0.5
 40
1.0
 40
1.0
 40
1.0
 40
1.0
 10
960.460192681656
 20
2026.499999999995
 30
0.0
 10
960.3632621790124
 20
2026.405241358844
 30
0.0
 10
960.1672386990145
 20
2026.213578179111
 30
0.0
 10
959.9668902695954
 20
2026.017788812637
 30
0.0
 10
959.8656348175305
 20
2025.918903645612
 30
0.0
  0
SPLINE
  5
D2
330
87
100
AcDbEntity
  8
P-SANR-FIXT
100
AcDbSpline
210
0.0
220
0.0
230
1.0
 70
     8
 71
     3
 72
     8
 73
     4
 74
     0
 42
0.000000001
 43
0.0000000001
 40
0.0
 40
0.0
 40
0.0
 40
0.0
 40
0.2080319723597522
 40
0.2080319723597522
 40
0.2080319723597522
 40
0.2080319723597522
 10
959.8656348175305
 20
2002.374038278611
 30
0.0
 10
960.0344918123008
 20
2002.980179059763
 30
0.0
 10
960.2561787140018
 20
2003.553132659378
 30
0.0
 10
960.533627472741
 20
2004.096881848021
 30
0.0
  0
SPLINE
  5
D3
330
87
100
AcDbEntity
  8
P-SANR-FIXT
100
AcDbSpline
210
0.0
220
0.0
230
1.0
 70
     8
 71
     3
 72
     9
 73
     5
 74
     0
 42
0.000000001
 43
0.0000000001
 40
0.3123666508605082
 40
0.3123666508605082
 40
0.3123666508605082
 40
0.3123666508605082
 40
0.5
 40
0.75
 40
0.75
 40
0.75
 40
0.75
 10
960.9932076466973
 20
2004.893019830936
 30
0.0
 10
961.2936137901131
 20
2005.356581394185
 30
0.0
 10
962.1057715199766
 20
2006.361683894265
 30
0.0
 10
963.0758858994791
 20
2007.243488390773
 30
0.0
 10
963.72033677096
 20
2007.596349289408
 30
0.0
  0
SPLINE
  5
D4
330
87
100
AcDbEntity
  8
P-SANR-FIXT
100
AcDbSpline
210
0.0
220
0.0
230
1.0
 70
     8
 71
     3
 72
     8
 73
     4
 74
     0
 42
0.000000001
 43
0.0000000001
 40
0.875
 40
0.875
 40
0.875
 40
0.875
 40
1.0
 40
1.0
 40
1.0
 40
1.0
 10
964.6831789848469
 20
2008.126883709934
 30
0.0
 10
965.0159003786193
 20
2008.284498094845
 30
0.0
 10
965.3606929921377
 20
2008.423210082231
 30
0.0
 10
965.7184485172095
 20
2008.544003745313
 30
0.0
  0
SPLINE
  5
D5
330
87
100
AcDbEntity
  8
P-SANR-FIXT
100
AcDbSpline
210
0.0
220
0.0
230
1.0
 70
     8
 71
     3
 72
     9
 73
     5
 74
     0
 42
0.000000001
 43
0.0000000001
 40
-1.0
 40
-1.0
 40
-1.0
 40
-1.0
 40
-0.5
 40
0.0
 40
0.0
 40
0.0
 40
0.0
 10
965.7184485172095
 20
2008.544003745313
 30
0.0
 10
965.973864328677
 20
2008.628557197158
 30
0.0
 10
966.4909060356585
 20
2008.773071596882
 30
0.0
 10
966.942250039966
 20
2008.857897680288
 30
0.0
 10
967.1326620795825
 20
2008.888194417311
 30
0.0
  0
SPLINE
  5
D6
330
87
100
AcDbEntity
  8
P-SANR-FIXT
100
AcDbSpline
210
0.0
220
0.0
230
1.0
 70
     8
 71
     3
 72
     9
 73
     5
 74
     0
 42
0.000000001
 43
0.0000000001
 40
-1.0
 40
-1.0
 40
-1.0
 40
-1.0
 40
-0.5
 40
0.0
 40
0.0
 40
0.0
 40
0.0
 10
967.1326620795825
 20
1991.111805582679
 30
0.0
 10
966.942250039966
 20
1991.142102319702
 30
0.0
 10
966.4909060356585
 20
1991.226928403107
 30
0.0
 10
965.9738643286768
 20
1991.371442802832
 30
0.0
 10
965.7184485172093
 20
1991.455996254677
 30
0.0
  0
LINE
  5
D7
330
87
100
AcDbEntity
  8
P-SANR-FIXT
100
AcDbLine
 10
973.6179434538213
 20
2038.07106781186
 30
0.0
 11
973.6179434538213
 21
2037.92704105081
 31
0.0
  0
LINE
  5
D8
330
87
100
AcDbEntity
  8
P-SANR-FIXT
100
AcDbLine
 10
973.6179434538209
 20
2037.92704105081
 30
0.0
 11
992.4851186794811
 21
2037.92704105081
 31
0.0
  0
LINE
  5
D9
330
87
100
AcDbEntity
  8
P-SANR-FIXT
100
AcDbLine
 10
992.4851186794811
 20
1962.07295894918
 30
0.0
 11
973.6179434538209
 21
1962.07295894918
 31
0.0
  0
LINE
  5
DA
330
87
100
AcDbEntity
  8
P-SANR-FIXT
100
AcDbLine
 10
973.6179434538209
 20
1962.07295894918
 30
0.0
 11
973.6179434538209
 21
1961.92893218813
 31
0.0
  0
LINE
  5
DB
330
87
100
AcDbEntity
  8
P-SANR-FIXT
100
AcDbLine
 10
973.6179434538207
 20
1983.901670759492
 30
0.0
 11
973.6179434538207
 21
1978.171288189684
 31
0.0
  0
LINE
  5
DC
330
87
100
AcDbEntity
  8
P-SANR-FIXT
100
AcDbLine
 10
973.6179434538207
 20
1978.171288189684
 30
0.0
 11
992.4851186794809
 21
1978.171288189684
 31
0.0
  0
LINE
  5
DD
330
87
100
AcDbEntity
  8
P-SANR-FIXT
100
AcDbLine
 10
992.4851186794809
 20
1983.901670759492
 30
0.0
 11
973.6179434538207
 21
1983.901670759492
 31
0.0
  0
LINE
  5
DE
330
87
100
AcDbEntity
  8
P-SANR-FIXT
100
AcDbLine
 10
973.6179434538207
 20
2021.828711810307
 30
0.0
 11
973.6179434538207
 21
2016.098329240499
 31
0.0
  0
LINE
  5
DF
330
87
100
AcDbEntity
  8
P-SANR-FIXT
100
AcDbLine
 10
973.6179434538207
 20
2016.098329240499
 30
0.0
 11
992.4851186794809
 21
2016.098329240499
 31
0.0
  0
LINE
  5
E0
330
87
100
AcDbEntity
  8
P-SANR-FIXT
100
AcDbLine
 10
992.4851186794809
 20
2021.828711810307
 30
0.0
 11
973.6179434538207
 21
2021.828711810307
 31
0.0
  0
LINE
  5
E1
330
87
100
AcDbEntity
  8
P-SANR-FIXT
100
AcDbLine
 10
968.5468756419556
 20
1990.762395692961
 30
0.0
 11
976.5468756419556
 21
1995.381197846478
 31
0.0
  0
LINE
  5
E2
330
87
100
AcDbEntity
  8
P-SANR-FIXT
100
AcDbLine
 10
976.5468756419556
 20
1995.381197846478
 30
0.0
 11
976.5468756419556
 21
2004.618802153512
 31
0.0
  0
LINE
  5
E3
330
87
100
AcDbEntity
  8
P-SANR-FIXT
100
AcDbLine
 10
976.5468756419556
 20
2004.618802153512
 30
0.0
 11
968.5468756419558
 21
2009.237604307029
 31
0.0
  0
LINE
  5
E4
330
87
100
AcDbEntity
  8
P-SANR-FIXT
100
AcDbLine
 10
968.5468756419558
 20
2009.237604307029
 30
0.0
 11
960.5468756419558
 21
2004.618802153512
 31
0.0
  0
LINE
  5
E5
330
87
100
AcDbEntity
  8
P-SANR-FIXT
100
AcDbLine
 10
960.5468756419558
 20
2004.618802153512
 30
0.0
 11
960.5468756419556
 21
1995.381197846478
 31
0.0
  0
LINE
  5
E6
330
87
100
AcDbEntity
  8
P-SANR-FIXT
100
AcDbLine
 10
960.5468756419556
 20
1995.381197846478
 30
0.0
 11
968.5468756419556
 21
1990.762395692961
 31
0.0
  0
LINE
  5
E7
330
87
100
AcDbEntity
  8
P-SANR-FIXT
100
AcDbLine
 10
900.5468756419558
 20
1990.762395692961
 30
0.0
 11
908.5468756419558
 21
1995.381197846478
 31
0.0
  0
LINE
  5
E8
330
87
100
AcDbEntity
  8
P-SANR-FIXT
100
AcDbLine
 10
908.5468756419558
 20
1995.381197846478
 30
0.0
 11
908.5468756419556
 21
2004.618802153512
 31
0.0
  0
LINE
  5
E9
330
87
100
AcDbEntity
  8
P-SANR-FIXT
100
AcDbLine
 10
908.5468756419556
 20
2004.618802153512
 30
0.0
 11
900.5468756419558
 21
2009.237604307029
 31
0.0
  0
LINE
  5
EA
330
87
100
AcDbEntity
  8
P-SANR-FIXT
100
AcDbLine
 10
900.5468756419558
 20
2009.237604307029
 30
0.0
 11
892.5468756419558
 21
2004.618802153512
 31
0.0
  0
LINE
  5
EB
330
87
100
AcDbEntity
  8
P-SANR-FIXT
100
AcDbLine
 10
892.5468756419558
 20
2004.618802153512
 30
0.0
 11
892.5468756419558
 21
1995.381197846478
 31
0.0
  0
LINE
  5
EC
330
87
100
AcDbEntity
  8
P-SANR-FIXT
100
AcDbLine
 10
892.5468756419558
 20
1995.381197846478
 30
0.0
 11
900.5468756419558
 21
1990.762395692961
 31
0.0
  0
LINE
  5
ED
330
87
100
AcDbEntity
  8
P-SANR-FIXT
100
AcDbLine
 10
895.4758078300905
 20
2038.071067811861
 30
0.0
 11
895.4758078300905
 21
2037.92704105081
 31
0.0
  0
SPLINE
  5
EE
330
87
100
AcDbEntity
  8
P-SANR-FIXT
100
AcDbSpline
210
0.0
220
0.0
230
1.0
 70
     8
 71
     3
 72
    10
 73
     6
 74
     0
 42
0.000000001
 43
0.0000000001
 40
-1.0
 40
-1.0
 40
-1.0
 40
-1.0
 40
-0.6666666666666666
 40
-0.3333333333333333
 40
0.0
 40
0.0
 40
0.0
 40
0.0
 10
895.4758078300903
 20
2037.92704105081
 30
0.0
 10
897.0388302644032
 20
2036.200467017925
 30
0.0
 10
899.1231498895663
 20
2032.703138936011
 30
0.0
 10
899.1479203293401
 20
2027.101003124267
 30
0.0
 10
897.0496944923741
 20
2023.576024071403
 30
0.0
 10
895.4758078300901
 20
2021.828711810306
 30
0.0
  0
LINE
  5
EF
330
87
100
AcDbEntity
  8
P-SANR-FIXT
100
AcDbLine
 10
895.4758078300901
 20
2021.828711810306
 30
0.0
 11
895.4758078300901
 21
2016.0983292405
 31
0.0
  0
SPLINE
  5
F0
330
87
100
AcDbEntity
  8
P-SANR-FIXT
100
AcDbSpline
210
0.0
220
0.0
230
1.0
 70
     8
 71
     3
 72
     9
 73
     5
 74
     0
 42
0.000000001
 43
0.0000000001
 40
-1.0
 40
-1.0
 40
-1.0
 40
-1.0
 40
-0.5
 40
0.0
 40
0.0
 40
0.0
 40
0.0
 10
895.4758078300901
 20
2016.0983292405
 30
0.0
 10
896.0099140570598
 20
2014.842363206888
 30
0.0
 10
896.9621319958891
 20
2012.341262468824
 30
0.0
 10
897.6823609044982
 20
2009.861824389078
 30
0.0
 10
897.9844781012477
 20
2008.627521013784
 30
0.0
  0
SPLINE
  5
F1
330
87
100
AcDbEntity
  8
P-SANR-FIXT
100
AcDbSpline
210
0.0
220
0.0
230
1.0
 70
     8
 71
     3
 72
     8
 73
     4
 74
     0
 42
0.000000001
 43
0.0000000001
 40
-1.0
 40
-1.0
 40
-1.0
 40
-1.0
 40
-0.75
 40
-0.75
 40
-0.75
 40
-0.75
 10
897.9844781012477
 20
2008.627521013784
 30
0.0
 10
898.2996239629677
 20
2008.721120204067
 30
0.0
 10
898.6214184554761
 20
2008.797826663974
 30
0.0
 10
898.9479519314059
 20
2008.856778244663
 30
0.0
  0
SPLINE
  5
F2
330
87
100
AcDbEntity
  8
P-SANR-FIXT
100
AcDbSpline
210
0.0
220
0.0
230
1.0
 70
     8
 71
     3
 72
     8
 73
     4
 74
     0
 42
0.000000001
 43
0.0000000001
 40
-0.5
 40
-0.5
 40
-0.5
 40
-0.5
 40
-0.4592375801114632
 40
-0.4592375801114632
 40
-0.4592375801114632
 40
-0.4592375801114632
 10
899.9398596620929
 20
2008.979506200237
 30
0.0
 10
899.9943348527722
 20
2008.983187808752
 30
0.0
 10
900.0489089980947
 20
2008.985442953105
 30
0.0
 10
900.1035669009652
 20
2008.986497626625
 30
0.0
  0
SPLINE
  5
F3
330
87
100
AcDbEntity
  8
P-SANR-FIXT
100
AcDbSpline
210
0.0
220
0.0
230
1.0
 70
     8
 71
     3
 72
     8
 73
     4
 74
     0
 42
0.000000001
 43
0.0000000001
 40
-0.2405178156971017
 40
-0.2405178156971017
 40
-0.2405178156971017
 40
-0.2405178156971017
 40
0.0
 40
0.0
 40
0.0
 40
0.0
 10
900.9869026610326
 20
2008.989173134835
 30
0.0
 10
901.311737327542
 20
2008.973277293278
 30
0.0
 10
901.6371092935198
 20
2008.939743332905
 30
0.0
 10
901.961089204329
 20
2008.888194417311
 30
0.0
  0
SPLINE
  5
F4
330
87
100
AcDbEntity
  8
P-SANR-FIXT
100
AcDbSpline
210
0.0
220
0.0
230
1.0
 70
     8
 71
     3
 72
     8
 73
     4
 74
     0
 42
0.000000001
 43
0.0000000001
 40
-0.5407624198885792
 40
-0.5407624198885792
 40
-0.5407624198885792
 40
-0.5407624198885792
 40
-0.5
 40
-0.5
 40
-0.5
 40
-0.5
 10
900.1035014976794
 20
1991.010935620728
 30
0.0
 10
900.0488852619108
 20
1991.013625520101
 30
0.0
 10
899.9942183627869
 20
1991.016375754679
 30
0.0
 10
899.9398596620928
 20
1991.020493799753
 30
0.0
  0
SPLINE
  5
F5
330
87
100
AcDbEntity
  8
P-SANR-FIXT
100
AcDbSpline
210
0.0
220
0.0
230
1.0
 70
     8
 71
     3
 72
     8
 73
     4
 74
     0
 42
0.000000001
 43
0.0000000001
 40
-0.25
 40
-0.25
 40
-0.25
 40
-0.25
 40
0.0
 40
0.0
 40
0.0
 40
0.0
 10
898.9479519314059
 20
1991.143221755327
 30
0.0
 10
898.6214184554761
 20
1991.202173336017
 30
0.0
 10
898.2996239629677
 20
1991.278879795923
 30
0.0
 10
897.9844781012475
 20
1991.372478986206
 30
0.0
  0
SPLINE
  5
F6
330
87
100
AcDbEntity
  8
P-SANR-FIXT
100
AcDbSpline
210
0.0
220
0.0
230
1.0
 70
     8
 71
     3
 72
     9
 73
     5
 74
     0
 42
0.000000001
 43
0.0000000001
 40
-1.0
 40
-1.0
 40
-1.0
 40
-1.0
 40
-0.5
 40
0.0
 40
0.0
 40
0.0
 40
0.0
 10
897.9844781012475
 20
1991.372478986206
 30
0.0
 10
897.6796684314944
 20
1990.130188265783
 30
0.0
 10
896.9567470498816
 20
1987.642762840907
 30
0.0
 10
896.0072215840561
 20
1985.149649447973
 30
0.0
 10
895.4758078300901
 20
1983.901670759491
 30
0.0
  0
LINE
  5
F7
330
87
100
AcDbEntity
  8
P-SANR-FIXT
100
AcDbLine
 10
895.4758078300901
 20
1983.901670759491
 30
0.0
 11
895.4758078300901
 21
1978.171288189684
 31
0.0
  0
SPLINE
  5
F8
330
87
100
AcDbEntity
  8
P-SANR-FIXT
100
AcDbSpline
210
0.0
220
0.0
230
1.0
 70
     8
 71
     3
 72
    10
 73
     6
 74
     0
 42
0.000000001
 43
0.0000000001
 40
-1.0
 40
-1.0
 40
-1.0
 40
-1.0
 40
-0.6666666666666666
 40
-0.3333333333333333
 40
0.0
 40
0.0
 40
0.0
 40
0.0
 10
895.4758078300901
 20
1978.171288189684
 30
0.0
 10
897.0388302644032
 20
1976.444714156799
 30
0.0
 10
899.1231498895661
 20
1972.947386074885
 30
0.0
 10
899.1479203293401
 20
1967.34525026314
 30
0.0
 10
897.0496944923741
 20
1963.820271210277
 30
0.0
 10
895.4758078300903
 20
1962.07295894918
 30
0.0
  0
LINE
  5
F9
330
87
100
AcDbEntity
  8
P-SANR-FIXT
100
AcDbLine
 10
895.4758078300903
 20
1962.07295894918
 30
0.0
 11
895.4758078300903
 21
1961.928932188129
 31
0.0
  0
SPLINE
  5
FA
330
87
100
AcDbEntity
  8
P-SANR-FIXT
100
AcDbSpline
210
0.0
220
0.0
230
1.0
 70
     8
 71
     3
 72
     8
 73
     4
 74
     0
 42
0.000000001
 43
0.0000000001
 40
-0.8079064991344353
 40
-0.8079064991344353
 40
-0.8079064991344353
 40
-0.8079064991344353
 40
-0.75
 40
-0.75
 40
-0.75
 40
-0.75
 10
903.0810928454195
 20
1991.364266917875
 30
0.0
 10
903.0515994216932
 20
1991.355620725897
 30
0.0
 10
903.0219002038107
 20
1991.34698030033
 30
0.0
 10
902.9921728149409
 20
1991.338446469425
 30
0.0
  0
SPLINE
  5
FB
330
87
100
AcDbEntity
  8
P-SANR-FIXT
100
AcDbSpline
210
0.0
220
0.0
230
1.0
 70
     8
 71
     3
 72
     8
 73
     4
 74
     0
 42
0.000000001
 43
0.0000000001
 40
-0.25
 40
-0.25
 40
-0.25
 40
-0.25
 40
0.0
 40
0.0
 40
0.0
 40
0.0
 10
902.2711622485152
 20
1991.166761371844
 30
0.0
 10
902.1605712101719
 20
1991.145177951269
 30
0.0
 10
902.0564183652428
 20
1991.126973544351
 30
0.0
 10
901.961089204329
 20
1991.111805582679
 30
0.0
  0
SPLINE
  5
FC
330
87
100
AcDbEntity
  8
P-SANR-FIXT
100
AcDbSpline
210
0.0
220
0.0
230
1.0
 70
     8
 71
     3
 72
     9
 73
     5
 74
     0
 42
0.000000001
 43
0.0000000001
 40
-1.0
 40
-1.0
 40
-1.0
 40
-1.0
 40
-0.5
 40
0.0
 40
0.0
 40
0.0
 40
0.0
 10
901.961089204329
 20
2008.888194417311
 30
0.0
 10
902.1517475261568
 20
2008.857858493967
 30
0.0
 10
902.6036536419326
 20
2008.772895085311
 30
0.0
 10
903.1204030027312
 20
2008.628386363579
 30
0.0
 10
903.3753027667019
 20
2008.544003745313
 30
0.0
  0
LINE
  5
FD
330
87
100
AcDbEntity
  8
P-SANR-FIXT
100
AcDbLine
 10
895.4758078300903
 20
1962.07295894918
 30
0.0
 11
876.6086326044311
 21
1962.07295894918
 31
0.0
  0
LINE
  5
FE
330
87
100
AcDbEntity
  8
P-SANR-FIXT
100
AcDbLine
 10
876.6086326044311
 20
1961.928932188129
 30
0.0
 11
876.6086326044311
 21
1962.07295894918
 31
0.0
  0
LINE
  5
FF
330
87
100
AcDbEntity
  8
P-SANR-FIXT
100
AcDbLine
 10
876.6086326044309
 20
2037.92704105081
 30
0.0
 11
876.6086326044309
 21
2038.071067811861
 31
0.0
  0
LINE
  5
100
330
87
100
AcDbEntity
  8
P-SANR-FIXT
100
AcDbLine
 10
876.6086326044311
 20
2037.92704105081
 30
0.0
 11
895.4758078300903
 21
2037.92704105081
 31
0.0
  0
LINE
  5
101
330
87
100
AcDbEntity
  8
P-SANR-FIXT
100
AcDbLine
 10
876.6086326044309
 20
1978.171288189684
 30
0.0
 11
876.6086326044309
 21
1983.90167075949
 31
0.0
  0
LINE
  5
102
330
87
100
AcDbEntity
  8
P-SANR-FIXT
100
AcDbLine
 10
876.6086326044309
 20
1978.171288189684
 30
0.0
 11
895.4758078300901
 21
1978.171288189684
 31
0.0
  0
LINE
  5
103
330
87
100
AcDbEntity
  8
P-SANR-FIXT
100
AcDbLine
 10
895.4758078300901
 20
1983.901670759491
 30
0.0
 11
876.6086326044309
 21
1983.901670759491
 31
0.0
  0
LINE
  5
104
330
87
100
AcDbEntity
  8
P-SANR-FIXT
100
AcDbLine
 10
876.6086326044309
 20
2016.0983292405
 30
0.0
 11
876.6086326044309
 21
2021.828711810306
 31
0.0
  0
LINE
  5
105
330
87
100
AcDbEntity
  8
P-SANR-FIXT
100
AcDbLine
 10
876.6086326044309
 20
2016.0983292405
 30
0.0
 11
895.4758078300901
 21
2016.0983292405
 31
0.0
  0
LINE
  5
106
330
87
100
AcDbEntity
  8
P-SANR-FIXT
100
AcDbLine
 10
895.4758078300901
 20
2021.828711810306
 30
0.0
 11
876.6086326044309
 21
2021.828711810306
 31
0.0
  0
SPLINE
  5
107
330
87
100
AcDbEntity
  8
P-SANR-FIXT
100
AcDbSpline
210
0.0
220
0.0
230
1.0
 70
     8
 71
     3
 72
     8
 73
     4
 74
     0
 42
0.000000001
 43
0.0000000001
 40
0.0
 40
0.0
 40
0.0
 40
0.0
 40
0.2080705848794867
 40
0.2080705848794867
 40
0.2080705848794867
 40
0.2080705848794867
 10
909.2281164663809
 20
1997.625961721379
 30
0.0
 10
909.0592987167022
 20
1997.019854645677
 30
0.0
 10
908.8376212251239
 20
1996.446910192172
 30
0.0
 10
908.5601319687519
 20
1995.90311369661
 30
0.0
  0
SPLINE
  5
108
330
87
100
AcDbEntity
  8
P-SANR-FIXT
100
AcDbSpline
210
0.0
220
0.0
230
1.0
 70
     8
 71
     3
 72
     8
 73
     4
 74
     0
 42
0.000000001
 43
0.0000000001
 40
0.375
 40
0.375
 40
0.375
 40
0.375
 40
0.4313481553803694
 40
0.4313481553803694
 40
0.4313481553803694
 40
0.4313481553803694
 10
907.7855330242126
 20
1994.652148761048
 30
0.0
 10
907.6867729994194
 20
1994.518490961532
 30
0.0
 10
907.5831838801958
 20
1994.388918857621
 30
0.0
 10
907.4764054176105
 20
1994.261734577293
 30
0.0
  0
SPLINE
  5
109
330
87
100
AcDbEntity
  8
P-SANR-FIXT
100
AcDbSpline
210
0.0
220
0.0
230
1.0
 70
     8
 71
     3
 72
     8
 73
     4
 74
     0
 42
0.000000001
 43
0.0000000001
 40
0.5
 40
0.5
 40
0.5
 40
0.5
 40
0.5492344411668259
 40
0.5492344411668259
 40
0.5492344411668259
 40
0.5492344411668259
 10
907.0748872959054
 20
1993.804431919028
 30
0.0
 10
906.9748274162147
 20
1993.698983699679
 30
0.0
 10
906.8739735473652
 20
1993.59338197099
 30
0.0
 10
906.7714432196551
 20
1993.489288734556
 30
0.0
  0
SPLINE
  5
10A
330
87
100
AcDbEntity
  8
P-SANR-FIXT
100
AcDbSpline
210
0.0
220
0.0
230
1.0
 70
     8
 71
     3
 72
     8
 73
     4
 74
     0
 42
0.000000001
 43
0.0000000001
 40
0.625
 40
0.625
 40
0.625
 40
0.625
 40
0.6708186045291874
 40
0.6708186045291874
 40
0.6708186045291874
 40
0.6708186045291874
 10
906.2658744278595
 20
1993.050654198394
 30
0.0
 10
906.1616217765143
 20
1992.964839246205
 30
0.0
 10
906.0569314060032
 20
1992.879181492116
 30
0.0
 10
905.9503677417612
 20
1992.796242690314
 30
0.0
  0
SPLINE
  5
10B
330
87
100
AcDbEntity
  8
P-SANR-FIXT
100
AcDbSpline
210
0.0
220
0.0
230
1.0
 70
     8
 71
     3
 72
     8
 73
     4
 74
     0
 42
0.000000001
 43
0.0000000001
 40
0.75
 40
0.75
 40
0.75
 40
0.75
 40
0.7925111112347799
 40
0.7925111112347799
 40
0.7925111112347799
 40
0.7925111112347799
 10
905.3737009846306
 20
1992.403832735426
 30
0.0
 10
905.2684503688887
 20
1992.337034013057
 30
0.0
 10
905.1595542754347
 20
1992.276129539487
 30
0.0
 10
905.0481765513557
 20
1992.219246565833
 30
0.0
  0
SPLINE
  5
10C
330
87
100
AcDbEntity
  8
P-SANR-FIXT
100
AcDbSpline
210
0.0
220
0.0
230
1.0
 70
     8
 71
     3
 72
     8
 73
     4
 74
     0
 42
0.000000001
 43
0.0000000001
 40
0.875
 40
0.875
 40
0.875
 40
0.875
 40
0.9138579811737379
 40
0.9138579811737379
 40
0.9138579811737379
 40
0.9138579811737379
 10
904.4107676041461
 20
1991.873230082725
 30
0.0
 10
904.3073210939454
 20
1991.824223582951
 30
0.0
 10
904.2010189714972
 20
1991.779474104582
 30
0.0
 10
904.093408298357
 20
1991.736684996749
 30
0.0
  0
SPLINE
  5
10D
330
87
100
AcDbEntity
  8
P-SANR-FIXT
100
AcDbSpline
210
0.0
220
0.0
230
1.0
 70
     8
 71
     3
 72
     8
 73
     4
 74
     0
 42
0.000000001
 43
0.0000000001
 40
0.0
 40
0.0
 40
0.0
 40
0.0
 40
0.125
 40
0.125
 40
0.125
 40
0.125
 10
903.3753027667019
 20
2008.544003745313
 30
0.0
 10
903.7331367952445
 20
2008.423167482276
 30
0.0
 10
904.0779964877751
 20
2008.284416101825
 30
0.0
 10
904.4107676041459
 20
2008.126769917265
 30
0.0
  0
SPLINE
  5
10E
330
87
100
AcDbEntity
  8
P-SANR-FIXT
100
AcDbSpline
210
0.0
220
0.0
230
1.0
 70
     8
 71
     3
 72
     9
 73
     5
 74
     0
 42
0.000000001
 43
0.0000000001
 40
0.25
 40
0.25
 40
0.25
 40
0.25
 40
0.5
 40
0.6875931485135977
 40
0.6875931485135977
 40
0.6875931485135977
 40
0.6875931485135977
 10
905.3737009846303
 20
2007.596167264564
 30
0.0
 10
905.9926604324362
 20
2007.20333630562
 30
0.0
 10
906.9745942521789
 20
2006.363679266709
 30
0.0
 10
907.8347592065636
 20
2005.375843028938
 30
0.0
 10
908.1245861224239
 20
2004.906475712285
 30
0.0
  0
SPLINE
  5
10F
330
87
100
AcDbEntity
  8
P-SANR-FIXT
100
AcDbSpline
210
0.0
220
0.0
230
1.0
 70
     8
 71
     3
 72
     8
 73
     4
 74
     0
 42
0.000000001
 43
0.0000000001
 40
0.875
 40
0.875
 40
0.875
 40
0.875
 40
0.9089960144153343
 40
0.9089960144153343
 40
0.9089960144153343
 40
0.9089960144153343
 10
908.8659879430032
 20
2003.431373017132
 30
0.0
 10
908.9041216284632
 20
2003.338616522877
 30
0.0
 10
908.9387171114552
 20
2003.243784220916
 30
0.0
 10
908.9714841476945
 20
2003.14788248446
 30
0.0
  0
SPLINE
  5
110
330
87
100
AcDbEntity
  8
P-SANR-FIXT
100
AcDbSpline
210
0.0
220
0.0
230
1.0
 70
     8
 71
     3
 72
     9
 73
     5
 74
     0
 42
0.000000001
 43
0.0000000001
 40
0.0
 40
0.0
 40
0.0
 40
0.0
 40
0.5
 40
1.0
 40
1.0
 40
1.0
 40
1.0
 10
909.2281164663809
 20
2025.918903645612
 30
0.0
 10
909.1268610143163
 20
2026.017788812637
 30
0.0
 10
908.9265125848973
 20
2026.213578179111
 30
0.0
 10
908.7304891048997
 20
2026.405241358845
 30
0.0
 10
908.6335586022562
 20
2026.499999999995
 30
0.0
  0
SPLINE
  5
111
330
87
100
AcDbEntity
  8
P-SANR-FIXT
100
AcDbSpline
210
0.0
220
0.0
230
1.0
 70
     8
 71
     3
 72
    13
 73
     9
 74
     0
 42
0.000000001
 43
0.0000000001
 40
0.0
 40
0.0
 40
0.0
 40
0.0
 40
0.1666666666666666
 40
0.3333333333333333
 40
0.5
 40
0.6666666666666666
 40
0.8333333333333332
 40
1.0
 40
1.0
 40
1.0
 40
1.0
 10
908.6335586022562
 20
2026.499999999995
 30
0.0
 10
908.6820101246196
 20
2026.992841822341
 30
0.0
 10
908.7525363806804
 20
2027.901133416293
 30
0.0
 10
908.7991469512791
 20
2029.024925840619
 30
0.0
 10
908.7267240508706
 20
2029.900149725829
 30
0.0
 10
908.6250496657269
 20
2030.530961626785
 30
0.0
 10
908.5839057821198
 20
2030.914453421909
 30
0.0
 10
908.5569270890632
 20
2030.999999999995
 30
0.0
 10
908.546875641956
 20
2030.999999999995
 30
0.0
  0
SPLINE
  5
112
330
87
100
AcDbEntity
  8
P-SANR-FIXT
100
AcDbSpline
210
0.0
220
0.0
230
1.0
 70
     8
 71
     3
 72
     9
 73
     5
 74
     0
 42
0.000000001
 43
0.0000000001
 40
-1.0
 40
-1.0
 40
-1.0
 40
-1.0
 40
-0.5
 40
0.0
 40
0.0
 40
0.0
 40
0.0
 10
909.9421904697523
 20
2024.604685172199
 30
0.0
 10
909.8225562755651
 20
2024.828231435223
 30
0.0
 10
909.5837203608002
 20
2025.270814110482
 30
0.0
 10
909.3463148314974
 20
2025.704377084165
 30
0.0
 10
909.2281164663811
 20
2025.918903645612
 30
0.0
  0
LINE
  5
113
330
87
100
AcDbEntity
  8
P-SANR-FIXT
100
AcDbLine
 10
909.2281164663809
 20
2002.374038278611
 30
0.0
 11
909.2281164663809
 21
2025.918903645612
 31
0.0
  0
SPLINE
  5
114
330
87
100
AcDbEntity
  8
P-SANR-FIXT
100
AcDbSpline
210
0.0
220
0.0
230
1.0
 70
     8
 71
     3
 72
     8
 73
     4
 74
     0
 42
0.000000001
 43
0.0000000001
 40
-1.0
 40
-1.0
 40
-1.0
 40
-1.0
 40
-0.8926583994775473
 40
-0.8926583994775473
 40
-0.8926583994775473
 40
-0.8926583994775473
 10
909.2281164663809
 20
2002.374038278611
 30
0.0
 10
909.2507226538549
 20
2002.291373327776
 30
0.0
 10
909.2721538073144
 20
2002.2083577482
 30
0.0
 10
909.2924005709212
 20
2002.125025501837
 30
0.0
  0
SPLINE
  5
115
330
87
100
AcDbEntity
  8
P-SANR-FIXT
100
AcDbSpline
210
0.0
220
0.0
230
1.0
 70
     8
 71
     3
 72
     8
 73
     4
 74
     0
 42
0.000000001
 43
0.0000000001
 40
-0.5
 40
-0.5
 40
-0.5
 40
-0.5
 40
-0.4454594012175403
 40
-0.4454594012175403
 40
-0.4454594012175403
 40
-0.4454594012175403
 10
909.4665866797591
 20
2001.199481138693
 30
0.0
 10
909.4724077694902
 20
2001.156193526194
 30
0.0
 10
909.4773479839089
 20
2001.112809566447
 30
0.0
 10
909.481592002556
 20
2001.069349151518
 30
0.0
  0
SPLINE
  5
116
330
87
100
AcDbEntity
  8
P-SANR-FIXT
100
AcDbSpline
210
0.0
220
0.0
230
1.0
 70
     8
 71
     3
 72
     8
 73
     4
 74
     0
 42
0.000000001
 43
0.0000000001
 40
-0.5
 40
-0.5
 40
-0.5
 40
-0.5
 40
-0.4039603946684833
 40
-0.4039603946684833
 40
-0.4039603946684833
 40
-0.4039603946684833
 10
909.4665866797591
 20
1998.800518861298
 30
0.0
 10
909.4563364226502
 20
1998.724294446587
 30
0.0
 10
909.4435679908421
 20
1998.648594950535
 30
0.0
 10
909.4291770279923
 20
1998.573230985362
 30
0.0
  0
LINE
  5
117
330
87
100
AcDbEntity
  8
P-SANR-FIXT
100
AcDbLine
 10
909.2281164663811
 20
1968.999999999995
 30
0.0
 11
909.2281164663809
 21
1997.625961721379
 31
0.0
  0
SPLINE
  5
118
330
87
100
AcDbEntity
  8
P-SANR-FIXT
100
AcDbSpline
210
0.0
220
0.0
230
1.0
 70
     8
 71
     3
 72
    10
 73
     6
 74
     0
 42
0.000000001
 43
0.0000000001
 40
0.0
 40
0.0
 40
0.0
 40
0.0
 40
0.3333333333333333
 40
0.6666666666666666
 40
1.0
 40
1.0
 40
1.0
 40
1.0
 10
923.098335619891
 20
2011.448540022061
 30
0.0
 10
921.4652633252498
 20
2013.05771220574
 30
0.0
 10
918.3119830616245
 20
2016.250453844883
 30
0.0
 10
913.8136330115694
 20
2020.714628370873
 30
0.0
 10
911.1831584716291
 20
2023.396776266136
 30
0.0
 10
909.9421904697519
 20
2024.604685172199
 30
0.0
  0
LINE
  5
119
330
87
100
AcDbEntity
  8
P-SANR-FIXT
100
AcDbLine
 10
909.9421904697523
 20
1969.499999999995
 30
0.0
 11
909.9421904697519
 21
2024.604685172199
 31
0.0
  0
SPLINE
  5
11A
330
87
100
AcDbEntity
  8
P-SANR-FIXT
100
AcDbSpline
210
0.0
220
0.0
230
1.0
 70
     8
 71
     3
 72
     9
 73
     5
 74
     0
 42
0.000000001
 43
0.0000000001
 40
-1.0
 40
-1.0
 40
-1.0
 40
-1.0
 40
-0.5
 40
0.0
 40
0.0
 40
0.0
 40
0.0
 10
957.986249575959
 20
2022.367308692762
 30
0.0
 10
957.6076607295348
 20
2020.601102797879
 30
0.0
 10
956.9042835794542
 20
2017.037637079271
 30
0.0
 10
956.3396343226342
 20
2013.412063502978
 30
0.0
 10
956.0975640977089
 20
2011.58374975041
 30
0.0
  0
SPLINE
  5
11B
330
87
100
AcDbEntity
  8
P-SANR-FIXT
100
AcDbSpline
210
0.0
220
0.0
230
1.0
 70
     8
 71
     3
 72
     8
 73
     4
 74
     0
 42
0.000000001
 43
0.0000000001
 40
-0.5967997150506975
 40
-0.5967997150506975
 40
-0.5967997150506975
 40
-0.5967997150506975
 40
-0.5
 40
-0.5
 40
-0.5
 40
-0.5
 10
959.6607795572612
 20
1998.57267960363
 30
0.0
 10
959.6484824771509
 20
1998.649228435897
 30
0.0
 10
959.6363392011229
 20
1998.725879410296
 30
0.0
 10
959.6268633763358
 20
1998.802761017506
 30
0.0
  0
SPLINE
  5
11C
330
87
100
AcDbEntity
  8
P-SANR-FIXT
100
AcDbSpline
210
0.0
220
0.0
230
1.0
 70
     8
 71
     3
 72
     8
 73
     4
 74
     0
 42
0.000000001
 43
0.0000000001
 40
-0.5
 40
-0.5
 40
-0.5
 40
-0.5
 40
-0.4034647143632816
 40
-0.4034647143632816
 40
-0.4034647143632816
 40
-0.4034647143632816
 10
959.6268633763358
 20
2001.197238982484
 30
0.0
 10
959.6371473345342
 20
2001.273859385506
 30
0.0
 10
959.6499940591414
 20
2001.350021042776
 30
0.0
 10
959.6644875489539
 20
2001.42589066335
 30
0.0
  0
SPLINE
  5
11D
330
87
100
AcDbEntity
  8
P-SANR-FIXT
100
AcDbSpline
210
0.0
220
0.0
230
1.0
 70
     8
 71
     3
 72
    10
 73
     6
 74
     0
 42
0.000000001
 43
0.0000000001
 40
-1.0
 40
-1.0
 40
-1.0
 40
-1.0
 40
-0.4
 40
-0.2
 40
0.0
 40
0.0
 40
0.0
 40
0.0
 10
959.8656348175307
 20
2025.918903645612
 30
0.0
 10
959.388850503881
 20
2025.451152953825
 30
0.0
 10
958.7893849571589
 20
2024.608144484561
 30
0.0
 10
958.2212430998502
 20
2023.263040871263
 30
0.0
 10
958.0550769747544
 20
2022.674710849898
 30
0.0
 10
957.986249575959
 20
2022.367308692762
 30
0.0
  0
SPLINE
  5
11E
330
87
100
AcDbEntity
  8
P-SANR-FIXT
100
AcDbSpline
210
0.0
220
0.0
230
1.0
 70
     8
 71
     3
 72
    10
 73
     6
 74
     0
 42
0.000000001
 43
0.0000000001
 40
-1.0
 40
-1.0
 40
-1.0
 40
-1.0
 40
-0.6666666666666666
 40
-0.3333333333333333
 40
0.0
 40
0.0
 40
0.0
 40
0.0
 10
973.6179434538209
 20
1962.07295894918
 30
0.0
 10
972.0440567915373
 20
1963.820271210277
 30
0.0
 10
969.9458309545716
 20
1967.345250263141
 30
0.0
 10
969.9706013943453
 20
1972.947386074884
 30
0.0
 10
972.0549210195081
 20
1976.444714156799
 30
0.0
 10
973.6179434538207
 20
1978.171288189684
 30
0.0
  0
SPLINE
  5
11F
330
87
100
AcDbEntity
  8
P-SANR-FIXT
100
AcDbSpline
210
0.0
220
0.0
230
1.0
 70
     8
 71
     3
 72
     9
 73
     5
 74
     0
 42
0.000000001
 43
0.0000000001
 40
-1.0
 40
-1.0
 40
-1.0
 40
-1.0
 40
-0.5
 40
-0.0010384855864133
 40
-0.0010384855864133
 40
-0.0010384855864133
 40
-0.0010384855864133
 10
973.6179434538207
 20
1983.901670759492
 30
0.0
 10
973.0827876693226
 20
1985.160752215518
 30
0.0
 10
972.1305101275197
 20
1987.662367783609
 30
0.0
 10
971.4118347891178
 20
1990.136147752472
 30
0.0
 10
971.1111498664457
 20
1991.364807470301
 30
0.0
  0
SPLINE
  5
120
330
87
100
AcDbEntity
  8
P-SANR-FIXT
100
AcDbSpline
210
0.0
220
0.0
230
1.0
 70
     8
 71
     3
 72
     8
 73
     4
 74
     0
 42
0.000000001
 43
0.0000000001
 40
-1.0
 40
-1.0
 40
-1.0
 40
-1.0
 40
-0.9932637393519222
 40
-0.9932637393519222
 40
-0.9932637393519222
 40
-0.9932637393519222
 10
971.1092731826639
 20
1991.372478986206
 30
0.0
 10
971.100794616766
 20
1991.369960828745
 30
0.0
 10
971.0923111452322
 20
1991.367454870392
 30
0.0
 10
971.083822805185
 20
1991.364961128802
 30
0.0
  0
SPLINE
  5
121
330
87
100
AcDbEntity
  8
P-SANR-FIXT
100
AcDbSpline
210
0.0
220
0.0
230
1.0
 70
     8
 71
     3
 72
     8
 73
     4
 74
     0
 42
0.000000001
 43
0.0000000001
 40
-0.75
 40
-0.75
 40
-0.75
 40
-0.75
 40
-0.7247071585376917
 40
-0.7247071585376917
 40
-0.7247071585376917
 40
-0.7247071585376917
 10
970.1469161982922
 20
1991.143422714612
 30
0.0
 10
970.113906272202
 20
1991.137458864917
 30
0.0
 10
970.0808636864994
 20
1991.131490260512
 30
0.0
 10
970.0477852230603
 20
1991.12557428253
 30
0.0
  0
SPLINE
  5
122
330
87
100
AcDbEntity
  8
P-SANR-FIXT
100
AcDbSpline
210
0.0
220
0.0
230
1.0
 70
     8
 71
     3
 72
     8
 73
     4
 74
     0
 42
0.000000001
 43
0.0000000001
 40
-0.5
 40
-0.5
 40
-0.5
 40
-0.5
 40
-0.458901586231375
 40
-0.458901586231375
 40
-0.458901586231375
 40
-0.458901586231375
 10
969.1554041691846
 20
1991.020596176158
 30
0.0
 10
969.1004805554038
 20
1991.016875044639
 30
0.0
 10
969.0454466564672
 20
1991.014604908865
 30
0.0
 10
968.9903195862614
 20
1991.013554043501
 30
0.0
  0
SPLINE
  5
123
330
87
100
AcDbEntity
  8
P-SANR-FIXT
100
AcDbSpline
210
0.0
220
0.0
230
1.0
 70
     8
 71
     3
 72
     8
 73
     4
 74
     0
 42
0.000000001
 43
0.0000000001
 40
-0.2402149602358286
 40
-0.2402149602358286
 40
-0.2402149602358286
 40
-0.2402149602358286
 40
0.0
 40
0.0
 40
0.0
 40
0.0
 10
968.1067244194458
 20
1991.010833225289
 30
0.0
 10
967.7820436525609
 20
1991.026725763458
 30
0.0
 10
967.4567135661387
 20
1991.060245278564
 30
0.0
 10
967.1326620795825
 20
1991.111805582679
 30
0.0
  0
SPLINE
  5
124
330
87
100
AcDbEntity
  8
P-SANR-FIXT
100
AcDbSpline
210
0.0
220
0.0
230
1.0
 70
     8
 71
     3
 72
     8
 73
     4
 74
     0
 42
0.000000001
 43
0.0000000001
 40
-1.0
 40
-1.0
 40
-1.0
 40
-1.0
 40
-0.7597850397641299
 40
-0.7597850397641299
 40
-0.7597850397641299
 40
-0.7597850397641299
 10
967.1326620795825
 20
2008.888194417311
 30
0.0
 10
967.4567135661387
 20
2008.939754721426
 30
0.0
 10
967.782043652561
 20
2008.973274236532
 30
0.0
 10
968.106724419446
 20
2008.989166774701
 30
0.0
  0
SPLINE
  5
125
330
87
100
AcDbEntity
  8
P-SANR-FIXT
100
AcDbSpline
210
0.0
220
0.0
230
1.0
 70
     8
 71
     3
 72
     8
 73
     4
 74
     0
 42
0.000000001
 43
0.0000000001
 40
-0.5410984137685475
 40
-0.5410984137685475
 40
-0.5410984137685475
 40
-0.5410984137685475
 40
-0.5
 40
-0.5
 40
-0.5
 40
-0.5
 10
968.9904028687182
 20
2008.989056523472
 30
0.0
 10
969.0454769034959
 20
2008.986343212705
 30
0.0
 10
969.1006019016397
 20
2008.983567094211
 30
0.0
 10
969.1554041691844
 20
2008.979403823833
 30
0.0
  0
SPLINE
  5
126
330
87
100
AcDbEntity
  8
P-SANR-FIXT
100
AcDbSpline
210
0.0
220
0.0
230
1.0
 70
     8
 71
     3
 72
     8
 73
     4
 74
     0
 42
0.000000001
 43
0.0000000001
 40
-0.25
 40
-0.25
 40
-0.25
 40
-0.25
 40
0.0
 40
0.0
 40
0.0
 40
0.0
 10
970.1469161982922
 20
2008.856577285378
 30
0.0
 10
970.4731935576324
 20
2008.797629285162
 30
0.0
 10
970.7946117428503
 20
2008.720976329424
 30
0.0
 10
971.1092731826639
 20
2008.627521013784
 30
0.0
  0
SPLINE
  5
127
330
87
100
AcDbEntity
  8
P-SANR-FIXT
100
AcDbSpline
210
0.0
220
0.0
230
1.0
 70
     8
 71
     3
 72
     9
 73
     5
 74
     0
 42
0.000000001
 43
0.0000000001
 40
-1.0
 40
-1.0
 40
-1.0
 40
-1.0
 40
-0.5
 40
0.0
 40
0.0
 40
0.0
 40
0.0
 10
971.1092731826639
 20
2008.627521013784
 30
0.0
 10
971.4152803185513
 20
2009.873361868558
 30
0.0
 10
972.1393991662983
 20
2012.364337427783
 30
0.0
 10
973.0877271659894
 20
2014.853900686367
 30
0.0
 10
973.6179434538207
 20
2016.098329240499
 30
0.0
  0
SPLINE
  5
128
330
87
100
AcDbEntity
  8
P-SANR-FIXT
100
AcDbSpline
210
0.0
220
0.0
230
1.0
 70
     8
 71
     3
 72
    10
 73
     6
 74
     0
 42
0.000000001
 43
0.0000000001
 40
-1.0
 40
-1.0
 40
-1.0
 40
-1.0
 40
-0.6666666666666666
 40
-0.3333333333333333
 40
0.0
 40
0.0
 40
0.0
 40
0.0
 10
973.6179434538207
 20
2021.828711810307
 30
0.0
 10
972.0440567915371
 20
2023.576024071404
 30
0.0
 10
969.9458309545715
 20
2027.101003124267
 30
0.0
 10
969.9706013943453
 20
2032.703138936011
 30
0.0
 10
972.0549210195082
 20
2036.200467017925
 30
0.0
 10
973.6179434538209
 20
2037.92704105081
 30
0.0
  0
SPLINE
  5
129
330
87
100
AcDbEntity
  8
P-SANR-FIXT
100
AcDbSpline
210
0.0
220
0.0
230
1.0
 70
     8
 71
     3
 72
     8
 73
     4
 74
     0
 42
0.000000001
 43
0.0000000001
 40
-0.6963911121042989
 40
-0.6963911121042989
 40
-0.6963911121042989
 40
-0.6963911121042989
 40
-0.6902655681075314
 40
-0.6902655681075314
 40
-0.6902655681075314
 40
-0.6902655681075314
 10
994.2184619900757
 20
1966.961534735119
 30
0.0
 10
994.2250561874212
 20
1966.994305261861
 30
0.0
 10
994.2314989664078
 20
1967.027073759559
 30
0.0
 10
994.2378208875803
 20
1967.059839612424
 30
0.0
  0
SPLINE
  5
12A
330
87
100
AcDbEntity
  8
P-SANR-FIXT
100
AcDbSpline
210
0.0
220
0.0
230
1.0
 70
     8
 71
     3
 72
     8
 73
     4
 74
     0
 42
0.000000001
 43
0.0000000001
 40
-0.5
 40
-0.5
 40
-0.5
 40
-0.5
 40
-0.4990608628431947
 40
-0.4990608628431947
 40
-0.4990608628431947
 40
-0.4990608628431947
 10
994.5377406142437
 20
1970.106721483384
 30
0.0
 10
994.5377461781605
 20
1970.11173107587
 30
0.0
 10
994.5377517481004
 20
1970.116740611617
 30
0.0
 10
994.5377572830603
 20
1970.121750092416
 30
0.0
  0
SPLINE
  5
12B
330
87
100
AcDbEntity
  8
P-SANR-FIXT
100
AcDbSpline
210
0.0
220
0.0
230
1.0
 70
     8
 71
     3
 72
     8
 73
     4
 74
     0
 42
0.000000001
 43
0.0000000001
 40
-0.3080901692338926
 40
-0.3080901692338926
 40
-0.3080901692338926
 40
-0.3080901692338926
 40
-0.3037362948584993
 40
-0.3037362948584993
 40
-0.3037362948584993
 40
-0.3037362948584993
 10
994.2379362034229
 20
1973.184528899101
 30
0.0
 10
994.2333700654145
 20
1973.207886874198
 30
0.0
 10
994.2286489349415
 20
1973.231250410156
 30
0.0
 10
994.2237771717925
 20
1973.254619350715
 30
0.0
  0
SPLINE
  5
12C
330
87
100
AcDbEntity
  8
P-SANR-FIXT
100
AcDbSpline
210
0.0
220
0.0
230
1.0
 70
     8
 71
     3
 72
     8
 73
     4
 74
     0
 42
0.000000001
 43
0.0000000001
 40
-0.5
 40
-0.5
 40
-0.5
 40
-0.5
 40
-0.4981217256863973
 40
-0.4981217256863973
 40
-0.4981217256863973
 40
-0.4981217256863973
 10
994.5377406142437
 20
2029.86247434451
 30
0.0
 10
994.5377517420771
 20
2029.872493529482
 30
0.0
 10
994.5377628758675
 20
2029.882512487644
 30
0.0
 10
994.537773688199
 20
2029.892531233301
 30
0.0
  0
LINE
  5
12D
330
87
100
AcDbEntity
  8
P-SANR-FIXT
100
AcDbLine
 10
992.4851186794809
 20
1978.171288189683
 30
0.0
 11
992.4851186794809
 21
1983.901670759492
 31
0.0
  0
SPLINE
  5
12E
330
87
100
AcDbEntity
  8
P-SANR-FIXT
100
AcDbSpline
210
0.0
220
0.0
230
1.0
 70
     8
 71
     3
 72
     9
 73
     5
 74
     0
 42
0.000000001
 43
0.0000000001
 40
-1.0
 40
-1.0
 40
-1.0
 40
-1.0
 40
-0.5
 40
0.0
 40
0.0
 40
0.0
 40
0.0
 10
992.4851186794809
 20
1978.171288189684
 30
0.0
 10
993.1540688991747
 20
1976.849915570517
 30
0.0
 10
994.166645279281
 20
1974.187015514642
 30
0.0
 10
994.5285735408246
 20
1971.483805823683
 30
0.0
 10
994.5468756419558
 20
1970.122123569432
 30
0.0
  0
SPLINE
  5
12F
330
87
100
AcDbEntity
  8
P-SANR-FIXT
100
AcDbSpline
210
0.0
220
0.0
230
1.0
 70
     8
 71
     3
 72
     9
 73
     5
 74
     0
 42
0.000000001
 43
0.0000000001
 40
-1.0
 40
-1.0
 40
-1.0
 40
-1.0
 40
-0.5
 40
0.0
 40
0.0
 40
0.0
 40
0.0
 10
994.5468756419558
 20
1999.999999999995
 30
0.0
 10
994.5285735408246
 20
1997.276635491493
 30
0.0
 10
994.166645279281
 20
1991.870216109574
 30
0.0
 10
993.1540688991747
 20
1986.544415997824
 30
0.0
 10
992.4851186794811
 20
1983.901670759492
 30
0.0
  0
SPLINE
  5
130
330
87
100
AcDbEntity
  8
P-SANR-FIXT
100
AcDbSpline
210
0.0
220
0.0
230
1.0
 70
     8
 71
     3
 72
     9
 73
     5
 74
     0
 42
0.000000001
 43
0.0000000001
 40
-1.0
 40
-1.0
 40
-1.0
 40
-1.0
 40
-0.5
 40
0.0
 40
0.0
 40
0.0
 40
0.0
 10
994.5468756419558
 20
1970.122123569432
 30
0.0
 10
994.5285735408246
 20
1968.760441315181
 30
0.0
 10
994.1666452792812
 20
1966.057231624222
 30
0.0
 10
993.1540688991749
 20
1963.394331568347
 30
0.0
 10
992.4851186794811
 20
1962.07295894918
 30
0.0
  0
LINE
  5
131
330
87
100
AcDbEntity
  8
P-SANR-FIXT
100
AcDbLine
 10
992.4851186794811
 20
1961.92893218813
 30
0.0
 11
992.4851186794811
 21
1962.07295894918
 31
0.0
  0
LINE
  5
132
330
87
100
AcDbEntity
  8
P-SANR-FIXT
100
AcDbLine
 10
992.4851186794809
 20
2037.92704105081
 30
0.0
 11
992.4851186794809
 21
2038.071067811861
 31
0.0
  0
SPLINE
  5
133
330
87
100
AcDbEntity
  8
P-SANR-FIXT
100
AcDbSpline
210
0.0
220
0.0
230
1.0
 70
     8
 71
     3
 72
    10
 73
     6
 74
     0
 42
0.000000001
 43
0.0000000001
 40
-1.0
 40
-1.0
 40
-1.0
 40
-1.0
 40
-0.6666666666666666
 40
-0.3333333333333333
 40
0.0
 40
0.0
 40
0.0
 40
0.0
 10
992.4851186794811
 20
2037.92704105081
 30
0.0
 10
993.3953799593565
 20
2036.13434656367
 30
0.0
 10
994.6091691397541
 20
2032.552196367375
 30
0.0
 10
994.6183581579745
 20
2027.235501561101
 30
0.0
 10
993.3994102305057
 20
2023.6350970406
 30
0.0
 10
992.4851186794809
 20
2021.828711810307
 30
0.0
  0
LINE
  5
134
330
87
100
AcDbEntity
  8
P-SANR-FIXT
100
AcDbLine
 10
992.4851186794809
 20
2016.098329240498
 30
0.0
 11
992.4851186794809
 21
2021.828711810307
 31
0.0
  0
SPLINE
  5
135
330
87
100
AcDbEntity
  8
P-SANR-FIXT
100
AcDbSpline
210
0.0
220
0.0
230
1.0
 70
     8
 71
     3
 72
     9
 73
     5
 74
     0
 42
0.000000001
 43
0.0000000001
 40
-1.0
 40
-1.0
 40
-1.0
 40
-1.0
 40
-0.5
 40
0.0
 40
0.0
 40
0.0
 40
0.0
 10
992.4851186794811
 20
2016.098329240499
 30
0.0
 10
993.1540688991747
 20
2013.455584002166
 30
0.0
 10
994.166645279281
 20
2008.129783890416
 30
0.0
 10
994.5285735408246
 20
2002.723364508497
 30
0.0
 10
994.5468756419558
 20
1999.999999999995
 30
0.0
  0
LINE
  5
136
330
87
100
AcDbEntity
  8
P-SANR-FIXT
100
AcDbLine
 10
994.5468756419559
 20
2030.420439005077
 30
0.0
 11
994.5468756419559
 21
2029.415406902398
 31
0.0
  0
LINE
  5
137
330
87
100
AcDbEntity
  8
P-SANR-FIXT
100
AcDbLine
 10
994.5468756419559
 20
1965.499999999995
 30
0.0
 11
994.5468756419558
 21
1970.122123569432
 31
0.0
  0
LINE
  5
138
330
87
100
AcDbEntity
  8
P-SANR-FIXT
100
AcDbLine
 10
994.5468756419558
 20
1999.999999999994
 30
0.0
 11
994.5468756419559
 21
2034.499999999995
 31
0.0
  0
LINE
  5
139
330
87
100
AcDbEntity
  8
P-SANR-FIXT
100
AcDbLine
 10
994.5468756419558
 20
1970.122123569432
 30
0.0
 11
994.5468756419558
 21
1999.999999999994
 31
0.0
  0
ARC
  5
13A
330
87
100
AcDbEntity
  8
P-SANR-FIXT
100
AcDbCircle
 10
900.5468756419558
 20
1999.999999999995
 30
0.0
 40
8.999999999999996
100
AcDbArc
 50
231.420904671226
 51
246.1125917201461
  0
ARC
  5
13B
330
87
100
AcDbEntity
  8
P-SANR-FIXT
100
AcDbCircle
 10
900.5468756419558
 20
1999.999999999995
 30
0.0
 40
9.000000000000031
100
AcDbArc
 50
212.9636423237335
 51
224.0750611467631
  0
ARC
  5
13C
330
87
100
AcDbEntity
  8
P-SANR-FIXT
100
AcDbCircle
 10
900.5468756419558
 20
1999.999999999995
 30
0.0
 40
8.999999999999886
100
AcDbArc
 50
187.3458435244624
 51
207.066219350763
  0
ARC
  5
13D
330
87
100
AcDbEntity
  8
P-SANR-FIXT
100
AcDbCircle
 10
900.5468756419558
 20
1999.999999999995
 30
0.0
 40
8.999999999999957
100
AcDbArc
 50
152.9337806492394
 51
172.6541564755399
  0
ARC
  5
13E
330
87
100
AcDbEntity
  8
P-SANR-FIXT
100
AcDbCircle
 10
900.5468756419558
 20
1999.999999999995
 30
0.0
 40
9.000000000000008
100
AcDbArc
 50
135.9249388532364
 51
147.0363576762705
  0
ARC
  5
13F
330
87
100
AcDbEntity
  8
P-SANR-FIXT
100
AcDbCircle
 10
900.5468756419558
 20
1999.999999999995
 30
0.0
 40
8.999999999999948
100
AcDbArc
 50
113.8874082798543
 51
128.5790953287747
  0
ARC
  5
140
330
87
100
AcDbEntity
  8
P-SANR-FIXT
100
AcDbCircle
 10
968.5468756419558
 20
1999.999999999995
 30
0.0
 40
8.999999999999893
100
AcDbArc
 50
51.42090467122597
 51
66.11259172014626
  0
ARC
  5
141
330
87
100
AcDbEntity
  8
P-SANR-FIXT
100
AcDbCircle
 10
968.5468756419558
 20
1999.999999999995
 30
0.0
 40
8.999999999999872
100
AcDbArc
 50
32.96364232373095
 51
44.0750611467645
  0
ARC
  5
142
330
87
100
AcDbEntity
  8
P-SANR-FIXT
100
AcDbCircle
 10
968.5468756419558
 20
1999.999999999995
 30
0.0
 40
8.999999999999921
100
AcDbArc
 50
20.47971546667489
 51
22.03753057338293
  0
ARC
  5
143
330
87
100
AcDbEntity
  8
P-SANR-FIXT
100
AcDbCircle
 10
968.5468756419558
 20
1999.999999999995
 30
0.0
 40
8.999999999999905
100
AcDbArc
 50
13.6488542793355
 51
14.69168704892152
  0
ARC
  5
144
330
87
100
AcDbEntity
  8
P-SANR-FIXT
100
AcDbCircle
 10
968.5468756419558
 20
1999.999999999995
 30
0.0
 40
8.999999999999831
100
AcDbArc
 50
6.82184921280145
 51
7.345843524461434
  0
ARC
  5
145
330
87
100
AcDbEntity
  8
P-SANR-FIXT
100
AcDbCircle
 10
968.5468756419558
 20
1999.999999999995
 30
0.0
 40
8.999999999999845
100
AcDbArc
 50
332.9337806492345
 51
352.6541564755396
  0
ARC
  5
146
330
87
100
AcDbEntity
  8
P-SANR-FIXT
100
AcDbCircle
 10
968.5468756419558
 20
1999.999999999995
 30
0.0
 40
9.000000000000071
100
AcDbArc
 50
320.3532999168202
 51
323.2707823776967
  0
ARC
  5
147
330
87
100
AcDbEntity
  8
P-SANR-FIXT
100
AcDbCircle
 10
968.5468756419558
 20
1999.999999999995
 30
0.0
 40
8.99999999999995
100
AcDbArc
 50
313.7230817307574
 51
315.9249388532359
  0
ARC
  5
148
330
87
100
AcDbEntity
  8
P-SANR-FIXT
100
AcDbCircle
 10
968.5468756419558
 20
1999.999999999995
 30
0.0
 40
9.000000000000019
100
AcDbArc
 50
306.8755262600156
 51
308.5790953287747
  0
ARC
  5
149
330
87
100
AcDbEntity
  8
P-SANR-FIXT
100
AcDbCircle
 10
968.5468756419558
 20
1999.999999999995
 30
0.0
 40
9.000000000000037
100
AcDbArc
 50
300.0346633712082
 51
301.2332518043146
  0
ARC
  5
14A
330
87
100
AcDbEntity
  8
P-SANR-FIXT
100
AcDbCircle
 10
968.5468756419558
 20
1999.999999999995
 30
0.0
 40
9.000000000000042
100
AcDbArc
 50
293.1996975467164
 51
293.8874082798539
  0
LINE
  5
14B
330
87
100
AcDbEntity
  8
P-SANR-FIXT
100
AcDbLine
 10
962.0468756419558
 20
2045.999999999995
 30
0.0
 11
907.0468756419559
 21
2045.999999999995
 31
0.0
  0
LINE
  5
14C
330
87
100
AcDbEntity
  8
P-SANR-FIXT
100
AcDbLine
 10
907.0468756419559
 20
2042.199999999995
 30
0.0
 11
962.0468756419558
 21
2042.199999999995
 31
0.0
  0
LINE
  5
14D
330
87
100
AcDbEntity
  8
P-SANR-FIXT
100
AcDbLine
 10
908.546875641956
 20
2040.699999999995
 30
0.0
 11
960.5468756419558
 21
2040.699999999995
 31
0.0
  0
LINE
  5
14E
330
87
100
AcDbEntity
  8
P-SANR-FIXT
100
AcDbLine
 10
908.5468756419558
 20
2030.999999999995
 30
0.0
 11
960.5468756419559
 21
2030.999999999995
 31
0.0
  0
LINE
  5
14F
330
87
100
AcDbEntity
  8
P-SANR-FIXT
100
AcDbLine
 10
908.6335586022562
 20
2026.499999999995
 30
0.0
 11
960.460192681656
 21
2026.499999999995
 31
0.0
  0
LINE
  5
150
330
87
100
AcDbEntity
  8
P-SANR-FIXT
100
AcDbLine
 10
928.064300609421
 20
2006.482575032533
 30
0.0
 11
955.177875697146
 21
2006.482575032533
 31
0.0
  0
ARC
  5
151
330
87
100
AcDbEntity
  8
P-SANR-FIXT
100
AcDbCircle
 10
968.5468756419558
 20
1999.999999999995
 30
0.0
 40
8.999999999999952
100
AcDbArc
 50
272.733955549266
 51
327.2660444507307
  0
ARC
  5
152
330
87
100
AcDbEntity
  8
P-SANR-FIXT
100
AcDbCircle
 10
968.5468756419558
 20
1999.999999999995
 30
0.0
 40
8.999999999999895
100
AcDbArc
 50
332.7339555492658
 51
0.0
  0
ARC
  5
153
330
87
100
AcDbEntity
  8
P-SANR-FIXT
100
AcDbCircle
 10
968.5468756419558
 20
1999.999999999995
 30
0.0
 40
8.999999999999886
100
AcDbArc
 50
0.0
 51
27.26604445073153
  0
ARC
  5
154
330
87
100
AcDbEntity
  8
P-SANR-FIXT
100
AcDbCircle
 10
968.5468756419558
 20
1999.999999999995
 30
0.0
 40
9.000000000000275
100
AcDbArc
 50
179.9999999999993
 51
207.2660444507314
  0
ARC
  5
155
330
87
100
AcDbEntity
  8
P-SANR-FIXT
100
AcDbCircle
 10
968.5468756419558
 20
1999.999999999995
 30
0.0
 40
9.000000000000101
100
AcDbArc
 50
152.7339555492654
 51
180.0
  0
ARC
  5
156
330
87
100
AcDbEntity
  8
P-SANR-FIXT
100
AcDbCircle
 10
968.5468756419558
 20
1999.999999999995
 30
0.0
 40
8.999999999999973
100
AcDbArc
 50
212.7339555492646
 51
267.2660444507318
  0
ARC
  5
157
330
87
100
AcDbEntity
  8
P-SANR-FIXT
100
AcDbCircle
 10
968.5468756419558
 20
1999.999999999995
 30
0.0
 40
9.000000000000062
100
AcDbArc
 50
32.73395554926568
 51
87.26604445073295
  0
ARC
  5
158
330
87
100
AcDbEntity
  8
P-SANR-FIXT
100
AcDbCircle
 10
968.5468756419558
 20
1999.999999999995
 30
0.0
 40
9.000000000000071
100
AcDbArc
 50
92.73395554926704
 51
147.2660444507319
  0
ARC
  5
159
330
87
100
AcDbEntity
  8
P-SANR-FIXT
100
AcDbCircle
 10
900.5468756419558
 20
1999.999999999995
 30
0.0
 40
9.000000000000056
100
AcDbArc
 50
359.9999999999992
 51
27.2660444507342
  0
ARC
  5
15A
330
87
100
AcDbEntity
  8
P-SANR-FIXT
100
AcDbCircle
 10
900.5468756419558
 20
1999.999999999995
 30
0.0
 40
8.999999999999996
100
AcDbArc
 50
332.7339555492669
 51
0.0
  0
ARC
  5
15B
330
87
100
AcDbEntity
  8
P-SANR-FIXT
100
AcDbCircle
 10
900.5468756419558
 20
1999.999999999995
 30
0.0
 40
9.0
100
AcDbArc
 50
32.73395554926833
 51
87.26604445073368
  0
ARC
  5
15C
330
87
100
AcDbEntity
  8
P-SANR-FIXT
100
AcDbCircle
 10
900.5468756419558
 20
1999.999999999995
 30
0.0
 40
8.999999999999964
100
AcDbArc
 50
92.73395554926777
 51
147.2660444507343
  0
ARC
  5
15D
330
87
100
AcDbEntity
  8
P-SANR-FIXT
100
AcDbCircle
 10
900.5468756419558
 20
1999.999999999995
 30
0.0
 40
8.999999999999944
100
AcDbArc
 50
152.7339555492683
 51
180.0
  0
ARC
  5
15E
330
87
100
AcDbEntity
  8
P-SANR-FIXT
100
AcDbCircle
 10
900.5468756419558
 20
1999.999999999995
 30
0.0
 40
9.0
100
AcDbArc
 50
180.0
 51
207.2660444507331
  0
ARC
  5
15F
330
87
100
AcDbEntity
  8
P-SANR-FIXT
100
AcDbCircle
 10
900.5468756419558
 20
1999.999999999995
 30
0.0
 40
8.999999999999957
100
AcDbArc
 50
272.7339555492667
 51
327.2660444507339
  0
ARC
  5
160
330
87
100
AcDbEntity
  8
P-SANR-FIXT
100
AcDbCircle
 10
900.5468756419558
 20
1999.999999999995
 30
0.0
 40
8.999999999999966
100
AcDbArc
 50
212.7339555492677
 51
267.2660444507325
  0
LINE
  5
161
330
87
100
AcDbEntity
  8
P-SANR-FIXT
100
AcDbLine
 10
909.546875641956
 20
2050.799999999995
 30
0.0
 11
959.546875641956
 21
2050.799999999995
 31
0.0
  0
LINE
  5
162
330
87
100
AcDbEntity
  8
P-SANR-FIXT
100
AcDbLine
 10
908.5468756419558
 20
2049.799999999995
 30
0.0
 11
960.5468756419559
 21
2049.799999999995
 31
0.0
  0
LINE
  5
163
330
87
100
AcDbEntity
  8
P-SANR-FIXT
100
AcDbLine
 10
955.5813174957048
 20
2047.499999999995
 30
0.0
 11
960.5468756419559
 21
2047.499999999995
 31
0.0
  0
LINE
  5
164
330
87
100
AcDbEntity
  8
P-SANR-FIXT
100
AcDbLine
 10
942.5813174957049
 20
2047.499999999995
 30
0.0
 11
955.5813174957048
 21
2047.499999999995
 31
0.0
  0
LINE
  5
165
330
87
100
AcDbEntity
  8
P-SANR-FIXT
100
AcDbLine
 10
926.5124337882076
 20
2047.499999999995
 30
0.0
 11
942.5813174957049
 21
2047.499999999995
 31
0.0
  0
LINE
  5
166
330
87
100
AcDbEntity
  8
P-SANR-FIXT
100
AcDbLine
 10
913.5124337882077
 20
2047.499999999995
 30
0.0
 11
926.5124337882076
 21
2047.499999999995
 31
0.0
  0
LINE
  5
167
330
87
100
AcDbEntity
  8
P-SANR-FIXT
100
AcDbLine
 10
908.5468756419558
 20
2047.499999999995
 30
0.0
 11
913.5124337882075
 21
2047.499999999995
 31
0.0
  0
ENDBLK
  5
169
330
87
100
AcDbEntity
  8
0
100
AcDbBlockEnd
  0
BLOCK
  5
295
330
16B
100
AcDbEntity
  8
0
100
AcDbBlockBegin
  2
Automatic flow rate regulator valve_Caleffi_121 DN15 - 1_2__-V1-Est - Idraulica
 70
     0
 10
0.0
 20
0.0
 30
0.0
  3
Automatic flow rate regulator valve_Caleffi_121 DN15 - 1_2__-V1-Est - Idraulica
  1

  0
LINE
  5
16C
330
16B
100
AcDbEntity
  8
P-SANR-FIXT
100
AcDbLine
 10
920.0959057259742
 20
1792.653759748034
 30
0.0
 11
915.0959057259742
 21
1792.653759748034
 31
0.0
  0
LINE
  5
16D
330
16B
100
AcDbEntity
  8
P-SANR-FIXT
100
AcDbLine
 10
915.0959057259742
 20
1792.653759748034
 30
0.0
 11
911.6507958861468
 21
1792.653759748034
 31
0.0
  0
LINE
  5
16E
330
16B
100
AcDbEntity
  8
P-SANR-FIXT
100
AcDbLine
 10
911.6507958861468
 20
1792.653759748034
 30
0.0
 11
908.5392474484546
 21
1792.653759748034
 31
0.0
  0
LINE
  5
16F
330
16B
100
AcDbEntity
  8
P-SANR-FIXT
100
AcDbLine
 10
960.5392474484547
 20
1792.653759748034
 30
0.0
 11
957.427699010763
 21
1792.653759748034
 31
0.0
  0
LINE
  5
170
330
16B
100
AcDbEntity
  8
P-SANR-FIXT
100
AcDbLine
 10
957.4276990107625
 20
1792.653759748034
 30
0.0
 11
953.9825891709352
 21
1792.653759748034
 31
0.0
  0
LINE
  5
171
330
16B
100
AcDbEntity
  8
P-SANR-FIXT
100
AcDbLine
 10
953.9825891709352
 20
1792.653759748034
 30
0.0
 11
948.9825891709351
 21
1792.653759748034
 31
0.0
  0
LINE
  5
172
330
16B
100
AcDbEntity
  8
P-SANR-FIXT
100
AcDbLine
 10
908.5392474484546
 20
1802.683759748034
 30
0.0
 11
911.6507958861465
 21
1802.683759748034
 31
0.0
  0
LINE
  5
173
330
16B
100
AcDbEntity
  8
P-SANR-FIXT
100
AcDbLine
 10
911.6507958861468
 20
1802.683759748034
 30
0.0
 11
915.0959057259742
 21
1802.683759748035
 31
0.0
  0
LINE
  5
174
330
16B
100
AcDbEntity
  8
P-SANR-FIXT
100
AcDbLine
 10
915.0959057259742
 20
1802.683759748035
 30
0.0
 11
919.3539375462739
 21
1802.683759748035
 31
0.0
  0
LINE
  5
175
330
16B
100
AcDbEntity
  8
P-SANR-FIXT
100
AcDbLine
 10
919.3607494758264
 20
1802.683759748035
 30
0.0
 11
920.0959057259742
 21
1802.683759748035
 31
0.0
  0
LINE
  5
176
330
16B
100
AcDbEntity
  8
P-SANR-FIXT
100
AcDbLine
 10
948.9825891709351
 20
1802.683759748035
 30
0.0
 11
953.9825891709352
 21
1802.683759748035
 31
0.0
  0
LINE
  5
177
330
16B
100
AcDbEntity
  8
P-SANR-FIXT
100
AcDbLine
 10
953.9825891709352
 20
1802.683759748035
 30
0.0
 11
957.4276990107625
 21
1802.683759748034
 31
0.0
  0
LINE
  5
178
330
16B
100
AcDbEntity
  8
P-SANR-FIXT
100
AcDbLine
 10
957.4276990107627
 20
1802.683759748034
 30
0.0
 11
960.5392474484547
 21
1802.683759748034
 31
0.0
  0
LINE
  5
179
330
16B
100
AcDbEntity
  8
P-SANR-FIXT
100
AcDbLine
 10
908.5392474484546
 20
1792.653759748034
 30
0.0
 11
908.5392474484546
 21
1802.683759748034
 31
0.0
  0
LINE
  5
17A
330
16B
100
AcDbEntity
  8
P-SANR-FIXT
100
AcDbLine
 10
920.0959057259742
 20
1802.683759748035
 30
0.0
 11
920.0959057259742
 21
1792.653759748034
 31
0.0
  0
LINE
  5
17B
330
16B
100
AcDbEntity
  8
P-SANR-FIXT
100
AcDbLine
 10
960.5392474484547
 20
1792.653759748034
 30
0.0
 11
960.5392474484547
 21
1802.683759748034
 31
0.0
  0
LINE
  5
17C
330
16B
100
AcDbEntity
  8
P-SANR-FIXT
100
AcDbLine
 10
948.9825891709351
 20
1802.683759748035
 30
0.0
 11
948.9825891709351
 21
1792.653759748034
 31
0.0
  0
LWPOLYLINE
  5
17D
330
16B
100
AcDbEntity
  8
P-SANR-FIXT
100
AcDbPolyline
 90
       68
 70
   128
 43
0.0
 10
953.3793032998271
 20
1802.683759748035
 10
953.2798284955164
 20
1803.057694895035
 10
953.0493381010639
 20
1803.802807680049
 10
952.789235510176
 20
1804.538107296899
 10
952.4999368315127
 20
1805.262417423054
 10
952.1819048812456
 20
1805.974579316822
 10
951.8356484426522
 20
1806.673453671094
 10
951.4617214521706
 20
1807.357922435988
 10
951.0607221132181
 20
1808.026890607493
 10
950.6332919391949
 20
1808.679287979238
 10
950.1801147272001
 20
1809.314070854602
 10
949.7019154640993
 20
1809.930223716395
 10
949.1994591667037
 20
1810.526760851479
 10
948.673549657904
 20
1811.102727927691
 10
948.1250282807261
 20
1811.657203520576
 10
947.5547725523618
 20
1812.189300587467
 10
946.9636947603286
 20
1812.698167886565
 10
946.3527405030038
 20
1813.182991338744
 10
945.7228871768691
 20
1813.642995329905
 10
945.0751424128849
 20
1814.077443951789
 10
944.4105424644952
 20
1814.48564217928
 10
943.7301505498442
 20
1814.866936982292
 10
943.0350551508521
 20
1815.220718370477
 10
942.3263682718785
 20
1815.546420369084
 10
941.6052236607512
 20
1815.843521924396
 10
940.8727749950122
 20
1816.111547737301
 10
940.1301940362792
 20
1816.350069023675
 10
939.3786687556774
 20
1816.558704200341
 10
938.6194014333387
 20
1816.737119495524
 10
937.8536067350109
 20
1816.88502948281
 10
937.0825097688499
 20
1817.002197537773
 10
936.3073441255101
 20
1817.088436216519
 10
935.5293499046608
 20
1817.143607555559
 10
934.7497717310924
 20
1817.16762329252
 10
933.969856763581
 20
1817.160445007344
 10
933.190852699702
 20
1817.122084183759
 10
932.4140057797785
 20
1817.052602190898
 10
931.6405587931644
 20
1816.952110185127
 10
930.8717490900448
 20
1816.820768932219
 10
930.108806601941
 20
1816.65878855016
 10
929.3529518740809
 20
1816.466428173008
 10
928.6053941127892
 20
1816.243995536331
 10
927.8673292510134
 20
1815.991846484899
 10
927.1399380350871
 20
1815.710384403405
 10
926.4243841357867
 20
1815.400059571136
 10
925.7218122867083
 20
1815.061368441626
 10
925.0333464529362
 20
1814.694852848432
 10
924.3600880329394
 20
1814.301099138316
 10
923.7031140965694
 20
1813.880737233219
 10
923.0634756619771
 20
1813.434439622517
 10
922.4421960142089
 20
1812.962920287181
 10
921.840269068169
 20
1812.466933557563
 10
921.2586577785668
 20
1811.947272906625
 10
920.6982925993949
 20
1811.404769680553
 10
920.1600699954019
 20
1810.840291768782
 10
919.6448510079397
 20
1810.254742215555
 10
919.1534598774804
 20
1809.649057775246
 10
918.6866827250083
 20
1809.024207413755
 10
918.2452662943937
 20
1808.381190758364
 10
917.8299167577618
 20
1807.721036498553
 10
917.4412985857678
 20
1807.044800740314
 10
917.0800334845862
 20
1806.353565316602
 10
916.7466994013132
 20
1805.648436056639
 10
916.4418295993744
 20
1804.930541016824
 10
916.1659118054174
 20
1804.201028676075
 10
915.9193874290535
 20
1803.461066098518
 10
915.7026508566957
 20
1802.711837066426
 10
915.6957324539957
 20
1802.683759748035
  0
LWPOLYLINE
  5
17E
330
16B
100
AcDbEntity
  8
P-SANR-FIXT
100
AcDbPolyline
 90
       70
 70
   128
 43
0.0
 10
957.7495023928847
 20
1802.683759748035
 10
957.608524351192
 20
1803.31419712568
 10
957.3643141083373
 20
1804.232206401433
 10
957.0835886279143
 20
1805.139715562668
 10
956.7667970108072
 20
1806.035272788319
 10
956.4144460560248
 20
1806.917445377866
 10
956.0270994499305
 20
1807.784822043353
 10
955.6053768644643
 20
1808.636015167145
 10
955.1499529658004
 20
1809.469663021824
 10
954.6615563350249
 20
1810.284431948656
 10
954.1409683025612
 20
1811.079018491167
 10
953.5890216982084
 20
1811.852151480392
 10
953.0065995187907
 20
1812.602594068474
 10
952.3946335155526
 20
1813.329145707358
 10
951.7541027035528
 20
1814.030644069411
 10
951.0860317954513
 20
1814.705966906899
 10
950.3914895621871
 20
1815.354033847343
 10
949.6715871231726
 20
1815.973808121886
 10
948.9274761687383
 20
1816.564298223899
 10
948.1603471176768
 20
1817.124559495184
 10
947.3714272128244
 20
1817.653695637223
 10
946.5619785577345
 20
1818.150860145064
 10
945.7332960975826
 20
1818.615257661553
 10
944.8867055475279
 20
1819.046145249727
 10
944.023561271855
 20
1819.442833581365
 10
943.1452441172769
 20
1819.804688039757
 10
942.2531592038769
 20
1820.131129734962
 10
941.3487336772149
 20
1820.421636429904
 10
940.4334144252
 20
1820.675743375844
 10
939.5086657633772
 20
1820.893044055874
 10
938.5759670923368
 20
1821.073190835261
 10
937.636810530987
 20
1821.215895517587
 10
936.6926985294835
 20
1821.320929805804
 10
935.7451414656285
 20
1821.388125667455
 10
934.7956552285898
 20
1821.417375603497
 10
933.8457587938004
 20
1821.408632820271
 10
932.896971792922
 20
1821.361911304365
 10
931.9508120827592
 20
1821.277285800239
 10
931.0087933170111
 20
1821.154891690647
 10
930.0724225247503
 20
1820.994924780054
 10
929.1431976994951
 20
1820.797640981393
 10
928.2226054027429
 20
1820.563355906656
 10
927.3121183857849
 20
1820.292444361985
 10
926.4131932336223
 20
1819.985339748061
 10
925.5272680347374
 20
1819.642533366754
 10
924.6557600804614
 20
1819.264573635145
 10
923.8000635976094
 20
1818.852065208178
 10
922.961547518015
 20
1818.405668011339
 10
922.1415532885318
 20
1817.926096184916
 10
921.3413927250041
 20
1817.414116941529
 10
920.5623459136416
 20
1816.87054933875
 10
919.805659163155
 20
1816.29626296879
 10
919.0725430109269
 20
1815.692176567332
 10
918.3641702864111
 20
1815.059256543754
 10
917.6816742348558
 20
1814.398515435077
 10
917.0261467043516
 20
1813.711010286125
 10
916.3986363991091
 20
1812.997840958476
 10
915.8001472017549
 20
1812.260148370921
 10
915.2316365673337
 20
1811.499112674232
 10
914.6940139915853
 20
1810.715951363179
 10
914.1881395559437
 20
1809.911917328795
 10
913.714822551592
 20
1809.088296854015
 10
913.2748201847684
 20
1808.246407555904
 10
912.8688363653973
 20
1807.387596277745
 10
912.4975205809846
 20
1806.51323693438
 10
912.1614668575757
 20
1805.624728314237
 10
911.8612128094401
 20
1804.723491841572
 10
911.5972387790042
 20
1803.810969302486
 10
911.3699670684054
 20
1802.888620538382
 10
911.3280999410889
 20
1802.683759748035
  0
LWPOLYLINE
  5
17F
330
16B
100
AcDbEntity
  8
P-SANR-FIXT
100
AcDbPolyline
 90
       70
 70
   128
 43
0.0
 10
911.328992504028
 20
1792.653759748035
 10
911.4699705457205
 20
1792.023322370391
 10
911.7141807885754
 20
1791.105313094637
 10
911.9949062689983
 20
1790.197803933402
 10
912.3116978861053
 20
1789.302246707751
 10
912.6640488408879
 20
1788.420074118204
 10
913.0513954469821
 20
1787.552697452717
 10
913.4731180324482
 20
1786.701504328925
 10
913.9285419311121
 20
1785.867856474246
 10
914.4169385618877
 20
1785.053087547414
 10
914.9375265943515
 20
1784.258501004902
 10
915.4894731987043
 20
1783.485368015678
 10
916.0718953781218
 20
1782.734925427596
 10
916.6838613813602
 20
1782.008373788713
 10
917.3243921933599
 20
1781.306875426659
 10
917.9924631014614
 20
1780.631552589171
 10
918.6870053347256
 20
1779.983485648727
 10
919.4069077737403
 20
1779.363711374184
 10
920.1510187281744
 20
1778.773221272171
 10
920.9181477792355
 20
1778.212960000886
 10
921.7070676840883
 20
1777.683823858847
 10
922.516516339178
 20
1777.186659351005
 10
923.3451987993303
 20
1776.722261834517
 10
924.1917893493846
 20
1776.291374246343
 10
925.0549336250577
 20
1775.894685914705
 10
925.9332507796356
 20
1775.532831456313
 10
926.8253356930356
 20
1775.206389761108
 10
927.7297612196976
 20
1774.915883066166
 10
928.6450804717128
 20
1774.661776120226
 10
929.5698291335353
 20
1774.444475440196
 10
930.5025278045761
 20
1774.264328660809
 10
931.4416843659257
 20
1774.121623978482
 10
932.3857963674292
 20
1774.016589690266
 10
933.333353431284
 20
1773.949393828615
 10
934.2828396683229
 20
1773.920143892573
 10
935.2327361031122
 20
1773.928886675799
 10
936.1815231039905
 20
1773.975608191705
 10
937.1276828141535
 20
1774.060233695831
 10
938.0697015799016
 20
1774.182627805423
 10
939.0060723721624
 20
1774.342594716017
 10
939.9352971974176
 20
1774.539878514678
 10
940.85588949417
 20
1774.774163589414
 10
941.7663765111278
 20
1775.045075134084
 10
942.6653016632904
 20
1775.352179748009
 10
943.5512268621755
 20
1775.694986129316
 10
944.4227348164513
 20
1776.072945860925
 10
945.2784312993033
 20
1776.485454287892
 10
946.1169473788975
 20
1776.931851484732
 10
946.9369416083811
 20
1777.411423311154
 10
947.7371021719088
 20
1777.923402554542
 10
948.5161489832711
 20
1778.46697015732
 10
949.2728357337577
 20
1779.04125652728
 10
950.005951885986
 20
1779.645342928738
 10
950.7143246105014
 20
1780.278262952317
 10
951.3968206620571
 20
1780.939004060994
 10
952.0523481925611
 20
1781.626509209945
 10
952.6798584978036
 20
1782.339678537594
 10
953.2783476951578
 20
1783.07737112515
 10
953.846858329579
 20
1783.838406821838
 10
954.3844809053274
 20
1784.621568132891
 10
954.890355340969
 20
1785.425602167276
 10
955.3636723453207
 20
1786.249222642055
 10
955.8036747121443
 20
1787.091111940165
 10
956.2096585315153
 20
1787.949923218325
 10
956.5809743159281
 20
1788.82428256169
 10
956.917028039337
 20
1789.712791181832
 10
957.2172820874724
 20
1790.614027654498
 10
957.4812561179083
 20
1791.526550193584
 10
957.7085278285069
 20
1792.448898957688
 10
957.750394955824
 20
1792.653759748035
  0
LWPOLYLINE
  5
180
330
16B
100
AcDbEntity
  8
P-SANR-FIXT
100
AcDbPolyline
 90
       68
 70
   128
 43
0.0
 10
915.6991915970857
 20
1792.653759748035
 10
915.7986664013963
 20
1792.279824601035
 10
916.0291567958486
 20
1791.534711816021
 10
916.2892593867367
 20
1790.799412199171
 10
916.5785580654
 20
1790.075102073016
 10
916.8965900156671
 20
1789.362940179248
 10
917.2428464542601
 20
1788.664065824976
 10
917.6167734447421
 20
1787.979597060082
 10
918.0177727836948
 20
1787.310628888577
 10
918.4452029577176
 20
1786.658231516832
 10
918.8983801697126
 20
1786.023448641469
 10
919.3765794328131
 20
1785.407295779675
 10
919.8790357302089
 20
1784.810758644591
 10
920.4049452390087
 20
1784.234791568379
 10
920.9534666161866
 20
1783.680315975494
 10
921.5237223445509
 20
1783.148218908603
 10
922.1148001365842
 20
1782.639351609505
 10
922.7257543939089
 20
1782.154528157326
 10
923.3556077200436
 20
1781.694524166165
 10
924.0033524840276
 20
1781.260075544281
 10
924.6679524324175
 20
1780.85187731679
 10
925.3483443470686
 20
1780.470582513778
 10
926.0434397460606
 20
1780.116801125593
 10
926.7521266250343
 20
1779.791099126986
 10
927.4732712361613
 20
1779.493997571674
 10
928.2057199019003
 20
1779.225971758769
 10
928.9483008606335
 20
1778.987450472395
 10
929.6998261412353
 20
1778.778815295729
 10
930.4590934635738
 20
1778.600400000546
 10
931.2248881619019
 20
1778.45249001326
 10
931.9959851280627
 20
1778.335321958297
 10
932.7711507714026
 20
1778.249083279551
 10
933.5491449922518
 20
1778.193911940511
 10
934.3287231658203
 20
1778.16989620355
 10
935.1086381333319
 20
1778.177074488725
 10
935.8876421972107
 20
1778.215435312311
 10
936.6644891171342
 20
1778.284917305172
 10
937.4379361037481
 20
1778.385409310943
 10
938.2067458068677
 20
1778.516750563851
 10
938.9696882949717
 20
1778.67873094591
 10
939.7255430228318
 20
1778.871091323062
 10
940.4731007841233
 20
1779.093523959739
 10
941.2111656458991
 20
1779.345673011171
 10
941.9385568618258
 20
1779.627135092666
 10
942.6541107611258
 20
1779.937459924934
 10
943.3566826102044
 20
1780.276151054444
 10
944.0451484439767
 20
1780.642666647638
 10
944.7184068639735
 20
1781.036420357754
 10
945.3753808003435
 20
1781.456782262851
 10
946.0150192349358
 20
1781.903079873553
 10
946.6362988827038
 20
1782.374599208889
 10
947.2382258287435
 20
1782.870585938507
 10
947.8198371183458
 20
1783.390246589445
 10
948.3802022975178
 20
1783.932749815517
 10
948.9184249015107
 20
1784.497227727287
 10
949.433643888973
 20
1785.082777280515
 10
949.9250350194323
 20
1785.688461720823
 10
950.3918121719042
 20
1786.313312082316
 10
950.8332286025188
 20
1786.956328737706
 10
951.2485781391507
 20
1787.616482997516
 10
951.6371963111449
 20
1788.292718755756
 10
951.9984614123265
 20
1788.983954179469
 10
952.3317954955995
 20
1789.689083439431
 10
952.6366652975385
 20
1790.406978479246
 10
952.9125830914953
 20
1791.136490819995
 10
953.1591074678591
 20
1791.876453397552
 10
953.3758440402166
 20
1792.625682429644
 10
953.3827624429168
 20
1792.653759748035
  0
LINE
  5
181
330
16B
100
AcDbEntity
  8
P-SANR-FIXT
100
AcDbLine
 10
933.3288739889917
 20
1828.168759748036
 30
0.0
 11
923.0983356198928
 21
1828.168759748036
 31
0.0
  0
LINE
  5
182
330
16B
100
AcDbEntity
  8
P-SANR-FIXT
100
AcDbLine
 10
923.0983356198931
 20
1767.168759748034
 30
0.0
 11
933.3288739889921
 21
1767.168759748034
 31
0.0
  0
LINE
  5
183
330
16B
100
AcDbEntity
  8
P-SANR-FIXT
100
AcDbLine
 10
933.3288739889917
 20
1828.168759748035
 30
0.0
 11
934.5468756419581
 21
1828.144396466451
 31
0.0
  0
LWPOLYLINE
  5
184
330
16B
100
AcDbEntity
  8
P-SANR-FIXT
100
AcDbPolyline
 90
        3
 70
   128
 43
0.0
 10
934.5468756419588
 20
1767.196972026224
 10
933.5692945656097
 20
1767.169707337405
 10
933.3288739889921
 20
1767.168759748035
  0
LWPOLYLINE
  5
185
330
16B
100
AcDbEntity
  8
P-SANR-FIXT
100
AcDbPolyline
 90
       28
 70
   128
 43
0.0
 10
954.4203149371712
 20
1820.77078296542
 10
954.4788134254998
 20
1820.780952183645
 10
954.563346536784
 20
1820.79915697335
 10
954.6470840331762
 20
1820.820727624003
 10
954.7298919525454
 20
1820.845629627162
 10
954.8116378198853
 20
1820.873823144937
 10
954.8921908592461
 20
1820.905263073711
 10
954.9714222029487
 20
1820.939899116307
 10
955.049205097745
 20
1820.977675862445
 10
955.1254151075962
 20
1821.018532877389
 10
955.1999303127434
 20
1821.062404798631
 10
955.2726315047546
 20
1821.109221440456
 10
955.3434023772311
 20
1821.158907906224
 10
955.4121297118738
 20
1821.21138470819
 10
955.4787035596087
 20
1821.266567894664
 10
955.5430174164809
 20
1821.324369184319
 10
955.6049683940388
 20
1821.384696107423
 10
955.6644573839339
 20
1821.447452153769
 10
955.7213892164726
 20
1821.512536927068
 10
955.7756728128678
 20
1821.579846305567
 10
955.8272213309454
 20
1821.649272608621
 10
955.8759523040725
 20
1821.720704768953
 10
955.9217877730874
 20
1821.794028510345
 10
955.9646544110176
 20
1821.869126530454
 10
956.004483640387
 20
1821.945878688466
 10
956.0412117429246
 20
1822.024162197301
 10
956.0747799615015
 20
1822.103851820046
 10
956.0975640977106
 20
1822.163679330743
  0
LWPOLYLINE
  5
186
330
16B
100
AcDbEntity
  8
P-SANR-FIXT
100
AcDbPolyline
 90
       28
 70
   128
 43
0.0
 10
956.0975640977108
 20
1773.173840165327
 10
956.0663701165738
 20
1773.254488766136
 10
956.0319760034452
 20
1773.33382543013
 10
955.9944367815687
 20
1773.411723235572
 10
955.9538125056917
 20
1773.488057562588
 10
955.9101681659893
 20
1773.562706292541
 10
955.8635735840949
 20
1773.635550003386
 10
955.8141033013995
 20
1773.706472160726
 10
955.7618364598031
 20
1773.775359304237
 10
955.7068566751018
 20
1773.842101229185
 10
955.6492519032232
 20
1773.906591162729
 10
955.5891142995138
 20
1773.968725934731
 10
955.5265400713105
 20
1774.02840614281
 10
955.4616293240307
 20
1774.085536311366
 10
955.3944859010227
 20
1774.140025044315
 10
955.3252172174399
 20
1774.191785171308
 10
955.2539340884001
 20
1774.240733887184
 10
955.1807505517032
 20
1774.28679288444
 10
955.1057836853964
 20
1774.329888478504
 10
955.0291534204735
 20
1774.369951725619
 10
954.9509823490115
 20
1774.406918533138
 10
954.8713955280494
 20
1774.440729762053
 10
954.7905202795226
 20
1774.471331321611
 10
954.7084859865767
 20
1774.498674255844
 10
954.6254238865806
 20
1774.522714821892
 10
954.5414668611755
 20
1774.543414559975
 10
954.4567492236918
 20
1774.56074035493
 10
954.4202651430794
 20
1774.566692933427
  0
LINE
  5
187
330
16B
100
AcDbEntity
  8
P-SANR-FIXT
100
AcDbLine
 10
909.9421904697539
 20
1828.168759748035
 30
0.0
 11
909.5468756419576
 21
1828.445562170424
 31
0.0
  0
LINE
  5
188
330
16B
100
AcDbEntity
  8
P-SANR-FIXT
100
AcDbLine
 10
909.5468756419579
 20
1766.891957325646
 30
0.0
 11
909.9421904697541
 21
1767.168759748035
 31
0.0
  0
LINE
  5
189
330
16B
100
AcDbEntity
  8
P-SANR-FIXT
100
AcDbLine
 10
923.0983356198928
 20
1828.168759748035
 30
0.0
 11
909.9421904697539
 21
1828.168759748035
 31
0.0
  0
LINE
  5
18A
330
16B
100
AcDbEntity
  8
P-SANR-FIXT
100
AcDbLine
 10
909.9421904697541
 20
1767.168759748035
 30
0.0
 11
923.0983356198931
 21
1767.168759748035
 31
0.0
  0
LINE
  5
18B
330
16B
100
AcDbEntity
  8
P-SANR-FIXT
100
AcDbLine
 10
957.9862495759606
 20
1827.352800034686
 30
0.0
 11
956.0975640977106
 21
1822.163679330743
 31
0.0
  0
LINE
  5
18C
330
16B
100
AcDbEntity
  8
P-SANR-FIXT
100
AcDbLine
 10
956.0975640977108
 20
1773.173840165327
 30
0.0
 11
957.9862495759609
 21
1767.984719461384
 31
0.0
  0
LWPOLYLINE
  5
18D
330
16B
100
AcDbEntity
  8
P-SANR-FIXT
100
AcDbPolyline
 90
       28
 70
   128
 43
0.0
 10
957.9862495759606
 20
1827.352800034686
 10
958.0151071993167
 20
1827.427408239908
 10
958.0469252721041
 20
1827.50080276938
 10
958.081652892193
 20
1827.572866207509
 10
958.1192345028004
 20
1827.64348326817
 10
958.1596099813655
 20
1827.712540979128
 10
958.2027147357363
 20
1827.779928862778
 10
958.2484798075002
 20
1827.845539112881
 10
958.2968319823057
 20
1827.909266767034
 10
958.3476939069875
 20
1827.971009874583
 10
958.4009842133159
 20
1828.030669659728
 10
958.456617648169
 20
1828.088150679541
 10
958.5145052099189
 20
1828.143360976649
 10
958.5745542908151
 20
1828.196212226357
 10
958.6366688251384
 20
1828.246619877939
 10
958.7007494428842
 20
1828.294503289905
 10
958.7666936287337
 20
1828.339785859011
 10
958.8343958860569
 20
1828.382395142805
 10
958.9037479056846
 20
1828.422262975525
 10
958.9746387391796
 20
1828.459325577141
 10
959.0469549763312
 20
1828.493523655397
 10
959.1205809265863
 20
1828.524802500664
 10
959.1953988041302
 20
1828.553112073461
 10
959.2712889163198
 20
1828.578407084512
 10
959.3481298551644
 20
1828.600647067193
 10
959.4257986915534
 20
1828.619796442279
 10
959.5041711719172
 20
1828.635824574852
 10
959.5468756419576
 20
1828.643194499549
  0
LWPOLYLINE
  5
18E
330
16B
100
AcDbEntity
  8
P-SANR-FIXT
100
AcDbPolyline
 90
       28
 70
   128
 43
0.0
 10
959.5468756419581
 20
1766.694324996521
 10
959.4681742841915
 20
1766.708651300924
 10
959.3901087784908
 20
1766.726113360708
 10
959.3128040130128
 20
1766.746683240303
 10
959.236383658891
 20
1766.770328032289
 10
959.16096997239
 20
1766.797009910044
 10
959.0866835993205
 20
1766.826686188253
 10
959.013643382033
 20
1766.859309391204
 10
958.9419661692936
 20
1766.89482732873
 10
958.8717666293527
 20
1766.933183179708
 10
958.8031570664993
 20
1766.974315582959
 10
958.7362472413971
 20
1767.018158735412
 10
958.6711441954939
 20
1767.064642497376
 10
958.6079520797751
 20
1767.113692504747
 10
958.5467719881449
 20
1767.165230287978
 10
958.4877017956996
 20
1767.219173397609
 10
958.4308360021458
 20
1767.275435536172
 10
958.3762655806225
 20
1767.333926696247
 10
958.3240778321632
 20
1767.394553304456
 10
958.2743562460324
 20
1767.457218371158
 10
958.2271803661615
 20
1767.521821645615
 10
958.1826256638946
 20
1767.588259776369
 10
958.1407634172503
 20
1767.656426476583
 10
958.1016605968937
 20
1767.726212694079
 10
958.0653797589958
 20
1767.797506785795
 10
958.0319789451575
 20
1767.870194696393
 10
958.0015115895561
 20
1767.944160140723
 10
957.9862495759609
 20
1767.984719461384
  0
LINE
  5
18F
330
16B
100
AcDbEntity
  8
P-SANR-FIXT
100
AcDbLine
 10
959.5468756419577
 20
1837.668759748035
 30
0.0
 11
959.5468756419576
 21
1828.643194499549
 31
0.0
  0
LINE
  5
190
330
16B
100
AcDbEntity
  8
P-SANR-FIXT
100
AcDbLine
 10
959.5468756419579
 20
1766.69432499652
 30
0.0
 11
959.5468756419577
 21
1757.668759748035
 31
0.0
  0
LINE
  5
191
330
16B
100
AcDbEntity
  8
P-SANR-FIXT
100
AcDbLine
 10
977.5468756419579
 20
1757.668759748036
 30
0.0
 11
977.5468756419579
 21
1763.168759748035
 31
0.0
  0
LINE
  5
192
330
16B
100
AcDbEntity
  8
P-SANR-FIXT
100
AcDbLine
 10
977.5468756419575
 20
1832.168759748035
 30
0.0
 11
977.5468756419575
 21
1837.668759748035
 31
0.0
  0
LINE
  5
193
330
16B
100
AcDbEntity
  8
P-SANR-FIXT
100
AcDbLine
 10
909.5468756419577
 20
1757.668759748035
 30
0.0
 11
909.5468756419579
 21
1766.891957325646
 31
0.0
  0
LINE
  5
194
330
16B
100
AcDbEntity
  8
P-SANR-FIXT
100
AcDbLine
 10
909.5468756419576
 20
1828.445562170424
 30
0.0
 11
909.5468756419577
 21
1837.668759748035
 31
0.0
  0
LINE
  5
195
330
16B
100
AcDbEntity
  8
P-SANR-FIXT
100
AcDbLine
 10
891.5468756419578
 20
1837.668759748035
 30
0.0
 11
891.5468756419578
 21
1832.168759748035
 31
0.0
  0
LINE
  5
196
330
16B
100
AcDbEntity
  8
P-SANR-FIXT
100
AcDbLine
 10
891.546875641958
 20
1763.168759748034
 30
0.0
 11
891.546875641958
 21
1757.668759748035
 31
0.0
  0
SPLINE
  5
197
330
16B
100
AcDbEntity
  8
P-SANR-FIXT
100
AcDbSpline
210
0.0
220
0.0
230
1.0
 70
     8
 71
     3
 72
    10
 73
     6
 74
     0
 42
0.000000001
 43
0.0000000001
 40
-1.0
 40
-1.0
 40
-1.0
 40
-1.0
 40
-0.6666666666666666
 40
-0.3333333333333333
 40
0.0
 40
0.0
 40
0.0
 40
0.0
 10
876.6086326044312
 20
1800.977197667272
 30
0.0
 10
875.6943410534065
 20
1804.105948664182
 30
0.0
 10
874.4753931259372
 20
1810.34203222149
 30
0.0
 10
874.4845821441577
 20
1819.550817754295
 30
0.0
 10
875.6983713245556
 20
1825.755283894622
 30
0.0
 10
876.6086326044311
 20
1828.860321828797
 30
0.0
  0
SPLINE
  5
198
330
16B
100
AcDbEntity
  8
P-SANR-FIXT
100
AcDbSpline
210
0.0
220
0.0
230
1.0
 70
    24
 71
     3
 72
     9
 73
     5
 74
     0
 42
0.000000001
 43
0.0000000001
 40
-1.0
 40
-1.0
 40
-1.0
 40
-1.0
 40
-0.5
 40
0.0
 40
0.0
 40
0.0
 40
0.0
 10
876.6086326044311
 20
1832.168759748034
 30
0.0
 10
875.936119516851
 20
1832.168759748034
 30
0.0
 10
874.9199802688588
 20
1832.168759748034
 30
0.0
 10
874.5616148752011
 20
1832.168759748034
 30
0.0
 10
874.546875641956
 20
1832.168759748034
 30
0.0
  0
LINE
  5
199
330
16B
100
AcDbEntity
  8
P-SANR-FIXT
100
AcDbLine
 10
874.546875641956
 20
1832.168759748034
 30
0.0
 11
874.5468756419562
 21
1797.668759748034
 31
0.0
  0
LINE
  5
19A
330
16B
100
AcDbEntity
  8
P-SANR-FIXT
100
AcDbLine
 10
874.5468756419562
 20
1797.668759748034
 30
0.0
 11
874.5468756419562
 21
1763.168759748034
 31
0.0
  0
SPLINE
  5
19B
330
16B
100
AcDbEntity
  8
P-SANR-FIXT
100
AcDbSpline
210
0.0
220
0.0
230
1.0
 70
    24
 71
     3
 72
     9
 73
     5
 74
     0
 42
0.000000001
 43
0.0000000001
 40
-1.0
 40
-1.0
 40
-1.0
 40
-1.0
 40
-0.5
 40
0.0
 40
0.0
 40
0.0
 40
0.0
 10
874.5468756419562
 20
1763.168759748034
 30
0.0
 10
874.5616148752013
 20
1763.168759748034
 30
0.0
 10
874.919980268859
 20
1763.168759748034
 30
0.0
 10
875.9361195168514
 20
1763.168759748034
 30
0.0
 10
876.6086326044314
 20
1763.168759748034
 30
0.0
  0
SPLINE
  5
19C
330
16B
100
AcDbEntity
  8
P-SANR-FIXT
100
AcDbSpline
210
0.0
220
0.0
230
1.0
 70
     8
 71
     3
 72
    10
 73
     6
 74
     0
 42
0.000000001
 43
0.0000000001
 40
-1.0
 40
-1.0
 40
-1.0
 40
-1.0
 40
-0.6666666666666666
 40
-0.3333333333333333
 40
0.0
 40
0.0
 40
0.0
 40
0.0
 10
876.6086326044314
 20
1766.477197667272
 30
0.0
 10
875.6943410534065
 20
1769.605948664182
 30
0.0
 10
874.4753931259374
 20
1775.84203222149
 30
0.0
 10
874.4845821441579
 20
1785.050817754295
 30
0.0
 10
875.6983713245558
 20
1791.255283894622
 30
0.0
 10
876.6086326044312
 20
1794.360321828797
 30
0.0
  0
SPLINE
  5
19D
330
16B
100
AcDbEntity
  8
P-SANR-FIXT
100
AcDbSpline
210
0.0
220
0.0
230
1.0
 70
     8
 71
     3
 72
     9
 73
     5
 74
     0
 42
0.000000001
 43
0.0000000001
 40
0.0
 40
0.0
 40
0.0
 40
0.0
 40
0.5
 40
1.0
 40
1.0
 40
1.0
 40
1.0
 10
923.0983356198912
 20
1825.938548062827
 30
0.0
 10
923.9145939182561
 20
1826.268177105368
 30
0.0
 10
925.5585130482092
 20
1826.852983862434
 30
0.0
 10
927.2252372446093
 20
1827.289867601552
 30
0.0
 10
928.0643006094214
 20
1827.471884096793
 30
0.0
  0
SPLINE
  5
19E
330
16B
100
AcDbEntity
  8
P-SANR-FIXT
100
AcDbSpline
210
0.0
220
0.0
230
1.0
 70
     8
 71
     3
 72
     8
 73
     4
 74
     0
 42
0.000000001
 43
0.0000000001
 40
0.0
 40
0.0
 40
0.0
 40
0.0
 40
0.0273740773210765
 40
0.0273740773210765
 40
0.0273740773210765
 40
0.0273740773210765
 10
928.0643006094214
 20
1827.471884096793
 30
0.0
 10
928.1121480939628
 20
1827.473197819637
 30
0.0
 10
928.1600007830933
 20
1827.474495353171
 30
0.0
 10
928.2078586768125
 20
1827.475776794086
 30
0.0
  0
SPLINE
  5
19F
330
16B
100
AcDbEntity
  8
P-SANR-FIXT
100
AcDbSpline
210
0.0
220
0.0
230
1.0
 70
     8
 71
     3
 72
     8
 73
     4
 74
     0
 42
0.000000001
 43
0.0000000001
 40
0.9726259226789235
 40
0.9726259226789235
 40
0.9726259226789235
 40
0.9726259226789235
 40
1.0
 40
1.0
 40
1.0
 40
1.0
 10
928.2078586768129
 20
1767.861742701983
 30
0.0
 10
928.1600007830936
 20
1767.863024142898
 30
0.0
 10
928.1121480939631
 20
1767.864321676431
 30
0.0
 10
928.0643006094216
 20
1767.865635399276
 30
0.0
  0
SPLINE
  5
1A0
330
16B
100
AcDbEntity
  8
P-SANR-FIXT
100
AcDbSpline
210
0.0
220
0.0
230
1.0
 70
     8
 71
     3
 72
     9
 73
     5
 74
     0
 42
0.000000001
 43
0.0000000001
 40
0.0
 40
0.0
 40
0.0
 40
0.0
 40
0.5
 40
1.0
 40
1.0
 40
1.0
 40
1.0
 10
928.0643006094216
 20
1767.865635399276
 30
0.0
 10
927.2252372446097
 20
1768.047651894516
 30
0.0
 10
925.5585130482094
 20
1768.484535633634
 30
0.0
 10
923.9145939182563
 20
1769.0693423907
 30
0.0
 10
923.0983356198915
 20
1769.398971433242
 30
0.0
  0
SPLINE
  5
1A1
330
16B
100
AcDbEntity
  8
P-SANR-FIXT
100
AcDbSpline
210
0.0
220
0.0
230
1.0
 70
     8
 71
     3
 72
     8
 73
     4
 74
     0
 42
0.000000001
 43
0.0000000001
 40
0.9909549788797013
 40
0.9909549788797013
 40
0.9909549788797013
 40
0.9909549788797013
 40
1.0
 40
1.0
 40
1.0
 40
1.0
 10
955.1578911013995
 20
1820.123922126211
 30
0.0
 10
955.164574600475
 20
1820.126691314569
 30
0.0
 10
955.171236258233
 20
1820.129492886232
 30
0.0
 10
955.1778756971463
 20
1820.132326622481
 30
0.0
  0
SPLINE
  5
1A2
330
16B
100
AcDbEntity
  8
P-SANR-FIXT
100
AcDbSpline
210
0.0
220
0.0
230
1.0
 70
     8
 71
     3
 72
     9
 73
     5
 74
     0
 42
0.000000001
 43
0.0000000001
 40
-1.0
 40
-1.0
 40
-1.0
 40
-1.0
 40
-0.5
 40
0.0
 40
0.0
 40
0.0
 40
0.0
 10
955.1778756971463
 20
1820.132326622481
 30
0.0
 10
955.3508318543741
 20
1819.973480144125
 30
0.0
 10
955.6764467899148
 20
1819.667080759407
 30
0.0
 10
955.9633498676287
 20
1819.385587441694
 30
0.0
 10
956.097564097709
 20
1819.251572981787
 30
0.0
  0
SPLINE
  5
1A3
330
16B
100
AcDbEntity
  8
P-SANR-FIXT
100
AcDbSpline
210
0.0
220
0.0
230
1.0
 70
     8
 71
     3
 72
     9
 73
     5
 74
     0
 42
0.000000001
 43
0.0000000001
 40
-1.0
 40
-1.0
 40
-1.0
 40
-1.0
 40
-0.5
 40
0.0
 40
0.0
 40
0.0
 40
0.0
 10
956.0975640977094
 20
1776.085946514281
 30
0.0
 10
955.9633498676291
 20
1775.951932054374
 30
0.0
 10
955.6764467899151
 20
1775.670438736662
 30
0.0
 10
955.3508318543745
 20
1775.364039351943
 30
0.0
 10
955.1778756971467
 20
1775.205192873588
 30
0.0
  0
SPLINE
  5
1A4
330
16B
100
AcDbEntity
  8
P-SANR-FIXT
100
AcDbSpline
210
0.0
220
0.0
230
1.0
 70
     8
 71
     3
 72
     8
 73
     4
 74
     0
 42
0.000000001
 43
0.0000000001
 40
0.0
 40
0.0
 40
0.0
 40
0.0
 40
0.0090450211202985
 40
0.0090450211202985
 40
0.0090450211202985
 40
0.0090450211202985
 10
955.1778756971467
 20
1775.205192873588
 30
0.0
 10
955.1712362582334
 20
1775.208026609836
 30
0.0
 10
955.1645740374764
 20
1775.210828583979
 30
0.0
 10
955.1578894929351
 20
1775.213598520397
 30
0.0
  0
SPLINE
  5
1A5
330
16B
100
AcDbEntity
  8
P-SANR-FIXT
100
AcDbSpline
210
0.0
220
0.0
230
1.0
 70
     8
 71
     3
 72
    11
 73
     7
 74
     0
 42
0.000000001
 43
0.0000000001
 40
0.0
 40
0.0
 40
0.0
 40
0.0
 40
0.25
 40
0.5
 40
0.75
 40
1.0
 40
1.0
 40
1.0
 40
1.0
 10
965.7184485172098
 20
1827.468088599536
 30
0.0
 10
965.002937467066
 20
1827.537356032701
 30
0.0
 10
963.6756186592064
 20
1827.711507999373
 30
0.0
 10
961.952949117939
 20
1828.045493068279
 30
0.0
 10
960.6269918674788
 20
1828.366278173437
 30
0.0
 10
960.0685567444523
 20
1828.521773637673
 30
0.0
 10
959.8656348175309
 20
1828.577721915206
 30
0.0
  0
SPLINE
  5
1A6
330
16B
100
AcDbEntity
  8
P-SANR-FIXT
100
AcDbSpline
210
0.0
220
0.0
230
1.0
 70
     8
 71
     3
 72
     8
 73
     4
 74
     0
 42
0.000000001
 43
0.0000000001
 40
0.5
 40
0.5
 40
0.5
 40
0.5
 40
1.0
 40
1.0
 40
1.0
 40
1.0
 10
960.1661574616594
 20
1814.218756697962
 30
0.0
 10
960.2652504390137
 20
1814.065340989909
 30
0.0
 10
960.3632621790127
 20
1813.910575459854
 30
0.0
 10
960.4601926816563
 20
1813.754467690179
 30
0.0
  0
SPLINE
  5
1A7
330
16B
100
AcDbEntity
  8
P-SANR-FIXT
100
AcDbSpline
210
0.0
220
0.0
230
1.0
 70
     8
 71
     3
 72
    10
 73
     6
 74
     0
 42
0.000000001
 43
0.0000000001
 40
0.0
 40
0.0
 40
0.0
 40
0.0
 40
0.1666666666666666
 40
0.3333333333333333
 40
0.4302917679489188
 40
0.4302917679489188
 40
0.4302917679489188
 40
0.4302917679489188
 10
960.4601926816563
 20
1813.754467690179
 30
0.0
 10
960.411741159293
 20
1812.942547671543
 30
0.0
 10
960.3412149032322
 20
1811.278077412365
 30
0.0
 10
960.3011026135762
 20
1809.040451286907
 30
0.0
 10
960.3261628483682
 20
1807.641631807222
 30
0.0
 10
960.3391477800302
 20
1807.123503148476
 30
0.0
  0
SPLINE
  5
1A8
330
16B
100
AcDbEntity
  8
P-SANR-FIXT
100
AcDbSpline
210
0.0
220
0.0
230
1.0
 70
     8
 71
     3
 72
    10
 73
     6
 74
     0
 42
0.000000001
 43
0.0000000001
 40
0.5697082320510918
 40
0.5697082320510918
 40
0.5697082320510918
 40
0.5697082320510918
 40
0.6666666666666666
 40
0.8333333333333332
 40
1.0
 40
1.0
 40
1.0
 40
1.0
 10
960.3391477800302
 20
1788.214016347592
 30
0.0
 10
960.3261628483682
 20
1787.695887688846
 30
0.0
 10
960.3011026135762
 20
1786.297068209162
 30
0.0
 10
960.3412149032321
 20
1784.059442083704
 30
0.0
 10
960.411741159293
 20
1782.394971824526
 30
0.0
 10
960.4601926816563
 20
1781.58305180589
 30
0.0
  0
SPLINE
  5
1A9
330
16B
100
AcDbEntity
  8
P-SANR-FIXT
100
AcDbSpline
210
0.0
220
0.0
230
1.0
 70
     8
 71
     3
 72
     8
 73
     4
 74
     0
 42
0.000000001
 43
0.0000000001
 40
0.0
 40
0.0
 40
0.0
 40
0.0
 40
0.5
 40
0.5
 40
0.5
 40
0.5
 10
960.4601926816563
 20
1781.58305180589
 30
0.0
 10
960.3632621790127
 20
1781.426944036215
 30
0.0
 10
960.2652504390139
 20
1781.27217850616
 30
0.0
 10
960.1661574616597
 20
1781.118762798106
 30
0.0
  0
SPLINE
  5
1AA
330
16B
100
AcDbEntity
  8
P-SANR-FIXT
100
AcDbSpline
210
0.0
220
0.0
230
1.0
 70
     8
 71
     3
 72
    11
 73
     7
 74
     0
 42
0.000000001
 43
0.0000000001
 40
0.0
 40
0.0
 40
0.0
 40
0.0
 40
0.25
 40
0.5
 40
0.75
 40
1.0
 40
1.0
 40
1.0
 40
1.0
 10
959.865634817531
 20
1766.759797580862
 30
0.0
 10
960.0685567444529
 20
1766.815745858396
 30
0.0
 10
960.6269918674794
 20
1766.971241322632
 30
0.0
 10
961.9529491179392
 20
1767.29202642779
 30
0.0
 10
963.6756186592068
 20
1767.626011496696
 30
0.0
 10
965.0029374670664
 20
1767.800163463368
 30
0.0
 10
965.71844851721
 20
1767.869430896532
 30
0.0
  0
SPLINE
  5
1AB
330
16B
100
AcDbEntity
  8
P-SANR-FIXT
100
AcDbSpline
210
0.0
220
0.0
230
1.0
 70
     8
 71
     3
 72
     9
 73
     5
 74
     0
 42
0.000000001
 43
0.0000000001
 40
-1.0
 40
-1.0
 40
-1.0
 40
-1.0
 40
-0.5
 40
0.0
 40
0.0
 40
0.0
 40
0.0
 10
967.1326620795827
 20
1827.978195653102
 30
0.0
 10
966.9422500399662
 20
1827.788924658987
 30
0.0
 10
966.4909060356588
 20
1827.505043554955
 30
0.0
 10
965.973864328677
 20
1827.443098557289
 30
0.0
 10
965.7184485172098
 20
1827.468088599537
 30
0.0
  0
SPLINE
  5
1AC
330
16B
100
AcDbEntity
  8
P-SANR-FIXT
100
AcDbSpline
210
0.0
220
0.0
230
1.0
 70
     8
 71
     3
 72
     9
 73
     5
 74
     0
 42
0.000000001
 43
0.0000000001
 40
-1.0
 40
-1.0
 40
-1.0
 40
-1.0
 40
-0.5
 40
0.0
 40
0.0
 40
0.0
 40
0.0
 10
965.71844851721
 20
1767.869430896531
 30
0.0
 10
965.9738643286775
 20
1767.89442093878
 30
0.0
 10
966.490906035659
 20
1767.832475941113
 30
0.0
 10
966.9422500399665
 20
1767.548594837082
 30
0.0
 10
967.1326620795831
 20
1767.359323842967
 30
0.0
  0
LINE
  5
1AD
330
16B
100
AcDbEntity
  8
P-SANR-FIXT
100
AcDbLine
 10
992.4851186794812
 20
1800.977197667273
 30
0.0
 11
973.6179434538213
 21
1800.977197667273
 31
0.0
  0
LINE
  5
1AE
330
16B
100
AcDbEntity
  8
P-SANR-FIXT
100
AcDbLine
 10
973.6179434538213
 20
1800.977197667273
 30
0.0
 11
973.6179434538213
 21
1797.668759748034
 31
0.0
  0
LINE
  5
1AF
330
16B
100
AcDbEntity
  8
P-SANR-FIXT
100
AcDbLine
 10
973.6179434538211
 20
1832.168759748035
 30
0.0
 11
973.6179434538211
 21
1828.860321828796
 31
0.0
  0
LINE
  5
1B0
330
16B
100
AcDbEntity
  8
P-SANR-FIXT
100
AcDbLine
 10
973.6179434538211
 20
1828.860321828796
 30
0.0
 11
992.4851186794811
 21
1828.860321828796
 31
0.0
  0
LINE
  5
1B1
330
16B
100
AcDbEntity
  8
P-SANR-FIXT
100
AcDbLine
 10
992.4851186794811
 20
1832.168759748035
 30
0.0
 11
973.6179434538211
 21
1832.168759748035
 31
0.0
  0
LINE
  5
1B2
330
16B
100
AcDbEntity
  8
P-SANR-FIXT
100
AcDbLine
 10
973.6179434538215
 20
1797.668759748034
 30
0.0
 11
973.6179434538215
 21
1794.360321828796
 31
0.0
  0
LINE
  5
1B3
330
16B
100
AcDbEntity
  8
P-SANR-FIXT
100
AcDbLine
 10
973.6179434538213
 20
1794.360321828797
 30
0.0
 11
992.4851186794812
 21
1794.360321828797
 31
0.0
  0
LINE
  5
1B4
330
16B
100
AcDbEntity
  8
P-SANR-FIXT
100
AcDbLine
 10
973.6179434538213
 20
1766.477197667273
 30
0.0
 11
973.6179434538213
 21
1763.168759748034
 31
0.0
  0
LINE
  5
1B5
330
16B
100
AcDbEntity
  8
P-SANR-FIXT
100
AcDbLine
 10
973.6179434538213
 20
1763.168759748035
 30
0.0
 11
992.4851186794814
 21
1763.168759748035
 31
0.0
  0
LINE
  5
1B6
330
16B
100
AcDbEntity
  8
P-SANR-FIXT
100
AcDbLine
 10
992.4851186794814
 20
1766.477197667273
 30
0.0
 11
973.6179434538213
 21
1766.477197667273
 31
0.0
  0
LINE
  5
1B7
330
16B
100
AcDbEntity
  8
P-SANR-FIXT
100
AcDbLine
 10
976.5468756419563
 20
1752.168759748034
 30
0.0
 11
968.5468756419563
 21
1752.168759748034
 31
0.0
  0
LINE
  5
1B8
330
16B
100
AcDbEntity
  8
P-SANR-FIXT
100
AcDbLine
 10
968.5468756419563
 20
1752.168759748034
 30
0.0
 11
960.5468756419563
 21
1752.168759748034
 31
0.0
  0
LINE
  5
1B9
330
16B
100
AcDbEntity
  8
P-SANR-FIXT
100
AcDbLine
 10
908.5468756419562
 20
1752.168759748034
 30
0.0
 11
900.5468756419563
 21
1752.168759748034
 31
0.0
  0
LINE
  5
1BA
330
16B
100
AcDbEntity
  8
P-SANR-FIXT
100
AcDbLine
 10
900.5468756419563
 20
1752.168759748034
 30
0.0
 11
892.5468756419563
 21
1752.168759748034
 31
0.0
  0
SPLINE
  5
1BB
330
16B
100
AcDbEntity
  8
P-SANR-FIXT
100
AcDbSpline
210
0.0
220
0.0
230
1.0
 70
     8
 71
     3
 72
     9
 73
     5
 74
     0
 42
0.000000001
 43
0.0000000001
 40
-1.0
 40
-1.0
 40
-1.0
 40
-1.0
 40
-0.5
 40
0.0
 40
0.0
 40
0.0
 40
0.0
 10
901.9610892043292
 20
1827.978195653102
 30
0.0
 10
901.2875841879331
 20
1828.663598810522
 30
0.0
 10
899.9285423178756
 20
1830.047429317097
 30
0.0
 10
898.6147698246879
 20
1831.457308207143
 30
0.0
 10
897.9844781012479
 20
1832.168759748034
 30
0.0
  0
SPLINE
  5
1BC
330
16B
100
AcDbEntity
  8
P-SANR-FIXT
100
AcDbSpline
210
0.0
220
0.0
230
1.0
 70
    24
 71
     3
 72
     9
 73
     5
 74
     0
 42
0.000000001
 43
0.0000000001
 40
-1.0
 40
-1.0
 40
-1.0
 40
-1.0
 40
-0.5
 40
0.0
 40
0.0
 40
0.0
 40
0.0
 10
897.9844781012479
 20
1832.168759748034
 30
0.0
 10
897.6834104620273
 20
1832.168759748034
 30
0.0
 10
896.9642311109469
 20
1832.168759748034
 30
0.0
 10
896.0109636145888
 20
1832.168759748034
 30
0.0
 10
895.4758078300905
 20
1832.168759748034
 30
0.0
  0
LINE
  5
1BD
330
16B
100
AcDbEntity
  8
P-SANR-FIXT
100
AcDbLine
 10
895.4758078300905
 20
1832.168759748034
 30
0.0
 11
895.4758078300905
 21
1828.860321828797
 31
0.0
  0
SPLINE
  5
1BE
330
16B
100
AcDbEntity
  8
P-SANR-FIXT
100
AcDbSpline
210
0.0
220
0.0
230
1.0
 70
     8
 71
     3
 72
    10
 73
     6
 74
     0
 42
0.000000001
 43
0.0000000001
 40
-1.0
 40
-1.0
 40
-1.0
 40
-1.0
 40
-0.6666666666666666
 40
-0.3333333333333333
 40
0.0
 40
0.0
 40
0.0
 40
0.0
 10
895.4758078300905
 20
1828.860321828797
 30
0.0
 10
897.0388302644034
 20
1825.869807880811
 30
0.0
 10
899.1231498895666
 20
1819.812257952198
 30
0.0
 10
899.1479203293405
 20
1810.109074095356
 30
0.0
 10
897.0496944923745
 20
1804.00363128018
 30
0.0
 10
895.4758078300907
 20
1800.977197667272
 30
0.0
  0
LINE
  5
1BF
330
16B
100
AcDbEntity
  8
P-SANR-FIXT
100
AcDbLine
 10
895.4758078300907
 20
1800.977197667272
 30
0.0
 11
895.4758078300907
 21
1797.668759748034
 31
0.0
  0
LINE
  5
1C0
330
16B
100
AcDbEntity
  8
P-SANR-FIXT
100
AcDbLine
 10
895.4758078300907
 20
1797.668759748034
 30
0.0
 11
895.4758078300907
 21
1794.360321828797
 31
0.0
  0
SPLINE
  5
1C1
330
16B
100
AcDbEntity
  8
P-SANR-FIXT
100
AcDbSpline
210
0.0
220
0.0
230
1.0
 70
     8
 71
     3
 72
    10
 73
     6
 74
     0
 42
0.000000001
 43
0.0000000001
 40
-1.0
 40
-1.0
 40
-1.0
 40
-1.0
 40
-0.6666666666666666
 40
-0.3333333333333333
 40
0.0
 40
0.0
 40
0.0
 40
0.0
 10
895.4758078300907
 20
1794.360321828797
 30
0.0
 10
897.0388302644035
 20
1791.369807880811
 30
0.0
 10
899.1231498895666
 20
1785.312257952198
 30
0.0
 10
899.1479203293405
 20
1775.609074095356
 30
0.0
 10
897.0496944923747
 20
1769.50363128018
 30
0.0
 10
895.4758078300907
 20
1766.477197667272
 30
0.0
  0
LINE
  5
1C2
330
16B
100
AcDbEntity
  8
P-SANR-FIXT
100
AcDbLine
 10
895.4758078300907
 20
1766.477197667272
 30
0.0
 11
895.4758078300907
 21
1763.168759748034
 31
0.0
  0
SPLINE
  5
1C3
330
16B
100
AcDbEntity
  8
P-SANR-FIXT
100
AcDbSpline
210
0.0
220
0.0
230
1.0
 70
    24
 71
     3
 72
     9
 73
     5
 74
     0
 42
0.000000001
 43
0.0000000001
 40
-1.0
 40
-1.0
 40
-1.0
 40
-1.0
 40
-0.5
 40
0.0
 40
0.0
 40
0.0
 40
0.0
 10
895.4758078300907
 20
1763.168759748034
 30
0.0
 10
896.0099140570603
 20
1763.168759748034
 30
0.0
 10
896.9621319958895
 20
1763.168759748034
 30
0.0
 10
897.6823609044988
 20
1763.168759748034
 30
0.0
 10
897.9844781012483
 20
1763.168759748034
 30
0.0
  0
SPLINE
  5
1C4
330
16B
100
AcDbEntity
  8
P-SANR-FIXT
100
AcDbSpline
210
0.0
220
0.0
230
1.0
 70
     8
 71
     3
 72
     9
 73
     5
 74
     0
 42
0.000000001
 43
0.0000000001
 40
-1.0
 40
-1.0
 40
-1.0
 40
-1.0
 40
-0.5
 40
0.0
 40
0.0
 40
0.0
 40
0.0
 10
897.9844781012483
 20
1763.168759748034
 30
0.0
 10
898.6147698246881
 20
1763.880211288925
 30
0.0
 10
899.928542317876
 20
1765.290090178971
 30
0.0
 10
901.2875841879333
 20
1766.673920685546
 30
0.0
 10
901.9610892043294
 20
1767.359323842967
 30
0.0
  0
LINE
  5
1C5
330
16B
100
AcDbEntity
  8
P-SANR-FIXT
100
AcDbLine
 10
874.546875641956
 20
1814.080324319786
 30
0.0
 11
874.5468756419558
 21
1815.819059427397
 31
0.0
  0
LINE
  5
1C6
330
16B
100
AcDbEntity
  8
P-SANR-FIXT
100
AcDbLine
 10
874.546875641956
 20
1815.819059427397
 30
0.0
 11
874.5468756419562
 21
1814.080324319785
 31
0.0
  0
LINE
  5
1C7
330
16B
100
AcDbEntity
  8
P-SANR-FIXT
100
AcDbLine
 10
874.5468756419562
 20
1781.310338141653
 30
0.0
 11
874.5468756419564
 21
1779.571636329996
 31
0.0
  0
LINE
  5
1C8
330
16B
100
AcDbEntity
  8
P-SANR-FIXT
100
AcDbLine
 10
874.5468756419564
 20
1779.571636329995
 30
0.0
 11
874.5468756419562
 21
1781.310338141653
 31
0.0
  0
SPLINE
  5
1C9
330
16B
100
AcDbEntity
  8
P-SANR-FIXT
100
AcDbSpline
210
0.0
220
0.0
230
1.0
 70
     8
 71
     3
 72
     9
 73
     5
 74
     0
 42
0.000000001
 43
0.0000000001
 40
-1.0
 40
-1.0
 40
-1.0
 40
-1.0
 40
-0.5
 40
0.0
 40
0.0
 40
0.0
 40
0.0
 10
903.3753027667023
 20
1827.468088599537
 30
0.0
 10
903.1204030027316
 20
1827.4430830703
 30
0.0
 10
902.6036536419328
 20
1827.504733788487
 30
0.0
 10
902.1517475261569
 20
1827.788712847166
 30
0.0
 10
901.9610892043292
 20
1827.978195653102
 30
0.0
  0
SPLINE
  5
1CA
330
16B
100
AcDbEntity
  8
P-SANR-FIXT
100
AcDbSpline
210
0.0
220
0.0
230
1.0
 70
     8
 71
     3
 72
     9
 73
     5
 74
     0
 42
0.000000001
 43
0.0000000001
 40
-1.0
 40
-1.0
 40
-1.0
 40
-1.0
 40
-0.5
 40
0.0
 40
0.0
 40
0.0
 40
0.0
 10
901.9610892043294
 20
1767.359323842967
 30
0.0
 10
902.1517475261573
 20
1767.548806648903
 30
0.0
 10
902.6036536419331
 20
1767.832785707582
 30
0.0
 10
903.1204030027318
 20
1767.894436425768
 30
0.0
 10
903.3753027667026
 20
1767.869430896531
 30
0.0
  0
LINE
  5
1CB
330
16B
100
AcDbEntity
  8
P-SANR-FIXT
100
AcDbLine
 10
895.4758078300907
 20
1800.977197667272
 30
0.0
 11
876.6086326044312
 21
1800.977197667272
 31
0.0
  0
LINE
  5
1CC
330
16B
100
AcDbEntity
  8
P-SANR-FIXT
100
AcDbLine
 10
876.6086326044312
 20
1797.668759748034
 30
0.0
 11
876.6086326044312
 21
1800.977197667272
 31
0.0
  0
LINE
  5
1CD
330
16B
100
AcDbEntity
  8
P-SANR-FIXT
100
AcDbLine
 10
876.6086326044311
 20
1828.860321828797
 30
0.0
 11
876.6086326044311
 21
1832.168759748034
 31
0.0
  0
LINE
  5
1CE
330
16B
100
AcDbEntity
  8
P-SANR-FIXT
100
AcDbLine
 10
876.6086326044311
 20
1828.860321828797
 30
0.0
 11
895.4758078300905
 21
1828.860321828797
 31
0.0
  0
LINE
  5
1CF
330
16B
100
AcDbEntity
  8
P-SANR-FIXT
100
AcDbLine
 10
895.4758078300905
 20
1832.168759748034
 30
0.0
 11
876.6086326044311
 21
1832.168759748034
 31
0.0
  0
LINE
  5
1D0
330
16B
100
AcDbEntity
  8
P-SANR-FIXT
100
AcDbLine
 10
876.6086326044311
 20
1794.360321828797
 30
0.0
 11
876.6086326044311
 21
1797.668759748034
 31
0.0
  0
LINE
  5
1D1
330
16B
100
AcDbEntity
  8
P-SANR-FIXT
100
AcDbLine
 10
876.6086326044312
 20
1794.360321828797
 30
0.0
 11
895.4758078300907
 21
1794.360321828797
 31
0.0
  0
LINE
  5
1D2
330
16B
100
AcDbEntity
  8
P-SANR-FIXT
100
AcDbLine
 10
876.6086326044314
 20
1763.168759748034
 30
0.0
 11
876.6086326044314
 21
1766.477197667272
 31
0.0
  0
LINE
  5
1D3
330
16B
100
AcDbEntity
  8
P-SANR-FIXT
100
AcDbLine
 10
876.6086326044314
 20
1763.168759748034
 30
0.0
 11
895.4758078300907
 21
1763.168759748034
 31
0.0
  0
LINE
  5
1D4
330
16B
100
AcDbEntity
  8
P-SANR-FIXT
100
AcDbLine
 10
895.4758078300907
 20
1766.477197667272
 30
0.0
 11
876.6086326044314
 21
1766.477197667272
 31
0.0
  0
SPLINE
  5
1D5
330
16B
100
AcDbEntity
  8
P-SANR-FIXT
100
AcDbSpline
210
0.0
220
0.0
230
1.0
 70
     8
 71
     3
 72
    10
 73
     6
 74
     0
 42
0.000000001
 43
0.0000000001
 40
0.5697082320511335
 40
0.5697082320511335
 40
0.5697082320511335
 40
0.5697082320511335
 40
0.6666666666666666
 40
0.8333333333333332
 40
1.0
 40
1.0
 40
1.0
 40
1.0
 10
908.7546035038826
 20
1807.123503148478
 30
0.0
 10
908.7675884355446
 20
1807.641631807223
 30
0.0
 10
908.7926486703366
 20
1809.040451286908
 30
0.0
 10
908.7525363806806
 20
1811.278077412366
 30
0.0
 10
908.6820101246198
 20
1812.942547671543
 30
0.0
 10
908.6335586022565
 20
1813.75446769018
 30
0.0
  0
SPLINE
  5
1D6
330
16B
100
AcDbEntity
  8
P-SANR-FIXT
100
AcDbSpline
210
0.0
220
0.0
230
1.0
 70
     8
 71
     3
 72
     8
 73
     4
 74
     0
 42
0.000000001
 43
0.0000000001
 40
0.0
 40
0.0
 40
0.0
 40
0.0
 40
0.5
 40
0.5
 40
0.5
 40
0.5
 10
908.6335586022565
 20
1813.75446769018
 30
0.0
 10
908.7304891049001
 20
1813.910575459855
 30
0.0
 10
908.8285008448989
 20
1814.06534098991
 30
0.0
 10
908.9275938222529
 20
1814.218756697962
 30
0.0
  0
SPLINE
  5
1D7
330
16B
100
AcDbEntity
  8
P-SANR-FIXT
100
AcDbSpline
210
0.0
220
0.0
230
1.0
 70
     8
 71
     3
 72
    11
 73
     7
 74
     0
 42
0.000000001
 43
0.0000000001
 40
0.0
 40
0.0
 40
0.0
 40
0.0
 40
0.25
 40
0.5
 40
0.75
 40
1.0
 40
1.0
 40
1.0
 40
1.0
 10
909.2281164663813
 20
1828.577721915207
 30
0.0
 10
909.025279350101
 20
1828.521787130745
 30
0.0
 10
908.4669843352333
 20
1828.366340239431
 30
0.0
 10
907.1409567975845
 20
1828.045528711849
 30
0.0
 10
905.4185122498626
 20
1827.711566213753
 30
0.0
 10
904.0909708237874
 20
1827.537380461049
 30
0.0
 10
903.3753027667023
 20
1827.468088599537
 30
0.0
  0
SPLINE
  5
1D8
330
16B
100
AcDbEntity
  8
P-SANR-FIXT
100
AcDbSpline
210
0.0
220
0.0
230
1.0
 70
     8
 71
     3
 72
    11
 73
     7
 74
     0
 42
0.000000001
 43
0.0000000001
 40
0.0
 40
0.0
 40
0.0
 40
0.0
 40
0.25
 40
0.5
 40
0.75
 40
1.0
 40
1.0
 40
1.0
 40
1.0
 10
903.3753027667026
 20
1767.869430896531
 30
0.0
 10
904.0909708237874
 20
1767.80013903502
 30
0.0
 10
905.4185122498626
 20
1767.625953282315
 30
0.0
 10
907.1409567975846
 20
1767.291990784219
 30
0.0
 10
908.4669843352335
 20
1766.971179256638
 30
0.0
 10
909.0252793501013
 20
1766.815732365324
 30
0.0
 10
909.2281164663814
 20
1766.759797580862
 30
0.0
  0
SPLINE
  5
1D9
330
16B
100
AcDbEntity
  8
P-SANR-FIXT
100
AcDbSpline
210
0.0
220
0.0
230
1.0
 70
     8
 71
     3
 72
     8
 73
     4
 74
     0
 42
0.000000001
 43
0.0000000001
 40
0.5
 40
0.5
 40
0.5
 40
0.5
 40
1.0
 40
1.0
 40
1.0
 40
1.0
 10
908.9275938222533
 20
1781.118762798106
 30
0.0
 10
908.8285008448989
 20
1781.272178506159
 30
0.0
 10
908.7304891049001
 20
1781.426944036214
 30
0.0
 10
908.6335586022565
 20
1781.583051805889
 30
0.0
  0
SPLINE
  5
1DA
330
16B
100
AcDbEntity
  8
P-SANR-FIXT
100
AcDbSpline
210
0.0
220
0.0
230
1.0
 70
     8
 71
     3
 72
    10
 73
     6
 74
     0
 42
0.000000001
 43
0.0000000001
 40
0.0
 40
0.0
 40
0.0
 40
0.0
 40
0.1666666666666666
 40
0.3333333333333333
 40
0.430291767948848
 40
0.430291767948848
 40
0.430291767948848
 40
0.430291767948848
 10
908.6335586022565
 20
1781.583051805889
 30
0.0
 10
908.6820101246198
 20
1782.394971824525
 30
0.0
 10
908.7525363806806
 20
1784.059442083703
 30
0.0
 10
908.7926486703366
 20
1786.297068209161
 30
0.0
 10
908.7675884355446
 20
1787.695887688845
 30
0.0
 10
908.7546035038826
 20
1788.214016347591
 30
0.0
  0
LINE
  5
1DB
330
16B
100
AcDbEntity
  8
P-SANR-FIXT
100
AcDbLine
 10
909.2281164663813
 20
1814.682334488531
 30
0.0
 11
909.2281164663813
 21
1814.634590516832
 31
0.0
  0
SPLINE
  5
1DC
330
16B
100
AcDbEntity
  8
P-SANR-FIXT
100
AcDbSpline
210
0.0
220
0.0
230
1.0
 70
     8
 71
     3
 72
     9
 73
     5
 74
     0
 42
0.000000001
 43
0.0000000001
 40
-1.0
 40
-1.0
 40
-1.0
 40
-1.0
 40
-0.5
 40
0.0
 40
0.0
 40
0.0
 40
0.0
 10
909.546875641956
 20
1828.445562170423
 30
0.0
 10
909.546875641956
 20
1828.4454546824
 30
0.0
 10
909.4930271972748
 20
1828.467373818506
 30
0.0
 10
909.3334166825318
 20
1828.533561178922
 30
0.0
 10
909.2281164663813
 20
1828.577721915206
 30
0.0
  0
LINE
  5
1DD
330
16B
100
AcDbEntity
  8
P-SANR-FIXT
100
AcDbLine
 10
909.2281164663813
 20
1814.674947851464
 30
0.0
 11
909.2281164663813
 21
1828.577721915206
 31
0.0
  0
SPLINE
  5
1DE
330
16B
100
AcDbEntity
  8
P-SANR-FIXT
100
AcDbSpline
210
0.0
220
0.0
230
1.0
 70
     8
 71
     3
 72
     8
 73
     4
 74
     0
 42
0.000000001
 43
0.0000000001
 40
-0.5
 40
-0.5
 40
-0.5
 40
-0.5
 40
0.0
 40
0.0
 40
0.0
 40
0.0
 10
909.5840779571661
 20
1815.193277765607
 30
0.0
 10
909.7031383181828
 20
1815.362873289092
 30
0.0
 10
909.8225562755652
 20
1815.529303298346
 30
0.0
 10
909.9421904697523
 20
1815.69261803578
 30
0.0
  0
SPLINE
  5
1DF
330
16B
100
AcDbEntity
  8
P-SANR-FIXT
100
AcDbSpline
210
0.0
220
0.0
230
1.0
 70
     8
 71
     3
 72
     8
 73
     4
 74
     0
 42
0.000000001
 43
0.0000000001
 40
-1.0
 40
-1.0
 40
-1.0
 40
-1.0
 40
-0.5
 40
-0.5
 40
-0.5
 40
-0.5
 10
909.9421904697527
 20
1779.644901460289
 30
0.0
 10
909.8225562755654
 20
1779.808216197722
 30
0.0
 10
909.7031383181832
 20
1779.974646206976
 30
0.0
 10
909.5840779571663
 20
1780.144241730461
 30
0.0
  0
LINE
  5
1E0
330
16B
100
AcDbEntity
  8
P-SANR-FIXT
100
AcDbLine
 10
909.2281164663814
 20
1766.759797580862
 30
0.0
 11
909.2281164663814
 21
1780.662571644604
 31
0.0
  0
SPLINE
  5
1E1
330
16B
100
AcDbEntity
  8
P-SANR-FIXT
100
AcDbSpline
210
0.0
220
0.0
230
1.0
 70
     8
 71
     3
 72
     9
 73
     5
 74
     0
 42
0.000000001
 43
0.0000000001
 40
-1.0
 40
-1.0
 40
-1.0
 40
-1.0
 40
-0.5
 40
0.0
 40
0.0
 40
0.0
 40
0.0
 10
909.2281164663814
 20
1766.759797580862
 30
0.0
 10
909.333416682532
 20
1766.803958317147
 30
0.0
 10
909.4930271972749
 20
1766.870145677562
 30
0.0
 10
909.5468756419561
 20
1766.892064813669
 30
0.0
 10
909.5468756419561
 20
1766.891957325645
 30
0.0
  0
LINE
  5
1E2
330
16B
100
AcDbEntity
  8
P-SANR-FIXT
100
AcDbLine
 10
909.2281164663814
 20
1780.702928979237
 30
0.0
 11
909.2281164663814
 21
1780.655185007538
 31
0.0
  0
LINE
  5
1E3
330
16B
100
AcDbEntity
  8
P-SANR-FIXT
100
AcDbLine
 10
909.9421904697523
 20
1815.69261803578
 30
0.0
 11
909.9421904697523
 21
1828.168668551285
 31
0.0
  0
LINE
  5
1E4
330
16B
100
AcDbEntity
  8
P-SANR-FIXT
100
AcDbLine
 10
909.9421904697523
 20
1815.696047522794
 30
0.0
 11
909.9421904697523
 21
1815.679171533273
 31
0.0
  0
SPLINE
  5
1E5
330
16B
100
AcDbEntity
  8
P-SANR-FIXT
100
AcDbSpline
210
0.0
220
0.0
230
1.0
 70
     8
 71
     3
 72
     8
 73
     4
 74
     0
 42
0.000000001
 43
0.0000000001
 40
0.0
 40
0.0
 40
0.0
 40
0.0
 40
0.0137570111633082
 40
0.0137570111633082
 40
0.0137570111633082
 40
0.0137570111633082
 10
909.9421904697523
 20
1815.69261803578
 30
0.0
 10
909.9934065017176
 20
1815.760671396347
 30
0.0
 10
910.0447490363942
 20
1815.828436953936
 30
0.0
 10
910.0962193276743
 20
1815.895914039763
 30
0.0
  0
SPLINE
  5
1E6
330
16B
100
AcDbEntity
  8
P-SANR-FIXT
100
AcDbSpline
210
0.0
220
0.0
230
1.0
 70
     8
 71
     3
 72
     8
 73
     4
 74
     0
 42
0.000000001
 43
0.0000000001
 40
0.1556505487346558
 40
0.1556505487346558
 40
0.1556505487346558
 40
0.1556505487346558
 40
0.1666666666666666
 40
0.1666666666666666
 40
0.1666666666666666
 40
0.1666666666666666
 10
911.731004594505
 20
1817.89104449876
 30
0.0
 10
911.7744373222786
 20
1817.940255593444
 30
0.0
 10
911.8179894388752
 20
1817.989200396927
 30
0.0
 10
911.8616561616024
 20
1818.037892867698
 30
0.0
  0
SPLINE
  5
1E7
330
16B
100
AcDbEntity
  8
P-SANR-FIXT
100
AcDbSpline
210
0.0
220
0.0
230
1.0
 70
     8
 71
     3
 72
     8
 73
     4
 74
     0
 42
0.000000001
 43
0.0000000001
 40
0.3031004981549461
 40
0.3031004981549461
 40
0.3031004981549461
 40
0.3031004981549461
 40
0.3333333333333333
 40
0.3333333333333333
 40
0.3333333333333333
 40
0.3333333333333333
 10
913.5250672424572
 20
1819.764486510524
 30
0.0
 10
913.6512091416687
 20
1819.885458874584
 30
0.0
 10
913.7783104651058
 20
1820.004351046938
 30
0.0
 10
913.9057393849272
 20
1820.123013109453
 30
0.0
  0
SPLINE
  5
1E8
330
16B
100
AcDbEntity
  8
P-SANR-FIXT
100
AcDbSpline
210
0.0
220
0.0
230
1.0
 70
     8
 71
     3
 72
     8
 73
     4
 74
     0
 42
0.000000001
 43
0.0000000001
 40
0.4512152741921908
 40
0.4512152741921908
 40
0.4512152741921908
 40
0.4512152741921908
 40
0.5
 40
0.5
 40
0.5
 40
0.5
 10
915.4310341948084
 20
1821.437776532162
 30
0.0
 10
915.6455597528134
 20
1821.610164806214
 30
0.0
 10
915.8606965858258
 20
1821.781990030199
 30
0.0
 10
916.0769265211524
 20
1821.951212211777
 30
0.0
  0
SPLINE
  5
1E9
330
16B
100
AcDbEntity
  8
P-SANR-FIXT
100
AcDbSpline
210
0.0
220
0.0
230
1.0
 70
     8
 71
     3
 72
     9
 73
     5
 74
     0
 42
0.000000001
 43
0.0000000001
 40
0.6057876874722864
 40
0.6057876874722864
 40
0.6057876874722864
 40
0.6057876874722864
 40
0.6666666666666666
 40
1.0
 40
1.0
 40
1.0
 40
1.0
 10
917.512054747196
 20
1822.968160942984
 30
0.0
 10
917.7900578211637
 20
1823.155143713964
 30
0.0
 10
919.6006704680925
 20
1824.331090206529
 30
0.0
 10
921.4652633252502
 20
1825.286874553916
 30
0.0
 10
923.0983356198912
 20
1825.938548062826
 30
0.0
  0
SPLINE
  5
1EA
330
16B
100
AcDbEntity
  8
P-SANR-FIXT
100
AcDbSpline
210
0.0
220
0.0
230
1.0
 70
     8
 71
     3
 72
     9
 73
     5
 74
     0
 42
0.000000001
 43
0.0000000001
 40
0.0
 40
0.0
 40
0.0
 40
0.0
 40
0.3333333333333333
 40
0.3942123125277013
 40
0.3942123125277013
 40
0.3942123125277013
 40
0.3942123125277013
 10
923.0983356198915
 20
1769.398971433243
 30
0.0
 10
921.4652633252505
 20
1770.050644942152
 30
0.0
 10
919.6006704680927
 20
1771.006429289539
 30
0.0
 10
917.7900578211639
 20
1772.182375782105
 30
0.0
 10
917.5120547471962
 20
1772.369358553084
 30
0.0
  0
SPLINE
  5
1EB
330
16B
100
AcDbEntity
  8
P-SANR-FIXT
100
AcDbSpline
210
0.0
220
0.0
230
1.0
 70
     8
 71
     3
 72
     8
 73
     4
 74
     0
 42
0.000000001
 43
0.0000000001
 40
0.5
 40
0.5
 40
0.5
 40
0.5
 40
0.5487847258077963
 40
0.5487847258077963
 40
0.5487847258077963
 40
0.5487847258077963
 10
916.0791457154626
 20
1773.393502297296
 30
0.0
 10
915.8616528428346
 20
1773.558629817011
 30
0.0
 10
915.6439545057105
 20
1773.723991439738
 30
0.0
 10
915.4276280612155
 20
1773.892606567783
 30
0.0
  0
SPLINE
  5
1EC
330
16B
100
AcDbEntity
  8
P-SANR-FIXT
100
AcDbSpline
210
0.0
220
0.0
230
1.0
 70
     8
 71
     3
 72
     8
 73
     4
 74
     0
 42
0.000000001
 43
0.0000000001
 40
0.6666666666666666
 40
0.6666666666666666
 40
0.6666666666666666
 40
0.6666666666666666
 40
0.6968995018450403
 40
0.6968995018450403
 40
0.6968995018450403
 40
0.6968995018450403
 10
913.9057393849274
 20
1775.214506386616
 30
0.0
 10
913.7780954197033
 20
1775.332549389101
 30
0.0
 10
913.6524415489736
 20
1775.454653130843
 30
0.0
 10
913.5284291318695
 20
1775.580105103448
 30
0.0
  0
SPLINE
  5
1ED
330
16B
100
AcDbEntity
  8
P-SANR-FIXT
100
AcDbSpline
210
0.0
220
0.0
230
1.0
 70
     8
 71
     3
 72
     8
 73
     4
 74
     0
 42
0.000000001
 43
0.0000000001
 40
0.8333333333333332
 40
0.8333333333333332
 40
0.8333333333333332
 40
0.8333333333333332
 40
0.8443494512653286
 40
0.8443494512653286
 40
0.8443494512653286
 40
0.8443494512653286
 10
911.8615740617961
 20
1777.299410250172
 30
0.0
 10
911.817960263431
 20
1777.34824220578
 30
0.0
 10
911.7745973277475
 20
1777.397613129856
 30
0.0
 10
911.7314528834073
 20
1777.447453430692
 30
0.0
  0
SPLINE
  5
1EE
330
16B
100
AcDbEntity
  8
P-SANR-FIXT
100
AcDbSpline
210
0.0
220
0.0
230
1.0
 70
     8
 71
     3
 72
     8
 73
     4
 74
     0
 42
0.000000001
 43
0.0000000001
 40
0.9862429888366712
 40
0.9862429888366712
 40
0.9862429888366712
 40
0.9862429888366712
 40
1.0
 40
1.0
 40
1.0
 40
1.0
 10
910.096219327675
 20
1779.441605456305
 30
0.0
 10
910.0447490363945
 20
1779.509082542133
 30
0.0
 10
909.993406501718
 20
1779.576848099722
 30
0.0
 10
909.9421904697527
 20
1779.644901460289
 30
0.0
  0
LINE
  5
1EF
330
16B
100
AcDbEntity
  8
P-SANR-FIXT
100
AcDbLine
 10
909.9421904697527
 20
1779.658347962797
 30
0.0
 11
909.9421904697527
 21
1779.641471973275
 31
0.0
  0
LINE
  5
1F0
330
16B
100
AcDbEntity
  8
P-SANR-FIXT
100
AcDbLine
 10
909.9421904697527
 20
1767.168850944783
 30
0.0
 11
909.9421904697527
 21
1779.644901460289
 31
0.0
  0
SPLINE
  5
1F1
330
16B
100
AcDbEntity
  8
P-SANR-FIXT
100
AcDbSpline
210
0.0
220
0.0
230
1.0
 70
     8
 71
     3
 72
     8
 73
     4
 74
     0
 42
0.000000001
 43
0.0000000001
 40
-0.5
 40
-0.5
 40
-0.5
 40
-0.5
 40
0.0
 40
0.0
 40
0.0
 40
0.0
 10
956.9389655527695
 20
1818.377316178313
 30
0.0
 10
957.2559721544946
 20
1818.034536508288
 30
0.0
 10
957.607660729535
 20
1817.638744384391
 30
0.0
 10
957.986249575959
 20
1817.184029399822
 30
0.0
  0
SPLINE
  5
1F2
330
16B
100
AcDbEntity
  8
P-SANR-FIXT
100
AcDbSpline
210
0.0
220
0.0
230
1.0
 70
     8
 71
     3
 72
     8
 73
     4
 74
     0
 42
0.000000001
 43
0.0000000001
 40
-1.0
 40
-1.0
 40
-1.0
 40
-1.0
 40
-0.5
 40
-0.5
 40
-0.5
 40
-0.5
 10
957.9862495759593
 20
1778.153490096247
 30
0.0
 10
957.6076607295352
 20
1777.698775111678
 30
0.0
 10
957.255972154495
 20
1777.30298298778
 30
0.0
 10
956.9389655527698
 20
1776.960203317756
 30
0.0
  0
SPLINE
  5
1F3
330
16B
100
AcDbEntity
  8
P-SANR-FIXT
100
AcDbSpline
210
0.0
220
0.0
230
1.0
 70
     8
 71
     3
 72
    10
 73
     6
 74
     0
 42
0.000000001
 43
0.0000000001
 40
-0.6
 40
-0.6
 40
-0.6
 40
-0.6
 40
-0.55
 40
-0.4
 40
-0.2
 40
-0.2
 40
-0.2
 40
-0.2
 10
958.5712615062453
 20
1816.459155379702
 30
0.0
 10
958.6017960038255
 20
1816.420116745879
 30
0.0
 10
958.726313537147
 20
1816.259875738245
 30
0.0
 10
958.9933061219515
 20
1815.913282880755
 30
0.0
 10
959.2555177257326
 20
1815.543136503453
 30
0.0
 10
959.4078670282707
 20
1815.326127115093
 30
0.0
  0
SPLINE
  5
1F4
330
16B
100
AcDbEntity
  8
P-SANR-FIXT
100
AcDbSpline
210
0.0
220
0.0
230
1.0
 70
     8
 71
     3
 72
     9
 73
     5
 74
     0
 42
0.000000001
 43
0.0000000001
 40
-1.0
 40
-1.0
 40
-1.0
 40
-1.0
 40
-0.5
 40
0.0
 40
0.0
 40
0.0
 40
0.0
 10
959.8656348175309
 20
1828.577721915206
 30
0.0
 10
959.7599367652668
 20
1828.602540062891
 30
0.0
 10
959.6003205490609
 20
1828.638270307967
 30
0.0
 10
959.546875641956
 20
1828.646188452453
 30
0.0
 10
959.546875641956
 20
1828.643194499549
 30
0.0
  0
SPLINE
  5
1F5
330
16B
100
AcDbEntity
  8
P-SANR-FIXT
100
AcDbSpline
210
0.0
220
0.0
230
1.0
 70
     8
 71
     3
 72
     9
 73
     5
 74
     0
 42
0.000000001
 43
0.0000000001
 40
-1.0
 40
-1.0
 40
-1.0
 40
-1.0
 40
-0.5
 40
0.0
 40
0.0
 40
0.0
 40
0.0
 10
959.5468756419561
 20
1766.694324996519
 30
0.0
 10
959.5468756419561
 20
1766.691331043615
 30
0.0
 10
959.6003205490612
 20
1766.699249188101
 30
0.0
 10
959.7599367652671
 20
1766.734979433177
 30
0.0
 10
959.865634817531
 20
1766.759797580862
 30
0.0
  0
SPLINE
  5
1F6
330
16B
100
AcDbEntity
  8
P-SANR-FIXT
100
AcDbSpline
210
0.0
220
0.0
230
1.0
 70
     8
 71
     3
 72
     8
 73
     4
 74
     0
 42
0.000000001
 43
0.0000000001
 40
-0.8
 40
-0.8
 40
-0.8
 40
-0.8
 40
-0.4
 40
-0.4
 40
-0.4
 40
-0.4
 10
959.3999251988115
 20
1779.989063548789
 30
0.0
 10
959.0981772343251
 20
1779.564952495435
 30
0.0
 10
958.8263562824774
 20
1779.205471762414
 30
0.0
 10
958.5711877180408
 20
1778.878272014319
 30
0.0
  0
SPLINE
  5
1F7
330
16B
100
AcDbEntity
  8
P-SANR-FIXT
100
AcDbSpline
210
0.0
220
0.0
230
1.0
 70
     8
 71
     3
 72
    10
 73
     6
 74
     0
 42
0.000000001
 43
0.0000000001
 40
-1.0
 40
-1.0
 40
-1.0
 40
-1.0
 40
-0.6666666666666666
 40
-0.3333333333333333
 40
0.0
 40
0.0
 40
0.0
 40
0.0
 10
973.6179434538213
 20
1800.977197667273
 30
0.0
 10
972.0440567915376
 20
1804.003631280181
 30
0.0
 10
969.945830954572
 20
1810.109074095356
 30
0.0
 10
969.9706013943456
 20
1819.812257952198
 30
0.0
 10
972.0549210195084
 20
1825.86980788081
 30
0.0
 10
973.6179434538211
 20
1828.860321828796
 30
0.0
  0
SPLINE
  5
1F8
330
16B
100
AcDbEntity
  8
P-SANR-FIXT
100
AcDbSpline
210
0.0
220
0.0
230
1.0
 70
    24
 71
     3
 72
     9
 73
     5
 74
     0
 42
0.000000001
 43
0.0000000001
 40
-1.0
 40
-1.0
 40
-1.0
 40
-1.0
 40
-0.5
 40
0.0
 40
0.0
 40
0.0
 40
0.0
 10
973.6179434538211
 20
1832.168759748035
 30
0.0
 10
973.0865296998551
 20
1832.168759748035
 30
0.0
 10
972.13700423403
 20
1832.168759748035
 30
0.0
 10
971.4140828524174
 20
1832.168759748035
 30
0.0
 10
971.1092731826642
 20
1832.168759748035
 30
0.0
  0
SPLINE
  5
1F9
330
16B
100
AcDbEntity
  8
P-SANR-FIXT
100
AcDbSpline
210
0.0
220
0.0
230
1.0
 70
     8
 71
     3
 72
     9
 73
     5
 74
     0
 42
0.000000001
 43
0.0000000001
 40
-1.0
 40
-1.0
 40
-1.0
 40
-1.0
 40
-0.5
 40
0.0
 40
0.0
 40
0.0
 40
0.0
 10
971.1092731826642
 20
1832.168759748035
 30
0.0
 10
970.4799503030375
 20
1831.458373537073
 30
0.0
 10
969.1672505805481
 20
1830.049559976956
 30
0.0
 10
967.8071652126059
 20
1828.664664140451
 30
0.0
 10
967.1326620795827
 20
1827.978195653102
 30
0.0
  0
SPLINE
  5
1FA
330
16B
100
AcDbEntity
  8
P-SANR-FIXT
100
AcDbSpline
210
0.0
220
0.0
230
1.0
 70
     8
 71
     3
 72
     9
 73
     5
 74
     0
 42
0.000000001
 43
0.0000000001
 40
-1.0
 40
-1.0
 40
-1.0
 40
-1.0
 40
-0.5
 40
0.0
 40
0.0
 40
0.0
 40
0.0
 10
967.1326620795831
 20
1767.359323842967
 30
0.0
 10
967.807165212606
 20
1766.672855355618
 30
0.0
 10
969.1672505805483
 20
1765.287959519113
 30
0.0
 10
970.4799503030375
 20
1763.879145958996
 30
0.0
 10
971.1092731826642
 20
1763.168759748034
 30
0.0
  0
SPLINE
  5
1FB
330
16B
100
AcDbEntity
  8
P-SANR-FIXT
100
AcDbSpline
210
0.0
220
0.0
230
1.0
 70
    24
 71
     3
 72
     9
 73
     5
 74
     0
 42
0.000000001
 43
0.0000000001
 40
-1.0
 40
-1.0
 40
-1.0
 40
-1.0
 40
-0.5
 40
0.0
 40
0.0
 40
0.0
 40
0.0
 10
971.1092731826642
 20
1763.168759748034
 30
0.0
 10
971.4152803185518
 20
1763.168759748034
 30
0.0
 10
972.139399166299
 20
1763.168759748034
 30
0.0
 10
973.0877271659897
 20
1763.168759748034
 30
0.0
 10
973.6179434538213
 20
1763.168759748034
 30
0.0
  0
SPLINE
  5
1FC
330
16B
100
AcDbEntity
  8
P-SANR-FIXT
100
AcDbSpline
210
0.0
220
0.0
230
1.0
 70
     8
 71
     3
 72
    10
 73
     6
 74
     0
 42
0.000000001
 43
0.0000000001
 40
-1.0
 40
-1.0
 40
-1.0
 40
-1.0
 40
-0.6666666666666666
 40
-0.3333333333333333
 40
0.0
 40
0.0
 40
0.0
 40
0.0
 10
973.6179434538213
 20
1766.477197667273
 30
0.0
 10
972.0440567915376
 20
1769.503631280181
 30
0.0
 10
969.945830954572
 20
1775.609074095356
 30
0.0
 10
969.9706013943456
 20
1785.312257952198
 30
0.0
 10
972.0549210195086
 20
1791.369807880811
 30
0.0
 10
973.6179434538213
 20
1794.360321828796
 30
0.0
  0
SPLINE
  5
1FD
330
16B
100
AcDbEntity
  8
P-SANR-FIXT
100
AcDbSpline
210
0.0
220
0.0
230
1.0
 70
    24
 71
     3
 72
     9
 73
     5
 74
     0
 42
0.000000001
 43
0.0000000001
 40
-1.0
 40
-1.0
 40
-1.0
 40
-1.0
 40
-0.5
 40
0.0
 40
0.0
 40
0.0
 40
0.0
 10
994.5468756419559
 20
1832.168759748035
 30
0.0
 10
994.5285735408248
 20
1832.168759748035
 30
0.0
 10
994.1666452792812
 20
1832.168759748035
 30
0.0
 10
993.154068899175
 20
1832.168759748035
 30
0.0
 10
992.4851186794811
 20
1832.168759748035
 30
0.0
  0
LINE
  5
1FE
330
16B
100
AcDbEntity
  8
P-SANR-FIXT
100
AcDbLine
 10
992.4851186794811
 20
1828.860321828796
 30
0.0
 11
992.4851186794811
 21
1832.168759748035
 31
0.0
  0
SPLINE
  5
1FF
330
16B
100
AcDbEntity
  8
P-SANR-FIXT
100
AcDbSpline
210
0.0
220
0.0
230
1.0
 70
     8
 71
     3
 72
    10
 73
     6
 74
     0
 42
0.000000001
 43
0.0000000001
 40
-1.0
 40
-1.0
 40
-1.0
 40
-1.0
 40
-0.6666666666666666
 40
-0.3333333333333333
 40
0.0
 40
0.0
 40
0.0
 40
0.0
 10
992.4851186794811
 20
1828.860321828796
 30
0.0
 10
993.3953799593565
 20
1825.755283894621
 30
0.0
 10
994.6091691397544
 20
1819.550817754295
 30
0.0
 10
994.6183581579749
 20
1810.342032221491
 30
0.0
 10
993.399410230506
 20
1804.105948664184
 30
0.0
 10
992.4851186794812
 20
1800.977197667273
 30
0.0
  0
LINE
  5
200
330
16B
100
AcDbEntity
  8
P-SANR-FIXT
100
AcDbLine
 10
992.4851186794812
 20
1797.668759748034
 30
0.0
 11
992.4851186794812
 21
1800.977197667273
 31
0.0
  0
LINE
  5
201
330
16B
100
AcDbEntity
  8
P-SANR-FIXT
100
AcDbLine
 10
992.4851186794811
 20
1794.360321828796
 30
0.0
 11
992.4851186794811
 21
1797.668759748034
 31
0.0
  0
SPLINE
  5
202
330
16B
100
AcDbEntity
  8
P-SANR-FIXT
100
AcDbSpline
210
0.0
220
0.0
230
1.0
 70
     8
 71
     3
 72
    10
 73
     6
 74
     0
 42
0.000000001
 43
0.0000000001
 40
-1.0
 40
-1.0
 40
-1.0
 40
-1.0
 40
-0.6666666666666666
 40
-0.3333333333333333
 40
0.0
 40
0.0
 40
0.0
 40
0.0
 10
992.4851186794812
 20
1794.360321828796
 30
0.0
 10
993.3953799593567
 20
1791.255283894621
 30
0.0
 10
994.6091691397544
 20
1785.050817754295
 30
0.0
 10
994.6183581579749
 20
1775.842032221491
 30
0.0
 10
993.3994102305062
 20
1769.605948664184
 30
0.0
 10
992.4851186794814
 20
1766.477197667273
 30
0.0
  0
LINE
  5
203
330
16B
100
AcDbEntity
  8
P-SANR-FIXT
100
AcDbLine
 10
992.4851186794814
 20
1763.168759748034
 30
0.0
 11
992.4851186794814
 21
1766.477197667273
 31
0.0
  0
SPLINE
  5
204
330
16B
100
AcDbEntity
  8
P-SANR-FIXT
100
AcDbSpline
210
0.0
220
0.0
230
1.0
 70
    24
 71
     3
 72
     9
 73
     5
 74
     0
 42
0.000000001
 43
0.0000000001
 40
-1.0
 40
-1.0
 40
-1.0
 40
-1.0
 40
-0.5
 40
0.0
 40
0.0
 40
0.0
 40
0.0
 10
992.4851186794816
 20
1763.168759748034
 30
0.0
 10
993.1540688991752
 20
1763.168759748034
 30
0.0
 10
994.1666452792814
 20
1763.168759748034
 30
0.0
 10
994.5285735408251
 20
1763.168759748034
 30
0.0
 10
994.5468756419563
 20
1763.168759748034
 30
0.0
  0
LINE
  5
205
330
16B
100
AcDbEntity
  8
P-SANR-FIXT
100
AcDbLine
 10
994.5468756419563
 20
1797.668759748034
 30
0.0
 11
994.5468756419559
 21
1832.168759748035
 31
0.0
  0
LINE
  5
206
330
16B
100
AcDbEntity
  8
P-SANR-FIXT
100
AcDbLine
 10
994.5468756419563
 20
1814.080324319786
 30
0.0
 11
994.5468756419563
 21
1815.819059427397
 31
0.0
  0
LINE
  5
207
330
16B
100
AcDbEntity
  8
P-SANR-FIXT
100
AcDbLine
 10
994.5468756419559
 20
1815.819059427397
 30
0.0
 11
994.5468756419563
 21
1814.080324319786
 31
0.0
  0
LINE
  5
208
330
16B
100
AcDbEntity
  8
P-SANR-FIXT
100
AcDbLine
 10
994.5468756419559
 20
1781.310338141653
 30
0.0
 11
994.5468756419563
 21
1779.571636329996
 31
0.0
  0
LINE
  5
209
330
16B
100
AcDbEntity
  8
P-SANR-FIXT
100
AcDbLine
 10
994.5468756419563
 20
1779.571636329996
 30
0.0
 11
994.5468756419563
 21
1781.310338141654
 31
0.0
  0
LINE
  5
20A
330
16B
100
AcDbEntity
  8
P-SANR-FIXT
100
AcDbLine
 10
994.5468756419563
 20
1763.168759748034
 30
0.0
 11
994.5468756419563
 21
1797.668759748034
 31
0.0
  0
ARC
  5
20B
330
16B
100
AcDbEntity
  8
P-SANR-FIXT
100
AcDbCircle
 10
934.5468756419561
 20
1797.668759748034
 30
0.0
 40
27.49999999999994
100
AcDbArc
 50
0.0000000000001272
 51
180.0000000000001
  0
ARC
  5
20C
330
16B
100
AcDbEntity
  8
P-SANR-FIXT
100
AcDbCircle
 10
934.5468756419561
 20
1797.668759748034
 30
0.0
 40
27.49999999999983
100
AcDbArc
 50
180.0000000000013
 51
0.0000000000003562
  0
ARC
  5
20D
330
16B
100
AcDbEntity
  8
P-SANR-FIXT
100
AcDbCircle
 10
934.5468756419561
 20
1797.668759748034
 30
0.0
 40
30.50000000000005
100
AcDbArc
 50
31.82996860004993
 51
148.1700313999473
  0
ARC
  5
20E
330
16B
100
AcDbEntity
  8
P-SANR-FIXT
100
AcDbCircle
 10
934.5468756419561
 20
1797.668759748034
 30
0.0
 40
30.49999999999997
100
AcDbArc
 50
211.829968600052
 51
328.1700313999498
  0
ARC
  5
20F
330
16B
100
AcDbEntity
  8
P-SANR-FIXT
100
AcDbCircle
 10
934.5468756419561
 20
1797.668759748034
 30
0.0
 40
30.49999999999994
100
AcDbArc
 50
51.1982377392234
 51
52.00470072144192
  0
ARC
  5
210
330
16B
100
AcDbEntity
  8
P-SANR-FIXT
100
AcDbCircle
 10
934.5468756419561
 20
1797.668759748034
 30
0.0
 40
30.50000000000006
100
AcDbArc
 50
56.0547472817589
 51
56.57440486734422
  0
ARC
  5
211
330
16B
100
AcDbEntity
  8
P-SANR-FIXT
100
AcDbCircle
 10
934.5468756419561
 20
1797.668759748034
 30
0.0
 40
30.49999999999983
100
AcDbArc
 50
60.90984408178726
 51
61.14410901324565
  0
LINE
  5
212
330
16B
100
AcDbEntity
  8
P-SANR-FIXT
100
AcDbLine
 10
947.0913615791477
 20
1825.469584782044
 30
0.0
 11
947.0681285359132
 21
1825.480056480937
 31
0.0
  0
ARC
  5
213
330
16B
100
AcDbEntity
  8
P-SANR-FIXT
100
AcDbCircle
 10
934.5468756419561
 20
1797.668759748034
 30
0.0
 40
30.49999999999992
100
AcDbArc
 50
70.28351730505
 51
70.60605585407689
  0
ARC
  5
214
330
16B
100
AcDbEntity
  8
P-SANR-FIXT
100
AcDbCircle
 10
934.5468756419561
 20
1797.668759748034
 30
0.0
 40
30.49999999999992
100
AcDbArc
 50
74.85322145095209
 51
75.45251280264505
  0
ARC
  5
215
330
16B
100
AcDbEntity
  8
P-SANR-FIXT
100
AcDbCircle
 10
934.5468756419561
 20
1797.668759748034
 30
0.0
 40
30.49999999999993
100
AcDbArc
 50
79.42292559685409
 51
80.30062565774121
  0
ARC
  5
216
330
16B
100
AcDbEntity
  8
P-SANR-FIXT
100
AcDbCircle
 10
934.5468756419561
 20
1797.668759748034
 30
0.0
 40
30.50000000000001
100
AcDbArc
 50
83.99262974275615
 51
85.15002572169706
  0
ARC
  5
217
330
16B
100
AcDbEntity
  8
P-SANR-FIXT
100
AcDbCircle
 10
934.5468756419561
 20
1797.668759748034
 30
0.0
 40
30.49999999999988
100
AcDbArc
 50
88.56233388865801
 51
102.271446326364
  0
ARC
  5
218
330
16B
100
AcDbEntity
  8
P-SANR-FIXT
100
AcDbCircle
 10
934.5468756419561
 20
1797.668759748034
 30
0.0
 40
30.50000000000004
100
AcDbArc
 50
257.7285536736357
 51
271.4376661113416
  0
ARC
  5
219
330
16B
100
AcDbEntity
  8
P-SANR-FIXT
100
AcDbCircle
 10
934.5468756419561
 20
1797.668759748034
 30
0.0
 40
30.5
100
AcDbArc
 50
274.8499742783032
 51
276.0073702572435
  0
ARC
  5
21A
330
16B
100
AcDbEntity
  8
P-SANR-FIXT
100
AcDbCircle
 10
934.5468756419561
 20
1797.668759748034
 30
0.0
 40
30.50000000000006
100
AcDbArc
 50
279.6993743422584
 51
280.5770744031455
  0
ARC
  5
21B
330
16B
100
AcDbEntity
  8
P-SANR-FIXT
100
AcDbCircle
 10
934.5468756419561
 20
1797.668759748034
 30
0.0
 40
30.50000000000013
100
AcDbArc
 50
284.5474871973546
 51
285.1467785490474
  0
ARC
  5
21C
330
16B
100
AcDbEntity
  8
P-SANR-FIXT
100
AcDbCircle
 10
934.5468756419561
 20
1797.668759748034
 30
0.0
 40
30.50000000000012
100
AcDbArc
 50
289.3939441459225
 51
289.7164826949492
  0
LINE
  5
21D
330
16B
100
AcDbEntity
  8
P-SANR-FIXT
100
AcDbLine
 10
947.0681285359134
 20
1769.857463015132
 30
0.0
 11
947.0913615791477
 21
1769.867934714025
 31
0.0
  0
ARC
  5
21E
330
16B
100
AcDbEntity
  8
P-SANR-FIXT
100
AcDbCircle
 10
934.5468756419561
 20
1797.668759748034
 30
0.0
 40
30.50000000000013
100
AcDbArc
 50
298.8558909867533
 51
299.0901559182124
  0
ARC
  5
21F
330
16B
100
AcDbEntity
  8
P-SANR-FIXT
100
AcDbCircle
 10
934.5468756419561
 20
1797.668759748034
 30
0.0
 40
30.5
100
AcDbArc
 50
303.4255951326553
 51
303.9452527182406
  0
ARC
  5
220
330
16B
100
AcDbEntity
  8
P-SANR-FIXT
100
AcDbCircle
 10
934.5468756419561
 20
1797.668759748034
 30
0.0
 40
30.50000000000012
100
AcDbArc
 50
307.9952992785572
 51
308.8017622607757
  0
LINE
  5
221
330
16B
100
AcDbEntity
  8
P-SANR-FIXT
100
AcDbLine
 10
977.5468756419563
 20
1757.668759748035
 30
0.0
 11
976.5468756419563
 21
1757.668759748035
 31
0.0
  0
LINE
  5
222
330
16B
100
AcDbEntity
  8
P-SANR-FIXT
100
AcDbLine
 10
960.5468756419563
 20
1757.668759748034
 30
0.0
 11
959.5468756419561
 21
1757.668759748034
 31
0.0
  0
LINE
  5
223
330
16B
100
AcDbEntity
  8
P-SANR-FIXT
100
AcDbLine
 10
976.1175898562276
 20
1757.668759748035
 30
0.0
 11
968.9761614276848
 21
1757.668759748035
 31
0.0
  0
LINE
  5
224
330
16B
100
AcDbEntity
  8
P-SANR-FIXT
100
AcDbLine
 10
968.1175898562278
 20
1757.668759748035
 30
0.0
 11
960.9761614276848
 21
1757.668759748034
 31
0.0
  0
LINE
  5
225
330
16B
100
AcDbEntity
  8
P-SANR-FIXT
100
AcDbLine
 10
909.5468756419561
 20
1757.668759748034
 30
0.0
 11
908.5468756419562
 21
1757.668759748034
 31
0.0
  0
LINE
  5
226
330
16B
100
AcDbEntity
  8
P-SANR-FIXT
100
AcDbLine
 10
908.1175898562278
 20
1757.668759748034
 30
0.0
 11
900.9761614276849
 21
1757.668759748034
 31
0.0
  0
LINE
  5
227
330
16B
100
AcDbEntity
  8
P-SANR-FIXT
100
AcDbLine
 10
900.1175898562276
 20
1757.668759748034
 30
0.0
 11
892.9761614276849
 21
1757.668759748034
 31
0.0
  0
LINE
  5
228
330
16B
100
AcDbEntity
  8
P-SANR-FIXT
100
AcDbLine
 10
892.5468756419563
 20
1757.668759748034
 30
0.0
 11
891.5468756419564
 21
1757.668759748034
 31
0.0
  0
LINE
  5
229
330
16B
100
AcDbEntity
  8
P-SANR-FIXT
100
AcDbLine
 10
976.546875641956
 20
1837.668759748034
 30
0.0
 11
977.5468756419559
 21
1837.668759748034
 31
0.0
  0
LINE
  5
22A
330
16B
100
AcDbEntity
  8
P-SANR-FIXT
100
AcDbLine
 10
968.9761614276845
 20
1837.668759748034
 30
0.0
 11
976.1175898562274
 21
1837.668759748034
 31
0.0
  0
LINE
  5
22B
330
16B
100
AcDbEntity
  8
P-SANR-FIXT
100
AcDbLine
 10
960.9761614276846
 20
1837.668759748034
 30
0.0
 11
968.1175898562273
 21
1837.668759748034
 31
0.0
  0
LINE
  5
22C
330
16B
100
AcDbEntity
  8
P-SANR-FIXT
100
AcDbLine
 10
959.546875641956
 20
1837.668759748034
 30
0.0
 11
960.5468756419559
 21
1837.668759748034
 31
0.0
  0
LINE
  5
22D
330
16B
100
AcDbEntity
  8
P-SANR-FIXT
100
AcDbLine
 10
908.546875641956
 20
1837.668759748034
 30
0.0
 11
909.546875641956
 21
1837.668759748034
 31
0.0
  0
LINE
  5
22E
330
16B
100
AcDbEntity
  8
P-SANR-FIXT
100
AcDbLine
 10
891.546875641956
 20
1837.668759748034
 30
0.0
 11
892.546875641956
 21
1837.668759748034
 31
0.0
  0
LINE
  5
22F
330
16B
100
AcDbEntity
  8
P-SANR-FIXT
100
AcDbLine
 10
900.9761614276845
 20
1837.668759748034
 30
0.0
 11
908.1175898562273
 21
1837.668759748034
 31
0.0
  0
LINE
  5
230
330
16B
100
AcDbEntity
  8
P-SANR-FIXT
100
AcDbLine
 10
892.9761614276845
 20
1837.668759748034
 30
0.0
 11
900.1175898562273
 21
1837.668759748034
 31
0.0
  0
ARC
  5
231
330
16B
100
AcDbEntity
  8
P-SANR-FIXT
100
AcDbCircle
 10
934.5468756419561
 20
1797.668759748034
 30
0.0
 40
25.00000000000001
100
AcDbArc
 50
11.58073740698206
 51
168.4192625930174
  0
ARC
  5
232
330
16B
100
AcDbEntity
  8
P-SANR-FIXT
100
AcDbCircle
 10
934.5468756419561
 20
1797.668759748034
 30
0.0
 40
24.99999999999999
100
AcDbArc
 50
191.5807374069816
 51
348.4192625930171
  0
ARC
  5
233
330
16B
100
AcDbEntity
  8
P-SANR-FIXT
100
AcDbCircle
 10
934.5468756419561
 20
1797.668759748034
 30
0.0
 40
26.00000000000012
100
AcDbArc
 50
0.0
 51
0.4282864720220819
  0
ARC
  5
234
330
16B
100
AcDbEntity
  8
P-SANR-FIXT
100
AcDbCircle
 10
934.5468756419561
 20
1797.668759748034
 30
0.0
 40
26.00000000000008
100
AcDbArc
 50
11.12990211868979
 51
168.8700978813096
  0
ARC
  5
235
330
16B
100
AcDbEntity
  8
P-SANR-FIXT
100
AcDbCircle
 10
934.5468756419561
 20
1797.668759748034
 30
0.0
 40
25.99999999999995
100
AcDbArc
 50
191.1299021186888
 51
348.8700978813099
  0
ARC
  5
236
330
16B
100
AcDbEntity
  8
P-SANR-FIXT
100
AcDbCircle
 10
934.5468756419561
 20
1797.668759748034
 30
0.0
 40
26.00000000000004
100
AcDbArc
 50
359.5717135279821
 51
0.0
  0
ARC
  5
237
330
16B
100
AcDbEntity
  8
P-SANR-FIXT
100
AcDbCircle
 10
934.5468756419561
 20
1797.668759748034
 30
0.0
 40
25.99999999999984
100
AcDbArc
 50
148.0000000000001
 51
148.4910492435332
  0
ARC
  5
238
330
16B
100
AcDbEntity
  8
P-SANR-FIXT
100
AcDbCircle
 10
934.5468756419561
 20
1797.668759748034
 30
0.0
 40
25.99999999999991
100
AcDbArc
 50
152.0
 51
152.9870778901373
  0
ARC
  5
239
330
16B
100
AcDbEntity
  8
P-SANR-FIXT
100
AcDbCircle
 10
934.5468756419561
 20
1797.668759748034
 30
0.0
 40
25.99999999999996
100
AcDbArc
 50
155.9999999999999
 51
157.4866818077975
  0
ARC
  5
23A
330
16B
100
AcDbEntity
  8
P-SANR-FIXT
100
AcDbCircle
 10
934.5468756419561
 20
1797.668759748034
 30
0.0
 40
25.99999999999998
100
AcDbArc
 50
160.0000000000001
 51
163.9999999999999
  0
ARC
  5
23B
330
16B
100
AcDbEntity
  8
P-SANR-FIXT
100
AcDbCircle
 10
934.5468756419561
 20
1797.668759748034
 30
0.0
 40
26.00000000000005
100
AcDbArc
 50
166.4919351895072
 51
167.9999999999995
  0
ARC
  5
23C
330
16B
100
AcDbEntity
  8
P-SANR-FIXT
100
AcDbCircle
 10
934.5468756419561
 20
1797.668759748034
 30
0.0
 40
26.00000000000002
100
AcDbArc
 50
112.0
 51
112.5066663857527
  0
ARC
  5
23D
330
16B
100
AcDbEntity
  8
P-SANR-FIXT
100
AcDbCircle
 10
934.5468756419561
 20
1797.668759748034
 30
0.0
 40
26.0
100
AcDbArc
 50
116.0000000000001
 51
117.0137688525216
  0
ARC
  5
23E
330
16B
100
AcDbEntity
  8
P-SANR-FIXT
100
AcDbCircle
 10
934.5468756419561
 20
1797.668759748034
 30
0.0
 40
26.00000000000007
100
AcDbArc
 50
119.9999999999998
 51
121.5203555424215
  0
ARC
  5
23F
330
16B
100
AcDbEntity
  8
P-SANR-FIXT
100
AcDbCircle
 10
934.5468756419561
 20
1797.668759748034
 30
0.0
 40
25.99999999999999
100
AcDbArc
 50
124.0
 51
128.0
  0
ARC
  5
240
330
16B
100
AcDbEntity
  8
P-SANR-FIXT
100
AcDbCircle
 10
934.5468756419561
 20
1797.668759748034
 30
0.0
 40
25.99999999999994
100
AcDbArc
 50
130.5275572915926
 51
132.0000000000001
  0
ARC
  5
241
330
16B
100
AcDbEntity
  8
P-SANR-FIXT
100
AcDbCircle
 10
934.5468756419561
 20
1797.668759748034
 30
0.0
 40
25.99999999999995
100
AcDbArc
 50
135.0254359265733
 51
136.0
  0
ARC
  5
242
330
16B
100
AcDbEntity
  8
P-SANR-FIXT
100
AcDbCircle
 10
934.5468756419561
 20
1797.668759748034
 30
0.0
 40
25.99999999999994
100
AcDbArc
 50
139.4863820353155
 51
140.0
  0
ARC
  5
243
330
16B
100
AcDbEntity
  8
P-SANR-FIXT
100
AcDbCircle
 10
934.5468756419561
 20
1797.668759748034
 30
0.0
 40
25.9999999999999
100
AcDbArc
 50
75.99999999999987
 51
76.49662048591628
  0
ARC
  5
244
330
16B
100
AcDbEntity
  8
P-SANR-FIXT
100
AcDbCircle
 10
934.5468756419561
 20
1797.668759748034
 30
0.0
 40
25.99999999999994
100
AcDbArc
 50
79.9999999999999
 51
80.9961680412778
  0
ARC
  5
245
330
16B
100
AcDbEntity
  8
P-SANR-FIXT
100
AcDbCircle
 10
934.5468756419561
 20
1797.668759748034
 30
0.0
 40
25.99999999999994
100
AcDbArc
 50
83.99999999999998
 51
85.49761622645439
  0
ARC
  5
246
330
16B
100
AcDbEntity
  8
P-SANR-FIXT
100
AcDbCircle
 10
934.5468756419561
 20
1797.668759748034
 30
0.0
 40
25.99999999999987
100
AcDbArc
 50
88.00000000000009
 51
92.00000000000015
  0
ARC
  5
247
330
16B
100
AcDbEntity
  8
P-SANR-FIXT
100
AcDbCircle
 10
934.5468756419561
 20
1797.668759748034
 30
0.0
 40
25.99999999999999
100
AcDbArc
 50
94.50238377354585
 51
96.00000000000022
  0
ARC
  5
248
330
16B
100
AcDbEntity
  8
P-SANR-FIXT
100
AcDbCircle
 10
934.5468756419561
 20
1797.668759748034
 30
0.0
 40
25.99999999999992
100
AcDbArc
 50
99.00383195872251
 51
100.0000000000001
  0
ARC
  5
249
330
16B
100
AcDbEntity
  8
P-SANR-FIXT
100
AcDbCircle
 10
934.5468756419561
 20
1797.668759748034
 30
0.0
 40
25.99999999999996
100
AcDbArc
 50
103.5033795140839
 51
104.0
  0
ARC
  5
24A
330
16B
100
AcDbEntity
  8
P-SANR-FIXT
100
AcDbCircle
 10
934.5468756419561
 20
1797.668759748034
 30
0.0
 40
25.99999999999989
100
AcDbArc
 50
40.00000000000009
 51
40.51361796468425
  0
ARC
  5
24B
330
16B
100
AcDbEntity
  8
P-SANR-FIXT
100
AcDbCircle
 10
934.5468756419561
 20
1797.668759748034
 30
0.0
 40
25.99999999999993
100
AcDbArc
 50
44.00000000000008
 51
44.9730026256212
  0
ARC
  5
24C
330
16B
100
AcDbEntity
  8
P-SANR-FIXT
100
AcDbCircle
 10
934.5468756419561
 20
1797.668759748034
 30
0.0
 40
26.00000000000002
100
AcDbArc
 50
48.00000000000029
 51
49.47244270840709
  0
ARC
  5
24D
330
16B
100
AcDbEntity
  8
P-SANR-FIXT
100
AcDbCircle
 10
934.5468756419561
 20
1797.668759748034
 30
0.0
 40
25.99999999999977
100
AcDbArc
 50
51.99999999999989
 51
55.99999999999987
  0
ARC
  5
24E
330
16B
100
AcDbEntity
  8
P-SANR-FIXT
100
AcDbCircle
 10
934.5468756419561
 20
1797.668759748034
 30
0.0
 40
25.99999999999987
100
AcDbArc
 50
58.47964445757771
 51
60.00000000000012
  0
ARC
  5
24F
330
16B
100
AcDbEntity
  8
P-SANR-FIXT
100
AcDbCircle
 10
934.5468756419561
 20
1797.668759748034
 30
0.0
 40
25.99999999999981
100
AcDbArc
 50
62.98623114747794
 51
64.00000000000014
  0
ARC
  5
250
330
16B
100
AcDbEntity
  8
P-SANR-FIXT
100
AcDbCircle
 10
934.5468756419561
 20
1797.668759748034
 30
0.0
 40
25.99999999999982
100
AcDbArc
 50
67.49333361424714
 51
67.99999999999989
  0
ARC
  5
251
330
16B
100
AcDbEntity
  8
P-SANR-FIXT
100
AcDbCircle
 10
934.5468756419561
 20
1797.668759748034
 30
0.0
 40
26.00000000000007
100
AcDbArc
 50
11.99999999999982
 51
13.5080648104928
  0
ARC
  5
252
330
16B
100
AcDbEntity
  8
P-SANR-FIXT
100
AcDbCircle
 10
934.5468756419561
 20
1797.668759748034
 30
0.0
 40
26.0
100
AcDbArc
 50
15.99999999999958
 51
19.99999999999936
  0
ARC
  5
253
330
16B
100
AcDbEntity
  8
P-SANR-FIXT
100
AcDbCircle
 10
934.5468756419561
 20
1797.668759748034
 30
0.0
 40
26.00000000000012
100
AcDbArc
 50
22.51331819220251
 51
23.99999999999923
  0
ARC
  5
254
330
16B
100
AcDbEntity
  8
P-SANR-FIXT
100
AcDbCircle
 10
934.5468756419561
 20
1797.668759748034
 30
0.0
 40
26.00000000000003
100
AcDbArc
 50
27.01292210986229
 51
27.99999999999956
  0
ARC
  5
255
330
16B
100
AcDbEntity
  8
P-SANR-FIXT
100
AcDbCircle
 10
934.5468756419561
 20
1797.668759748034
 30
0.0
 40
26.00000000000012
100
AcDbArc
 50
31.50895075646674
 51
31.99999999999978
  0
ARC
  5
256
330
16B
100
AcDbEntity
  8
P-SANR-FIXT
100
AcDbCircle
 10
934.5468756419561
 20
1797.668759748034
 30
0.0
 40
25.99999999999995
100
AcDbArc
 50
328.0000000000006
 51
328.4910492435325
  0
ARC
  5
257
330
16B
100
AcDbEntity
  8
P-SANR-FIXT
100
AcDbCircle
 10
934.5468756419561
 20
1797.668759748034
 30
0.0
 40
25.99999999999994
100
AcDbArc
 50
332.0000000000007
 51
332.9870778901364
  0
ARC
  5
258
330
16B
100
AcDbEntity
  8
P-SANR-FIXT
100
AcDbCircle
 10
934.5468756419561
 20
1797.668759748034
 30
0.0
 40
26.00000000000003
100
AcDbArc
 50
335.9999999999999
 51
337.4866818077965
  0
ARC
  5
259
330
16B
100
AcDbEntity
  8
P-SANR-FIXT
100
AcDbCircle
 10
934.5468756419561
 20
1797.668759748034
 30
0.0
 40
25.99999999999998
100
AcDbArc
 50
339.9999999999999
 51
343.9999999999997
  0
ARC
  5
25A
330
16B
100
AcDbEntity
  8
P-SANR-FIXT
100
AcDbCircle
 10
934.5468756419561
 20
1797.668759748034
 30
0.0
 40
25.99999999999994
100
AcDbArc
 50
346.4919351895062
 51
347.9999999999993
  0
ARC
  5
25B
330
16B
100
AcDbEntity
  8
P-SANR-FIXT
100
AcDbCircle
 10
934.5468756419561
 20
1797.668759748034
 30
0.0
 40
26.00000000000007
100
AcDbArc
 50
292.000000000001
 51
292.5066663857524
  0
ARC
  5
25C
330
16B
100
AcDbEntity
  8
P-SANR-FIXT
100
AcDbCircle
 10
934.5468756419561
 20
1797.668759748034
 30
0.0
 40
26.00000000000015
100
AcDbArc
 50
296.0000000000008
 51
297.0137688525214
  0
ARC
  5
25D
330
16B
100
AcDbEntity
  8
P-SANR-FIXT
100
AcDbCircle
 10
934.5468756419561
 20
1797.668759748034
 30
0.0
 40
26.00000000000016
100
AcDbArc
 50
300.0000000000008
 51
301.5203555424216
  0
ARC
  5
25E
330
16B
100
AcDbEntity
  8
P-SANR-FIXT
100
AcDbCircle
 10
934.5468756419561
 20
1797.668759748034
 30
0.0
 40
26.00000000000012
100
AcDbArc
 50
304.0000000000009
 51
308.0000000000005
  0
ARC
  5
25F
330
16B
100
AcDbEntity
  8
P-SANR-FIXT
100
AcDbCircle
 10
934.5468756419561
 20
1797.668759748034
 30
0.0
 40
26.0
100
AcDbArc
 50
310.5275572915929
 51
312.0000000000007
  0
ARC
  5
260
330
16B
100
AcDbEntity
  8
P-SANR-FIXT
100
AcDbCircle
 10
934.5468756419561
 20
1797.668759748034
 30
0.0
 40
26.00000000000008
100
AcDbArc
 50
315.0269973743773
 51
316.0000000000005
  0
ARC
  5
261
330
16B
100
AcDbEntity
  8
P-SANR-FIXT
100
AcDbCircle
 10
934.5468756419561
 20
1797.668759748034
 30
0.0
 40
26.00000000000003
100
AcDbArc
 50
319.486382035315
 51
320.0000000000002
  0
ARC
  5
262
330
16B
100
AcDbEntity
  8
P-SANR-FIXT
100
AcDbCircle
 10
934.5468756419561
 20
1797.668759748034
 30
0.0
 40
25.99999999999993
100
AcDbArc
 50
256.0000000000012
 51
256.496620485916
  0
ARC
  5
263
330
16B
100
AcDbEntity
  8
P-SANR-FIXT
100
AcDbCircle
 10
934.5468756419561
 20
1797.668759748034
 30
0.0
 40
25.99999999999993
100
AcDbArc
 50
260.000000000001
 51
260.9961680412773
  0
ARC
  5
264
330
16B
100
AcDbEntity
  8
P-SANR-FIXT
100
AcDbCircle
 10
934.5468756419561
 20
1797.668759748034
 30
0.0
 40
26.0
100
AcDbArc
 50
264.0000000000009
 51
265.4976162264545
  0
ARC
  5
265
330
16B
100
AcDbEntity
  8
P-SANR-FIXT
100
AcDbCircle
 10
934.5468756419561
 20
1797.668759748034
 30
0.0
 40
25.99999999999996
100
AcDbArc
 50
268.000000000001
 51
272.000000000001
  0
ARC
  5
266
330
16B
100
AcDbEntity
  8
P-SANR-FIXT
100
AcDbCircle
 10
934.5468756419561
 20
1797.668759748034
 30
0.0
 40
25.99999999999998
100
AcDbArc
 50
274.5023837735452
 51
276.0000000000011
  0
ARC
  5
267
330
16B
100
AcDbEntity
  8
P-SANR-FIXT
100
AcDbCircle
 10
934.5468756419561
 20
1797.668759748034
 30
0.0
 40
26.00000000000003
100
AcDbArc
 50
279.0038319587221
 51
280.0000000000013
  0
ARC
  5
268
330
16B
100
AcDbEntity
  8
P-SANR-FIXT
100
AcDbCircle
 10
934.5468756419561
 20
1797.668759748034
 30
0.0
 40
26.0
100
AcDbArc
 50
283.5033795140837
 51
284.0000000000013
  0
ARC
  5
269
330
16B
100
AcDbEntity
  8
P-SANR-FIXT
100
AcDbCircle
 10
934.5468756419561
 20
1797.668759748034
 30
0.0
 40
25.99999999999992
100
AcDbArc
 50
220.000000000001
 51
220.5136179646841
  0
ARC
  5
26A
330
16B
100
AcDbEntity
  8
P-SANR-FIXT
100
AcDbCircle
 10
934.5468756419561
 20
1797.668759748034
 30
0.0
 40
25.99999999999992
100
AcDbArc
 50
224.0000000000009
 51
224.9745640734262
  0
ARC
  5
26B
330
16B
100
AcDbEntity
  8
P-SANR-FIXT
100
AcDbCircle
 10
934.5468756419561
 20
1797.668759748034
 30
0.0
 40
25.99999999999996
100
AcDbArc
 50
228.0000000000008
 51
229.4724427084067
  0
ARC
  5
26C
330
16B
100
AcDbEntity
  8
P-SANR-FIXT
100
AcDbCircle
 10
934.5468756419561
 20
1797.668759748034
 30
0.0
 40
25.99999999999985
100
AcDbArc
 50
232.0000000000008
 51
236.0000000000008
  0
ARC
  5
26D
330
16B
100
AcDbEntity
  8
P-SANR-FIXT
100
AcDbCircle
 10
934.5468756419561
 20
1797.668759748034
 30
0.0
 40
25.99999999999994
100
AcDbArc
 50
238.4796444575779
 51
240.0000000000012
  0
ARC
  5
26E
330
16B
100
AcDbEntity
  8
P-SANR-FIXT
100
AcDbCircle
 10
934.5468756419561
 20
1797.668759748034
 30
0.0
 40
25.99999999999991
100
AcDbArc
 50
242.9862311474781
 51
244.0000000000007
  0
ARC
  5
26F
330
16B
100
AcDbEntity
  8
P-SANR-FIXT
100
AcDbCircle
 10
934.5468756419561
 20
1797.668759748034
 30
0.0
 40
25.99999999999994
100
AcDbArc
 50
247.4933336142473
 51
248.0000000000011
  0
ARC
  5
270
330
16B
100
AcDbEntity
  8
P-SANR-FIXT
100
AcDbCircle
 10
934.5468756419561
 20
1797.668759748034
 30
0.0
 40
25.99999999999992
100
AcDbArc
 50
192.0000000000005
 51
193.5080648104929
  0
ARC
  5
271
330
16B
100
AcDbEntity
  8
P-SANR-FIXT
100
AcDbCircle
 10
934.5468756419561
 20
1797.668759748034
 30
0.0
 40
25.9999999999999
100
AcDbArc
 50
196.0000000000001
 51
200.0000000000002
  0
ARC
  5
272
330
16B
100
AcDbEntity
  8
P-SANR-FIXT
100
AcDbCircle
 10
934.5468756419561
 20
1797.668759748034
 30
0.0
 40
26.00000000000006
100
AcDbArc
 50
202.5133181922024
 51
204.0000000000007
  0
ARC
  5
273
330
16B
100
AcDbEntity
  8
P-SANR-FIXT
100
AcDbCircle
 10
934.5468756419561
 20
1797.668759748034
 30
0.0
 40
26.00000000000013
100
AcDbArc
 50
207.0129221098623
 51
208.0000000000008
  0
ARC
  5
274
330
16B
100
AcDbEntity
  8
P-SANR-FIXT
100
AcDbCircle
 10
934.5468756419561
 20
1797.668759748034
 30
0.0
 40
25.99999999999999
100
AcDbArc
 50
211.5089507564666
 51
212.0000000000004
  0
LINE
  5
275
330
16B
100
AcDbEntity
  8
P-SANR-FIXT
100
AcDbLine
 10
960.5468756419559
 20
1843.168759748035
 30
0.0
 11
968.546875641956
 21
1843.168759748035
 31
0.0
  0
LINE
  5
276
330
16B
100
AcDbEntity
  8
P-SANR-FIXT
100
AcDbLine
 10
968.546875641956
 20
1843.168759748035
 30
0.0
 11
976.546875641956
 21
1843.168759748035
 31
0.0
  0
LINE
  5
277
330
16B
100
AcDbEntity
  8
P-SANR-FIXT
100
AcDbLine
 10
892.5468756419562
 20
1843.168759748034
 30
0.0
 11
900.5468756419558
 21
1843.168759748034
 31
0.0
  0
LINE
  5
278
330
16B
100
AcDbEntity
  8
P-SANR-FIXT
100
AcDbLine
 10
900.5468756419558
 20
1843.168759748034
 30
0.0
 11
908.546875641956
 21
1843.168759748035
 31
0.0
  0
LINE
  5
279
330
16B
100
AcDbEntity
  8
P-SANR-FIXT
100
AcDbLine
 10
976.546875641956
 20
1837.668759748034
 30
0.0
 11
976.1175898562274
 21
1837.668759748034
 31
0.0
  0
LINE
  5
27A
330
16B
100
AcDbEntity
  8
P-SANR-FIXT
100
AcDbLine
 10
968.9761614276845
 20
1837.668759748034
 30
0.0
 11
968.546875641956
 21
1837.668759748034
 31
0.0
  0
LINE
  5
27B
330
16B
100
AcDbEntity
  8
P-SANR-FIXT
100
AcDbLine
 10
968.546875641956
 20
1837.668759748034
 30
0.0
 11
968.1175898562276
 21
1837.668759748034
 31
0.0
  0
LINE
  5
27C
330
16B
100
AcDbEntity
  8
P-SANR-FIXT
100
AcDbLine
 10
960.9761614276846
 20
1837.668759748034
 30
0.0
 11
960.5468756419559
 21
1837.668759748034
 31
0.0
  0
LINE
  5
27D
330
16B
100
AcDbEntity
  8
P-SANR-FIXT
100
AcDbLine
 10
908.546875641956
 20
1837.668759748034
 30
0.0
 11
908.1175898562275
 21
1837.668759748034
 31
0.0
  0
LINE
  5
27E
330
16B
100
AcDbEntity
  8
P-SANR-FIXT
100
AcDbLine
 10
900.9761614276845
 20
1837.668759748034
 30
0.0
 11
900.5468756419558
 21
1837.668759748034
 31
0.0
  0
LINE
  5
27F
330
16B
100
AcDbEntity
  8
P-SANR-FIXT
100
AcDbLine
 10
900.5468756419558
 20
1837.668759748034
 30
0.0
 11
900.1175898562275
 21
1837.668759748034
 31
0.0
  0
LINE
  5
280
330
16B
100
AcDbEntity
  8
P-SANR-FIXT
100
AcDbLine
 10
892.9761614276845
 20
1837.668759748034
 30
0.0
 11
892.5468756419562
 21
1837.668759748034
 31
0.0
  0
LINE
  5
281
330
16B
100
AcDbEntity
  8
P-SANR-FIXT
100
AcDbLine
 10
976.546875641956
 20
1843.168759748035
 30
0.0
 11
976.546875641956
 21
1837.668759748034
 31
0.0
  0
LINE
  5
282
330
16B
100
AcDbEntity
  8
P-SANR-FIXT
100
AcDbLine
 10
968.546875641956
 20
1843.168759748035
 30
0.0
 11
968.546875641956
 21
1837.668759748034
 31
0.0
  0
LINE
  5
283
330
16B
100
AcDbEntity
  8
P-SANR-FIXT
100
AcDbLine
 10
960.5468756419559
 20
1843.168759748035
 30
0.0
 11
960.5468756419559
 21
1837.668759748034
 31
0.0
  0
LINE
  5
284
330
16B
100
AcDbEntity
  8
P-SANR-FIXT
100
AcDbLine
 10
908.546875641956
 20
1843.168759748035
 30
0.0
 11
908.546875641956
 21
1837.668759748034
 31
0.0
  0
LINE
  5
285
330
16B
100
AcDbEntity
  8
P-SANR-FIXT
100
AcDbLine
 10
900.5468756419558
 20
1843.168759748034
 30
0.0
 11
900.5468756419558
 21
1837.668759748034
 31
0.0
  0
LINE
  5
286
330
16B
100
AcDbEntity
  8
P-SANR-FIXT
100
AcDbLine
 10
892.5468756419562
 20
1843.168759748034
 30
0.0
 11
892.5468756419562
 21
1837.668759748034
 31
0.0
  0
LINE
  5
287
330
16B
100
AcDbEntity
  8
P-SANR-FIXT
100
AcDbLine
 10
976.1175898562276
 20
1757.668759748035
 30
0.0
 11
976.5468756419563
 21
1757.668759748035
 31
0.0
  0
LINE
  5
288
330
16B
100
AcDbEntity
  8
P-SANR-FIXT
100
AcDbLine
 10
968.5468756419563
 20
1757.668759748035
 30
0.0
 11
968.9761614276848
 21
1757.668759748035
 31
0.0
  0
LINE
  5
289
330
16B
100
AcDbEntity
  8
P-SANR-FIXT
100
AcDbLine
 10
968.1175898562278
 20
1757.668759748035
 30
0.0
 11
968.5468756419563
 21
1757.668759748035
 31
0.0
  0
LINE
  5
28A
330
16B
100
AcDbEntity
  8
P-SANR-FIXT
100
AcDbLine
 10
960.5468756419563
 20
1757.668759748034
 30
0.0
 11
960.9761614276848
 21
1757.668759748034
 31
0.0
  0
LINE
  5
28B
330
16B
100
AcDbEntity
  8
P-SANR-FIXT
100
AcDbLine
 10
908.1175898562278
 20
1757.668759748034
 30
0.0
 11
908.5468756419562
 21
1757.668759748034
 31
0.0
  0
LINE
  5
28C
330
16B
100
AcDbEntity
  8
P-SANR-FIXT
100
AcDbLine
 10
900.5468756419563
 20
1757.668759748034
 30
0.0
 11
900.9761614276849
 21
1757.668759748034
 31
0.0
  0
LINE
  5
28D
330
16B
100
AcDbEntity
  8
P-SANR-FIXT
100
AcDbLine
 10
900.1175898562276
 20
1757.668759748034
 30
0.0
 11
900.5468756419563
 21
1757.668759748034
 31
0.0
  0
LINE
  5
28E
330
16B
100
AcDbEntity
  8
P-SANR-FIXT
100
AcDbLine
 10
892.5468756419563
 20
1757.668759748034
 30
0.0
 11
892.9761614276849
 21
1757.668759748034
 31
0.0
  0
LINE
  5
28F
330
16B
100
AcDbEntity
  8
P-SANR-FIXT
100
AcDbLine
 10
976.5468756419563
 20
1757.668759748035
 30
0.0
 11
976.5468756419563
 21
1752.168759748034
 31
0.0
  0
LINE
  5
290
330
16B
100
AcDbEntity
  8
P-SANR-FIXT
100
AcDbLine
 10
968.5468756419563
 20
1757.668759748035
 30
0.0
 11
968.5468756419563
 21
1752.168759748034
 31
0.0
  0
LINE
  5
291
330
16B
100
AcDbEntity
  8
P-SANR-FIXT
100
AcDbLine
 10
960.5468756419563
 20
1757.668759748034
 30
0.0
 11
960.5468756419563
 21
1752.168759748034
 31
0.0
  0
LINE
  5
292
330
16B
100
AcDbEntity
  8
P-SANR-FIXT
100
AcDbLine
 10
908.5468756419562
 20
1757.668759748034
 30
0.0
 11
908.5468756419562
 21
1752.168759748034
 31
0.0
  0
LINE
  5
293
330
16B
100
AcDbEntity
  8
P-SANR-FIXT
100
AcDbLine
 10
900.5468756419563
 20
1757.668759748034
 30
0.0
 11
900.5468756419563
 21
1752.168759748034
 31
0.0
  0
LINE
  5
294
330
16B
100
AcDbEntity
  8
P-SANR-FIXT
100
AcDbLine
 10
892.5468756419563
 20
1757.668759748034
 30
0.0
 11
892.5468756419563
 21
1752.168759748034
 31
0.0
  0
ENDBLK
  5
296
330
16B
100
AcDbEntity
  8
0
100
AcDbBlockEnd
  0
BLOCK
  5
31B
330
298
100
AcDbEntity
  8
0
100
AcDbBlockBegin
  2
Automatic flow rate regulator valve_Caleffi_121 DN15 - 1_2__-V2-Est - Idraulica
 70
     0
 10
0.0
 20
0.0
 30
0.0
  3
Automatic flow rate regulator valve_Caleffi_121 DN15 - 1_2__-V2-Est - Idraulica
  1

  0
LINE
  5
299
330
298
100
AcDbEntity
  8
P-SANR-FIXT
100
AcDbLine
 10
1213.206472925115
 20
2086.48254154324
 30
0.0
 11
1203.176472925115
 21
2086.48254154324
 31
0.0
  0
LINE
  5
29A
330
298
100
AcDbEntity
  8
P-SANR-FIXT
100
AcDbLine
 10
1213.206472925113
 20
2086.482541543239
 30
0.0
 11
1213.206472925113
 21
2083.599970236713
 31
0.0
  0
LINE
  5
29B
330
298
100
AcDbEntity
  8
P-SANR-FIXT
100
AcDbLine
 10
1213.206472925113
 20
2083.599970236713
 30
0.0
 11
1213.206472925113
 21
2051.482541543239
 31
0.0
  0
LINE
  5
29C
330
298
100
AcDbEntity
  8
P-SANR-FIXT
100
AcDbLine
 10
1203.176472925113
 20
2051.482541543237
 30
0.0
 11
1203.176472925113
 21
2083.599970236711
 31
0.0
  0
LINE
  5
29D
330
298
100
AcDbEntity
  8
P-SANR-FIXT
100
AcDbLine
 10
1203.176472925113
 20
2083.599970236713
 30
0.0
 11
1203.176472925113
 21
2086.482541543239
 31
0.0
  0
LINE
  5
29E
330
298
100
AcDbEntity
  8
P-SANR-FIXT
100
AcDbLine
 10
1213.206472925113
 20
2051.482541543239
 30
0.0
 11
1203.176472925113
 21
2051.482541543239
 31
0.0
  0
LWPOLYLINE
  5
29F
330
298
100
AcDbEntity
  8
P-SANR-FIXT
100
AcDbPolyline
 90
       41
 70
   128
 43
0.0
 10
1188.691472925115
 20
2082.98254154324
 10
1188.694272551802
 20
2083.122504212893
 10
1188.702666953056
 20
2083.262242972132
 10
1188.716642699627
 20
2083.401534268751
 10
1188.736177433301
 20
2083.54015526639
 10
1188.761239902671
 20
2083.677884201023
 10
1188.791790013133
 20
2083.814500735735
 10
1188.827778891027
 20
2083.949786313214
 10
1188.869148961827
 20
2084.083524505397
 10
1188.915834042242
 20
2084.215501359703
 10
1188.967759446105
 20
2084.34550574132
 10
1189.024842103846
 20
2084.473329670971
 10
1189.086990695388
 20
2084.598768657635
 10
1189.154105796244
 20
2084.721622025693
 10
1189.226080036569
 20
2084.841693235963
 10
1189.302798272932
 20
2084.958790200122
 10
1189.38413777252
 20
2085.072725588009
 10
1189.469968409487
 20
2085.183317127305
 10
1189.560152873122
 20
2085.29038789514
 10
1189.654546887522
 20
2085.393766601127
 10
1189.7529994424
 20
2085.493287861388
 10
1189.855353034671
 20
2085.588792463138
 10
1189.96144392042
 20
2085.680127619387
 10
1190.071102376863
 20
2085.767147213367
 10
1190.184152973861
 20
2085.849712032294
 10
1190.300414854577
 20
2085.927689990068
 10
1190.419702024801
 20
2086.000956338592
 10
1190.541823650507
 20
2086.069393867337
 10
1190.666584363147
 20
2086.132893090858
 10
1190.793784572194
 20
2086.191352423941
 10
1190.923220784447
 20
2086.244678344125
 10
1191.054685929579
 20
2086.292785541314
 10
1191.187969691403
 20
2086.335597054252
 10
1191.322858844332
 20
2086.373044393654
 10
1191.459137594495
 20
2086.405067651764
 10
1191.596587924965
 20
2086.4316155982
 10
1191.734989944532
 20
2086.452645761911
 10
1191.87412223949
 20
2086.468124499122
 10
1192.013762227848
 20
2086.478027047154
 10
1192.153686515411
 20
2086.482337564045
 10
1192.191472925115
 20
2086.48254154324
  0
LWPOLYLINE
  5
2A0
330
298
100
AcDbEntity
  8
P-SANR-FIXT
100
AcDbPolyline
 90
       34
 70
   128
 43
0.0
 10
1203.176472925115
 20
2086.48254154324
 10
1203.158407955257
 20
2086.48254154324
 10
1202.555085192714
 20
2086.48254154324
 10
1201.960779448177
 20
2086.48254154324
 10
1201.376441484059
 20
2086.48254154324
 10
1200.803006116452
 20
2086.48254154324
 10
1200.241390719616
 20
2086.48254154324
 10
1199.692493758381
 20
2086.48254154324
 10
1199.157193350795
 20
2086.48254154324
 10
1198.636345863317
 20
2086.48254154324
 10
1198.13078454082
 20
2086.48254154324
 10
1197.641318173572
 20
2086.48254154324
 10
1197.168729803347
 20
2086.48254154324
 10
1196.713775470723
 20
2086.48254154324
 10
1196.277183005582
 20
2086.48254154324
 10
1195.859650862732
 20
2086.48254154324
 10
1195.461847004533
 20
2086.48254154324
 10
1195.084407832299
 20
2086.48254154324
 10
1194.727937168189
 20
2086.48254154324
 10
1194.393005289222
 20
2086.48254154324
 10
1194.080148014956
 20
2086.48254154324
 10
1193.789865850291
 20
2086.48254154324
 10
1193.522623184767
 20
2086.48254154324
 10
1193.27884754964
 20
2086.48254154324
 10
1193.058928933923
 20
2086.48254154324
 10
1192.863219160487
 20
2086.48254154324
 10
1192.692031323223
 20
2086.48254154324
 10
1192.54563928615
 20
2086.48254154324
 10
1192.4242772453
 20
2086.48254154324
 10
1192.328139354048
 20
2086.48254154324
 10
1192.257379412513
 20
2086.48254154324
 10
1192.212110621506
 20
2086.48254154324
 10
1192.192405401436
 20
2086.48254154324
 10
1192.191472925115
 20
2086.48254154324
  0
LWPOLYLINE
  5
2A1
330
298
100
AcDbEntity
  8
P-SANR-FIXT
100
AcDbPolyline
 90
       33
 70
   128
 43
0.0
 10
1192.191472925115
 20
2086.48254154324
 10
1192.20427121854
 20
2086.48254154324
 10
1192.242645624273
 20
2086.48254154324
 10
1192.306534751454
 20
2086.48254154324
 10
1192.395836391106
 20
2086.48254154324
 10
1192.510407679655
 20
2086.48254154324
 10
1192.650065327483
 20
2086.48254154324
 10
1192.814585912143
 20
2086.48254154324
 10
1193.003706235796
 20
2086.48254154324
 10
1193.217123746268
 20
2086.48254154324
 10
1193.454497021069
 20
2086.48254154324
 10
1193.715446313596
 20
2086.48254154324
 10
1193.999554160647
 20
2086.48254154324
 10
1194.306366050273
 20
2086.48254154324
 10
1194.635391148901
 20
2086.48254154324
 10
1194.98610308656
 20
2086.48254154324
 10
1195.357940798967
 20
2086.48254154324
 10
1195.7503094251
 20
2086.48254154324
 10
1196.162581258861
 20
2086.48254154324
 10
1196.594096753261
 20
2086.48254154324
 10
1197.044165575561
 20
2086.48254154324
 10
1197.512067711655
 20
2086.48254154324
 10
1197.997054617938
 20
2086.48254154324
 10
1198.49835041882
 20
2086.48254154324
 10
1199.015153147956
 20
2086.48254154324
 10
1199.546636031225
 20
2086.48254154324
 10
1200.091948809391
 20
2086.48254154324
 10
1200.650219098336
 20
2086.48254154324
 10
1201.220553784688
 20
2086.48254154324
 10
1201.802040454615
 20
2086.48254154324
 10
1202.393748853489
 20
2086.48254154324
 10
1202.994732374095
 20
2086.48254154324
 10
1203.176472925115
 20
2086.48254154324
  0
LINE
  5
2A2
330
298
100
AcDbEntity
  8
P-SANR-FIXT
100
AcDbLine
 10
1188.691472925115
 20
2082.98254154324
 30
0.0
 11
1188.691472925115
 21
2060.818932230359
 31
0.0
  0
LINE
  5
2A3
330
298
100
AcDbEntity
  8
P-SANR-FIXT
100
AcDbLine
 10
1227.691472925115
 20
2060.818932230359
 30
0.0
 11
1227.691472925115
 21
2082.98254154324
 31
0.0
  0
LWPOLYLINE
  5
2A4
330
298
100
AcDbEntity
  8
P-SANR-FIXT
100
AcDbPolyline
 90
       21
 70
   128
 43
0.0
 10
1184.441472925116
 20
2054.083650856121
 10
1184.443872605132
 20
2054.20361885868
 10
1184.451067806207
 20
2054.323394938028
 10
1184.463047017553
 20
2054.442787477987
 10
1184.479791074988
 20
2054.561605475964
 10
1184.501273191592
 20
2054.679658848506
 10
1184.527459000559
 20
2054.796758735402
 10
1184.558306610183
 20
2054.912717801813
 10
1184.593766670868
 20
2055.027350537969
 10
1184.633782454082
 20
2055.140473555946
 10
1184.678289943107
 20
2055.251905883046
 10
1184.727217935455
 20
2055.361469251319
 10
1184.780488156778
 20
2055.468988382745
 10
1184.838015386083
 20
2055.574291269652
 10
1184.899707592075
 20
2055.677209449883
 10
1184.965466080386
 20
2055.777578276305
 10
1185.035185651462
 20
2055.875237180208
 10
1185.108754768863
 20
2055.970029928176
 10
1185.186055737693
 20
2056.061804872035
 10
1185.266964892893
 20
2056.150415191452
 10
1185.320152581556
 20
2056.20497119968
  0
LWPOLYLINE
  5
2A5
330
298
100
AcDbEntity
  8
P-SANR-FIXT
100
AcDbPolyline
 90
       21
 70
   128
 43
0.0
 10
1231.062793268675
 20
2056.20497119968
 10
1231.145926626798
 20
2056.118444181532
 10
1231.225533329256
 20
2056.028661928129
 10
1231.301486022309
 20
2055.935768071925
 10
1231.373663197848
 20
2055.839911223273
 10
1231.44194938779
 20
2055.741244732681
 10
1231.506235348798
 20
2055.639926445489
 10
1231.566418237049
 20
2055.536118449341
 10
1231.622401772759
 20
2055.429986814887
 10
1231.674096394215
 20
2055.321701330103
 10
1231.721419401048
 20
2055.211435228664
 10
1231.764295086543
 20
2055.099364912809
 10
1231.802654858749
 20
2054.985669671138
 10
1231.836437350215
 20
2054.870531391784
 10
1231.865588516161
 20
2054.75413427143
 10
1231.890061720938
 20
2054.636664520642
 10
1231.909817812641
 20
2054.518310065961
 10
1231.924825185737
 20
2054.399260249265
 10
1231.935059831631
 20
2054.279705524868
 10
1231.940505377072
 20
2054.159837154822
 10
1231.941472925116
 20
2054.083650856121
  0
LWPOLYLINE
  5
2A6
330
298
100
AcDbEntity
  8
P-SANR-FIXT
100
AcDbPolyline
 90
       41
 70
   128
 43
0.0
 10
1224.191472925115
 20
2086.48254154324
 10
1224.331435594768
 20
2086.479741916553
 10
1224.471174354008
 20
2086.471347515299
 10
1224.610465650627
 20
2086.457371768728
 10
1224.749086648265
 20
2086.437837035055
 10
1224.886815582898
 20
2086.412774565684
 10
1225.02343211761
 20
2086.382224455222
 10
1225.15871769509
 20
2086.346235577328
 10
1225.292455887272
 20
2086.304865506528
 10
1225.424432741578
 20
2086.258180426113
 10
1225.554437123196
 20
2086.20625502225
 10
1225.682261052847
 20
2086.14917236451
 10
1225.807700039511
 20
2086.087023772968
 10
1225.930553407569
 20
2086.019908672112
 10
1226.050624617838
 20
2085.947934431787
 10
1226.167721581998
 20
2085.871216195424
 10
1226.281656969884
 20
2085.789876695836
 10
1226.39224850918
 20
2085.704046058868
 10
1226.499319277015
 20
2085.613861595233
 10
1226.602697983002
 20
2085.519467580833
 10
1226.702219243264
 20
2085.421015025955
 10
1226.797723845013
 20
2085.318661433685
 10
1226.889059001261
 20
2085.212570547935
 10
1226.976078595243
 20
2085.102912091492
 10
1227.058643414169
 20
2084.989861494493
 10
1227.136621371943
 20
2084.873599613779
 10
1227.209887720467
 20
2084.754312443555
 10
1227.278325249213
 20
2084.632190817848
 10
1227.341824472733
 20
2084.507430105208
 10
1227.400283805817
 20
2084.380229896162
 10
1227.453609726001
 20
2084.250793683908
 10
1227.501716923189
 20
2084.119328538776
 10
1227.544528436128
 20
2083.986044776952
 10
1227.581975775529
 20
2083.851155624023
 10
1227.613999033639
 20
2083.71487687386
 10
1227.640546980075
 20
2083.577426543391
 10
1227.661577143786
 20
2083.439024523824
 10
1227.677055880997
 20
2083.299892228865
 10
1227.68695842903
 20
2083.160252240507
 10
1227.69126894592
 20
2083.020327952944
 10
1227.691472925115
 20
2082.98254154324
  0
LWPOLYLINE
  5
2A7
330
298
100
AcDbEntity
  8
P-SANR-FIXT
100
AcDbPolyline
 90
       34
 70
   128
 43
0.0
 10
1213.206472925115
 20
2086.48254154324
 10
1213.224537894973
 20
2086.48254154324
 10
1213.827860657517
 20
2086.48254154324
 10
1214.422166402054
 20
2086.48254154324
 10
1215.006504366171
 20
2086.48254154324
 10
1215.579939733779
 20
2086.48254154324
 10
1216.141555130615
 20
2086.48254154324
 10
1216.690452091849
 20
2086.48254154324
 10
1217.225752499436
 20
2086.48254154324
 10
1217.746599986913
 20
2086.48254154324
 10
1218.252161309411
 20
2086.48254154324
 10
1218.741627676659
 20
2086.48254154324
 10
1219.214216046884
 20
2086.48254154324
 10
1219.669170379508
 20
2086.48254154324
 10
1220.105762844649
 20
2086.48254154324
 10
1220.523294987499
 20
2086.48254154324
 10
1220.921098845697
 20
2086.48254154324
 10
1221.298538017931
 20
2086.48254154324
 10
1221.655008682042
 20
2086.48254154324
 10
1221.989940561009
 20
2086.48254154324
 10
1222.302797835274
 20
2086.48254154324
 10
1222.59307999994
 20
2086.48254154324
 10
1222.860322665463
 20
2086.48254154324
 10
1223.104098300591
 20
2086.48254154324
 10
1223.324016916308
 20
2086.48254154324
 10
1223.519726689743
 20
2086.48254154324
 10
1223.690914527007
 20
2086.48254154324
 10
1223.83730656408
 20
2086.48254154324
 10
1223.958668604931
 20
2086.48254154324
 10
1224.054806496182
 20
2086.48254154324
 10
1224.125566437718
 20
2086.48254154324
 10
1224.170835228725
 20
2086.48254154324
 10
1224.190540448795
 20
2086.48254154324
 10
1224.191472925115
 20
2086.48254154324
  0
LWPOLYLINE
  5
2A8
330
298
100
AcDbEntity
  8
P-SANR-FIXT
100
AcDbPolyline
 90
       33
 70
   128
 43
0.0
 10
1224.191472925115
 20
2086.48254154324
 10
1224.178674631691
 20
2086.48254154324
 10
1224.140300225957
 20
2086.48254154324
 10
1224.076411098777
 20
2086.48254154324
 10
1223.987109459125
 20
2086.48254154324
 10
1223.872538170575
 20
2086.48254154324
 10
1223.732880522748
 20
2086.48254154324
 10
1223.568359938088
 20
2086.48254154324
 10
1223.379239614434
 20
2086.48254154324
 10
1223.165822103962
 20
2086.48254154324
 10
1222.928448829162
 20
2086.48254154324
 10
1222.667499536635
 20
2086.48254154324
 10
1222.383391689584
 20
2086.48254154324
 10
1222.076579799958
 20
2086.48254154324
 10
1221.74755470133
 20
2086.48254154324
 10
1221.39684276367
 20
2086.48254154324
 10
1221.025005051264
 20
2086.48254154324
 10
1220.63263642513
 20
2086.48254154324
 10
1220.22036459137
 20
2086.48254154324
 10
1219.78884909697
 20
2086.48254154324
 10
1219.33878027467
 20
2086.48254154324
 10
1218.870878138576
 20
2086.48254154324
 10
1218.385891232293
 20
2086.48254154324
 10
1217.884595431411
 20
2086.48254154324
 10
1217.367792702275
 20
2086.48254154324
 10
1216.836309819006
 20
2086.48254154324
 10
1216.29099704084
 20
2086.48254154324
 10
1215.732726751896
 20
2086.48254154324
 10
1215.162392065543
 20
2086.48254154324
 10
1214.580905395616
 20
2086.48254154324
 10
1213.989196996742
 20
2086.48254154324
 10
1213.388213476136
 20
2086.48254154324
 10
1213.206472925115
 20
2086.48254154324
  0
LWPOLYLINE
  5
2A9
330
298
100
AcDbEntity
  8
P-SANR-FIXT
100
AcDbPolyline
 90
       21
 70
   128
 43
0.0
 10
1187.812793268675
 20
2058.697611886799
 10
1187.895926626798
 20
2058.784138904948
 10
1187.975533329256
 20
2058.873921158351
 10
1188.051486022308
 20
2058.966815014555
 10
1188.123663197847
 20
2059.062671863208
 10
1188.191949387789
 20
2059.161338353798
 10
1188.256235348798
 20
2059.262656640991
 10
1188.316418237049
 20
2059.366464637139
 10
1188.372401772759
 20
2059.472596271592
 10
1188.424096394214
 20
2059.580881756377
 10
1188.471419401047
 20
2059.691147857816
 10
1188.514295086543
 20
2059.803218173671
 10
1188.552654858749
 20
2059.916913415342
 10
1188.586437350215
 20
2060.032051694696
 10
1188.615588516161
 20
2060.148448815049
 10
1188.640061720938
 20
2060.265918565838
 10
1188.659817812641
 20
2060.384273020519
 10
1188.674825185737
 20
2060.503322837215
 10
1188.685059831631
 20
2060.622877561613
 10
1188.690505377072
 20
2060.742745931657
 10
1188.691472925115
 20
2060.818932230359
  0
LWPOLYLINE
  5
2AA
330
298
100
AcDbEntity
  8
P-SANR-FIXT
100
AcDbPolyline
 90
       21
 70
   128
 43
0.0
 10
1227.691472925115
 20
2060.818932230359
 10
1227.693872605133
 20
2060.698964227799
 10
1227.701067806207
 20
2060.579188148452
 10
1227.713047017554
 20
2060.459795608492
 10
1227.729791074988
 20
2060.340977610517
 10
1227.751273191592
 20
2060.222924237974
 10
1227.77745900056
 20
2060.105824351078
 10
1227.808306610183
 20
2059.989865284667
 10
1227.843766670868
 20
2059.875232548511
 10
1227.883782454082
 20
2059.762109530534
 10
1227.928289943107
 20
2059.650677203433
 10
1227.977217935456
 20
2059.541113835161
 10
1228.030488156777
 20
2059.433594703734
 10
1228.088015386082
 20
2059.328291816828
 10
1228.149707592075
 20
2059.225373636596
 10
1228.215466080387
 20
2059.125004810174
 10
1228.285185651463
 20
2059.027345906272
 10
1228.358754768862
 20
2058.932553158304
 10
1228.436055737693
 20
2058.840778214445
 10
1228.516964892893
 20
2058.752167895027
 10
1228.570152581556
 20
2058.697611886799
  0
LINE
  5
2AB
330
298
100
AcDbEntity
  8
P-SANR-FIXT
100
AcDbLine
 10
1187.812793268675
 20
2058.697611886799
 30
0.0
 11
1185.320152581556
 21
2056.20497119968
 31
0.0
  0
LINE
  5
2AC
330
298
100
AcDbEntity
  8
P-SANR-FIXT
100
AcDbLine
 10
1231.062793268675
 20
2056.20497119968
 30
0.0
 11
1228.570152581556
 21
2058.697611886799
 31
0.0
  0
LINE
  5
2AD
330
298
100
AcDbEntity
  8
P-SANR-FIXT
100
AcDbLine
 10
1184.441472925116
 20
2054.083650856121
 30
0.0
 11
1184.441472925116
 21
2051.48254154324
 31
0.0
  0
LINE
  5
2AE
330
298
100
AcDbEntity
  8
P-SANR-FIXT
100
AcDbLine
 10
1231.941472925116
 20
2051.48254154324
 30
0.0
 11
1231.941472925116
 21
2054.083650856121
 31
0.0
  0
LINE
  5
2AF
330
298
100
AcDbEntity
  8
P-SANR-FIXT
100
AcDbLine
 10
1184.441472925113
 20
2051.482541543239
 30
0.0
 11
1203.173453060586
 21
2051.482541543239
 31
0.0
  0
LINE
  5
2B0
330
298
100
AcDbEntity
  8
P-SANR-FIXT
100
AcDbLine
 10
1213.20949278964
 20
2051.482541543239
 30
0.0
 11
1231.941472925113
 21
2051.482541543239
 31
0.0
  0
LINE
  5
2B1
330
298
100
AcDbEntity
  8
P-SANR-FIXT
100
AcDbLine
 10
1180.691472925116
 20
2045.982558850012
 30
0.0
 11
1180.691472925116
 21
2042.182558850011
 31
0.0
  0
LINE
  5
2B2
330
298
100
AcDbEntity
  8
P-SANR-FIXT
100
AcDbLine
 10
1235.691472925115
 20
2042.182558850011
 30
0.0
 11
1235.691472925115
 21
2045.982558850012
 31
0.0
  0
LINE
  5
2B3
330
298
100
AcDbEntity
  8
P-SANR-FIXT
100
AcDbLine
 10
1180.691472925116
 20
2042.182558850011
 30
0.0
 11
1182.191472925115
 21
2040.682558850011
 31
0.0
  0
LINE
  5
2B4
330
298
100
AcDbEntity
  8
P-SANR-FIXT
100
AcDbLine
 10
1234.191472925116
 20
2040.682558850011
 30
0.0
 11
1235.691472925115
 21
2042.182558850011
 31
0.0
  0
LINE
  5
2B5
330
298
100
AcDbEntity
  8
P-SANR-FIXT
100
AcDbLine
 10
1182.191472925115
 20
2040.682558850011
 30
0.0
 11
1182.191472925115
 21
2030.982558850012
 31
0.0
  0
LINE
  5
2B6
330
298
100
AcDbEntity
  8
P-SANR-FIXT
100
AcDbLine
 10
1234.191472925116
 20
2030.982558850012
 30
0.0
 11
1234.191472925116
 21
2040.682558850011
 31
0.0
  0
LINE
  5
2B7
330
298
100
AcDbEntity
  8
P-SANR-FIXT
100
AcDbLine
 10
1182.191472925115
 20
2030.982558850012
 30
0.0
 11
1177.691472925115
 21
2026.482558850012
 31
0.0
  0
LINE
  5
2B8
330
298
100
AcDbEntity
  8
P-SANR-FIXT
100
AcDbLine
 10
1238.691472925115
 20
2026.482558850012
 30
0.0
 11
1234.191472925116
 21
2030.982558850012
 31
0.0
  0
LINE
  5
2B9
330
298
100
AcDbEntity
  8
P-SANR-FIXT
100
AcDbLine
 10
1177.691472925115
 20
2026.482558850012
 30
0.0
 11
1177.691472925115
 21
2022.210544213812
 31
0.0
  0
LINE
  5
2BA
330
298
100
AcDbEntity
  8
P-SANR-FIXT
100
AcDbLine
 10
1238.691472925115
 20
2022.210544213812
 30
0.0
 11
1238.691472925115
 21
2026.482558850012
 31
0.0
  0
LINE
  5
2BB
330
298
100
AcDbEntity
  8
P-SANR-FIXT
100
AcDbLine
 10
1248.191472925115
 20
2008.982558850012
 30
0.0
 11
1242.691472925115
 21
2008.982558850012
 31
0.0
  0
LINE
  5
2BC
330
298
100
AcDbEntity
  8
P-SANR-FIXT
100
AcDbLine
 10
1173.691472925115
 20
2008.982558850012
 30
0.0
 11
1168.191472925116
 21
2008.982558850012
 31
0.0
  0
LINE
  5
2BD
330
298
100
AcDbEntity
  8
P-SANR-FIXT
100
AcDbLine
 10
1168.191472925116
 20
1990.982558850011
 30
0.0
 11
1173.691472925115
 21
1990.982558850011
 31
0.0
  0
LINE
  5
2BE
330
298
100
AcDbEntity
  8
P-SANR-FIXT
100
AcDbLine
 10
1242.691472925115
 20
1990.982558850011
 30
0.0
 11
1248.191472925115
 21
1990.982558850011
 31
0.0
  0
LINE
  5
2BF
330
298
100
AcDbEntity
  8
P-SANR-FIXT
100
AcDbLine
 10
1190.191472925115
 20
2051.48254154324
 30
0.0
 11
1190.191472925115
 21
2050.782558850011
 31
0.0
  0
LINE
  5
2C0
330
298
100
AcDbEntity
  8
P-SANR-FIXT
100
AcDbLine
 10
1226.191472925115
 20
2050.782558850011
 30
0.0
 11
1226.191472925115
 21
2051.48254154324
 31
0.0
  0
LINE
  5
2C1
330
298
100
AcDbEntity
  8
P-SANR-FIXT
100
AcDbLine
 10
1183.191472925115
 20
2050.782558850011
 30
0.0
 11
1182.191472925115
 21
2049.782558850012
 31
0.0
  0
LINE
  5
2C2
330
298
100
AcDbEntity
  8
P-SANR-FIXT
100
AcDbLine
 10
1234.191472925116
 20
2049.782558850012
 30
0.0
 11
1233.191472925115
 21
2050.782558850011
 31
0.0
  0
LINE
  5
2C3
330
298
100
AcDbEntity
  8
P-SANR-FIXT
100
AcDbLine
 10
1182.191472925115
 20
2049.782558850012
 30
0.0
 11
1182.191472925115
 21
2047.482558850012
 31
0.0
  0
LINE
  5
2C4
330
298
100
AcDbEntity
  8
P-SANR-FIXT
100
AcDbLine
 10
1234.191472925116
 20
2047.482558850012
 30
0.0
 11
1234.191472925116
 21
2049.782558850012
 31
0.0
  0
LINE
  5
2C5
330
298
100
AcDbEntity
  8
P-SANR-FIXT
100
AcDbLine
 10
1182.191472925115
 20
2047.482558850012
 30
0.0
 11
1180.691472925116
 21
2045.982558850012
 31
0.0
  0
LINE
  5
2C6
330
298
100
AcDbEntity
  8
P-SANR-FIXT
100
AcDbLine
 10
1235.691472925115
 20
2045.982558850012
 30
0.0
 11
1234.191472925116
 21
2047.482558850012
 31
0.0
  0
ARC
  5
2C7
330
298
100
AcDbEntity
  8
P-SANR-FIXT
100
AcDbCircle
 10
1208.191472925113
 20
1999.982558850011
 30
0.0
 40
34.5
100
AcDbArc
 50
180.0
 51
269.9999999999997
  0
SPLINE
  5
2C8
330
298
100
AcDbEntity
  8
P-SANR-FIXT
100
AcDbSpline
210
0.0
220
0.0
230
1.0
 70
    24
 71
     3
 72
     9
 73
     5
 74
     0
 42
0.000000001
 43
0.0000000001
 40
-1.0
 40
-1.0
 40
-1.0
 40
-1.0
 40
-0.5
 40
0.0
 40
0.0
 40
0.0
 40
0.0
 10
1173.691472925113
 20
1999.982558850011
 30
0.0
 10
1173.691472925113
 20
1997.286226912403
 30
0.0
 10
1173.691472925113
 20
1991.906840101379
 30
0.0
 10
1173.691472925113
 20
1986.554007418734
 30
0.0
 10
1173.691472925113
 20
1983.884229609506
 30
0.0
  0
SPLINE
  5
2C9
330
298
100
AcDbEntity
  8
P-SANR-FIXT
100
AcDbSpline
210
0.0
220
0.0
230
1.0
 70
    24
 71
     3
 72
    10
 73
     6
 74
     0
 42
0.000000001
 43
0.0000000001
 40
-1.0
 40
-1.0
 40
-1.0
 40
-1.0
 40
-0.6666666666666666
 40
-0.3333333333333333
 40
0.0
 40
0.0
 40
0.0
 40
0.0
 10
1176.999910844351
 20
1978.153847039699
 30
0.0
 10
1180.128661841262
 20
1976.347461809406
 30
0.0
 10
1186.364745398569
 20
1972.747057288905
 30
0.0
 10
1195.573530931374
 20
1967.43036248263
 30
0.0
 10
1201.777997071701
 20
1963.848212286335
 30
0.0
 10
1204.883035005876
 20
1962.055517799196
 30
0.0
  0
SPLINE
  5
2CA
330
298
100
AcDbEntity
  8
P-SANR-FIXT
100
AcDbSpline
210
0.0
220
0.0
230
1.0
 70
    24
 71
     3
 72
    10
 73
     6
 74
     0
 42
0.000000001
 43
0.0000000001
 40
-1.0
 40
-1.0
 40
-1.0
 40
-1.0
 40
-0.6666666666666666
 40
-0.3333333333333333
 40
0.0
 40
0.0
 40
0.0
 40
0.0
 10
1204.883035005876
 20
2037.909599900826
 30
0.0
 10
1201.754284008965
 20
2036.103214670532
 30
0.0
 10
1195.518200451657
 20
2032.502810150031
 30
0.0
 10
1186.309414918852
 20
2027.186115343758
 30
0.0
 10
1180.104948778526
 20
2023.603965147461
 30
0.0
 10
1176.999910844351
 20
2021.811270660322
 30
0.0
  0
SPLINE
  5
2CB
330
298
100
AcDbEntity
  8
P-SANR-FIXT
100
AcDbSpline
210
0.0
220
0.0
230
1.0
 70
    24
 71
     3
 72
     9
 73
     5
 74
     0
 42
0.000000001
 43
0.0000000001
 40
-1.0
 40
-1.0
 40
-1.0
 40
-1.0
 40
-0.5
 40
0.0
 40
0.0
 40
0.0
 40
0.0
 10
1173.691472925113
 20
2016.080888090515
 30
0.0
 10
1173.691472925113
 20
2013.411110281287
 30
0.0
 10
1173.691472925113
 20
2008.058277598642
 30
0.0
 10
1173.691472925113
 20
2002.678890787618
 30
0.0
 10
1173.691472925113
 20
1999.982558850011
 30
0.0
  0
ARC
  5
2CC
330
298
100
AcDbEntity
  8
P-SANR-FIXT
100
AcDbCircle
 10
1208.191472925113
 20
1999.982558850011
 30
0.0
 40
34.5
100
AcDbArc
 50
90.00000000000039
 51
180.0
  0
SPLINE
  5
2CD
330
298
100
AcDbEntity
  8
P-SANR-FIXT
100
AcDbSpline
210
0.0
220
0.0
230
1.0
 70
    24
 71
     3
 72
    10
 73
     6
 74
     0
 42
0.000000001
 43
0.0000000001
 40
-1.0
 40
-1.0
 40
-1.0
 40
-1.0
 40
-0.6666666666666666
 40
-0.3333333333333333
 40
0.0
 40
0.0
 40
0.0
 40
0.0
 10
1211.499910844351
 20
1962.055517799196
 30
0.0
 10
1214.628661841262
 20
1963.861903029489
 30
0.0
 10
1220.864745398569
 20
1967.46230754999
 30
0.0
 10
1230.073530931374
 20
1972.779002356264
 30
0.0
 10
1236.277997071701
 20
1976.361152552559
 30
0.0
 10
1239.383035005876
 20
1978.1538470397
 30
0.0
  0
SPLINE
  5
2CE
330
298
100
AcDbEntity
  8
P-SANR-FIXT
100
AcDbSpline
210
0.0
220
0.0
230
1.0
 70
    24
 71
     3
 72
     9
 73
     5
 74
     0
 42
0.000000001
 43
0.0000000001
 40
-1.0
 40
-1.0
 40
-1.0
 40
-1.0
 40
-0.5
 40
0.0
 40
0.0
 40
0.0
 40
0.0
 10
1242.691472925113
 20
1983.884229609506
 30
0.0
 10
1242.691472925113
 20
1986.554007418734
 30
0.0
 10
1242.691472925113
 20
1991.906840101379
 30
0.0
 10
1242.691472925113
 20
1997.286226912403
 30
0.0
 10
1242.691472925113
 20
1999.982558850011
 30
0.0
  0
ARC
  5
2CF
330
298
100
AcDbEntity
  8
P-SANR-FIXT
100
AcDbCircle
 10
1208.191472925113
 20
1999.982558850011
 30
0.0
 40
34.49999999999989
100
AcDbArc
 50
269.9999999999998
 51
0.0000000000001908
  0
ARC
  5
2D0
330
298
100
AcDbEntity
  8
P-SANR-FIXT
100
AcDbCircle
 10
1208.191472925113
 20
1999.982558850011
 30
0.0
 40
34.5
100
AcDbArc
 50
0.0
 51
90.00000000000039
  0
SPLINE
  5
2D1
330
298
100
AcDbEntity
  8
P-SANR-FIXT
100
AcDbSpline
210
0.0
220
0.0
230
1.0
 70
    24
 71
     3
 72
     9
 73
     5
 74
     0
 42
0.000000001
 43
0.0000000001
 40
-1.0
 40
-1.0
 40
-1.0
 40
-1.0
 40
-0.5
 40
0.0
 40
0.0
 40
0.0
 40
0.0
 10
1242.691472925113
 20
1999.982558850011
 30
0.0
 10
1242.691472925113
 20
2002.678890787618
 30
0.0
 10
1242.691472925113
 20
2008.058277598643
 30
0.0
 10
1242.691472925113
 20
2013.411110281288
 30
0.0
 10
1242.691472925113
 20
2016.080888090515
 30
0.0
  0
SPLINE
  5
2D2
330
298
100
AcDbEntity
  8
P-SANR-FIXT
100
AcDbSpline
210
0.0
220
0.0
230
1.0
 70
    24
 71
     3
 72
    10
 73
     6
 74
     0
 42
0.000000001
 43
0.0000000001
 40
-1.0
 40
-1.0
 40
-1.0
 40
-1.0
 40
-0.6666666666666666
 40
-0.3333333333333333
 40
0.0
 40
0.0
 40
0.0
 40
0.0
 10
1239.383035005876
 20
2021.811270660322
 30
0.0
 10
1236.254284008965
 20
2023.617655890616
 30
0.0
 10
1230.018200451657
 20
2027.218060411116
 30
0.0
 10
1220.809414918852
 20
2032.53475521739
 30
0.0
 10
1214.604948778526
 20
2036.116905413686
 30
0.0
 10
1211.49991084435
 20
2037.909599900826
 30
0.0
  0
LINE
  5
2D3
330
298
100
AcDbEntity
  8
P-SANR-FIXT
100
AcDbLine
 10
1253.691472925114
 20
2009.220163157044
 30
0.0
 11
1253.691472925114
 21
2004.601361003528
 31
0.0
  0
LINE
  5
2D4
330
298
100
AcDbEntity
  8
P-SANR-FIXT
100
AcDbLine
 10
1253.691472925114
 20
2004.601361003528
 30
0.0
 11
1253.691472925114
 21
1995.363756696494
 31
0.0
  0
LINE
  5
2D5
330
298
100
AcDbEntity
  8
P-SANR-FIXT
100
AcDbLine
 10
1253.691472925114
 20
1995.363756696494
 30
0.0
 11
1253.691472925114
 21
1990.744954542977
 31
0.0
  0
SPLINE
  5
2D6
330
298
100
AcDbEntity
  8
P-SANR-FIXT
100
AcDbSpline
210
0.0
220
0.0
230
1.0
 70
    24
 71
     3
 72
     8
 73
     4
 74
     0
 42
0.000000001
 43
0.0000000001
 40
-0.5314562674086785
 40
-0.5314562674086785
 40
-0.5314562674086785
 40
-0.5314562674086785
 40
-0.4641452111264672
 40
-0.4641452111264672
 40
-0.4641452111264672
 40
-0.4641452111264672
 10
1189.999413781138
 20
2029.316537180207
 30
0.0
 10
1190.642193026071
 20
2029.687645950299
 30
0.0
 10
1191.287989660681
 20
2030.060496811133
 30
0.0
 10
1191.933142044639
 20
2030.432975713679
 30
0.0
  0
SPLINE
  5
2D7
330
298
100
AcDbEntity
  8
P-SANR-FIXT
100
AcDbSpline
210
0.0
220
0.0
230
1.0
 70
    24
 71
     3
 72
     8
 73
     4
 74
     0
 42
0.000000001
 43
0.0000000001
 40
-0.5389712357142539
 40
-0.5389712357142539
 40
-0.5389712357142539
 40
-0.5389712357142539
 40
-0.4555127861597905
 40
-0.4555127861597905
 40
-0.4555127861597905
 40
-0.4555127861597905
 10
1192.09878285164
 20
1969.436509221831
 30
0.0
 10
1191.302104451189
 20
1969.89647171079
 30
0.0
 10
1190.500574534185
 20
1970.359235224135
 30
0.0
 10
1189.700954516832
 20
1970.820896056403
 30
0.0
  0
SPLINE
  5
2D8
330
298
100
AcDbEntity
  8
P-SANR-FIXT
100
AcDbSpline
210
0.0
220
0.0
230
1.0
 70
    24
 71
     3
 72
     8
 73
     4
 74
     0
 42
0.000000001
 43
0.0000000001
 40
-0.538971235714257
 40
-0.538971235714257
 40
-0.538971235714257
 40
-0.538971235714257
 40
-0.4555127861597873
 40
-0.4555127861597873
 40
-0.4555127861597873
 40
-0.4555127861597873
 10
1224.284162998587
 20
2030.52860847819
 30
0.0
 10
1225.080841399038
 20
2030.068645989232
 30
0.0
 10
1225.882371316041
 20
2029.605882475886
 30
0.0
 10
1226.681991333395
 20
2029.144221643618
 30
0.0
  0
SPLINE
  5
2D9
330
298
100
AcDbEntity
  8
P-SANR-FIXT
100
AcDbSpline
210
0.0
220
0.0
230
1.0
 70
    24
 71
     3
 72
     8
 73
     4
 74
     0
 42
0.000000001
 43
0.0000000001
 40
-0.5314562674086866
 40
-0.5314562674086866
 40
-0.5314562674086866
 40
-0.5314562674086866
 40
-0.464145211126473
 40
-0.464145211126473
 40
-0.464145211126473
 40
-0.464145211126473
 10
1226.383532069089
 20
1970.648580519814
 30
0.0
 10
1225.740752824155
 20
1970.277471749722
 30
0.0
 10
1225.094956189546
 20
1969.904620888889
 30
0.0
 10
1224.449803805588
 20
1969.532141986342
 30
0.0
  0
ARC
  5
2DA
330
298
100
AcDbEntity
  8
P-SANR-FIXT
100
AcDbCircle
 10
1208.191472925113
 20
1999.982558850011
 30
0.0
 40
25.39999999999771
100
AcDbArc
 50
90.00000000000078
 51
269.9999999999999
  0
ARC
  5
2DB
330
298
100
AcDbEntity
  8
P-SANR-FIXT
100
AcDbCircle
 10
1208.191472925113
 20
1999.982558850011
 30
0.0
 40
25.39999999999782
100
AcDbArc
 50
270.0000000000002
 51
90.0
  0
ARC
  5
2DC
330
298
100
AcDbEntity
  8
P-SANR-FIXT
100
AcDbCircle
 10
1208.191472925113
 20
1999.982558850011
 30
0.0
 40
38.07106781186563
100
AcDbArc
 50
265.0146149337281
 51
269.9999999999993
  0
ARC
  5
2DD
330
298
100
AcDbEntity
  8
P-SANR-FIXT
100
AcDbCircle
 10
1208.191472925113
 20
1999.982558850011
 30
0.0
 40
38.07106781186576
100
AcDbArc
 50
89.99999999999966
 51
94.98538506627118
  0
ARC
  5
2DE
330
298
100
AcDbEntity
  8
P-SANR-FIXT
100
AcDbCircle
 10
1208.191472925113
 20
1999.982558850011
 30
0.0
 40
38.07106781186565
100
AcDbArc
 50
205.0146149337282
 51
214.9853850662709
  0
ARC
  5
2DF
330
298
100
AcDbEntity
  8
P-SANR-FIXT
100
AcDbCircle
 10
1208.191472925113
 20
1999.982558850011
 30
0.0
 40
38.07106781186577
100
AcDbArc
 50
145.0146149337287
 51
154.9853850662713
  0
ARC
  5
2E0
330
298
100
AcDbEntity
  8
P-SANR-FIXT
100
AcDbCircle
 10
1208.191472925113
 20
1999.982558850011
 30
0.0
 40
38.07106781186576
100
AcDbArc
 50
269.9999999999997
 51
274.9853850662705
  0
ARC
  5
2E1
330
298
100
AcDbEntity
  8
P-SANR-FIXT
100
AcDbCircle
 10
1208.191472925113
 20
1999.982558850011
 30
0.0
 40
38.07106781186563
100
AcDbArc
 50
85.01461493372845
 51
89.99999999999966
  0
ARC
  5
2E2
330
298
100
AcDbEntity
  8
P-SANR-FIXT
100
AcDbCircle
 10
1208.191472925113
 20
1999.982558850011
 30
0.0
 40
38.07106781186577
100
AcDbArc
 50
325.0146149337281
 51
334.9853850662708
  0
ARC
  5
2E3
330
298
100
AcDbEntity
  8
P-SANR-FIXT
100
AcDbCircle
 10
1208.191472925113
 20
1999.982558850011
 30
0.0
 40
38.07106781186565
100
AcDbArc
 50
25.01461493372854
 51
34.98538506627099
  0
SPLINE
  5
2E4
330
298
100
AcDbEntity
  8
P-SANR-FIXT
100
AcDbSpline
210
0.0
220
0.0
230
1.0
 70
    24
 71
     3
 72
     8
 73
     4
 74
     0
 42
0.000000001
 43
0.0000000001
 40
-0.5444872138402129
 40
-0.5444872138402129
 40
-0.5444872138402129
 40
-0.5444872138402129
 40
-0.4610287642857435
 40
-0.4610287642857435
 40
-0.4610287642857435
 40
-0.4610287642857435
 10
1189.706403420232
 20
1970.817750130558
 30
0.0
 10
1190.503631515915
 20
1970.35747027491
 30
0.0
 10
1191.305777585042
 20
1969.89435102597
 30
0.0
 10
1192.105446841085
 20
1969.432661765731
 30
0.0
  0
SPLINE
  5
2E5
330
298
100
AcDbEntity
  8
P-SANR-FIXT
100
AcDbSpline
210
0.0
220
0.0
230
1.0
 70
    24
 71
     3
 72
     8
 73
     4
 74
     0
 42
0.000000001
 43
0.0000000001
 40
-0.5358547888735297
 40
-0.5358547888735297
 40
-0.5358547888735297
 40
-0.5358547888735297
 40
-0.4685437325913115
 40
-0.4685437325913115
 40
-0.4685437325913115
 40
-0.4685437325913115
 10
1224.453821016132
 20
1969.534461323932
 30
0.0
 10
1225.096984296762
 20
1969.905791817136
 30
0.0
 10
1225.74319572744
 20
1970.278882160592
 30
0.0
 10
1226.388424971833
 20
1970.65140543853
 30
0.0
  0
LINE
  5
2E6
330
298
100
AcDbEntity
  8
P-SANR-FIXT
100
AcDbLine
 10
1208.191472925113
 20
2045.982558850011
 30
0.0
 11
1180.691472925113
 21
2045.982558850011
 31
0.0
  0
LINE
  5
2E7
330
298
100
AcDbEntity
  8
P-SANR-FIXT
100
AcDbLine
 10
1235.691472925113
 20
2045.982558850011
 30
0.0
 11
1208.191472925113
 21
2045.982558850011
 31
0.0
  0
LINE
  5
2E8
330
298
100
AcDbEntity
  8
P-SANR-FIXT
100
AcDbLine
 10
1180.691472925113
 20
2042.182558850011
 30
0.0
 11
1208.191472925113
 21
2042.182558850011
 31
0.0
  0
LINE
  5
2E9
330
298
100
AcDbEntity
  8
P-SANR-FIXT
100
AcDbLine
 10
1208.191472925113
 20
2042.182558850011
 30
0.0
 11
1235.691472925113
 21
2042.182558850011
 31
0.0
  0
LINE
  5
2EA
330
298
100
AcDbEntity
  8
P-SANR-FIXT
100
AcDbLine
 10
1182.191472925113
 20
2040.682558850011
 30
0.0
 11
1208.191472925113
 21
2040.682558850011
 31
0.0
  0
LINE
  5
2EB
330
298
100
AcDbEntity
  8
P-SANR-FIXT
100
AcDbLine
 10
1208.191472925113
 20
2040.682558850011
 30
0.0
 11
1234.191472925113
 21
2040.682558850011
 31
0.0
  0
LINE
  5
2EC
330
298
100
AcDbEntity
  8
P-SANR-FIXT
100
AcDbLine
 10
1182.191472925113
 20
2030.982558850011
 30
0.0
 11
1192.938918088227
 21
2030.982558850011
 31
0.0
  0
LINE
  5
2ED
330
298
100
AcDbEntity
  8
P-SANR-FIXT
100
AcDbLine
 10
1223.498618221982
 20
2030.982558850011
 30
0.0
 11
1234.191472925113
 21
2030.982558850011
 31
0.0
  0
LINE
  5
2EE
330
298
100
AcDbEntity
  8
P-SANR-FIXT
100
AcDbLine
 10
1177.691472925113
 20
2026.482558850011
 30
0.0
 11
1185.135829003722
 21
2026.482558850011
 31
0.0
  0
LINE
  5
2EF
330
298
100
AcDbEntity
  8
P-SANR-FIXT
100
AcDbLine
 10
1231.311845661191
 20
2026.482558850011
 30
0.0
 11
1238.691472925113
 21
2026.482558850011
 31
0.0
  0
LINE
  5
2F0
330
298
100
AcDbEntity
  8
P-SANR-FIXT
100
AcDbLine
 10
1183.631234324675
 20
2006.465133882548
 30
0.0
 11
1183.618468962326
 21
2006.465133882548
 31
0.0
  0
LINE
  5
2F1
330
298
100
AcDbEntity
  8
P-SANR-FIXT
100
AcDbLine
 10
1232.7644768879
 20
2006.465133882548
 30
0.0
 11
1232.751711525551
 21
2006.465133882548
 31
0.0
  0
LINE
  5
2F2
330
298
100
AcDbEntity
  8
P-SANR-FIXT
100
AcDbLine
 10
1248.191472925113
 20
2008.972314893095
 30
0.0
 11
1248.191472925113
 21
2004.849209267477
 31
0.0
  0
LINE
  5
2F3
330
298
100
AcDbEntity
  8
P-SANR-FIXT
100
AcDbLine
 10
1248.191472925113
 20
2004.105664475628
 30
0.0
 11
1248.191472925113
 21
1999.982558850011
 31
0.0
  0
LINE
  5
2F4
330
298
100
AcDbEntity
  8
P-SANR-FIXT
100
AcDbLine
 10
1248.191472925113
 20
1999.982558850011
 30
0.0
 11
1248.191472925113
 21
1995.859453224393
 31
0.0
  0
LINE
  5
2F5
330
298
100
AcDbEntity
  8
P-SANR-FIXT
100
AcDbLine
 10
1248.191472925113
 20
1995.115908432544
 30
0.0
 11
1248.191472925113
 21
1990.992802806926
 31
0.0
  0
LINE
  5
2F6
330
298
100
AcDbEntity
  8
P-SANR-FIXT
100
AcDbLine
 10
1168.191472925113
 20
1995.859453224393
 30
0.0
 11
1168.191472925113
 21
1999.982558850011
 31
0.0
  0
LINE
  5
2F7
330
298
100
AcDbEntity
  8
P-SANR-FIXT
100
AcDbLine
 10
1168.191472925113
 20
1999.982558850011
 30
0.0
 11
1168.191472925113
 21
2004.105664475628
 31
0.0
  0
LINE
  5
2F8
330
298
100
AcDbEntity
  8
P-SANR-FIXT
100
AcDbLine
 10
1168.191472925113
 20
1990.992802806926
 30
0.0
 11
1168.191472925113
 21
1995.115908432544
 31
0.0
  0
LINE
  5
2F9
330
298
100
AcDbEntity
  8
P-SANR-FIXT
100
AcDbLine
 10
1168.191472925113
 20
2004.849209267477
 30
0.0
 11
1168.191472925113
 21
2008.972314893095
 31
0.0
  0
LINE
  5
2FA
330
298
100
AcDbEntity
  8
P-SANR-FIXT
100
AcDbLine
 10
1183.191472925113
 20
2050.782558850011
 30
0.0
 11
1208.191472925113
 21
2050.782558850011
 31
0.0
  0
LINE
  5
2FB
330
298
100
AcDbEntity
  8
P-SANR-FIXT
100
AcDbLine
 10
1208.191472925113
 20
2050.782558850011
 30
0.0
 11
1233.191472925113
 21
2050.782558850011
 31
0.0
  0
LINE
  5
2FC
330
298
100
AcDbEntity
  8
P-SANR-FIXT
100
AcDbLine
 10
1182.191472925113
 20
2049.782558850011
 30
0.0
 11
1208.191472925113
 21
2049.782558850011
 31
0.0
  0
LINE
  5
2FD
330
298
100
AcDbEntity
  8
P-SANR-FIXT
100
AcDbLine
 10
1208.191472925113
 20
2049.782558850011
 30
0.0
 11
1234.191472925113
 21
2049.782558850011
 31
0.0
  0
LINE
  5
2FE
330
298
100
AcDbEntity
  8
P-SANR-FIXT
100
AcDbLine
 10
1192.909056365509
 20
2047.482558850011
 30
0.0
 11
1208.191472925113
 21
2047.482558850011
 31
0.0
  0
LINE
  5
2FF
330
298
100
AcDbEntity
  8
P-SANR-FIXT
100
AcDbLine
 10
1183.464003501439
 20
2047.482558850011
 30
0.0
 11
1192.909056365509
 21
2047.482558850011
 31
0.0
  0
LINE
  5
300
330
298
100
AcDbEntity
  8
P-SANR-FIXT
100
AcDbLine
 10
1182.207311422617
 20
2047.482558850011
 30
0.0
 11
1183.464003501439
 21
2047.482558850011
 31
0.0
  0
LINE
  5
301
330
298
100
AcDbEntity
  8
P-SANR-FIXT
100
AcDbLine
 10
1232.918942348787
 20
2047.482558850011
 30
0.0
 11
1234.17563442761
 21
2047.482558850011
 31
0.0
  0
LINE
  5
302
330
298
100
AcDbEntity
  8
P-SANR-FIXT
100
AcDbLine
 10
1223.473889484718
 20
2047.482558850011
 30
0.0
 11
1232.918942348787
 21
2047.482558850011
 31
0.0
  0
LINE
  5
303
330
298
100
AcDbEntity
  8
P-SANR-FIXT
100
AcDbLine
 10
1208.191472925113
 20
2047.482558850011
 30
0.0
 11
1223.473889484718
 21
2047.482558850011
 31
0.0
  0
LINE
  5
304
330
298
100
AcDbEntity
  8
P-SANR-FIXT
100
AcDbLine
 10
1162.691472925113
 20
1990.744954542977
 30
0.0
 11
1162.691472925113
 21
1995.363756696494
 31
0.0
  0
LINE
  5
305
330
298
100
AcDbEntity
  8
P-SANR-FIXT
100
AcDbLine
 10
1162.691472925113
 20
1995.363756696494
 30
0.0
 11
1162.691472925113
 21
2004.601361003528
 31
0.0
  0
LINE
  5
306
330
298
100
AcDbEntity
  8
P-SANR-FIXT
100
AcDbLine
 10
1162.691472925113
 20
2004.601361003528
 30
0.0
 11
1162.691472925113
 21
2009.220163157044
 31
0.0
  0
LINE
  5
307
330
298
100
AcDbEntity
  8
P-SANR-FIXT
100
AcDbLine
 10
1168.191472925113
 20
1990.992802806926
 30
0.0
 11
1168.191472925113
 21
1990.744954542977
 31
0.0
  0
LINE
  5
308
330
298
100
AcDbEntity
  8
P-SANR-FIXT
100
AcDbLine
 10
1168.191472925113
 20
1995.859453224393
 30
0.0
 11
1168.191472925113
 21
1995.363756696494
 31
0.0
  0
LINE
  5
309
330
298
100
AcDbEntity
  8
P-SANR-FIXT
100
AcDbLine
 10
1168.191472925113
 20
1995.363756696494
 30
0.0
 11
1168.191472925113
 21
1995.115908432544
 31
0.0
  0
LINE
  5
30A
330
298
100
AcDbEntity
  8
P-SANR-FIXT
100
AcDbLine
 10
1168.191472925113
 20
2009.220163157044
 30
0.0
 11
1168.191472925113
 21
2008.972314893095
 31
0.0
  0
LINE
  5
30B
330
298
100
AcDbEntity
  8
P-SANR-FIXT
100
AcDbLine
 10
1168.191472925113
 20
2004.849209267477
 30
0.0
 11
1168.191472925113
 21
2004.601361003528
 31
0.0
  0
LINE
  5
30C
330
298
100
AcDbEntity
  8
P-SANR-FIXT
100
AcDbLine
 10
1168.191472925113
 20
2004.601361003528
 30
0.0
 11
1168.191472925113
 21
2004.105664475628
 31
0.0
  0
LINE
  5
30D
330
298
100
AcDbEntity
  8
P-SANR-FIXT
100
AcDbLine
 10
1162.691472925113
 20
2009.220163157044
 30
0.0
 11
1168.191472925113
 21
2009.220163157044
 31
0.0
  0
LINE
  5
30E
330
298
100
AcDbEntity
  8
P-SANR-FIXT
100
AcDbLine
 10
1162.691472925113
 20
2004.601361003528
 30
0.0
 11
1168.191472925113
 21
2004.601361003528
 31
0.0
  0
LINE
  5
30F
330
298
100
AcDbEntity
  8
P-SANR-FIXT
100
AcDbLine
 10
1162.691472925113
 20
1995.363756696494
 30
0.0
 11
1168.191472925113
 21
1995.363756696494
 31
0.0
  0
LINE
  5
310
330
298
100
AcDbEntity
  8
P-SANR-FIXT
100
AcDbLine
 10
1168.191472925113
 20
1990.744954542977
 30
0.0
 11
1162.691472925113
 21
1990.744954542977
 31
0.0
  0
LINE
  5
311
330
298
100
AcDbEntity
  8
P-SANR-FIXT
100
AcDbLine
 10
1248.191472925113
 20
2008.972314893095
 30
0.0
 11
1248.191472925113
 21
2009.220163157044
 31
0.0
  0
LINE
  5
312
330
298
100
AcDbEntity
  8
P-SANR-FIXT
100
AcDbLine
 10
1248.191472925113
 20
2004.601361003528
 30
0.0
 11
1248.191472925113
 21
2004.849209267477
 31
0.0
  0
LINE
  5
313
330
298
100
AcDbEntity
  8
P-SANR-FIXT
100
AcDbLine
 10
1248.191472925113
 20
2004.105664475628
 30
0.0
 11
1248.191472925113
 21
2004.601361003528
 31
0.0
  0
LINE
  5
314
330
298
100
AcDbEntity
  8
P-SANR-FIXT
100
AcDbLine
 10
1248.191472925113
 20
1990.744954542977
 30
0.0
 11
1248.191472925113
 21
1990.992802806926
 31
0.0
  0
LINE
  5
315
330
298
100
AcDbEntity
  8
P-SANR-FIXT
100
AcDbLine
 10
1248.191472925113
 20
1995.363756696494
 30
0.0
 11
1248.191472925113
 21
1995.859453224393
 31
0.0
  0
LINE
  5
316
330
298
100
AcDbEntity
  8
P-SANR-FIXT
100
AcDbLine
 10
1248.191472925113
 20
1995.115908432544
 30
0.0
 11
1248.191472925113
 21
1995.363756696494
 31
0.0
  0
LINE
  5
317
330
298
100
AcDbEntity
  8
P-SANR-FIXT
100
AcDbLine
 10
1253.691472925114
 20
1990.744954542977
 30
0.0
 11
1248.191472925113
 21
1990.744954542977
 31
0.0
  0
LINE
  5
318
330
298
100
AcDbEntity
  8
P-SANR-FIXT
100
AcDbLine
 10
1248.191472925113
 20
2009.220163157044
 30
0.0
 11
1253.691472925114
 21
2009.220163157044
 31
0.0
  0
LINE
  5
319
330
298
100
AcDbEntity
  8
P-SANR-FIXT
100
AcDbLine
 10
1248.191472925113
 20
2004.601361003528
 30
0.0
 11
1253.691472925114
 21
2004.601361003528
 31
0.0
  0
LINE
  5
31A
330
298
100
AcDbEntity
  8
P-SANR-FIXT
100
AcDbLine
 10
1248.191472925113
 20
1995.363756696494
 30
0.0
 11
1253.691472925114
 21
1995.363756696494
 31
0.0
  0
ENDBLK
  5
31C
330
298
100
AcDbEntity
  8
0
100
AcDbBlockEnd
  0
ENDSEC
  0
SECTION
  2
ENTITIES
  0
INSERT
  5
16A
330
71
100
AcDbEntity
  8
P-SANR-FIXT
100
AcDbBlockReference
  2
Automatic flow rate regulator valve_Caleffi_121 DN15 - 1_2__-859151-Est - Idraulica
 10
0.0
 20
0.0
 30
0.0
1001
REVIT
1002
{
1070
     1
1000
863131
1002
}
1002
{
1070
     5
1000
859151
1002
}
1002
{
1070
     2
1000
-2001160
1002
}
  0
INSERT
  5
297
330
71
100
AcDbEntity
  8
P-SANR-FIXT
100
AcDbBlockReference
  2
Automatic flow rate regulator valve_Caleffi_121 DN15 - 1_2__-V1-Est - Idraulica
 10
0.0
 20
0.0
 30
0.0
1001
REVIT
1002
{
1070
     1
1000
863152
1002
}
1002
{
1070
     5
1000
859151
1002
}
1002
{
1070
     2
1000
-2001160
1002
}
  0
INSERT
  5
31D
330
71
100
AcDbEntity
  8
P-SANR-FIXT
100
AcDbBlockReference
  2
Automatic flow rate regulator valve_Caleffi_121 DN15 - 1_2__-V2-Est - Idraulica
 10
0.0
 20
0.0
 30
0.0
1001
REVIT
1002
{
1070
     1
1000
863172
1002
}
1002
{
1070
     5
1000
859151
1002
}
1002
{
1070
     2
1000
-2001160
1002
}
  0
ENDSEC
  0
SECTION
  2
OBJECTS
  0
DICTIONARY
  5
C
330
0
100
AcDbDictionary
281
     1
  3
ACAD_CIP_PREVIOUS_PRODUCT_INFO
350
7A
  3
ACAD_COLOR
350
63
  3
ACAD_DETAILVIEWSTYLE
350
6B
  3
ACAD_GROUP
350
D
  3
ACAD_IMAGE_VARS
350
7B
  3
ACAD_LAYOUT
350
62
  3
ACAD_MATERIAL
350
10
  3
ACAD_MLEADERSTYLE
350
66
  3
ACAD_MLINESTYLE
350
5F
  3
ACAD_PLOTSETTINGS
350
61
  3
ACAD_PLOTSTYLENAME
350
E
  3
ACAD_SCALELIST
350
42
  3
ACAD_SECTIONVIEWSTYLE
350
68
  3
ACAD_TABLESTYLE
350
64
  3
ACAD_VISUALSTYLE
350
29
  3
ACDB_RECOMPOSE_DATA
350
327
  3
AcDbVariableDictionary
350
7C
  3
REVIT_DICTIONARY
350
31F
  0
DICTIONARY
  5
323
330
71
100
AcDbDictionary
280
     1
281
     1
  3
ACAD_SORTENTS
360
324
  0
XRECORD
  5
7A
102
{ACAD_REACTORS
330
C
102
}
330
C
100
AcDbXrecord
280
     1
300
RVT
300
2013
300
RVT2013
  0
DICTIONARY
  5
63
102
{ACAD_REACTORS
330
C
102
}
330
C
100
AcDbDictionary
281
     1
  0
DICTIONARY
  5
6B
102
{ACAD_REACTORS
330
C
102
}
330
C
100
AcDbDictionary
281
     1
  3
Imperial24
350
6C
  0
DICTIONARY
  5
D
102
{ACAD_REACTORS
330
C
102
}
330
C
100
AcDbDictionary
281
     1
  0
RASTERVARIABLES
  5
7B
102
{ACAD_REACTORS
330
C
102
}
330
C
100
AcDbRasterVariables
 90
        0
 70
     0
 71
     1
 72
     1
  0
DICTIONARY
  5
62
102
{ACAD_REACTORS
330
C
102
}
330
C
100
AcDbDictionary
281
     1
  3
Layout1
350
70
  3
Layout2
350
78
  3
Model
350
74
  0
DICTIONARY
  5
10
102
{ACAD_REACTORS
330
C
102
}
330
C
100
AcDbDictionary
281
     1
  3
ByBlock
350
19
  3
ByLayer
350
11
  3
Global
350
21
  0
DICTIONARY
  5
66
102
{ACAD_REACTORS
330
C
102
}
330
C
100
AcDbDictionary
281
     1
  3
Standard
350
67
  0
DICTIONARY
  5
5F
102
{ACAD_REACTORS
330
C
102
}
330
C
100
AcDbDictionary
281
     1
  3
Standard
350
60
  0
DICTIONARY
  5
61
102
{ACAD_REACTORS
330
C
102
}
330
C
100
AcDbDictionary
281
     1
  0
ACDBDICTIONARYWDFLT
  5
E
102
{ACAD_REACTORS
330
C
102
}
330
C
100
AcDbDictionary
281
     1
  3
Normal
350
F
100
AcDbDictionaryWithDefault
340
F
  0
DICTIONARY
  5
42
102
{ACAD_REACTORS
330
C
102
}
330
C
100
AcDbDictionary
281
     1
  3
A0
350
43
  3
A1
350
44
  3
A2
350
45
  3
A3
350
46
  3
A4
350
47
  3
A5
350
48
  3
A6
350
49
  3
A7
350
4A
  3
A8
350
4B
  3
A9
350
4C
  3
B0
350
4D
  3
B1
350
4E
  3
B2
350
4F
  3
B3
350
50
  3
B4
350
51
  3
B5
350
52
  3
B6
350
53
  0
DICTIONARY
  5
68
102
{ACAD_REACTORS
330
C
102
}
330
C
100
AcDbDictionary
281
     1
  3
Imperial24
350
6A
  0
DICTIONARY
  5
64
102
{ACAD_REACTORS
330
C
102
}
330
C
100
AcDbDictionary
281
     1
  3
Standard
350
65
  0
DICTIONARY
  5
29
102
{ACAD_REACTORS
330
C
102
}
330
C
100
AcDbDictionary
281
     1
  3
2dWireframe
350
2F
  3
Basic
350
2E
  3
Brighten
350
35
  3
ColorChange
350
39
  3
Conceptual
350
32
  3
Dim
350
34
  3
EdgeColorOff
350
41
  3
Facepattern
350
38
  3
Flat
350
2A
  3
FlatWithEdges
350
2B
  3
Gouraud
350
2C
  3
GouraudWithEdges
350
2D
  3
Hidden
350
31
  3
JitterOff
350
3F
  3
Linepattern
350
37
  3
OverhangOff
350
40
  3
Realistic
350
33
  3
Shaded
350
3E
  3
Shaded with edges
350
3D
  3
Shades of Gray
350
3A
  3
Sketchy
350
3B
  3
Thicken
350
36
  3
Wireframe
350
30
  3
X-Ray
350
3C
  0
XRECORD
  5
327
102
{ACAD_REACTORS
330
C
102
}
330
C
100
AcDbXrecord
280
     1
 90
        1
330
65
  0
DICTIONARY
  5
7C
102
{ACAD_REACTORS
330
C
102
}
330
C
100
AcDbDictionary
281
     1
  3
CANNOSCALE
350
81
  3
CMLEADERSTYLE
350
7E
  3
CTABLESTYLE
350
7D
  3
CVIEWDETAILSTYLE
350
7F
  3
CVIEWSECTIONSTYLE
350
80
  0
DICTIONARY
  5
31F
102
{ACAD_REACTORS
330
C
102
}
330
C
100
AcDbDictionary
281
     1
  3
DRAWING_TOOL
350
322
  3
REVIT_CATEGORY_MAPPING
350
321
  3
REVIT_TYPE_MAPPING
350
320
  0
SORTENTSTABLE
  5
324
102
{ACAD_REACTORS
330
323
102
}
330
323
100
AcDbSortentsTable
330
71
  0
ACDBDETAILVIEWSTYLE
  5
6C
102
{ACAD_REACTORS
330
6B
102
}
330
6B
100
AcDbModelDocViewStyle
 70
     0
  3
Imperial24
290
     1
100
AcDbDetailViewStyle
 70
     0
 71
     0
 90
        3
 71
     1
340
55
 62
   256
 40
0.24
340
0
 62
   256
 40
0.24
300

 40
0.36
280
     3
 71
     2
340
5D
 90
       25
 62
   256
 71
     3
340
55
 62
   256
 40
0.24
 90
        1
 40
0.75
 90
        1
300
%<\AcVar ViewType \f "%tc1">% %<\AcVar ViewDetailId>%\PSCALA %<\AcVar ViewScale \f "%sn">%
 71
     4
340
5D
 90
       25
 62
   256
340
5D
 90
       25
 62
   256
280
     0
  0
LAYOUT
  5
70
102
{ACAD_REACTORS
330
62
102
}
330
62
100
AcDbPlotSettings
  1

  2

  4

  6

 40
0.0
 41
0.0
 42
0.0
 43
0.0
 44
0.0
 45
0.0
 46
0.0
 47
0.0
 48
0.0
 49
0.0
140
0.0
141
0.0
142
1.0
143
1.0
 70
   688
 72
     0
 73
     0
 74
     5
  7

 75
    16
147
1.0
 76
     0
 77
     2
 78
   300
148
0.0
149
0.0
100
AcDbLayout
  1
Layout1
 70
     1
 71
     1
 10
0.0
 20
0.0
 11
12.0
 21
9.0
 12
0.0
 22
0.0
 32
0.0
 14
0.0
 24
0.0
 34
0.0
 15
0.0
 25
0.0
 35
0.0
146
0.0
 13
0.0
 23
0.0
 33
0.0
 16
1.0
 26
0.0
 36
0.0
 17
0.0
 27
1.0
 37
0.0
 76
     0
330
6D
  0
LAYOUT
  5
78
102
{ACAD_REACTORS
330
62
102
}
330
62
100
AcDbPlotSettings
  1

  2

  4

  6

 40
0.0
 41
0.0
 42
0.0
 43
0.0
 44
0.0
 45
0.0
 46
0.0
 47
0.0
 48
0.0
 49
0.0
140
0.0
141
0.0
142
1.0
143
1.0
 70
   688
 72
     0
 73
     0
 74
     5
  7

 75
    16
147
1.0
 76
     0
 77
     2
 78
   300
148
0.0
149
0.0
100
AcDbLayout
  1
Layout2
 70
     1
 71
     2
 10
0.0
 20
0.0
 11
12.0
 21
9.0
 12
0.0
 22
0.0
 32
0.0
 14
0.0
 24
0.0
 34
0.0
 15
0.0
 25
0.0
 35
0.0
146
0.0
 13
0.0
 23
0.0
 33
0.0
 16
1.0
 26
0.0
 36
0.0
 17
0.0
 27
1.0
 37
0.0
 76
     0
330
75
  0
LAYOUT
  5
74
102
{ACAD_REACTORS
330
62
102
}
330
62
100
AcDbPlotSettings
  1

  2

  4

  6

 40
0.0
 41
0.0
 42
0.0
 43
0.0
 44
0.0
 45
0.0
 46
0.0
 47
0.0
 48
0.0
 49
0.0
140
0.0
141
0.0
142
1.0
143
1.0
 70
  1712
 72
     0
 73
     0
 74
     0
  7

 75
     0
147
1.0
 76
     0
 77
     2
 78
   300
148
0.0
149
0.0
100
AcDbLayout
  1
Model
 70
     1
 71
     0
 10
0.0
 20
0.0
 11
12.0
 21
9.0
 12
0.0
 22
0.0
 32
0.0
 14
0.0
 24
0.0
 34
0.0
 15
0.0
 25
0.0
 35
0.0
146
0.0
 13
0.0
 23
0.0
 33
0.0
 16
1.0
 26
0.0
 36
0.0
 17
0.0
 27
1.0
 37
0.0
 76
     0
330
71
  0
MATERIAL
  5
19
102
{ACAD_XDICTIONARY
360
1A
102
}
102
{ACAD_REACTORS
330
10
102
}
330
10
100
AcDbMaterial
  1
ByBlock
 72
     0
 43
0.0208333333333333
 43
0.0
 43
0.0
 43
0.0
 43
0.0
 43
0.0208333333333333
 43
0.0
 43
0.0
 43
0.0
 43
0.0
 43
1.0
 43
0.0
 43
0.0
 43
0.0
 43
0.0
 43
1.0
 77
     0
 47
0.0208333333333333
 47
0.0
 47
0.0
 47
0.0
 47
0.0
 47
0.0208333333333333
 47
0.0
 47
0.0
 47
0.0
 47
0.0
 47
1.0
 47
0.0
 47
0.0
 47
0.0
 47
0.0
 47
1.0
171
     0
 49
0.0208333333333333
 49
0.0
 49
0.0
 49
0.0
 49
0.0
 49
0.0208333333333333
 49
0.0
 49
0.0
 49
0.0
 49
0.0
 49
1.0
 49
0.0
 49
0.0
 49
0.0
 49
0.0
 49
1.0
175
     0
142
0.0208333333333333
142
0.0
142
0.0
142
0.0
142
0.0
142
0.0208333333333333
142
0.0
142
0.0
142
0.0
142
0.0
142
1.0
142
0.0
142
0.0
142
0.0
142
0.0
142
1.0
179
     0
144
0.0208333333333333
144
0.0
144
0.0
144
0.0
144
0.0
144
0.0208333333333333
144
0.0
144
0.0
144
0.0
144
0.0
144
1.0
144
0.0
144
0.0
144
0.0
144
0.0
144
1.0
147
0.0208333333333333
147
0.0
147
0.0
147
0.0
147
0.0
147
0.0208333333333333
147
0.0
147
0.0
147
0.0
147
0.0
147
1.0
147
0.0
147
0.0
147
0.0
147
0.0
147
1.0
  0
MATERIAL
  5
11
102
{ACAD_XDICTIONARY
360
12
102
}
102
{ACAD_REACTORS
330
10
102
}
330
10
100
AcDbMaterial
  1
ByLayer
 72
     0
 43
0.0208333333333333
 43
0.0
 43
0.0
 43
0.0
 43
0.0
 43
0.0208333333333333
 43
0.0
 43
0.0
 43
0.0
 43
0.0
 43
1.0
 43
0.0
 43
0.0
 43
0.0
 43
0.0
 43
1.0
 77
     0
 47
0.0208333333333333
 47
0.0
 47
0.0
 47
0.0
 47
0.0
 47
0.0208333333333333
 47
0.0
 47
0.0
 47
0.0
 47
0.0
 47
1.0
 47
0.0
 47
0.0
 47
0.0
 47
0.0
 47
1.0
171
     0
 49
0.0208333333333333
 49
0.0
 49
0.0
 49
0.0
 49
0.0
 49
0.0208333333333333
 49
0.0
 49
0.0
 49
0.0
 49
0.0
 49
1.0
 49
0.0
 49
0.0
 49
0.0
 49
0.0
 49
1.0
175
     0
142
0.0208333333333333
142
0.0
142
0.0
142
0.0
142
0.0
142
0.0208333333333333
142
0.0
142
0.0
142
0.0
142
0.0
142
1.0
142
0.0
142
0.0
142
0.0
142
0.0
142
1.0
179
     0
144
0.0208333333333333
144
0.0
144
0.0
144
0.0
144
0.0
144
0.0208333333333333
144
0.0
144
0.0
144
0.0
144
0.0
144
1.0
144
0.0
144
0.0
144
0.0
144
0.0
144
1.0
147
0.0208333333333333
147
0.0
147
0.0
147
0.0
147
0.0
147
0.0208333333333333
147
0.0
147
0.0
147
0.0
147
0.0
147
1.0
147
0.0
147
0.0
147
0.0
147
0.0
147
1.0
  0
MATERIAL
  5
21
102
{ACAD_XDICTIONARY
360
22
102
}
102
{ACAD_REACTORS
330
10
102
}
330
10
100
AcDbMaterial
  1
Global
 72
     0
 43
0.0208333333333333
 43
0.0
 43
0.0
 43
0.0
 43
0.0
 43
0.0208333333333333
 43
0.0
 43
0.0
 43
0.0
 43
0.0
 43
1.0
 43
0.0
 43
0.0
 43
0.0
 43
0.0
 43
1.0
 77
     0
 47
0.0208333333333333
 47
0.0
 47
0.0
 47
0.0
 47
0.0
 47
0.0208333333333333
 47
0.0
 47
0.0
 47
0.0
 47
0.0
 47
1.0
 47
0.0
 47
0.0
 47
0.0
 47
0.0
 47
1.0
171
     0
 49
0.0208333333333333
 49
0.0
 49
0.0
 49
0.0
 49
0.0
 49
0.0208333333333333
 49
0.0
 49
0.0
 49
0.0
 49
0.0
 49
1.0
 49
0.0
 49
0.0
 49
0.0
 49
0.0
 49
1.0
175
     0
142
0.0208333333333333
142
0.0
142
0.0
142
0.0
142
0.0
142
0.0208333333333333
142
0.0
142
0.0
142
0.0
142
0.0
142
1.0
142
0.0
142
0.0
142
0.0
142
0.0
142
1.0
179
     0
144
0.0208333333333333
144
0.0
144
0.0
144
0.0
144
0.0
144
0.0208333333333333
144
0.0
144
0.0
144
0.0
144
0.0
144
1.0
144
0.0
144
0.0
144
0.0
144
0.0
144
1.0
147
0.0208333333333333
147
0.0
147
0.0
147
0.0
147
0.0
147
0.0208333333333333
147
0.0
147
0.0
147
0.0
147
0.0
147
1.0
147
0.0
147
0.0
147
0.0
147
0.0
147
1.0
  0
MLEADERSTYLE
  5
67
102
{ACAD_REACTORS
330
66
102
}
330
66
100
AcDbMLeaderStyle
179
     2
170
     2
171
     1
172
     0
 90
        2
 40
0.0
 41
0.0
173
     1
 91
-1056964608
340
5B
 92
       -2
290
     1
 42
0.09
291
     1
 43
0.36
  3
Standard
 44
0.18
300

342
55
174
     1
178
     6
175
     1
176
     0
 93
-1056964608
 45
0.18
292
     0
297
     0
 46
0.18
 94
-1056964608
 47
1.0
 49
1.0
140
1.0
293
     1
141
0.0
294
     1
177
     0
142
1.0
295
     1
296
     0
143
0.125
271
     0
272
     9
273
     9
298
     1
  0
MLINESTYLE
  5
60
102
{ACAD_REACTORS
330
5F
102
}
330
5F
100
AcDbMlineStyle
  2
STANDARD
 70
     0
  3

 62
   256
 51
90.0
 52
90.0
 71
     2
 49
0.5
 62
   256
  6
BYLAYER
 49
-0.5
 62
   256
  6
BYLAYER
  0
ACDBPLACEHOLDER
  5
F
102
{ACAD_REACTORS
330
E
102
}
330
E
  0
SCALE
  5
43
102
{ACAD_REACTORS
330
42
102
}
330
42
100
AcDbScale
 70
     0
300
1:1
140
1.0
141
1.0
290
     1
  0
SCALE
  5
44
102
{ACAD_REACTORS
330
42
102
}
330
42
100
AcDbScale
 70
     0
300
1/128" = 1'-0"
140
0.0078125
141
12.0
290
     0
  0
SCALE
  5
45
102
{ACAD_REACTORS
330
42
102
}
330
42
100
AcDbScale
 70
     0
300
1/64" = 1'-0"
140
0.015625
141
12.0
290
     0
  0
SCALE
  5
46
102
{ACAD_REACTORS
330
42
102
}
330
42
100
AcDbScale
 70
     0
300
1/32" = 1'-0"
140
0.03125
141
12.0
290
     0
  0
SCALE
  5
47
102
{ACAD_REACTORS
330
42
102
}
330
42
100
AcDbScale
 70
     0
300
1/16" = 1'-0"
140
0.0625
141
12.0
290
     0
  0
SCALE
  5
48
102
{ACAD_REACTORS
330
42
102
}
330
42
100
AcDbScale
 70
     0
300
3/32" = 1'-0"
140
0.09375
141
12.0
290
     0
  0
SCALE
  5
49
102
{ACAD_REACTORS
330
42
102
}
330
42
100
AcDbScale
 70
     0
300
1/8" = 1'-0"
140
0.125
141
12.0
290
     0
  0
SCALE
  5
4A
102
{ACAD_REACTORS
330
42
102
}
330
42
100
AcDbScale
 70
     0
300
3/16" = 1'-0"
140
0.1875
141
12.0
290
     0
  0
SCALE
  5
4B
102
{ACAD_REACTORS
330
42
102
}
330
42
100
AcDbScale
 70
     0
300
1/4" = 1'-0"
140
0.25
141
12.0
290
     0
  0
SCALE
  5
4C
102
{ACAD_REACTORS
330
42
102
}
330
42
100
AcDbScale
 70
     0
300
3/8" = 1'-0"
140
0.375
141
12.0
290
     0
  0
SCALE
  5
4D
102
{ACAD_REACTORS
330
42
102
}
330
42
100
AcDbScale
 70
     0
300
1/2" = 1'-0"
140
0.5
141
12.0
290
     0
  0
SCALE
  5
4E
102
{ACAD_REACTORS
330
42
102
}
330
42
100
AcDbScale
 70
     0
300
3/4" = 1'-0"
140
0.75
141
12.0
290
     0
  0
SCALE
  5
4F
102
{ACAD_REACTORS
330
42
102
}
330
42
100
AcDbScale
 70
     0
300
1" = 1'-0"
140
1.0
141
12.0
290
     0
  0
SCALE
  5
50
102
{ACAD_REACTORS
330
42
102
}
330
42
100
AcDbScale
 70
     0
300
1-1/2" = 1'-0"
140
1.5
141
12.0
290
     0
  0
SCALE
  5
51
102
{ACAD_REACTORS
330
42
102
}
330
42
100
AcDbScale
 70
     0
300
3" = 1'-0"
140
3.0
141
12.0
290
     0
  0
SCALE
  5
52
102
{ACAD_REACTORS
330
42
102
}
330
42
100
AcDbScale
 70
     0
300
6" = 1'-0"
140
6.0
141
12.0
290
     0
  0
SCALE
  5
53
102
{ACAD_REACTORS
330
42
102
}
330
42
100
AcDbScale
 70
     0
300
1'-0" = 1'-0"
140
12.0
141
12.0
290
     0
  0
ACDBSECTIONVIEWSTYLE
  5
6A
102
{ACAD_REACTORS
330
68
102
}
330
68
100
AcDbModelDocViewStyle
 70
     0
  3
Imperial24
290
     1
100
AcDbSectionViewStyle
 70
     0
 71
     0
 90
       78
 71
     1
340
55
 62
   256
 40
0.24
340
0
340
0
 62
   256
 40
0.24
300
I, O, Q, S, X, Z
 40
0.48
 90
        3
 40
0.18
 90
        1
 71
     2
340
69
 90
       25
 62
   256
340
5D
 90
       50
 62
   256
 40
0.24
 40
0.0
 40
0.24
 71
     3
340
55
 62
   256
 40
0.24
 90
        1
 40
0.75
 90
        1
300
%<\AcVar ViewType \f "%tc1">% %<\AcVar ViewSectionStartId>%-%<\AcVar ViewSectionEndId>%\PSCALA %<\AcVar ViewScale \f "%sn">%
 71
     4
 62
   256
 62
   257
300
ANSI31
 40
1.0
 90
        0
290
     0
290
     0
 90
        6
 40
0.0
 40
1.570796326794896
 40
0.2617993877991494
 40
1.308996938995747
 40
-0.2617993877991494
 40
1.832595714594046
  0
TABLESTYLE
  5
65
102
{ACAD_XDICTIONARY
360
325
102
}
102
{ACAD_REACTORS
330
64
102
}
330
64
100
AcDbTableStyle
280
     0
  3
Standard
 70
     0
 71
     0
 40
0.06
 41
0.06
280
     0
281
     0
  7
Standard
140
0.18
170
     2
 62
     0
 63
     7
283
     0
 90
      512
 91
        0
  1

274
    -2
284
     1
 64
     0
275
    -2
285
     1
 65
     0
276
    -2
286
     1
 66
     0
277
    -2
287
     1
 67
     0
278
    -2
288
     1
 68
     0
279
    -2
289
     1
 69
     0
  7
Standard
140
0.25
170
     5
 62
     0
 63
     7
283
     0
 90
      512
 91
        0
  1

274
    -2
284
     1
 64
     0
275
    -2
285
     1
 65
     0
276
    -2
286
     1
 66
     0
277
    -2
287
     1
 67
     0
278
    -2
288
     1
 68
     0
279
    -2
289
     1
 69
     0
  7
Standard
140
0.18
170
     5
 62
     0
 63
     7
283
     0
 90
      512
 91
        0
  1

274
    -2
284
     1
 64
     0
275
    -2
285
     1
 65
     0
276
    -2
286
     1
 66
     0
277
    -2
287
     1
 67
     0
278
    -2
288
     1
 68
     0
279
    -2
289
     1
 69
     0
  0
VISUALSTYLE
  5
2F
102
{ACAD_REACTORS
330
29
102
}
330
29
100
AcDbVisualStyle
  2
2dWireframe
 70
     4
177
     3
291
     0
 70
    58
 90
        0
176
     1
 90
        2
176
     1
 90
        0
176
     1
 90
        0
176
     1
 40
0.6
176
     1
 40
30.0
176
     1
 62
     7
420
 16777215
176
     1
 90
        1
176
     1
 90
        4
176
     1
 62
     7
176
     1
 62
   257
176
     1
 90
        1
176
     1
 90
        1
176
     1
 40
1.0
176
     1
 90
        0
176
     1
 62
   257
176
     1
 40
1.0
176
     1
 90
        1
176
     1
 90
        6
176
     1
 90
        2
176
     1
 62
     7
176
     1
 90
        5
176
     1
 90
        0
176
     1
 90
        0
176
     1
290
     0
176
     1
 90
        1
176
     1
 40
0.0
176
     1
 90
        0
176
     1
290
     1
176
     1
290
     1
176
     1
290
     0
176
     1
290
     0
176
     1
290
     0
176
     1
290
     0
176
     1
290
     0
176
     1
290
     0
176
     1
290
     0
176
     1
 90
       50
176
     1
 40
0.0
176
     1
 40
1.0
176
     1
 90
        0
176
     1
 62
    18
420
        0
176
     1
 90
       50
176
     1
 90
        3
176
     1
 62
     5
420
      255
176
     1
290
     0
176
     1
 90
       50
176
     1
 90
       50
176
     1
 90
       50
176
     1
290
     0
176
     1
 90
       50
176
     1
 62
   256
176
     0
 40
1.0
176
     0
 90
        2
176
     1
  1
strokes_ogs.tif
176
     1
290
     0
176
     1
 40
1.0
176
     1
 40
1.0
176
     1
  0
VISUALSTYLE
  5
2E
102
{ACAD_REACTORS
330
29
102
}
330
29
100
AcDbVisualStyle
  2
Basic
 70
     7
177
     3
291
     1
 70
    58
 90
        1
176
     1
 90
        0
176
     1
 90
        1
176
     1
 90
        0
176
     1
 40
0.6
176
     1
 40
30.0
176
     1
 62
     7
420
 16777215
176
     1
 90
        0
176
     1
 90
        4
176
     1
 62
     7
176
     1
 62
   257
176
     1
 90
        1
176
     1
 90
        1
176
     1
 40
1.0
176
     1
 90
        8
176
     1
 62
     7
176
     1
 40
1.0
176
     1
 90
        1
176
     1
 90
        6
176
     1
 90
        2
176
     1
 62
     7
176
     1
 90
        5
176
     1
 90
        0
176
     1
 90
        0
176
     1
290
     0
176
     1
 90
        1
176
     1
 40
0.0
176
     1
 90
        0
176
     1
290
     0
176
     1
290
     1
176
     1
290
     1
176
     1
290
     0
176
     1
290
     0
176
     1
290
     0
176
     1
290
     0
176
     1
290
     0
176
     1
290
     0
176
     1
 90
       50
176
     1
 40
0.0
176
     1
 40
1.0
176
     1
 90
        0
176
     1
 62
    18
420
        0
176
     1
 90
       50
176
     1
 90
        3
176
     1
 62
     5
420
      255
176
     1
290
     0
176
     1
 90
       50
176
     1
 90
       50
176
     1
 90
       50
176
     1
290
     0
176
     1
 90
       50
176
     1
 62
   256
176
     0
 40
1.0
176
     0
 90
        2
176
     1
  1
strokes_ogs.tif
176
     1
290
     0
176
     1
 40
1.0
176
     1
 40
1.0
176
     1
  0
VISUALSTYLE
  5
35
102
{ACAD_REACTORS
330
29
102
}
330
29
100
AcDbVisualStyle
  2
Brighten
 70
    12
177
     3
291
     1
 70
    58
 90
        2
176
     1
 90
        2
176
     1
 90
        0
176
     1
 90
        0
176
     1
 40
0.6
176
     1
 40
30.0
176
     1
 62
     7
420
 16777215
176
     1
 90
        1
176
     1
 90
        4
176
     1
 62
     7
176
     1
 62
   257
176
     1
 90
        1
176
     1
 90
        1
176
     1
 40
1.0
176
     1
 90
        8
176
     1
 62
     7
176
     1
 40
1.0
176
     1
 90
        1
176
     1
 90
        6
176
     1
 90
        2
176
     1
 62
     7
176
     1
 90
        5
176
     1
 90
        0
176
     1
 90
        0
176
     1
290
     0
176
     1
 90
        1
176
     1
 40
50.0
176
     1
 90
        0
176
     1
290
     0
176
     1
290
     1
176
     1
290
     1
176
     1
290
     0
176
     1
290
     0
176
     1
290
     0
176
     1
290
     0
176
     1
290
     0
176
     1
290
     0
176
     1
 90
       50
176
     1
 40
0.0
176
     1
 40
1.0
176
     1
 90
        0
176
     1
 62
    18
420
        0
176
     1
 90
       50
176
     1
 90
        3
176
     1
 62
     5
420
      255
176
     1
290
     0
176
     1
 90
       50
176
     1
 90
       50
176
     1
 90
       50
176
     1
290
     0
176
     1
 90
       50
176
     1
 62
   256
176
     0
 40
1.0
176
     0
 90
        2
176
     1
  1
strokes_ogs.tif
176
     1
290
     0
176
     1
 40
1.0
176
     1
 40
1.0
176
     1
  0
VISUALSTYLE
  5
39
102
{ACAD_REACTORS
330
29
102
}
330
29
100
AcDbVisualStyle
  2
ColorChange
 70
    16
177
     3
291
     1
 70
    58
 90
        2
176
     1
 90
        2
176
     1
 90
        3
176
     1
 90
        0
176
     1
 40
0.6
176
     1
 40
30.0
176
     1
 62
     8
420
  8421504
176
     1
 90
        1
176
     1
 90
        4
176
     1
 62
     7
176
     1
 62
   257
176
     1
 90
        1
176
     1
 90
        1
176
     1
 40
1.0
176
     1
 90
        8
176
     1
 62
     8
420
  8421504
176
     1
 40
1.0
176
     1
 90
        1
176
     1
 90
        6
176
     1
 90
        2
176
     1
 62
     7
176
     1
 90
        5
176
     1
 90
        0
176
     1
 90
        0
176
     1
290
     0
176
     1
 90
        1
176
     1
 40
0.0
176
     1
 90
        0
176
     1
290
     0
176
     1
290
     1
176
     1
290
     1
176
     1
290
     0
176
     1
290
     0
176
     1
290
     0
176
     1
290
     0
176
     1
290
     0
176
     1
290
     0
176
     1
 90
       50
176
     1
 40
0.0
176
     1
 40
1.0
176
     1
 90
        0
176
     1
 62
    18
420
        0
176
     1
 90
       50
176
     1
 90
        3
176
     1
 62
     5
420
      255
176
     1
290
     0
176
     1
 90
       50
176
     1
 90
       50
176
     1
 90
       50
176
     1
290
     0
176
     1
 90
       50
176
     1
 62
   256
176
     0
 40
1.0
176
     0
 90
        2
176
     1
  1
strokes_ogs.tif
176
     1
290
     0
176
     1
 40
1.0
176
     1
 40
1.0
176
     1
  0
VISUALSTYLE
  5
32
102
{ACAD_REACTORS
330
29
102
}
330
29
100
AcDbVisualStyle
  2
Conceptual
 70
     9
177
     3
291
     0
 70
    58
 90
        3
176
     1
 90
        2
176
     1
 90
        0
176
     1
 90
        0
176
     1
 40
0.6
176
     1
 40
30.0
176
     1
 62
     7
420
 16777215
176
     1
 90
        2
176
     1
 90
        2
176
     1
 62
     7
176
     1
 62
   257
176
     1
 90
        1
176
     1
 90
        1
176
     1
 40
179.0
176
     1
 90
        8
176
     1
 62
     7
176
     1
 40
1.0
176
     1
 90
        1
176
     1
 90
        6
176
     1
 90
        2
176
     1
 62
     7
176
     1
 90
        3
176
     1
 90
        0
176
     1
 90
        0
176
     1
290
     0
176
     1
 90
        1
176
     1
 40
0.0
176
     1
 90
        0
176
     1
290
     0
176
     1
290
     1
176
     1
290
     1
176
     1
290
     0
176
     1
290
     0
176
     1
290
     0
176
     1
290
     0
176
     1
290
     0
176
     1
290
     0
176
     1
 90
       50
176
     1
 40
0.0
176
     1
 40
1.0
176
     1
 90
        0
176
     1
 62
    18
420
        0
176
     1
 90
       50
176
     1
 90
        3
176
     1
 62
     5
420
      255
176
     1
290
     0
176
     1
 90
       50
176
     1
 90
       50
176
     1
 90
       50
176
     1
290
     0
176
     1
 90
       50
176
     1
 62
   256
176
     0
 40
1.0
176
     0
 90
        2
176
     1
  1
strokes_ogs.tif
176
     1
290
     0
176
     1
 40
1.0
176
     1
 40
1.0
176
     1
  0
VISUALSTYLE
  5
34
102
{ACAD_REACTORS
330
29
102
}
330
29
100
AcDbVisualStyle
  2
Dim
 70
    11
177
     3
291
     1
 70
    58
 90
        2
176
     1
 90
        2
176
     1
 90
        0
176
     1
 90
        0
176
     1
 40
0.6
176
     1
 40
30.0
176
     1
 62
     7
420
 16777215
176
     1
 90
        1
176
     1
 90
        4
176
     1
 62
     7
176
     1
 62
   257
176
     1
 90
        1
176
     1
 90
        1
176
     1
 40
1.0
176
     1
 90
        8
176
     1
 62
     7
176
     1
 40
1.0
176
     1
 90
        1
176
     1
 90
        6
176
     1
 90
        2
176
     1
 62
     7
176
     1
 90
        5
176
     1
 90
        0
176
     1
 90
        0
176
     1
290
     0
176
     1
 90
        1
176
     1
 40
-50.0
176
     1
 90
        0
176
     1
290
     0
176
     1
290
     1
176
     1
290
     1
176
     1
290
     0
176
     1
290
     0
176
     1
290
     0
176
     1
290
     0
176
     1
290
     0
176
     1
290
     0
176
     1
 90
       50
176
     1
 40
0.0
176
     1
 40
1.0
176
     1
 90
        0
176
     1
 62
    18
420
        0
176
     1
 90
       50
176
     1
 90
        3
176
     1
 62
     5
420
      255
176
     1
290
     0
176
     1
 90
       50
176
     1
 90
       50
176
     1
 90
       50
176
     1
290
     0
176
     1
 90
       50
176
     1
 62
   256
176
     0
 40
1.0
176
     0
 90
        2
176
     1
  1
strokes_ogs.tif
176
     1
290
     0
176
     1
 40
1.0
176
     1
 40
1.0
176
     1
  0
VISUALSTYLE
  5
41
102
{ACAD_REACTORS
330
29
102
}
330
29
100
AcDbVisualStyle
  2
EdgeColorOff
 70
    22
177
     3
291
     1
 70
    58
 90
        2
176
     0
 90
        2
176
     0
 90
        0
176
     0
 90
        0
176
     0
 40
0.6
176
     0
 40
30.0
176
     0
 62
     7
420
 16777215
176
     0
 90
        1
176
     0
 90
        4
176
     0
 62
     7
176
     0
 62
   257
176
     0
 90
        1
176
     0
 90
        1
176
     0
 40
1.0
176
     0
 90
        8
176
     2
 62
     7
176
     0
 40
1.0
176
     0
 90
        1
176
     0
 90
        6
176
     0
 90
        2
176
     0
 62
     7
176
     0
 90
        5
176
     0
 90
        0
176
     0
 90
        0
176
     0
290
     0
176
     0
 90
        1
176
     0
 40
0.0
176
     0
 90
        0
176
     0
290
     0
176
     0
290
     1
176
     0
290
     1
176
     0
290
     0
176
     0
290
     0
176
     0
290
     0
176
     0
290
     0
176
     0
290
     0
176
     0
290
     0
176
     0
 90
       50
176
     0
 40
0.0
176
     0
 40
1.0
176
     0
 90
        0
176
     0
 62
    18
420
        0
176
     0
 90
       50
176
     0
 90
        3
176
     0
 62
     5
420
      255
176
     0
290
     0
176
     0
 90
       50
176
     0
 90
       50
176
     0
 90
       50
176
     0
290
     0
176
     0
 90
       50
176
     0
 62
   256
176
     0
 40
1.0
176
     0
 90
        2
176
     0
  1
strokes_ogs.tif
176
     0
290
     0
176
     0
 40
1.0
176
     0
 40
1.0
176
     0
  0
VISUALSTYLE
  5
38
102
{ACAD_REACTORS
330
29
102
}
330
29
100
AcDbVisualStyle
  2
Facepattern
 70
    15
177
     3
291
     1
 70
    58
 90
        2
176
     1
 90
        2
176
     1
 90
        0
176
     1
 90
        0
176
     1
 40
0.6
176
     1
 40
30.0
176
     1
 62
     7
420
 16777215
176
     1
 90
        1
176
     1
 90
        4
176
     1
 62
     7
176
     1
 62
   257
176
     1
 90
        1
176
     1
 90
        1
176
     1
 40
1.0
176
     1
 90
        8
176
     1
 62
     7
176
     1
 40
1.0
176
     1
 90
        1
176
     1
 90
        6
176
     1
 90
        2
176
     1
 62
     7
176
     1
 90
        5
176
     1
 90
        0
176
     1
 90
        0
176
     1
290
     0
176
     1
 90
        1
176
     1
 40
0.0
176
     1
 90
        0
176
     1
290
     0
176
     1
290
     1
176
     1
290
     1
176
     1
290
     0
176
     1
290
     0
176
     1
290
     0
176
     1
290
     0
176
     1
290
     0
176
     1
290
     0
176
     1
 90
       50
176
     1
 40
0.0
176
     1
 40
1.0
176
     1
 90
        0
176
     1
 62
    18
420
        0
176
     1
 90
       50
176
     1
 90
        3
176
     1
 62
     5
420
      255
176
     1
290
     0
176
     1
 90
       50
176
     1
 90
       50
176
     1
 90
       50
176
     1
290
     0
176
     1
 90
       50
176
     1
 62
   256
176
     0
 40
1.0
176
     0
 90
        2
176
     1
  1
strokes_ogs.tif
176
     1
290
     0
176
     1
 40
1.0
176
     1
 40
1.0
176
     1
  0
VISUALSTYLE
  5
2A
102
{ACAD_REACTORS
330
29
102
}
330
29
100
AcDbVisualStyle
  2
Flat
 70
     0
177
     3
291
     1
 70
    58
 90
        2
176
     1
 90
        1
176
     1
 90
        1
176
     1
 90
        2
176
     1
 40
0.6
176
     1
 40
30.0
176
     1
 62
     7
420
 16777215
176
     1
 90
        0
176
     1
 90
        0
176
     1
 62
     7
176
     1
 62
   257
176
     1
 90
        1
176
     1
 90
        1
176
     1
 40
1.0
176
     1
 90
        8
176
     1
 62
     7
176
     1
 40
1.0
176
     1
 90
        1
176
     1
 90
        6
176
     1
 90
        2
176
     1
 62
     7
176
     1
 90
        5
176
     1
 90
        0
176
     1
 90
        0
176
     1
290
     0
176
     1
 90
       13
176
     1
 40
0.0
176
     1
 90
        0
176
     1
290
     0
176
     1
290
     1
176
     1
290
     1
176
     1
290
     0
176
     1
290
     0
176
     1
290
     0
176
     1
290
     0
176
     1
290
     0
176
     1
290
     0
176
     1
 90
       50
176
     1
 40
0.0
176
     1
 40
1.0
176
     1
 90
        0
176
     1
 62
    18
420
        0
176
     1
 90
       50
176
     1
 90
        3
176
     1
 62
     5
420
      255
176
     1
290
     0
176
     1
 90
       50
176
     1
 90
       50
176
     1
 90
       50
176
     1
290
     0
176
     1
 90
       50
176
     1
 62
   256
176
     0
 40
1.0
176
     0
 90
        2
176
     1
  1
strokes_ogs.tif
176
     1
290
     0
176
     1
 40
1.0
176
     1
 40
1.0
176
     1
  0
VISUALSTYLE
  5
2B
102
{ACAD_REACTORS
330
29
102
}
330
29
100
AcDbVisualStyle
  2
FlatWithEdges
 70
     1
177
     3
291
     1
 70
    58
 90
        2
176
     1
 90
        1
176
     1
 90
        1
176
     1
 90
        2
176
     1
 40
0.6
176
     1
 40
30.0
176
     1
 62
     7
420
 16777215
176
     1
 90
        1
176
     1
 90
        0
176
     1
 62
     7
176
     1
 62
   257
176
     1
 90
        1
176
     1
 90
        1
176
     1
 40
1.0
176
     1
 90
        0
176
     1
 62
   257
176
     1
 40
1.0
176
     1
 90
        1
176
     1
 90
        6
176
     1
 90
        2
176
     1
 62
     7
176
     1
 90
        5
176
     1
 90
        0
176
     1
 90
        0
176
     1
290
     0
176
     1
 90
       13
176
     1
 40
0.0
176
     1
 90
        0
176
     1
290
     0
176
     1
290
     1
176
     1
290
     1
176
     1
290
     0
176
     1
290
     0
176
     1
290
     0
176
     1
290
     0
176
     1
290
     0
176
     1
290
     0
176
     1
 90
       50
176
     1
 40
0.0
176
     1
 40
1.0
176
     1
 90
        0
176
     1
 62
    18
420
        0
176
     1
 90
       50
176
     1
 90
        3
176
     1
 62
     5
420
      255
176
     1
290
     0
176
     1
 90
       50
176
     1
 90
       50
176
     1
 90
       50
176
     1
290
     0
176
     1
 90
       50
176
     1
 62
   256
176
     0
 40
1.0
176
     0
 90
        2
176
     1
  1
strokes_ogs.tif
176
     1
290
     0
176
     1
 40
1.0
176
     1
 40
1.0
176
     1
  0
VISUALSTYLE
  5
2C
102
{ACAD_REACTORS
330
29
102
}
330
29
100
AcDbVisualStyle
  2
Gouraud
 70
     2
177
     3
291
     1
 70
    58
 90
        2
176
     1
 90
        2
176
     1
 90
        1
176
     1
 90
        2
176
     1
 40
0.6
176
     1
 40
30.0
176
     1
 62
     7
420
 16777215
176
     1
 90
        0
176
     1
 90
        0
176
     1
 62
     7
176
     1
 62
   257
176
     1
 90
        1
176
     1
 90
        1
176
     1
 40
1.0
176
     1
 90
        0
176
     1
 62
     7
176
     1
 40
1.0
176
     1
 90
        1
176
     1
 90
        6
176
     1
 90
        2
176
     1
 62
     7
176
     1
 90
        5
176
     1
 90
        0
176
     1
 90
        0
176
     1
290
     0
176
     1
 90
       13
176
     1
 40
0.0
176
     1
 90
        0
176
     1
290
     0
176
     1
290
     1
176
     1
290
     1
176
     1
290
     0
176
     1
290
     0
176
     1
290
     0
176
     1
290
     0
176
     1
290
     0
176
     1
290
     0
176
     1
 90
       50
176
     1
 40
0.0
176
     1
 40
1.0
176
     1
 90
        0
176
     1
 62
    18
420
        0
176
     1
 90
       50
176
     1
 90
        3
176
     1
 62
     5
420
      255
176
     1
290
     0
176
     1
 90
       50
176
     1
 90
       50
176
     1
 90
       50
176
     1
290
     0
176
     1
 90
       50
176
     1
 62
   256
176
     0
 40
1.0
176
     0
 90
        2
176
     1
  1
strokes_ogs.tif
176
     1
290
     0
176
     1
 40
1.0
176
     1
 40
1.0
176
     1
  0
VISUALSTYLE
  5
2D
102
{ACAD_REACTORS
330
29
102
}
330
29
100
AcDbVisualStyle
  2
GouraudWithEdges
 70
     3
177
     3
291
     1
 70
    58
 90
        2
176
     1
 90
        2
176
     1
 90
        1
176
     1
 90
        2
176
     1
 40
0.6
176
     1
 40
30.0
176
     1
 62
     7
420
 16777215
176
     1
 90
        1
176
     1
 90
        0
176
     1
 62
     7
176
     1
 62
   257
176
     1
 90
        1
176
     1
 90
        1
176
     1
 40
1.0
176
     1
 90
        0
176
     1
 62
   257
176
     1
 40
1.0
176
     1
 90
        1
176
     1
 90
        6
176
     1
 90
        2
176
     1
 62
     7
176
     1
 90
        5
176
     1
 90
        0
176
     1
 90
        0
176
     1
290
     0
176
     1
 90
       13
176
     1
 40
0.0
176
     1
 90
        0
176
     1
290
     0
176
     1
290
     1
176
     1
290
     1
176
     1
290
     0
176
     1
290
     0
176
     1
290
     0
176
     1
290
     0
176
     1
290
     0
176
     1
290
     0
176
     1
 90
       50
176
     1
 40
0.0
176
     1
 40
1.0
176
     1
 90
        0
176
     1
 62
    18
420
        0
176
     1
 90
       50
176
     1
 90
        3
176
     1
 62
     5
420
      255
176
     1
290
     0
176
     1
 90
       50
176
     1
 90
       50
176
     1
 90
       50
176
     1
290
     0
176
     1
 90
       50
176
     1
 62
   256
176
     0
 40
1.0
176
     0
 90
        2
176
     1
  1
strokes_ogs.tif
176
     1
290
     0
176
     1
 40
1.0
176
     1
 40
1.0
176
     1
  0
VISUALSTYLE
  5
31
102
{ACAD_REACTORS
330
29
102
}
330
29
100
AcDbVisualStyle
  2
Hidden
 70
     6
177
     3
291
     0
 70
    58
 90
        1
176
     1
 90
        2
176
     1
 90
        2
176
     1
 90
        0
176
     1
 40
0.6
176
     1
 40
30.0
176
     1
 62
     7
420
 16777215
176
     1
 90
        2
176
     1
 90
        2
176
     1
 62
     7
176
     1
 62
   257
176
     1
 90
        2
176
     1
 90
        1
176
     1
 40
40.0
176
     1
 90
        0
176
     1
 62
   257
176
     1
 40
1.0
176
     1
 90
        1
176
     1
 90
        6
176
     1
 90
        2
176
     1
 62
     7
176
     1
 90
        3
176
     1
 90
        0
176
     1
 90
        0
176
     1
290
     0
176
     1
 90
        1
176
     1
 40
0.0
176
     1
 90
        0
176
     1
290
     0
176
     1
290
     1
176
     1
290
     1
176
     1
290
     0
176
     1
290
     0
176
     1
290
     0
176
     1
290
     0
176
     1
290
     0
176
     1
290
     0
176
     1
 90
       50
176
     1
 40
0.0
176
     1
 40
1.0
176
     1
 90
        0
176
     1
 62
    18
420
        0
176
     1
 90
       50
176
     1
 90
        3
176
     1
 62
     5
420
      255
176
     1
290
     0
176
     1
 90
       50
176
     1
 90
       50
176
     1
 90
       50
176
     1
290
     0
176
     1
 90
       50
176
     1
 62
   256
176
     0
 40
1.0
176
     0
 90
        2
176
     1
  1
strokes_ogs.tif
176
     1
290
     0
176
     1
 40
1.0
176
     1
 40
1.0
176
     1
  0
VISUALSTYLE
  5
3F
102
{ACAD_REACTORS
330
29
102
}
330
29
100
AcDbVisualStyle
  2
JitterOff
 70
    20
177
     3
291
     1
 70
    58
 90
        2
176
     0
 90
        2
176
     0
 90
        0
176
     0
 90
        0
176
     0
 40
0.6
176
     0
 40
30.0
176
     0
 62
     7
420
 16777215
176
     0
 90
        1
176
     0
 90
        4
176
     0
 62
     7
176
     0
 62
   257
176
     0
 90
        1
176
     0
 90
        1
176
     0
 40
1.0
176
     0
 90
       10
176
     2
 62
     7
176
     0
 40
1.0
176
     0
 90
        1
176
     0
 90
        6
176
     0
 90
        2
176
     0
 62
     7
176
     0
 90
        5
176
     0
 90
        0
176
     0
 90
        0
176
     0
290
     0
176
     0
 90
        1
176
     0
 40
0.0
176
     0
 90
        0
176
     0
290
     0
176
     0
290
     1
176
     0
290
     1
176
     0
290
     0
176
     0
290
     0
176
     0
290
     0
176
     0
290
     0
176
     0
290
     0
176
     0
290
     0
176
     0
 90
       50
176
     0
 40
0.0
176
     0
 40
1.0
176
     0
 90
        0
176
     0
 62
    18
420
        0
176
     0
 90
       50
176
     0
 90
        3
176
     0
 62
     5
420
      255
176
     0
290
     0
176
     0
 90
       50
176
     0
 90
       50
176
     0
 90
       50
176
     0
290
     0
176
     0
 90
       50
176
     0
 62
   256
176
     0
 40
1.0
176
     0
 90
        2
176
     0
  1
strokes_ogs.tif
176
     0
290
     0
176
     0
 40
1.0
176
     0
 40
1.0
176
     0
  0
VISUALSTYLE
  5
37
102
{ACAD_REACTORS
330
29
102
}
330
29
100
AcDbVisualStyle
  2
Linepattern
 70
    14
177
     3
291
     1
 70
    58
 90
        2
176
     1
 90
        2
176
     1
 90
        0
176
     1
 90
        0
176
     1
 40
0.6
176
     1
 40
30.0
176
     1
 62
     7
420
 16777215
176
     1
 90
        1
176
     1
 90
        4
176
     1
 62
     7
176
     1
 62
   257
176
     1
 90
        7
176
     1
 90
        7
176
     1
 40
1.0
176
     1
 90
        8
176
     1
 62
     7
176
     1
 40
1.0
176
     1
 90
        1
176
     1
 90
        6
176
     1
 90
        2
176
     1
 62
     7
176
     1
 90
        5
176
     1
 90
        0
176
     1
 90
        0
176
     1
290
     0
176
     1
 90
        1
176
     1
 40
0.0
176
     1
 90
        0
176
     1
290
     0
176
     1
290
     1
176
     1
290
     1
176
     1
290
     0
176
     1
290
     0
176
     1
290
     0
176
     1
290
     0
176
     1
290
     0
176
     1
290
     0
176
     1
 90
       50
176
     1
 40
0.0
176
     1
 40
1.0
176
     1
 90
        0
176
     1
 62
    18
420
        0
176
     1
 90
       50
176
     1
 90
        3
176
     1
 62
     5
420
      255
176
     1
290
     0
176
     1
 90
       50
176
     1
 90
       50
176
     1
 90
       50
176
     1
290
     0
176
     1
 90
       50
176
     1
 62
   256
176
     0
 40
1.0
176
     0
 90
        2
176
     1
  1
strokes_ogs.tif
176
     1
290
     0
176
     1
 40
1.0
176
     1
 40
1.0
176
     1
  0
VISUALSTYLE
  5
40
102
{ACAD_REACTORS
330
29
102
}
330
29
100
AcDbVisualStyle
  2
OverhangOff
 70
    21
177
     3
291
     1
 70
    58
 90
        2
176
     0
 90
        2
176
     0
 90
        0
176
     0
 90
        0
176
     0
 40
0.6
176
     0
 40
30.0
176
     0
 62
     7
420
 16777215
176
     0
 90
        1
176
     0
 90
        4
176
     0
 62
     7
176
     0
 62
   257
176
     0
 90
        1
176
     0
 90
        1
176
     0
 40
1.0
176
     0
 90
        9
176
     2
 62
     7
176
     0
 40
1.0
176
     0
 90
        1
176
     0
 90
        6
176
     0
 90
        2
176
     0
 62
     7
176
     0
 90
        5
176
     0
 90
        0
176
     0
 90
        0
176
     0
290
     0
176
     0
 90
        1
176
     0
 40
0.0
176
     0
 90
        0
176
     0
290
     0
176
     0
290
     1
176
     0
290
     1
176
     0
290
     0
176
     0
290
     0
176
     0
290
     0
176
     0
290
     0
176
     0
290
     0
176
     0
290
     0
176
     0
 90
       50
176
     0
 40
0.0
176
     0
 40
1.0
176
     0
 90
        0
176
     0
 62
    18
420
        0
176
     0
 90
       50
176
     0
 90
        3
176
     0
 62
     5
420
      255
176
     0
290
     0
176
     0
 90
       50
176
     0
 90
       50
176
     0
 90
       50
176
     0
290
     0
176
     0
 90
       50
176
     0
 62
   256
176
     0
 40
1.0
176
     0
 90
        2
176
     0
  1
strokes_ogs.tif
176
     0
290
     0
176
     0
 40
1.0
176
     0
 40
1.0
176
     0
  0
VISUALSTYLE
  5
33
102
{ACAD_REACTORS
330
29
102
}
330
29
100
AcDbVisualStyle
  2
Realistic
 70
     8
177
     3
291
     0
 70
    58
 90
        2
176
     1
 90
        3
176
     1
 90
        0
176
     1
 90
        2
176
     1
 40
0.6
176
     1
 40
30.0
176
     1
 62
     7
420
 16777215
176
     1
 90
        0
176
     1
 90
        0
176
     1
 62
     7
176
     1
 62
   257
176
     1
 90
        1
176
     1
 90
        1
176
     1
 40
1.0
176
     1
 90
        8
176
     1
 62
   257
176
     1
 40
1.0
176
     1
 90
        1
176
     1
 90
        6
176
     1
 90
        2
176
     1
 62
     7
176
     1
 90
        3
176
     1
 90
        0
176
     1
 90
        0
176
     1
290
     0
176
     1
 90
       13
176
     1
 40
0.0
176
     1
 90
        0
176
     1
290
     0
176
     1
290
     1
176
     1
290
     1
176
     1
290
     0
176
     1
290
     0
176
     1
290
     0
176
     1
290
     0
176
     1
290
     0
176
     1
290
     0
176
     1
 90
       50
176
     1
 40
0.0
176
     1
 40
1.0
176
     1
 90
        0
176
     1
 62
    18
420
        0
176
     1
 90
       50
176
     1
 90
        3
176
     1
 62
     5
420
      255
176
     1
290
     0
176
     1
 90
       50
176
     1
 90
       50
176
     1
 90
       50
176
     1
290
     0
176
     1
 90
       50
176
     1
 62
   256
176
     0
 40
1.0
176
     0
 90
        2
176
     1
  1
strokes_ogs.tif
176
     1
290
     0
176
     1
 40
1.0
176
     1
 40
1.0
176
     1
  0
VISUALSTYLE
  5
3E
102
{ACAD_REACTORS
330
29
102
}
330
29
100
AcDbVisualStyle
  2
Shaded
 70
    27
177
     3
291
     0
 70
    58
 90
        2
176
     1
 90
        2
176
     1
 90
        1
176
     1
 90
        2
176
     1
 40
0.6
176
     1
 40
30.0
176
     1
 62
     7
420
 16777215
176
     1
 90
        0
176
     1
 90
        4
176
     1
 62
     7
176
     1
 62
   257
176
     1
 90
        1
176
     1
 90
        1
176
     1
 40
1.0
176
     1
 90
        8
176
     1
 62
   257
176
     1
 40
1.0
176
     1
 90
        1
176
     1
 90
        6
176
     1
 90
        2
176
     1
 62
     8
420
  7895160
176
     1
 90
        3
176
     1
 90
        0
176
     1
 90
        0
176
     1
290
     0
176
     1
 90
        5
176
     1
 40
0.0
176
     1
 90
        0
176
     1
290
     0
176
     1
290
     1
176
     1
290
     1
176
     1
290
     0
176
     1
290
     0
176
     1
290
     0
176
     1
290
     0
176
     1
290
     0
176
     1
290
     0
176
     1
 90
       50
176
     1
 40
0.0
176
     1
 40
1.0
176
     1
 90
        0
176
     1
 62
    18
420
        0
176
     1
 90
       50
176
     1
 90
        3
176
     1
 62
     5
420
      255
176
     1
290
     0
176
     1
 90
       50
176
     1
 90
       50
176
     1
 90
       50
176
     1
290
     0
176
     1
 90
       50
176
     1
 62
   256
176
     0
 40
1.0
176
     0
 90
        2
176
     1
  1
strokes_ogs.tif
176
     1
290
     0
176
     1
 40
1.0
176
     1
 40
1.0
176
     1
  0
VISUALSTYLE
  5
3D
102
{ACAD_REACTORS
330
29
102
}
330
29
100
AcDbVisualStyle
  2
Shaded with edges
 70
    26
177
     3
291
     0
 70
    58
 90
        2
176
     1
 90
        2
176
     1
 90
        1
176
     1
 90
        2
176
     1
 40
0.6
176
     1
 40
30.0
176
     1
 62
     7
420
 16777215
176
     1
 90
        1
176
     1
 90
       10
176
     1
 62
     7
176
     1
 62
   257
176
     1
 90
        2
176
     1
 90
        1
176
     1
 40
1.0
176
     1
 90
        8
176
     1
 62
   257
176
     1
 40
1.0
176
     1
 90
        1
176
     1
 90
        6
176
     1
 90
        2
176
     1
 62
     7
176
     1
 90
        3
176
     1
 90
        0
176
     1
 90
        0
176
     1
290
     0
176
     1
 90
        5
176
     1
 40
0.0
176
     1
 90
        0
176
     1
290
     0
176
     1
290
     1
176
     1
290
     1
176
     1
290
     0
176
     1
290
     0
176
     1
290
     0
176
     1
290
     0
176
     1
290
     0
176
     1
290
     0
176
     1
 90
       50
176
     1
 40
0.0
176
     1
 40
1.0
176
     1
 90
        0
176
     1
 62
    18
420
        0
176
     1
 90
       50
176
     1
 90
        3
176
     1
 62
     5
420
      255
176
     1
290
     0
176
     1
 90
       50
176
     1
 90
       50
176
     1
 90
       50
176
     1
290
     0
176
     1
 90
       50
176
     1
 62
   256
176
     0
 40
1.0
176
     0
 90
        2
176
     1
  1
strokes_ogs.tif
176
     1
290
     0
176
     1
 40
1.0
176
     1
 40
1.0
176
     1
  0
VISUALSTYLE
  5
3A
102
{ACAD_REACTORS
330
29
102
}
330
29
100
AcDbVisualStyle
  2
Shades of Gray
 70
    23
177
     3
291
     0
 70
    58
 90
        2
176
     1
 90
        2
176
     1
 90
        3
176
     1
 90
        0
176
     1
 40
0.6
176
     1
 40
30.0
176
     1
 62
     7
420
 16777215
176
     1
 90
        2
176
     1
 90
        2
176
     1
 62
     7
176
     1
 62
     7
176
     1
 90
        1
176
     1
 90
        1
176
     1
 40
40.0
176
     1
 90
        8
176
     1
 62
     7
176
     1
 40
1.0
176
     1
 90
        1
176
     1
 90
        6
176
     1
 90
        2
176
     1
 62
     7
176
     1
 90
        3
176
     1
 90
        0
176
     1
 90
        0
176
     1
290
     0
176
     1
 90
        1
176
     1
 40
0.0
176
     1
 90
        0
176
     1
290
     0
176
     1
290
     1
176
     1
290
     1
176
     1
290
     0
176
     1
290
     0
176
     1
290
     0
176
     1
290
     0
176
     1
290
     0
176
     1
290
     0
176
     1
 90
       50
176
     1
 40
0.0
176
     1
 40
1.0
176
     1
 90
        0
176
     1
 62
    18
420
        0
176
     1
 90
       50
176
     1
 90
        3
176
     1
 62
     5
420
      255
176
     1
290
     0
176
     1
 90
       50
176
     1
 90
       50
176
     1
 90
       50
176
     1
290
     0
176
     1
 90
       50
176
     1
 62
   256
176
     0
 40
1.0
176
     0
 90
        2
176
     1
  1
strokes_ogs.tif
176
     1
290
     0
176
     1
 40
1.0
176
     1
 40
1.0
176
     1
  0
VISUALSTYLE
  5
3B
102
{ACAD_REACTORS
330
29
102
}
330
29
100
AcDbVisualStyle
  2
Sketchy
 70
    24
177
     3
291
     0
 70
    58
 90
        1
176
     1
 90
        2
176
     1
 90
        2
176
     1
 90
        0
176
     1
 40
0.6
176
     1
 40
30.0
176
     1
 62
     7
420
 16777215
176
     1
 90
        2
176
     1
 90
        2
176
     1
 62
     7
176
     1
 62
     7
176
     1
 90
        1
176
     1
 90
        1
176
     1
 40
40.0
176
     1
 90
       11
176
     1
 62
     7
176
     1
 40
1.0
176
     1
 90
        1
176
     1
 90
        6
176
     1
 90
        2
176
     1
 62
     7
176
     1
 90
        6
176
     1
 90
        0
176
     1
 90
        0
176
     1
290
     0
176
     1
 90
        1
176
     1
 40
0.0
176
     1
 90
        0
176
     1
290
     0
176
     1
290
     1
176
     1
290
     1
176
     1
290
     0
176
     1
290
     0
176
     1
290
     0
176
     1
290
     0
176
     1
290
     0
176
     1
290
     0
176
     1
 90
       50
176
     1
 40
0.0
176
     1
 40
1.0
176
     1
 90
        0
176
     1
 62
    18
420
        0
176
     1
 90
       50
176
     1
 90
        3
176
     1
 62
     5
420
      255
176
     1
290
     0
176
     1
 90
       50
176
     1
 90
       50
176
     1
 90
       50
176
     1
290
     0
176
     1
 90
       50
176
     1
 62
   256
176
     0
 40
1.0
176
     0
 90
        2
176
     1
  1
strokes_ogs.tif
176
     1
290
     0
176
     1
 40
1.0
176
     1
 40
1.0
176
     1
  0
VISUALSTYLE
  5
36
102
{ACAD_REACTORS
330
29
102
}
330
29
100
AcDbVisualStyle
  2
Thicken
 70
    13
177
     3
291
     1
 70
    58
 90
        2
176
     1
 90
        2
176
     1
 90
        0
176
     1
 90
        0
176
     1
 40
0.6
176
     1
 40
30.0
176
     1
 62
     7
420
 16777215
176
     1
 90
        1
176
     1
 90
        4
176
     1
 62
     7
176
     1
 62
   257
176
     1
 90
        1
176
     1
 90
        1
176
     1
 40
1.0
176
     1
 90
       12
176
     1
 62
     7
176
     1
 40
1.0
176
     1
 90
        1
176
     1
 90
        6
176
     1
 90
        2
176
     1
 62
     7
176
     1
 90
        5
176
     1
 90
        0
176
     1
 90
        0
176
     1
290
     0
176
     1
 90
        1
176
     1
 40
0.0
176
     1
 90
        0
176
     1
290
     0
176
     1
290
     1
176
     1
290
     1
176
     1
290
     0
176
     1
290
     0
176
     1
290
     0
176
     1
290
     0
176
     1
290
     0
176
     1
290
     0
176
     1
 90
       50
176
     1
 40
0.0
176
     1
 40
1.0
176
     1
 90
        0
176
     1
 62
    18
420
        0
176
     1
 90
       50
176
     1
 90
        3
176
     1
 62
     5
420
      255
176
     1
290
     0
176
     1
 90
       50
176
     1
 90
       50
176
     1
 90
       50
176
     1
290
     0
176
     1
 90
       50
176
     1
 62
   256
176
     0
 40
1.0
176
     0
 90
        2
176
     1
  1
strokes_ogs.tif
176
     1
290
     0
176
     1
 40
1.0
176
     1
 40
1.0
176
     1
  0
VISUALSTYLE
  5
30
102
{ACAD_REACTORS
330
29
102
}
330
29
100
AcDbVisualStyle
  2
Wireframe
 70
     5
177
     3
291
     0
 70
    58
 90
        0
176
     1
 90
        2
176
     1
 90
        0
176
     1
 90
        0
176
     1
 40
0.6
176
     1
 40
30.0
176
     1
 62
     7
420
 16777215
176
     1
 90
        1
176
     1
 90
        4
176
     1
 62
     7
176
     1
 62
   257
176
     1
 90
        1
176
     1
 90
        1
176
     1
 40
1.0
176
     1
 90
        0
176
     1
 62
   257
176
     1
 40
1.0
176
     1
 90
        1
176
     1
 90
        6
176
     1
 90
        2
176
     1
 62
     7
176
     1
 90
        3
176
     1
 90
        0
176
     1
 90
        0
176
     1
290
     0
176
     1
 90
        1
176
     1
 40
0.0
176
     1
 90
        0
176
     1
290
     0
176
     1
290
     1
176
     1
290
     1
176
     1
290
     0
176
     1
290
     0
176
     1
290
     0
176
     1
290
     0
176
     1
290
     0
176
     1
290
     0
176
     1
 90
       50
176
     1
 40
0.0
176
     1
 40
1.0
176
     1
 90
        0
176
     1
 62
    18
420
        0
176
     1
 90
       50
176
     1
 90
        3
176
     1
 62
     5
420
      255
176
     1
290
     0
176
     1
 90
       50
176
     1
 90
       50
176
     1
 90
       50
176
     1
290
     0
176
     1
 90
       50
176
     1
 62
   256
176
     0
 40
1.0
176
     0
 90
        2
176
     1
  1
strokes_ogs.tif
176
     1
290
     0
176
     1
 40
1.0
176
     1
 40
1.0
176
     1
  0
VISUALSTYLE
  5
3C
102
{ACAD_REACTORS
330
29
102
}
330
29
100
AcDbVisualStyle
  2
X-Ray
 70
    25
177
     3
291
     0
 70
    58
 90
        2
176
     1
 90
        2
176
     1
 90
        1
176
     1
 90
        1
176
     1
 40
0.5
176
     1
 40
30.0
176
     1
 62
     7
420
 16777215
176
     1
 90
        1
176
     1
 90
        0
176
     1
 62
     7
176
     1
 62
   257
176
     1
 90
        1
176
     1
 90
        1
176
     1
 40
1.0
176
     1
 90
        8
176
     1
 62
     7
176
     1
 40
1.0
176
     1
 90
        1
176
     1
 90
        6
176
     1
 90
        2
176
     1
 62
     7
176
     1
 90
        3
176
     1
 90
        0
176
     1
 90
        0
176
     1
290
     0
176
     1
 90
       13
176
     1
 40
0.0
176
     1
 90
        0
176
     1
290
     0
176
     1
290
     1
176
     1
290
     1
176
     1
290
     0
176
     1
290
     0
176
     1
290
     0
176
     1
290
     0
176
     1
290
     0
176
     1
290
     0
176
     1
 90
       50
176
     1
 40
0.0
176
     1
 40
1.0
176
     1
 90
        0
176
     1
 62
    18
420
        0
176
     1
 90
       50
176
     1
 90
        3
176
     1
 62
     5
420
      255
176
     1
290
     0
176
     1
 90
       50
176
     1
 90
       50
176
     1
 90
       50
176
     1
290
     0
176
     1
 90
       50
176
     1
 62
   256
176
     0
 40
1.0
176
     0
 90
        2
176
     1
  1
strokes_ogs.tif
176
     1
290
     0
176
     1
 40
1.0
176
     1
 40
1.0
176
     1
  0
DICTIONARYVAR
  5
81
102
{ACAD_REACTORS
330
7C
102
}
330
7C
100
DictionaryVariables
280
     0
  1
1:1
  0
DICTIONARYVAR
  5
7E
102
{ACAD_REACTORS
330
7C
102
}
330
7C
100
DictionaryVariables
280
     0
  1
STANDARD
  0
DICTIONARYVAR
  5
7D
102
{ACAD_REACTORS
330
7C
102
}
330
7C
100
DictionaryVariables
280
     0
  1
STANDARD
  0
DICTIONARYVAR
  5
7F
102
{ACAD_REACTORS
330
7C
102
}
330
7C
100
DictionaryVariables
280
     0
  1
Imperial24
  0
DICTIONARYVAR
  5
80
102
{ACAD_REACTORS
330
7C
102
}
330
7C
100
DictionaryVariables
280
     0
  1
Imperial24
  0
XRECORD
  5
322
102
{ACAD_REACTORS
330
31F
102
}
330
31F
100
AcDbXrecord
280
     1
  1
BUILDING_ID
  1
Progetto per messa in tavola DXF, DWG
  1
FLOOR_ID
  1
694395
  0
XRECORD
  5
321
102
{ACAD_REACTORS
330
31F
102
}
330
31F
100
AcDbXrecord
280
     1
  1
-2001160
  1
Apparecchi idraulici
  0
XRECORD
  5
320
102
{ACAD_REACTORS
330
31F
102
}
330
31F
100
AcDbXrecord
280
     1
  1
859151
  1
Automatic flow rate regulator valve_Caleffi_121 DN15 : 1/2''
  0
DICTIONARY
  5
1A
330
19
100
AcDbDictionary
280
     1
281
     1
  3
BUMPTILE
360
1C
  3
DIFFUSETILE
360
1B
  3
OPACITYTILE
360
1F
  3
REFLECTIONTILE
360
1E
  3
REFRACTIONTILE
360
20
  3
SPECULARTILE
360
1D
  0
DICTIONARY
  5
12
330
11
100
AcDbDictionary
280
     1
281
     1
  3
BUMPTILE
360
14
  3
DIFFUSETILE
360
13
  3
OPACITYTILE
360
17
  3
REFLECTIONTILE
360
16
  3
REFRACTIONTILE
360
18
  3
SPECULARTILE
360
15
  0
DICTIONARY
  5
22
330
21
100
AcDbDictionary
280
     1
281
     1
  3
BUMPTILE
360
24
  3
DIFFUSETILE
360
23
  3
OPACITYTILE
360
27
  3
REFLECTIONTILE
360
26
  3
REFRACTIONTILE
360
28
  3
SPECULARTILE
360
25
  0
DICTIONARY
  5
325
330
65
100
AcDbDictionary
280
     1
281
     1
  3
ACAD_ROUNDTRIP_2008_TABLESTYLE_CELLSTYLEMAP
360
326
  0
XRECORD
  5
1C
102
{ACAD_REACTORS
330
1A
102
}
330
1A
100
AcDbXrecord
280
     1
270
     1
271
     1
  0
XRECORD
  5
1B
102
{ACAD_REACTORS
330
1A
102
}
330
1A
100
AcDbXrecord
280
     1
270
     1
271
     1
  0
XRECORD
  5
1F
102
{ACAD_REACTORS
330
1A
102
}
330
1A
100
AcDbXrecord
280
     1
270
     1
271
     1
  0
XRECORD
  5
1E
102
{ACAD_REACTORS
330
1A
102
}
330
1A
100
AcDbXrecord
280
     1
270
     1
271
     1
  0
XRECORD
  5
20
102
{ACAD_REACTORS
330
1A
102
}
330
1A
100
AcDbXrecord
280
     1
270
     1
271
     1
  0
XRECORD
  5
1D
102
{ACAD_REACTORS
330
1A
102
}
330
1A
100
AcDbXrecord
280
     1
270
     1
271
     1
  0
XRECORD
  5
14
102
{ACAD_REACTORS
330
12
102
}
330
12
100
AcDbXrecord
280
     1
270
     1
271
     1
  0
XRECORD
  5
13
102
{ACAD_REACTORS
330
12
102
}
330
12
100
AcDbXrecord
280
     1
270
     1
271
     1
  0
XRECORD
  5
17
102
{ACAD_REACTORS
330
12
102
}
330
12
100
AcDbXrecord
280
     1
270
     1
271
     1
  0
XRECORD
  5
16
102
{ACAD_REACTORS
330
12
102
}
330
12
100
AcDbXrecord
280
     1
270
     1
271
     1
  0
XRECORD
  5
18
102
{ACAD_REACTORS
330
12
102
}
330
12
100
AcDbXrecord
280
     1
270
     1
271
     1
  0
XRECORD
  5
15
102
{ACAD_REACTORS
330
12
102
}
330
12
100
AcDbXrecord
280
     1
270
     1
271
     1
  0
XRECORD
  5
24
102
{ACAD_REACTORS
330
22
102
}
330
22
100
AcDbXrecord
280
     1
270
     1
271
     1
  0
XRECORD
  5
23
102
{ACAD_REACTORS
330
22
102
}
330
22
100
AcDbXrecord
280
     1
270
     1
271
     1
  0
XRECORD
  5
27
102
{ACAD_REACTORS
330
22
102
}
330
22
100
AcDbXrecord
280
     1
270
     1
271
     1
  0
XRECORD
  5
26
102
{ACAD_REACTORS
330
22
102
}
330
22
100
AcDbXrecord
280
     1
270
     1
271
     1
  0
XRECORD
  5
28
102
{ACAD_REACTORS
330
22
102
}
330
22
100
AcDbXrecord
280
     1
270
     1
271
     1
  0
XRECORD
  5
25
102
{ACAD_REACTORS
330
22
102
}
330
22
100
AcDbXrecord
280
     1
270
     1
271
     1
  0
CELLSTYLEMAP
  5
326
102
{ACAD_REACTORS
330
325
102
}
330
325
100
AcDbCellStyleMap
 90
        3
300
CELLSTYLE
  1
TABLEFORMAT_BEGIN
 90
        5
170
     1
 91
        0
 92
    32768
 62
   257
 93
        1
300
CONTENTFORMAT
  1
CONTENTFORMAT_BEGIN
 90
        0
 91
        0
 92
      512
 93
        0
300

 40
0.0
140
1.0
 94
        5
 62
     0
340
55
144
0.25
309
CONTENTFORMAT_END
171
     0
 94
        0
309
TABLEFORMAT_END
  1
CELLSTYLE_BEGIN
 90
        1
 91
        1
300
_TITLE
309
CELLSTYLE_END
300
CELLSTYLE
  1
TABLEFORMAT_BEGIN
 90
        5
170
     1
 91
        0
 92
        0
 62
   257
 93
        1
300
CONTENTFORMAT
  1
CONTENTFORMAT_BEGIN
 90
        0
 91
        0
 92
      512
 93
        0
300

 40
0.0
140
1.0
 94
        5
 62
     0
340
55
144
0.18
309
CONTENTFORMAT_END
171
     0
 94
        0
309
TABLEFORMAT_END
  1
CELLSTYLE_BEGIN
 90
        2
 91
        1
300
_HEADER
309
CELLSTYLE_END
300
CELLSTYLE
  1
TABLEFORMAT_BEGIN
 90
        5
170
     1
 91
        0
 92
        0
 62
   257
 93
        1
300
CONTENTFORMAT
  1
CONTENTFORMAT_BEGIN
 90
        0
 91
        0
 92
      512
 93
        0
300

 40
0.0
140
1.0
 94
        2
 62
     0
340
55
144
0.18
309
CONTENTFORMAT_END
171
     0
 94
        0
309
TABLEFORMAT_END
  1
CELLSTYLE_BEGIN
 90
        3
 91
        2
300
_DATA
309
CELLSTYLE_END
  0
ENDSEC
  0
EOF
