  0
SECTION
  2
HEADER
  9
$ACADVER
  1
AC1027
  9
$ACADMAINTVER
 70
    20
  9
$DWGCODEPAGE
  3
ANSI_1252
  9
$REQUIREDVERSIONS
160
                 0
  9
$INSBASE
 10
0.0
 20
0.0
 30
0.0
  9
$EXTMIN
 10
863.0468756319555
 20
1793.168759748034
 30
-0.00000001
  9
$EXTMAX
 10
1247.691472925116
 20
2083.000002871018
 30
0.00000001
  9
$LIMMIN
 10
0.0
 20
0.0
  9
$LIMMAX
 10
12.0
 20
9.0
  9
$ORTHOMODE
 70
     0
  9
$REGENMODE
 70
     1
  9
$FILLMODE
 70
     1
  9
$QTEXTMODE
 70
     0
  9
$MIRRTEXT
 70
     0
  9
$LTSCALE
 40
1.0
  9
$ATTMODE
 70
     1
  9
$TEXTSIZE
 40
0.2
  9
$TRACEWID
 40
0.05
  9
$TEXTSTYLE
  7
Standard
  9
$CLAYER
  8
0
  9
$CELTYPE
  6
ByLayer
  9
$CECOLOR
 62
   256
  9
$CELTSCALE
 40
1.0
  9
$DISPSILH
 70
     0
  9
$DIMSCALE
 40
1.0
  9
$DIMASZ
 40
0.18
  9
$DIMEXO
 40
0.0625
  9
$DIMDLI
 40
0.38
  9
$DIMRND
 40
0.0
  9
$DIMDLE
 40
0.0
  9
$DIMEXE
 40
0.18
  9
$DIMTP
 40
0.0
  9
$DIMTM
 40
0.0
  9
$DIMTXT
 40
0.18
  9
$DIMCEN
 40
0.09
  9
$DIMTSZ
 40
0.0
  9
$DIMTOL
 70
     0
  9
$DIMLIM
 70
     0
  9
$DIMTIH
 70
     1
  9
$DIMTOH
 70
     1
  9
$DIMSE1
 70
     0
  9
$DIMSE2
 70
     0
  9
$DIMTAD
 70
     0
  9
$DIMZIN
 70
     0
  9
$DIMBLK
  1

  9
$DIMASO
 70
     1
  9
$DIMSHO
 70
     1
  9
$DIMPOST
  1

  9
$DIMAPOST
  1

  9
$DIMALT
 70
     0
  9
$DIMALTD
 70
     2
  9
$DIMALTF
 40
25.4
  9
$DIMLFAC
 40
1.0
  9
$DIMTOFL
 70
     0
  9
$DIMTVP
 40
0.0
  9
$DIMTIX
 70
     0
  9
$DIMSOXD
 70
     0
  9
$DIMSAH
 70
     0
  9
$DIMBLK1
  1

  9
$DIMBLK2
  1

  9
$DIMSTYLE
  2
Standard
  9
$DIMCLRD
 70
     0
  9
$DIMCLRE
 70
     0
  9
$DIMCLRT
 70
     0
  9
$DIMTFAC
 40
1.0
  9
$DIMGAP
 40
0.09
  9
$DIMJUST
 70
     0
  9
$DIMSD1
 70
     0
  9
$DIMSD2
 70
     0
  9
$DIMTOLJ
 70
     1
  9
$DIMTZIN
 70
     0
  9
$DIMALTZ
 70
     0
  9
$DIMALTTZ
 70
     0
  9
$DIMUPT
 70
     0
  9
$DIMDEC
 70
     4
  9
$DIMTDEC
 70
     4
  9
$DIMALTU
 70
     2
  9
$DIMALTTD
 70
     2
  9
$DIMTXSTY
  7
Standard
  9
$DIMAUNIT
 70
     0
  9
$DIMADEC
 70
     0
  9
$DIMALTRND
 40
0.0
  9
$DIMAZIN
 70
     0
  9
$DIMDSEP
 70
    46
  9
$DIMATFIT
 70
     3
  9
$DIMFRAC
 70
     0
  9
$DIMLDRBLK
  1

  9
$DIMLUNIT
 70
     2
  9
$DIMLWD
 70
    -2
  9
$DIMLWE
 70
    -2
  9
$DIMTMOVE
 70
     0
  9
$DIMFXL
 40
1.0
  9
$DIMFXLON
 70
     0
  9
$DIMJOGANG
 40
0.7853981633974483
  9
$DIMTFILL
 70
     0
  9
$DIMTFILLCLR
 70
     0
  9
$DIMARCSYM
 70
     0
  9
$DIMLTYPE
  6

  9
$DIMLTEX1
  6

  9
$DIMLTEX2
  6

  9
$DIMTXTDIRECTION
 70
     0
  9
$LUNITS
 70
     2
  9
$LUPREC
 70
     4
  9
$SKETCHINC
 40
0.1
  9
$FILLETRAD
 40
0.0
  9
$AUNITS
 70
     0
  9
$AUPREC
 70
     0
  9
$MENU
  1
.
  9
$ELEVATION
 40
0.0
  9
$PELEVATION
 40
0.0
  9
$THICKNESS
 40
0.0
  9
$LIMCHECK
 70
     0
  9
$CHAMFERA
 40
0.0
  9
$CHAMFERB
 40
0.0
  9
$CHAMFERC
 40
0.0
  9
$CHAMFERD
 40
0.0
  9
$SKPOLY
 70
     0
  9
$TDCREATE
 40
2457550.711704479
  9
$TDUCREATE
 40
2457550.628371146
  9
$TDUPDATE
 40
2457550.711704479
  9
$TDUUPDATE
 40
2457550.628371146
  9
$TDINDWG
 40
0.0000177083
  9
$TDUSRTIMER
 40
0.0000177083
  9
$USRTIMER
 70
     1
  9
$ANGBASE
 50
0.0
  9
$ANGDIR
 70
     0
  9
$PDMODE
 70
     0
  9
$PDSIZE
 40
0.0
  9
$PLINEWID
 40
0.0
  9
$SPLFRAME
 70
     0
  9
$SPLINETYPE
 70
     6
  9
$SPLINESEGS
 70
     8
  9
$HANDSEED
  5
302
  9
$SURFTAB1
 70
     6
  9
$SURFTAB2
 70
     6
  9
$SURFTYPE
 70
     6
  9
$SURFU
 70
     6
  9
$SURFV
 70
     6
  9
$UCSBASE
  2

  9
$UCSNAME
  2

  9
$UCSORG
 10
0.0
 20
0.0
 30
0.0
  9
$UCSXDIR
 10
1.0
 20
0.0
 30
0.0
  9
$UCSYDIR
 10
0.0
 20
1.0
 30
0.0
  9
$UCSORTHOREF
  2

  9
$UCSORTHOVIEW
 70
     0
  9
$UCSORGTOP
 10
0.0
 20
0.0
 30
0.0
  9
$UCSORGBOTTOM
 10
0.0
 20
0.0
 30
0.0
  9
$UCSORGLEFT
 10
0.0
 20
0.0
 30
0.0
  9
$UCSORGRIGHT
 10
0.0
 20
0.0
 30
0.0
  9
$UCSORGFRONT
 10
0.0
 20
0.0
 30
0.0
  9
$UCSORGBACK
 10
0.0
 20
0.0
 30
0.0
  9
$PUCSBASE
  2

  9
$PUCSNAME
  2

  9
$PUCSORG
 10
0.0
 20
0.0
 30
0.0
  9
$PUCSXDIR
 10
1.0
 20
0.0
 30
0.0
  9
$PUCSYDIR
 10
0.0
 20
1.0
 30
0.0
  9
$PUCSORTHOREF
  2

  9
$PUCSORTHOVIEW
 70
     0
  9
$PUCSORGTOP
 10
0.0
 20
0.0
 30
0.0
  9
$PUCSORGBOTTOM
 10
0.0
 20
0.0
 30
0.0
  9
$PUCSORGLEFT
 10
0.0
 20
0.0
 30
0.0
  9
$PUCSORGRIGHT
 10
0.0
 20
0.0
 30
0.0
  9
$PUCSORGFRONT
 10
0.0
 20
0.0
 30
0.0
  9
$PUCSORGBACK
 10
0.0
 20
0.0
 30
0.0
  9
$USERI1
 70
     0
  9
$USERI2
 70
     0
  9
$USERI3
 70
     0
  9
$USERI4
 70
     0
  9
$USERI5
 70
     0
  9
$USERR1
 40
0.0
  9
$USERR2
 40
0.0
  9
$USERR3
 40
0.0
  9
$USERR4
 40
0.0
  9
$USERR5
 40
0.0
  9
$WORLDVIEW
 70
     1
  9
$SHADEDGE
 70
     3
  9
$SHADEDIF
 70
    70
  9
$TILEMODE
 70
     1
  9
$MAXACTVP
 70
    64
  9
$PINSBASE
 10
0.0
 20
0.0
 30
0.0
  9
$PLIMCHECK
 70
     0
  9
$PEXTMIN
 10
1.000000000000000E+20
 20
1.000000000000000E+20
 30
1.000000000000000E+20
  9
$PEXTMAX
 10
-1.000000000000000E+20
 20
-1.000000000000000E+20
 30
-1.000000000000000E+20
  9
$PLIMMIN
 10
0.0
 20
0.0
  9
$PLIMMAX
 10
12.0
 20
9.0
  9
$UNITMODE
 70
     0
  9
$VISRETAIN
 70
     1
  9
$PLINEGEN
 70
     0
  9
$PSLTSCALE
 70
     1
  9
$TREEDEPTH
 70
  3020
  9
$CMLSTYLE
  2
Standard
  9
$CMLJUST
 70
     0
  9
$CMLSCALE
 40
1.0
  9
$PROXYGRAPHICS
 70
     1
  9
$MEASUREMENT
 70
     1
  9
$CELWEIGHT
370
    -1
  9
$ENDCAPS
280
     0
  9
$JOINSTYLE
280
     0
  9
$LWDISPLAY
290
     0
  9
$INSUNITS
 70
     4
  9
$HYPERLINKBASE
  1

  9
$STYLESHEET
  1

  9
$XEDIT
290
     1
  9
$CEPSNTYPE
380
     0
  9
$PSTYLEMODE
290
     1
  9
$FINGERPRINTGUID
  2
{57AC6510-D752-4D46-91E3-2F666A09A08C}
  9
$VERSIONGUID
  2
{4EEE0B95-2E78-48E3-81B0-8DF2A988F94B}
  9
$EXTNAMES
290
     1
  9
$PSVPSCALE
 40
0.0
  9
$OLESTARTUP
290
     0
  9
$SORTENTS
280
   127
  9
$INDEXCTL
280
     0
  9
$HIDETEXT
280
     1
  9
$XCLIPFRAME
280
     2
  9
$HALOGAP
280
     0
  9
$OBSCOLOR
 70
   257
  9
$OBSLTYPE
280
     0
  9
$INTERSECTIONDISPLAY
280
     0
  9
$INTERSECTIONCOLOR
 70
   257
  9
$DIMASSOC
280
     2
  9
$PROJECTNAME
  1

  9
$CAMERADISPLAY
290
     0
  9
$LENSLENGTH
 40
50.0
  9
$CAMERAHEIGHT
 40
0.0
  9
$STEPSPERSEC
 40
2.0
  9
$STEPSIZE
 40
6.0
  9
$3DDWFPREC
 40
2.0
  9
$PSOLWIDTH
 40
0.25
  9
$PSOLHEIGHT
 40
4.0
  9
$LOFTANG1
 40
1.570796326794896
  9
$LOFTANG2
 40
1.570796326794896
  9
$LOFTMAG1
 40
0.0
  9
$LOFTMAG2
 40
0.0
  9
$LOFTPARAM
 70
     7
  9
$LOFTNORMALS
280
     1
  9
$LATITUDE
 40
37.795
  9
$LONGITUDE
 40
-122.394
  9
$NORTHDIRECTION
 40
0.0
  9
$TIMEZONE
 70
 -8000
  9
$LIGHTGLYPHDISPLAY
280
     1
  9
$TILEMODELIGHTSYNCH
280
     1
  9
$CMATERIAL
347
11
  9
$SOLIDHIST
280
     0
  9
$SHOWHIST
280
     1
  9
$DWFFRAME
280
     2
  9
$DGNFRAME
280
     0
  9
$REALWORLDSCALE
290
     1
  9
$INTERFERECOLOR
 62
     1
  9
$INTERFEREOBJVS
345
33
  9
$INTERFEREVPVS
346
30
  9
$CSHADOW
280
     0
  9
$SHADOWPLANELOCATION
 40
0.0
  0
ENDSEC
  0
SECTION
  2
CLASSES
  0
CLASS
  1
ACDBDICTIONARYWDFLT
  2
AcDbDictionaryWithDefault
  3
ObjectDBX Classes
 90
        0
 91
        1
280
     0
281
     0
  0
CLASS
  1
MATERIAL
  2
AcDbMaterial
  3
ObjectDBX Classes
 90
     1153
 91
        3
280
     0
281
     0
  0
CLASS
  1
VISUALSTYLE
  2
AcDbVisualStyle
  3
ObjectDBX Classes
 90
     4095
 91
       24
280
     0
281
     0
  0
CLASS
  1
SCALE
  2
AcDbScale
  3
ObjectDBX Classes
 90
     1153
 91
       17
280
     0
281
     0
  0
CLASS
  1
TABLESTYLE
  2
AcDbTableStyle
  3
ObjectDBX Classes
 90
     4095
 91
        1
280
     0
281
     0
  0
CLASS
  1
MLEADERSTYLE
  2
AcDbMLeaderStyle
  3
ACDB_MLEADERSTYLE_CLASS
 90
     4095
 91
        1
280
     0
281
     0
  0
CLASS
  1
ACDBSECTIONVIEWSTYLE
  2
AcDbSectionViewStyle
  3
ObjectDBX Classes
 90
     1025
 91
        1
280
     0
281
     0
  0
CLASS
  1
ACDBDETAILVIEWSTYLE
  2
AcDbDetailViewStyle
  3
ObjectDBX Classes
 90
     1025
 91
        1
280
     0
281
     0
  0
CLASS
  1
RASTERVARIABLES
  2
AcDbRasterVariables
  3
ISM
 90
        0
 91
        1
280
     0
281
     0
  0
CLASS
  1
DICTIONARYVAR
  2
AcDbDictionaryVar
  3
ObjectDBX Classes
 90
        0
 91
        5
280
     0
281
     0
  0
CLASS
  1
CELLSTYLEMAP
  2
AcDbCellStyleMap
  3
ObjectDBX Classes
 90
     1152
 91
        2
280
     0
281
     0
  0
CLASS
  1
SORTENTSTABLE
  2
AcDbSortentsTable
  3
ObjectDBX Classes
 90
        0
 91
        1
280
     0
281
     0
  0
ENDSEC
  0
SECTION
  2
TABLES
  0
TABLE
  2
VPORT
  5
8
330
0
100
AcDbSymbolTable
 70
     1
  0
VPORT
  5
57
330
8
100
AcDbSymbolTableRecord
100
AcDbViewportTableRecord
  2
*Active
 70
     0
 10
0.0
 20
0.0
 11
1.0
 21
1.0
 12
1055.369174278536
 22
1938.084381309526
 13
0.0
 23
0.0
 14
1.0
 24
1.0
 15
0.0
 25
0.0
 16
0.0
 26
0.0
 36
1.0
 17
0.0
 27
0.0
 37
0.0
 40
289.831243122984
 41
1.327132965889203
 42
50.0
 43
0.0
 44
0.0
 50
0.0
 51
0.0
 71
     0
 72
  1000
 73
     1
 74
     1
 75
     0
 76
     0
 77
     0
 78
     0
281
     0
 65
     1
110
0.0
120
0.0
130
0.0
111
1.0
121
0.0
131
0.0
112
0.0
122
1.0
132
0.0
 79
     0
146
0.0
 60
     3
 61
     5
292
     1
282
     1
141
0.0
142
0.0
 63
   250
421
  3355443
  0
ENDTAB
  0
TABLE
  2
LTYPE
  5
5
330
0
100
AcDbSymbolTable
 70
     3
  0
LTYPE
  5
5B
330
5
100
AcDbSymbolTableRecord
100
AcDbLinetypeTableRecord
  2
ByBlock
 70
     0
  3

 72
    65
 73
     0
 40
0.0
  0
LTYPE
  5
5C
330
5
100
AcDbSymbolTableRecord
100
AcDbLinetypeTableRecord
  2
ByLayer
 70
     0
  3

 72
    65
 73
     0
 40
0.0
  0
LTYPE
  5
5D
330
5
100
AcDbSymbolTableRecord
100
AcDbLinetypeTableRecord
  2
Continuous
 70
     0
  3
Solid line
 72
    65
 73
     0
 40
0.0
  0
LTYPE
  5
69
330
5
100
AcDbSymbolTableRecord
100
AcDbLinetypeTableRecord
  2
PHANTOM2
 70
     0
  3
___ _ _ ___ _ _ ___ _ _ ___ _ _
 72
    65
 73
     6
 40
1.25
 49
0.625
 74
     0
 49
-0.125
 74
     0
 49
0.125
 74
     0
 49
-0.125
 74
     0
 49
0.125
 74
     0
 49
-0.125
 74
     0
  0
LTYPE
  5
86
330
5
100
AcDbSymbolTableRecord
100
AcDbLinetypeTableRecord
  2
Nascosto 1_5 mm
 70
     0
  3

 72
    65
 73
     2
 40
2.2
 49
1.5
 74
     0
 49
-0.7000000000000001
 74
     0
  0
ENDTAB
  0
TABLE
  2
LAYER
  5
2
330
0
100
AcDbSymbolTable
 70
     4
  0
LAYER
  5
54
330
2
100
AcDbSymbolTableRecord
100
AcDbLayerTableRecord
  2
0
 70
     0
 62
     7
  6
Continuous
370
    -3
390
F
347
21
348
0
  0
LAYER
  5
85
330
2
100
AcDbSymbolTableRecord
100
AcDbLayerTableRecord
  2
P-SANR-FIXT
 70
     0
 62
     6
  6
Continuous
370
    18
390
F
347
21
348
0
  0
LAYER
  5
88
330
2
100
AcDbSymbolTableRecord
100
AcDbLayerTableRecord
  2
M-PIPE
 70
     0
 62
     3
  6
Continuous
370
    18
390
F
347
21
348
0
  0
ENDTAB
  0
TABLE
  2
STYLE
  5
3
330
0
100
AcDbSymbolTable
 70
     2
  0
STYLE
  5
55
330
3
100
AcDbSymbolTableRecord
100
AcDbTextStyleTableRecord
  2
Standard
 70
     0
 40
0.0
 41
1.0
 50
0.0
 71
     0
 42
0.2
  3
txt
  4

  0
STYLE
  5
5A
330
3
100
AcDbSymbolTableRecord
100
AcDbTextStyleTableRecord
  2
Annotative
 70
     0
 40
0.0
 41
1.0
 50
0.0
 71
     0
 42
0.2
  3
txt
  4

1001
AcadAnnotative
1000
AnnotativeData
1002
{
1070
     1
1070
     1
1002
}
  0
ENDTAB
  0
TABLE
  2
VIEW
  5
6
330
0
100
AcDbSymbolTable
 70
     0
  0
ENDTAB
  0
TABLE
  2
UCS
  5
7
330
0
100
AcDbSymbolTable
 70
     0
  0
ENDTAB
  0
TABLE
  2
APPID
  5
9
330
0
100
AcDbSymbolTable
 70
     3
  0
APPID
  5
56
330
9
100
AcDbSymbolTableRecord
100
AcDbRegAppTableRecord
  2
ACAD
 70
     0
  0
APPID
  5
5E
330
9
100
AcDbSymbolTableRecord
100
AcDbRegAppTableRecord
  2
AcadAnnotative
 70
     0
  0
APPID
  5
79
330
9
100
AcDbSymbolTableRecord
100
AcDbRegAppTableRecord
  2
REVIT
 70
     0
  0
ENDTAB
  0
TABLE
  2
DIMSTYLE
  5
A
330
0
100
AcDbSymbolTable
 70
     2
100
AcDbDimStyleTable
 71
     0
  0
DIMSTYLE
105
58
330
A
100
AcDbSymbolTableRecord
100
AcDbDimStyleTableRecord
  2
Standard
 70
     0
340
55
  0
DIMSTYLE
105
59
330
A
100
AcDbSymbolTableRecord
100
AcDbDimStyleTableRecord
  2
Annotative
 70
     0
340
55
1001
AcadAnnotative
1000
AnnotativeData
1002
{
1070
     1
1070
     1
1002
}
  0
ENDTAB
  0
TABLE
  2
BLOCK_RECORD
  5
1
330
0
100
AcDbSymbolTable
 70
     4
  0
BLOCK_RECORD
  5
71
102
{ACAD_XDICTIONARY
360
2FD
102
}
330
1
100
AcDbSymbolTableRecord
100
AcDbBlockTableRecord
  2
*Model_Space
340
74
 70
     0
280
     1
281
     0
  0
BLOCK_RECORD
  5
6D
330
1
100
AcDbSymbolTableRecord
100
AcDbBlockTableRecord
  2
*Paper_Space
340
70
 70
     0
280
     1
281
     0
  0
BLOCK_RECORD
  5
75
330
1
100
AcDbSymbolTableRecord
100
AcDbBlockTableRecord
  2
*Paper_Space0
340
78
 70
     0
280
     1
281
     0
  0
BLOCK_RECORD
  5
87
330
1
100
AcDbSymbolTableRecord
100
AcDbBlockTableRecord
  2
Automatic flow rate regulator valve_Caleffi_121 DN15 - 1_2__-859151-Est - Idraulica
340
0
102
{BLKREFS
331
19F
102
}
 70
     0
280
     1
281
     0
  0
BLOCK_RECORD
  5
1A0
330
1
100
AcDbSymbolTableRecord
100
AcDbBlockTableRecord
  2
Automatic flow rate regulator valve_Caleffi_121 DN15 - 1_2__-V1-Est - Idraulica
340
0
102
{BLKREFS
331
281
102
}
 70
     0
280
     1
281
     0
  0
BLOCK_RECORD
  5
282
330
1
100
AcDbSymbolTableRecord
100
AcDbBlockTableRecord
  2
Automatic flow rate regulator valve_Caleffi_121 DN15 - 1_2__-V2-Est - Idraulica
340
0
102
{BLKREFS
331
2F6
102
}
 70
     0
280
     1
281
     0
  0
ENDTAB
  0
ENDSEC
  0
SECTION
  2
BLOCKS
  0
BLOCK
  5
72
330
71
100
AcDbEntity
  8
0
100
AcDbBlockBegin
  2
*Model_Space
 70
     0
 10
0.0
 20
0.0
 30
0.0
  3
*Model_Space
  1

  0
ENDBLK
  5
73
330
71
100
AcDbEntity
  8
0
100
AcDbBlockEnd
  0
BLOCK
  5
6E
330
6D
100
AcDbEntity
 67
     1
  8
0
100
AcDbBlockBegin
  2
*Paper_Space
 70
     0
 10
0.0
 20
0.0
 30
0.0
  3
*Paper_Space
  1

  0
ENDBLK
  5
6F
330
6D
100
AcDbEntity
 67
     1
  8
0
100
AcDbBlockEnd
  0
BLOCK
  5
76
330
75
100
AcDbEntity
 67
     1
  8
0
100
AcDbBlockBegin
  2
*Paper_Space0
 70
     0
 10
0.0
 20
0.0
 30
0.0
  3
*Paper_Space0
  1

  0
ENDBLK
  5
77
330
75
100
AcDbEntity
 67
     1
  8
0
100
AcDbBlockEnd
  0
BLOCK
  5
19D
330
87
100
AcDbEntity
  8
0
100
AcDbBlockBegin
  2
Automatic flow rate regulator valve_Caleffi_121 DN15 - 1_2__-859151-Est - Idraulica
 70
     0
 10
0.0
 20
0.0
 30
0.0
  3
Automatic flow rate regulator valve_Caleffi_121 DN15 - 1_2__-859151-Est - Idraulica
  1

  0
LWPOLYLINE
  5
89
330
87
100
AcDbEntity
  8
M-PIPE
100
AcDbPolyline
 90
       41
 70
   128
 43
0.0
 10
1006.046875641957
 20
1955.507812499995
 10
1006.042476228593
 20
1955.287871161968
 10
1006.029285026621
 20
1955.068281683164
 10
1006.007323139153
 20
1954.849395359906
 10
1005.976625700523
 20
1954.631562363616
 10
1005.937241820084
 20
1954.415131180622
 10
1005.889234503643
 20
1954.200448054645
 10
1005.832680552666
 20
1953.987856432892
 10
1005.767670441411
 20
1953.777696416606
 10
1005.694308172186
 20
1953.570304216982
 10
1005.612711108973
 20
1953.366011617297
 10
1005.523009789667
 20
1953.165145442132
 10
1005.425347717243
 20
1952.968027034517
 10
1005.319881130184
 20
1952.774971741854
 10
1005.206778752531
 20
1952.58628841143
 10
1005.08622152396
 20
1952.402278896322
 10
1004.958402310321
 20
1952.223237572502
 10
1004.823525595087
 20
1952.049450867893
 10
1004.681807152232
 20
1951.881196804151
 10
1004.533473701032
 20
1951.718744551887
 10
1004.378762543366
 20
1951.562354000047
 10
1004.217921184084
 20
1951.412275340155
 10
1004.051206935049
 20
1951.26874866605
 10
1003.878886503496
 20
1951.132003589795
 10
1003.701235565356
 20
1951.002258874339
 10
1003.518538324232
 20
1950.879722083551
 10
1003.331087056738
 20
1950.764589250157
 10
1003.139181644913
 20
1950.657044562128
 10
1002.943129096479
 20
1950.557260068024
 10
1002.743243053692
 20
1950.46539540175
 10
1002.539843291579
 20
1950.381597527175
 10
1002.33325520637
 20
1950.306000503022
 10
1002.123809294933
 20
1950.238725268404
 10
1001.911840626045
 20
1950.179879449344
 10
1001.69768830436
 20
1950.129557186601
 10
1001.481694927909
 20
1950.087838985058
 10
1001.264206040017
 20
1950.05479158494
 10
1001.045569576511
 20
1950.030467855038
 10
1000.826135309091
 20
1950.014906708129
 10
1000.606254285778
 20
1950.00813303873
 10
1000.546875641957
 20
1950.007812499995
1001
REVIT
1002
{
1070
     3
1000
963222
1002
}
  0
LWPOLYLINE
  5
8A
330
87
100
AcDbEntity
  8
M-PIPE
100
AcDbPolyline
 90
       41
 70
   128
 43
0.0
 10
1000.546875641957
 20
2049.992187499996
 10
1000.766816979984
 20
2049.987788086631
 10
1000.986406458788
 20
2049.974596884661
 10
1001.205292782047
 20
2049.952634997192
 10
1001.423125778336
 20
2049.921937558562
 10
1001.63955696133
 20
2049.882553678123
 10
1001.854240087307
 20
2049.834546361682
 10
1002.06683170906
 20
2049.777992410705
 10
1002.276991725346
 20
2049.71298229945
 10
1002.48438392497
 20
2049.639620030225
 10
1002.688676524655
 20
2049.558022967012
 10
1002.88954269982
 20
2049.468321647706
 10
1003.086661107436
 20
2049.370659575282
 10
1003.279716400098
 20
2049.265192988223
 10
1003.468399730522
 20
2049.15209061057
 10
1003.65240924563
 20
2049.031533382
 10
1003.831450569451
 20
2048.903714168359
 10
1004.005237274059
 20
2048.768837453126
 10
1004.1734913378
 20
2048.627119010271
 10
1004.335943590066
 20
2048.478785559071
 10
1004.492334141905
 20
2048.324074401406
 10
1004.642412801797
 20
2048.163233042123
 10
1004.785939475902
 20
2047.996518793088
 10
1004.922684552157
 20
2047.824198361535
 10
1005.052429267613
 20
2047.646547423394
 10
1005.174966058401
 20
2047.463850182271
 10
1005.290098891796
 20
2047.276398914776
 10
1005.397643579825
 20
2047.084493502952
 10
1005.497428073928
 20
2046.888440954518
 10
1005.589292740202
 20
2046.68855491173
 10
1005.673090614777
 20
2046.485155149618
 10
1005.74868763893
 20
2046.278567064409
 10
1005.815962873548
 20
2046.069121152972
 10
1005.874808692608
 20
2045.857152484084
 10
1005.925130955352
 20
2045.643000162399
 10
1005.966849156894
 20
2045.427006785947
 10
1005.999896557012
 20
2045.209517898056
 10
1006.024220286914
 20
2044.99088143455
 10
1006.039781433823
 20
2044.771447167131
 10
1006.046555103222
 20
2044.551566143816
 10
1006.046875641957
 20
2044.492187499996
1001
REVIT
1002
{
1070
     3
1000
963222
1002
}
  0
LWPOLYLINE
  5
8B
330
87
100
AcDbEntity
  8
M-PIPE
100
AcDbPolyline
 90
        4
 70
   128
 43
0.0
 10
1006.046875641957
 20
2044.492187499996
 10
1006.046875641957
 20
2044.456598495576
 10
1006.046875641957
 20
2044.349888417132
 10
1006.046875641957
 20
2044.210764417625
1001
REVIT
1002
{
1070
     3
1000
963222
1002
}
  0
LWPOLYLINE
  5
8C
330
87
100
AcDbEntity
  8
M-PIPE
100
AcDbPolyline
 90
        5
 70
   128
 43
0.0
 10
1006.046875641957
 20
1955.787241300755
 10
1006.046875641957
 20
1955.737218518494
 10
1006.046875641957
 20
1955.59217982748
 10
1006.046875641957
 20
1955.51818417558
 10
1006.046875641957
 20
1955.507812499995
1001
REVIT
1002
{
1070
     3
1000
963222
1002
}
  0
LWPOLYLINE
  5
8D
330
87
100
AcDbEntity
  8
M-PIPE
100
AcDbPolyline
 90
       80
 70
   128
 43
0.0
 10
869.6406256419573
 20
2048.141940303334
 10
869.6418254819658
 20
2048.081956302054
 10
869.6454230825034
 20
2048.02206826238
 10
869.6514126881764
 20
2047.9623719924
 10
869.659784716894
 20
2047.902962993413
 10
869.6705257751956
 20
2047.843936307141
 10
869.6836186796792
 20
2047.785386363693
 10
869.699042484491
 20
2047.727406830487
 10
869.7167725148336
 20
2047.67009046241
 10
869.7367804064404
 20
2047.613528953421
 10
869.7590341509529
 20
2047.557812789871
 10
869.7834981471274
 20
2047.503031105735
 10
869.8101332577884
 20
2047.449271540022
 10
869.8388968724408
 20
2047.396620096568
 10
869.8697429754373
 20
2047.345161006453
 10
869.9026222195929
 20
2047.294976593241
 10
869.9374820051309
 20
2047.24614714129
 10
869.9742665638309
 20
2047.198750767306
 10
870.0129170482458
 20
2047.152863295377
 10
870.0533716258458
 20
2047.108558135668
 10
870.0955655779365
 20
2047.065906166984
 10
870.1394314031952
 20
2047.024975623378
 10
870.1848989256594
 20
2046.985831984985
 10
870.2318954069921
 20
2046.948537873279
 10
870.2803456628485
 20
2046.913152950882
 10
870.330172183155
 20
2046.879733826122
 10
870.3812952561081
 20
2046.848333962469
 10
870.4336330956968
 20
2046.819003593006
 10
870.4871019725423
 20
2046.791789640069
 10
870.5416163478478
 20
2046.766735640176
 10
870.5970890102424
 20
2046.743881674383
 10
870.6534312152991
 20
2046.723264304159
 10
870.7105528275095
 20
2046.7049165129
 10
870.7683624644786
 20
2046.688867653156
 10
870.8267676431201
 20
2046.675143399681
 10
870.8856749276071
 20
2046.663765708351
 10
870.94499007885
 20
2046.654752781046
 10
871.0046182052607
 20
2046.648119036527
 10
871.064463914557
 20
2046.643875087371
 10
871.12443146637
 20
2046.642027722989
 10
871.1844249254092
 20
2046.642579898771
 10
871.2443483149383
 20
2046.645530731355
 10
871.304105770317
 20
2046.650875500036
 10
871.3636016923643
 20
2046.658605654327
 10
871.4227409002967
 20
2046.668708827628
 10
871.4814287839969
 20
2046.681168857016
 10
871.5395714553707
 20
2046.695965809105
 10
871.5970758985472
 20
2046.713076011926
 10
871.6538501186835
 20
2046.732472092806
 10
871.7098032891398
 20
2046.754123022151
 10
871.7648458967781
 20
2046.777994163095
 10
871.8188898851687
 20
2046.804047326904
 10
871.8718487954589
 20
2046.832240834072
 10
871.9236379046893
 20
2046.862529581004
 10
871.9741743613333
 20
2046.894865112166
 10
872.0233773178405
 20
2046.929195697604
 10
872.0711680599762
 20
2046.965466415707
 10
872.1174701327488
 20
2047.003619241062
 10
872.162209462718
 20
2047.043593137289
 10
872.2053144765004
 20
2047.085324154679
 10
872.2467162152693
 20
2047.128745532507
 10
872.2863484450741
 20
2047.173787805832
 10
872.3241477628018
 20
2047.220378916625
 10
872.3600536976073
 20
2047.268444329048
 10
872.3940088076544
 20
2047.317907148693
 10
872.4259587720109
 20
2047.368688245601
 10
872.4558524775488
 20
2047.420706380851
 10
872.4836421007168
 20
2047.473878336521
 10
872.5092831840454
 20
2047.528119048826
 10
872.5327347072713
 20
2047.583341744196
 10
872.5539591529605
 20
2047.6394580781
 10
872.5729225665267
 20
2047.696378276373
 10
872.5895946105543
 20
2047.754011278842
 10
872.603948613329
 20
2047.812264884996
 10
872.6159616115085
 20
2047.871045901493
 10
872.625614386858
 20
2047.930260291244
 10
872.6328914969965
 20
2047.989813323859
 10
872.6377813001001
 20
2048.049609727189
 10
872.6402759735266
 20
2048.109553839744
 10
872.6406256419576
 20
2048.141940303334
1001
REVIT
1002
{
1070
     3
1000
963222
1002
}
  0
LWPOLYLINE
  5
8E
330
87
100
AcDbEntity
  8
M-PIPE
100
AcDbPolyline
 90
       80
 70
   128
 43
0.0
 10
872.6406256419576
 20
1951.858059696658
 10
872.6394258019489
 20
1951.918043697938
 10
872.6358282014112
 20
1951.977931737611
 10
872.6298385957381
 20
1952.037628007591
 10
872.6214665670209
 20
1952.09703700658
 10
872.6107255087192
 20
1952.156063692851
 10
872.5976326042353
 20
1952.214613636299
 10
872.5822087994233
 20
1952.272593169504
 10
872.5644787690811
 20
1952.329909537582
 10
872.5444708774741
 20
1952.386471046571
 10
872.5222171329617
 20
1952.442187210121
 10
872.4977531367875
 20
1952.496968894257
 10
872.4711180261262
 20
1952.55072845997
 10
872.442354411474
 20
1952.603379903424
 10
872.4115083084775
 20
1952.654838993539
 10
872.3786290643218
 20
1952.705023406751
 10
872.3437692787838
 20
1952.753852858702
 10
872.3069847200836
 20
1952.801249232686
 10
872.2683342356686
 20
1952.847136704615
 10
872.2278796580686
 20
1952.891441864324
 10
872.185685705978
 20
1952.934093833007
 10
872.1418198807192
 20
1952.975024376614
 10
872.0963523582552
 20
1953.014168015007
 10
872.0493558769225
 20
1953.051462126713
 10
872.000905621066
 20
1953.08684704911
 10
871.9510791007596
 20
1953.12026617387
 10
871.8999560278065
 20
1953.151666037523
 10
871.8476181882179
 20
1953.180996406986
 10
871.7941493113725
 20
1953.208210359923
 10
871.7396349360667
 20
1953.233264359816
 10
871.6841622736724
 20
1953.256118325609
 10
871.6278200686154
 20
1953.276735695832
 10
871.5706984564054
 20
1953.295083487092
 10
871.5128888194358
 20
1953.311132346836
 10
871.4544836407945
 20
1953.324856600311
 10
871.3955763563077
 20
1953.336234291641
 10
871.3362612050646
 20
1953.345247218946
 10
871.2766330786537
 20
1953.351880963464
 10
871.2167873693577
 20
1953.356124912622
 10
871.1568198175447
 20
1953.357972277003
 10
871.0968263585053
 20
1953.35742010122
 10
871.0369029689761
 20
1953.354469268637
 10
870.9771455135975
 20
1953.349124499955
 10
870.9176495915503
 20
1953.341394345665
 10
870.8585103836179
 20
1953.331291172364
 10
870.7998224999178
 20
1953.318831142976
 10
870.7416798285439
 20
1953.304034190887
 10
870.6841753853675
 20
1953.286923988065
 10
870.6274011652309
 20
1953.267527907186
 10
870.5714479947751
 20
1953.24587697784
 10
870.5164053871365
 20
1953.222005836897
 10
870.4623613987459
 20
1953.195952673088
 10
870.4094024884557
 20
1953.16775916592
 10
870.3576133792253
 20
1953.137470418987
 10
870.3070769225815
 20
1953.105134887826
 10
870.2578739660742
 20
1953.070804302387
 10
870.2100832239382
 20
1953.034533584285
 10
870.1637811511661
 20
1952.99638075893
 10
870.1190418211966
 20
1952.956406862703
 10
870.0759368074143
 20
1952.914675845313
 10
870.0345350686456
 20
1952.871254467485
 10
869.9949028388406
 20
1952.82621219416
 10
869.957103521113
 20
1952.779621083367
 10
869.9211975863075
 20
1952.731555670944
 10
869.8872424762601
 20
1952.682092851299
 10
869.855292511904
 20
1952.63131175439
 10
869.8253988063658
 20
1952.579293619141
 10
869.797609183198
 20
1952.526121663471
 10
869.7719680998693
 20
1952.471880951166
 10
869.7485165766433
 20
1952.416658255796
 10
869.7272921309544
 20
1952.360541921892
 10
869.7083287173878
 20
1952.303621723618
 10
869.6916566733603
 20
1952.24598872115
 10
869.6773026705855
 20
1952.187735114996
 10
869.6652896724062
 20
1952.1289540985
 10
869.6556368970567
 20
1952.069739708748
 10
869.6483597869182
 20
1952.010186676133
 10
869.6434699838146
 20
1951.950390272803
 10
869.6409753103878
 20
1951.890446160247
 10
869.6406256419573
 20
1951.858059696658
1001
REVIT
1002
{
1070
     3
1000
963222
1002
}
  0
LWPOLYLINE
  5
8F
330
87
100
AcDbEntity
  8
M-PIPE
100
AcDbPolyline
 90
       41
 70
   128
 43
0.0
 10
868.5468756419572
 20
1950.007812499995
 10
868.3269343039306
 20
1950.01221191336
 10
868.1073448251268
 20
1950.025403115331
 10
867.888458501868
 20
1950.047365002799
 10
867.6706255055789
 20
1950.07806244143
 10
867.4541943225843
 20
1950.117446321869
 10
867.2395111966078
 20
1950.165453638309
 10
867.0269195748547
 20
1950.222007589286
 10
866.8167595585684
 20
1950.287017700542
 10
866.6093673589442
 20
1950.360379969767
 10
866.4050747592595
 20
1950.44197703298
 10
866.2042085840942
 20
1950.531678352286
 10
866.0070901764791
 20
1950.62934042471
 10
865.8140348838164
 20
1950.734807011768
 10
865.6253515533922
 20
1950.847909389422
 10
865.4413420382846
 20
1950.968466617992
 10
865.2623007144638
 20
1951.096285831632
 10
865.0885140098557
 20
1951.231162546866
 10
864.9202599461141
 20
1951.372880989721
 10
864.7578076938492
 20
1951.521214440921
 10
864.6014171420098
 20
1951.675925598586
 10
864.4513384821173
 20
1951.836766957868
 10
864.3078118080127
 20
1952.003481206904
 10
864.1710667317569
 20
1952.175801638457
 10
864.0413220163015
 20
1952.353452576597
 10
863.9187852255137
 20
1952.536149817721
 10
863.8036523921186
 20
1952.723601085216
 10
863.6961077040899
 20
1952.91550649704
 10
863.5963232099863
 20
1953.111559045474
 10
863.5044585437125
 20
1953.311445088261
 10
863.4206606691375
 20
1953.514844850374
 10
863.3450636449847
 20
1953.721432935583
 10
863.2777884103662
 20
1953.93087884702
 10
863.2189425913066
 20
1954.142847515907
 10
863.1686203285628
 20
1954.356999837593
 10
863.1269021270206
 20
1954.572993214044
 10
863.0938547269028
 20
1954.790482101936
 10
863.0695309970001
 20
1955.009118565442
 10
863.0539698500914
 20
1955.228552832861
 10
863.0471961806923
 20
1955.448433856175
 10
863.0468756419572
 20
1955.507812499996
1001
REVIT
1002
{
1070
     3
1000
963222
1002
}
  0
LWPOLYLINE
  5
90
330
87
100
AcDbEntity
  8
M-PIPE
100
AcDbPolyline
 90
       41
 70
   128
 43
0.0
 10
863.0468756419574
 20
2044.492187499996
 10
863.051275055322
 20
2044.712128838023
 10
863.064466257293
 20
2044.931718316826
 10
863.0864281447612
 20
2045.150604640085
 10
863.1171255833915
 20
2045.368437636374
 10
863.1565094638306
 20
2045.584868819369
 10
863.2045167802711
 20
2045.799551945345
 10
863.2610707312482
 20
2046.012143567099
 10
863.326080842504
 20
2046.222303583384
 10
863.3994431117287
 20
2046.429695783009
 10
863.4810401749415
 20
2046.633988382694
 10
863.5707414942476
 20
2046.834854557859
 10
863.6684035666714
 20
2047.031972965474
 10
863.7738701537303
 20
2047.225028258137
 10
863.8869725313835
 20
2047.413711588561
 10
864.0075297599542
 20
2047.597721103668
 10
864.1353489735939
 20
2047.776762427489
 10
864.2702256888272
 20
2047.950549132098
 10
864.4119441316824
 20
2048.118803195839
 10
864.5602775828825
 20
2048.281255448104
 10
864.7149887405481
 20
2048.437645999943
 10
864.8758300998302
 20
2048.587724659836
 10
865.0425443488654
 20
2048.73125133394
 10
865.2148647804184
 20
2048.867996410196
 10
865.3925157185589
 20
2048.997741125651
 10
865.5752129596827
 20
2049.12027791644
 10
865.7626642271774
 20
2049.235410749835
 10
865.954569639002
 20
2049.342955437863
 10
866.1506221874354
 20
2049.442739931967
 10
866.3505082302229
 20
2049.534604598241
 10
866.5539079923357
 20
2049.618402472816
 10
866.7604960775442
 20
2049.693999496969
 10
866.9699419889816
 20
2049.761274731586
 10
867.1819106578693
 20
2049.820120550647
 10
867.3960629795546
 20
2049.87044281339
 10
867.6120563560061
 20
2049.912161014933
 10
867.8295452438977
 20
2049.94520841505
 10
868.0481817074038
 20
2049.969532144953
 10
868.2676159748227
 20
2049.985093291862
 10
868.487496998137
 20
2049.991866961261
 10
868.5468756419574
 20
2049.992187499996
1001
REVIT
1002
{
1070
     3
1000
963222
1002
}
  0
LWPOLYLINE
  5
91
330
87
100
AcDbEntity
  8
M-PIPE
100
AcDbPolyline
 90
        4
 70
   128
 43
0.0
 10
863.0468756419572
 20
1955.507812499996
 10
863.0468756419572
 20
1955.543401504415
 10
863.0468756419572
 20
1955.650111582859
 10
863.0468756419572
 20
1955.789235582367
1001
REVIT
1002
{
1070
     3
1000
963222
1002
}
  0
LWPOLYLINE
  5
92
330
87
100
AcDbEntity
  8
M-PIPE
100
AcDbPolyline
 90
        5
 70
   128
 43
0.0
 10
863.0468756419574
 20
2044.212758699236
 10
863.0468756419574
 20
2044.262781481497
 10
863.0468756419574
 20
2044.40782017251
 10
863.0468756419574
 20
2044.481815824411
 10
863.0468756419574
 20
2044.492187499996
1001
REVIT
1002
{
1070
     3
1000
963222
1002
}
  0
LWPOLYLINE
  5
93
330
87
100
AcDbEntity
  8
M-PIPE
100
AcDbPolyline
 90
       80
 70
   128
 43
0.0
 10
996.4531256419576
 20
2048.141940303334
 10
996.4543254819661
 20
2048.081956302054
 10
996.4579230825037
 20
2048.02206826238
 10
996.4639126881769
 20
2047.9623719924
 10
996.4722847168941
 20
2047.902962993413
 10
996.4830257751957
 20
2047.843936307141
 10
996.4961186796797
 20
2047.785386363693
 10
996.5115424844915
 20
2047.727406830487
 10
996.5292725148339
 20
2047.67009046241
 10
996.5492804064409
 20
2047.613528953421
 10
996.5715341509532
 20
2047.557812789871
 10
996.5959981471275
 20
2047.503031105735
 10
996.6226332577887
 20
2047.449271540022
 10
996.6513968724411
 20
2047.396620096568
 10
996.6822429754376
 20
2047.345161006453
 10
996.7151222195932
 20
2047.294976593241
 10
996.7499820051314
 20
2047.24614714129
 10
996.7867665638314
 20
2047.198750767306
 10
996.8254170482463
 20
2047.152863295377
 10
996.8658716258463
 20
2047.108558135668
 10
996.908065577937
 20
2047.065906166984
 10
996.9519314031957
 20
2047.024975623378
 10
996.9973989256597
 20
2046.985831984985
 10
997.0443954069924
 20
2046.948537873279
 10
997.092845662849
 20
2046.913152950882
 10
997.1426721831553
 20
2046.879733826122
 10
997.1937952561084
 20
2046.848333962469
 10
997.2461330956971
 20
2046.819003593006
 10
997.2996019725426
 20
2046.791789640069
 10
997.3541163478483
 20
2046.766735640176
 10
997.4095890102427
 20
2046.743881674383
 10
997.4659312152995
 20
2046.723264304159
 10
997.5230528275098
 20
2046.7049165129
 10
997.5808624644791
 20
2046.688867653156
 10
997.6392676431204
 20
2046.675143399681
 10
997.6981749276072
 20
2046.663765708351
 10
997.7574900788503
 20
2046.654752781046
 10
997.8171182052612
 20
2046.648119036527
 10
997.8769639145573
 20
2046.643875087371
 10
997.9369314663703
 20
2046.642027722989
 10
997.9969249254097
 20
2046.642579898771
 10
998.0568483149388
 20
2046.645530731355
 10
998.1166057703175
 20
2046.650875500036
 10
998.1761016923647
 20
2046.658605654327
 10
998.235240900297
 20
2046.668708827628
 10
998.2939287839974
 20
2046.681168857016
 10
998.3520714553712
 20
2046.695965809105
 10
998.4095758985475
 20
2046.713076011926
 10
998.466350118684
 20
2046.732472092806
 10
998.5223032891399
 20
2046.754123022151
 10
998.5773458967784
 20
2046.777994163095
 10
998.631389885169
 20
2046.804047326904
 10
998.6843487954592
 20
2046.832240834072
 10
998.7361379046896
 20
2046.862529581004
 10
998.7866743613336
 20
2046.894865112166
 10
998.8358773178408
 20
2046.929195697604
 10
998.8836680599767
 20
2046.965466415707
 10
998.9299701327491
 20
2047.003619241062
 10
998.9747094627185
 20
2047.043593137289
 10
999.0178144765009
 20
2047.085324154679
 10
999.0592162152694
 20
2047.128745532507
 10
999.0988484450744
 20
2047.173787805832
 10
999.1366477628019
 20
2047.220378916625
 10
999.1725536976074
 20
2047.268444329048
 10
999.2065088076548
 20
2047.317907148693
 10
999.238458772011
 20
2047.368688245601
 10
999.2683524775491
 20
2047.420706380851
 10
999.2961421007169
 20
2047.473878336521
 10
999.3217831840457
 20
2047.528119048826
 10
999.3452347072716
 20
2047.583341744196
 10
999.3664591529606
 20
2047.6394580781
 10
999.3854225665272
 20
2047.696378276373
 10
999.4020946105546
 20
2047.754011278842
 10
999.4164486133295
 20
2047.812264884996
 10
999.4284616115088
 20
2047.871045901493
 10
999.4381143868583
 20
2047.930260291244
 10
999.4453914969971
 20
2047.989813323859
 10
999.4502813001005
 20
2048.049609727189
 10
999.4527759735271
 20
2048.109553839744
 10
999.4531256419579
 20
2048.141940303334
1001
REVIT
1002
{
1070
     3
1000
963222
1002
}
  0
LWPOLYLINE
  5
94
330
87
100
AcDbEntity
  8
M-PIPE
100
AcDbPolyline
 90
       80
 70
   128
 43
0.0
 10
999.4531256419579
 20
1951.858059696658
 10
999.4519258019492
 20
1951.918043697938
 10
999.4483282014115
 20
1951.977931737611
 10
999.4423385957386
 20
1952.037628007591
 10
999.4339665670212
 20
1952.09703700658
 10
999.4232255087196
 20
1952.156063692851
 10
999.4101326042358
 20
1952.214613636299
 10
999.3947087994239
 20
1952.272593169504
 10
999.3769787690814
 20
1952.329909537582
 10
999.3569708774748
 20
1952.386471046571
 10
999.3347171329622
 20
1952.442187210121
 10
999.3102531367876
 20
1952.496968894257
 10
999.2836180261265
 20
1952.55072845997
 10
999.2548544114741
 20
1952.603379903424
 10
999.2240083084778
 20
1952.654838993539
 10
999.1911290643221
 20
1952.705023406751
 10
999.1562692787841
 20
1952.753852858702
 10
999.1194847200841
 20
1952.801249232686
 10
999.080834235669
 20
1952.847136704615
 10
999.0403796580691
 20
1952.891441864324
 10
998.9981857059785
 20
1952.934093833007
 10
998.9543198807197
 20
1952.975024376614
 10
998.9088523582555
 20
1953.014168015007
 10
998.861855876923
 20
1953.051462126713
 10
998.8134056210665
 20
1953.08684704911
 10
998.7635791007599
 20
1953.12026617387
 10
998.712456027807
 20
1953.151666037523
 10
998.6601181882184
 20
1953.180996406986
 10
998.6066493113726
 20
1953.208210359923
 10
998.5521349360672
 20
1953.233264359816
 10
998.4966622736726
 20
1953.256118325609
 10
998.4403200686159
 20
1953.276735695832
 10
998.3831984564055
 20
1953.295083487092
 10
998.3253888194363
 20
1953.311132346836
 10
998.2669836407948
 20
1953.324856600311
 10
998.2080763563079
 20
1953.336234291641
 10
998.1487612050649
 20
1953.345247218946
 10
998.0891330786542
 20
1953.351880963464
 10
998.029287369358
 20
1953.356124912622
 10
997.969319817545
 20
1953.357972277003
 10
997.9093263585058
 20
1953.35742010122
 10
997.8494029689766
 20
1953.354469268637
 10
997.7896455135979
 20
1953.349124499955
 10
997.7301495915508
 20
1953.341394345665
 10
997.6710103836184
 20
1953.331291172364
 10
997.6123224999181
 20
1953.318831142976
 10
997.5541798285442
 20
1953.304034190887
 10
997.4966753853681
 20
1953.286923988065
 10
997.4399011652314
 20
1953.267527907186
 10
997.3839479947754
 20
1953.24587697784
 10
997.328905387137
 20
1953.222005836897
 10
997.2748613987462
 20
1953.195952673088
 10
997.2219024884561
 20
1953.16775916592
 10
997.1701133792258
 20
1953.137470418987
 10
997.1195769225818
 20
1953.105134887826
 10
997.0703739660747
 20
1953.070804302387
 10
997.0225832239387
 20
1953.034533584285
 10
996.9762811511662
 20
1952.99638075893
 10
996.9315418211969
 20
1952.956406862703
 10
996.8884368074146
 20
1952.914675845313
 10
996.8470350686457
 20
1952.871254467485
 10
996.8074028388409
 20
1952.82621219416
 10
996.7696035211135
 20
1952.779621083367
 10
996.7336975863078
 20
1952.731555670944
 10
996.6997424762606
 20
1952.682092851299
 10
996.6677925119043
 20
1952.63131175439
 10
996.6378988063661
 20
1952.579293619141
 10
996.6101091831985
 20
1952.526121663471
 10
996.5844680998698
 20
1952.471880951166
 10
996.5610165766436
 20
1952.416658255796
 10
996.5397921309548
 20
1952.360541921892
 10
996.5208287173881
 20
1952.303621723618
 10
996.5041566733608
 20
1952.24598872115
 10
996.489802670586
 20
1952.187735114996
 10
996.4777896724065
 20
1952.1289540985
 10
996.4681368970571
 20
1952.069739708748
 10
996.4608597869183
 20
1952.010186676133
 10
996.4559699838149
 20
1951.950390272803
 10
996.4534753103883
 20
1951.890446160247
 10
996.4531256419576
 20
1951.858059696658
1001
REVIT
1002
{
1070
     3
1000
963222
1002
}
  0
LINE
  5
95
330
87
100
AcDbEntity
  8
M-PIPE
100
AcDbLine
 10
1006.046875641956
 20
2044.492187499995
 30
0.0
 11
1006.046875641956
 21
2031.499999999995
 31
0.0
1001
REVIT
1002
{
1070
     3
1000
963222
1002
}
  0
LINE
  5
96
330
87
100
AcDbEntity
  8
M-PIPE
100
AcDbLine
 10
1006.046875641956
 20
2031.499999999995
 30
0.0
 11
1006.046875641956
 21
1999.999999999995
 31
0.0
1001
REVIT
1002
{
1070
     3
1000
963222
1002
}
  0
LINE
  5
97
330
87
100
AcDbEntity
  8
M-PIPE
100
AcDbLine
 10
1006.046875641956
 20
1999.999999999994
 30
0.0
 11
1006.046875641956
 21
1968.499999999995
 31
0.0
1001
REVIT
1002
{
1070
     3
1000
963222
1002
}
  0
LINE
  5
98
330
87
100
AcDbEntity
  8
M-PIPE
100
AcDbLine
 10
1006.046875641956
 20
1968.499999999994
 30
0.0
 11
1006.046875641956
 21
1955.507812499994
 31
0.0
1001
REVIT
1002
{
1070
     3
1000
963222
1002
}
  0
ARC
  5
99
330
87
100
AcDbEntity
  8
M-PIPE
100
AcDbCircle
 10
1000.546875641955
 20
1955.507812499994
 30
0.0
 40
5.499999999999886
100
AcDbArc
 50
269.9999999999973
 51
0.0
1001
REVIT
1002
{
1070
     3
1000
963222
1002
}
  0
ARC
  5
9A
330
87
100
AcDbEntity
  8
M-PIPE
100
AcDbCircle
 10
1000.546875641956
 20
2044.492187499995
 30
0.0
 40
5.499999999999943
100
AcDbArc
 50
0.0000000000005979
 51
90.00000000000062
1001
REVIT
1002
{
1070
     3
1000
963222
1002
}
  0
LINE
  5
9B
330
87
100
AcDbEntity
  8
M-PIPE
100
AcDbLine
 10
1000.546875641955
 20
1950.007812499995
 30
0.0
 11
999.4531256419561
 21
1950.007812499995
 31
0.0
1001
REVIT
1002
{
1070
     3
1000
963222
1002
}
  0
LINE
  5
9C
330
87
100
AcDbEntity
  8
M-PIPE
100
AcDbLine
 10
999.4531256419561
 20
2049.992187499994
 30
0.0
 11
1000.546875641956
 21
2049.992187499994
 31
0.0
1001
REVIT
1002
{
1070
     3
1000
963222
1002
}
  0
LINE
  5
9D
330
87
100
AcDbEntity
  8
M-PIPE
100
AcDbLine
 10
996.453125641956
 20
1950.007812499995
 30
0.0
 11
934.5468756419556
 21
1950.007812499995
 31
0.0
1001
REVIT
1002
{
1070
     3
1000
963222
1002
}
  0
LINE
  5
9E
330
87
100
AcDbEntity
  8
M-PIPE
100
AcDbLine
 10
995.6834210687453
 20
2049.992187499994
 30
0.0
 11
996.453125641956
 21
2049.992187499994
 31
0.0
1001
REVIT
1002
{
1070
     3
1000
963222
1002
}
  0
LINE
  5
9F
330
87
100
AcDbEntity
  8
M-PIPE
100
AcDbLine
 10
872.6406256419558
 20
2048.141940303333
 30
0.0
 11
872.6406256419558
 21
2049.992187499995
 31
0.0
1001
REVIT
1002
{
1070
     3
1000
963222
1002
}
  0
LINE
  5
A0
330
87
100
AcDbEntity
  8
M-PIPE
100
AcDbLine
 10
872.6406256419558
 20
1950.007812499995
 30
0.0
 11
872.6406256419558
 21
1951.858059696657
 31
0.0
1001
REVIT
1002
{
1070
     3
1000
963222
1002
}
  0
ARC
  5
A1
330
87
100
AcDbEntity
  8
M-PIPE
100
AcDbCircle
 10
871.1406256419557
 20
1951.858059696657
 30
0.0
 40
1.499999999999886
100
AcDbArc
 50
359.9999999999953
 51
180.0000000000043
1001
REVIT
1002
{
1070
     3
1000
963222
1002
}
  0
ARC
  5
A2
330
87
100
AcDbEntity
  8
M-PIPE
100
AcDbCircle
 10
871.1406256419557
 20
2048.141940303333
 30
0.0
 40
1.5
100
AcDbArc
 50
180.0
 51
0.0
1001
REVIT
1002
{
1070
     3
1000
963222
1002
}
  0
LINE
  5
A3
330
87
100
AcDbEntity
  8
M-PIPE
100
AcDbLine
 10
869.6406256419558
 20
1951.858059696657
 30
0.0
 11
869.6406256419558
 21
1950.007812499995
 31
0.0
1001
REVIT
1002
{
1070
     3
1000
963222
1002
}
  0
LINE
  5
A4
330
87
100
AcDbEntity
  8
M-PIPE
100
AcDbLine
 10
869.6406256419558
 20
2049.992187499995
 30
0.0
 11
869.6406256419558
 21
2048.141940303333
 31
0.0
1001
REVIT
1002
{
1070
     3
1000
963222
1002
}
  0
LINE
  5
A5
330
87
100
AcDbEntity
  8
M-PIPE
100
AcDbLine
 10
910.2860388393464
 20
2043.562499999995
 30
0.0
 11
909.546875641956
 21
2043.562499999995
 31
0.0
1001
REVIT
1002
{
1070
     3
1000
963222
1002
}
  0
LINE
  5
A6
330
87
100
AcDbEntity
  8
M-PIPE
100
AcDbLine
 10
909.546875641956
 20
2043.562499999994
 30
0.0
 11
909.546875641956
 21
2031.499999999995
 31
0.0
1001
REVIT
1002
{
1070
     3
1000
963222
1002
}
  0
SPLINE
  5
A7
330
87
100
AcDbEntity
  8
M-PIPE
100
AcDbSpline
210
0.0
220
0.0
230
1.0
 70
     8
 71
     3
 72
    10
 73
     6
 74
     0
 42
0.000000001
 43
0.0000000001
 40
0.0
 40
0.0
 40
0.0
 40
0.0
 40
0.0555555555555556
 40
0.0833333333333333
 40
0.1055780811602082
 40
0.1055780811602082
 40
0.1055780811602082
 40
0.1055780811602082
 10
909.546875641956
 20
2031.499999999995
 30
0.0
 10
909.546875641956
 20
2031.448791292088
 30
0.0
 10
909.7668792997946
 20
2031.250203598396
 30
0.0
 10
910.4238755789481
 20
2030.761555463933
 30
0.0
 10
910.8362043639608
 20
2030.469020773012
 30
0.0
 10
911.038194839163
 20
2030.322809938684
 30
0.0
1001
REVIT
1002
{
1070
     3
1000
963222
1002
}
  0
SPLINE
  5
A8
330
87
100
AcDbEntity
  8
M-PIPE
100
AcDbSpline
210
0.0
220
0.0
230
1.0
 70
     8
 71
     3
 72
    10
 73
     6
 74
     0
 42
0.000000001
 43
0.0000000001
 40
0.8943899928546695
 40
0.8943899928546695
 40
0.8943899928546695
 40
0.8943899928546695
 40
0.9166666666666666
 40
0.9444444444444444
 40
1.0
 40
1.0
 40
1.0
 40
1.0
 10
958.0555158783978
 20
2030.322823608298
 30
0.0
 10
958.2577251933027
 20
2030.469198687343
 30
0.0
 10
958.6701499569201
 20
2030.761800424542
 30
0.0
 10
959.326973716945
 20
2031.250307495768
 30
0.0
 10
959.546875641956
 20
2031.448801910098
 30
0.0
 10
959.546875641956
 20
2031.499999999995
 30
0.0
1001
REVIT
1002
{
1070
     3
1000
963222
1002
}
  0
LINE
  5
A9
330
87
100
AcDbEntity
  8
M-PIPE
100
AcDbLine
 10
959.546875641956
 20
2031.499999999995
 30
0.0
 11
959.546875641956
 21
2043.562499999994
 31
0.0
1001
REVIT
1002
{
1070
     3
1000
963222
1002
}
  0
LINE
  5
AA
330
87
100
AcDbEntity
  8
M-PIPE
100
AcDbLine
 10
959.546875641956
 20
2043.562499999994
 30
0.0
 11
958.8077124445655
 21
2043.562499999994
 31
0.0
1001
REVIT
1002
{
1070
     3
1000
963222
1002
}
  0
LINE
  5
AB
330
87
100
AcDbEntity
  8
M-PIPE
100
AcDbLine
 10
984.546875641956
 20
2043.562499999994
 30
0.0
 11
995.6834210687453
 21
2049.992187499994
 31
0.0
1001
REVIT
1002
{
1070
     3
1000
963222
1002
}
  0
LINE
  5
AC
330
87
100
AcDbEntity
  8
M-PIPE
100
AcDbLine
 10
873.4103302151648
 20
2049.992187499995
 30
0.0
 11
884.546875641956
 21
2043.562499999994
 31
0.0
1001
REVIT
1002
{
1070
     3
1000
963222
1002
}
  0
LINE
  5
AD
330
87
100
AcDbEntity
  8
M-PIPE
100
AcDbLine
 10
884.546875641956
 20
2043.562499999994
 30
0.0
 11
909.5468756419558
 21
2043.562499999994
 31
0.0
1001
REVIT
1002
{
1070
     3
1000
963222
1002
}
  0
LINE
  5
AE
330
87
100
AcDbEntity
  8
M-PIPE
100
AcDbLine
 10
959.546875641956
 20
2043.562499999994
 30
0.0
 11
984.546875641956
 21
2043.562499999994
 31
0.0
1001
REVIT
1002
{
1070
     3
1000
963222
1002
}
  0
LINE
  5
AF
330
87
100
AcDbEntity
  8
M-PIPE
100
AcDbLine
 10
872.6406256419558
 20
2049.992187499995
 30
0.0
 11
873.4103302151648
 21
2049.992187499995
 31
0.0
1001
REVIT
1002
{
1070
     3
1000
963222
1002
}
  0
LINE
  5
B0
330
87
100
AcDbEntity
  8
M-PIPE
100
AcDbLine
 10
934.5468756419556
 20
1950.007812499994
 30
0.0
 11
872.6406256419558
 21
1950.007812499995
 31
0.0
1001
REVIT
1002
{
1070
     3
1000
963222
1002
}
  0
LINE
  5
B1
330
87
100
AcDbEntity
  8
M-PIPE
100
AcDbLine
 10
868.546875641956
 20
2049.992187499995
 30
0.0
 11
869.6406256419558
 21
2049.992187499995
 31
0.0
1001
REVIT
1002
{
1070
     3
1000
963222
1002
}
  0
LINE
  5
B2
330
87
100
AcDbEntity
  8
M-PIPE
100
AcDbLine
 10
869.6406256419558
 20
1950.007812499995
 30
0.0
 11
868.5468756419556
 21
1950.007812499995
 31
0.0
1001
REVIT
1002
{
1070
     3
1000
963222
1002
}
  0
ARC
  5
B3
330
87
100
AcDbEntity
  8
M-PIPE
100
AcDbCircle
 10
868.5468756419556
 20
1955.507812499995
 30
0.0
 40
5.500000000000113
100
AcDbArc
 50
180.0
 51
269.9999999999997
1001
REVIT
1002
{
1070
     3
1000
963222
1002
}
  0
ARC
  5
B4
330
87
100
AcDbEntity
  8
M-PIPE
100
AcDbCircle
 10
868.546875641956
 20
2044.492187499995
 30
0.0
 40
5.5
100
AcDbArc
 50
90.0
 51
180.0
1001
REVIT
1002
{
1070
     3
1000
963222
1002
}
  0
LINE
  5
B5
330
87
100
AcDbEntity
  8
M-PIPE
100
AcDbLine
 10
863.0468756419556
 20
1955.507812499995
 30
0.0
 11
863.0468756419556
 21
1968.499999999995
 31
0.0
1001
REVIT
1002
{
1070
     3
1000
963222
1002
}
  0
LINE
  5
B6
330
87
100
AcDbEntity
  8
M-PIPE
100
AcDbLine
 10
863.0468756419558
 20
1968.499999999995
 30
0.0
 11
863.0468756419558
 21
1999.999999999994
 31
0.0
1001
REVIT
1002
{
1070
     3
1000
963222
1002
}
  0
LINE
  5
B7
330
87
100
AcDbEntity
  8
M-PIPE
100
AcDbLine
 10
863.046875641956
 20
1999.999999999995
 30
0.0
 11
863.0468756419558
 21
2031.499999999995
 31
0.0
1001
REVIT
1002
{
1070
     3
1000
963222
1002
}
  0
LINE
  5
B8
330
87
100
AcDbEntity
  8
M-PIPE
100
AcDbLine
 10
863.0468756419558
 20
2031.499999999995
 30
0.0
 11
863.0468756419558
 21
2044.492187499995
 31
0.0
1001
REVIT
1002
{
1070
     3
1000
963222
1002
}
  0
LINE
  5
B9
330
87
100
AcDbEntity
  8
M-PIPE
100
AcDbLine
 10
999.4531256419561
 20
2048.141940303333
 30
0.0
 11
999.4531256419561
 21
2049.992187499995
 31
0.0
1001
REVIT
1002
{
1070
     3
1000
963222
1002
}
  0
LINE
  5
BA
330
87
100
AcDbEntity
  8
M-PIPE
100
AcDbLine
 10
999.4531256419561
 20
1950.007812499995
 30
0.0
 11
999.4531256419561
 21
1951.858059696657
 31
0.0
1001
REVIT
1002
{
1070
     3
1000
963222
1002
}
  0
ARC
  5
BB
330
87
100
AcDbEntity
  8
M-PIPE
100
AcDbCircle
 10
997.9531256419559
 20
1951.858059696657
 30
0.0
 40
1.499999999999929
100
AcDbArc
 50
359.9999999999953
 51
180.0000000000043
1001
REVIT
1002
{
1070
     3
1000
963222
1002
}
  0
ARC
  5
BC
330
87
100
AcDbEntity
  8
M-PIPE
100
AcDbCircle
 10
997.9531256419559
 20
2048.141940303333
 30
0.0
 40
1.5
100
AcDbArc
 50
180.0
 51
0.0
1001
REVIT
1002
{
1070
     3
1000
963222
1002
}
  0
LINE
  5
BD
330
87
100
AcDbEntity
  8
M-PIPE
100
AcDbLine
 10
996.453125641956
 20
1951.858059696657
 30
0.0
 11
996.453125641956
 21
1950.007812499995
 31
0.0
1001
REVIT
1002
{
1070
     3
1000
963222
1002
}
  0
LINE
  5
BE
330
87
100
AcDbEntity
  8
M-PIPE
100
AcDbLine
 10
996.453125641956
 20
2049.992187499995
 30
0.0
 11
996.453125641956
 21
2048.141940303333
 31
0.0
1001
REVIT
1002
{
1070
     3
1000
963222
1002
}
  0
LINE
  5
BF
330
87
100
AcDbEntity
  8
M-PIPE
100
AcDbLine
 10
863.0468756419556
 20
1968.499999999995
 30
0.0
 11
1006.046875641956
 21
1968.499999999995
 31
0.0
1001
REVIT
1002
{
1070
     3
1000
963222
1002
}
  0
LINE
  5
C0
330
87
100
AcDbEntity
  8
M-PIPE
100
AcDbLine
 10
1006.046875641956
 20
2031.499999999995
 30
0.0
 11
959.546875641956
 21
2031.499999999995
 31
0.0
1001
REVIT
1002
{
1070
     3
1000
963222
1002
}
  0
LINE
  5
C1
330
87
100
AcDbEntity
  8
M-PIPE
100
AcDbLine
 10
909.546875641956
 20
2031.499999999995
 30
0.0
 11
863.0468756419558
 21
2031.499999999995
 31
0.0
1001
REVIT
1002
{
1070
     3
1000
963222
1002
}
  0
LWPOLYLINE
  5
C2
330
87
100
AcDbEntity
  8
P-SANR-FIXT
100
AcDbPolyline
 90
       64
 70
   128
 43
0.0
 10
949.7406169521154
 20
2083.000002861019
 10
949.5279170687009
 20
2083.000002861019
 10
949.2912507147883
 20
2083.000002861019
 10
949.0309965060582
 20
2083.000002861019
 10
948.7475707937262
 20
2083.000002861019
 10
948.4414269984718
 20
2083.000002861019
 10
948.1130548850599
 20
2083.000002861019
 10
947.7629797788228
 20
2083.000002861019
 10
947.3917617252521
 20
2083.000002861019
 10
946.9999945940442
 20
2083.000002861019
 10
946.5883051290363
 20
2083.000002861019
 10
946.1573519455509
 20
2083.000002861019
 10
945.7078244767489
 20
2083.000002861019
 10
945.2404418706867
 20
2083.000002861019
 10
944.7559518398314
 20
2083.000002861019
 10
944.2551294648792
 20
2083.000002861019
 10
943.7387759547943
 20
2083.000002861019
 10
943.2077173650426
 20
2083.000002861019
 10
942.6628032760818
 20
2083.000002861019
 10
942.1049054342121
 20
2083.000002861019
 10
941.5349163569688
 20
2083.000002861019
 10
940.9537479052834
 20
2083.000002861019
 10
940.3623298247035
 20
2083.000002861019
 10
939.7616082579952
 20
2083.000002861019
 10
939.1525442315183
 20
2083.000002861019
 10
938.5361121177883
 20
2083.000002861019
 10
937.9132980766886
 20
2083.000002861019
 10
937.2850984778253
 20
2083.000002861019
 10
936.6525183065476
 20
2083.000002861019
 10
936.0165695561864
 20
2083.000002861019
 10
935.3782696090803
 20
2083.000002861019
 10
934.7386396089815
 20
2083.000002861019
 10
934.0987028274428
 20
2083.000002861019
 10
933.4594830268024
 20
2083.000002861019
 10
932.8220028223814
 20
2083.000002861019
 10
932.1872820465184
 20
2083.000002861019
 10
931.556336117055
 20
2083.000002861019
 10
930.9301744128838
 20
2083.000002861019
 10
930.3097986591573
 20
2083.000002861019
 10
929.6962013247417
 20
2083.000002861019
 10
929.0903640344785
 20
2083.000002861019
 10
928.4932559987932
 20
2083.000002861019
 10
927.9058324631673
 20
2083.000002861019
 10
927.329033179947
 20
2083.000002861019
 10
926.7637809049416
 20
2083.000002861019
 10
926.2109799212105
 20
2083.000002861019
 10
925.6715145924031
 20
2083.000002861019
 10
925.1462479479654
 20
2083.000002861019
 10
924.636020302478
 20
2083.000002861019
 10
924.1416479113306
 20
2083.000002861019
 10
923.6639216648889
 20
2083.000002861019
 10
923.2036058232374
 20
2083.000002861019
 10
922.761436793527
 20
2083.000002861019
 10
922.3381219518815
 20
2083.000002861019
 10
921.9343385117451
 20
2083.000002861019
 10
921.5507324404855
 20
2083.000002861019
 10
921.1879174259859
 20
2083.000002861019
 10
920.8464738948727
 20
2083.000002861019
 10
920.5269480839584
 20
2083.000002861019
 10
920.2298511663784
 20
2083.000002861019
 10
919.9556584338237
 20
2083.000002861019
 10
919.704808536175
 20
2083.000002861019
 10
919.4777027797568
 20
2083.000002861019
 10
919.3531343317996
 20
2083.000002861019
  0
ARC
  5
C3
330
87
100
AcDbEntity
  8
P-SANR-FIXT
100
AcDbCircle
 10
915.1035339194754
 20
2079.500002861018
 30
0.0
 40
3.5
100
AcDbArc
 50
90.0
 51
169.8393830430375
  0
ARC
  5
C4
330
87
100
AcDbEntity
  8
P-SANR-FIXT
100
AcDbCircle
 10
1108.521843498355
 20
2044.835791927422
 30
0.0
 40
200.0000000000001
100
AcDbArc
 50
169.8393830430387
 51
179.093482519637
  0
LINE
  5
C5
330
87
100
AcDbEntity
  8
P-SANR-FIXT
100
AcDbLine
 10
908.5468756419558
 20
2048.000002861018
 30
0.0
 11
911.3323914779689
 21
2048.000002861018
 31
0.0
  0
LINE
  5
C6
330
87
100
AcDbEntity
  8
P-SANR-FIXT
100
AcDbLine
 10
919.353134331798
 20
2083.000002861018
 30
0.0
 11
915.1035339194754
 21
2083.000002861018
 31
0.0
  0
ARC
  5
C7
330
87
100
AcDbEntity
  8
P-SANR-FIXT
100
AcDbCircle
 10
760.5719077855572
 20
2044.835791927422
 30
0.0
 40
200.0000000000001
100
AcDbArc
 50
0.9065174803621761
 51
10.1606169569605
  0
ARC
  5
C8
330
87
100
AcDbEntity
  8
P-SANR-FIXT
100
AcDbCircle
 10
953.9902173644364
 20
2079.500002861018
 30
0.0
 40
3.500000000000039
100
AcDbArc
 50
10.16061695695597
 51
89.99999999999813
  0
LINE
  5
C9
330
87
100
AcDbEntity
  8
P-SANR-FIXT
100
AcDbLine
 10
953.9902173644364
 20
2083.000002861018
 30
0.0
 11
949.740616952114
 21
2083.000002861018
 31
0.0
  0
LINE
  5
CA
330
87
100
AcDbEntity
  8
P-SANR-FIXT
100
AcDbLine
 10
957.7613598059429
 20
2048.000002861018
 30
0.0
 11
960.5468756419559
 21
2048.000002861018
 31
0.0
  0
SPLINE
  5
CB
330
87
100
AcDbEntity
  8
P-SANR-FIXT
100
AcDbSpline
210
0.0
220
0.0
230
1.0
 70
     8
 71
     3
 72
    11
 73
     7
 74
     0
 42
0.000000001
 43
0.0000000001
 40
0.0
 40
0.0
 40
0.0
 40
0.0
 40
0.2857142857142857
 40
0.4285714285714286
 40
0.5714285714285714
 40
1.0
 40
1.0
 40
1.0
 40
1.0
 10
915.7027843929729
 20
2079.500002861018
 30
0.0
 10
915.7047772233608
 20
2080.044757054235
 30
0.0
 10
915.8974674826991
 20
2080.834626579546
 30
0.0
 10
916.4963744146509
 20
2081.73308319284
 30
0.0
 10
917.479991673753
 20
2082.655326579567
 30
0.0
 10
918.5382248141161
 20
2082.999343535413
 30
0.0
 10
919.353134331798
 20
2083.000002861018
 30
0.0
  0
SPLINE
  5
CC
330
87
100
AcDbEntity
  8
P-SANR-FIXT
100
AcDbSpline
210
0.0
220
0.0
230
1.0
 70
     8
 71
     3
 72
    12
 73
     8
 74
     0
 42
0.000000001
 43
0.0000000001
 40
0.0
 40
0.0
 40
0.0
 40
0.0
 40
0.2857142857142857
 40
0.4285714285714286
 40
0.5714285714285714
 40
0.7857142857142857
 40
1.0
 40
1.0
 40
1.0
 40
1.0
 10
949.740616952114
 20
2083.000002861018
 30
0.0
 10
950.2838899639018
 20
2082.999563310615
 30
0.0
 10
951.0776564505968
 20
2082.831567314474
 30
0.0
 10
952.0084673520106
 20
2082.285578067542
 30
0.0
 10
952.6953900650468
 20
2081.641517810642
 30
0.0
 10
953.2466472036889
 20
2080.700189306408
 30
0.0
 10
953.389472268148
 20
2079.90856850593
 30
0.0
 10
953.3909668909389
 20
2079.500002861018
 30
0.0
  0
LINE
  5
CD
330
87
100
AcDbEntity
  8
P-SANR-FIXT
100
AcDbLine
 10
915.7027843929729
 20
2057.336393548137
 30
0.0
 11
915.7027843929729
 21
2079.500002861018
 31
0.0
  0
LINE
  5
CE
330
87
100
AcDbEntity
  8
P-SANR-FIXT
100
AcDbLine
 10
953.3909668909389
 20
2079.500002861018
 30
0.0
 11
953.3909668909389
 21
2057.336393548137
 31
0.0
  0
SPLINE
  5
CF
330
87
100
AcDbEntity
  8
P-SANR-FIXT
100
AcDbSpline
210
0.0
220
0.0
230
1.0
 70
     8
 71
     3
 72
     9
 73
     5
 74
     0
 42
0.000000001
 43
0.0000000001
 40
0.0
 40
0.0
 40
0.0
 40
0.0
 40
0.5
 40
1.0
 40
1.0
 40
1.0
 40
1.0
 10
914.7949046127187
 20
2055.215073204577
 30
0.0
 10
915.0820519838191
 20
2055.49380769365
 30
0.0
 10
915.5369268713602
 20
2056.151964784531
 30
0.0
 10
915.7016857119055
 20
2056.935390035324
 30
0.0
 10
915.7027843929729
 20
2057.336393548137
 30
0.0
  0
SPLINE
  5
D0
330
87
100
AcDbEntity
  8
P-SANR-FIXT
100
AcDbSpline
210
0.0
220
0.0
230
1.0
 70
     8
 71
     3
 72
     9
 73
     5
 74
     0
 42
0.000000001
 43
0.0000000001
 40
0.0
 40
0.0
 40
0.0
 40
0.0
 40
0.5
 40
1.0
 40
1.0
 40
1.0
 40
1.0
 10
953.3909668909389
 20
2057.336393548137
 30
0.0
 10
953.3920655720063
 20
2056.935390035324
 30
0.0
 10
953.5568244125515
 20
2056.151964784531
 30
0.0
 10
954.0116993000927
 20
2055.49380769365
 30
0.0
 10
954.298846671193
 20
2055.215073204577
 30
0.0
  0
ARC
  5
D1
330
87
100
AcDbEntity
  8
P-SANR-FIXT
100
AcDbCircle
 10
1671.916572944156
 20
1274.232457613102
 30
0.0
 40
1087.734832812243
100
AcDbArc
 50
134.1112293671888
 51
134.2995430392984
  0
ARC
  5
D2
330
87
100
AcDbEntity
  8
P-SANR-FIXT
100
AcDbCircle
 10
197.1771779582515
 20
1274.232457220867
 30
0.0
 40
1087.734833359413
100
AcDbArc
 50
45.70045696074902
 51
45.88877063276391
  0
SPLINE
  5
D3
330
87
100
AcDbEntity
  8
P-SANR-FIXT
100
AcDbSpline
210
0.0
220
0.0
230
1.0
 70
     8
 71
     3
 72
     9
 73
     5
 74
     0
 42
0.000000001
 43
0.0000000001
 40
0.0
 40
0.0
 40
0.0
 40
0.0
 40
0.5
 40
1.0
 40
1.0
 40
1.0
 40
1.0
 10
911.3323914779689
 20
2050.601112173898
 30
0.0
 10
911.3333247676031
 20
2051.000901142998
 30
0.0
 10
911.4951572858368
 20
2051.783021528457
 30
0.0
 10
911.9461864563177
 20
2052.442729874867
 30
0.0
 10
912.2321480106867
 20
2052.722432517458
 30
0.0
  0
SPLINE
  5
D4
330
87
100
AcDbEntity
  8
P-SANR-FIXT
100
AcDbSpline
210
0.0
220
0.0
230
1.0
 70
     8
 71
     3
 72
     9
 73
     5
 74
     0
 42
0.000000001
 43
0.0000000001
 40
0.0
 40
0.0
 40
0.0
 40
0.0
 40
0.5
 40
1.0
 40
1.0
 40
1.0
 40
1.0
 10
956.8616032732251
 20
2052.722432517458
 30
0.0
 10
957.147564827594
 20
2052.442729874867
 30
0.0
 10
957.598593998075
 20
2051.783021528457
 30
0.0
 10
957.7604265163087
 20
2051.000901142998
 30
0.0
 10
957.7613598059429
 20
2050.601112173898
 30
0.0
  0
LINE
  5
D5
330
87
100
AcDbEntity
  8
P-SANR-FIXT
100
AcDbLine
 10
911.3323914779689
 20
2048.000002861018
 30
0.0
 11
911.3323914779689
 21
2050.601112173898
 31
0.0
  0
LINE
  5
D6
330
87
100
AcDbEntity
  8
P-SANR-FIXT
100
AcDbLine
 10
957.7613598059429
 20
2050.601112173898
 30
0.0
 11
957.7613598059429
 21
2048.000002861018
 31
0.0
  0
LINE
  5
D7
330
87
100
AcDbEntity
  8
P-SANR-FIXT
100
AcDbLine
 10
911.3323914779689
 20
2048.000002861018
 30
0.0
 11
957.7613598059429
 21
2048.000002861018
 31
0.0
  0
LINE
  5
D8
330
87
100
AcDbEntity
  8
P-SANR-FIXT
100
AcDbLine
 10
887.0468756419574
 20
1975.499999999996
 30
0.0
 11
888.692323909148
 21
1972.649999999995
 31
0.0
  0
LINE
  5
D9
330
87
100
AcDbEntity
  8
P-SANR-FIXT
100
AcDbLine
 10
888.6923239091483
 20
2027.349999999996
 30
0.0
 11
887.0468756419578
 21
2024.499999999996
 31
0.0
  0
LINE
  5
DA
330
87
100
AcDbEntity
  8
P-SANR-FIXT
100
AcDbLine
 10
898.1968756419572
 20
1972.649999999995
 30
0.0
 11
898.2385109447617
 21
1972.6916353028
 31
0.0
  0
LINE
  5
DB
330
87
100
AcDbEntity
  8
P-SANR-FIXT
100
AcDbLine
 10
898.2442010332343
 20
1972.697325391273
 30
0.0
 11
902.0468756419575
 21
1976.499999999996
 31
0.0
  0
LINE
  5
DC
330
87
100
AcDbEntity
  8
P-SANR-FIXT
100
AcDbLine
 10
902.0468756419576
 20
2023.499999999996
 30
0.0
 11
898.1968756419574
 21
2027.349999999996
 31
0.0
  0
LINE
  5
DD
330
87
100
AcDbEntity
  8
P-SANR-FIXT
100
AcDbLine
 10
911.0468756419574
 20
2023.499999999997
 30
0.0
 11
902.0468756419576
 21
2023.499999999997
 31
0.0
  0
LINE
  5
DE
330
87
100
AcDbEntity
  8
P-SANR-FIXT
100
AcDbLine
 10
902.0468756419575
 20
1976.499999999995
 30
0.0
 11
914.8753027667037
 21
1976.499999999995
 31
0.0
  0
LINE
  5
DF
330
87
100
AcDbEntity
  8
P-SANR-FIXT
100
AcDbLine
 10
914.8753027667037
 20
1976.499999999996
 30
0.0
 11
915.8753027667035
 21
1977.499999999996
 31
0.0
  0
LINE
  5
E0
330
87
100
AcDbEntity
  8
P-SANR-FIXT
100
AcDbLine
 10
915.8753027667035
 20
1977.499999999996
 30
0.0
 11
936.8495675791518
 21
1977.499999999995
 31
0.0
  0
LWPOLYLINE
  5
E1
330
87
100
AcDbEntity
  8
P-SANR-FIXT
100
AcDbPolyline
 90
       16
 70
   128
 43
0.0
 10
949.3509646498225
 20
1981.292646598688
 10
948.5928702586647
 20
1980.807687940805
 10
947.8159890883242
 20
1980.353432888076
 10
947.0215639829474
 20
1979.930608151682
 10
946.2108658532345
 20
1979.539890161003
 10
945.3851916432538
 20
1979.181903981476
 10
944.5458622556067
 20
1978.857222314621
 10
943.6942204382656
 20
1978.566364581844
 10
942.8316286364648
 20
1978.309796093472
 10
941.9594668130772
 20
1978.087927304353
 10
941.0791302409689
 20
1977.901113157221
 10
940.1920272708606
 20
1977.749652514859
 10
939.2995770782652
 20
1977.633787681987
 10
938.4032073931125
 20
1977.553704017619
 10
937.5043522156826
 20
1977.509529638534
 10
936.8495675791518
 20
1977.499999999995
  0
LWPOLYLINE
  5
E2
330
87
100
AcDbEntity
  8
P-SANR-FIXT
100
AcDbPolyline
 90
       47
 70
   128
 43
0.0
 10
953.8368954549364
 20
1979.824393241824
 10
953.7936090199021
 20
1979.936305549657
 10
953.7458819107213
 20
1980.046397343863
 10
953.6937904805876
 20
1980.154492501058
 10
953.6374180646767
 20
1980.260418092049
 10
953.5768548468286
 20
1980.364004658486
 10
953.5121977152728
 20
1980.465086483961
 10
953.443550107627
 20
1980.563501859116
 10
953.3710218454187
 20
1980.659093340345
 10
953.294728958396
 20
1980.751708001669
 10
953.2147934989033
 20
1980.841197679387
 10
953.1313433466236
 20
1980.927419209105
 10
953.0445120039988
 20
1981.010234654768
 10
952.9544383826545
 20
1981.08951152933
 10
952.8612665811694
 20
1981.165123006702
 10
952.7651456545509
 20
1981.236948124651
 10
952.6662293757768
 20
1981.30487197831
 10
952.5646759897918
 20
1981.368785904002
 10
952.4606479603502
 20
1981.428587653081
 10
952.3543117101075
 20
1981.484181555505
 10
952.2458373543804
 20
1981.535478672889
 10
952.135398428998
 20
1981.58239694079
 10
952.0231716126817
 20
1981.624861299986
 10
951.9093364443975
 20
1981.662803816561
 10
951.7940750361306
 20
1981.696163790584
 10
951.6775717815473
 20
1981.724887853212
 10
951.5600130610014
 20
1981.748930052071
 10
951.4415869433682
 20
1981.768251924774
 10
951.3224828851731
 20
1981.782822560445
 10
951.2028914275015
 20
1981.792618649175
 10
951.0830038911747
 20
1981.797624519313
 10
950.9630120706756
 20
1981.797832162533
 10
950.8431079273201
 20
1981.793241246651
 10
950.72348328216
 20
1981.783859116154
 10
950.6043295091084
 20
1981.769700780448
 10
950.4858372287841
 20
1981.75078888985
 10
950.368196003559
 20
1981.727153699351
 10
950.2515940342977
 20
1981.698833020213
 10
950.1362178592776
 20
1981.665872159483
 10
950.0222520557658
 20
1981.628323847506
 10
949.9098789447373
 20
1981.58624815357
 10
949.7992782991975
 20
1981.539712389812
 10
949.690627056586
 20
1981.488791003526
 10
949.5840990357132
 20
1981.433565458066
 10
949.4798646586874
 20
1981.374124102526
 10
949.378090678277
 20
1981.310562030392
 10
949.3509646498225
 20
1981.292646598688
  0
LINE
  5
E3
330
87
100
AcDbEntity
  8
P-SANR-FIXT
100
AcDbLine
 10
953.8368954549364
 20
1979.824393241824
 30
0.0
 11
954.5679054768051
 21
1977.815959713344
 31
0.0
  0
LWPOLYLINE
  5
E4
330
87
100
AcDbEntity
  8
P-SANR-FIXT
100
AcDbPolyline
 90
       32
 70
   128
 43
0.0
 10
956.447290718377
 20
1976.499999999996
 10
956.3673120500036
 20
1976.501599786674
 10
956.2874613304385
 20
1976.506396587391
 10
956.2078663037992
 20
1976.514382728288
 10
956.1286543051485
 20
1976.525545433245
 10
956.0499520567868
 20
1976.539866844313
 10
955.9718854655226
 20
1976.557324050292
 10
955.8945794212487
 20
1976.577889123374
 10
955.8181575971447
 20
1976.601529163831
 10
955.7427422518269
 20
1976.62820635264
 10
955.6684540337597
 20
1976.65787801199
 10
955.595411788245
 20
1976.690496673556
 10
955.5237323672939
 20
1976.726010154437
 10
955.4535304426893
 20
1976.76436164064
 10
955.3849183225352
 20
1976.805489777969
 10
955.3180057715868
 20
1976.849328770176
 10
955.2528998356521
 20
1976.895808484227
 10
955.18970467034
 20
1976.944854562494
 10
955.1285213744341
 20
1976.996388541714
 10
955.069447828156
 20
1977.050327978514
 10
955.0125785365779
 20
1977.106586581301
 10
954.9580044784352
 20
1977.165074348313
 10
954.9058129605789
 20
1977.225697711599
 10
954.8560874783042
 20
1977.288359686709
 10
954.8089075817749
 20
1977.352960027851
 10
954.7643487487611
 20
1977.419395388259
 10
954.7224822638902
 20
1977.48755948553
 10
954.6833751046069
 20
1977.557343271648
 10
954.647089834024
 20
1977.628635107442
 10
954.6136845008335
 20
1977.701320941183
 10
954.5832125464425
 20
1977.775284491043
 10
954.5679054768051
 20
1977.815959713344
  0
LINE
  5
E5
330
87
100
AcDbEntity
  8
P-SANR-FIXT
100
AcDbLine
 10
956.447290718377
 20
1976.499999999996
 30
0.0
 11
967.0468756419577
 21
1976.499999999996
 31
0.0
  0
LINE
  5
E6
330
87
100
AcDbEntity
  8
P-SANR-FIXT
100
AcDbLine
 10
967.0468756419577
 20
2023.499999999995
 30
0.0
 11
958.0468756419575
 21
2023.499999999995
 31
0.0
  0
LINE
  5
E7
330
87
100
AcDbEntity
  8
P-SANR-FIXT
100
AcDbLine
 10
967.0468756419577
 20
1976.499999999996
 30
0.0
 11
970.8495502506805
 21
1972.697325391273
 31
0.0
  0
LINE
  5
E8
330
87
100
AcDbEntity
  8
P-SANR-FIXT
100
AcDbLine
 10
970.855240339153
 20
1972.6916353028
 30
0.0
 11
970.8968756419576
 21
1972.649999999995
 31
0.0
  0
LINE
  5
E9
330
87
100
AcDbEntity
  8
P-SANR-FIXT
100
AcDbLine
 10
970.8968756419581
 20
2027.349999999996
 30
0.0
 11
967.0468756419577
 21
2023.499999999995
 31
0.0
  0
LINE
  5
EA
330
87
100
AcDbEntity
  8
P-SANR-FIXT
100
AcDbLine
 10
970.8968756419578
 20
1972.649999999995
 30
0.0
 11
980.401427374767
 21
1972.649999999995
 31
0.0
  0
LINE
  5
EB
330
87
100
AcDbEntity
  8
P-SANR-FIXT
100
AcDbLine
 10
980.4014273747672
 20
2027.349999999996
 30
0.0
 11
970.8968756419581
 21
2027.349999999996
 31
0.0
  0
LINE
  5
EC
330
87
100
AcDbEntity
  8
P-SANR-FIXT
100
AcDbLine
 10
980.401427374767
 20
1972.649999999995
 30
0.0
 11
982.0468756419575
 21
1975.499999999996
 31
0.0
  0
LINE
  5
ED
330
87
100
AcDbEntity
  8
P-SANR-FIXT
100
AcDbLine
 10
982.0468756419577
 20
2024.499999999996
 30
0.0
 11
980.4014273747672
 21
2027.349999999996
 31
0.0
  0
LINE
  5
EE
330
87
100
AcDbEntity
  8
P-SANR-FIXT
100
AcDbLine
 10
888.6923239091482
 20
1972.649999999995
 30
0.0
 11
898.1968756419572
 21
1972.649999999995
 31
0.0
  0
LINE
  5
EF
330
87
100
AcDbEntity
  8
P-SANR-FIXT
100
AcDbLine
 10
898.1968756419574
 20
2027.349999999996
 30
0.0
 11
888.6923239091482
 21
2027.349999999996
 31
0.0
  0
LINE
  5
F0
330
87
100
AcDbEntity
  8
P-SANR-FIXT
100
AcDbLine
 10
910.2968756419576
 20
2044.499999999996
 30
0.0
 11
910.2968756419576
 21
2038.449999999996
 31
0.0
  0
LINE
  5
F1
330
87
100
AcDbEntity
  8
P-SANR-FIXT
100
AcDbLine
 10
958.7968756419575
 20
2038.449999999996
 30
0.0
 11
958.7968756419575
 21
2044.499999999996
 31
0.0
  0
LINE
  5
F2
330
87
100
AcDbEntity
  8
P-SANR-FIXT
100
AcDbLine
 10
910.2968756419576
 20
2038.449999999996
 30
0.0
 11
911.0468756419574
 21
2037.699999999996
 31
0.0
  0
LINE
  5
F3
330
87
100
AcDbEntity
  8
P-SANR-FIXT
100
AcDbLine
 10
958.0468756419575
 20
2037.699999999996
 30
0.0
 11
958.7968756419575
 21
2038.449999999996
 31
0.0
  0
LINE
  5
F4
330
87
100
AcDbEntity
  8
P-SANR-FIXT
100
AcDbLine
 10
911.0468756419574
 20
2037.699999999996
 30
0.0
 11
911.0468756419574
 21
2023.499999999997
 31
0.0
  0
LINE
  5
F5
330
87
100
AcDbEntity
  8
P-SANR-FIXT
100
AcDbLine
 10
958.0468756419575
 20
2023.499999999995
 30
0.0
 11
958.0468756419575
 21
2037.699999999996
 31
0.0
  0
LINE
  5
F6
330
87
100
AcDbEntity
  8
P-SANR-FIXT
100
AcDbLine
 10
915.3832871154142
 20
2048.000002861019
 30
0.0
 11
915.3832871154142
 21
2047.299999999996
 31
0.0
  0
LINE
  5
F7
330
87
100
AcDbEntity
  8
P-SANR-FIXT
100
AcDbLine
 10
953.710464168501
 20
2047.299999999996
 30
0.0
 11
953.710464168501
 21
2048.000002861019
 31
0.0
  0
LINE
  5
F8
330
87
100
AcDbEntity
  8
P-SANR-FIXT
100
AcDbLine
 10
911.3832871154142
 20
2047.299999999996
 30
0.0
 11
910.7968756419575
 21
2046.753162454313
 31
0.0
  0
LINE
  5
F9
330
87
100
AcDbEntity
  8
P-SANR-FIXT
100
AcDbLine
 10
958.2968756419576
 20
2046.753162454313
 30
0.0
 11
957.7104641685009
 21
2047.299999999996
 31
0.0
  0
LINE
  5
FA
330
87
100
AcDbEntity
  8
P-SANR-FIXT
100
AcDbLine
 10
910.7968756419575
 20
2046.753162454313
 30
0.0
 11
910.7968756419575
 21
2044.499999999996
 31
0.0
  0
LINE
  5
FB
330
87
100
AcDbEntity
  8
P-SANR-FIXT
100
AcDbLine
 10
958.2968756419576
 20
2044.499999999996
 30
0.0
 11
958.2968756419576
 21
2046.753162454313
 31
0.0
  0
ARC
  5
FC
330
87
100
AcDbEntity
  8
P-SANR-FIXT
100
AcDbCircle
 10
962.0468756419557
 20
1999.999999999995
 30
0.0
 40
9.000000000000218
100
AcDbArc
 50
327.2660444507311
 51
332.7339555492661
  0
LINE
  5
FD
330
87
100
AcDbEntity
  8
P-SANR-FIXT
100
AcDbLine
 10
970.0468756419557
 20
1995.876894374377
 30
0.0
 11
970.0468756419558
 21
2004.123105625613
 31
0.0
  0
ARC
  5
FE
330
87
100
AcDbEntity
  8
P-SANR-FIXT
100
AcDbCircle
 10
962.0468756419557
 20
1999.999999999995
 30
0.0
 40
9.000000000000046
100
AcDbArc
 50
27.26604445073157
 51
32.73395554926819
  0
LINE
  5
FF
330
87
100
AcDbEntity
  8
P-SANR-FIXT
100
AcDbLine
 10
969.6175898562271
 20
2004.866650417462
 30
0.0
 11
962.4761614276843
 21
2008.989756043079
 31
0.0
  0
ARC
  5
100
330
87
100
AcDbEntity
  8
P-SANR-FIXT
100
AcDbCircle
 10
962.0468756419557
 20
1999.999999999995
 30
0.0
 40
8.999999999999964
100
AcDbArc
 50
87.26604445073222
 51
92.73395554926633
  0
LINE
  5
101
330
87
100
AcDbEntity
  8
P-SANR-FIXT
100
AcDbLine
 10
961.6175898562273
 20
2008.989756043079
 30
0.0
 11
954.4761614276842
 21
2004.866650417462
 31
0.0
  0
ARC
  5
102
330
87
100
AcDbEntity
  8
P-SANR-FIXT
100
AcDbCircle
 10
962.0468756419557
 20
1999.999999999995
 30
0.0
 40
9.000000000000062
100
AcDbArc
 50
147.266044450732
 51
152.7339555492657
  0
LINE
  5
103
330
87
100
AcDbEntity
  8
P-SANR-FIXT
100
AcDbLine
 10
954.0468756419558
 20
2004.123105625613
 30
0.0
 11
954.0468756419558
 21
1995.876894374377
 31
0.0
  0
ARC
  5
104
330
87
100
AcDbEntity
  8
P-SANR-FIXT
100
AcDbCircle
 10
962.0468756419557
 20
1999.999999999995
 30
0.0
 40
8.999999999999948
100
AcDbArc
 50
207.2660444507326
 51
212.7339555492652
  0
LINE
  5
105
330
87
100
AcDbEntity
  8
P-SANR-FIXT
100
AcDbLine
 10
954.4761614276842
 20
1995.133349582528
 30
0.0
 11
961.6175898562271
 21
1991.010243956911
 31
0.0
  0
ARC
  5
106
330
87
100
AcDbEntity
  8
P-SANR-FIXT
100
AcDbCircle
 10
962.0468756419557
 20
1999.999999999995
 30
0.0
 40
9.000000000000071
100
AcDbArc
 50
267.2660444507326
 51
272.7339555492674
  0
LINE
  5
107
330
87
100
AcDbEntity
  8
P-SANR-FIXT
100
AcDbLine
 10
962.4761614276843
 20
1991.010243956911
 30
0.0
 11
969.6175898562271
 21
1995.133349582528
 31
0.0
  0
ARC
  5
108
330
87
100
AcDbEntity
  8
P-SANR-FIXT
100
AcDbCircle
 10
907.0468756419558
 20
1999.999999999995
 30
0.0
 40
9.0
100
AcDbArc
 50
147.2660444507322
 51
152.7339555492691
  0
LINE
  5
109
330
87
100
AcDbEntity
  8
P-SANR-FIXT
100
AcDbLine
 10
899.0468756419558
 20
1995.876894374377
 30
0.0
 11
899.0468756419558
 21
2004.123105625613
 31
0.0
  0
ARC
  5
10A
330
87
100
AcDbEntity
  8
P-SANR-FIXT
100
AcDbCircle
 10
907.0468756419558
 20
1999.999999999995
 30
0.0
 40
8.999999999999996
100
AcDbArc
 50
207.2660444507324
 51
212.7339555492678
  0
LINE
  5
10B
330
87
100
AcDbEntity
  8
P-SANR-FIXT
100
AcDbLine
 10
906.6175898562271
 20
1991.010243956911
 30
0.0
 11
899.4761614276843
 21
1995.133349582528
 31
0.0
  0
ARC
  5
10C
330
87
100
AcDbEntity
  8
P-SANR-FIXT
100
AcDbCircle
 10
907.0468756419558
 20
1999.999999999995
 30
0.0
 40
8.999999999999964
100
AcDbArc
 50
267.2660444507319
 51
272.7339555492667
  0
LINE
  5
10D
330
87
100
AcDbEntity
  8
P-SANR-FIXT
100
AcDbLine
 10
914.6175898562272
 20
1995.133349582528
 30
0.0
 11
907.4761614276843
 21
1991.010243956911
 31
0.0
  0
ARC
  5
10E
330
87
100
AcDbEntity
  8
P-SANR-FIXT
100
AcDbCircle
 10
907.0468756419558
 20
1999.999999999995
 30
0.0
 40
9.0
100
AcDbArc
 50
327.2660444507331
 51
332.7339555492657
  0
LINE
  5
10F
330
87
100
AcDbEntity
  8
P-SANR-FIXT
100
AcDbLine
 10
915.0468756419556
 20
2004.123105625613
 30
0.0
 11
915.0468756419556
 21
1995.876894374377
 31
0.0
  0
ARC
  5
110
330
87
100
AcDbEntity
  8
P-SANR-FIXT
100
AcDbCircle
 10
907.0468756419558
 20
1999.999999999995
 30
0.0
 40
8.999999999999895
100
AcDbArc
 50
27.26604445073387
 51
32.73395554926754
  0
LINE
  5
111
330
87
100
AcDbEntity
  8
P-SANR-FIXT
100
AcDbLine
 10
907.4761614276843
 20
2008.989756043079
 30
0.0
 11
914.6175898562272
 21
2004.866650417462
 31
0.0
  0
ARC
  5
112
330
87
100
AcDbEntity
  8
P-SANR-FIXT
100
AcDbCircle
 10
907.0468756419558
 20
1999.999999999995
 30
0.0
 40
8.999999999999952
100
AcDbArc
 50
87.26604445073368
 51
92.73395554926777
  0
LINE
  5
113
330
87
100
AcDbEntity
  8
P-SANR-FIXT
100
AcDbLine
 10
899.4761614276843
 20
2004.866650417462
 30
0.0
 11
906.6175898562271
 21
2008.989756043079
 31
0.0
  0
LINE
  5
114
330
87
100
AcDbEntity
  8
P-SANR-FIXT
100
AcDbLine
 10
887.0468756419558
 20
1975.499999999995
 30
0.0
 11
887.046875641956
 21
2024.499999999995
 31
0.0
  0
SPLINE
  5
115
330
87
100
AcDbEntity
  8
P-SANR-FIXT
100
AcDbSpline
210
0.0
220
0.0
230
1.0
 70
     8
 71
     3
 72
     9
 73
     5
 74
     0
 42
0.000000001
 43
0.0000000001
 40
-1.0
 40
-1.0
 40
-1.0
 40
-1.0
 40
-0.5
 40
0.0
 40
0.0
 40
0.0
 40
0.0
 10
888.6923239091466
 20
1972.839137785018
 30
0.0
 10
887.8369006590698
 20
1974.660760588262
 30
0.0
 10
886.9814774089929
 20
1978.28233092477
 30
0.0
 10
887.8369006590697
 20
1981.860550721321
 30
0.0
 10
888.6923239091464
 20
1983.638822984607
 30
0.0
  0
SPLINE
  5
116
330
87
100
AcDbEntity
  8
P-SANR-FIXT
100
AcDbSpline
210
0.0
220
0.0
230
1.0
 70
     8
 71
     3
 72
     9
 73
     5
 74
     0
 42
0.000000001
 43
0.0000000001
 40
-1.0
 40
-1.0
 40
-1.0
 40
-1.0
 40
-0.5
 40
0.0
 40
0.0
 40
0.0
 40
0.0
 10
888.6923239091464
 20
1988.90844916163
 30
0.0
 10
887.7878383796868
 20
1992.647175929708
 30
0.0
 10
886.8833528502273
 20
2000.083086310574
 30
0.0
 10
887.7878383796868
 20
2007.435910380861
 30
0.0
 10
888.6923239091466
 20
2011.09155083836
 30
0.0
  0
SPLINE
  5
117
330
87
100
AcDbEntity
  8
P-SANR-FIXT
100
AcDbSpline
210
0.0
220
0.0
230
1.0
 70
     8
 71
     3
 72
     9
 73
     5
 74
     0
 42
0.000000001
 43
0.0000000001
 40
-1.0
 40
-1.0
 40
-1.0
 40
-1.0
 40
-0.5
 40
0.0
 40
0.0
 40
0.0
 40
0.0
 10
888.6923239091466
 20
2015.85299932797
 30
0.0
 10
887.7387753091877
 20
2017.768297269955
 30
0.0
 10
886.7852267092288
 20
2021.579345627295
 30
0.0
 10
887.7387753091877
 20
2025.351298931375
 30
0.0
 10
888.6923239091467
 20
2027.2275018201
 30
0.0
  0
SPLINE
  5
118
330
87
100
AcDbEntity
  8
P-SANR-FIXT
100
AcDbSpline
210
0.0
220
0.0
230
1.0
 70
     8
 71
     3
 72
     9
 73
     5
 74
     0
 42
0.000000001
 43
0.0000000001
 40
-1.0
 40
-1.0
 40
-1.0
 40
-1.0
 40
-0.5
 40
0.0
 40
0.0
 40
0.0
 40
0.0
 10
902.0468756419559
 20
1992.516685226447
 30
0.0
 10
901.6751945633588
 20
1992.7650250931
 30
0.0
 10
900.9403539715835
 20
1993.336169193482
 30
0.0
 10
900.2594638902005
 20
1994.067373198757
 30
0.0
 10
899.9433592005296
 20
1994.473694347356
 30
0.0
  0
SPLINE
  5
119
330
87
100
AcDbEntity
  8
P-SANR-FIXT
100
AcDbSpline
210
0.0
220
0.0
230
1.0
 70
     8
 71
     3
 72
     9
 73
     5
 74
     0
 42
0.000000001
 43
0.0000000001
 40
-1.0
 40
-1.0
 40
-1.0
 40
-1.0
 40
-0.5
 40
0.0
 40
0.0
 40
0.0
 40
0.0
 10
899.9433592005296
 20
1994.473694347356
 30
0.0
 10
899.7415690501444
 20
1993.549925343317
 30
0.0
 10
899.2486983066637
 20
1991.69861547499
 30
0.0
 10
898.5772466777616
 20
1989.839761886167
 30
0.0
 10
898.1968756419556
 20
1988.90844916163
 30
0.0
  0
LINE
  5
11A
330
87
100
AcDbEntity
  8
P-SANR-FIXT
100
AcDbLine
 10
898.1968756419556
 20
1988.90844916163
 30
0.0
 11
898.1968756419556
 21
1983.638822984607
 31
0.0
  0
SPLINE
  5
11B
330
87
100
AcDbEntity
  8
P-SANR-FIXT
100
AcDbSpline
210
0.0
220
0.0
230
1.0
 70
     8
 71
     3
 72
    10
 73
     6
 74
     0
 42
0.000000001
 43
0.0000000001
 40
-1.0
 40
-1.0
 40
-1.0
 40
-1.0
 40
-0.6666666666666666
 40
-0.3333333333333333
 40
0.0
 40
0.0
 40
0.0
 40
0.0
 10
898.1968756419556
 20
1983.638822984607
 30
0.0
 10
899.1808008082342
 20
1982.44821968596
 30
0.0
 10
900.4924893010219
 20
1980.059829864329
 30
0.0
 10
900.4743864785938
 20
1976.379387358233
 30
0.0
 10
899.1728609738359
 20
1974.013136706353
 30
0.0
 10
898.1968756419556
 20
1972.839137785018
 30
0.0
  0
LINE
  5
11C
330
87
100
AcDbEntity
  8
P-SANR-FIXT
100
AcDbLine
 10
898.1968756419556
 20
1972.839137785018
 30
0.0
 11
898.1968756419556
 21
1972.649999999994
 31
0.0
  0
LINE
  5
11D
330
87
100
AcDbEntity
  8
P-SANR-FIXT
100
AcDbLine
 10
898.196875641956
 20
2027.349999999995
 30
0.0
 11
898.196875641956
 21
2027.2275018201
 31
0.0
  0
SPLINE
  5
11E
330
87
100
AcDbEntity
  8
P-SANR-FIXT
100
AcDbSpline
210
0.0
220
0.0
230
1.0
 70
     8
 71
     3
 72
    10
 73
     6
 74
     0
 42
0.000000001
 43
0.0000000001
 40
-1.0
 40
-1.0
 40
-1.0
 40
-1.0
 40
-0.6666666666666666
 40
-0.3333333333333333
 40
0.0
 40
0.0
 40
0.0
 40
0.0
 10
898.1968756419558
 20
2027.2275018201
 30
0.0
 10
899.2927411583407
 20
2025.978225339217
 30
0.0
 10
900.7536075069502
 20
2023.468627318112
 30
0.0
 10
900.7290114451844
 20
2019.562530286928
 30
0.0
 10
899.281953411952
 20
2017.081128576124
 30
0.0
 10
898.1968756419556
 20
2015.85299932797
 30
0.0
  0
LINE
  5
11F
330
87
100
AcDbEntity
  8
P-SANR-FIXT
100
AcDbLine
 10
898.1968756419556
 20
2015.85299932797
 30
0.0
 11
898.1968756419556
 21
2011.09155083836
 31
0.0
  0
SPLINE
  5
120
330
87
100
AcDbEntity
  8
P-SANR-FIXT
100
AcDbSpline
210
0.0
220
0.0
230
1.0
 70
     8
 71
     3
 72
     9
 73
     5
 74
     0
 42
0.000000001
 43
0.0000000001
 40
-1.0
 40
-1.0
 40
-1.0
 40
-1.0
 40
-0.5
 40
0.0
 40
0.0
 40
0.0
 40
0.0
 10
898.1968756419556
 20
2011.09155083836
 30
0.0
 10
898.5801115494778
 20
2010.15114233621
 30
0.0
 10
899.2544280500958
 20
2008.283192969773
 30
0.0
 10
899.7444339218604
 20
2006.44097887906
 30
0.0
 10
899.9433592005296
 20
2005.526305652634
 30
0.0
  0
SPLINE
  5
121
330
87
100
AcDbEntity
  8
P-SANR-FIXT
100
AcDbSpline
210
0.0
220
0.0
230
1.0
 70
     8
 71
     3
 72
     9
 73
     5
 74
     0
 42
0.000000001
 43
0.0000000001
 40
-1.0
 40
-1.0
 40
-1.0
 40
-1.0
 40
-0.5
 40
0.0
 40
0.0
 40
0.0
 40
0.0
 10
899.9433592005296
 20
2005.526305652634
 30
0.0
 10
900.2594638902007
 20
2005.932626801233
 30
0.0
 10
900.9403539715837
 20
2006.663830806508
 30
0.0
 10
901.6751945633588
 20
2007.23497490689
 30
0.0
 10
902.0468756419559
 20
2007.483314773543
 30
0.0
  0
LINE
  5
122
330
87
100
AcDbEntity
  8
P-SANR-FIXT
100
AcDbLine
 10
902.0468756419559
 20
2007.483314773543
 30
0.0
 11
902.046875641956
 21
2023.499999999996
 31
0.0
  0
SPLINE
  5
123
330
87
100
AcDbEntity
  8
P-SANR-FIXT
100
AcDbSpline
210
0.0
220
0.0
230
1.0
 70
     8
 71
     3
 72
     9
 73
     5
 74
     0
 42
0.000000001
 43
0.0000000001
 40
0.0714285714285714
 40
0.0714285714285714
 40
0.0714285714285714
 40
0.0714285714285714
 40
0.2857142857142857
 40
0.3282770791583273
 40
0.3282770791583273
 40
0.3282770791583273
 40
0.3282770791583273
 10
902.9641514079903
 20
2008.022212791311
 30
0.0
 10
903.907962191576
 20
2008.50391523299
 30
0.0
 10
905.1264954668088
 20
2008.868590709781
 30
0.0
 10
906.404781601136
 20
2008.98107772968
 30
0.0
 10
906.6171587005159
 20
2008.992167038092
 30
0.0
  0
SPLINE
  5
124
330
87
100
AcDbEntity
  8
P-SANR-FIXT
100
AcDbSpline
210
0.0
220
0.0
230
1.0
 70
     8
 71
     3
 72
    10
 73
     6
 74
     0
 42
0.000000001
 43
0.0000000001
 40
0.3858441479530347
 40
0.3858441479530347
 40
0.3858441479530347
 40
0.3858441479530347
 40
0.4285714285714286
 40
0.5714285714285714
 40
0.6428571428571427
 40
0.6428571428571427
 40
0.6428571428571427
 40
0.6428571428571427
 10
907.476444788482
 20
2008.989131044208
 30
0.0
 10
907.6894184182203
 20
2008.979127339717
 30
0.0
 10
908.6149604238626
 20
2008.905578023608
 30
0.0
 10
909.8388570541287
 20
2008.57707716767
 30
0.0
 10
910.8508510971287
 20
2008.197470772072
 30
0.0
 10
911.17571630155
 20
2008.050388611932
 30
0.0
  0
SPLINE
  5
125
330
87
100
AcDbEntity
  8
P-SANR-FIXT
100
AcDbSpline
210
0.0
220
0.0
230
1.0
 70
     8
 71
     3
 72
     9
 73
     5
 74
     0
 42
0.000000001
 43
0.0000000001
 40
0.7142857142857141
 40
0.7142857142857141
 40
0.7142857142857141
 40
0.7142857142857141
 40
0.7857142857142857
 40
0.8571428571428569
 40
0.8571428571428569
 40
0.8571428571428569
 40
0.8571428571428569
 10
912.0484570999513
 20
2007.480875533719
 30
0.0
 10
912.3393448867782
 20
2007.286613321348
 30
0.0
 10
912.9120806882333
 20
2006.879388548659
 30
0.0
 10
913.3688240428655
 20
2006.3583405474
 30
0.0
 10
913.5851917234772
 20
2006.085887684466
 30
0.0
  0
SPLINE
  5
126
330
87
100
AcDbEntity
  8
P-SANR-FIXT
100
AcDbSpline
210
0.0
220
0.0
230
1.0
 70
     8
 71
     3
 72
     8
 73
     4
 74
     0
 42
0.000000001
 43
0.0000000001
 40
0.9285714285714282
 40
0.9285714285714282
 40
0.9285714285714282
 40
0.9285714285714282
 40
0.965610938455848
 40
0.965610938455848
 40
0.965610938455848
 40
0.965610938455848
 10
914.3001089012427
 20
2005.327436856653
 30
0.0
 10
914.4073761516558
 20
2005.181161995596
 30
0.0
 10
914.5066491418196
 20
2005.027691550159
 30
0.0
 10
914.6040362115083
 20
2004.872509557829
 30
0.0
  0
SPLINE
  5
127
330
87
100
AcDbEntity
  8
P-SANR-FIXT
100
AcDbSpline
210
0.0
220
0.0
230
1.0
 70
     8
 71
     3
 72
    10
 73
     6
 74
     0
 42
0.000000001
 43
0.0000000001
 40
0.0
 40
0.0
 40
0.0
 40
0.0
 40
0.3333333333333333
 40
0.6666666666666666
 40
1.0
 40
1.0
 40
1.0
 40
1.0
 10
914.8753027667023
 20
2019.67157287525
 30
0.0
 10
914.093177194397
 20
2020.432007045364
 30
0.0
 10
912.7653196175591
 20
2021.793648716853
 30
0.0
 10
911.3663747892063
 20
2023.170713532423
 30
0.0
 10
911.0616509277358
 20
2023.499999999996
 30
0.0
 10
911.0468756419558
 20
2023.499999999996
 30
0.0
  0
SPLINE
  5
128
330
87
100
AcDbEntity
  8
P-SANR-FIXT
100
AcDbSpline
210
0.0
220
0.0
230
1.0
 70
     8
 71
     3
 72
     8
 73
     4
 74
     0
 42
0.000000001
 43
0.0000000001
 40
0.0343890615441614
 40
0.0343890615441614
 40
0.0343890615441614
 40
0.0343890615441614
 40
0.0714285714285714
 40
0.0714285714285714
 40
0.0714285714285714
 40
0.0714285714285714
 10
914.6094580225051
 20
1995.1221460658
 30
0.0
 10
914.5101003050424
 20
1994.968306001527
 30
0.0
 10
914.4065633403586
 20
1994.818037167964
 30
0.0
 10
914.2989685266638
 20
1994.671446261184
 30
0.0
  0
SPLINE
  5
129
330
87
100
AcDbEntity
  8
P-SANR-FIXT
100
AcDbSpline
210
0.0
220
0.0
230
1.0
 70
     8
 71
     3
 72
     8
 73
     4
 74
     0
 42
0.000000001
 43
0.0000000001
 40
0.1428571428571428
 40
0.1428571428571428
 40
0.1428571428571428
 40
0.1428571428571428
 40
0.2857142857142857
 40
0.2857142857142857
 40
0.2857142857142857
 40
0.2857142857142857
 10
913.6321239910115
 20
1993.865015694753
 30
0.0
 10
913.158536964298
 20
1993.355789813003
 30
0.0
 10
912.6280584796065
 20
1992.904552917838
 30
0.0
 10
912.0476127380419
 20
1992.517177771996
 30
0.0
  0
SPLINE
  5
12A
330
87
100
AcDbEntity
  8
P-SANR-FIXT
100
AcDbSpline
210
0.0
220
0.0
230
1.0
 70
     8
 71
     3
 72
    10
 73
     6
 74
     0
 42
0.000000001
 43
0.0000000001
 40
0.3571428571428571
 40
0.3571428571428571
 40
0.3571428571428571
 40
0.3571428571428571
 40
0.4285714285714286
 40
0.5714285714285714
 40
0.6141558520469537
 40
0.6141558520469537
 40
0.6141558520469537
 40
0.6141558520469537
 10
911.141823275968
 20
1991.986153268486
 30
0.0
 10
910.8289754373245
 20
1991.826281659753
 30
0.0
 10
909.8599443345973
 20
1991.399360898966
 30
0.0
 10
908.6145380568664
 20
1991.098206153038
 30
0.0
 10
907.6883194566587
 20
1991.020036917201
 30
0.0
 10
907.4748687697988
 20
1991.009741092947
 30
0.0
  0
SPLINE
  5
12B
330
87
100
AcDbEntity
  8
P-SANR-FIXT
100
AcDbSpline
210
0.0
220
0.0
230
1.0
 70
     8
 71
     3
 72
    11
 73
     7
 74
     0
 42
0.000000001
 43
0.0000000001
 40
0.6717229208416679
 40
0.6717229208416679
 40
0.6717229208416679
 40
0.6717229208416679
 40
0.6785714285714287
 40
0.7321428571428572
 40
0.7857142857142857
 40
0.9285714285714282
 40
0.9285714285714282
 40
0.9285714285714282
 40
0.9285714285714282
 10
906.6141425842923
 20
1991.011439157129
 30
0.0
 10
906.5801466643989
 20
1991.01303158171
 30
0.0
 10
906.2804714003831
 20
1991.028673404142
 30
0.0
 10
905.7210022628302
 20
1991.087245190234
 30
0.0
 10
904.4883247559061
 20
1991.318775795967
 30
0.0
 10
903.6113768077353
 20
1991.718574397108
 30
0.0
 10
902.9842645750106
 20
1992.034702848191
 30
0.0
  0
LINE
  5
12C
330
87
100
AcDbEntity
  8
P-SANR-FIXT
100
AcDbLine
 10
902.0468756419559
 20
1976.499999999994
 30
0.0
 11
902.0468756419559
 21
1992.516685226447
 31
0.0
  0
SPLINE
  5
12D
330
87
100
AcDbEntity
  8
P-SANR-FIXT
100
AcDbSpline
210
0.0
220
0.0
230
1.0
 70
     8
 71
     3
 72
     8
 73
     4
 74
     0
 42
0.000000001
 43
0.0000000001
 40
-1.0
 40
-1.0
 40
-1.0
 40
-1.0
 40
-0.8661873854118338
 40
-0.8661873854118338
 40
-0.8661873854118338
 40
-0.8661873854118338
 10
915.8753027667017
 20
1998.251036163019
 30
0.0
 10
915.8499475180702
 20
1998.123047830704
 30
0.0
 10
915.8218524082572
 20
1997.995860278357
 30
0.0
 10
915.7910816032797
 20
1997.869580892358
 30
0.0
  0
LINE
  5
12E
330
87
100
AcDbEntity
  8
P-SANR-FIXT
100
AcDbLine
 10
914.8753027667021
 20
1976.499999999995
 30
0.0
 11
914.8753027667019
 21
1995.496324545144
 31
0.0
  0
SPLINE
  5
12F
330
87
100
AcDbEntity
  8
P-SANR-FIXT
100
AcDbSpline
210
0.0
220
0.0
230
1.0
 70
     8
 71
     3
 72
     8
 73
     4
 74
     0
 42
0.000000001
 43
0.0000000001
 40
-0.5
 40
-0.5
 40
-0.5
 40
-0.5
 40
-0.3805923276109
 40
-0.3805923276109
 40
-0.3805923276109
 40
-0.3805923276109
 10
915.4796640565717
 20
2003.144531690775
 30
0.0
 10
915.5197615529598
 20
2003.036999360185
 30
0.0
 10
915.5546574843899
 20
2002.927353992292
 30
0.0
 10
915.5866065957834
 20
2002.816500010618
 30
0.0
  0
SPLINE
  5
130
330
87
100
AcDbEntity
  8
P-SANR-FIXT
100
AcDbSpline
210
0.0
220
0.0
230
1.0
 70
     8
 71
     3
 72
     9
 73
     5
 74
     0
 42
0.000000001
 43
0.0000000001
 40
-1.0
 40
-1.0
 40
-1.0
 40
-1.0
 40
-0.5
 40
0.0
 40
0.0
 40
0.0
 40
0.0
 10
915.8753027667021
 20
2017.396195953016
 30
0.0
 10
915.7099915465799
 20
2017.787887145784
 30
0.0
 10
915.3769134118924
 20
2018.558807825591
 30
0.0
 10
915.0421872558405
 20
2019.304805093939
 30
0.0
 10
914.8753027667023
 20
2019.671572875248
 30
0.0
  0
LINE
  5
131
330
87
100
AcDbEntity
  8
P-SANR-FIXT
100
AcDbLine
 10
914.8753027667019
 20
2004.498910278668
 30
0.0
 11
914.8753027667023
 21
2019.671572875248
 31
0.0
  0
SPLINE
  5
132
330
87
100
AcDbEntity
  8
P-SANR-FIXT
100
AcDbSpline
210
0.0
220
0.0
230
1.0
 70
     8
 71
     3
 72
    26
 73
    22
 74
     0
 42
0.000000001
 43
0.0000000001
 40
0.0
 40
0.0
 40
0.0
 40
0.0
 40
0.125
 40
0.1875
 40
0.21875
 40
0.25
 40
0.28125
 40
0.3125
 40
0.375
 40
0.4375
 40
0.46875
 40
0.484375
 40
0.5
 40
0.515625
 40
0.53125
 40
0.5625
 40
0.625
 40
0.6875
 40
0.75
 40
0.875
 40
1.0
 40
1.0
 40
1.0
 40
1.0
 10
927.7645456588297
 20
1999.999999999995
 30
0.0
 10
927.5682955580689
 20
2000.967385996277
 30
0.0
 10
927.1836083549029
 20
2002.376455710972
 30
0.0
 10
926.5777796650736
 20
2003.929897134722
 30
0.0
 10
926.185562269238
 20
2004.789552736083
 30
0.0
 10
925.8715874417232
 20
2005.421242763587
 30
0.0
 10
925.5246976276174
 20
2006.034092916328
 30
0.0
 10
925.0111933976938
 20
2006.822984162205
 30
0.0
 10
924.3012805292973
 20
2007.767317200231
 30
0.0
 10
923.5503340645657
 20
2008.675119733831
 30
0.0
 10
923.0309717101201
 20
2009.301497020787
 30
0.0
 10
922.7394914875702
 20
2009.657950194329
 30
0.0
 10
922.5255306607047
 20
2009.925322546971
 30
0.0
 10
922.3130099204508
 20
2010.191164540264
 30
0.0
 10
922.026357575536
 20
2010.541303009661
 30
0.0
 10
921.5205514097906
 20
2011.144808251349
 30
0.0
 10
920.7899651872144
 20
2011.982901895198
 30
0.0
 10
919.9167133238521
 20
2012.957988814044
 30
0.0
 10
918.7866758265855
 20
2014.230744672514
 30
0.0
 10
917.4332102299835
 20
2015.755795269635
 30
0.0
 10
916.387037502954
 20
2016.869663285708
 30
0.0
 10
915.8753027667019
 20
2017.396195953016
 30
0.0
  0
LINE
  5
133
330
87
100
AcDbEntity
  8
P-SANR-FIXT
100
AcDbLine
 10
915.8753027667019
 20
2001.748963836971
 30
0.0
 11
915.8753027667019
 21
2017.396195953016
 31
0.0
  0
SPLINE
  5
134
330
87
100
AcDbEntity
  8
P-SANR-FIXT
100
AcDbSpline
210
0.0
220
0.0
230
1.0
 70
     8
 71
     3
 72
     8
 73
     4
 74
     0
 42
0.000000001
 43
0.0000000001
 40
0.0
 40
0.0
 40
0.0
 40
0.0
 40
0.5
 40
0.5
 40
0.5
 40
0.5
 10
915.8753027667017
 20
2001.748963836971
 30
0.0
 10
915.9323827558308
 20
2001.460842138181
 30
0.0
 10
915.9752204899998
 20
2001.170894677825
 30
0.0
 10
916.0038159692089
 20
2000.879329275084
 30
0.0
  0
SPLINE
  5
135
330
87
100
AcDbEntity
  8
P-SANR-FIXT
100
AcDbSpline
210
0.0
220
0.0
230
1.0
 70
     8
 71
     3
 72
     8
 73
     4
 74
     0
 42
0.000000001
 43
0.0000000001
 40
0.5
 40
0.5
 40
0.5
 40
0.5
 40
0.6090973564075406
 40
0.6090973564075406
 40
0.6090973564075406
 40
0.6090973564075406
 10
916.0038159692089
 20
1999.120670724907
 30
0.0
 10
915.9975765868351
 20
1999.057052695589
 30
0.0
 10
915.9895989263722
 20
1998.993641560378
 30
0.0
 10
915.9805769907086
 20
1998.930354470144
 30
0.0
  0
LINE
  5
136
330
87
100
AcDbEntity
  8
P-SANR-FIXT
100
AcDbLine
 10
915.8753027667019
 20
1977.499999999995
 30
0.0
 11
915.8753027667017
 21
1998.251036163019
 31
0.0
  0
SPLINE
  5
137
330
87
100
AcDbEntity
  8
P-SANR-FIXT
100
AcDbSpline
210
0.0
220
0.0
230
1.0
 70
     8
 71
     3
 72
     9
 73
     5
 74
     0
 42
0.000000001
 43
0.0000000001
 40
-1.0
 40
-1.0
 40
-1.0
 40
-1.0
 40
-0.5
 40
0.0
 40
0.0
 40
0.0
 40
0.0
 10
949.3509646498209
 20
2004.108055821697
 30
0.0
 10
948.5087595581147
 20
2003.776800056284
 30
0.0
 10
947.0057566268142
 20
2002.760868320587
 30
0.0
 10
946.0259103225652
 20
2001.038096175149
 30
0.0
 10
945.686531218319
 20
1999.999999999995
 30
0.0
  0
SPLINE
  5
138
330
87
100
AcDbEntity
  8
P-SANR-FIXT
100
AcDbSpline
210
0.0
220
0.0
230
1.0
 70
     8
 71
     3
 72
    10
 73
     6
 74
     0
 42
0.000000001
 43
0.0000000001
 40
-0.8333333333333332
 40
-0.8333333333333332
 40
-0.8333333333333332
 40
-0.8333333333333332
 40
-0.75
 40
-0.7083333333333333
 40
-0.6666666666666666
 40
-0.6666666666666666
 40
-0.6666666666666666
 40
-0.6666666666666666
 10
953.620475421591
 20
1996.838389757375
 30
0.0
 10
953.58620126649
 20
1996.929737618306
 30
0.0
 10
953.5362794492819
 20
1997.069560701901
 30
0.0
 10
953.4731171170209
 20
1997.26167563096
 30
0.0
 10
953.4427994890483
 20
1997.359441615245
 30
0.0
 10
953.4279207683326
 20
1997.408935182889
 30
0.0
  0
SPLINE
  5
139
330
87
100
AcDbEntity
  8
P-SANR-FIXT
100
AcDbSpline
210
0.0
220
0.0
230
1.0
 70
     8
 71
     3
 72
    10
 73
     6
 74
     0
 42
0.000000001
 43
0.0000000001
 40
-0.5
 40
-0.5
 40
-0.5
 40
-0.5
 40
-0.4166666666666666
 40
-0.375
 40
-0.3333333333333333
 40
-0.3333333333333333
 40
-0.3333333333333333
 40
-0.3333333333333333
 10
953.2648818430136
 20
1998.031095503748
 30
0.0
 10
953.2408142817006
 20
1998.138445602478
 30
0.0
 10
953.2074285765917
 20
1998.30129556258
 30
0.0
 10
953.1690009165719
 20
1998.51925043506
 30
0.0
 10
953.1519440076792
 20
1998.627829122757
 30
0.0
 10
953.1438938386237
 20
1998.682079285559
 30
0.0
  0
SPLINE
  5
13A
330
87
100
AcDbEntity
  8
P-SANR-FIXT
100
AcDbSpline
210
0.0
220
0.0
230
1.0
 70
     8
 71
     3
 72
     8
 73
     4
 74
     0
 42
0.000000001
 43
0.0000000001
 40
-0.1666666666666666
 40
-0.1666666666666666
 40
-0.1666666666666666
 40
-0.1666666666666666
 40
0.0
 40
0.0
 40
0.0
 40
0.0
 10
953.0713200592799
 20
1999.337125967997
 30
0.0
 10
953.0550857762314
 20
1999.556962303138
 30
0.0
 10
953.0468756419558
 20
1999.778129600248
 30
0.0
 10
953.0468756419558
 20
1999.999999999995
 30
0.0
  0
SPLINE
  5
13B
330
87
100
AcDbEntity
  8
P-SANR-FIXT
100
AcDbSpline
210
0.0
220
0.0
230
1.0
 70
     8
 71
     3
 72
     9
 73
     5
 74
     0
 42
0.000000001
 43
0.0000000001
 40
-0.7303693994992912
 40
-0.7303693994992912
 40
-0.7303693994992912
 40
-0.7303693994992912
 40
-0.7083333333333333
 40
-0.6666666666666666
 40
-0.6666666666666666
 40
-0.6666666666666666
 40
-0.6666666666666666
 10
953.1105533061015
 20
2001.068707795147
 30
0.0
 10
953.1140008579328
 20
2001.097535199213
 30
0.0
 10
953.124364241945
 20
2001.180774585139
 30
0.0
 10
953.1358624346559
 20
2001.263667705785
 30
0.0
 10
953.1438938386237
 20
2001.317920714432
 30
0.0
  0
SPLINE
  5
13C
330
87
100
AcDbEntity
  8
P-SANR-FIXT
100
AcDbSpline
210
0.0
220
0.0
230
1.0
 70
     8
 71
     3
 72
     8
 73
     4
 74
     0
 42
0.000000001
 43
0.0000000001
 40
-0.5
 40
-0.5
 40
-0.5
 40
-0.5
 40
-0.4586833179322511
 40
-0.4586833179322511
 40
-0.4586833179322511
 40
-0.4586833179322511
 10
953.2648818430136
 20
2001.968904496242
 30
0.0
 10
953.2768145443604
 20
2002.022128695032
 30
0.0
 10
953.28919206336
 20
2002.07505282305
 30
0.0
 10
953.3019693323488
 20
2002.127568380291
 30
0.0
  0
SPLINE
  5
13D
330
87
100
AcDbEntity
  8
P-SANR-FIXT
100
AcDbSpline
210
0.0
220
0.0
230
1.0
 70
     8
 71
     3
 72
     8
 73
     4
 74
     0
 42
0.000000001
 43
0.0000000001
 40
-0.1742104429725072
 40
-0.1742104429725072
 40
-0.1742104429725072
 40
-0.1742104429725072
 40
-0.1666666666666666
 40
-0.1666666666666666
 40
-0.1666666666666666
 40
-0.1666666666666666
 10
953.6111919006053
 20
2003.136756428382
 30
0.0
 10
953.6142782011614
 20
2003.145056350648
 30
0.0
 10
953.6173660756331
 20
2003.153355571523
 30
0.0
 10
953.6204754215912
 20
2003.161610242615
 30
0.0
  0
SPLINE
  5
13E
330
87
100
AcDbEntity
  8
P-SANR-FIXT
100
AcDbSpline
210
0.0
220
0.0
230
1.0
 70
     8
 71
     3
 72
    17
 73
    13
 74
     0
 42
0.000000001
 43
0.0000000001
 40
-1.0
 40
-1.0
 40
-1.0
 40
-1.0
 40
-0.875
 40
-0.75
 40
-0.625
 40
-0.5
 40
-0.375
 40
-0.3125
 40
-0.25
 40
-0.1875
 40
-0.125
 40
0.0
 40
0.0
 40
0.0
 40
0.0
 10
953.8368954549351
 20
2015.0635312077
 30
0.0
 10
953.7117287607413
 20
2014.559566534428
 30
0.0
 10
953.4463135176055
 20
2013.566535276791
 30
0.0
 10
953.0054329711981
 20
2012.114952762293
 30
0.0
 10
952.5015791415842
 20
2010.721524304054
 30
0.0
 10
951.9512024240556
 20
2009.359983632394
 30
0.0
 10
951.5056608987364
 20
2008.203262624927
 30
0.0
 10
951.1273936831024
 20
2007.292310030566
 30
0.0
 10
950.8191461546585
 20
2006.625926620905
 30
0.0
 10
950.4840426303463
 20
2005.977489448907
 30
0.0
 10
950.0116067885464
 20
2005.128271035504
 30
0.0
 10
949.6243252694895
 20
2004.511050846762
 30
0.0
 10
949.3509646498209
 20
2004.108055821697
 30
0.0
  0
SPLINE
  5
13F
330
87
100
AcDbEntity
  8
P-SANR-FIXT
100
AcDbSpline
210
0.0
220
0.0
230
1.0
 70
     8
 71
     3
 72
     8
 73
     4
 74
     0
 42
0.000000001
 43
0.0000000001
 40
-1.0
 40
-1.0
 40
-1.0
 40
-1.0
 40
-0.8856836458028784
 40
-0.8856836458028784
 40
-0.8856836458028784
 40
-0.8856836458028784
 10
954.5679054768033
 20
1994.993503693319
 30
0.0
 10
954.5390617123203
 20
1995.036592041098
 30
0.0
 10
954.510226707522
 20
1995.080470848122
 30
0.0
 10
954.481435517402
 20
1995.125151031536
 30
0.0
  0
SPLINE
  5
140
330
87
100
AcDbEntity
  8
P-SANR-FIXT
100
AcDbSpline
210
0.0
220
0.0
230
1.0
 70
     8
 71
     3
 72
     8
 73
     4
 74
     0
 42
0.000000001
 43
0.0000000001
 40
-0.3079731909030479
 40
-0.3079731909030479
 40
-0.3079731909030479
 40
-0.3079731909030479
 40
0.0
 40
0.0
 40
0.0
 40
0.0
 10
954.0528443714853
 20
1995.865328430926
 30
0.0
 10
953.9789263651091
 20
1996.008239506466
 30
0.0
 10
953.9066791064513
 20
1996.157317067277
 30
0.0
 10
953.8368954549346
 20
1996.312694028324
 30
0.0
  0
SPLINE
  5
141
330
87
100
AcDbEntity
  8
P-SANR-FIXT
100
AcDbSpline
210
0.0
220
0.0
230
1.0
 70
     8
 71
     3
 72
     8
 73
     4
 74
     0
 42
0.000000001
 43
0.0000000001
 40
-0.1143163541972803
 40
-0.1143163541972803
 40
-0.1143163541972803
 40
-0.1143163541972803
 40
0.0
 40
0.0
 40
0.0
 40
0.0
 10
954.481435517402
 20
2004.874848968453
 30
0.0
 10
954.510226707522
 20
2004.919529151868
 30
0.0
 10
954.5390617123203
 20
2004.963407958892
 30
0.0
 10
954.5679054768035
 20
2005.006496306672
 30
0.0
  0
SPLINE
  5
142
330
87
100
AcDbEntity
  8
P-SANR-FIXT
100
AcDbSpline
210
0.0
220
0.0
230
1.0
 70
     8
 71
     3
 72
     9
 73
     5
 74
     0
 42
0.000000001
 43
0.0000000001
 40
-1.0
 40
-1.0
 40
-1.0
 40
-1.0
 40
-0.5
 40
0.0
 40
0.0
 40
0.0
 40
0.0
 10
954.5679054768037
 20
2018.458691153152
 30
0.0
 10
954.4408353144545
 20
2017.900678103513
 30
0.0
 10
954.1908614673936
 20
2016.776805062966
 30
0.0
 10
953.9524714676851
 20
2015.637238139879
 30
0.0
 10
953.8368954549351
 20
2015.0635312077
 30
0.0
  0
SPLINE
  5
143
330
87
100
AcDbEntity
  8
P-SANR-FIXT
100
AcDbSpline
210
0.0
220
0.0
230
1.0
 70
     8
 71
     3
 72
    10
 73
     6
 74
     0
 42
0.000000001
 43
0.0000000001
 40
-0.8
 40
-0.8
 40
-0.8
 40
-0.8
 40
-0.6000000000000001
 40
-0.5
 40
-0.3999999999999999
 40
-0.3999999999999999
 40
-0.3999999999999999
 40
-0.3999999999999999
 10
955.9876902897439
 20
1993.345206774992
 30
0.0
 10
955.8384533339745
 20
1993.481125569983
 30
0.0
 10
955.6203559006041
 20
1993.693610089034
 30
0.0
 10
955.3493382403857
 20
1993.98568621863
 30
0.0
 10
955.2230490151162
 20
1994.131095290412
 30
0.0
 10
955.1616438999193
 20
1994.204026668089
 30
0.0
  0
SPLINE
  5
144
330
87
100
AcDbEntity
  8
P-SANR-FIXT
100
AcDbSpline
210
0.0
220
0.0
230
1.0
 70
     8
 71
     3
 72
     9
 73
     5
 74
     0
 42
0.000000001
 43
0.0000000001
 40
-0.2
 40
-0.2
 40
-0.2
 40
-0.2
 40
-0.1
 40
0.0
 40
0.0
 40
0.0
 40
0.0
 10
954.8237181356359
 20
1994.631015399635
 30
0.0
 10
954.7741886134721
 20
1994.697631507191
 30
0.0
 10
954.6834139794114
 20
1994.823559060055
 30
0.0
 10
954.6043908432979
 20
1994.938999914475
 30
0.0
 10
954.5679054768033
 20
1994.993503693319
 30
0.0
  0
SPLINE
  5
145
330
87
100
AcDbEntity
  8
P-SANR-FIXT
100
AcDbSpline
210
0.0
220
0.0
230
1.0
 70
     8
 71
     3
 72
    10
 73
     6
 74
     0
 42
0.000000001
 43
0.0000000001
 40
-1.0
 40
-1.0
 40
-1.0
 40
-1.0
 40
-0.925
 40
-0.85
 40
-0.8
 40
-0.8
 40
-0.8
 40
-0.8
 10
954.5679054768035
 20
2005.006496306672
 30
0.0
 10
954.5952695016744
 20
2005.047374140803
 30
0.0
 10
954.6532571382353
 20
2005.132558893696
 30
0.0
 10
954.7399889351041
 20
2005.255149068537
 30
0.0
 10
954.7990540047731
 20
2005.335813803885
 30
0.0
 10
954.8236873009173
 20
2005.368951569395
 30
0.0
  0
SPLINE
  5
146
330
87
100
AcDbEntity
  8
P-SANR-FIXT
100
AcDbSpline
210
0.0
220
0.0
230
1.0
 70
     8
 71
     3
 72
    10
 73
     6
 74
     0
 42
0.000000001
 43
0.0000000001
 40
-0.6
 40
-0.6
 40
-0.6
 40
-0.6
 40
-0.55
 40
-0.4
 40
-0.2
 40
-0.2
 40
-0.2
 40
-0.2
 10
955.1613455406275
 20
2005.795645204671
 30
0.0
 10
955.1919179979307
 20
2005.831973076654
 30
0.0
 10
955.3160206958017
 20
2005.976726316431
 30
0.0
 10
955.5826554829655
 20
2006.274098605087
 30
0.0
 10
955.8427671563533
 20
2006.510961872269
 30
0.0
 10
955.9937443545992
 20
2006.6445512914
 30
0.0
  0
SPLINE
  5
147
330
87
100
AcDbEntity
  8
P-SANR-FIXT
100
AcDbSpline
210
0.0
220
0.0
230
1.0
 70
     8
 71
     3
 72
    15
 73
    11
 74
     0
 42
0.000000001
 43
0.0000000001
 40
-1.0
 40
-1.0
 40
-1.0
 40
-1.0
 40
-0.8333333333333332
 40
-0.6666666666666666
 40
-0.5
 40
-0.4166666666666666
 40
-0.3333333333333333
 40
-0.25
 40
-0.1666666666666666
 40
0.0
 40
0.0
 40
0.0
 40
0.0
 10
956.4472907183757
 20
2021.900415076414
 30
0.0
 10
956.3408897530464
 20
2021.795099558235
 30
0.0
 10
956.122762585589
 20
2021.557348367005
 30
0.0
 10
955.7812061283692
 20
2021.121752446796
 30
0.0
 10
955.4947611079963
 20
2020.686969907355
 30
0.0
 10
955.2701998368783
 20
2020.293626897709
 30
0.0
 10
955.1072519754335
 20
2019.97552789997
 30
0.0
 10
954.9507892421207
 20
2019.633767730147
 30
0.0
 10
954.7566497840151
 20
2019.146225317164
 30
0.0
 10
954.6370808954561
 20
2018.743402417971
 30
0.0
 10
954.5679054768037
 20
2018.458691153152
 30
0.0
  0
SPLINE
  5
148
330
87
100
AcDbEntity
  8
P-SANR-FIXT
100
AcDbSpline
210
0.0
220
0.0
230
1.0
 70
     8
 71
     3
 72
     8
 73
     4
 74
     0
 42
0.000000001
 43
0.0000000001
 40
0.0833333333333333
 40
0.0833333333333333
 40
0.0833333333333333
 40
0.0833333333333333
 40
0.1666666666666666
 40
0.1666666666666666
 40
0.1666666666666666
 40
0.1666666666666666
 10
966.2334586260824
 20
1992.031868261973
 30
0.0
 10
965.9550294543707
 20
1991.885270504725
 30
0.0
 10
965.669421894238
 20
1991.752236201861
 30
0.0
 10
965.3778374992985
 20
1991.634634626045
 30
0.0
  0
SPLINE
  5
149
330
87
100
AcDbEntity
  8
P-SANR-FIXT
100
AcDbSpline
210
0.0
220
0.0
230
1.0
 70
     8
 71
     3
 72
     9
 73
     5
 74
     0
 42
0.000000001
 43
0.0000000001
 40
0.25
 40
0.25
 40
0.25
 40
0.25
 40
0.3333333333333333
 40
0.429393730444599
 40
0.429393730444599
 40
0.429393730444599
 40
0.429393730444599
 10
964.4872215832911
 20
1991.336199954632
 30
0.0
 10
964.1848850723528
 20
1991.251333105571
 30
0.0
 10
963.5221005670519
 20
1991.098916138416
 30
0.0
 10
962.8458759660512
 20
1991.036601170849
 30
0.0
 10
962.4804673886661
 20
1991.020180892261
 30
0.0
  0
SPLINE
  5
14A
330
87
100
AcDbEntity
  8
P-SANR-FIXT
100
AcDbSpline
210
0.0
220
0.0
230
1.0
 70
     8
 71
     3
 72
     9
 73
     5
 74
     0
 42
0.000000001
 43
0.0000000001
 40
0.5045743990363248
 40
0.5045743990363248
 40
0.5045743990363248
 40
0.5045743990363248
 40
0.6666666666666666
 40
0.8333333333333333
 40
0.8333333333333333
 40
0.8333333333333333
 40
0.8333333333333333
 10
961.6172730083146
 20
1991.010260481571
 30
0.0
 10
960.9996248515036
 20
1991.039821526308
 30
0.0
 10
959.733564628781
 20
1991.193499485744
 30
0.0
 10
958.6362361281757
 20
1991.740590844326
 30
0.0
 10
958.0898893522032
 20
1992.043594595547
 30
0.0
  0
SPLINE
  5
14B
330
87
100
AcDbEntity
  8
P-SANR-FIXT
100
AcDbSpline
210
0.0
220
0.0
230
1.0
 70
     8
 71
     3
 72
     8
 73
     4
 74
     0
 42
0.000000001
 43
0.0000000001
 40
0.9166666666666667
 40
0.9166666666666667
 40
0.9166666666666667
 40
0.9166666666666667
 40
1.0
 40
1.0
 40
1.0
 40
1.0
 10
957.2161695885382
 20
1992.405130099127
 30
0.0
 10
956.9515039500025
 20
1992.573807439029
 30
0.0
 10
956.694914467789
 20
1992.756923637234
 30
0.0
 10
956.4472907183752
 20
1992.954104124834
 30
0.0
  0
SPLINE
  5
14C
330
87
100
AcDbEntity
  8
P-SANR-FIXT
100
AcDbSpline
210
0.0
220
0.0
230
1.0
 70
     8
 71
     3
 72
     9
 73
     5
 74
     0
 42
0.000000001
 43
0.0000000001
 40
0.0
 40
0.0
 40
0.0
 40
0.0
 40
0.5
 40
1.0
 40
1.0
 40
1.0
 40
1.0
 10
958.0468756419559
 20
2023.499999999994
 30
0.0
 10
958.0346085468404
 20
2023.499999999994
 30
0.0
 10
957.7557439644616
 20
2023.209367822835
 30
0.0
 10
956.9682185977868
 20
2022.40807686004
 30
0.0
 10
956.4472907183754
 20
2021.900415076414
 30
0.0
  0
SPLINE
  5
14D
330
87
100
AcDbEntity
  8
P-SANR-FIXT
100
AcDbSpline
210
0.0
220
0.0
230
1.0
 70
     8
 71
     3
 72
     8
 73
     4
 74
     0
 42
0.000000001
 43
0.0000000001
 40
0.0
 40
0.0
 40
0.0
 40
0.0
 40
0.0833333333333333
 40
0.0833333333333333
 40
0.0833333333333333
 40
0.0833333333333333
 10
956.4472907183752
 20
2007.045895875156
 30
0.0
 10
956.694914467789
 20
2007.243076362756
 30
0.0
 10
956.9515039500025
 20
2007.426192560961
 30
0.0
 10
957.2161695885384
 20
2007.594869900863
 30
0.0
  0
SPLINE
  5
14E
330
87
100
AcDbEntity
  8
P-SANR-FIXT
100
AcDbSpline
210
0.0
220
0.0
230
1.0
 70
     8
 71
     3
 72
     9
 73
     5
 74
     0
 42
0.000000001
 43
0.0000000001
 40
0.1666666666666666
 40
0.1666666666666666
 40
0.1666666666666666
 40
0.1666666666666666
 40
0.3333333333333333
 40
0.4954256009636901
 40
0.4954256009636901
 40
0.4954256009636901
 40
0.4954256009636901
 10
958.0335053966347
 20
2008.05721077676
 30
0.0
 10
958.5933621460396
 20
2008.336060885547
 30
0.0
 10
959.757012157689
 20
2008.778449686959
 30
0.0
 10
960.9945697008036
 20
2008.94223849534
 30
0.0
 10
961.6168596671284
 20
2008.988272631995
 30
0.0
  0
SPLINE
  5
14F
330
87
100
AcDbEntity
  8
P-SANR-FIXT
100
AcDbSpline
210
0.0
220
0.0
230
1.0
 70
     8
 71
     3
 72
     9
 73
     5
 74
     0
 42
0.000000001
 43
0.0000000001
 40
0.570606269555401
 40
0.570606269555401
 40
0.570606269555401
 40
0.570606269555401
 40
0.6666666666666666
 40
0.75
 40
0.75
 40
0.75
 40
0.75
 10
962.4773206690816
 20
2008.989409406664
 30
0.0
 10
962.8431298032138
 20
2008.971768345976
 30
0.0
 10
963.5326384226067
 20
2008.919520102015
 30
0.0
 10
964.1686683755569
 20
2008.710380982757
 30
0.0
 10
964.4580607979975
 20
2008.594954505246
 30
0.0
  0
SPLINE
  5
150
330
87
100
AcDbEntity
  8
P-SANR-FIXT
100
AcDbSpline
210
0.0
220
0.0
230
1.0
 70
     8
 71
     3
 72
     8
 73
     4
 74
     0
 42
0.000000001
 43
0.0000000001
 40
0.8333333333333333
 40
0.8333333333333333
 40
0.8333333333333333
 40
0.8333333333333333
 40
0.9166666666666667
 40
0.9166666666666667
 40
0.9166666666666667
 40
0.9166666666666667
 10
965.3782706091067
 20
2008.362264072828
 30
0.0
 10
965.6696384491421
 20
2008.24621314757
 30
0.0
 10
965.9475751214984
 20
2008.099774701373
 30
0.0
 10
966.2222771267739
 20
2007.945699547178
 30
0.0
  0
SPLINE
  5
151
330
87
100
AcDbEntity
  8
P-SANR-FIXT
100
AcDbSpline
210
0.0
220
0.0
230
1.0
 70
     8
 71
     3
 72
    10
 73
     6
 74
     0
 42
0.000000001
 43
0.0000000001
 40
-1.0
 40
-1.0
 40
-1.0
 40
-1.0
 40
-0.6666666666666666
 40
-0.3333333333333333
 40
0.0
 40
0.0
 40
0.0
 40
0.0
 10
970.896875641956
 20
1972.839137785018
 30
0.0
 10
969.9129504756774
 20
1974.029741083665
 30
0.0
 10
968.60126198289
 20
1976.418130905296
 30
0.0
 10
968.619364805318
 20
1980.098573411391
 30
0.0
 10
969.9208903100757
 20
1982.464824063272
 30
0.0
 10
970.896875641956
 20
1983.638822984607
 30
0.0
  0
SPLINE
  5
152
330
87
100
AcDbEntity
  8
P-SANR-FIXT
100
AcDbSpline
210
0.0
220
0.0
230
1.0
 70
     8
 71
     3
 72
     9
 73
     5
 74
     0
 42
0.000000001
 43
0.0000000001
 40
-1.0
 40
-1.0
 40
-1.0
 40
-1.0
 40
-0.5
 40
0.0
 40
0.0
 40
0.0
 40
0.0
 10
970.896875641956
 20
1988.908449161631
 30
0.0
 10
970.5136397344338
 20
1989.84885766378
 30
0.0
 10
969.8393232338158
 20
1991.716807030217
 30
0.0
 10
969.3493173620513
 20
1993.559021120931
 30
0.0
 10
969.1503920833822
 20
1994.473694347356
 30
0.0
  0
SPLINE
  5
153
330
87
100
AcDbEntity
  8
P-SANR-FIXT
100
AcDbSpline
210
0.0
220
0.0
230
1.0
 70
     8
 71
     3
 72
     9
 73
     5
 74
     0
 42
0.000000001
 43
0.0000000001
 40
-1.0
 40
-1.0
 40
-1.0
 40
-1.0
 40
-0.5
 40
0.0
 40
0.0
 40
0.0
 40
0.0
 10
969.1503920833822
 20
1994.473694347356
 30
0.0
 10
968.834447514755
 20
1994.067579018438
 30
0.0
 10
968.1537845902752
 20
1993.33652348518
 30
0.0
 10
967.4187735446388
 20
1992.765169964786
 30
0.0
 10
967.0468756419557
 20
1992.516685226447
 30
0.0
  0
LINE
  5
154
330
87
100
AcDbEntity
  8
P-SANR-FIXT
100
AcDbLine
 10
967.0468756419557
 20
1976.499999999995
 30
0.0
 11
967.0468756419557
 21
1992.516685226447
 31
0.0
  0
LINE
  5
155
330
87
100
AcDbEntity
  8
P-SANR-FIXT
100
AcDbLine
 10
967.0468756419557
 20
2007.483314773543
 30
0.0
 11
967.0468756419561
 21
2023.499999999994
 31
0.0
  0
SPLINE
  5
156
330
87
100
AcDbEntity
  8
P-SANR-FIXT
100
AcDbSpline
210
0.0
220
0.0
230
1.0
 70
     8
 71
     3
 72
     9
 73
     5
 74
     0
 42
0.000000001
 43
0.0000000001
 40
-1.0
 40
-1.0
 40
-1.0
 40
-1.0
 40
-0.5
 40
0.0
 40
0.0
 40
0.0
 40
0.0
 10
967.0468756419557
 20
2007.483314773543
 30
0.0
 10
967.4187735446388
 20
2007.234830035204
 30
0.0
 10
968.1537845902752
 20
2006.66347651481
 30
0.0
 10
968.834447514755
 20
2005.932420981551
 30
0.0
 10
969.1503920833822
 20
2005.526305652633
 30
0.0
  0
SPLINE
  5
157
330
87
100
AcDbEntity
  8
P-SANR-FIXT
100
AcDbSpline
210
0.0
220
0.0
230
1.0
 70
     8
 71
     3
 72
     9
 73
     5
 74
     0
 42
0.000000001
 43
0.0000000001
 40
-1.0
 40
-1.0
 40
-1.0
 40
-1.0
 40
-0.5
 40
0.0
 40
0.0
 40
0.0
 40
0.0
 10
969.1503920833822
 20
2005.526305652633
 30
0.0
 10
969.3521822337674
 20
2006.450074656672
 30
0.0
 10
969.8450529772483
 20
2008.301384524999
 30
0.0
 10
970.51650460615
 20
2010.160238113822
 30
0.0
 10
970.896875641956
 20
2011.091550838358
 30
0.0
  0
SPLINE
  5
158
330
87
100
AcDbEntity
  8
P-SANR-FIXT
100
AcDbSpline
210
0.0
220
0.0
230
1.0
 70
     8
 71
     3
 72
    10
 73
     6
 74
     0
 42
0.000000001
 43
0.0000000001
 40
-1.0
 40
-1.0
 40
-1.0
 40
-1.0
 40
-0.6666666666666666
 40
-0.3333333333333333
 40
0.0
 40
0.0
 40
0.0
 40
0.0
 10
970.8968756419562
 20
2015.85299932797
 30
0.0
 10
969.8010101255713
 20
2017.102275808852
 30
0.0
 10
968.3401437769621
 20
2019.611873829958
 30
0.0
 10
968.3647398387281
 20
2023.517970861141
 30
0.0
 10
969.8117978719599
 20
2025.999372571944
 30
0.0
 10
970.8968756419563
 20
2027.227501820099
 30
0.0
  0
LINE
  5
159
330
87
100
AcDbEntity
  8
P-SANR-FIXT
100
AcDbLine
 10
970.896875641956
 20
1983.638822984606
 30
0.0
 11
970.896875641956
 21
1988.908449161631
 31
0.0
  0
LINE
  5
15A
330
87
100
AcDbEntity
  8
P-SANR-FIXT
100
AcDbLine
 10
970.896875641956
 20
1983.638822984606
 30
0.0
 11
980.4014273747652
 21
1983.638822984606
 31
0.0
  0
LINE
  5
15B
330
87
100
AcDbEntity
  8
P-SANR-FIXT
100
AcDbLine
 10
980.4014273747652
 20
1988.908449161631
 30
0.0
 11
970.896875641956
 21
1988.908449161631
 31
0.0
  0
LINE
  5
15C
330
87
100
AcDbEntity
  8
P-SANR-FIXT
100
AcDbLine
 10
970.896875641956
 20
2011.091550838358
 30
0.0
 11
970.8968756419562
 21
2015.85299932797
 31
0.0
  0
LINE
  5
15D
330
87
100
AcDbEntity
  8
P-SANR-FIXT
100
AcDbLine
 10
970.896875641956
 20
2011.091550838358
 30
0.0
 11
980.4014273747652
 21
2011.091550838358
 31
0.0
  0
LINE
  5
15E
330
87
100
AcDbEntity
  8
P-SANR-FIXT
100
AcDbLine
 10
980.4014273747652
 20
2015.85299932797
 30
0.0
 11
970.8968756419562
 21
2015.85299932797
 31
0.0
  0
LINE
  5
15F
330
87
100
AcDbEntity
  8
P-SANR-FIXT
100
AcDbLine
 10
980.4014273747654
 20
1972.839137785018
 30
0.0
 11
970.896875641956
 21
1972.839137785018
 31
0.0
  0
LINE
  5
160
330
87
100
AcDbEntity
  8
P-SANR-FIXT
100
AcDbLine
 10
970.896875641956
 20
1972.649999999995
 30
0.0
 11
970.896875641956
 21
1972.839137785018
 31
0.0
  0
LINE
  5
161
330
87
100
AcDbEntity
  8
P-SANR-FIXT
100
AcDbLine
 10
970.8968756419563
 20
2027.227501820099
 30
0.0
 11
970.8968756419563
 21
2027.349999999995
 31
0.0
  0
LINE
  5
162
330
87
100
AcDbEntity
  8
P-SANR-FIXT
100
AcDbLine
 10
970.8968756419563
 20
2027.227501820099
 30
0.0
 11
980.4014273747654
 21
2027.227501820099
 31
0.0
  0
LINE
  5
163
330
87
100
AcDbEntity
  8
P-SANR-FIXT
100
AcDbLine
 10
980.4014273747654
 20
2027.227501820099
 30
0.0
 11
980.4014273747654
 21
2027.349999999995
 31
0.0
  0
SPLINE
  5
164
330
87
100
AcDbEntity
  8
P-SANR-FIXT
100
AcDbSpline
210
0.0
220
0.0
230
1.0
 70
     8
 71
     3
 72
     9
 73
     5
 74
     0
 42
0.000000001
 43
0.0000000001
 40
-1.0
 40
-1.0
 40
-1.0
 40
-1.0
 40
-0.5
 40
0.0
 40
0.0
 40
0.0
 40
0.0
 10
980.4014273747654
 20
2027.227501820099
 30
0.0
 10
981.3549759747242
 20
2025.351298931374
 30
0.0
 10
982.3085245746828
 20
2021.579345627295
 30
0.0
 10
981.3549759747239
 20
2017.768297269955
 30
0.0
 10
980.4014273747652
 20
2015.85299932797
 30
0.0
  0
LINE
  5
165
330
87
100
AcDbEntity
  8
P-SANR-FIXT
100
AcDbLine
 10
980.4014273747652
 20
2011.091550838358
 30
0.0
 11
980.4014273747652
 21
2015.85299932797
 31
0.0
  0
SPLINE
  5
166
330
87
100
AcDbEntity
  8
P-SANR-FIXT
100
AcDbSpline
210
0.0
220
0.0
230
1.0
 70
     8
 71
     3
 72
     9
 73
     5
 74
     0
 42
0.000000001
 43
0.0000000001
 40
-1.0
 40
-1.0
 40
-1.0
 40
-1.0
 40
-0.5
 40
0.0
 40
0.0
 40
0.0
 40
0.0
 10
980.4014273747652
 20
2011.091550838358
 30
0.0
 10
981.3059129042246
 20
2007.43591038086
 30
0.0
 10
982.2103984336841
 20
2000.083086310574
 30
0.0
 10
981.3059129042246
 20
1992.647175929709
 30
0.0
 10
980.4014273747652
 20
1988.908449161631
 30
0.0
  0
LINE
  5
167
330
87
100
AcDbEntity
  8
P-SANR-FIXT
100
AcDbLine
 10
980.4014273747652
 20
1983.638822984606
 30
0.0
 11
980.4014273747652
 21
1988.908449161631
 31
0.0
  0
SPLINE
  5
168
330
87
100
AcDbEntity
  8
P-SANR-FIXT
100
AcDbSpline
210
0.0
220
0.0
230
1.0
 70
     8
 71
     3
 72
     9
 73
     5
 74
     0
 42
0.000000001
 43
0.0000000001
 40
-1.0
 40
-1.0
 40
-1.0
 40
-1.0
 40
-0.5
 40
0.0
 40
0.0
 40
0.0
 40
0.0
 10
980.4014273747652
 20
1983.638822984607
 30
0.0
 10
981.2568506248418
 20
1981.86055072132
 30
0.0
 10
982.1122738749187
 20
1978.28233092477
 30
0.0
 10
981.2568506248419
 20
1974.660760588262
 30
0.0
 10
980.4014273747654
 20
1972.839137785018
 30
0.0
  0
LINE
  5
169
330
87
100
AcDbEntity
  8
P-SANR-FIXT
100
AcDbLine
 10
980.4014273747654
 20
1972.649999999995
 30
0.0
 11
980.4014273747654
 21
1972.839137785018
 31
0.0
  0
LINE
  5
16A
330
87
100
AcDbEntity
  8
P-SANR-FIXT
100
AcDbLine
 10
982.0468756419559
 20
1975.499999999995
 30
0.0
 11
982.0468756419559
 21
2024.499999999994
 31
0.0
  0
LINE
  5
16B
330
87
100
AcDbEntity
  8
P-SANR-FIXT
100
AcDbLine
 10
898.1968756419556
 20
1988.908449161631
 30
0.0
 11
888.6923239091464
 21
1988.908449161631
 31
0.0
  0
LINE
  5
16C
330
87
100
AcDbEntity
  8
P-SANR-FIXT
100
AcDbLine
 10
888.6923239091464
 20
1983.638822984607
 30
0.0
 11
888.6923239091464
 21
1988.90844916163
 31
0.0
  0
LINE
  5
16D
330
87
100
AcDbEntity
  8
P-SANR-FIXT
100
AcDbLine
 10
888.6923239091464
 20
1983.638822984607
 30
0.0
 11
898.1968756419556
 21
1983.638822984607
 31
0.0
  0
LINE
  5
16E
330
87
100
AcDbEntity
  8
P-SANR-FIXT
100
AcDbLine
 10
898.1968756419556
 20
2015.85299932797
 30
0.0
 11
888.6923239091466
 21
2015.85299932797
 31
0.0
  0
LINE
  5
16F
330
87
100
AcDbEntity
  8
P-SANR-FIXT
100
AcDbLine
 10
888.6923239091466
 20
2011.09155083836
 30
0.0
 11
888.6923239091466
 21
2015.85299932797
 31
0.0
  0
LINE
  5
170
330
87
100
AcDbEntity
  8
P-SANR-FIXT
100
AcDbLine
 10
888.6923239091466
 20
2011.09155083836
 30
0.0
 11
898.1968756419556
 21
2011.09155083836
 31
0.0
  0
LINE
  5
171
330
87
100
AcDbEntity
  8
P-SANR-FIXT
100
AcDbLine
 10
898.1968756419556
 20
1972.839137785018
 30
0.0
 11
888.6923239091466
 21
1972.839137785018
 31
0.0
  0
LINE
  5
172
330
87
100
AcDbEntity
  8
P-SANR-FIXT
100
AcDbLine
 10
888.6923239091466
 20
1972.649999999994
 30
0.0
 11
888.6923239091466
 21
1972.839137785018
 31
0.0
  0
LINE
  5
173
330
87
100
AcDbEntity
  8
P-SANR-FIXT
100
AcDbLine
 10
888.6923239091467
 20
2027.2275018201
 30
0.0
 11
888.6923239091467
 21
2027.349999999995
 31
0.0
  0
LINE
  5
174
330
87
100
AcDbEntity
  8
P-SANR-FIXT
100
AcDbLine
 10
888.6923239091467
 20
2027.2275018201
 30
0.0
 11
898.1968756419558
 21
2027.2275018201
 31
0.0
  0
ARC
  5
175
330
87
100
AcDbEntity
  8
P-SANR-FIXT
100
AcDbCircle
 10
907.0468756419558
 20
1999.999999999995
 30
0.0
 40
9.000000000000028
100
AcDbArc
 50
212.7696523269493
 51
217.8817596960355
  0
ARC
  5
176
330
87
100
AcDbEntity
  8
P-SANR-FIXT
100
AcDbCircle
 10
907.0468756419558
 20
1999.999999999995
 30
0.0
 40
8.999999999999953
100
AcDbArc
 50
205.2545064640233
 51
207.3064022179982
  0
ARC
  5
177
330
87
100
AcDbEntity
  8
P-SANR-FIXT
100
AcDbCircle
 10
907.0468756419558
 20
1999.999999999995
 30
0.0
 40
8.999999999999968
100
AcDbArc
 50
198.1963395790247
 51
198.9408798480175
  0
ARC
  5
178
330
87
100
AcDbEntity
  8
P-SANR-FIXT
100
AcDbCircle
 10
907.0468756419558
 20
1999.999999999995
 30
0.0
 40
8.999999999999907
100
AcDbArc
 50
186.3136266160061
 51
192.6272532320109
  0
ARC
  5
179
330
87
100
AcDbEntity
  8
P-SANR-FIXT
100
AcDbCircle
 10
907.0468756419558
 20
1999.999999999995
 30
0.0
 40
9.000000000000003
100
AcDbArc
 50
173.1738010145435
 51
173.6863733839933
  0
ARC
  5
17A
330
87
100
AcDbEntity
  8
P-SANR-FIXT
100
AcDbCircle
 10
907.0468756419558
 20
1999.999999999995
 30
0.0
 40
8.999999999999907
100
AcDbArc
 50
166.3465951890768
 51
167.3727467679887
  0
ARC
  5
17B
330
87
100
AcDbEntity
  8
P-SANR-FIXT
100
AcDbCircle
 10
907.0468756419558
 20
1999.999999999995
 30
0.0
 40
8.999999999999968
100
AcDbArc
 50
159.5195302976131
 51
161.0591201519822
  0
ARC
  5
17C
330
87
100
AcDbEntity
  8
P-SANR-FIXT
100
AcDbCircle
 10
907.0468756419558
 20
1999.999999999995
 30
0.0
 40
8.999999999999991
100
AcDbArc
 50
152.6935977820017
 51
154.7454935359764
  0
ARC
  5
17D
330
87
100
AcDbEntity
  8
P-SANR-FIXT
100
AcDbCircle
 10
907.0468756419558
 20
1999.999999999995
 30
0.0
 40
8.999999999999989
100
AcDbArc
 50
142.1182403039644
 51
147.2303476730514
  0
ARC
  5
17E
330
87
100
AcDbEntity
  8
P-SANR-FIXT
100
AcDbCircle
 10
962.0468756419557
 20
1999.999999999995
 30
0.0
 40
9.000000000000087
100
AcDbArc
 50
32.76965232694963
 51
37.88175969603216
  0
ARC
  5
17F
330
87
100
AcDbEntity
  8
P-SANR-FIXT
100
AcDbCircle
 10
962.0468756419557
 20
1999.999999999995
 30
0.0
 40
9.000000000000154
100
AcDbArc
 50
25.25450646402219
 51
27.30640221799845
  0
ARC
  5
180
330
87
100
AcDbEntity
  8
P-SANR-FIXT
100
AcDbCircle
 10
962.0468756419557
 20
1999.999999999995
 30
0.0
 40
9.000000000000145
100
AcDbArc
 50
18.19633957902279
 51
18.9408798480165
  0
ARC
  5
181
330
87
100
AcDbEntity
  8
P-SANR-FIXT
100
AcDbCircle
 10
962.0468756419557
 20
1999.999999999995
 30
0.0
 40
9.000000000000104
100
AcDbArc
 50
6.313626616005179
 51
12.62725323201126
  0
ARC
  5
182
330
87
100
AcDbEntity
  8
P-SANR-FIXT
100
AcDbCircle
 10
962.0468756419557
 20
1999.999999999995
 30
0.0
 40
8.999999999999991
100
AcDbArc
 50
353.1738010145434
 51
353.6863733839945
  0
ARC
  5
183
330
87
100
AcDbEntity
  8
P-SANR-FIXT
100
AcDbCircle
 10
962.0468756419557
 20
1999.999999999995
 30
0.0
 40
9.000000000000044
100
AcDbArc
 50
346.3465951890734
 51
347.4255174435486
  0
ARC
  5
184
330
87
100
AcDbEntity
  8
P-SANR-FIXT
100
AcDbCircle
 10
962.0468756419557
 20
1999.999999999995
 30
0.0
 40
9.000000000000071
100
AcDbArc
 50
339.519530297611
 51
341.0591201519833
  0
ARC
  5
185
330
87
100
AcDbEntity
  8
P-SANR-FIXT
100
AcDbCircle
 10
962.0468756419557
 20
1999.999999999995
 30
0.0
 40
9.000000000000051
100
AcDbArc
 50
332.6935977820013
 51
334.7454935359776
  0
ARC
  5
186
330
87
100
AcDbEntity
  8
P-SANR-FIXT
100
AcDbCircle
 10
962.0468756419557
 20
1999.999999999995
 30
0.0
 40
8.999999999999893
100
AcDbArc
 50
322.1182403039684
 51
327.2303476730509
  0
ARC
  5
187
330
87
100
AcDbEntity
  8
P-SANR-FIXT
100
AcDbCircle
 10
962.0468756419557
 20
1999.999999999995
 30
0.0
 40
9.0
100
AcDbArc
 50
0.0
 51
27.26604445073117
  0
ARC
  5
188
330
87
100
AcDbEntity
  8
P-SANR-FIXT
100
AcDbCircle
 10
962.0468756419557
 20
1999.999999999995
 30
0.0
 40
9.000000000000049
100
AcDbArc
 50
332.7339555492657
 51
0.0
  0
ARC
  5
189
330
87
100
AcDbEntity
  8
P-SANR-FIXT
100
AcDbCircle
 10
962.0468756419557
 20
1999.999999999995
 30
0.0
 40
9.000000000000071
100
AcDbArc
 50
272.7339555492666
 51
327.2660444507307
  0
ARC
  5
18A
330
87
100
AcDbEntity
  8
P-SANR-FIXT
100
AcDbCircle
 10
962.0468756419557
 20
1999.999999999995
 30
0.0
 40
8.999999999999937
100
AcDbArc
 50
212.733955549265
 51
267.2660444507325
  0
ARC
  5
18B
330
87
100
AcDbEntity
  8
P-SANR-FIXT
100
AcDbCircle
 10
962.0468756419557
 20
1999.999999999995
 30
0.0
 40
8.999999999999886
100
AcDbArc
 50
180.0
 51
207.2660444507315
  0
ARC
  5
18C
330
87
100
AcDbEntity
  8
P-SANR-FIXT
100
AcDbCircle
 10
962.0468756419557
 20
1999.999999999995
 30
0.0
 40
8.999999999999948
100
AcDbArc
 50
152.733955549266
 51
180.0
  0
ARC
  5
18D
330
87
100
AcDbEntity
  8
P-SANR-FIXT
100
AcDbCircle
 10
962.0468756419557
 20
1999.999999999995
 30
0.0
 40
8.999999999999952
100
AcDbArc
 50
92.73395554926633
 51
147.2660444507319
  0
ARC
  5
18E
330
87
100
AcDbEntity
  8
P-SANR-FIXT
100
AcDbCircle
 10
962.0468756419557
 20
1999.999999999995
 30
0.0
 40
9.000000000000095
100
AcDbArc
 50
32.73395554926822
 51
87.26604445073228
  0
ARC
  5
18F
330
87
100
AcDbEntity
  8
P-SANR-FIXT
100
AcDbCircle
 10
907.0468756419558
 20
1999.999999999995
 30
0.0
 40
9.0
100
AcDbArc
 50
180.0
 51
207.2660444507318
  0
ARC
  5
190
330
87
100
AcDbEntity
  8
P-SANR-FIXT
100
AcDbCircle
 10
907.0468756419558
 20
1999.999999999995
 30
0.0
 40
8.999999999999996
100
AcDbArc
 50
152.7339555492682
 51
180.0
  0
ARC
  5
191
330
87
100
AcDbEntity
  8
P-SANR-FIXT
100
AcDbCircle
 10
907.0468756419558
 20
1999.999999999995
 30
0.0
 40
8.999999999999964
100
AcDbArc
 50
92.73395554926777
 51
147.2660444507319
  0
ARC
  5
192
330
87
100
AcDbEntity
  8
P-SANR-FIXT
100
AcDbCircle
 10
907.0468756419558
 20
1999.999999999995
 30
0.0
 40
9.0
100
AcDbArc
 50
32.73395554926833
 51
87.26604445073297
  0
ARC
  5
193
330
87
100
AcDbEntity
  8
P-SANR-FIXT
100
AcDbCircle
 10
907.0468756419558
 20
1999.999999999995
 30
0.0
 40
9.0
100
AcDbArc
 50
0.0
 51
27.26604445073441
  0
ARC
  5
194
330
87
100
AcDbEntity
  8
P-SANR-FIXT
100
AcDbCircle
 10
907.0468756419558
 20
1999.999999999995
 30
0.0
 40
8.999999999999895
100
AcDbArc
 50
332.7339555492668
 51
0.0
  0
ARC
  5
195
330
87
100
AcDbEntity
  8
P-SANR-FIXT
100
AcDbCircle
 10
907.0468756419558
 20
1999.999999999995
 30
0.0
 40
8.999999999999957
100
AcDbArc
 50
272.7339555492667
 51
327.2660444507339
  0
ARC
  5
196
330
87
100
AcDbEntity
  8
P-SANR-FIXT
100
AcDbCircle
 10
907.0468756419558
 20
1999.999999999995
 30
0.0
 40
9.0
100
AcDbArc
 50
212.7339555492674
 51
267.2660444507318
  0
LINE
  5
197
330
87
100
AcDbEntity
  8
P-SANR-FIXT
100
AcDbLine
 10
910.2968756419558
 20
2044.499999999995
 30
0.0
 11
958.7968756419559
 21
2044.499999999995
 31
0.0
  0
LINE
  5
198
330
87
100
AcDbEntity
  8
P-SANR-FIXT
100
AcDbLine
 10
910.2968756419558
 20
2038.449999999995
 30
0.0
 11
958.7968756419559
 21
2038.449999999995
 31
0.0
  0
LINE
  5
199
330
87
100
AcDbEntity
  8
P-SANR-FIXT
100
AcDbLine
 10
911.0468756419558
 20
2037.699999999995
 30
0.0
 11
958.0468756419557
 21
2037.699999999995
 31
0.0
  0
LINE
  5
19A
330
87
100
AcDbEntity
  8
P-SANR-FIXT
100
AcDbLine
 10
927.7645456588297
 20
1999.999999999994
 30
0.0
 11
945.6865312183188
 21
1999.999999999994
 31
0.0
  0
LINE
  5
19B
330
87
100
AcDbEntity
  8
P-SANR-FIXT
100
AcDbLine
 10
911.3832871154125
 20
2047.299999999995
 30
0.0
 11
957.7104641684993
 21
2047.299999999995
 31
0.0
  0
LINE
  5
19C
330
87
100
AcDbEntity
  8
P-SANR-FIXT
100
AcDbLine
 10
910.7968756419559
 20
2046.753162454313
 30
0.0
 11
958.2968756419559
 21
2046.753162454313
 31
0.0
  0
ENDBLK
  5
19E
330
87
100
AcDbEntity
  8
0
100
AcDbBlockEnd
  0
BLOCK
  5
27F
330
1A0
100
AcDbEntity
  8
0
100
AcDbBlockBegin
  2
Automatic flow rate regulator valve_Caleffi_121 DN15 - 1_2__-V1-Est - Idraulica
 70
     0
 10
0.0
 20
0.0
 30
0.0
  3
Automatic flow rate regulator valve_Caleffi_121 DN15 - 1_2__-V1-Est - Idraulica
  1

  0
LWPOLYLINE
  5
1A1
330
1A0
100
AcDbEntity
  8
M-PIPE
100
AcDbPolyline
 90
       41
 70
   128
 43
0.0
 10
1000.546875641957
 20
1882.660947248035
 10
1000.766816979984
 20
1882.656547834671
 10
1000.986406458788
 20
1882.6433566327
 10
1001.205292782046
 20
1882.621394745232
 10
1001.423125778336
 20
1882.590697306601
 10
1001.63955696133
 20
1882.551313426162
 10
1001.854240087306
 20
1882.503306109721
 10
1002.06683170906
 20
1882.446752158745
 10
1002.276991725346
 20
1882.381742047489
 10
1002.48438392497
 20
1882.308379778264
 10
1002.688676524654
 20
1882.226782715051
 10
1002.88954269982
 20
1882.137081395745
 10
1003.086661107435
 20
1882.039419323321
 10
1003.279716400098
 20
1881.933952736262
 10
1003.468399730522
 20
1881.820850358609
 10
1003.65240924563
 20
1881.700293130039
 10
1003.831450569451
 20
1881.572473916399
 10
1004.005237274059
 20
1881.437597201166
 10
1004.1734913378
 20
1881.29587875831
 10
1004.335943590065
 20
1881.14754530711
 10
1004.492334141905
 20
1880.992834149445
 10
1004.642412801797
 20
1880.831992790162
 10
1004.785939475902
 20
1880.665278541128
 10
1004.922684552157
 20
1880.492958109574
 10
1005.052429267613
 20
1880.315307171434
 10
1005.174966058401
 20
1880.13260993031
 10
1005.290098891796
 20
1879.945158662815
 10
1005.397643579825
 20
1879.753253250991
 10
1005.497428073928
 20
1879.557200702557
 10
1005.589292740202
 20
1879.35731465977
 10
1005.673090614777
 20
1879.153914897656
 10
1005.74868763893
 20
1878.947326812449
 10
1005.815962873548
 20
1878.737880901011
 10
1005.874808692608
 20
1878.525912232123
 10
1005.925130955351
 20
1878.311759910438
 10
1005.966849156894
 20
1878.095766533987
 10
1005.999896557012
 20
1877.878277646095
 10
1006.024220286914
 20
1877.659641182589
 10
1006.039781433823
 20
1877.44020691517
 10
1006.046555103222
 20
1877.220325891856
 10
1006.046875641957
 20
1877.160947248035
1001
REVIT
1002
{
1070
     3
1000
963222
1002
}
  0
LWPOLYLINE
  5
1A2
330
1A0
100
AcDbEntity
  8
M-PIPE
100
AcDbPolyline
 90
       41
 70
   128
 43
0.0
 10
1006.046875641958
 20
1832.668759748035
 10
1006.046875641958
 20
1834.447972702666
 10
1006.046875641958
 20
1836.224339296116
 10
1006.046875641958
 20
1837.995017720772
 10
1006.046875641958
 20
1839.75717526888
 10
1006.046875641958
 20
1841.507992864268
 10
1006.046875641958
 20
1843.244669572273
 10
1006.046875641957
 20
1844.964427080634
 10
1006.046875641957
 20
1846.664514144197
 10
1006.046875641957
 20
1848.342210986329
 10
1006.046875641957
 20
1849.99483364997
 10
1006.046875641957
 20
1851.619738291401
 10
1006.046875641957
 20
1853.214325409822
 10
1006.046875641957
 20
1854.776044006004
 10
1006.046875641957
 20
1856.302395663343
 10
1006.046875641957
 20
1857.790938544791
 10
1006.046875641957
 20
1859.239291299276
 10
1006.046875641957
 20
1860.645136871357
 10
1006.046875641957
 20
1862.006226208016
 10
1006.046875641957
 20
1863.320381856664
 10
1006.046875641957
 20
1864.585501448604
 10
1006.046875641957
 20
1865.799561062363
 10
1006.046875641957
 20
1866.960618461548
 10
1006.046875641957
 20
1868.066816201997
 10
1006.046875641957
 20
1869.116384603302
 10
1006.046875641957
 20
1870.107644579918
 10
1006.046875641957
 20
1871.039010327338
 10
1006.046875641957
 20
1871.908991859049
 10
1006.046875641957
 20
1872.716197390185
 10
1006.046875641957
 20
1873.459335564092
 10
1006.046875641957
 20
1874.137217518218
 10
1006.046875641957
 20
1874.748758786044
 10
1006.046875641957
 20
1875.292981031997
 10
1006.046875641957
 20
1875.769013616578
 10
1006.046875641957
 20
1876.1760949892
 10
1006.046875641957
 20
1876.513573906506
 10
1006.046875641957
 20
1876.78091047422
 10
1006.046875641957
 20
1876.977677010862
 10
1006.046875641957
 20
1877.103558731949
 10
1006.046875641957
 20
1877.15835425358
 10
1006.046875641957
 20
1877.160947248035
1001
REVIT
1002
{
1070
     3
1000
963222
1002
}
  0
LWPOLYLINE
  5
1A3
330
1A0
100
AcDbEntity
  8
M-PIPE
100
AcDbPolyline
 90
       21
 70
   128
 43
0.0
 10
1006.046875641957
 20
1877.160947248035
 10
1006.046875641957
 20
1877.125358243615
 10
1006.046875641957
 20
1877.018648165172
 10
1006.046875641957
 20
1876.840987726065
 10
1006.046875641957
 20
1876.592661145099
 10
1006.046875641957
 20
1876.274065691831
 10
1006.046875641957
 20
1875.885711051022
 10
1006.046875641957
 20
1875.428218507253
 10
1006.046875641957
 20
1874.902319951
 10
1006.046875641957
 20
1874.308856707768
 10
1006.046875641957
 20
1873.648778192148
 10
1006.046875641957
 20
1872.923140388955
 10
1006.046875641957
 20
1872.133104163879
 10
1006.046875641957
 20
1871.27993340635
 10
1006.046875641957
 20
1870.364993007577
 10
1006.046875641957
 20
1869.389746677024
 10
1006.046875641957
 20
1868.355754600778
 10
1006.046875641957
 20
1867.264670945586
 10
1006.046875641957
 20
1866.118241212546
 10
1006.046875641957
 20
1864.918299444672
 10
1006.046875641957
 20
1864.168759748035
1001
REVIT
1002
{
1070
     3
1000
963222
1002
}
  0
LINE
  5
1A4
330
1A0
100
AcDbEntity
  8
M-PIPE
100
AcDbLine
 10
1000.546875641957
 20
1882.660947248034
 30
0.0
 11
999.4531256419575
 21
1882.660947248034
 31
0.0
1001
REVIT
1002
{
1070
     3
1000
963222
1002
}
  0
LINE
  5
1A5
330
1A0
100
AcDbEntity
  8
M-PIPE
100
AcDbLine
 10
996.4531256419574
 20
1882.660947248034
 30
0.0
 11
934.5468756419572
 21
1882.660947248034
 31
0.0
1001
REVIT
1002
{
1070
     3
1000
963222
1002
}
  0
LWPOLYLINE
  5
1A6
330
1A0
100
AcDbEntity
  8
M-PIPE
100
AcDbPolyline
 90
       80
 70
   128
 43
0.0
 10
869.6415630553417
 20
1880.763835631741
 10
869.641825481966
 20
1880.750716050092
 10
869.6454230825034
 20
1880.690828010418
 10
869.6514126881764
 20
1880.631131740438
 10
869.659784716894
 20
1880.571722741451
 10
869.6705257751956
 20
1880.512696055179
 10
869.6836186796792
 20
1880.454146111731
 10
869.699042484491
 20
1880.396166578526
 10
869.7167725148336
 20
1880.338850210448
 10
869.7367804064402
 20
1880.282288701459
 10
869.7590341509529
 20
1880.226572537909
 10
869.7834981471274
 20
1880.171790853773
 10
869.8101332577884
 20
1880.118031288059
 10
869.8388968724408
 20
1880.065379844606
 10
869.8697429754373
 20
1880.013920754491
 10
869.9026222195927
 20
1879.963736341279
 10
869.9374820051309
 20
1879.914906889328
 10
869.9742665638309
 20
1879.867510515344
 10
870.0129170482458
 20
1879.821623043415
 10
870.053371625846
 20
1879.777317883706
 10
870.0955655779367
 20
1879.734665915023
 10
870.1394314031954
 20
1879.693735371415
 10
870.1848989256594
 20
1879.654591733023
 10
870.2318954069921
 20
1879.617297621317
 10
870.2803456628487
 20
1879.581912698921
 10
870.330172183155
 20
1879.54849357416
 10
870.3812952561081
 20
1879.517093710507
 10
870.4336330956968
 20
1879.487763341044
 10
870.4871019725423
 20
1879.460549388107
 10
870.5416163478478
 20
1879.435495388214
 10
870.5970890102424
 20
1879.412641422421
 10
870.6534312152991
 20
1879.392024052197
 10
870.7105528275095
 20
1879.373676260938
 10
870.7683624644786
 20
1879.357627401194
 10
870.8267676431201
 20
1879.343903147718
 10
870.8856749276071
 20
1879.332525456389
 10
870.94499007885
 20
1879.323512529084
 10
871.0046182052607
 20
1879.316878784565
 10
871.064463914557
 20
1879.312634835408
 10
871.12443146637
 20
1879.310787471027
 10
871.1844249254093
 20
1879.311339646809
 10
871.2443483149383
 20
1879.314290479393
 10
871.304105770317
 20
1879.319635248075
 10
871.3636016923643
 20
1879.327365402365
 10
871.4227409002967
 20
1879.337468575666
 10
871.4814287839969
 20
1879.349928605055
 10
871.5395714553707
 20
1879.364725557143
 10
871.597075898547
 20
1879.381835759964
 10
871.6538501186837
 20
1879.401231840844
 10
871.7098032891396
 20
1879.42288277019
 10
871.7648458967781
 20
1879.446753911133
 10
871.8188898851687
 20
1879.472807074942
 10
871.8718487954589
 20
1879.501000582111
 10
871.9236379046895
 20
1879.531289329042
 10
871.9741743613333
 20
1879.563624860204
 10
872.0233773178405
 20
1879.597955445643
 10
872.0711680599764
 20
1879.634226163745
 10
872.1174701327488
 20
1879.6723789891
 10
872.162209462718
 20
1879.712352885326
 10
872.2053144765004
 20
1879.754083902717
 10
872.2467162152693
 20
1879.797505280545
 10
872.2863484450739
 20
1879.84254755387
 10
872.3241477628018
 20
1879.889138664663
 10
872.3600536976073
 20
1879.937204077086
 10
872.3940088076545
 20
1879.986666896731
 10
872.4259587720109
 20
1880.03744799364
 10
872.4558524775487
 20
1880.089466128889
 10
872.4836421007166
 20
1880.142638084559
 10
872.5092831840454
 20
1880.196878796864
 10
872.5327347072713
 20
1880.252101492234
 10
872.5539591529603
 20
1880.308217826138
 10
872.5729225665268
 20
1880.365138024412
 10
872.5895946105543
 20
1880.42277102688
 10
872.6039486133291
 20
1880.481024633034
 10
872.6159616115083
 20
1880.539805649531
 10
872.625614386858
 20
1880.599020039282
 10
872.6328914969965
 20
1880.658573071897
 10
872.6377813001002
 20
1880.718369475227
 10
872.6402759735268
 20
1880.778313587782
 10
872.6404262939404
 20
1880.792236339101
1001
REVIT
1002
{
1070
     3
1000
963222
1002
}
  0
LINE
  5
1A7
330
1A0
100
AcDbEntity
  8
M-PIPE
100
AcDbLine
 10
934.5468756419572
 20
1882.660947248035
 30
0.0
 11
872.6406256419574
 21
1882.660947248034
 31
0.0
1001
REVIT
1002
{
1070
     3
1000
963222
1002
}
  0
LINE
  5
1A8
330
1A0
100
AcDbEntity
  8
M-PIPE
100
AcDbLine
 10
869.6406256419569
 20
1882.660947248034
 30
0.0
 11
868.546875641957
 21
1882.660947248034
 31
0.0
1001
REVIT
1002
{
1070
     3
1000
963222
1002
}
  0
LWPOLYLINE
  5
1A9
330
1A0
100
AcDbEntity
  8
M-PIPE
100
AcDbPolyline
 90
       41
 70
   128
 43
0.0
 10
863.0468756419572
 20
1877.160947248034
 10
863.0512750553219
 20
1877.380888586061
 10
863.0644662572928
 20
1877.600478064865
 10
863.086428144761
 20
1877.819364388123
 10
863.1171255833914
 20
1878.037197384413
 10
863.1565094638304
 20
1878.253628567407
 10
863.204516780271
 20
1878.468311693383
 10
863.261070731248
 20
1878.680903315137
 10
863.3260808425038
 20
1878.891063331423
 10
863.3994431117285
 20
1879.098455531047
 10
863.4810401749414
 20
1879.302748130732
 10
863.5707414942475
 20
1879.503614305897
 10
863.6684035666712
 20
1879.700732713512
 10
863.7738701537301
 20
1879.893788006175
 10
863.8869725313835
 20
1880.082471336599
 10
864.0075297599542
 20
1880.266480851707
 10
864.1353489735935
 20
1880.445522175527
 10
864.2702256888272
 20
1880.619308880136
 10
864.4119441316824
 20
1880.787562943877
 10
864.5602775828823
 20
1880.950015196142
 10
864.7149887405479
 20
1881.106405747982
 10
864.87583009983
 20
1881.256484407874
 10
865.0425443488652
 20
1881.400011081979
 10
865.2148647804184
 20
1881.536756158234
 10
865.3925157185588
 20
1881.66650087369
 10
865.5752129596825
 20
1881.789037664478
 10
865.762664227177
 20
1881.904170497872
 10
865.9545696390017
 20
1882.011715185901
 10
866.1506221874352
 20
1882.111499680005
 10
866.3505082302227
 20
1882.203364346279
 10
866.5539079923354
 20
1882.287162220854
 10
866.760496077544
 20
1882.362759245007
 10
866.9699419889814
 20
1882.430034479625
 10
867.1819106578691
 20
1882.488880298685
 10
867.3960629795542
 20
1882.539202561429
 10
867.6120563560058
 20
1882.580920762971
 10
867.8295452438973
 20
1882.613968163089
 10
868.0481817074035
 20
1882.638291892991
 10
868.2676159748226
 20
1882.6538530399
 10
868.4874969981366
 20
1882.660626709299
 10
868.546875641957
 20
1882.660947248034
1001
REVIT
1002
{
1070
     3
1000
963222
1002
}
  0
LWPOLYLINE
  5
1AA
330
1A0
100
AcDbEntity
  8
M-PIPE
100
AcDbPolyline
 90
       22
 70
   128
 43
0.0
 10
863.0468756419572
 20
1864.168759748034
 10
863.0468756419572
 20
1864.585501448603
 10
863.0468756419572
 20
1865.799561062363
 10
863.0468756419572
 20
1866.960618461547
 10
863.0468756419572
 20
1868.066816201996
 10
863.0468756419572
 20
1869.116384603302
 10
863.0468756419572
 20
1870.107644579917
 10
863.0468756419572
 20
1871.039010327337
 10
863.0468756419572
 20
1871.908991859048
 10
863.0468756419572
 20
1872.716197390184
 10
863.0468756419572
 20
1873.459335564091
 10
863.0468756419572
 20
1874.137217518217
 10
863.0468756419572
 20
1874.748758786043
 10
863.0468756419572
 20
1875.292981031996
 10
863.0468756419572
 20
1875.769013616578
 10
863.0468756419572
 20
1876.176094989199
 10
863.0468756419572
 20
1876.513573906505
 10
863.0468756419572
 20
1876.780910474219
 10
863.0468756419572
 20
1876.977677010861
 10
863.0468756419572
 20
1877.103558731948
 10
863.0468756419572
 20
1877.158354253578
 10
863.0468756419572
 20
1877.160947248034
1001
REVIT
1002
{
1070
     3
1000
963222
1002
}
  0
LWPOLYLINE
  5
1AB
330
1A0
100
AcDbEntity
  8
M-PIPE
100
AcDbPolyline
 90
       41
 70
   128
 43
0.0
 10
863.0468756419572
 20
1877.160947248034
 10
863.0468756419572
 20
1877.125358243614
 10
863.0468756419572
 20
1877.01864816517
 10
863.0468756419572
 20
1876.840987726064
 10
863.0468756419572
 20
1876.592661145098
 10
863.0468756419572
 20
1876.27406569183
 10
863.0468756419572
 20
1875.885711051021
 10
863.0468756419572
 20
1875.428218507252
 10
863.0468756419572
 20
1874.902319950999
 10
863.0468756419572
 20
1874.308856707767
 10
863.0468756419572
 20
1873.648778192147
 10
863.0468756419572
 20
1872.923140388954
 10
863.0468756419574
 20
1872.133104163878
 10
863.0468756419574
 20
1871.279933406349
 10
863.0468756419574
 20
1870.364993007576
 10
863.0468756419574
 20
1869.389746677023
 10
863.0468756419574
 20
1868.355754600777
 10
863.0468756419574
 20
1867.264670945585
 10
863.0468756419574
 20
1866.118241212545
 10
863.0468756419574
 20
1864.91829944467
 10
863.0468756419574
 20
1863.666765292816
 10
863.0468756419572
 20
1862.365640944646
 10
863.0468756419572
 20
1861.017007921557
 10
863.0468756419572
 20
1859.623023748694
 10
863.0468756419572
 20
1858.185918503367
 10
863.0468756419572
 20
1856.707991247402
 10
863.0468756419572
 20
1855.191606349133
 10
863.0468756419572
 20
1853.639189700921
 10
863.0468756419572
 20
1852.053224838236
 10
863.0468756419572
 20
1850.43624896654
 10
863.0468756419574
 20
1848.790848902289
 10
863.0468756419574
 20
1847.119656934587
 10
863.0468756419576
 20
1845.425346614081
 10
863.0468756419576
 20
1843.710628475849
 10
863.0468756419576
 20
1841.978245703125
 10
863.0468756419576
 20
1840.230969738791
 10
863.0468756419576
 20
1838.471595851657
 10
863.0468756419576
 20
1836.70293866463
 10
863.0468756419576
 20
1834.927827651915
 10
863.0468756419576
 20
1833.149102612463
 10
863.0468756419576
 20
1832.668759748034
1001
REVIT
1002
{
1070
     3
1000
963222
1002
}
  0
LWPOLYLINE
  5
1AC
330
1A0
100
AcDbEntity
  8
M-PIPE
100
AcDbPolyline
 90
       80
 70
   128
 43
0.0
 10
996.4540630644833
 20
1880.763835174736
 10
996.4543254819661
 20
1880.750716050092
 10
996.4579230825037
 20
1880.690828010419
 10
996.4639126881769
 20
1880.631131740439
 10
996.4722847168943
 20
1880.571722741451
 10
996.4830257751959
 20
1880.51269605518
 10
996.4961186796797
 20
1880.454146111732
 10
996.5115424844915
 20
1880.396166578526
 10
996.5292725148341
 20
1880.338850210448
 10
996.5492804064409
 20
1880.28228870146
 10
996.5715341509532
 20
1880.22657253791
 10
996.5959981471279
 20
1880.171790853773
 10
996.6226332577887
 20
1880.11803128806
 10
996.6513968724411
 20
1880.065379844607
 10
996.6822429754376
 20
1880.013920754491
 10
996.7151222195932
 20
1879.96373634128
 10
996.7499820051314
 20
1879.914906889329
 10
996.7867665638312
 20
1879.867510515345
 10
996.8254170482463
 20
1879.821623043415
 10
996.8658716258463
 20
1879.777317883707
 10
996.908065577937
 20
1879.734665915023
 10
996.9519314031956
 20
1879.693735371416
 10
996.9973989256597
 20
1879.654591733024
 10
997.0443954069924
 20
1879.617297621318
 10
997.092845662849
 20
1879.581912698921
 10
997.1426721831555
 20
1879.548493574161
 10
997.1937952561084
 20
1879.517093710507
 10
997.2461330956971
 20
1879.487763341045
 10
997.2996019725426
 20
1879.460549388108
 10
997.3541163478483
 20
1879.435495388215
 10
997.4095890102429
 20
1879.412641422422
 10
997.4659312152995
 20
1879.392024052198
 10
997.5230528275098
 20
1879.373676260939
 10
997.5808624644791
 20
1879.357627401195
 10
997.6392676431204
 20
1879.343903147719
 10
997.6981749276076
 20
1879.33252545639
 10
997.7574900788505
 20
1879.323512529085
 10
997.8171182052612
 20
1879.316878784566
 10
997.8769639145573
 20
1879.312634835409
 10
997.9369314663705
 20
1879.310787471028
 10
997.9969249254097
 20
1879.31133964681
 10
998.0568483149388
 20
1879.314290479394
 10
998.1166057703175
 20
1879.319635248075
 10
998.1761016923647
 20
1879.327365402366
 10
998.235240900297
 20
1879.337468575666
 10
998.2939287839974
 20
1879.349928605055
 10
998.3520714553712
 20
1879.364725557144
 10
998.4095758985473
 20
1879.381835759965
 10
998.466350118684
 20
1879.401231840845
 10
998.5223032891401
 20
1879.42288277019
 10
998.5773458967784
 20
1879.446753911134
 10
998.631389885169
 20
1879.472807074942
 10
998.6843487954594
 20
1879.501000582111
 10
998.7361379046896
 20
1879.531289329043
 10
998.7866743613336
 20
1879.563624860205
 10
998.8358773178408
 20
1879.597955445643
 10
998.8836680599767
 20
1879.634226163746
 10
998.9299701327492
 20
1879.672378989101
 10
998.9747094627185
 20
1879.712352885327
 10
999.0178144765009
 20
1879.754083902717
 10
999.0592162152696
 20
1879.797505280546
 10
999.0988484450745
 20
1879.842547553871
 10
999.1366477628019
 20
1879.889138664664
 10
999.1725536976074
 20
1879.937204077086
 10
999.2065088076548
 20
1879.986666896732
 10
999.2384587720112
 20
1880.03744799364
 10
999.2683524775493
 20
1880.08946612889
 10
999.2961421007169
 20
1880.14263808456
 10
999.3217831840457
 20
1880.196878796865
 10
999.3452347072716
 20
1880.252101492235
 10
999.3664591529606
 20
1880.308217826138
 10
999.3854225665272
 20
1880.365138024412
 10
999.4020946105546
 20
1880.422771026881
 10
999.4164486133295
 20
1880.481024633034
 10
999.4284616115088
 20
1880.539805649531
 10
999.4381143868583
 20
1880.599020039283
 10
999.4453914969968
 20
1880.658573071897
 10
999.4502813001005
 20
1880.718369475228
 10
999.4527759735271
 20
1880.778313587783
 10
999.4529262943542
 20
1880.792236377391
1001
REVIT
1002
{
1070
     3
1000
963222
1002
}
  0
LINE
  5
1AD
330
1A0
100
AcDbEntity
  8
M-PIPE
100
AcDbLine
 10
1000.546875641956
 20
1832.668759748034
 30
0.0
 11
1006.046875641956
 21
1832.668759748034
 31
0.0
1001
REVIT
1002
{
1070
     3
1000
963222
1002
}
  0
LINE
  5
1AE
330
1A0
100
AcDbEntity
  8
M-PIPE
100
AcDbLine
 10
999.4531256419561
 20
1882.660947248034
 30
0.0
 11
999.4531256419566
 21
1832.668759748034
 31
0.0
1001
REVIT
1002
{
1070
     3
1000
963222
1002
}
  0
LINE
  5
1AF
330
1A0
100
AcDbEntity
  8
M-PIPE
100
AcDbLine
 10
999.4531256419563
 20
1832.668759748034
 30
0.0
 11
1000.546875641956
 21
1832.668759748034
 31
0.0
1001
REVIT
1002
{
1070
     3
1000
963222
1002
}
  0
LINE
  5
1B0
330
1A0
100
AcDbEntity
  8
M-PIPE
100
AcDbLine
 10
996.4531256419562
 20
1832.668759748034
 30
0.0
 11
996.453125641956
 21
1882.660947248034
 31
0.0
1001
REVIT
1002
{
1070
     3
1000
963222
1002
}
  0
SPLINE
  5
1B1
330
1A0
100
AcDbEntity
  8
M-PIPE
100
AcDbSpline
210
0.0
220
0.0
230
1.0
 70
     8
 71
     3
 72
     9
 73
     5
 74
     0
 42
0.000000001
 43
0.0000000001
 40
0.0
 40
0.0
 40
0.0
 40
0.0
 40
0.5
 40
1.0
 40
1.0
 40
1.0
 40
1.0
 10
934.546875641956
 20
1857.668759748034
 30
0.0
 10
935.3716237036611
 20
1857.667450755423
 30
0.0
 10
937.0038471728847
 20
1857.587457788046
 30
0.0
 10
938.6015253337349
 20
1857.35196966213
 30
0.0
 10
939.3917280870669
 20
1857.194815378426
 30
0.0
1001
REVIT
1002
{
1070
     3
1000
963222
1002
}
  0
LINE
  5
1B2
330
1A0
100
AcDbEntity
  8
M-PIPE
100
AcDbLine
 10
939.3917280870669
 20
1857.194815378426
 30
0.0
 11
984.546875641956
 21
1857.194815378426
 31
0.0
1001
REVIT
1002
{
1070
     3
1000
963222
1002
}
  0
LWPOLYLINE
  5
1B3
330
1A0
100
AcDbEntity
  8
M-PIPE
100
AcDbPolyline
 90
        5
 70
   128
 43
0.0
 10
984.5468756419561
 20
1857.194815378426
 10
989.3585652812641
 20
1851.424400546499
 10
992.8530251391794
 20
1845.346183442664
 10
994.9729069920449
 20
1839.059914806117
 10
995.6834210687455
 20
1832.668759748034
1001
REVIT
1002
{
1070
     3
1000
963222
1002
}
  0
LINE
  5
1B4
330
1A0
100
AcDbEntity
  8
M-PIPE
100
AcDbLine
 10
995.6834210687455
 20
1832.668759748034
 30
0.0
 11
996.4531256419562
 21
1832.668759748034
 31
0.0
1001
REVIT
1002
{
1070
     3
1000
963222
1002
}
  0
LINE
  5
1B5
330
1A0
100
AcDbEntity
  8
M-PIPE
100
AcDbLine
 10
869.640625641956
 20
1832.668759748034
 30
0.0
 11
872.640625641956
 21
1832.668759748034
 31
0.0
1001
REVIT
1002
{
1070
     3
1000
963222
1002
}
  0
ARC
  5
1B6
330
1A0
100
AcDbEntity
  8
M-PIPE
100
AcDbCircle
 10
934.5468756419561
 20
1832.668759748034
 30
0.0
 40
25.0
100
AcDbArc
 50
101.174286752402
 51
168.420376134515
1001
REVIT
1002
{
1070
     3
1000
963222
1002
}
  0
ARC
  5
1B7
330
1A0
100
AcDbEntity
  8
M-PIPE
100
AcDbCircle
 10
934.5468756419561
 20
1832.668759748034
 30
0.0
 40
25.00000000000008
100
AcDbArc
 50
11.5796238654851
 51
78.82571324758498
1001
REVIT
1002
{
1070
     3
1000
963222
1002
}
  0
LINE
  5
1B8
330
1A0
100
AcDbEntity
  8
M-PIPE
100
AcDbLine
 10
984.546875641956
 20
1857.194815378426
 30
0.0
 11
984.5468756419561
 21
1832.668759748034
 31
0.0
1001
REVIT
1002
{
1070
     3
1000
963222
1002
}
  0
LINE
  5
1B9
330
1A0
100
AcDbEntity
  8
M-PIPE
100
AcDbLine
 10
984.5468756419561
 20
1832.668759748034
 30
0.0
 11
995.6834210687455
 21
1832.668759748034
 31
0.0
1001
REVIT
1002
{
1070
     3
1000
963222
1002
}
  0
LINE
  5
1BA
330
1A0
100
AcDbEntity
  8
M-PIPE
100
AcDbLine
 10
873.410330215165
 20
1832.668759748034
 30
0.0
 11
884.5468756419561
 21
1832.668759748034
 31
0.0
1001
REVIT
1002
{
1070
     3
1000
963222
1002
}
  0
LINE
  5
1BB
330
1A0
100
AcDbEntity
  8
M-PIPE
100
AcDbLine
 10
884.5468756419561
 20
1832.668759748034
 30
0.0
 11
884.546875641956
 21
1857.194815378428
 31
0.0
1001
REVIT
1002
{
1070
     3
1000
963222
1002
}
  0
LINE
  5
1BC
330
1A0
100
AcDbEntity
  8
M-PIPE
100
AcDbLine
 10
884.5468756419561
 20
1832.668759748034
 30
0.0
 11
908.5468756419562
 21
1832.668759748034
 31
0.0
1001
REVIT
1002
{
1070
     3
1000
963222
1002
}
  0
LINE
  5
1BD
330
1A0
100
AcDbEntity
  8
M-PIPE
100
AcDbLine
 10
960.5468756419563
 20
1832.668759748034
 30
0.0
 11
984.5468756419561
 21
1832.668759748034
 31
0.0
1001
REVIT
1002
{
1070
     3
1000
963222
1002
}
  0
LINE
  5
1BE
330
1A0
100
AcDbEntity
  8
M-PIPE
100
AcDbLine
 10
872.6406256419563
 20
1832.668759748034
 30
0.0
 11
872.640625641956
 21
1882.660947248034
 31
0.0
1001
REVIT
1002
{
1070
     3
1000
963222
1002
}
  0
LINE
  5
1BF
330
1A0
100
AcDbEntity
  8
M-PIPE
100
AcDbLine
 10
872.640625641956
 20
1832.668759748034
 30
0.0
 11
873.410330215165
 21
1832.668759748034
 31
0.0
1001
REVIT
1002
{
1070
     3
1000
963222
1002
}
  0
LWPOLYLINE
  5
1C0
330
1A0
100
AcDbEntity
  8
M-PIPE
100
AcDbPolyline
 90
        5
 70
   128
 43
0.0
 10
884.546875641956
 20
1857.194815378428
 10
879.7351860026475
 20
1851.4244005465
 10
876.2407261447318
 20
1845.346183442665
 10
874.120844291866
 20
1839.059914806118
 10
873.410330215165
 20
1832.668759748034
1001
REVIT
1002
{
1070
     3
1000
963222
1002
}
  0
LINE
  5
1C1
330
1A0
100
AcDbEntity
  8
M-PIPE
100
AcDbLine
 10
929.7020231968511
 20
1857.194815378429
 30
0.0
 11
884.546875641956
 21
1857.194815378428
 31
0.0
1001
REVIT
1002
{
1070
     3
1000
963222
1002
}
  0
SPLINE
  5
1C2
330
1A0
100
AcDbEntity
  8
M-PIPE
100
AcDbSpline
210
0.0
220
0.0
230
1.0
 70
     8
 71
     3
 72
     9
 73
     5
 74
     0
 42
0.000000001
 43
0.0000000001
 40
-1.0
 40
-1.0
 40
-1.0
 40
-1.0
 40
-0.5
 40
0.0
 40
0.0
 40
0.0
 40
0.0
 10
934.546875641956
 20
1857.668759748034
 30
0.0
 10
933.721797991876
 20
1857.667418370252
 30
0.0
 10
932.0892449342784
 20
1857.587392963512
 30
0.0
 10
930.491896361806
 20
1857.351937074797
 30
0.0
 10
929.7020231968511
 20
1857.194815378427
 30
0.0
1001
REVIT
1002
{
1070
     3
1000
963222
1002
}
  0
LINE
  5
1C3
330
1A0
100
AcDbEntity
  8
M-PIPE
100
AcDbLine
 10
868.5468756419561
 20
1832.668759748034
 30
0.0
 11
869.640625641956
 21
1832.668759748034
 31
0.0
1001
REVIT
1002
{
1070
     3
1000
963222
1002
}
  0
LINE
  5
1C4
330
1A0
100
AcDbEntity
  8
M-PIPE
100
AcDbLine
 10
869.6406256419555
 20
1882.660947248034
 30
0.0
 11
869.640625641956
 21
1832.668759748034
 31
0.0
1001
REVIT
1002
{
1070
     3
1000
963222
1002
}
  0
LINE
  5
1C5
330
1A0
100
AcDbEntity
  8
M-PIPE
100
AcDbLine
 10
863.0468756419562
 20
1832.668759748034
 30
0.0
 11
868.5468756419561
 21
1832.668759748034
 31
0.0
1001
REVIT
1002
{
1070
     3
1000
963222
1002
}
  0
LINE
  5
1C6
330
1A0
100
AcDbEntity
  8
M-PIPE
100
AcDbLine
 10
996.4531256419562
 20
1832.668759748034
 30
0.0
 11
999.4531256419563
 21
1832.668759748034
 31
0.0
1001
REVIT
1002
{
1070
     3
1000
963222
1002
}
  0
LWPOLYLINE
  5
1C7
330
1A0
100
AcDbEntity
  8
P-SANR-FIXT
100
AcDbPolyline
 90
       67
 70
   128
 43
0.0
 10
953.3909668909407
 20
1837.683759748034
 10
953.1753471169249
 20
1838.433310945339
 10
952.929925762411
 20
1839.173640090432
 10
952.6550954492124
 20
1839.903562814611
 10
952.3512958472032
 20
1840.621911397226
 10
952.0190129709394
 20
1841.327536633785
 10
951.6587784021398
 20
1842.019309674433
 10
951.2711684392682
 20
1842.696123829877
 10
950.8568031755798
 20
1843.356896341847
 10
950.4163455071036
 20
1844.00057011528
 10
949.9505000721493
 20
1844.626115409451
 10
949.4600121240379
 20
1845.232531485329
 10
948.9456663388548
 20
1845.818848206556
 10
948.4082855601345
 20
1846.384127591452
 10
947.8487294824885
 20
1846.927465313588
 10
947.2678932762752
 20
1847.447992148514
 10
946.6667061555192
 20
1847.944875364333
 10
946.0461298913674
 20
1848.417320053899
 10
945.40715727346
 20
1848.864570406487
 10
944.7508105216787
 20
1849.285910916945
 10
944.0781396508132
 20
1849.680667530335
 10
943.3902207907614
 20
1850.048208720287
 10
942.6881544649512
 20
1850.387946499301
 10
941.9730638297377
 20
1850.699337359406
 10
941.2460928775928
 20
1850.981883141649
 10
940.5084046069612
 20
1851.235131833055
 10
939.7611791617103
 20
1851.458678289739
 10
939.0056119431536
 20
1851.652164885059
 10
938.2429116976609
 20
1851.815282081736
 10
937.4742985829248
 20
1851.947768927053
 10
936.701002215967
 20
1852.04941347032
 10
935.9242597060129
 20
1852.12005310195
 10
935.145313675383
 20
1852.159574813602
 10
934.3654102715595
 20
1852.167915378968
 10
933.5857971736176
 20
1852.145061454922
 10
932.8077215962066
 20
1852.091049602868
 10
932.0324282942687
 20
1852.005966230246
 10
931.2611575717001
 20
1851.889947452305
 10
930.4951432971284
 20
1851.743178874338
 10
929.7356109299849
 20
1851.56589529476
 10
928.9837755600323
 20
1851.358380329482
 10
928.2408399634791
 20
1851.120965958181
 10
927.5079926787958
 20
1850.854031993203
 10
926.7864061053051
 20
1850.558005471951
 10
926.0772346275945
 20
1850.233359973711
 10
925.3816127687468
 20
1849.880614862023
 10
924.7006533753442
 20
1849.50033445382
 10
924.035445837153
 20
1849.093127116632
 10
923.3870543443305
 20
1848.659644295333
 10
922.7565161849494
 20
1848.200579469964
 10
922.1448400855567
 20
1847.716667046319
 10
921.5530045974281
 20
1847.208681181045
 10
920.9819565310928
 20
1846.677434543163
 10
920.4326094416396
 20
1846.123777013967
 10
919.9058421672241
 20
1845.548594327397
 10
919.4024974231142
 20
1844.95280665305
 10
918.9233804535261
 20
1844.337367124112
 10
918.469257743405
 20
1843.703260312543
 10
918.0408557922126
 20
1843.051500653972
 10
917.6388599516835
 20
1842.383130824818
 10
917.2639133294078
 20
1841.699220074229
 10
916.9166157599969
 20
1841.000862513515
 10
916.5975228454755
 20
1840.289175365795
 10
916.3071450664373
 20
1839.56529717869
 10
916.0459469653851
 20
1838.830386002878
 10
915.8143464035614
 20
1838.085617539469
 10
915.7027843929745
 20
1837.683759748034
  0
LWPOLYLINE
  5
1C8
330
1A0
100
AcDbEntity
  8
P-SANR-FIXT
100
AcDbPolyline
 90
       67
 70
   128
 43
0.0
 10
915.7027843929745
 20
1827.653759748034
 10
915.9184041669904
 20
1826.904208550731
 10
916.1638255215045
 20
1826.163879405637
 10
916.4386558347029
 20
1825.433956681458
 10
916.7424554367121
 20
1824.715608098842
 10
917.0747383129759
 20
1824.009982862284
 10
917.4349728817755
 20
1823.318209821636
 10
917.8225828446469
 20
1822.641395666192
 10
918.2369481083352
 20
1821.980623154222
 10
918.6774057768118
 20
1821.336949380788
 10
919.143251211766
 20
1820.711404086618
 10
919.6337391598772
 20
1820.10498801074
 10
920.1480849450607
 20
1819.518671289512
 10
920.6854657237808
 20
1818.953391904616
 10
921.2450218014268
 20
1818.41005418248
 10
921.8258580076403
 20
1817.889527347555
 10
922.4270451283961
 20
1817.392644131735
 10
923.0476213925479
 20
1816.92019944217
 10
923.6865940104554
 20
1816.472949089582
 10
924.3429407622366
 20
1816.051608579124
 10
925.0156116331021
 20
1815.656851965734
 10
925.7035304931539
 20
1815.289310775782
 10
926.4055968189641
 20
1814.949572996767
 10
927.1206874541773
 20
1814.638182136663
 10
927.8476584063222
 20
1814.355636354419
 10
928.5853466769541
 20
1814.102387663014
 10
929.332572122205
 20
1813.87884120633
 10
930.0881393407617
 20
1813.68535461101
 10
930.8508395862544
 20
1813.522237414332
 10
931.6194527009903
 20
1813.389750569015
 10
932.3927490679484
 20
1813.288106025748
 10
933.1694915779022
 20
1813.217466394118
 10
933.9484376085323
 20
1813.177944682467
 10
934.7283410123559
 20
1813.169604117101
 10
935.5079541102975
 20
1813.192458041147
 10
936.2860296877087
 20
1813.246469893201
 10
937.0613229896466
 20
1813.331553265822
 10
937.8325937122152
 20
1813.447572043764
 10
938.5986079867869
 20
1813.594340621731
 10
939.3581403539304
 20
1813.771624201309
 10
940.109975723883
 20
1813.979139166586
 10
940.8529113204362
 20
1814.216553537888
 10
941.5857586051195
 20
1814.483487502865
 10
942.3073451786102
 20
1814.779514024117
 10
943.0165166563206
 20
1815.104159522358
 10
943.7121385151685
 20
1815.456904634045
 10
944.3930979085711
 20
1815.837185042249
 10
945.0583054467623
 20
1816.244392379436
 10
945.7066969395848
 20
1816.677875200736
 10
946.3372350989658
 20
1817.136940026104
 10
946.9489111983584
 20
1817.620852449749
 10
947.5407466864872
 20
1818.128838315023
 10
948.1117947528227
 20
1818.660084952905
 10
948.6611418422757
 20
1819.213742482101
 10
949.1879091166913
 20
1819.788925168672
 10
949.6912538608011
 20
1820.384712843019
 10
950.1703708303891
 20
1821.000152371956
 10
950.6244935405103
 20
1821.634259183526
 10
951.0528954917026
 20
1822.286018842097
 10
951.4548913322316
 20
1822.954388671251
 10
951.8298379545075
 20
1823.638299421839
 10
952.1771355239184
 20
1824.336656982554
 10
952.4962284384399
 20
1825.048344130273
 10
952.7866062174778
 20
1825.772222317379
 10
953.0478043185301
 20
1826.507133493191
 10
953.2794048803539
 20
1827.2519019566
 10
953.3909668909407
 20
1827.653759748034
  0
LWPOLYLINE
  5
1C9
330
1A0
100
AcDbEntity
  8
P-SANR-FIXT
100
AcDbPolyline
 90
       69
 70
   128
 43
0.0
 10
957.7613598059446
 20
1837.683759748034
 10
957.5422441837471
 20
1838.608080048143
 10
957.2863408772997
 20
1839.522898702759
 10
956.9940592773029
 20
1840.426752197186
 10
956.6658669719666
 20
1841.318194558644
 10
956.3022889989687
 20
1842.19579966952
 10
955.9039070055073
 20
1843.058163548848
 10
955.4713583177875
 20
1843.903906598383
 10
955.0053349214381
 20
1844.731675809661
 10
954.5065823544801
 20
1845.540146928524
 10
953.9758985146258
 20
1846.328026573649
 10
953.4141323828125
 20
1847.094054305674
 10
952.8221826650135
 20
1847.837004643639
 10
952.2009963545023
 20
1848.555689025491
 10
951.5515672168623
 20
1849.248957709529
 10
950.8749342001767
 20
1849.91570161375
 10
950.1721797729311
 20
1850.554854090136
 10
949.4444281922966
 20
1851.165392631073
 10
948.6928437055567
 20
1851.746340505133
 10
947.9186286875604
 20
1852.29676831965
 10
947.1230217171797
 20
1852.815795507537
 10
946.3072955958468
 20
1853.302591736014
 10
945.4727553113434
 20
1853.75637823496
 10
944.620735950099
 20
1854.176429042778
 10
943.7526005613372
 20
1854.562072167783
 10
942.8697379764875
 20
1854.91269066324
 10
941.9735605873519
 20
1855.227723614353
 10
941.0655020865787
 20
1855.506667035601
 10
940.1470151740602
 20
1855.749074677016
 10
939.2195692329231
 20
1855.954558738083
 10
938.2846479788284
 20
1856.122790488138
 10
937.3437470863439
 20
1856.253500792268
 10
936.3983717961824
 20
1856.346480541871
 10
935.4500345071388
 20
1856.401580989182
 10
934.5002523565744
 20
1856.418713985238
 10
933.5505447933211
 20
1856.397852120901
 10
932.6024311468863
 20
1856.339028770705
 10
931.657428196851
 20
1856.24233803946
 10
930.7170477463451
 20
1856.107934611711
 10
929.7827942034858
 20
1855.93603350427
 10
928.8561621746449
 20
1855.72690972224
 10
927.9386340733978
 20
1855.480897819061
 10
927.0316777489775
 20
1855.198391361297
 10
926.1367441380286
 20
1854.879842299019
 10
925.2552649434207
 20
1854.525760242769
 10
924.3886503438259
 20
1854.136711648307
 10
923.5382867377358
 20
1853.713318910389
 10
922.7055345255184
 20
1853.256259367078
 10
921.8917259330693
 20
1852.766264216143
 10
921.0981628805335
 20
1852.244117345297
 10
920.3261148995098
 20
1851.690654078149
 10
919.5768171020738
 20
1851.106759837861
 10
918.8514682048591
 20
1850.49336873066
 10
918.1512286113692
 20
1849.851462051466
 10
917.4772185555765
 20
1849.182066714035
 10
916.8305163097896
 20
1848.486253608109
 10
916.2121564596455
 20
1847.765135886226
 10
915.6231282489951
 20
1847.01986718291
 10
915.0643739973224
 20
1846.251639769105
 10
914.536787592236
 20
1845.461682644792
 10
914.0412130594379
 20
1844.651259572856
 10
913.5784432124639
 20
1843.821667057331
 10
913.1492183843498
 20
1842.97423226927
 10
912.7542252432579
 20
1842.110310923559
 10
912.3940956939534
 20
1841.231285110058
 10
912.0694058668911
 20
1840.338561082552
 10
911.7806751965311
 20
1839.433567009048
 10
911.5283655903533
 20
1838.517750687008
 10
911.3323914779707
 20
1837.683759748034
  0
LWPOLYLINE
  5
1CA
330
1A0
100
AcDbEntity
  8
P-SANR-FIXT
100
AcDbPolyline
 90
       69
 70
   128
 43
0.0
 10
911.3323914779705
 20
1827.653759748034
 10
911.5515071001681
 20
1826.729439447926
 10
911.8074104066156
 20
1825.814620793309
 10
912.0996920066124
 20
1824.910767298883
 10
912.4278843119487
 20
1824.019324937424
 10
912.7914622849463
 20
1823.141719826548
 10
913.1898442784081
 20
1822.279355947221
 10
913.6223929661278
 20
1821.433612897686
 10
914.0884163624772
 20
1820.605843686408
 10
914.5871689294351
 20
1819.797372567544
 10
915.1178527692895
 20
1819.00949292242
 10
915.679618901103
 20
1818.243465190395
 10
916.2715686189015
 20
1817.500514852429
 10
916.892754929413
 20
1816.781830470578
 10
917.542184067053
 20
1816.088561786539
 10
918.2188170837386
 20
1815.421817882319
 10
918.9215715109842
 20
1814.782665405932
 10
919.6493230916187
 20
1814.172126864997
 10
920.4009075783588
 20
1813.591178990935
 10
921.1751225963551
 20
1813.040751176419
 10
921.9707295667356
 20
1812.521723988532
 10
922.7864556880685
 20
1812.034927760055
 10
923.6209959725721
 20
1811.581141261109
 10
924.4730153338164
 20
1811.161090453291
 10
925.3411507225781
 20
1810.775447328286
 10
926.2240133074278
 20
1810.424828832828
 10
927.1201906965634
 20
1810.109795881716
 10
928.0282491973366
 20
1809.830852460468
 10
928.9467361098552
 20
1809.588444819052
 10
929.8741820509922
 20
1809.382960757986
 10
930.8091033050867
 20
1809.214729007931
 10
931.7500041975714
 20
1809.0840187038
 10
932.6953794877329
 20
1808.991038954198
 10
933.6437167767765
 20
1808.935938506887
 10
934.5934989273409
 20
1808.918805510831
 10
935.5432064905942
 20
1808.939667375167
 10
936.4913201370288
 20
1808.998490725364
 10
937.4363230870644
 20
1809.095181456609
 10
938.3767035375703
 20
1809.229584884358
 10
939.3109570804295
 20
1809.401485991799
 10
940.2375891092701
 20
1809.610609773829
 10
941.1551172105173
 20
1809.856621677008
 10
942.0620735349379
 20
1810.139128134771
 10
942.9570071458865
 20
1810.45767719705
 10
943.8384863404946
 20
1810.811759253299
 10
944.7051009400892
 20
1811.200807847762
 10
945.5554645461797
 20
1811.62420058568
 10
946.3882167583967
 20
1812.08126012899
 10
947.2020253508459
 20
1812.571255279926
 10
947.9955884033818
 20
1813.093402150772
 10
948.7676363844055
 20
1813.646865417919
 10
949.5169341818415
 20
1814.230759658208
 10
950.2422830790562
 20
1814.844150765409
 10
950.9425226725461
 20
1815.486057444602
 10
951.6165327283388
 20
1816.155452782034
 10
952.2632349741257
 20
1816.851265887959
 10
952.8815948242698
 20
1817.572383609843
 10
953.4706230349202
 20
1818.317652313159
 10
954.0293772865929
 20
1819.085879726964
 10
954.5569636916793
 20
1819.875836851277
 10
955.0525382244774
 20
1820.686259923213
 10
955.5153080714514
 20
1821.515852438738
 10
955.9445328995655
 20
1822.363287226798
 10
956.3395260406574
 20
1823.227208572509
 10
956.6996555899619
 20
1824.106234386011
 10
957.0243454170242
 20
1824.998958413517
 10
957.3130760873844
 20
1825.903952487021
 10
957.5653856935618
 20
1826.819768809061
 10
957.7613598059446
 20
1827.653759748034
  0
LINE
  5
1CB
330
1A0
100
AcDbEntity
  8
P-SANR-FIXT
100
AcDbLine
 10
915.1035339194757
 20
1827.653759748034
 30
0.0
 11
911.6584240796484
 21
1827.653759748034
 31
0.0
  0
LINE
  5
1CC
330
1A0
100
AcDbEntity
  8
P-SANR-FIXT
100
AcDbLine
 10
911.6584240796484
 20
1827.653759748034
 30
0.0
 11
908.5468756419562
 21
1827.653759748034
 31
0.0
  0
LINE
  5
1CD
330
1A0
100
AcDbEntity
  8
P-SANR-FIXT
100
AcDbLine
 10
919.3531343317982
 20
1827.653759748034
 30
0.0
 11
915.1035339194757
 21
1827.653759748034
 31
0.0
  0
LINE
  5
1CE
330
1A0
100
AcDbEntity
  8
P-SANR-FIXT
100
AcDbLine
 10
960.5468756419563
 20
1827.653759748034
 30
0.0
 11
957.4353272042646
 21
1827.653759748034
 31
0.0
  0
LINE
  5
1CF
330
1A0
100
AcDbEntity
  8
P-SANR-FIXT
100
AcDbLine
 10
957.4353272042641
 20
1827.653759748034
 30
0.0
 11
953.9902173644367
 21
1827.653759748034
 31
0.0
  0
LINE
  5
1D0
330
1A0
100
AcDbEntity
  8
P-SANR-FIXT
100
AcDbLine
 10
953.9902173644366
 20
1827.653759748034
 30
0.0
 11
949.7406169521141
 21
1827.653759748034
 31
0.0
  0
LINE
  5
1D1
330
1A0
100
AcDbEntity
  8
P-SANR-FIXT
100
AcDbLine
 10
908.5468756419562
 20
1827.653759748034
 30
0.0
 11
908.5468756419562
 21
1837.683759748034
 31
0.0
  0
LINE
  5
1D2
330
1A0
100
AcDbEntity
  8
P-SANR-FIXT
100
AcDbLine
 10
908.5468756419562
 20
1837.683759748034
 30
0.0
 11
911.658424079648
 21
1837.683759748034
 31
0.0
  0
LINE
  5
1D3
330
1A0
100
AcDbEntity
  8
P-SANR-FIXT
100
AcDbLine
 10
911.6584240796484
 20
1837.683759748034
 30
0.0
 11
915.1035339194757
 21
1837.683759748034
 31
0.0
  0
LINE
  5
1D4
330
1A0
100
AcDbEntity
  8
P-SANR-FIXT
100
AcDbLine
 10
919.3531343317982
 20
1837.683759748034
 30
0.0
 11
915.1035339194757
 21
1837.683759748034
 31
0.0
  0
LINE
  5
1D5
330
1A0
100
AcDbEntity
  8
P-SANR-FIXT
100
AcDbLine
 10
953.9902173644366
 20
1837.683759748034
 30
0.0
 11
957.4353272042641
 21
1837.683759748034
 31
0.0
  0
LINE
  5
1D6
330
1A0
100
AcDbEntity
  8
P-SANR-FIXT
100
AcDbLine
 10
957.4353272042642
 20
1837.683759748034
 30
0.0
 11
960.5468756419563
 21
1837.683759748034
 31
0.0
  0
LINE
  5
1D7
330
1A0
100
AcDbEntity
  8
P-SANR-FIXT
100
AcDbLine
 10
953.9902173644366
 20
1837.683759748034
 30
0.0
 11
949.7406169521141
 21
1837.683759748034
 31
0.0
  0
LINE
  5
1D8
330
1A0
100
AcDbEntity
  8
P-SANR-FIXT
100
AcDbLine
 10
960.5468756419563
 20
1837.683759748034
 30
0.0
 11
960.5468756419563
 21
1827.653759748034
 31
0.0
  0
LINE
  5
1D9
330
1A0
100
AcDbEntity
  8
P-SANR-FIXT
100
AcDbLine
 10
887.0468756419578
 20
1808.168759748034
 30
0.0
 11
887.3356439543728
 21
1807.668598359315
 31
0.0
  0
LINE
  5
1DA
330
1A0
100
AcDbEntity
  8
P-SANR-FIXT
100
AcDbLine
 10
925.5268085671271
 20
1855.168759748034
 30
0.0
 11
923.6868225166134
 21
1855.168759748034
 31
0.0
  0
LINE
  5
1DB
330
1A0
100
AcDbEntity
  8
P-SANR-FIXT
100
AcDbLine
 10
916.0468756419579
 20
1810.168759748034
 30
0.0
 11
925.5268085671279
 21
1810.168759748034
 31
0.0
  0
LWPOLYLINE
  5
1DC
330
1A0
100
AcDbEntity
  8
P-SANR-FIXT
100
AcDbPolyline
 90
       11
 70
   128
 43
0.0
 10
950.5052897296106
 20
1850.915130486298
 10
950.5721563003508
 20
1850.903713938165
 10
950.6911496593636
 20
1850.888265293782
 10
950.8106656173838
 20
1850.877587471866
 10
950.9305129743745
 20
1850.871697554655
 10
951.0505000001304
 20
1850.870604964759
 10
951.1704347410059
 20
1850.87431145009
 10
951.2901253270005
 20
1850.882811081061
 10
951.4093802787092
 20
1850.896090260077
 10
951.5280088136492
 20
1850.914127743283
 10
951.6013897659215
 20
1850.928308423574
  0
LWPOLYLINE
  5
1DD
330
1A0
100
AcDbEntity
  8
P-SANR-FIXT
100
AcDbPolyline
 90
       24
 70
   128
 43
0.0
 10
953.046875641958
 20
1813.676826352054
 10
952.956886828861
 20
1813.756199481133
 10
952.8637959186324
 20
1813.831910527456
 10
952.7677518368696
 20
1813.903838369497
 10
952.6689082336156
 20
1813.971867938055
 10
952.5674232375497
 20
1814.035890400331
 10
952.4634592030166
 20
1814.095803334043
 10
952.3571824502939
 20
1814.151510891279
 10
952.2487629995149
 20
1814.202923951829
 10
952.1383742986724
 20
1814.249960265765
 10
952.0261929461398
 20
1814.292544585019
 10
951.9123984081497
 20
1814.330608783764
 10
951.7971727316888
 20
1814.364091967401
 10
951.6807002532587
 20
1814.39294056998
 10
951.5631673039788
 20
1814.41710843989
 10
951.4447619114958
 20
1814.436556913695
 10
951.3256734991793
 20
1814.451254877986
 10
951.2060925830846
 20
1814.461178819156
 10
951.0862104671682
 20
1814.466312861015
 10
950.9662189372422
 20
1814.466648790191
 10
950.8463099541575
 20
1814.462186069271
 10
950.7266753467082
 20
1814.452931837655
 10
950.6075065047451
 20
1814.438900900139
 10
950.5056940858935
 20
1814.422762792874
  0
LINE
  5
1DE
330
1A0
100
AcDbEntity
  8
P-SANR-FIXT
100
AcDbLine
 10
981.7581073295427
 20
1807.668598359316
 30
0.0
 11
982.0468756419579
 21
1808.168759748035
 31
0.0
  0
LINE
  5
1DF
330
1A0
100
AcDbEntity
  8
P-SANR-FIXT
100
AcDbLine
 10
971.0468756419581
 20
1798.668759748035
 30
0.0
 11
971.0468756419578
 21
1807.668759748035
 31
0.0
  0
LINE
  5
1E0
330
1A0
100
AcDbEntity
  8
P-SANR-FIXT
100
AcDbLine
 10
953.046875641958
 20
1813.676826352054
 30
0.0
 11
953.046875641958
 21
1798.668759748034
 31
0.0
  0
LINE
  5
1E1
330
1A0
100
AcDbEntity
  8
P-SANR-FIXT
100
AcDbLine
 10
898.0468756419579
 20
1807.668759748034
 30
0.0
 11
898.0468756419579
 21
1798.668759748034
 31
0.0
  0
LINE
  5
1E2
330
1A0
100
AcDbEntity
  8
P-SANR-FIXT
100
AcDbLine
 10
916.0468756419579
 20
1798.668759748034
 30
0.0
 11
916.0468756419579
 21
1810.168759748034
 31
0.0
  0
LINE
  5
1E3
330
1A0
100
AcDbEntity
  8
P-SANR-FIXT
100
AcDbLine
 10
970.0468756419564
 20
1793.168759748034
 30
0.0
 11
969.6175898562277
 21
1793.168759748034
 31
0.0
  0
LINE
  5
1E4
330
1A0
100
AcDbEntity
  8
P-SANR-FIXT
100
AcDbLine
 10
969.6175898562277
 20
1793.168759748034
 30
0.0
 11
962.4761614276849
 21
1793.168759748034
 31
0.0
  0
LINE
  5
1E5
330
1A0
100
AcDbEntity
  8
P-SANR-FIXT
100
AcDbLine
 10
962.4761614276849
 20
1793.168759748034
 30
0.0
 11
961.6175898562278
 21
1793.168759748034
 31
0.0
  0
LINE
  5
1E6
330
1A0
100
AcDbEntity
  8
P-SANR-FIXT
100
AcDbLine
 10
961.6175898562278
 20
1793.168759748034
 30
0.0
 11
954.4761614276849
 21
1793.168759748034
 31
0.0
  0
LINE
  5
1E7
330
1A0
100
AcDbEntity
  8
P-SANR-FIXT
100
AcDbLine
 10
954.4761614276849
 20
1793.168759748034
 30
0.0
 11
954.0468756419564
 21
1793.168759748034
 31
0.0
  0
LINE
  5
1E8
330
1A0
100
AcDbEntity
  8
P-SANR-FIXT
100
AcDbLine
 10
970.0468756419564
 20
1798.668759748034
 30
0.0
 11
970.0468756419564
 21
1793.168759748034
 31
0.0
  0
LINE
  5
1E9
330
1A0
100
AcDbEntity
  8
P-SANR-FIXT
100
AcDbLine
 10
969.6175898562277
 20
1793.168759748034
 30
0.0
 11
969.6175898562277
 21
1798.668759748034
 31
0.0
  0
LINE
  5
1EA
330
1A0
100
AcDbEntity
  8
P-SANR-FIXT
100
AcDbLine
 10
962.4761614276849
 20
1798.668759748034
 30
0.0
 11
962.4761614276849
 21
1793.168759748034
 31
0.0
  0
LINE
  5
1EB
330
1A0
100
AcDbEntity
  8
P-SANR-FIXT
100
AcDbLine
 10
961.6175898562278
 20
1793.168759748034
 30
0.0
 11
961.6175898562278
 21
1798.668759748034
 31
0.0
  0
LINE
  5
1EC
330
1A0
100
AcDbEntity
  8
P-SANR-FIXT
100
AcDbLine
 10
954.4761614276849
 20
1798.668759748034
 30
0.0
 11
954.4761614276849
 21
1793.168759748034
 31
0.0
  0
LINE
  5
1ED
330
1A0
100
AcDbEntity
  8
P-SANR-FIXT
100
AcDbLine
 10
954.0468756419564
 20
1793.168759748034
 30
0.0
 11
954.0468756419564
 21
1798.668759748034
 31
0.0
  0
LINE
  5
1EE
330
1A0
100
AcDbEntity
  8
P-SANR-FIXT
100
AcDbLine
 10
899.476161427685
 20
1793.168759748034
 30
0.0
 11
899.0468756419563
 21
1793.168759748034
 31
0.0
  0
LINE
  5
1EF
330
1A0
100
AcDbEntity
  8
P-SANR-FIXT
100
AcDbLine
 10
915.0468756419563
 20
1793.168759748034
 30
0.0
 11
914.6175898562278
 21
1793.168759748034
 31
0.0
  0
LINE
  5
1F0
330
1A0
100
AcDbEntity
  8
P-SANR-FIXT
100
AcDbLine
 10
907.4761614276848
 20
1793.168759748034
 30
0.0
 11
914.6175898562278
 21
1793.168759748034
 31
0.0
  0
LINE
  5
1F1
330
1A0
100
AcDbEntity
  8
P-SANR-FIXT
100
AcDbLine
 10
907.4761614276848
 20
1793.168759748034
 30
0.0
 11
906.6175898562276
 21
1793.168759748034
 31
0.0
  0
LINE
  5
1F2
330
1A0
100
AcDbEntity
  8
P-SANR-FIXT
100
AcDbLine
 10
899.476161427685
 20
1793.168759748034
 30
0.0
 11
906.6175898562276
 21
1793.168759748034
 31
0.0
  0
LINE
  5
1F3
330
1A0
100
AcDbEntity
  8
P-SANR-FIXT
100
AcDbLine
 10
899.476161427685
 20
1798.668759748033
 30
0.0
 11
899.476161427685
 21
1793.168759748034
 31
0.0
  0
LINE
  5
1F4
330
1A0
100
AcDbEntity
  8
P-SANR-FIXT
100
AcDbLine
 10
899.0468756419563
 20
1793.168759748034
 30
0.0
 11
899.0468756419563
 21
1798.668759748033
 31
0.0
  0
LINE
  5
1F5
330
1A0
100
AcDbEntity
  8
P-SANR-FIXT
100
AcDbLine
 10
915.0468756419563
 20
1798.668759748034
 30
0.0
 11
915.0468756419563
 21
1793.168759748034
 31
0.0
  0
LINE
  5
1F6
330
1A0
100
AcDbEntity
  8
P-SANR-FIXT
100
AcDbLine
 10
914.6175898562278
 20
1793.168759748034
 30
0.0
 11
914.6175898562278
 21
1798.668759748034
 31
0.0
  0
LINE
  5
1F7
330
1A0
100
AcDbEntity
  8
P-SANR-FIXT
100
AcDbLine
 10
907.476161427685
 20
1798.668759748034
 30
0.0
 11
907.476161427685
 21
1793.168759748034
 31
0.0
  0
LINE
  5
1F8
330
1A0
100
AcDbEntity
  8
P-SANR-FIXT
100
AcDbLine
 10
906.6175898562276
 20
1793.168759748034
 30
0.0
 11
906.6175898562276
 21
1798.668759748034
 31
0.0
  0
LINE
  5
1F9
330
1A0
100
AcDbEntity
  8
P-SANR-FIXT
100
AcDbLine
 10
887.0468756419564
 20
1808.168759748034
 30
0.0
 11
887.0468756419562
 21
1832.668759748034
 31
0.0
  0
SPLINE
  5
1FA
330
1A0
100
AcDbEntity
  8
P-SANR-FIXT
100
AcDbSpline
210
0.0
220
0.0
230
1.0
 70
    24
 71
     3
 72
     9
 73
     5
 74
     0
 42
0.000000001
 43
0.0000000001
 40
-0.5029845183461288
 40
-0.5029845183461288
 40
-0.5029845183461288
 40
-0.5029845183461288
 40
-0.5
 40
0.0
 40
0.0
 40
0.0
 40
0.0
 10
887.3356439543714
 20
1807.668759748034
 30
0.0
 10
887.3356117280957
 20
1807.668759748034
 30
0.0
 10
887.3328961613005
 20
1807.668759748034
 30
0.0
 10
887.7878383796293
 20
1807.668759747942
 30
0.0
 10
888.6923239091471
 20
1807.668759748034
 30
0.0
  0
SPLINE
  5
1FB
330
1A0
100
AcDbEntity
  8
P-SANR-FIXT
100
AcDbSpline
210
0.0
220
0.0
230
1.0
 70
     8
 71
     3
 72
     9
 73
     5
 74
     0
 42
0.000000001
 43
0.0000000001
 40
-1.0
 40
-1.0
 40
-1.0
 40
-1.0
 40
-0.5
 40
0.0
 40
0.0
 40
0.0
 40
0.0
 10
888.6923239091471
 20
1810.381882167106
 30
0.0
 10
887.7387753091882
 20
1813.699275514256
 30
0.0
 10
886.7852267092292
 20
1820.300204899272
 30
0.0
 10
887.738775309188
 20
1826.833419665716
 30
0.0
 10
888.6923239091471
 20
1830.083098394294
 30
0.0
  0
LINE
  5
1FC
330
1A0
100
AcDbEntity
  8
P-SANR-FIXT
100
AcDbLine
 10
898.1968756419561
 20
1832.668759748034
 30
0.0
 11
898.1968756419561
 21
1830.083098394294
 31
0.0
  0
SPLINE
  5
1FD
330
1A0
100
AcDbEntity
  8
P-SANR-FIXT
100
AcDbSpline
210
0.0
220
0.0
230
1.0
 70
     8
 71
     3
 72
    10
 73
     6
 74
     0
 42
0.000000001
 43
0.0000000001
 40
-1.0
 40
-1.0
 40
-1.0
 40
-1.0
 40
-0.6666666666666666
 40
-0.3333333333333333
 40
0.0
 40
0.0
 40
0.0
 40
0.0
 10
898.196875641956
 20
1830.083098394294
 30
0.0
 10
899.292741158341
 20
1827.919288056705
 30
0.0
 10
900.7536075069506
 20
1823.572536777576
 30
0.0
 10
900.7290114451846
 20
1816.806978260272
 30
0.0
 10
899.2819534119526
 20
1812.509064423173
 30
0.0
 10
898.196875641956
 20
1810.381882167106
 30
0.0
  0
LINE
  5
1FE
330
1A0
100
AcDbEntity
  8
P-SANR-FIXT
100
AcDbLine
 10
898.196875641956
 20
1810.381882167106
 30
0.0
 11
898.196875641956
 21
1807.668759748034
 31
0.0
  0
SPLINE
  5
1FF
330
1A0
100
AcDbEntity
  8
P-SANR-FIXT
100
AcDbSpline
210
0.0
220
0.0
230
1.0
 70
    24
 71
     3
 72
     9
 73
     5
 74
     0
 42
0.000000001
 43
0.0000000001
 40
-1.0
 40
-1.0
 40
-1.0
 40
-1.0
 40
-0.5
 40
0.0
 40
0.0
 40
0.0
 40
0.0
 10
898.196875641956
 20
1807.668759748034
 30
0.0
 10
898.5801115494783
 20
1807.668759748034
 30
0.0
 10
899.2544280500963
 20
1807.668759748034
 30
0.0
 10
899.744433921861
 20
1807.668759748034
 30
0.0
 10
899.9433592005301
 20
1807.668759748034
 30
0.0
  0
SPLINE
  5
200
330
1A0
100
AcDbEntity
  8
P-SANR-FIXT
100
AcDbSpline
210
0.0
220
0.0
230
1.0
 70
     8
 71
     3
 72
     9
 73
     5
 74
     0
 42
0.000000001
 43
0.0000000001
 40
-1.0
 40
-1.0
 40
-1.0
 40
-1.0
 40
-0.5
 40
0.0
 40
0.0
 40
0.0
 40
0.0
 10
899.9433592005301
 20
1807.668759748034
 30
0.0
 10
900.2594638902012
 20
1808.092056431119
 30
0.0
 10
900.9403539715842
 20
1808.969241545879
 30
0.0
 10
901.6751945633595
 20
1809.907610157821
 30
0.0
 10
902.0468756419564
 20
1810.392090338088
 30
0.0
  0
LINE
  5
201
330
1A0
100
AcDbEntity
  8
P-SANR-FIXT
100
AcDbLine
 10
902.0468756419564
 20
1810.392090338088
 30
0.0
 11
902.0468756419562
 21
1832.668759748034
 31
0.0
  0
SPLINE
  5
202
330
1A0
100
AcDbEntity
  8
P-SANR-FIXT
100
AcDbSpline
210
0.0
220
0.0
230
1.0
 70
     8
 71
     3
 72
    12
 73
     8
 74
     0
 42
0.000000001
 43
0.0000000001
 40
0.0
 40
0.0
 40
0.0
 40
0.0
 40
0.2857142857142857
 40
0.4285714285714286
 40
0.5714285714285714
 40
0.7857142857142857
 40
1.0
 40
1.0
 40
1.0
 40
1.0
 10
902.0468756419564
 20
1810.392090338088
 30
0.0
 10
903.2326177390475
 20
1810.658886348423
 30
0.0
 10
905.2464578357316
 20
1810.968863399534
 30
0.0
 10
908.1266701390944
 20
1810.968803704983
 30
0.0
 10
910.5538264925575
 20
1810.727114184763
 30
0.0
 10
913.0093323878698
 20
1810.196586151049
 30
0.0
 10
914.3459625639872
 20
1809.770558896141
 30
0.0
 10
914.8753027667025
 20
1809.592055666916
 30
0.0
  0
LINE
  5
203
330
1A0
100
AcDbEntity
  8
P-SANR-FIXT
100
AcDbLine
 10
914.8753027667025
 20
1846.844237970851
 30
0.0
 11
914.8753027667025
 21
1848.072881850483
 31
0.0
  0
SPLINE
  5
204
330
1A0
100
AcDbEntity
  8
P-SANR-FIXT
100
AcDbSpline
210
0.0
220
0.0
230
1.0
 70
     8
 71
     3
 72
     9
 73
     5
 74
     0
 42
0.000000001
 43
0.0000000001
 40
-1.0
 40
-1.0
 40
-1.0
 40
-1.0
 40
-0.5
 40
0.0
 40
0.0
 40
0.0
 40
0.0
 10
914.8753027667027
 20
1809.592055666917
 30
0.0
 10
915.1089544437322
 20
1809.749946288819
 30
0.0
 10
915.5145703195461
 20
1810.015300587626
 30
0.0
 10
915.7805611434644
 20
1810.179800996444
 30
0.0
 10
915.8753027667025
 20
1810.236837728355
 30
0.0
  0
LINE
  5
205
330
1A0
100
AcDbEntity
  8
P-SANR-FIXT
100
AcDbLine
 10
914.8753027667025
 20
1809.592055666917
 30
0.0
 11
914.8753027667025
 21
1818.493281525217
 31
0.0
  0
LINE
  5
206
330
1A0
100
AcDbEntity
  8
P-SANR-FIXT
100
AcDbLine
 10
915.8753027667023
 20
1848.125525041522
 30
0.0
 11
915.8753027667021
 21
1849.269971052503
 31
0.0
  0
LINE
  5
207
330
1A0
100
AcDbEntity
  8
P-SANR-FIXT
100
AcDbLine
 10
915.8753027667025
 20
1810.236837728355
 30
0.0
 11
915.8753027667023
 21
1817.211994454545
 31
0.0
  0
SPLINE
  5
208
330
1A0
100
AcDbEntity
  8
P-SANR-FIXT
100
AcDbSpline
210
0.0
220
0.0
230
1.0
 70
     8
 71
     3
 72
     9
 73
     5
 74
     0
 42
0.000000001
 43
0.0000000001
 40
0.0
 40
0.0
 40
0.0
 40
0.0
 40
0.5
 40
1.0
 40
1.0
 40
1.0
 40
1.0
 10
915.8753027667023
 20
1810.236837728355
 30
0.0
 10
915.9323827558313
 20
1810.214373561826
 30
0.0
 10
916.0180582241693
 20
1810.180331305304
 30
0.0
 10
916.0467646726672
 20
1810.168759748034
 30
0.0
 10
916.0468756419563
 20
1810.168759748034
 30
0.0
  0
SPLINE
  5
209
330
1A0
100
AcDbEntity
  8
P-SANR-FIXT
100
AcDbSpline
210
0.0
220
0.0
230
1.0
 70
     8
 71
     3
 72
    21
 73
    17
 74
     0
 42
0.000000001
 43
0.0000000001
 40
-1.0
 40
-1.0
 40
-1.0
 40
-1.0
 40
-0.8333333333333332
 40
-0.75
 40
-0.7083333333333333
 40
-0.6666666666666666
 40
-0.625
 40
-0.5833333333333333
 40
-0.5
 40
-0.4166666666666666
 40
-0.375
 40
-0.3333333333333333
 40
-0.2916666666666666
 40
-0.25
 40
-0.1666666666666666
 40
0.0
 40
0.0
 40
0.0
 40
0.0
 10
953.0468756419562
 20
1813.676826352054
 30
0.0
 10
953.0468756419562
 20
1813.681753575695
 30
0.0
 10
953.0591908433697
 20
1813.679531088881
 30
0.0
 10
953.0946219688813
 20
1813.659932450504
 30
0.0
 10
953.1208209702345
 20
1813.644082930102
 30
0.0
 10
953.1433831547559
 20
1813.629297310791
 30
0.0
 10
953.1690094424876
 20
1813.613958652453
 30
0.0
 10
953.2074234610432
 20
1813.5940349572
 30
0.0
 10
953.2630748288065
 20
1813.565221506252
 30
0.0
 10
953.3277612676082
 20
1813.522172850638
 30
0.0
 10
953.3838448665543
 20
1813.473778746056
 30
0.0
 10
953.4276406553059
 20
1813.428546157922
 30
0.0
 10
953.4731171222206
 20
1813.375325486017
 30
0.0
 10
953.5362794461631
 20
1813.29684106509
 30
0.0
 10
953.6527636935938
 20
1813.137737421001
 30
0.0
 10
953.7615438081948
 20
1812.964692478212
 30
0.0
 10
953.8368954549351
 20
1812.832961737072
 30
0.0
  0
SPLINE
  5
20A
330
1A0
100
AcDbEntity
  8
P-SANR-FIXT
100
AcDbSpline
210
0.0
220
0.0
230
1.0
 70
     8
 71
     3
 72
     9
 73
     5
 74
     0
 42
0.000000001
 43
0.0000000001
 40
-1.0
 40
-1.0
 40
-1.0
 40
-1.0
 40
-0.5
 40
0.0
 40
0.0
 40
0.0
 40
0.0
 10
953.8368954549351
 20
1812.832961737072
 30
0.0
 10
953.9501904649847
 20
1812.558102815474
 30
0.0
 10
954.1897676882083
 20
1811.987256136807
 30
0.0
 10
954.441747829958
 20
1811.374151787198
 30
0.0
 10
954.567905476804
 20
1811.057035194657
 30
0.0
  0
SPLINE
  5
20B
330
1A0
100
AcDbEntity
  8
P-SANR-FIXT
100
AcDbSpline
210
0.0
220
0.0
230
1.0
 70
     8
 71
     3
 72
    15
 73
    11
 74
     0
 42
0.000000001
 43
0.0000000001
 40
-1.0
 40
-1.0
 40
-1.0
 40
-1.0
 40
-0.925
 40
-0.85
 40
-0.775
 40
-0.7
 40
-0.60625
 40
-0.55
 40
-0.4
 40
0.0
 40
0.0
 40
0.0
 40
0.0
 10
954.567905476804
 20
1811.057035194657
 30
0.0
 10
954.5952695016749
 20
1810.99667228219
 30
0.0
 10
954.6532571382359
 20
1810.882652189361
 30
0.0
 10
954.7508304097133
 20
1810.73190821106
 30
0.0
 10
954.8588963059026
 20
1810.600943499841
 30
0.0
 10
954.9923811362079
 20
1810.48362573168
 30
0.0
 10
955.1262268748617
 20
1810.3955357188
 30
0.0
 10
955.3116791097954
 20
1810.297799801305
 30
0.0
 10
955.718851522001
 20
1810.16365452264
 30
0.0
 10
956.1326702818888
 20
1810.17247133351
 30
0.0
 10
956.4472907183757
 20
1810.249898240001
 30
0.0
  0
SPLINE
  5
20C
330
1A0
100
AcDbEntity
  8
P-SANR-FIXT
100
AcDbSpline
210
0.0
220
0.0
230
1.0
 70
     8
 71
     3
 72
    11
 73
     7
 74
     0
 42
0.000000001
 43
0.0000000001
 40
0.0
 40
0.0
 40
0.0
 40
0.0
 40
0.3333333333333333
 40
0.5
 40
0.6666666666666666
 40
1.0
 40
1.0
 40
1.0
 40
1.0
 10
956.4472907183757
 20
1810.249898240001
 30
0.0
 10
957.4377857160307
 20
1810.497781154795
 30
0.0
 10
959.1387057997106
 20
1810.827713211074
 30
0.0
 10
961.6661557352911
 20
1810.985627678897
 30
0.0
 10
964.2209466088255
 20
1810.91602301183
 30
0.0
 10
965.9927936180878
 20
1810.629264037338
 30
0.0
 10
967.0468756419564
 20
1810.392090338089
 30
0.0
  0
LINE
  5
20D
330
1A0
100
AcDbEntity
  8
P-SANR-FIXT
100
AcDbLine
 10
967.0468756419564
 20
1810.392090338089
 30
0.0
 11
967.0468756419564
 21
1832.668759748034
 31
0.0
  0
SPLINE
  5
20E
330
1A0
100
AcDbEntity
  8
P-SANR-FIXT
100
AcDbSpline
210
0.0
220
0.0
230
1.0
 70
     8
 71
     3
 72
     9
 73
     5
 74
     0
 42
0.000000001
 43
0.0000000001
 40
-1.0
 40
-1.0
 40
-1.0
 40
-1.0
 40
-0.5
 40
0.0
 40
0.0
 40
0.0
 40
0.0
 10
967.0468756419564
 20
1810.392090338089
 30
0.0
 10
967.4187735446393
 20
1809.907361503595
 30
0.0
 10
968.1537845902758
 20
1808.968744237424
 30
0.0
 10
968.8344475147555
 20
1808.091807776891
 30
0.0
 10
969.1503920833827
 20
1807.668759748034
 30
0.0
  0
SPLINE
  5
20F
330
1A0
100
AcDbEntity
  8
P-SANR-FIXT
100
AcDbSpline
210
0.0
220
0.0
230
1.0
 70
    24
 71
     3
 72
     9
 73
     5
 74
     0
 42
0.000000001
 43
0.0000000001
 40
-1.0
 40
-1.0
 40
-1.0
 40
-1.0
 40
-0.5
 40
0.0
 40
0.0
 40
0.0
 40
0.0
 10
969.1503920833827
 20
1807.668759748034
 30
0.0
 10
969.3521822337679
 20
1807.668759748034
 30
0.0
 10
969.8450529772488
 20
1807.668759748034
 30
0.0
 10
970.5165046061503
 20
1807.668759748034
 30
0.0
 10
970.8968756419565
 20
1807.668759748034
 30
0.0
  0
SPLINE
  5
210
330
1A0
100
AcDbEntity
  8
P-SANR-FIXT
100
AcDbSpline
210
0.0
220
0.0
230
1.0
 70
     8
 71
     3
 72
    10
 73
     6
 74
     0
 42
0.000000001
 43
0.0000000001
 40
-1.0
 40
-1.0
 40
-1.0
 40
-1.0
 40
-0.6666666666666666
 40
-0.3333333333333333
 40
0.0
 40
0.0
 40
0.0
 40
0.0
 10
970.8968756419567
 20
1810.381882167108
 30
0.0
 10
969.8010101255718
 20
1812.545692504696
 30
0.0
 10
968.3401437769624
 20
1816.892443783825
 30
0.0
 10
968.3647398387282
 20
1823.658002301128
 30
0.0
 10
969.8117978719603
 20
1827.955916138227
 30
0.0
 10
970.8968756419565
 20
1830.083098394293
 30
0.0
  0
LINE
  5
211
330
1A0
100
AcDbEntity
  8
P-SANR-FIXT
100
AcDbLine
 10
970.8968756419565
 20
1807.668759748034
 30
0.0
 11
970.8968756419567
 21
1810.381882167108
 31
0.0
  0
LINE
  5
212
330
1A0
100
AcDbEntity
  8
P-SANR-FIXT
100
AcDbLine
 10
970.8968756419565
 20
1807.668759748034
 30
0.0
 11
980.4014273747657
 21
1807.668759748034
 31
0.0
  0
LINE
  5
213
330
1A0
100
AcDbEntity
  8
P-SANR-FIXT
100
AcDbLine
 10
980.4014273747657
 20
1810.381882167108
 30
0.0
 11
970.8968756419567
 21
1810.381882167108
 31
0.0
  0
LINE
  5
214
330
1A0
100
AcDbEntity
  8
P-SANR-FIXT
100
AcDbLine
 10
970.8968756419565
 20
1830.083098394293
 30
0.0
 11
970.8968756419565
 21
1832.668759748034
 31
0.0
  0
LINE
  5
215
330
1A0
100
AcDbEntity
  8
P-SANR-FIXT
100
AcDbLine
 10
970.8968756419565
 20
1830.083098394294
 30
0.0
 11
980.4014273747657
 21
1830.083098394294
 31
0.0
  0
LINE
  5
216
330
1A0
100
AcDbEntity
  8
P-SANR-FIXT
100
AcDbLine
 10
980.4014273747657
 20
1830.083098394293
 30
0.0
 11
980.4014273747657
 21
1832.668759748034
 31
0.0
  0
SPLINE
  5
217
330
1A0
100
AcDbEntity
  8
P-SANR-FIXT
100
AcDbSpline
210
0.0
220
0.0
230
1.0
 70
     8
 71
     3
 72
     9
 73
     5
 74
     0
 42
0.000000001
 43
0.0000000001
 40
-1.0
 40
-1.0
 40
-1.0
 40
-1.0
 40
-0.5
 40
0.0
 40
0.0
 40
0.0
 40
0.0
 10
980.4014273747657
 20
1830.083098394293
 30
0.0
 10
981.3549759747244
 20
1826.833419665715
 30
0.0
 10
982.3085245746829
 20
1820.300204899272
 30
0.0
 10
981.3549759747244
 20
1813.699275514258
 30
0.0
 10
980.4014273747657
 20
1810.381882167108
 30
0.0
  0
LINE
  5
218
330
1A0
100
AcDbEntity
  8
P-SANR-FIXT
100
AcDbLine
 10
980.4014273747657
 20
1807.668759748034
 30
0.0
 11
980.4014273747657
 21
1810.381882167108
 31
0.0
  0
SPLINE
  5
219
330
1A0
100
AcDbEntity
  8
P-SANR-FIXT
100
AcDbSpline
210
0.0
220
0.0
230
1.0
 70
    24
 71
     3
 72
     9
 73
     5
 74
     0
 42
0.000000001
 43
0.0000000001
 40
-1.0
 40
-1.0
 40
-1.0
 40
-1.0
 40
-0.5
 40
-0.4970154816538842
 40
-0.4970154816538842
 40
-0.4970154816538842
 40
-0.4970154816538842
 10
980.4014273747657
 20
1807.668759748034
 30
0.0
 10
981.3059129042253
 20
1807.668759748034
 30
0.0
 10
981.7608551226115
 20
1807.668759748034
 30
0.0
 10
981.7581395558169
 20
1807.668759748034
 30
0.0
 10
981.7581073295412
 20
1807.668759748034
 30
0.0
  0
LINE
  5
21A
330
1A0
100
AcDbEntity
  8
P-SANR-FIXT
100
AcDbLine
 10
982.0468756419563
 20
1808.168759748035
 30
0.0
 11
982.0468756419563
 21
1832.668759748034
 31
0.0
  0
LINE
  5
21B
330
1A0
100
AcDbEntity
  8
P-SANR-FIXT
100
AcDbLine
 10
898.196875641956
 20
1810.381882167106
 30
0.0
 11
888.6923239091471
 21
1810.381882167106
 31
0.0
  0
LINE
  5
21C
330
1A0
100
AcDbEntity
  8
P-SANR-FIXT
100
AcDbLine
 10
888.6923239091471
 20
1807.668759748034
 30
0.0
 11
888.6923239091471
 21
1810.381882167106
 31
0.0
  0
LINE
  5
21D
330
1A0
100
AcDbEntity
  8
P-SANR-FIXT
100
AcDbLine
 10
888.6923239091471
 20
1807.668759748034
 30
0.0
 11
898.196875641956
 21
1807.668759748034
 31
0.0
  0
LINE
  5
21E
330
1A0
100
AcDbEntity
  8
P-SANR-FIXT
100
AcDbLine
 10
888.6923239091471
 20
1830.083098394294
 30
0.0
 11
888.6923239091471
 21
1832.668759748034
 31
0.0
  0
LINE
  5
21F
330
1A0
100
AcDbEntity
  8
P-SANR-FIXT
100
AcDbLine
 10
888.6923239091471
 20
1830.083098394295
 30
0.0
 11
898.196875641956
 21
1830.083098394295
 31
0.0
  0
LINE
  5
220
330
1A0
100
AcDbEntity
  8
P-SANR-FIXT
100
AcDbLine
 10
971.0468756419562
 20
1798.668759748034
 30
0.0
 11
970.0468756419564
 21
1798.668759748034
 31
0.0
  0
LINE
  5
221
330
1A0
100
AcDbEntity
  8
P-SANR-FIXT
100
AcDbLine
 10
954.0468756419564
 20
1798.668759748034
 30
0.0
 11
953.0468756419562
 21
1798.668759748034
 31
0.0
  0
LINE
  5
222
330
1A0
100
AcDbEntity
  8
P-SANR-FIXT
100
AcDbLine
 10
961.6175898562278
 20
1798.668759748034
 30
0.0
 11
954.4761614276849
 21
1798.668759748034
 31
0.0
  0
LINE
  5
223
330
1A0
100
AcDbEntity
  8
P-SANR-FIXT
100
AcDbLine
 10
969.6175898562277
 20
1798.668759748034
 30
0.0
 11
962.4761614276849
 21
1798.668759748034
 31
0.0
  0
LINE
  5
224
330
1A0
100
AcDbEntity
  8
P-SANR-FIXT
100
AcDbLine
 10
899.0468756419563
 20
1798.668759748033
 30
0.0
 11
898.0468756419563
 21
1798.668759748033
 31
0.0
  0
LINE
  5
225
330
1A0
100
AcDbEntity
  8
P-SANR-FIXT
100
AcDbLine
 10
906.6175898562276
 20
1798.668759748034
 30
0.0
 11
899.476161427685
 21
1798.668759748033
 31
0.0
  0
LINE
  5
226
330
1A0
100
AcDbEntity
  8
P-SANR-FIXT
100
AcDbLine
 10
914.6175898562278
 20
1798.668759748034
 30
0.0
 11
907.476161427685
 21
1798.668759748034
 31
0.0
  0
LINE
  5
227
330
1A0
100
AcDbEntity
  8
P-SANR-FIXT
100
AcDbLine
 10
916.0468756419563
 20
1798.668759748034
 30
0.0
 11
915.0468756419563
 21
1798.668759748034
 31
0.0
  0
ARC
  5
228
330
1A0
100
AcDbEntity
  8
P-SANR-FIXT
100
AcDbCircle
 10
934.5468756419561
 20
1832.668759748034
 30
0.0
 40
23.75
100
AcDbArc
 50
164.9999999999998
 51
166.4895751335279
  0
ARC
  5
229
330
1A0
100
AcDbEntity
  8
P-SANR-FIXT
100
AcDbCircle
 10
934.5468756419561
 20
1832.668759748034
 30
0.0
 40
23.74999999999994
100
AcDbArc
 50
152.9728913627059
 51
161.9833361371149
  0
ARC
  5
22A
330
1A0
100
AcDbEntity
  8
P-SANR-FIXT
100
AcDbCircle
 10
934.5468756419561
 20
1832.668759748034
 30
0.0
 40
23.75000000000002
100
AcDbArc
 50
148.4710753991532
 51
150.0000000000002
  0
ARC
  5
22B
330
1A0
100
AcDbEntity
  8
P-SANR-FIXT
100
AcDbCircle
 10
934.5468756419561
 20
1832.668759748034
 30
0.0
 40
23.7499999999999
100
AcDbArc
 50
143.9735171897358
 51
145.0000000000002
  0
ARC
  5
22C
330
1A0
100
AcDbEntity
  8
P-SANR-FIXT
100
AcDbCircle
 10
934.5468756419561
 20
1832.668759748034
 30
0.0
 40
23.75000000000011
100
AcDbArc
 50
130.0000000000003
 51
130.517764648418
  0
ARC
  5
22D
330
1A0
100
AcDbEntity
  8
P-SANR-FIXT
100
AcDbCircle
 10
934.5468756419561
 20
1832.668759748034
 30
0.0
 40
23.75000000000006
100
AcDbArc
 50
125.0
 51
126.0264828102652
  0
ARC
  5
22E
330
1A0
100
AcDbEntity
  8
P-SANR-FIXT
100
AcDbCircle
 10
934.5468756419561
 20
1832.668759748034
 30
0.0
 40
23.75000000000011
100
AcDbArc
 50
120.0
 51
121.1478309532944
  0
ARC
  5
22F
330
1A0
100
AcDbEntity
  8
P-SANR-FIXT
100
AcDbCircle
 10
934.5468756419561
 20
1832.668759748034
 30
0.0
 40
23.74999999999997
100
AcDbArc
 50
115.0
 51
115.9535828901586
  0
ARC
  5
230
330
1A0
100
AcDbEntity
  8
P-SANR-FIXT
100
AcDbCircle
 10
934.5468756419561
 20
1832.668759748034
 30
0.0
 40
23.75000000000002
100
AcDbArc
 50
110.0000000000004
 51
110.7605060757299
  0
ARC
  5
231
330
1A0
100
AcDbEntity
  8
P-SANR-FIXT
100
AcDbCircle
 10
934.5468756419561
 20
1832.668759748034
 30
0.0
 40
23.75
100
AcDbArc
 50
69.23949392427039
 51
70.00000000000013
  0
ARC
  5
232
330
1A0
100
AcDbEntity
  8
P-SANR-FIXT
100
AcDbCircle
 10
934.5468756419561
 20
1832.668759748034
 30
0.0
 40
23.75000000000005
100
AcDbArc
 50
64.04641710984181
 51
65.00000000000039
  0
ARC
  5
233
330
1A0
100
AcDbEntity
  8
P-SANR-FIXT
100
AcDbCircle
 10
934.5468756419561
 20
1832.668759748034
 30
0.0
 40
23.75000000000002
100
AcDbArc
 50
58.85216904670593
 51
60.00000000000029
  0
ARC
  5
234
330
1A0
100
AcDbEntity
  8
P-SANR-FIXT
100
AcDbCircle
 10
934.5468756419561
 20
1832.668759748034
 30
0.0
 40
23.75
100
AcDbArc
 50
53.97351718973517
 51
55.00000000000033
  0
ARC
  5
235
330
1A0
100
AcDbEntity
  8
P-SANR-FIXT
100
AcDbCircle
 10
934.5468756419561
 20
1832.668759748034
 30
0.0
 40
23.75000000000004
100
AcDbArc
 50
49.48223535158209
 51
50.00000000000017
  0
ARC
  5
236
330
1A0
100
AcDbEntity
  8
P-SANR-FIXT
100
AcDbCircle
 10
934.5468756419561
 20
1832.668759748034
 30
0.0
 40
23.75000000000012
100
AcDbArc
 50
35.00000000000039
 51
36.0264828102648
  0
ARC
  5
237
330
1A0
100
AcDbEntity
  8
P-SANR-FIXT
100
AcDbCircle
 10
934.5468756419561
 20
1832.668759748034
 30
0.0
 40
23.75000000000015
100
AcDbArc
 50
30.00000000000015
 51
31.52892460084693
  0
ARC
  5
238
330
1A0
100
AcDbEntity
  8
P-SANR-FIXT
100
AcDbCircle
 10
934.5468756419561
 20
1832.668759748034
 30
0.0
 40
23.75000000000002
100
AcDbArc
 50
18.01666386288501
 51
27.02710863729405
  0
ARC
  5
239
330
1A0
100
AcDbEntity
  8
P-SANR-FIXT
100
AcDbCircle
 10
934.5468756419561
 20
1832.668759748034
 30
0.0
 40
23.75000000000012
100
AcDbArc
 50
13.51042486647222
 51
15.0000000000002
  0
ARC
  5
23A
330
1A0
100
AcDbEntity
  8
P-SANR-FIXT
100
AcDbCircle
 10
934.5468756419561
 20
1832.668759748034
 30
0.0
 40
23.74999999999994
100
AcDbArc
 50
345.0000000000001
 51
346.4895751335281
  0
ARC
  5
23B
330
1A0
100
AcDbEntity
  8
P-SANR-FIXT
100
AcDbCircle
 10
934.5468756419561
 20
1832.668759748034
 30
0.0
 40
23.74999999999991
100
AcDbArc
 50
332.9728913627063
 51
341.9833361371151
  0
ARC
  5
23C
330
1A0
100
AcDbEntity
  8
P-SANR-FIXT
100
AcDbCircle
 10
934.5468756419561
 20
1832.668759748034
 30
0.0
 40
23.74999999999991
100
AcDbArc
 50
328.4710753991536
 51
329.9999999999999
  0
ARC
  5
23D
330
1A0
100
AcDbEntity
  8
P-SANR-FIXT
100
AcDbCircle
 10
934.5468756419561
 20
1832.668759748034
 30
0.0
 40
23.74999999999993
100
AcDbArc
 50
323.9735171897351
 51
325.0
  0
ARC
  5
23E
330
1A0
100
AcDbEntity
  8
P-SANR-FIXT
100
AcDbCircle
 10
934.5468756419561
 20
1832.668759748034
 30
0.0
 40
23.75000000000003
100
AcDbArc
 50
310.0
 51
310.5177646484178
  0
ARC
  5
23F
330
1A0
100
AcDbEntity
  8
P-SANR-FIXT
100
AcDbCircle
 10
934.5468756419561
 20
1832.668759748034
 30
0.0
 40
23.75000000000003
100
AcDbArc
 50
305.0000000000005
 51
306.026482810265
  0
ARC
  5
240
330
1A0
100
AcDbEntity
  8
P-SANR-FIXT
100
AcDbCircle
 10
934.5468756419561
 20
1832.668759748034
 30
0.0
 40
23.74999999999996
100
AcDbArc
 50
300.0000000000002
 51
301.1478309532938
  0
ARC
  5
241
330
1A0
100
AcDbEntity
  8
P-SANR-FIXT
100
AcDbCircle
 10
934.5468756419561
 20
1832.668759748034
 30
0.0
 40
23.75000000000002
100
AcDbArc
 50
295.0000000000001
 51
295.9535828901584
  0
ARC
  5
242
330
1A0
100
AcDbEntity
  8
P-SANR-FIXT
100
AcDbCircle
 10
934.5468756419561
 20
1832.668759748034
 30
0.0
 40
23.75000000000013
100
AcDbArc
 50
290.0000000000002
 51
290.7605060757294
  0
ARC
  5
243
330
1A0
100
AcDbEntity
  8
P-SANR-FIXT
100
AcDbCircle
 10
934.5468756419561
 20
1832.668759748034
 30
0.0
 40
23.74999999999999
100
AcDbArc
 50
249.2394939242701
 51
250.0000000000006
  0
ARC
  5
244
330
1A0
100
AcDbEntity
  8
P-SANR-FIXT
100
AcDbCircle
 10
934.5468756419561
 20
1832.668759748034
 30
0.0
 40
23.7499999999999
100
AcDbArc
 50
244.0464171098414
 51
245.0000000000002
  0
ARC
  5
245
330
1A0
100
AcDbEntity
  8
P-SANR-FIXT
100
AcDbCircle
 10
934.5468756419561
 20
1832.668759748034
 30
0.0
 40
23.74999999999991
100
AcDbArc
 50
238.8521690467063
 51
240.0000000000004
  0
ARC
  5
246
330
1A0
100
AcDbEntity
  8
P-SANR-FIXT
100
AcDbCircle
 10
934.5468756419561
 20
1832.668759748034
 30
0.0
 40
23.74999999999993
100
AcDbArc
 50
233.9735171897354
 51
235.0000000000003
  0
ARC
  5
247
330
1A0
100
AcDbEntity
  8
P-SANR-FIXT
100
AcDbCircle
 10
934.5468756419561
 20
1832.668759748034
 30
0.0
 40
23.74999999999982
100
AcDbArc
 50
229.4822353515824
 51
230.0000000000003
  0
ARC
  5
248
330
1A0
100
AcDbEntity
  8
P-SANR-FIXT
100
AcDbCircle
 10
934.5468756419561
 20
1832.668759748034
 30
0.0
 40
23.75000000000003
100
AcDbArc
 50
215.0000000000004
 51
216.0264828102651
  0
ARC
  5
249
330
1A0
100
AcDbEntity
  8
P-SANR-FIXT
100
AcDbCircle
 10
934.5468756419561
 20
1832.668759748034
 30
0.0
 40
23.75
100
AcDbArc
 50
210.0000000000003
 51
211.5289246008466
  0
ARC
  5
24A
330
1A0
100
AcDbEntity
  8
P-SANR-FIXT
100
AcDbCircle
 10
934.5468756419561
 20
1832.668759748034
 30
0.0
 40
23.75000000000007
100
AcDbArc
 50
198.0166638628849
 51
207.0271086372941
  0
ARC
  5
24B
330
1A0
100
AcDbEntity
  8
P-SANR-FIXT
100
AcDbCircle
 10
934.5468756419561
 20
1832.668759748034
 30
0.0
 40
23.75000000000001
100
AcDbArc
 50
193.5104248664718
 51
195.0000000000003
  0
ARC
  5
24C
330
1A0
100
AcDbEntity
  8
P-SANR-FIXT
100
AcDbCircle
 10
934.5468756419561
 20
1832.668759748034
 30
0.0
 40
24.25000000000007
100
AcDbArc
 50
11.94326475220727
 51
168.0567352477921
  0
ARC
  5
24D
330
1A0
100
AcDbEntity
  8
P-SANR-FIXT
100
AcDbCircle
 10
934.5468756419561
 20
1832.668759748034
 30
0.0
 40
24.24999999999994
100
AcDbArc
 50
191.9432647522063
 51
348.0567352477924
  0
ARC
  5
24E
330
1A0
100
AcDbEntity
  8
P-SANR-FIXT
100
AcDbCircle
 10
934.5468756419561
 20
1832.668759748034
 30
0.0
 40
23.75000000000007
100
AcDbArc
 50
12.19766990675106
 51
13.49999999999966
  0
ARC
  5
24F
330
1A0
100
AcDbEntity
  8
P-SANR-FIXT
100
AcDbCircle
 10
934.5468756419561
 20
1832.668759748034
 30
0.0
 40
23.74999999999996
100
AcDbArc
 50
17.38367553827639
 51
17.99999999999974
  0
LINE
  5
250
330
1A0
100
AcDbEntity
  8
P-SANR-FIXT
100
AcDbLine
 10
956.4890145390991
 20
1841.757491266705
 30
0.0
 11
956.4785337712811
 21
1841.782752928765
 31
0.0
  0
ARC
  5
251
330
1A0
100
AcDbEntity
  8
P-SANR-FIXT
100
AcDbCircle
 10
934.5468756419561
 20
1832.668759748034
 30
0.0
 40
23.75000000000017
100
AcDbArc
 50
26.99999999999979
 51
27.76573672050478
  0
ARC
  5
252
330
1A0
100
AcDbEntity
  8
P-SANR-FIXT
100
AcDbCircle
 10
934.5468756419561
 20
1832.668759748034
 30
0.0
 40
23.75
100
AcDbArc
 50
31.50000000000002
 51
45.00000000000019
  0
ARC
  5
253
330
1A0
100
AcDbEntity
  8
P-SANR-FIXT
100
AcDbCircle
 10
934.5468756419561
 20
1832.668759748034
 30
0.0
 40
23.74999999999987
100
AcDbArc
 50
48.47346378735582
 51
49.50000000000002
  0
ARC
  5
254
330
1A0
100
AcDbEntity
  8
P-SANR-FIXT
100
AcDbCircle
 10
934.5468756419561
 20
1832.668759748034
 30
0.0
 40
23.74999999999988
100
AcDbArc
 50
53.67992701292179
 51
53.99999999999944
  0
ARC
  5
255
330
1A0
100
AcDbEntity
  8
P-SANR-FIXT
100
AcDbCircle
 10
934.5468756419561
 20
1832.668759748034
 30
0.0
 40
23.75
100
AcDbArc
 50
58.4999999999998
 51
58.86835898461489
  0
ARC
  5
256
330
1A0
100
AcDbEntity
  8
P-SANR-FIXT
100
AcDbCircle
 10
934.5468756419561
 20
1832.668759748034
 30
0.0
 40
23.74999999999992
100
AcDbArc
 50
62.99999999999979
 51
64.0484817605647
  0
ARC
  5
257
330
1A0
100
AcDbEntity
  8
P-SANR-FIXT
100
AcDbCircle
 10
934.5468756419561
 20
1832.668759748034
 30
0.0
 40
23.74999999999992
100
AcDbArc
 50
67.49999999999984
 51
76.50000000000024
  0
ARC
  5
258
330
1A0
100
AcDbEntity
  8
P-SANR-FIXT
100
AcDbCircle
 10
934.5468756419561
 20
1832.668759748034
 30
0.0
 40
23.74999999999998
100
AcDbArc
 50
79.61809476800574
 51
81.00000000000029
  0
ARC
  5
259
330
1A0
100
AcDbEntity
  8
P-SANR-FIXT
100
AcDbCircle
 10
934.5468756419561
 20
1832.668759748034
 30
0.0
 40
23.75
100
AcDbArc
 50
84.81018219506152
 51
85.49999999999988
  0
ARC
  5
25A
330
1A0
100
AcDbEntity
  8
P-SANR-FIXT
100
AcDbCircle
 10
934.5468756419561
 20
1832.668759748034
 30
0.0
 40
23.75
100
AcDbArc
 50
94.50000000000013
 51
95.18981780493847
  0
ARC
  5
25B
330
1A0
100
AcDbEntity
  8
P-SANR-FIXT
100
AcDbCircle
 10
934.5468756419561
 20
1832.668759748034
 30
0.0
 40
23.75000000000002
100
AcDbArc
 50
99.00000000000003
 51
100.3819052319937
  0
ARC
  5
25C
330
1A0
100
AcDbEntity
  8
P-SANR-FIXT
100
AcDbCircle
 10
934.5468756419561
 20
1832.668759748034
 30
0.0
 40
23.75000000000011
100
AcDbArc
 50
103.5
 51
112.4999999999999
  0
ARC
  5
25D
330
1A0
100
AcDbEntity
  8
P-SANR-FIXT
100
AcDbCircle
 10
934.5468756419561
 20
1832.668759748034
 30
0.0
 40
23.75000000000003
100
AcDbArc
 50
115.9515182394345
 51
117.0000000000002
  0
ARC
  5
25E
330
1A0
100
AcDbEntity
  8
P-SANR-FIXT
100
AcDbCircle
 10
934.5468756419561
 20
1832.668759748034
 30
0.0
 40
23.75000000000007
100
AcDbArc
 50
121.1316410153848
 51
121.5000000000001
  0
ARC
  5
25F
330
1A0
100
AcDbEntity
  8
P-SANR-FIXT
100
AcDbCircle
 10
934.5468756419561
 20
1832.668759748034
 30
0.0
 40
23.75000000000004
100
AcDbArc
 50
123.7421684204152
 51
123.8841877217475
  0
ARC
  5
260
330
1A0
100
AcDbEntity
  8
P-SANR-FIXT
100
AcDbCircle
 10
934.5468756419561
 20
1832.668759748034
 30
0.0
 40
23.75000000000009
100
AcDbArc
 50
125.9999999999998
 51
126.3200729870778
  0
ARC
  5
261
330
1A0
100
AcDbEntity
  8
P-SANR-FIXT
100
AcDbCircle
 10
934.5468756419561
 20
1832.668759748034
 30
0.0
 40
23.75000000000007
100
AcDbArc
 50
130.4999999999999
 51
131.5265362126437
  0
ARC
  5
262
330
1A0
100
AcDbEntity
  8
P-SANR-FIXT
100
AcDbCircle
 10
934.5468756419561
 20
1832.668759748034
 30
0.0
 40
23.74999999999999
100
AcDbArc
 50
134.9999999999998
 51
148.4999999999997
  0
ARC
  5
263
330
1A0
100
AcDbEntity
  8
P-SANR-FIXT
100
AcDbCircle
 10
934.5468756419561
 20
1832.668759748034
 30
0.0
 40
23.75000000000002
100
AcDbArc
 50
152.2342632794943
 51
153.0000000000002
  0
LINE
  5
264
330
1A0
100
AcDbEntity
  8
P-SANR-FIXT
100
AcDbLine
 10
912.6152175126314
 20
1841.782752928766
 30
0.0
 11
912.6047367448132
 21
1841.757491266705
 31
0.0
  0
ARC
  5
265
330
1A0
100
AcDbEntity
  8
P-SANR-FIXT
100
AcDbCircle
 10
934.5468756419561
 20
1832.668759748034
 30
0.0
 40
23.74999999999991
100
AcDbArc
 50
162.0000000000001
 51
162.6163244617231
  0
ARC
  5
266
330
1A0
100
AcDbEntity
  8
P-SANR-FIXT
100
AcDbCircle
 10
934.5468756419561
 20
1832.668759748034
 30
0.0
 40
23.75
100
AcDbArc
 50
166.4999999999995
 51
167.8023300932485
  0
ARC
  5
267
330
1A0
100
AcDbEntity
  8
P-SANR-FIXT
100
AcDbCircle
 10
934.5468756419561
 20
1832.668759748034
 30
0.0
 40
23.75000000000004
100
AcDbArc
 50
192.1976699067499
 51
193.4999999999996
  0
ARC
  5
268
330
1A0
100
AcDbEntity
  8
P-SANR-FIXT
100
AcDbCircle
 10
934.5468756419561
 20
1832.668759748034
 30
0.0
 40
23.74999999999999
100
AcDbArc
 50
197.383675538276
 51
197.9999999999995
  0
LINE
  5
269
330
1A0
100
AcDbEntity
  8
P-SANR-FIXT
100
AcDbLine
 10
912.604736744813
 20
1823.580028229363
 30
0.0
 11
912.6152175126312
 21
1823.554766567302
 31
0.0
  0
ARC
  5
26A
330
1A0
100
AcDbEntity
  8
P-SANR-FIXT
100
AcDbCircle
 10
934.5468756419561
 20
1832.668759748034
 30
0.0
 40
23.74999999999997
100
AcDbArc
 50
206.9999999999994
 51
207.7657367205042
  0
ARC
  5
26B
330
1A0
100
AcDbEntity
  8
P-SANR-FIXT
100
AcDbCircle
 10
934.5468756419561
 20
1832.668759748034
 30
0.0
 40
23.75000000000006
100
AcDbArc
 50
211.4999999999995
 51
224.9999999999996
  0
ARC
  5
26C
330
1A0
100
AcDbEntity
  8
P-SANR-FIXT
100
AcDbCircle
 10
934.5468756419561
 20
1832.668759748034
 30
0.0
 40
23.74999999999995
100
AcDbArc
 50
228.4734637873552
 51
229.4999999999996
  0
ARC
  5
26D
330
1A0
100
AcDbEntity
  8
P-SANR-FIXT
100
AcDbCircle
 10
934.5468756419561
 20
1832.668759748034
 30
0.0
 40
23.74999999999994
100
AcDbArc
 50
233.6799270129211
 51
233.9999999999998
  0
ARC
  5
26E
330
1A0
100
AcDbEntity
  8
P-SANR-FIXT
100
AcDbCircle
 10
934.5468756419561
 20
1832.668759748034
 30
0.0
 40
23.74999999999988
100
AcDbArc
 50
238.5
 51
238.8683589846151
  0
ARC
  5
26F
330
1A0
100
AcDbEntity
  8
P-SANR-FIXT
100
AcDbCircle
 10
934.5468756419561
 20
1832.668759748034
 30
0.0
 40
23.74999999999982
100
AcDbArc
 50
243.0000000000001
 51
244.0484817605647
  0
ARC
  5
270
330
1A0
100
AcDbEntity
  8
P-SANR-FIXT
100
AcDbCircle
 10
934.5468756419561
 20
1832.668759748034
 30
0.0
 40
23.74999999999994
100
AcDbArc
 50
247.5
 51
256.4999999999999
  0
ARC
  5
271
330
1A0
100
AcDbEntity
  8
P-SANR-FIXT
100
AcDbCircle
 10
934.5468756419561
 20
1832.668759748034
 30
0.0
 40
23.75000000000005
100
AcDbArc
 50
259.6180947680059
 51
260.9999999999999
  0
ARC
  5
272
330
1A0
100
AcDbEntity
  8
P-SANR-FIXT
100
AcDbCircle
 10
934.5468756419561
 20
1832.668759748034
 30
0.0
 40
23.74999999999997
100
AcDbArc
 50
264.810182195062
 51
265.5000000000001
  0
ARC
  5
273
330
1A0
100
AcDbEntity
  8
P-SANR-FIXT
100
AcDbCircle
 10
934.5468756419561
 20
1832.668759748034
 30
0.0
 40
23.75000000000012
100
AcDbArc
 50
274.5
 51
275.1898178049381
  0
ARC
  5
274
330
1A0
100
AcDbEntity
  8
P-SANR-FIXT
100
AcDbCircle
 10
934.5468756419561
 20
1832.668759748034
 30
0.0
 40
23.75000000000015
100
AcDbArc
 50
278.9999999999999
 51
280.3819052319939
  0
ARC
  5
275
330
1A0
100
AcDbEntity
  8
P-SANR-FIXT
100
AcDbCircle
 10
934.5468756419561
 20
1832.668759748034
 30
0.0
 40
23.75000000000005
100
AcDbArc
 50
283.5000000000002
 51
292.5
  0
ARC
  5
276
330
1A0
100
AcDbEntity
  8
P-SANR-FIXT
100
AcDbCircle
 10
934.5468756419561
 20
1832.668759748034
 30
0.0
 40
23.75000000000008
100
AcDbArc
 50
295.9515182394346
 51
296.9999999999997
  0
ARC
  5
277
330
1A0
100
AcDbEntity
  8
P-SANR-FIXT
100
AcDbCircle
 10
934.5468756419561
 20
1832.668759748034
 30
0.0
 40
23.75000000000017
100
AcDbArc
 50
301.1316410153843
 51
301.4999999999997
  0
ARC
  5
278
330
1A0
100
AcDbEntity
  8
P-SANR-FIXT
100
AcDbCircle
 10
934.5468756419561
 20
1832.668759748034
 30
0.0
 40
23.75000000000013
100
AcDbArc
 50
305.9999999999998
 51
306.3200729870774
  0
ARC
  5
279
330
1A0
100
AcDbEntity
  8
P-SANR-FIXT
100
AcDbCircle
 10
934.5468756419561
 20
1832.668759748034
 30
0.0
 40
23.75000000000023
100
AcDbArc
 50
310.4999999999995
 51
311.5265362126432
  0
ARC
  5
27A
330
1A0
100
AcDbEntity
  8
P-SANR-FIXT
100
AcDbCircle
 10
934.5468756419561
 20
1832.668759748034
 30
0.0
 40
23.75000000000007
100
AcDbArc
 50
314.9999999999999
 51
328.4999999999995
  0
ARC
  5
27B
330
1A0
100
AcDbEntity
  8
P-SANR-FIXT
100
AcDbCircle
 10
934.5468756419561
 20
1832.668759748034
 30
0.0
 40
23.74999999999996
100
AcDbArc
 50
332.234263279494
 51
332.9999999999998
  0
LINE
  5
27C
330
1A0
100
AcDbEntity
  8
P-SANR-FIXT
100
AcDbLine
 10
956.4785337712811
 20
1823.554766567302
 30
0.0
 11
956.4890145390991
 21
1823.580028229363
 31
0.0
  0
ARC
  5
27D
330
1A0
100
AcDbEntity
  8
P-SANR-FIXT
100
AcDbCircle
 10
934.5468756419561
 20
1832.668759748034
 30
0.0
 40
23.74999999999994
100
AcDbArc
 50
341.9999999999997
 51
342.6163244617228
  0
ARC
  5
27E
330
1A0
100
AcDbEntity
  8
P-SANR-FIXT
100
AcDbCircle
 10
934.5468756419561
 20
1832.668759748034
 30
0.0
 40
23.74999999999997
100
AcDbArc
 50
346.4999999999997
 51
347.8023300932487
  0
ENDBLK
  5
280
330
1A0
100
AcDbEntity
  8
0
100
AcDbBlockEnd
  0
BLOCK
  5
2F4
330
282
100
AcDbEntity
  8
0
100
AcDbBlockBegin
  2
Automatic flow rate regulator valve_Caleffi_121 DN15 - 1_2__-V2-Est - Idraulica
 70
     0
 10
0.0
 20
0.0
 30
0.0
  3
Automatic flow rate regulator valve_Caleffi_121 DN15 - 1_2__-V2-Est - Idraulica
  1

  0
LWPOLYLINE
  5
283
330
282
100
AcDbEntity
  8
M-PIPE
100
AcDbPolyline
 90
       80
 70
   128
 43
0.0
 10
1208.191472925116
 20
2049.974746350012
 10
1206.192318632457
 20
2049.934757932227
 10
1204.196362560204
 20
2049.814856651812
 10
1202.206797812289
 20
2049.615234325237
 10
1200.226807267892
 20
2049.336210305642
 10
1198.259558489509
 20
2048.978230971934
 10
1196.308198655528
 20
2048.541869014685
 10
1194.375849525414
 20
2048.027822519938
 10
1192.465602445564
 20
2047.43691385243
 10
1190.580513403808
 20
2046.770088339973
 10
1188.723598140482
 20
2046.02841276114
 10
1186.897827323887
 20
2045.213073638641
 10
1185.10612179785
 20
2044.325375341141
 10
1183.351347909005
 20
2043.366737996553
 10
1181.636312921243
 20
2042.338695220128
 10
1179.963760524687
 20
2041.242891661004
 10
1178.336366446382
 20
2040.081080371118
 10
1176.756734169692
 20
2038.855120000693
 10
1175.227390769292
 20
2037.566971824797
 10
1173.750782868378
 20
2036.218696605723
 10
1172.3292727246
 20
2034.812451296203
 10
1170.965134450947
 20
2033.35048558875
 10
1169.660550377658
 20
2031.835138316626
 10
1168.417607560954
 20
2030.268833712211
 10
1167.238294444193
 20
2028.654077528743
 10
1166.12449767679
 20
2026.993453031654
 10
1165.077999095974
 20
2025.289616865891
 10
1164.100472876234
 20
2023.545294805853
 10
1163.193482850995
 20
2021.763277394736
 10
1162.358480010814
 20
2019.946415480251
 10
1161.596800182113
 20
2018.097615653889
 10
1160.909661890134
 20
2016.219835600978
 10
1160.298164409563
 20
2014.316079369034
 10
1159.763286005922
 20
2012.389392561914
 10
1159.305882370556
 20
2010.442857467506
 10
1158.926685251708
 20
2008.47958812672
 10
1158.626301283876
 20
2006.502725351694
 10
1158.405211017331
 20
2004.515431701161
 10
1158.263768149336
 20
2002.520886421027
 10
1158.202198958306
 20
2000.522280358261
 10
1158.220601941814
 20
1998.522810856215
 10
1158.318947659011
 20
1996.525676639564
 10
1158.497078777729
 20
1994.534072697019
 10
1158.754710326177
 20
1992.551185170039
 10
1159.091430148837
 20
1990.580186255671
 10
1159.506699565822
 20
1988.624229131722
 10
1159.999854234651
 20
1986.686442912341
 10
1160.570105213054
 20
1984.769927642106
 10
1161.216540221112
 20
1982.877749336616
 10
1161.938125100713
 20
1981.012935077516
 10
1162.733705469979
 20
1979.178468169815
 10
1163.602008570032
 20
1977.377283369232
 10
1164.541645301142
 20
1975.612262187218
 10
1165.551112444984
 20
1973.886228281144
 10
1166.628795069469
 20
1972.201942937061
 10
1167.772969112291
 20
1970.562100652222
 10
1168.981804139059
 20
1968.969324824471
 10
1170.253366271602
 20
1967.426163555357
 10
1171.585621281759
 20
1965.93508557372
 10
1172.976437845714
 20
1964.498476286252
 10
1174.423590953656
 20
1963.118633961352
 10
1175.924765469321
 20
1961.797766052389
 10
1177.477559833719
 20
1960.537985666247
 10
1179.079489907111
 20
1959.341308182807
 10
1180.727992943106
 20
1958.209648030762
 10
1182.42043168851
 20
1957.144815624949
 10
1184.154098602363
 20
1956.148514470066
 10
1185.926220187432
 20
1955.222338435426
 10
1187.733961427215
 20
1954.367769205111
 10
1189.574430321358
 20
1953.586173907593
 10
1191.444682512243
 20
1952.878802928615
 10
1193.341725995331
 20
1952.246787910846
 10
1195.262525905729
 20
1951.691139943491
 10
1197.20400937333
 20
1951.212747944767
 10
1199.163070438747
 20
1950.812377239819
 10
1201.136575022185
 20
1950.490668336369
 10
1203.121365937304
 20
1950.248135900033
 10
1205.114267942037
 20
1950.085167930973
 10
1207.112092818309
 20
1950.002025143175
 10
1208.191472925115
 20
1949.990371350011
1001
REVIT
1002
{
1070
     3
1000
963222
1002
}
  0
SPLINE
  5
284
330
282
100
AcDbEntity
  8
M-PIPE
100
AcDbSpline
210
0.0
220
0.0
230
1.0
 70
     8
 71
     3
 72
     9
 73
     5
 74
     0
 42
0.000000001
 43
0.0000000001
 40
0.0
 40
0.0
 40
0.0
 40
0.0
 40
0.5
 40
1.0
 40
1.0
 40
1.0
 40
1.0
 10
1183.191472925114
 20
2043.274807706302
 30
0.0
 10
1183.192781917725
 20
2043.275563611023
 30
0.0
 10
1183.272774885101
 20
2043.321895563368
 30
0.0
 10
1183.508263011017
 20
2043.456579660233
 30
0.0
 10
1183.665417294721
 20
2043.545058850011
 30
0.0
1001
REVIT
1002
{
1070
     3
1000
963222
1002
}
  0
LINE
  5
285
330
282
100
AcDbEntity
  8
M-PIPE
100
AcDbLine
 10
1183.66541729472
 20
2043.545058850011
 30
0.0
 11
1183.696979942799
 21
2043.545058850011
 31
0.0
1001
REVIT
1002
{
1070
     3
1000
963222
1002
}
  0
LINE
  5
286
330
282
100
AcDbEntity
  8
M-PIPE
100
AcDbLine
 10
1183.696979942799
 20
2043.545058850011
 30
0.0
 11
1183.665417294721
 21
2043.545058850011
 31
0.0
1001
REVIT
1002
{
1070
     3
1000
963222
1002
}
  0
ARC
  5
287
330
282
100
AcDbEntity
  8
M-PIPE
100
AcDbCircle
 10
1208.191472925113
 20
1999.982558850011
 30
0.0
 40
49.99218750000011
100
AcDbArc
 50
94.28715832316351
 51
94.99999999999976
1001
REVIT
1002
{
1070
     3
1000
963222
1002
}
  0
ARC
  5
288
330
282
100
AcDbEntity
  8
M-PIPE
100
AcDbCircle
 10
1208.191472925113
 20
1999.982558850011
 30
0.0
 40
49.99218750000011
100
AcDbArc
 50
98.57756857500181
 51
111.4467385529174
1001
REVIT
1002
{
1070
     3
1000
963222
1002
}
  0
ARC
  5
289
330
282
100
AcDbEntity
  8
M-PIPE
100
AcDbCircle
 10
1208.191472925113
 20
1999.982558850011
 30
0.0
 40
49.99218750000003
100
AcDbArc
 50
115.0
 51
115.7279157608936
1001
REVIT
1002
{
1070
     3
1000
963222
1002
}
  0
ARC
  5
28A
330
282
100
AcDbEntity
  8
M-PIPE
100
AcDbCircle
 10
1208.191472925113
 20
1999.982558850011
 30
0.0
 40
49.99218750000011
100
AcDbArc
 50
124.303012024224
 51
124.9999999999999
1001
REVIT
1002
{
1070
     3
1000
963222
1002
}
  0
ARC
  5
28B
330
282
100
AcDbEntity
  8
M-PIPE
100
AcDbCircle
 10
1208.191472925113
 20
1999.982558850011
 30
0.0
 40
49.99218750000012
100
AcDbArc
 50
128.6058748249896
 51
141.3941251750106
1001
REVIT
1002
{
1070
     3
1000
963222
1002
}
  0
ARC
  5
28C
330
282
100
AcDbEntity
  8
M-PIPE
100
AcDbCircle
 10
1208.191472925113
 20
1999.982558850011
 30
0.0
 40
49.99218750000009
100
AcDbArc
 50
145.0
 51
145.6969879757762
1001
REVIT
1002
{
1070
     3
1000
963222
1002
}
  0
ARC
  5
28D
330
282
100
AcDbEntity
  8
M-PIPE
100
AcDbCircle
 10
1208.191472925113
 20
1999.982558850011
 30
0.0
 40
49.99218750000013
100
AcDbArc
 50
154.2720842391064
 51
155.0
1001
REVIT
1002
{
1070
     3
1000
963222
1002
}
  0
ARC
  5
28E
330
282
100
AcDbEntity
  8
M-PIPE
100
AcDbCircle
 10
1208.191472925113
 20
1999.982558850011
 30
0.0
 40
49.99218750000005
100
AcDbArc
 50
158.5532614470828
 51
171.4224314249985
1001
REVIT
1002
{
1070
     3
1000
963222
1002
}
  0
ARC
  5
28F
330
282
100
AcDbEntity
  8
M-PIPE
100
AcDbCircle
 10
1208.191472925113
 20
1999.982558850011
 30
0.0
 40
49.99218750000019
100
AcDbArc
 50
175.0000000000002
 51
175.7128416768365
1001
REVIT
1002
{
1070
     3
1000
963222
1002
}
  0
ARC
  5
290
330
282
100
AcDbEntity
  8
M-PIPE
100
AcDbCircle
 10
1208.191472925113
 20
1999.982558850011
 30
0.0
 40
49.99218750000011
100
AcDbArc
 50
184.2871583231631
 51
184.9999999999996
1001
REVIT
1002
{
1070
     3
1000
963222
1002
}
  0
ARC
  5
291
330
282
100
AcDbEntity
  8
M-PIPE
100
AcDbCircle
 10
1208.191472925113
 20
1999.982558850011
 30
0.0
 40
49.99218750000011
100
AcDbArc
 50
188.5775685750016
 51
201.446738552917
1001
REVIT
1002
{
1070
     3
1000
963222
1002
}
  0
ARC
  5
292
330
282
100
AcDbEntity
  8
M-PIPE
100
AcDbCircle
 10
1208.191472925113
 20
1999.982558850011
 30
0.0
 40
49.99218749999993
100
AcDbArc
 50
204.9999999999997
 51
205.7279157608932
1001
REVIT
1002
{
1070
     3
1000
963222
1002
}
  0
ARC
  5
293
330
282
100
AcDbEntity
  8
M-PIPE
100
AcDbCircle
 10
1208.191472925113
 20
1999.982558850011
 30
0.0
 40
49.99218750000011
100
AcDbArc
 50
214.3030120242235
 51
214.9999999999995
1001
REVIT
1002
{
1070
     3
1000
963222
1002
}
  0
ARC
  5
294
330
282
100
AcDbEntity
  8
M-PIPE
100
AcDbCircle
 10
1208.191472925113
 20
1999.982558850011
 30
0.0
 40
49.99218750000012
100
AcDbArc
 50
218.6058748249891
 51
231.3941251750101
1001
REVIT
1002
{
1070
     3
1000
963222
1002
}
  0
ARC
  5
295
330
282
100
AcDbEntity
  8
M-PIPE
100
AcDbCircle
 10
1208.191472925113
 20
1999.982558850011
 30
0.0
 40
49.99218750000009
100
AcDbArc
 50
234.9999999999994
 51
235.6969879757755
1001
REVIT
1002
{
1070
     3
1000
963222
1002
}
  0
ARC
  5
296
330
282
100
AcDbEntity
  8
M-PIPE
100
AcDbCircle
 10
1208.191472925113
 20
1999.982558850011
 30
0.0
 40
49.99218750000003
100
AcDbArc
 50
244.2720842391061
 51
244.9999999999994
1001
REVIT
1002
{
1070
     3
1000
963222
1002
}
  0
ARC
  5
297
330
282
100
AcDbEntity
  8
M-PIPE
100
AcDbCircle
 10
1208.191472925113
 20
1999.982558850011
 30
0.0
 40
49.99218749999983
100
AcDbArc
 50
248.553261447082
 51
261.4224314249978
1001
REVIT
1002
{
1070
     3
1000
963222
1002
}
  0
ARC
  5
298
330
282
100
AcDbEntity
  8
M-PIPE
100
AcDbCircle
 10
1208.191472925113
 20
1999.982558850011
 30
0.0
 40
49.99218750000019
100
AcDbArc
 50
264.9999999999996
 51
265.7128416768359
1001
REVIT
1002
{
1070
     3
1000
963222
1002
}
  0
SPLINE
  5
299
330
282
100
AcDbEntity
  8
M-PIPE
100
AcDbSpline
210
0.0
220
0.0
230
1.0
 70
     8
 71
     3
 72
     9
 73
     5
 74
     0
 42
0.000000001
 43
0.0000000001
 40
-1.0
 40
-1.0
 40
-1.0
 40
-1.0
 40
-0.5
 40
0.0
 40
0.0
 40
0.0
 40
0.0
 10
1183.191472925113
 20
2043.274807706303
 30
0.0
 10
1183.192814302895
 20
2043.275582312507
 30
0.0
 10
1183.272839709635
 20
2043.321932873853
 30
0.0
 10
1183.50829559835
 20
2043.456598007178
 30
0.0
 10
1183.66541729472
 20
2043.545058850011
 30
0.0
1001
REVIT
1002
{
1070
     3
1000
963222
1002
}
  0
LINE
  5
29A
330
282
100
AcDbEntity
  8
M-PIPE
100
AcDbLine
 10
1208.191472925113
 20
1949.990371350011
 30
0.0
 11
1208.191472925113
 21
1955.490371350011
 31
0.0
1001
REVIT
1002
{
1070
     3
1000
963222
1002
}
  0
LINE
  5
29B
330
282
100
AcDbEntity
  8
M-PIPE
100
AcDbLine
 10
1208.191472925113
 20
2044.474746350011
 30
0.0
 11
1208.191472925113
 21
2049.974746350011
 31
0.0
1001
REVIT
1002
{
1070
     3
1000
963222
1002
}
  0
LINE
  5
29C
330
282
100
AcDbEntity
  8
M-PIPE
100
AcDbLine
 10
1208.191472925113
 20
1955.490371350011
 30
0.0
 11
1208.191472925113
 21
1968.482558850011
 31
0.0
1001
REVIT
1002
{
1070
     3
1000
963222
1002
}
  0
ARC
  5
29D
330
282
100
AcDbEntity
  8
M-PIPE
100
AcDbCircle
 10
1208.191472925113
 20
1999.982558850011
 30
0.0
 40
31.50000000000011
100
AcDbArc
 50
180.0000000000006
 51
270.0000000000007
1001
REVIT
1002
{
1070
     3
1000
963222
1002
}
  0
ARC
  5
29E
330
282
100
AcDbEntity
  8
M-PIPE
100
AcDbCircle
 10
1208.191472925113
 20
1999.982558850011
 30
0.0
 40
31.5
100
AcDbArc
 50
89.99999999999918
 51
179.9999999999996
1001
REVIT
1002
{
1070
     3
1000
963222
1002
}
  0
LINE
  5
29F
330
282
100
AcDbEntity
  8
M-PIPE
100
AcDbLine
 10
1208.191472925113
 20
2031.482558850011
 30
0.0
 11
1208.191472925113
 21
2044.474746350011
 31
0.0
1001
REVIT
1002
{
1070
     3
1000
963222
1002
}
  0
LWPOLYLINE
  5
2A0
330
282
100
AcDbEntity
  8
P-SANR-FIXT
100
AcDbPolyline
 90
       41
 70
   128
 43
0.0
 10
1188.691472925116
 20
2079.482561711035
 10
1188.694272551802
 20
2079.622524380688
 10
1188.702666953056
 20
2079.762263139927
 10
1188.716642699627
 20
2079.901554436546
 10
1188.736177433301
 20
2080.040175434184
 10
1188.761239902671
 20
2080.177904368817
 10
1188.791790013133
 20
2080.31452090353
 10
1188.827778891028
 20
2080.449806481009
 10
1188.869148961827
 20
2080.583544673191
 10
1188.915834042243
 20
2080.715521527498
 10
1188.967759446105
 20
2080.845525909115
 10
1189.024842103846
 20
2080.973349838766
 10
1189.086990695388
 20
2081.09878882543
 10
1189.154105796244
 20
2081.221642193488
 10
1189.226080036569
 20
2081.341713403758
 10
1189.302798272932
 20
2081.458810367917
 10
1189.38413777252
 20
2081.572745755803
 10
1189.469968409487
 20
2081.683337295099
 10
1189.560152873122
 20
2081.790408062935
 10
1189.654546887522
 20
2081.893786768922
 10
1189.752999442401
 20
2081.993308029183
 10
1189.855353034671
 20
2082.088812630932
 10
1189.961443920421
 20
2082.180147787181
 10
1190.071102376863
 20
2082.267167381162
 10
1190.184152973862
 20
2082.349732200088
 10
1190.300414854577
 20
2082.427710157862
 10
1190.419702024801
 20
2082.500976506386
 10
1190.541823650508
 20
2082.569414035132
 10
1190.666584363147
 20
2082.632913258652
 10
1190.793784572194
 20
2082.691372591736
 10
1190.923220784447
 20
2082.74469851192
 10
1191.05468592958
 20
2082.792805709108
 10
1191.187969691404
 20
2082.835617222047
 10
1191.322858844332
 20
2082.873064561448
 10
1191.459137594496
 20
2082.905087819558
 10
1191.596587924965
 20
2082.931635765994
 10
1191.734989944532
 20
2082.952665929705
 10
1191.874122239491
 20
2082.968144666916
 10
1192.013762227848
 20
2082.978047214949
 10
1192.153686515412
 20
2082.98235773184
 10
1192.191472925115
 20
2082.982561711034
  0
LWPOLYLINE
  5
2A1
330
282
100
AcDbEntity
  8
P-SANR-FIXT
100
AcDbPolyline
 90
       33
 70
   128
 43
0.0
 10
1203.176472925116
 20
2082.982561711034
 10
1202.572896791413
 20
2082.982561711034
 10
1201.97830918096
 20
2082.982561711034
 10
1201.393661307093
 20
2082.982561711034
 10
1200.819888481692
 20
2082.982561711034
 10
1200.257908618879
 20
2082.982561711034
 10
1199.708620766554
 20
2082.982561711034
 10
1199.172903668103
 20
2082.982561711034
 10
1198.651614356605
 20
2082.982561711034
 10
1198.145586783755
 20
2082.982561711034
 10
1197.655630485723
 20
2082.982561711034
 10
1197.182529288068
 20
2082.982561711034
 10
1196.727040051782
 20
2082.982561711034
 10
1196.289891462479
 20
2082.982561711034
 10
1195.871782864647
 20
2082.982561711034
 10
1195.473383142852
 20
2082.982561711034
 10
1195.09532965166
 20
2082.982561711034
 10
1194.738227196011
 20
2082.982561711034
 10
1194.402647063656
 20
2082.982561711034
 10
1194.08912611122
 20
2082.982561711034
 10
1193.798165905346
 20
2082.982561711034
 10
1193.530231920295
 20
2082.982561711034
 10
1193.285752793287
 20
2082.982561711034
 10
1193.065119638774
 20
2082.982561711034
 10
1192.868685422734
 20
2082.982561711034
 10
1192.696764398012
 20
2082.982561711034
 10
1192.549631601571
 20
2082.982561711034
 10
1192.4275224145
 20
2082.982561711034
 10
1192.330632185449
 20
2082.982561711034
 10
1192.259115918116
 20
2082.982561711034
 10
1192.213088023273
 20
2082.982561711034
 10
1192.192622135732
 20
2082.982561711034
 10
1192.191472925115
 20
2082.982561711034
  0
LWPOLYLINE
  5
2A2
330
282
100
AcDbEntity
  8
P-SANR-FIXT
100
AcDbPolyline
 90
       33
 70
   128
 43
0.0
 10
1192.191472925115
 20
2082.982561711034
 10
1192.20427121854
 20
2082.982561711034
 10
1192.242645624274
 20
2082.982561711034
 10
1192.306534751454
 20
2082.982561711034
 10
1192.395836391106
 20
2082.982561711034
 10
1192.510407679655
 20
2082.982561711034
 10
1192.650065327483
 20
2082.982561711034
 10
1192.814585912143
 20
2082.982561711034
 10
1193.003706235796
 20
2082.982561711034
 10
1193.217123746268
 20
2082.982561711034
 10
1193.454497021069
 20
2082.982561711034
 10
1193.715446313596
 20
2082.982561711034
 10
1193.999554160647
 20
2082.982561711034
 10
1194.306366050273
 20
2082.982561711034
 10
1194.635391148901
 20
2082.982561711034
 10
1194.98610308656
 20
2082.982561711034
 10
1195.357940798967
 20
2082.982561711034
 10
1195.750309425101
 20
2082.982561711034
 10
1196.162581258861
 20
2082.982561711034
 10
1196.594096753261
 20
2082.982561711034
 10
1197.044165575561
 20
2082.982561711034
 10
1197.512067711655
 20
2082.982561711034
 10
1197.997054617938
 20
2082.982561711034
 10
1198.49835041882
 20
2082.982561711034
 10
1199.015153147956
 20
2082.982561711034
 10
1199.546636031225
 20
2082.982561711034
 10
1200.091948809391
 20
2082.982561711034
 10
1200.650219098336
 20
2082.982561711034
 10
1201.220553784688
 20
2082.982561711034
 10
1201.802040454615
 20
2082.982561711034
 10
1202.393748853489
 20
2082.982561711034
 10
1202.994732374095
 20
2082.982561711034
 10
1203.176472925116
 20
2082.982561711034
  0
LWPOLYLINE
  5
2A3
330
282
100
AcDbEntity
  8
P-SANR-FIXT
100
AcDbPolyline
 90
       41
 70
   128
 43
0.0
 10
1224.191472925115
 20
2082.982561711034
 10
1224.331435594769
 20
2082.979762084348
 10
1224.471174354008
 20
2082.971367683093
 10
1224.610465650627
 20
2082.957391936523
 10
1224.749086648266
 20
2082.937857202849
 10
1224.886815582898
 20
2082.912794733479
 10
1225.023432117611
 20
2082.882244623017
 10
1225.15871769509
 20
2082.846255745122
 10
1225.292455887272
 20
2082.804885674323
 10
1225.424432741579
 20
2082.758200593907
 10
1225.554437123196
 20
2082.706275190045
 10
1225.682261052847
 20
2082.649192532304
 10
1225.807700039511
 20
2082.587043940762
 10
1225.930553407569
 20
2082.519928839906
 10
1226.050624617839
 20
2082.447954599581
 10
1226.167721581998
 20
2082.371236363218
 10
1226.281656969884
 20
2082.289896863629
 10
1226.39224850918
 20
2082.204066226663
 10
1226.499319277016
 20
2082.113881763028
 10
1226.602697983003
 20
2082.019487748628
 10
1226.702219243264
 20
2081.92103519375
 10
1226.797723845014
 20
2081.818681601479
 10
1226.889059001262
 20
2081.71259071573
 10
1226.976078595243
 20
2081.602932259287
 10
1227.058643414169
 20
2081.489881662288
 10
1227.136621371944
 20
2081.373619781573
 10
1227.209887720467
 20
2081.254332611349
 10
1227.278325249213
 20
2081.132210985642
 10
1227.341824472733
 20
2081.007450273003
 10
1227.400283805817
 20
2080.880250063956
 10
1227.453609726001
 20
2080.750813851703
 10
1227.501716923189
 20
2080.61934870657
 10
1227.544528436128
 20
2080.486064944746
 10
1227.58197577553
 20
2080.351175791818
 10
1227.613999033639
 20
2080.214897041654
 10
1227.640546980075
 20
2080.077446711186
 10
1227.661577143787
 20
2079.939044691618
 10
1227.677055880997
 20
2079.79991239666
 10
1227.68695842903
 20
2079.660272408302
 10
1227.691268945921
 20
2079.520348120738
 10
1227.691472925116
 20
2079.482561711035
  0
LWPOLYLINE
  5
2A4
330
282
100
AcDbEntity
  8
P-SANR-FIXT
100
AcDbPolyline
 90
       33
 70
   128
 43
0.0
 10
1213.206472925116
 20
2082.982561711034
 10
1213.810049058818
 20
2082.982561711034
 10
1214.404636669271
 20
2082.982561711034
 10
1214.989284543138
 20
2082.982561711034
 10
1215.56305736854
 20
2082.982561711034
 10
1216.125037231352
 20
2082.982561711034
 10
1216.674325083677
 20
2082.982561711034
 10
1217.210042182128
 20
2082.982561711034
 10
1217.731331493626
 20
2082.982561711034
 10
1218.237359066476
 20
2082.982561711034
 10
1218.727315364508
 20
2082.982561711034
 10
1219.200416562164
 20
2082.982561711034
 10
1219.655905798449
 20
2082.982561711034
 10
1220.093054387752
 20
2082.982561711034
 10
1220.511162985584
 20
2082.982561711034
 10
1220.909562707379
 20
2082.982561711034
 10
1221.287616198571
 20
2082.982561711034
 10
1221.64471865422
 20
2082.982561711034
 10
1221.980298786575
 20
2082.982561711034
 10
1222.293819739011
 20
2082.982561711034
 10
1222.584779944885
 20
2082.982561711034
 10
1222.852713929936
 20
2082.982561711034
 10
1223.097193056944
 20
2082.982561711034
 10
1223.317826211458
 20
2082.982561711034
 10
1223.514260427497
 20
2082.982561711034
 10
1223.686181452219
 20
2082.982561711034
 10
1223.83331424866
 20
2082.982561711034
 10
1223.955423435731
 20
2082.982561711034
 10
1224.052313664782
 20
2082.982561711034
 10
1224.123829932115
 20
2082.982561711034
 10
1224.169857826958
 20
2082.982561711034
 10
1224.190323714499
 20
2082.982561711034
 10
1224.191472925115
 20
2082.982561711034
  0
LWPOLYLINE
  5
2A5
330
282
100
AcDbEntity
  8
P-SANR-FIXT
100
AcDbPolyline
 90
       33
 70
   128
 43
0.0
 10
1224.191472925115
 20
2082.982561711034
 10
1224.178674631692
 20
2082.982561711034
 10
1224.140300225958
 20
2082.982561711034
 10
1224.076411098778
 20
2082.982561711034
 10
1223.987109459126
 20
2082.982561711034
 10
1223.872538170575
 20
2082.982561711034
 10
1223.732880522748
 20
2082.982561711034
 10
1223.568359938088
 20
2082.982561711034
 10
1223.379239614435
 20
2082.982561711034
 10
1223.165822103963
 20
2082.982561711034
 10
1222.928448829162
 20
2082.982561711034
 10
1222.667499536635
 20
2082.982561711034
 10
1222.383391689584
 20
2082.982561711034
 10
1222.076579799958
 20
2082.982561711034
 10
1221.747554701331
 20
2082.982561711034
 10
1221.39684276367
 20
2082.982561711034
 10
1221.025005051264
 20
2082.982561711034
 10
1220.632636425131
 20
2082.982561711034
 10
1220.22036459137
 20
2082.982561711034
 10
1219.78884909697
 20
2082.982561711034
 10
1219.33878027467
 20
2082.982561711034
 10
1218.870878138577
 20
2082.982561711034
 10
1218.385891232293
 20
2082.982561711034
 10
1217.884595431411
 20
2082.982561711034
 10
1217.367792702275
 20
2082.982561711034
 10
1216.836309819006
 20
2082.982561711034
 10
1216.29099704084
 20
2082.982561711034
 10
1215.732726751896
 20
2082.982561711034
 10
1215.162392065543
 20
2082.982561711034
 10
1214.580905395616
 20
2082.982561711034
 10
1213.989196996743
 20
2082.982561711034
 10
1213.388213476136
 20
2082.982561711034
 10
1213.206472925116
 20
2082.982561711034
  0
LINE
  5
2A6
330
282
100
AcDbEntity
  8
P-SANR-FIXT
100
AcDbLine
 10
1188.691472925116
 20
2079.482561711035
 30
0.0
 11
1188.691472925116
 21
2057.318952398154
 31
0.0
  0
LINE
  5
2A7
330
282
100
AcDbEntity
  8
P-SANR-FIXT
100
AcDbLine
 10
1227.691472925116
 20
2057.318952398154
 30
0.0
 11
1227.691472925116
 21
2079.482561711035
 31
0.0
  0
LWPOLYLINE
  5
2A8
330
282
100
AcDbEntity
  8
P-SANR-FIXT
100
AcDbPolyline
 90
       21
 70
   128
 43
0.0
 10
1187.812793268675
 20
2055.197632054595
 10
1187.895926626798
 20
2055.284159072742
 10
1187.975533329256
 20
2055.373941326145
 10
1188.051486022308
 20
2055.46683518235
 10
1188.123663197848
 20
2055.562692031003
 10
1188.19194938779
 20
2055.661358521593
 10
1188.256235348798
 20
2055.762676808786
 10
1188.316418237049
 20
2055.866484804933
 10
1188.37240177276
 20
2055.972616439387
 10
1188.424096394215
 20
2056.080901924171
 10
1188.471419401047
 20
2056.191168025611
 10
1188.514295086543
 20
2056.303238341465
 10
1188.55265485875
 20
2056.416933583136
 10
1188.586437350215
 20
2056.532071862491
 10
1188.615588516161
 20
2056.648468982844
 10
1188.640061720938
 20
2056.765938733632
 10
1188.659817812641
 20
2056.884293188314
 10
1188.674825185738
 20
2057.003343005009
 10
1188.685059831631
 20
2057.122897729407
 10
1188.690505377072
 20
2057.242766099452
 10
1188.691472925116
 20
2057.318952398154
  0
LWPOLYLINE
  5
2A9
330
282
100
AcDbEntity
  8
P-SANR-FIXT
100
AcDbPolyline
 90
       21
 70
   128
 43
0.0
 10
1227.691472925116
 20
2057.318952398154
 10
1227.693872605133
 20
2057.198984395594
 10
1227.701067806208
 20
2057.079208316246
 10
1227.713047017554
 20
2056.959815776287
 10
1227.729791074989
 20
2056.840997778311
 10
1227.751273191592
 20
2056.722944405769
 10
1227.77745900056
 20
2056.605844518872
 10
1227.808306610183
 20
2056.489885452462
 10
1227.843766670868
 20
2056.375252716306
 10
1227.883782454082
 20
2056.262129698328
 10
1227.928289943107
 20
2056.150697371228
 10
1227.977217935456
 20
2056.041134002956
 10
1228.030488156778
 20
2055.933614871529
 10
1228.088015386083
 20
2055.828311984623
 10
1228.149707592075
 20
2055.725393804391
 10
1228.215466080387
 20
2055.625024977969
 10
1228.285185651463
 20
2055.527366074066
 10
1228.358754768863
 20
2055.432573326099
 10
1228.436055737693
 20
2055.34079838224
 10
1228.516964892893
 20
2055.252188062822
 10
1228.570152581556
 20
2055.197632054595
  0
LINE
  5
2AA
330
282
100
AcDbEntity
  8
P-SANR-FIXT
100
AcDbLine
 10
1187.812793268675
 20
2055.197632054595
 30
0.0
 11
1185.320152581556
 21
2052.704991367475
 31
0.0
  0
LINE
  5
2AB
330
282
100
AcDbEntity
  8
P-SANR-FIXT
100
AcDbLine
 10
1231.062793268675
 20
2052.704991367475
 30
0.0
 11
1228.570152581556
 21
2055.197632054595
 31
0.0
  0
LWPOLYLINE
  5
2AC
330
282
100
AcDbEntity
  8
P-SANR-FIXT
100
AcDbPolyline
 90
       21
 70
   128
 43
0.0
 10
1184.441472925116
 20
2050.583671023916
 10
1184.443872605132
 20
2050.703639026475
 10
1184.451067806208
 20
2050.823415105823
 10
1184.463047017554
 20
2050.942807645782
 10
1184.479791074989
 20
2051.061625643758
 10
1184.501273191592
 20
2051.1796790163
 10
1184.52745900056
 20
2051.296778903197
 10
1184.558306610183
 20
2051.412737969608
 10
1184.593766670868
 20
2051.527370705764
 10
1184.633782454082
 20
2051.64049372374
 10
1184.678289943107
 20
2051.751926050841
 10
1184.727217935456
 20
2051.861489419113
 10
1184.780488156778
 20
2051.96900855054
 10
1184.838015386083
 20
2052.074311437447
 10
1184.899707592075
 20
2052.177229617678
 10
1184.965466080387
 20
2052.2775984441
 10
1185.035185651463
 20
2052.375257348002
 10
1185.108754768863
 20
2052.470050095971
 10
1185.186055737693
 20
2052.56182503983
 10
1185.266964892893
 20
2052.650435359247
 10
1185.320152581556
 20
2052.704991367475
  0
LWPOLYLINE
  5
2AD
330
282
100
AcDbEntity
  8
P-SANR-FIXT
100
AcDbPolyline
 90
       21
 70
   128
 43
0.0
 10
1231.062793268675
 20
2052.704991367475
 10
1231.145926626798
 20
2052.618464349327
 10
1231.225533329257
 20
2052.528682095924
 10
1231.301486022309
 20
2052.435788239719
 10
1231.373663197848
 20
2052.339931391067
 10
1231.44194938779
 20
2052.241264900476
 10
1231.506235348799
 20
2052.139946613284
 10
1231.56641823705
 20
2052.036138617136
 10
1231.62240177276
 20
2051.930006982682
 10
1231.674096394215
 20
2051.821721497898
 10
1231.721419401048
 20
2051.711455396459
 10
1231.764295086543
 20
2051.599385080604
 10
1231.80265485875
 20
2051.485689838933
 10
1231.836437350216
 20
2051.370551559578
 10
1231.865588516161
 20
2051.254154439225
 10
1231.890061720939
 20
2051.136684688437
 10
1231.909817812642
 20
2051.018330233755
 10
1231.924825185738
 20
2050.89928041706
 10
1231.935059831631
 20
2050.779725692662
 10
1231.940505377072
 20
2050.659857322617
 10
1231.941472925116
 20
2050.583671023916
  0
LINE
  5
2AE
330
282
100
AcDbEntity
  8
P-SANR-FIXT
100
AcDbLine
 10
1184.441472925116
 20
2050.583671023916
 30
0.0
 11
1184.441472925116
 21
2047.982561711035
 31
0.0
  0
LINE
  5
2AF
330
282
100
AcDbEntity
  8
P-SANR-FIXT
100
AcDbLine
 10
1231.941472925116
 20
2047.982561711035
 30
0.0
 11
1231.941472925116
 21
2050.583671023916
 31
0.0
  0
LINE
  5
2B0
330
282
100
AcDbEntity
  8
P-SANR-FIXT
100
AcDbLine
 10
1213.206472925116
 20
2082.982561711034
 30
0.0
 11
1203.176472925116
 21
2082.982561711034
 31
0.0
  0
LINE
  5
2B1
330
282
100
AcDbEntity
  8
P-SANR-FIXT
100
AcDbLine
 10
1213.206472925113
 20
2082.982561711034
 30
0.0
 11
1213.206472925113
 21
2080.099990404507
 31
0.0
  0
LINE
  5
2B2
330
282
100
AcDbEntity
  8
P-SANR-FIXT
100
AcDbLine
 10
1213.206472925113
 20
2080.099990404507
 30
0.0
 11
1213.206472925113
 21
2047.982561711034
 31
0.0
  0
LINE
  5
2B3
330
282
100
AcDbEntity
  8
P-SANR-FIXT
100
AcDbLine
 10
1213.206472925113
 20
2047.982561711034
 30
0.0
 11
1231.941472925113
 21
2047.982561711034
 31
0.0
  0
LINE
  5
2B4
330
282
100
AcDbEntity
  8
P-SANR-FIXT
100
AcDbLine
 10
1213.206472925113
 20
2047.982561711034
 30
0.0
 11
1208.191472925113
 21
2047.982561711034
 31
0.0
  0
LINE
  5
2B5
330
282
100
AcDbEntity
  8
P-SANR-FIXT
100
AcDbLine
 10
1184.441472925113
 20
2047.982561711034
 30
0.0
 11
1194.22051985553
 21
2047.982561711034
 31
0.0
  0
LINE
  5
2B6
330
282
100
AcDbEntity
  8
P-SANR-FIXT
100
AcDbLine
 10
1203.176472925113
 20
2049.700724025878
 30
0.0
 11
1203.176472925113
 21
2080.099990404506
 31
0.0
  0
LINE
  5
2B7
330
282
100
AcDbEntity
  8
P-SANR-FIXT
100
AcDbLine
 10
1203.176472925113
 20
2080.099990404507
 30
0.0
 11
1203.176472925113
 21
2082.982561711034
 31
0.0
  0
LINE
  5
2B8
330
282
100
AcDbEntity
  8
P-SANR-FIXT
100
AcDbLine
 10
1242.191472925116
 20
1990.982558850011
 30
0.0
 11
1247.691472925116
 21
1990.982558850011
 31
0.0
  0
LINE
  5
2B9
330
282
100
AcDbEntity
  8
P-SANR-FIXT
100
AcDbLine
 10
1247.691472925116
 20
2008.982558850012
 30
0.0
 11
1242.191472925116
 21
2008.982558850012
 31
0.0
  0
LINE
  5
2BA
330
282
100
AcDbEntity
  8
P-SANR-FIXT
100
AcDbLine
 10
1242.191472925116
 20
2008.982558850012
 30
0.0
 11
1233.191472925115
 21
2008.982558850012
 31
0.0
  0
LINE
  5
2BB
330
282
100
AcDbEntity
  8
P-SANR-FIXT
100
AcDbLine
 10
1183.191472925115
 20
2008.982558850012
 30
0.0
 11
1178.031930555942
 21
2008.982558850012
 31
0.0
  0
LINE
  5
2BC
330
282
100
AcDbEntity
  8
P-SANR-FIXT
100
AcDbLine
 10
1178.031930555942
 20
1990.982558850011
 30
0.0
 11
1183.191472925116
 21
1990.982558850011
 31
0.0
  0
LINE
  5
2BD
330
282
100
AcDbEntity
  8
P-SANR-FIXT
100
AcDbLine
 10
1233.191472925116
 20
1990.982558850011
 30
0.0
 11
1242.191472925116
 21
1990.982558850011
 31
0.0
  0
LINE
  5
2BE
330
282
100
AcDbEntity
  8
P-SANR-FIXT
100
AcDbLine
 10
1183.941472925115
 20
2044.482558850011
 30
0.0
 11
1183.941472925115
 21
2043.671385275632
 31
0.0
  0
LINE
  5
2BF
330
282
100
AcDbEntity
  8
P-SANR-FIXT
100
AcDbLine
 10
1232.441472925116
 20
2038.432558850012
 30
0.0
 11
1232.441472925116
 21
2044.482558850011
 31
0.0
  0
LINE
  5
2C0
330
282
100
AcDbEntity
  8
P-SANR-FIXT
100
AcDbLine
 10
1231.691472925116
 20
2037.682558850011
 30
0.0
 11
1232.441472925116
 21
2038.432558850012
 31
0.0
  0
LINE
  5
2C1
330
282
100
AcDbEntity
  8
P-SANR-FIXT
100
AcDbLine
 10
1184.691472925115
 20
2020.918329388647
 30
0.0
 11
1184.691472925115
 21
2013.934990857717
 31
0.0
  0
LINE
  5
2C2
330
282
100
AcDbEntity
  8
P-SANR-FIXT
100
AcDbLine
 10
1231.691472925116
 20
2013.934990857717
 30
0.0
 11
1231.691472925116
 21
2037.682558850011
 31
0.0
  0
LINE
  5
2C3
330
282
100
AcDbEntity
  8
P-SANR-FIXT
100
AcDbLine
 10
1189.027884398572
 20
2047.982561711035
 30
0.0
 11
1189.027884398572
 21
2047.282558850012
 31
0.0
  0
LINE
  5
2C4
330
282
100
AcDbEntity
  8
P-SANR-FIXT
100
AcDbLine
 10
1227.355061451659
 20
2047.282558850012
 30
0.0
 11
1227.355061451659
 21
2047.982561711035
 31
0.0
  0
LINE
  5
2C5
330
282
100
AcDbEntity
  8
P-SANR-FIXT
100
AcDbLine
 10
1185.027884398572
 20
2047.282558850012
 30
0.0
 11
1184.441472925116
 21
2046.735721304329
 31
0.0
  0
LINE
  5
2C6
330
282
100
AcDbEntity
  8
P-SANR-FIXT
100
AcDbLine
 10
1231.941472925116
 20
2046.735721304329
 30
0.0
 11
1231.355061451659
 21
2047.282558850012
 31
0.0
  0
LINE
  5
2C7
330
282
100
AcDbEntity
  8
P-SANR-FIXT
100
AcDbLine
 10
1184.441472925116
 20
2046.735721304329
 30
0.0
 11
1184.441472925116
 21
2044.482558850011
 31
0.0
  0
LINE
  5
2C8
330
282
100
AcDbEntity
  8
P-SANR-FIXT
100
AcDbLine
 10
1231.941472925116
 20
2044.482558850011
 30
0.0
 11
1231.941472925116
 21
2046.735721304329
 31
0.0
  0
LINE
  5
2C9
330
282
100
AcDbEntity
  8
P-SANR-FIXT
100
AcDbLine
 10
1247.691472925113
 20
2004.849209267478
 30
0.0
 11
1247.691472925113
 21
2004.105664475628
 31
0.0
  0
LINE
  5
2CA
330
282
100
AcDbEntity
  8
P-SANR-FIXT
100
AcDbLine
 10
1247.691472925113
 20
1995.859453224393
 30
0.0
 11
1247.691472925113
 21
2004.105664475628
 31
0.0
  0
LINE
  5
2CB
330
282
100
AcDbEntity
  8
P-SANR-FIXT
100
AcDbLine
 10
1247.691472925113
 20
1995.859453224393
 30
0.0
 11
1247.691472925113
 21
1995.115908432544
 31
0.0
  0
LINE
  5
2CC
330
282
100
AcDbEntity
  8
P-SANR-FIXT
100
AcDbLine
 10
1247.691472925113
 20
1990.992802806926
 30
0.0
 11
1247.691472925113
 21
1995.115908432544
 31
0.0
  0
LINE
  5
2CD
330
282
100
AcDbEntity
  8
P-SANR-FIXT
100
AcDbLine
 10
1247.691472925113
 20
1990.992802806926
 30
0.0
 11
1247.691472925113
 21
1990.98255885001
 31
0.0
  0
LINE
  5
2CE
330
282
100
AcDbEntity
  8
P-SANR-FIXT
100
AcDbLine
 10
1247.691472925113
 20
2008.982558850011
 30
0.0
 11
1247.691472925113
 21
2008.972314893095
 31
0.0
  0
LINE
  5
2CF
330
282
100
AcDbEntity
  8
P-SANR-FIXT
100
AcDbLine
 10
1247.691472925113
 20
2004.849209267478
 30
0.0
 11
1247.691472925113
 21
2008.972314893095
 31
0.0
  0
LINE
  5
2D0
330
282
100
AcDbEntity
  8
P-SANR-FIXT
100
AcDbLine
 10
1242.191472925113
 20
1995.859453224393
 30
0.0
 11
1247.691472925113
 21
1995.859453224393
 31
0.0
  0
LINE
  5
2D1
330
282
100
AcDbEntity
  8
P-SANR-FIXT
100
AcDbLine
 10
1247.691472925113
 20
1995.115908432544
 30
0.0
 11
1242.191472925113
 21
1995.115908432544
 31
0.0
  0
LINE
  5
2D2
330
282
100
AcDbEntity
  8
P-SANR-FIXT
100
AcDbLine
 10
1242.191472925113
 20
1990.992802806926
 30
0.0
 11
1247.691472925113
 21
1990.992802806926
 31
0.0
  0
LINE
  5
2D3
330
282
100
AcDbEntity
  8
P-SANR-FIXT
100
AcDbLine
 10
1242.191472925113
 20
2004.849209267478
 30
0.0
 11
1247.691472925113
 21
2004.849209267478
 31
0.0
  0
LINE
  5
2D4
330
282
100
AcDbEntity
  8
P-SANR-FIXT
100
AcDbLine
 10
1247.691472925113
 20
2004.105664475628
 30
0.0
 11
1242.191472925113
 21
2004.105664475628
 31
0.0
  0
LINE
  5
2D5
330
282
100
AcDbEntity
  8
P-SANR-FIXT
100
AcDbLine
 10
1247.691472925113
 20
2008.972314893095
 30
0.0
 11
1242.191472925113
 21
2008.972314893095
 31
0.0
  0
ARC
  5
2D6
330
282
100
AcDbEntity
  8
P-SANR-FIXT
100
AcDbCircle
 10
1208.191472925113
 20
1999.982558850011
 30
0.0
 40
15.89999999999982
100
AcDbArc
 50
90.0000000000004
 51
270.0000000000001
  0
ARC
  5
2D7
330
282
100
AcDbEntity
  8
P-SANR-FIXT
100
AcDbCircle
 10
1208.191472925113
 20
1999.982558850011
 30
0.0
 40
15.89999999999986
100
AcDbArc
 50
270.0000000000005
 51
90.0
  0
ARC
  5
2D8
330
282
100
AcDbEntity
  8
P-SANR-FIXT
100
AcDbCircle
 10
1208.191472925113
 20
1999.982558850011
 30
0.0
 40
24.50000000000005
100
AcDbArc
 50
89.99999999999975
 51
269.9999999999994
  0
SPLINE
  5
2D9
330
282
100
AcDbEntity
  8
P-SANR-FIXT
100
AcDbSpline
210
0.0
220
0.0
230
1.0
 70
    24
 71
     3
 72
     9
 73
     5
 74
     0
 42
0.000000001
 43
0.0000000001
 40
-1.0
 40
-1.0
 40
-1.0
 40
-1.0
 40
-0.5
 40
0.0
 40
0.0
 40
0.0
 40
0.0
 10
1205.605811571374
 20
2027.210060670116
 30
0.0
 10
1202.288418224223
 20
2025.29476272813
 30
0.0
 10
1195.687488839208
 20
2021.483714370789
 30
0.0
 10
1189.154274072764
 20
2017.71176106671
 30
0.0
 10
1185.904595344185
 20
2015.835558177985
 30
0.0
  0
SPLINE
  5
2DA
330
282
100
AcDbEntity
  8
P-SANR-FIXT
100
AcDbSpline
210
0.0
220
0.0
230
1.0
 70
    24
 71
     3
 72
     9
 73
     5
 74
     0
 42
0.000000001
 43
0.0000000001
 40
-1.0
 40
-1.0
 40
-1.0
 40
-1.0
 40
-0.5
 40
0.0
 40
0.0
 40
0.0
 40
0.0
 10
1183.191472925113
 20
2011.074109688375
 30
0.0
 10
1183.191472925113
 20
2007.335382920298
 30
0.0
 10
1183.191472925113
 20
1999.899472539431
 30
0.0
 10
1183.191472925113
 20
1992.546648469145
 30
0.0
 10
1183.191472925114
 20
1988.891008011646
 30
0.0
  0
SPLINE
  5
2DB
330
282
100
AcDbEntity
  8
P-SANR-FIXT
100
AcDbSpline
210
0.0
220
0.0
230
1.0
 70
    24
 71
     3
 72
     9
 73
     5
 74
     0
 42
0.000000001
 43
0.0000000001
 40
-1.0
 40
-1.0
 40
-1.0
 40
-1.0
 40
-0.5
 40
0.0
 40
0.0
 40
0.0
 40
0.0
 10
1186.274940656729
 20
1983.621381834622
 30
0.0
 10
1189.430083904172
 20
1981.799759031378
 30
0.0
 10
1195.702827730189
 20
1978.17818869487
 30
0.0
 10
1201.900486218464
 20
1974.59996889832
 30
0.0
 10
1204.980544128166
 20
1972.821696635033
 30
0.0
  0
ARC
  5
2DC
330
282
100
AcDbEntity
  8
P-SANR-FIXT
100
AcDbCircle
 10
1208.191472925113
 20
1999.982558850011
 30
0.0
 40
24.49999999999977
100
AcDbArc
 50
269.9999999999997
 51
89.99999999999946
  0
SPLINE
  5
2DD
330
282
100
AcDbEntity
  8
P-SANR-FIXT
100
AcDbSpline
210
0.0
220
0.0
230
1.0
 70
    24
 71
     3
 72
     9
 73
     5
 74
     0
 42
0.000000001
 43
0.0000000001
 40
-1.0
 40
-1.0
 40
-1.0
 40
-1.0
 40
-0.5
 40
0.0
 40
0.0
 40
0.0
 40
0.0
 10
1211.402401722061
 20
1972.821696635033
 30
0.0
 10
1214.557544969505
 20
1974.643319438277
 30
0.0
 10
1220.830288795522
 20
1978.264889774786
 30
0.0
 10
1227.027947283797
 20
1981.843109571336
 30
0.0
 10
1230.108005193498
 20
1983.621381834623
 30
0.0
  0
SPLINE
  5
2DE
330
282
100
AcDbEntity
  8
P-SANR-FIXT
100
AcDbSpline
210
0.0
220
0.0
230
1.0
 70
    24
 71
     3
 72
     9
 73
     5
 74
     0
 42
0.000000001
 43
0.0000000001
 40
-1.0
 40
-1.0
 40
-1.0
 40
-1.0
 40
-0.5
 40
0.0
 40
0.0
 40
0.0
 40
0.0
 10
1233.191472925113
 20
1988.891008011646
 30
0.0
 10
1233.191472925113
 20
1992.629734779724
 30
0.0
 10
1233.191472925113
 20
2000.06564516059
 30
0.0
 10
1233.191472925113
 20
2007.418469230877
 30
0.0
 10
1233.191472925113
 20
2011.074109688375
 30
0.0
  0
SPLINE
  5
2DF
330
282
100
AcDbEntity
  8
P-SANR-FIXT
100
AcDbSpline
210
0.0
220
0.0
230
1.0
 70
    24
 71
     3
 72
     9
 73
     5
 74
     0
 42
0.000000001
 43
0.0000000001
 40
-1.0
 40
-1.0
 40
-1.0
 40
-1.0
 40
-0.5
 40
0.0
 40
0.0
 40
0.0
 40
0.0
 10
1230.478350506041
 20
2015.835558177985
 30
0.0
 10
1227.160957158891
 20
2017.75085611997
 30
0.0
 10
1220.560027773875
 20
2021.56190447731
 30
0.0
 10
1214.026813007431
 20
2025.33385778139
 30
0.0
 10
1210.777134278853
 20
2027.210060670116
 30
0.0
  0
ARC
  5
2E0
330
282
100
AcDbEntity
  8
P-SANR-FIXT
100
AcDbCircle
 10
1208.191472925113
 20
1999.982558850011
 30
0.0
 40
27.35000000000038
100
AcDbArc
 50
203.9250437119246
 51
216.7421546644771
  0
ARC
  5
2E1
330
282
100
AcDbEntity
  8
P-SANR-FIXT
100
AcDbCircle
 10
1208.191472925113
 20
1999.982558850011
 30
0.0
 40
27.35000000000046
100
AcDbArc
 50
144.5751714964899
 51
156.0749562880758
  0
ARC
  5
2E2
330
282
100
AcDbEntity
  8
P-SANR-FIXT
100
AcDbCircle
 10
1208.191472925113
 20
1999.982558850011
 30
0.0
 40
27.35000000000037
100
AcDbArc
 50
263.2578453355225
 51
269.9999999999992
  0
ARC
  5
2E3
330
282
100
AcDbEntity
  8
P-SANR-FIXT
100
AcDbCircle
 10
1208.191472925113
 20
1999.982558850011
 30
0.0
 40
27.35000000000041
100
AcDbArc
 50
89.99999999999976
 51
95.4248285035103
  0
ARC
  5
2E4
330
282
100
AcDbEntity
  8
P-SANR-FIXT
100
AcDbCircle
 10
1208.191472925113
 20
1999.982558850011
 30
0.0
 40
27.35000000000053
100
AcDbArc
 50
323.257845335522
 51
336.0749562880751
  0
ARC
  5
2E5
330
282
100
AcDbEntity
  8
P-SANR-FIXT
100
AcDbCircle
 10
1208.191472925113
 20
1999.982558850011
 30
0.0
 40
27.35000000000038
100
AcDbArc
 50
23.92504371192456
 51
35.42482850350999
  0
ARC
  5
2E6
330
282
100
AcDbEntity
  8
P-SANR-FIXT
100
AcDbCircle
 10
1208.191472925113
 20
1999.982558850011
 30
0.0
 40
27.35000000000037
100
AcDbArc
 50
269.9999999999997
 51
276.7421546644768
  0
ARC
  5
2E7
330
282
100
AcDbEntity
  8
P-SANR-FIXT
100
AcDbCircle
 10
1208.191472925113
 20
1999.982558850011
 30
0.0
 40
27.35000000000042
100
AcDbArc
 50
84.57517149648991
 51
89.99999999999953
  0
LINE
  5
2E8
330
282
100
AcDbEntity
  8
P-SANR-FIXT
100
AcDbLine
 10
1242.191472925113
 20
1999.982558850011
 30
0.0
 11
1242.191472925113
 21
1995.859453224393
 31
0.0
  0
LINE
  5
2E9
330
282
100
AcDbEntity
  8
P-SANR-FIXT
100
AcDbLine
 10
1242.191472925113
 20
2004.105664475628
 30
0.0
 11
1242.191472925113
 21
1999.982558850011
 31
0.0
  0
LINE
  5
2EA
330
282
100
AcDbEntity
  8
P-SANR-FIXT
100
AcDbLine
 10
1242.191472925113
 20
2008.972314893095
 30
0.0
 11
1242.191472925113
 21
2004.849209267478
 31
0.0
  0
LINE
  5
2EB
330
282
100
AcDbEntity
  8
P-SANR-FIXT
100
AcDbLine
 10
1242.191472925113
 20
1995.115908432544
 30
0.0
 11
1242.191472925113
 21
1990.992802806926
 31
0.0
  0
LINE
  5
2EC
330
282
100
AcDbEntity
  8
P-SANR-FIXT
100
AcDbLine
 10
1183.941472925113
 20
2044.482558850011
 30
0.0
 11
1185.458807433961
 21
2044.482558850011
 31
0.0
  0
LINE
  5
2ED
330
282
100
AcDbEntity
  8
P-SANR-FIXT
100
AcDbLine
 10
1208.191472925113
 20
2044.482558850011
 30
0.0
 11
1232.441472925113
 21
2044.482558850011
 31
0.0
  0
LINE
  5
2EE
330
282
100
AcDbEntity
  8
P-SANR-FIXT
100
AcDbLine
 10
1208.191472925113
 20
2038.43255885001
 30
0.0
 11
1232.441472925113
 21
2038.43255885001
 31
0.0
  0
LINE
  5
2EF
330
282
100
AcDbEntity
  8
P-SANR-FIXT
100
AcDbLine
 10
1208.191472925113
 20
2037.682558850011
 30
0.0
 11
1231.691472925113
 21
2037.682558850011
 31
0.0
  0
LINE
  5
2F0
330
282
100
AcDbEntity
  8
P-SANR-FIXT
100
AcDbLine
 10
1185.02788439857
 20
2047.282558850011
 30
0.0
 11
1192.101023343879
 21
2047.282558850011
 31
0.0
  0
LINE
  5
2F1
330
282
100
AcDbEntity
  8
P-SANR-FIXT
100
AcDbLine
 10
1208.191472925113
 20
2047.282558850011
 30
0.0
 11
1231.355061451657
 21
2047.282558850011
 31
0.0
  0
LINE
  5
2F2
330
282
100
AcDbEntity
  8
P-SANR-FIXT
100
AcDbLine
 10
1184.441472925113
 20
2046.735721304328
 30
0.0
 11
1190.534805573832
 21
2046.735721304328
 31
0.0
  0
LINE
  5
2F3
330
282
100
AcDbEntity
  8
P-SANR-FIXT
100
AcDbLine
 10
1208.191472925113
 20
2046.735721304328
 30
0.0
 11
1231.941472925113
 21
2046.735721304328
 31
0.0
  0
ENDBLK
  5
2F5
330
282
100
AcDbEntity
  8
0
100
AcDbBlockEnd
  0
ENDSEC
  0
SECTION
  2
ENTITIES
  0
INSERT
  5
19F
330
71
100
AcDbEntity
  8
P-SANR-FIXT
100
AcDbBlockReference
  2
Automatic flow rate regulator valve_Caleffi_121 DN15 - 1_2__-859151-Est - Idraulica
 10
0.0
 20
0.0
 30
0.0
1001
REVIT
1002
{
1070
     1
1000
863131
1002
}
1002
{
1070
     5
1000
859151
1002
}
1002
{
1070
     2
1000
-2001160
1002
}
  0
INSERT
  5
281
330
71
100
AcDbEntity
  8
P-SANR-FIXT
100
AcDbBlockReference
  2
Automatic flow rate regulator valve_Caleffi_121 DN15 - 1_2__-V1-Est - Idraulica
 10
0.0
 20
0.0
 30
0.0
1001
REVIT
1002
{
1070
     1
1000
863152
1002
}
1002
{
1070
     5
1000
859151
1002
}
1002
{
1070
     2
1000
-2001160
1002
}
  0
INSERT
  5
2F6
330
71
100
AcDbEntity
  8
P-SANR-FIXT
100
AcDbBlockReference
  2
Automatic flow rate regulator valve_Caleffi_121 DN15 - 1_2__-V2-Est - Idraulica
 10
0.0
 20
0.0
 30
0.0
1001
REVIT
1002
{
1070
     1
1000
863172
1002
}
1002
{
1070
     5
1000
859151
1002
}
1002
{
1070
     2
1000
-2001160
1002
}
  0
ENDSEC
  0
SECTION
  2
OBJECTS
  0
DICTIONARY
  5
C
330
0
100
AcDbDictionary
281
     1
  3
ACAD_CIP_PREVIOUS_PRODUCT_INFO
350
7A
  3
ACAD_COLOR
350
63
  3
ACAD_DETAILVIEWSTYLE
350
6B
  3
ACAD_GROUP
350
D
  3
ACAD_IMAGE_VARS
350
7B
  3
ACAD_LAYOUT
350
62
  3
ACAD_MATERIAL
350
10
  3
ACAD_MLEADERSTYLE
350
66
  3
ACAD_MLINESTYLE
350
5F
  3
ACAD_PLOTSETTINGS
350
61
  3
ACAD_PLOTSTYLENAME
350
E
  3
ACAD_SCALELIST
350
42
  3
ACAD_SECTIONVIEWSTYLE
350
68
  3
ACAD_TABLESTYLE
350
64
  3
ACAD_VISUALSTYLE
350
29
  3
ACDB_RECOMPOSE_DATA
350
301
  3
AcDbVariableDictionary
350
7C
  3
REVIT_DICTIONARY
350
2F8
  0
DICTIONARY
  5
2FD
330
71
100
AcDbDictionary
280
     1
281
     1
  3
ACAD_SORTENTS
360
2FE
  0
XRECORD
  5
7A
102
{ACAD_REACTORS
330
C
102
}
330
C
100
AcDbXrecord
280
     1
300
RVT
300
2013
300
RVT2013
  0
DICTIONARY
  5
63
102
{ACAD_REACTORS
330
C
102
}
330
C
100
AcDbDictionary
281
     1
  0
DICTIONARY
  5
6B
102
{ACAD_REACTORS
330
C
102
}
330
C
100
AcDbDictionary
281
     1
  3
Imperial24
350
6C
  0
DICTIONARY
  5
D
102
{ACAD_REACTORS
330
C
102
}
330
C
100
AcDbDictionary
281
     1
  0
RASTERVARIABLES
  5
7B
102
{ACAD_REACTORS
330
C
102
}
330
C
100
AcDbRasterVariables
 90
        0
 70
     0
 71
     1
 72
     1
  0
DICTIONARY
  5
62
102
{ACAD_REACTORS
330
C
102
}
330
C
100
AcDbDictionary
281
     1
  3
Layout1
350
70
  3
Layout2
350
78
  3
Model
350
74
  0
DICTIONARY
  5
10
102
{ACAD_REACTORS
330
C
102
}
330
C
100
AcDbDictionary
281
     1
  3
ByBlock
350
19
  3
ByLayer
350
11
  3
Global
350
21
  0
DICTIONARY
  5
66
102
{ACAD_REACTORS
330
C
102
}
330
C
100
AcDbDictionary
281
     1
  3
Standard
350
67
  0
DICTIONARY
  5
5F
102
{ACAD_REACTORS
330
C
102
}
330
C
100
AcDbDictionary
281
     1
  3
Standard
350
60
  0
DICTIONARY
  5
61
102
{ACAD_REACTORS
330
C
102
}
330
C
100
AcDbDictionary
281
     1
  0
ACDBDICTIONARYWDFLT
  5
E
102
{ACAD_REACTORS
330
C
102
}
330
C
100
AcDbDictionary
281
     1
  3
Normal
350
F
100
AcDbDictionaryWithDefault
340
F
  0
DICTIONARY
  5
42
102
{ACAD_REACTORS
330
C
102
}
330
C
100
AcDbDictionary
281
     1
  3
A0
350
43
  3
A1
350
44
  3
A2
350
45
  3
A3
350
46
  3
A4
350
47
  3
A5
350
48
  3
A6
350
49
  3
A7
350
4A
  3
A8
350
4B
  3
A9
350
4C
  3
B0
350
4D
  3
B1
350
4E
  3
B2
350
4F
  3
B3
350
50
  3
B4
350
51
  3
B5
350
52
  3
B6
350
53
  0
DICTIONARY
  5
68
102
{ACAD_REACTORS
330
C
102
}
330
C
100
AcDbDictionary
281
     1
  3
Imperial24
350
6A
  0
DICTIONARY
  5
64
102
{ACAD_REACTORS
330
C
102
}
330
C
100
AcDbDictionary
281
     1
  3
Standard
350
65
  0
DICTIONARY
  5
29
102
{ACAD_REACTORS
330
C
102
}
330
C
100
AcDbDictionary
281
     1
  3
2dWireframe
350
2F
  3
Basic
350
2E
  3
Brighten
350
35
  3
ColorChange
350
39
  3
Conceptual
350
32
  3
Dim
350
34
  3
EdgeColorOff
350
41
  3
Facepattern
350
38
  3
Flat
350
2A
  3
FlatWithEdges
350
2B
  3
Gouraud
350
2C
  3
GouraudWithEdges
350
2D
  3
Hidden
350
31
  3
JitterOff
350
3F
  3
Linepattern
350
37
  3
OverhangOff
350
40
  3
Realistic
350
33
  3
Shaded
350
3E
  3
Shaded with edges
350
3D
  3
Shades of Gray
350
3A
  3
Sketchy
350
3B
  3
Thicken
350
36
  3
Wireframe
350
30
  3
X-Ray
350
3C
  0
XRECORD
  5
301
102
{ACAD_REACTORS
330
C
102
}
330
C
100
AcDbXrecord
280
     1
 90
        1
330
65
  0
DICTIONARY
  5
7C
102
{ACAD_REACTORS
330
C
102
}
330
C
100
AcDbDictionary
281
     1
  3
CANNOSCALE
350
81
  3
CMLEADERSTYLE
350
7E
  3
CTABLESTYLE
350
7D
  3
CVIEWDETAILSTYLE
350
7F
  3
CVIEWSECTIONSTYLE
350
80
  0
DICTIONARY
  5
2F8
102
{ACAD_REACTORS
330
C
102
}
330
C
100
AcDbDictionary
281
     1
  3
DRAWING_TOOL
350
2FC
  3
REVIT_CATEGORY_MAPPING
350
2FA
  3
REVIT_SUB_CATEGORY_MAPPING
350
2FB
  3
REVIT_TYPE_MAPPING
350
2F9
  0
SORTENTSTABLE
  5
2FE
102
{ACAD_REACTORS
330
2FD
102
}
330
2FD
100
AcDbSortentsTable
330
71
  0
ACDBDETAILVIEWSTYLE
  5
6C
102
{ACAD_REACTORS
330
6B
102
}
330
6B
100
AcDbModelDocViewStyle
 70
     0
  3
Imperial24
290
     1
100
AcDbDetailViewStyle
 70
     0
 71
     0
 90
        3
 71
     1
340
55
 62
   256
 40
0.24
340
0
 62
   256
 40
0.24
300

 40
0.36
280
     3
 71
     2
340
5D
 90
       25
 62
   256
 71
     3
340
55
 62
   256
 40
0.24
 90
        1
 40
0.75
 90
        1
300
%<\AcVar ViewType \f "%tc1">% %<\AcVar ViewDetailId>%\PSCALA %<\AcVar ViewScale \f "%sn">%
 71
     4
340
5D
 90
       25
 62
   256
340
5D
 90
       25
 62
   256
280
     0
  0
LAYOUT
  5
70
102
{ACAD_REACTORS
330
62
102
}
330
62
100
AcDbPlotSettings
  1

  2

  4

  6

 40
0.0
 41
0.0
 42
0.0
 43
0.0
 44
0.0
 45
0.0
 46
0.0
 47
0.0
 48
0.0
 49
0.0
140
0.0
141
0.0
142
1.0
143
1.0
 70
   688
 72
     0
 73
     0
 74
     5
  7

 75
    16
147
1.0
 76
     0
 77
     2
 78
   300
148
0.0
149
0.0
100
AcDbLayout
  1
Layout1
 70
     1
 71
     1
 10
0.0
 20
0.0
 11
12.0
 21
9.0
 12
0.0
 22
0.0
 32
0.0
 14
0.0
 24
0.0
 34
0.0
 15
0.0
 25
0.0
 35
0.0
146
0.0
 13
0.0
 23
0.0
 33
0.0
 16
1.0
 26
0.0
 36
0.0
 17
0.0
 27
1.0
 37
0.0
 76
     0
330
6D
  0
LAYOUT
  5
78
102
{ACAD_REACTORS
330
62
102
}
330
62
100
AcDbPlotSettings
  1

  2

  4

  6

 40
0.0
 41
0.0
 42
0.0
 43
0.0
 44
0.0
 45
0.0
 46
0.0
 47
0.0
 48
0.0
 49
0.0
140
0.0
141
0.0
142
1.0
143
1.0
 70
   688
 72
     0
 73
     0
 74
     5
  7

 75
    16
147
1.0
 76
     0
 77
     2
 78
   300
148
0.0
149
0.0
100
AcDbLayout
  1
Layout2
 70
     1
 71
     2
 10
0.0
 20
0.0
 11
12.0
 21
9.0
 12
0.0
 22
0.0
 32
0.0
 14
0.0
 24
0.0
 34
0.0
 15
0.0
 25
0.0
 35
0.0
146
0.0
 13
0.0
 23
0.0
 33
0.0
 16
1.0
 26
0.0
 36
0.0
 17
0.0
 27
1.0
 37
0.0
 76
     0
330
75
  0
LAYOUT
  5
74
102
{ACAD_REACTORS
330
62
102
}
330
62
100
AcDbPlotSettings
  1

  2

  4

  6

 40
0.0
 41
0.0
 42
0.0
 43
0.0
 44
0.0
 45
0.0
 46
0.0
 47
0.0
 48
0.0
 49
0.0
140
0.0
141
0.0
142
1.0
143
1.0
 70
  1712
 72
     0
 73
     0
 74
     0
  7

 75
     0
147
1.0
 76
     0
 77
     2
 78
   300
148
0.0
149
0.0
100
AcDbLayout
  1
Model
 70
     1
 71
     0
 10
0.0
 20
0.0
 11
12.0
 21
9.0
 12
0.0
 22
0.0
 32
0.0
 14
0.0
 24
0.0
 34
0.0
 15
0.0
 25
0.0
 35
0.0
146
0.0
 13
0.0
 23
0.0
 33
0.0
 16
1.0
 26
0.0
 36
0.0
 17
0.0
 27
1.0
 37
0.0
 76
     0
330
71
  0
MATERIAL
  5
19
102
{ACAD_XDICTIONARY
360
1A
102
}
102
{ACAD_REACTORS
330
10
102
}
330
10
100
AcDbMaterial
  1
ByBlock
 72
     0
 43
0.0208333333333333
 43
0.0
 43
0.0
 43
0.0
 43
0.0
 43
0.0208333333333333
 43
0.0
 43
0.0
 43
0.0
 43
0.0
 43
1.0
 43
0.0
 43
0.0
 43
0.0
 43
0.0
 43
1.0
 77
     0
 47
0.0208333333333333
 47
0.0
 47
0.0
 47
0.0
 47
0.0
 47
0.0208333333333333
 47
0.0
 47
0.0
 47
0.0
 47
0.0
 47
1.0
 47
0.0
 47
0.0
 47
0.0
 47
0.0
 47
1.0
171
     0
 49
0.0208333333333333
 49
0.0
 49
0.0
 49
0.0
 49
0.0
 49
0.0208333333333333
 49
0.0
 49
0.0
 49
0.0
 49
0.0
 49
1.0
 49
0.0
 49
0.0
 49
0.0
 49
0.0
 49
1.0
175
     0
142
0.0208333333333333
142
0.0
142
0.0
142
0.0
142
0.0
142
0.0208333333333333
142
0.0
142
0.0
142
0.0
142
0.0
142
1.0
142
0.0
142
0.0
142
0.0
142
0.0
142
1.0
179
     0
144
0.0208333333333333
144
0.0
144
0.0
144
0.0
144
0.0
144
0.0208333333333333
144
0.0
144
0.0
144
0.0
144
0.0
144
1.0
144
0.0
144
0.0
144
0.0
144
0.0
144
1.0
147
0.0208333333333333
147
0.0
147
0.0
147
0.0
147
0.0
147
0.0208333333333333
147
0.0
147
0.0
147
0.0
147
0.0
147
1.0
147
0.0
147
0.0
147
0.0
147
0.0
147
1.0
  0
MATERIAL
  5
11
102
{ACAD_XDICTIONARY
360
12
102
}
102
{ACAD_REACTORS
330
10
102
}
330
10
100
AcDbMaterial
  1
ByLayer
 72
     0
 43
0.0208333333333333
 43
0.0
 43
0.0
 43
0.0
 43
0.0
 43
0.0208333333333333
 43
0.0
 43
0.0
 43
0.0
 43
0.0
 43
1.0
 43
0.0
 43
0.0
 43
0.0
 43
0.0
 43
1.0
 77
     0
 47
0.0208333333333333
 47
0.0
 47
0.0
 47
0.0
 47
0.0
 47
0.0208333333333333
 47
0.0
 47
0.0
 47
0.0
 47
0.0
 47
1.0
 47
0.0
 47
0.0
 47
0.0
 47
0.0
 47
1.0
171
     0
 49
0.0208333333333333
 49
0.0
 49
0.0
 49
0.0
 49
0.0
 49
0.0208333333333333
 49
0.0
 49
0.0
 49
0.0
 49
0.0
 49
1.0
 49
0.0
 49
0.0
 49
0.0
 49
0.0
 49
1.0
175
     0
142
0.0208333333333333
142
0.0
142
0.0
142
0.0
142
0.0
142
0.0208333333333333
142
0.0
142
0.0
142
0.0
142
0.0
142
1.0
142
0.0
142
0.0
142
0.0
142
0.0
142
1.0
179
     0
144
0.0208333333333333
144
0.0
144
0.0
144
0.0
144
0.0
144
0.0208333333333333
144
0.0
144
0.0
144
0.0
144
0.0
144
1.0
144
0.0
144
0.0
144
0.0
144
0.0
144
1.0
147
0.0208333333333333
147
0.0
147
0.0
147
0.0
147
0.0
147
0.0208333333333333
147
0.0
147
0.0
147
0.0
147
0.0
147
1.0
147
0.0
147
0.0
147
0.0
147
0.0
147
1.0
  0
MATERIAL
  5
21
102
{ACAD_XDICTIONARY
360
22
102
}
102
{ACAD_REACTORS
330
10
102
}
330
10
100
AcDbMaterial
  1
Global
 72
     0
 43
0.0208333333333333
 43
0.0
 43
0.0
 43
0.0
 43
0.0
 43
0.0208333333333333
 43
0.0
 43
0.0
 43
0.0
 43
0.0
 43
1.0
 43
0.0
 43
0.0
 43
0.0
 43
0.0
 43
1.0
 77
     0
 47
0.0208333333333333
 47
0.0
 47
0.0
 47
0.0
 47
0.0
 47
0.0208333333333333
 47
0.0
 47
0.0
 47
0.0
 47
0.0
 47
1.0
 47
0.0
 47
0.0
 47
0.0
 47
0.0
 47
1.0
171
     0
 49
0.0208333333333333
 49
0.0
 49
0.0
 49
0.0
 49
0.0
 49
0.0208333333333333
 49
0.0
 49
0.0
 49
0.0
 49
0.0
 49
1.0
 49
0.0
 49
0.0
 49
0.0
 49
0.0
 49
1.0
175
     0
142
0.0208333333333333
142
0.0
142
0.0
142
0.0
142
0.0
142
0.0208333333333333
142
0.0
142
0.0
142
0.0
142
0.0
142
1.0
142
0.0
142
0.0
142
0.0
142
0.0
142
1.0
179
     0
144
0.0208333333333333
144
0.0
144
0.0
144
0.0
144
0.0
144
0.0208333333333333
144
0.0
144
0.0
144
0.0
144
0.0
144
1.0
144
0.0
144
0.0
144
0.0
144
0.0
144
1.0
147
0.0208333333333333
147
0.0
147
0.0
147
0.0
147
0.0
147
0.0208333333333333
147
0.0
147
0.0
147
0.0
147
0.0
147
1.0
147
0.0
147
0.0
147
0.0
147
0.0
147
1.0
  0
MLEADERSTYLE
  5
67
102
{ACAD_REACTORS
330
66
102
}
330
66
100
AcDbMLeaderStyle
179
     2
170
     2
171
     1
172
     0
 90
        2
 40
0.0
 41
0.0
173
     1
 91
-1056964608
340
5B
 92
       -2
290
     1
 42
0.09
291
     1
 43
0.36
  3
Standard
 44
0.18
300

342
55
174
     1
178
     6
175
     1
176
     0
 93
-1056964608
 45
0.18
292
     0
297
     0
 46
0.18
 94
-1056964608
 47
1.0
 49
1.0
140
1.0
293
     1
141
0.0
294
     1
177
     0
142
1.0
295
     1
296
     0
143
0.125
271
     0
272
     9
273
     9
298
     1
  0
MLINESTYLE
  5
60
102
{ACAD_REACTORS
330
5F
102
}
330
5F
100
AcDbMlineStyle
  2
STANDARD
 70
     0
  3

 62
   256
 51
90.0
 52
90.0
 71
     2
 49
0.5
 62
   256
  6
BYLAYER
 49
-0.5
 62
   256
  6
BYLAYER
  0
ACDBPLACEHOLDER
  5
F
102
{ACAD_REACTORS
330
E
102
}
330
E
  0
SCALE
  5
43
102
{ACAD_REACTORS
330
42
102
}
330
42
100
AcDbScale
 70
     0
300
1:1
140
1.0
141
1.0
290
     1
  0
SCALE
  5
44
102
{ACAD_REACTORS
330
42
102
}
330
42
100
AcDbScale
 70
     0
300
1/128" = 1'-0"
140
0.0078125
141
12.0
290
     0
  0
SCALE
  5
45
102
{ACAD_REACTORS
330
42
102
}
330
42
100
AcDbScale
 70
     0
300
1/64" = 1'-0"
140
0.015625
141
12.0
290
     0
  0
SCALE
  5
46
102
{ACAD_REACTORS
330
42
102
}
330
42
100
AcDbScale
 70
     0
300
1/32" = 1'-0"
140
0.03125
141
12.0
290
     0
  0
SCALE
  5
47
102
{ACAD_REACTORS
330
42
102
}
330
42
100
AcDbScale
 70
     0
300
1/16" = 1'-0"
140
0.0625
141
12.0
290
     0
  0
SCALE
  5
48
102
{ACAD_REACTORS
330
42
102
}
330
42
100
AcDbScale
 70
     0
300
3/32" = 1'-0"
140
0.09375
141
12.0
290
     0
  0
SCALE
  5
49
102
{ACAD_REACTORS
330
42
102
}
330
42
100
AcDbScale
 70
     0
300
1/8" = 1'-0"
140
0.125
141
12.0
290
     0
  0
SCALE
  5
4A
102
{ACAD_REACTORS
330
42
102
}
330
42
100
AcDbScale
 70
     0
300
3/16" = 1'-0"
140
0.1875
141
12.0
290
     0
  0
SCALE
  5
4B
102
{ACAD_REACTORS
330
42
102
}
330
42
100
AcDbScale
 70
     0
300
1/4" = 1'-0"
140
0.25
141
12.0
290
     0
  0
SCALE
  5
4C
102
{ACAD_REACTORS
330
42
102
}
330
42
100
AcDbScale
 70
     0
300
3/8" = 1'-0"
140
0.375
141
12.0
290
     0
  0
SCALE
  5
4D
102
{ACAD_REACTORS
330
42
102
}
330
42
100
AcDbScale
 70
     0
300
1/2" = 1'-0"
140
0.5
141
12.0
290
     0
  0
SCALE
  5
4E
102
{ACAD_REACTORS
330
42
102
}
330
42
100
AcDbScale
 70
     0
300
3/4" = 1'-0"
140
0.75
141
12.0
290
     0
  0
SCALE
  5
4F
102
{ACAD_REACTORS
330
42
102
}
330
42
100
AcDbScale
 70
     0
300
1" = 1'-0"
140
1.0
141
12.0
290
     0
  0
SCALE
  5
50
102
{ACAD_REACTORS
330
42
102
}
330
42
100
AcDbScale
 70
     0
300
1-1/2" = 1'-0"
140
1.5
141
12.0
290
     0
  0
SCALE
  5
51
102
{ACAD_REACTORS
330
42
102
}
330
42
100
AcDbScale
 70
     0
300
3" = 1'-0"
140
3.0
141
12.0
290
     0
  0
SCALE
  5
52
102
{ACAD_REACTORS
330
42
102
}
330
42
100
AcDbScale
 70
     0
300
6" = 1'-0"
140
6.0
141
12.0
290
     0
  0
SCALE
  5
53
102
{ACAD_REACTORS
330
42
102
}
330
42
100
AcDbScale
 70
     0
300
1'-0" = 1'-0"
140
12.0
141
12.0
290
     0
  0
ACDBSECTIONVIEWSTYLE
  5
6A
102
{ACAD_REACTORS
330
68
102
}
330
68
100
AcDbModelDocViewStyle
 70
     0
  3
Imperial24
290
     1
100
AcDbSectionViewStyle
 70
     0
 71
     0
 90
       78
 71
     1
340
55
 62
   256
 40
0.24
340
0
340
0
 62
   256
 40
0.24
300
I, O, Q, S, X, Z
 40
0.48
 90
        3
 40
0.18
 90
        1
 71
     2
340
69
 90
       25
 62
   256
340
5D
 90
       50
 62
   256
 40
0.24
 40
0.0
 40
0.24
 71
     3
340
55
 62
   256
 40
0.24
 90
        1
 40
0.75
 90
        1
300
%<\AcVar ViewType \f "%tc1">% %<\AcVar ViewSectionStartId>%-%<\AcVar ViewSectionEndId>%\PSCALA %<\AcVar ViewScale \f "%sn">%
 71
     4
 62
   256
 62
   257
300
ANSI31
 40
1.0
 90
        0
290
     0
290
     0
 90
        6
 40
0.0
 40
1.570796326794896
 40
0.2617993877991494
 40
1.308996938995747
 40
-0.2617993877991494
 40
1.832595714594046
  0
TABLESTYLE
  5
65
102
{ACAD_XDICTIONARY
360
2FF
102
}
102
{ACAD_REACTORS
330
64
102
}
330
64
100
AcDbTableStyle
280
     0
  3
Standard
 70
     0
 71
     0
 40
0.06
 41
0.06
280
     0
281
     0
  7
Standard
140
0.18
170
     2
 62
     0
 63
     7
283
     0
 90
      512
 91
        0
  1

274
    -2
284
     1
 64
     0
275
    -2
285
     1
 65
     0
276
    -2
286
     1
 66
     0
277
    -2
287
     1
 67
     0
278
    -2
288
     1
 68
     0
279
    -2
289
     1
 69
     0
  7
Standard
140
0.25
170
     5
 62
     0
 63
     7
283
     0
 90
      512
 91
        0
  1

274
    -2
284
     1
 64
     0
275
    -2
285
     1
 65
     0
276
    -2
286
     1
 66
     0
277
    -2
287
     1
 67
     0
278
    -2
288
     1
 68
     0
279
    -2
289
     1
 69
     0
  7
Standard
140
0.18
170
     5
 62
     0
 63
     7
283
     0
 90
      512
 91
        0
  1

274
    -2
284
     1
 64
     0
275
    -2
285
     1
 65
     0
276
    -2
286
     1
 66
     0
277
    -2
287
     1
 67
     0
278
    -2
288
     1
 68
     0
279
    -2
289
     1
 69
     0
  0
VISUALSTYLE
  5
2F
102
{ACAD_REACTORS
330
29
102
}
330
29
100
AcDbVisualStyle
  2
2dWireframe
 70
     4
177
     3
291
     0
 70
    58
 90
        0
176
     1
 90
        2
176
     1
 90
        0
176
     1
 90
        0
176
     1
 40
0.6
176
     1
 40
30.0
176
     1
 62
     7
420
 16777215
176
     1
 90
        1
176
     1
 90
        4
176
     1
 62
     7
176
     1
 62
   257
176
     1
 90
        1
176
     1
 90
        1
176
     1
 40
1.0
176
     1
 90
        0
176
     1
 62
   257
176
     1
 40
1.0
176
     1
 90
        1
176
     1
 90
        6
176
     1
 90
        2
176
     1
 62
     7
176
     1
 90
        5
176
     1
 90
        0
176
     1
 90
        0
176
     1
290
     0
176
     1
 90
        1
176
     1
 40
0.0
176
     1
 90
        0
176
     1
290
     1
176
     1
290
     1
176
     1
290
     0
176
     1
290
     0
176
     1
290
     0
176
     1
290
     0
176
     1
290
     0
176
     1
290
     0
176
     1
290
     0
176
     1
 90
       50
176
     1
 40
0.0
176
     1
 40
1.0
176
     1
 90
        0
176
     1
 62
    18
420
        0
176
     1
 90
       50
176
     1
 90
        3
176
     1
 62
     5
420
      255
176
     1
290
     0
176
     1
 90
       50
176
     1
 90
       50
176
     1
 90
       50
176
     1
290
     0
176
     1
 90
       50
176
     1
 62
   256
176
     0
 40
1.0
176
     0
 90
        2
176
     1
  1
strokes_ogs.tif
176
     1
290
     0
176
     1
 40
1.0
176
     1
 40
1.0
176
     1
  0
VISUALSTYLE
  5
2E
102
{ACAD_REACTORS
330
29
102
}
330
29
100
AcDbVisualStyle
  2
Basic
 70
     7
177
     3
291
     1
 70
    58
 90
        1
176
     1
 90
        0
176
     1
 90
        1
176
     1
 90
        0
176
     1
 40
0.6
176
     1
 40
30.0
176
     1
 62
     7
420
 16777215
176
     1
 90
        0
176
     1
 90
        4
176
     1
 62
     7
176
     1
 62
   257
176
     1
 90
        1
176
     1
 90
        1
176
     1
 40
1.0
176
     1
 90
        8
176
     1
 62
     7
176
     1
 40
1.0
176
     1
 90
        1
176
     1
 90
        6
176
     1
 90
        2
176
     1
 62
     7
176
     1
 90
        5
176
     1
 90
        0
176
     1
 90
        0
176
     1
290
     0
176
     1
 90
        1
176
     1
 40
0.0
176
     1
 90
        0
176
     1
290
     0
176
     1
290
     1
176
     1
290
     1
176
     1
290
     0
176
     1
290
     0
176
     1
290
     0
176
     1
290
     0
176
     1
290
     0
176
     1
290
     0
176
     1
 90
       50
176
     1
 40
0.0
176
     1
 40
1.0
176
     1
 90
        0
176
     1
 62
    18
420
        0
176
     1
 90
       50
176
     1
 90
        3
176
     1
 62
     5
420
      255
176
     1
290
     0
176
     1
 90
       50
176
     1
 90
       50
176
     1
 90
       50
176
     1
290
     0
176
     1
 90
       50
176
     1
 62
   256
176
     0
 40
1.0
176
     0
 90
        2
176
     1
  1
strokes_ogs.tif
176
     1
290
     0
176
     1
 40
1.0
176
     1
 40
1.0
176
     1
  0
VISUALSTYLE
  5
35
102
{ACAD_REACTORS
330
29
102
}
330
29
100
AcDbVisualStyle
  2
Brighten
 70
    12
177
     3
291
     1
 70
    58
 90
        2
176
     1
 90
        2
176
     1
 90
        0
176
     1
 90
        0
176
     1
 40
0.6
176
     1
 40
30.0
176
     1
 62
     7
420
 16777215
176
     1
 90
        1
176
     1
 90
        4
176
     1
 62
     7
176
     1
 62
   257
176
     1
 90
        1
176
     1
 90
        1
176
     1
 40
1.0
176
     1
 90
        8
176
     1
 62
     7
176
     1
 40
1.0
176
     1
 90
        1
176
     1
 90
        6
176
     1
 90
        2
176
     1
 62
     7
176
     1
 90
        5
176
     1
 90
        0
176
     1
 90
        0
176
     1
290
     0
176
     1
 90
        1
176
     1
 40
50.0
176
     1
 90
        0
176
     1
290
     0
176
     1
290
     1
176
     1
290
     1
176
     1
290
     0
176
     1
290
     0
176
     1
290
     0
176
     1
290
     0
176
     1
290
     0
176
     1
290
     0
176
     1
 90
       50
176
     1
 40
0.0
176
     1
 40
1.0
176
     1
 90
        0
176
     1
 62
    18
420
        0
176
     1
 90
       50
176
     1
 90
        3
176
     1
 62
     5
420
      255
176
     1
290
     0
176
     1
 90
       50
176
     1
 90
       50
176
     1
 90
       50
176
     1
290
     0
176
     1
 90
       50
176
     1
 62
   256
176
     0
 40
1.0
176
     0
 90
        2
176
     1
  1
strokes_ogs.tif
176
     1
290
     0
176
     1
 40
1.0
176
     1
 40
1.0
176
     1
  0
VISUALSTYLE
  5
39
102
{ACAD_REACTORS
330
29
102
}
330
29
100
AcDbVisualStyle
  2
ColorChange
 70
    16
177
     3
291
     1
 70
    58
 90
        2
176
     1
 90
        2
176
     1
 90
        3
176
     1
 90
        0
176
     1
 40
0.6
176
     1
 40
30.0
176
     1
 62
     8
420
  8421504
176
     1
 90
        1
176
     1
 90
        4
176
     1
 62
     7
176
     1
 62
   257
176
     1
 90
        1
176
     1
 90
        1
176
     1
 40
1.0
176
     1
 90
        8
176
     1
 62
     8
420
  8421504
176
     1
 40
1.0
176
     1
 90
        1
176
     1
 90
        6
176
     1
 90
        2
176
     1
 62
     7
176
     1
 90
        5
176
     1
 90
        0
176
     1
 90
        0
176
     1
290
     0
176
     1
 90
        1
176
     1
 40
0.0
176
     1
 90
        0
176
     1
290
     0
176
     1
290
     1
176
     1
290
     1
176
     1
290
     0
176
     1
290
     0
176
     1
290
     0
176
     1
290
     0
176
     1
290
     0
176
     1
290
     0
176
     1
 90
       50
176
     1
 40
0.0
176
     1
 40
1.0
176
     1
 90
        0
176
     1
 62
    18
420
        0
176
     1
 90
       50
176
     1
 90
        3
176
     1
 62
     5
420
      255
176
     1
290
     0
176
     1
 90
       50
176
     1
 90
       50
176
     1
 90
       50
176
     1
290
     0
176
     1
 90
       50
176
     1
 62
   256
176
     0
 40
1.0
176
     0
 90
        2
176
     1
  1
strokes_ogs.tif
176
     1
290
     0
176
     1
 40
1.0
176
     1
 40
1.0
176
     1
  0
VISUALSTYLE
  5
32
102
{ACAD_REACTORS
330
29
102
}
330
29
100
AcDbVisualStyle
  2
Conceptual
 70
     9
177
     3
291
     0
 70
    58
 90
        3
176
     1
 90
        2
176
     1
 90
        0
176
     1
 90
        0
176
     1
 40
0.6
176
     1
 40
30.0
176
     1
 62
     7
420
 16777215
176
     1
 90
        2
176
     1
 90
        2
176
     1
 62
     7
176
     1
 62
   257
176
     1
 90
        1
176
     1
 90
        1
176
     1
 40
179.0
176
     1
 90
        8
176
     1
 62
     7
176
     1
 40
1.0
176
     1
 90
        1
176
     1
 90
        6
176
     1
 90
        2
176
     1
 62
     7
176
     1
 90
        3
176
     1
 90
        0
176
     1
 90
        0
176
     1
290
     0
176
     1
 90
        1
176
     1
 40
0.0
176
     1
 90
        0
176
     1
290
     0
176
     1
290
     1
176
     1
290
     1
176
     1
290
     0
176
     1
290
     0
176
     1
290
     0
176
     1
290
     0
176
     1
290
     0
176
     1
290
     0
176
     1
 90
       50
176
     1
 40
0.0
176
     1
 40
1.0
176
     1
 90
        0
176
     1
 62
    18
420
        0
176
     1
 90
       50
176
     1
 90
        3
176
     1
 62
     5
420
      255
176
     1
290
     0
176
     1
 90
       50
176
     1
 90
       50
176
     1
 90
       50
176
     1
290
     0
176
     1
 90
       50
176
     1
 62
   256
176
     0
 40
1.0
176
     0
 90
        2
176
     1
  1
strokes_ogs.tif
176
     1
290
     0
176
     1
 40
1.0
176
     1
 40
1.0
176
     1
  0
VISUALSTYLE
  5
34
102
{ACAD_REACTORS
330
29
102
}
330
29
100
AcDbVisualStyle
  2
Dim
 70
    11
177
     3
291
     1
 70
    58
 90
        2
176
     1
 90
        2
176
     1
 90
        0
176
     1
 90
        0
176
     1
 40
0.6
176
     1
 40
30.0
176
     1
 62
     7
420
 16777215
176
     1
 90
        1
176
     1
 90
        4
176
     1
 62
     7
176
     1
 62
   257
176
     1
 90
        1
176
     1
 90
        1
176
     1
 40
1.0
176
     1
 90
        8
176
     1
 62
     7
176
     1
 40
1.0
176
     1
 90
        1
176
     1
 90
        6
176
     1
 90
        2
176
     1
 62
     7
176
     1
 90
        5
176
     1
 90
        0
176
     1
 90
        0
176
     1
290
     0
176
     1
 90
        1
176
     1
 40
-50.0
176
     1
 90
        0
176
     1
290
     0
176
     1
290
     1
176
     1
290
     1
176
     1
290
     0
176
     1
290
     0
176
     1
290
     0
176
     1
290
     0
176
     1
290
     0
176
     1
290
     0
176
     1
 90
       50
176
     1
 40
0.0
176
     1
 40
1.0
176
     1
 90
        0
176
     1
 62
    18
420
        0
176
     1
 90
       50
176
     1
 90
        3
176
     1
 62
     5
420
      255
176
     1
290
     0
176
     1
 90
       50
176
     1
 90
       50
176
     1
 90
       50
176
     1
290
     0
176
     1
 90
       50
176
     1
 62
   256
176
     0
 40
1.0
176
     0
 90
        2
176
     1
  1
strokes_ogs.tif
176
     1
290
     0
176
     1
 40
1.0
176
     1
 40
1.0
176
     1
  0
VISUALSTYLE
  5
41
102
{ACAD_REACTORS
330
29
102
}
330
29
100
AcDbVisualStyle
  2
EdgeColorOff
 70
    22
177
     3
291
     1
 70
    58
 90
        2
176
     0
 90
        2
176
     0
 90
        0
176
     0
 90
        0
176
     0
 40
0.6
176
     0
 40
30.0
176
     0
 62
     7
420
 16777215
176
     0
 90
        1
176
     0
 90
        4
176
     0
 62
     7
176
     0
 62
   257
176
     0
 90
        1
176
     0
 90
        1
176
     0
 40
1.0
176
     0
 90
        8
176
     2
 62
     7
176
     0
 40
1.0
176
     0
 90
        1
176
     0
 90
        6
176
     0
 90
        2
176
     0
 62
     7
176
     0
 90
        5
176
     0
 90
        0
176
     0
 90
        0
176
     0
290
     0
176
     0
 90
        1
176
     0
 40
0.0
176
     0
 90
        0
176
     0
290
     0
176
     0
290
     1
176
     0
290
     1
176
     0
290
     0
176
     0
290
     0
176
     0
290
     0
176
     0
290
     0
176
     0
290
     0
176
     0
290
     0
176
     0
 90
       50
176
     0
 40
0.0
176
     0
 40
1.0
176
     0
 90
        0
176
     0
 62
    18
420
        0
176
     0
 90
       50
176
     0
 90
        3
176
     0
 62
     5
420
      255
176
     0
290
     0
176
     0
 90
       50
176
     0
 90
       50
176
     0
 90
       50
176
     0
290
     0
176
     0
 90
       50
176
     0
 62
   256
176
     0
 40
1.0
176
     0
 90
        2
176
     0
  1
strokes_ogs.tif
176
     0
290
     0
176
     0
 40
1.0
176
     0
 40
1.0
176
     0
  0
VISUALSTYLE
  5
38
102
{ACAD_REACTORS
330
29
102
}
330
29
100
AcDbVisualStyle
  2
Facepattern
 70
    15
177
     3
291
     1
 70
    58
 90
        2
176
     1
 90
        2
176
     1
 90
        0
176
     1
 90
        0
176
     1
 40
0.6
176
     1
 40
30.0
176
     1
 62
     7
420
 16777215
176
     1
 90
        1
176
     1
 90
        4
176
     1
 62
     7
176
     1
 62
   257
176
     1
 90
        1
176
     1
 90
        1
176
     1
 40
1.0
176
     1
 90
        8
176
     1
 62
     7
176
     1
 40
1.0
176
     1
 90
        1
176
     1
 90
        6
176
     1
 90
        2
176
     1
 62
     7
176
     1
 90
        5
176
     1
 90
        0
176
     1
 90
        0
176
     1
290
     0
176
     1
 90
        1
176
     1
 40
0.0
176
     1
 90
        0
176
     1
290
     0
176
     1
290
     1
176
     1
290
     1
176
     1
290
     0
176
     1
290
     0
176
     1
290
     0
176
     1
290
     0
176
     1
290
     0
176
     1
290
     0
176
     1
 90
       50
176
     1
 40
0.0
176
     1
 40
1.0
176
     1
 90
        0
176
     1
 62
    18
420
        0
176
     1
 90
       50
176
     1
 90
        3
176
     1
 62
     5
420
      255
176
     1
290
     0
176
     1
 90
       50
176
     1
 90
       50
176
     1
 90
       50
176
     1
290
     0
176
     1
 90
       50
176
     1
 62
   256
176
     0
 40
1.0
176
     0
 90
        2
176
     1
  1
strokes_ogs.tif
176
     1
290
     0
176
     1
 40
1.0
176
     1
 40
1.0
176
     1
  0
VISUALSTYLE
  5
2A
102
{ACAD_REACTORS
330
29
102
}
330
29
100
AcDbVisualStyle
  2
Flat
 70
     0
177
     3
291
     1
 70
    58
 90
        2
176
     1
 90
        1
176
     1
 90
        1
176
     1
 90
        2
176
     1
 40
0.6
176
     1
 40
30.0
176
     1
 62
     7
420
 16777215
176
     1
 90
        0
176
     1
 90
        0
176
     1
 62
     7
176
     1
 62
   257
176
     1
 90
        1
176
     1
 90
        1
176
     1
 40
1.0
176
     1
 90
        8
176
     1
 62
     7
176
     1
 40
1.0
176
     1
 90
        1
176
     1
 90
        6
176
     1
 90
        2
176
     1
 62
     7
176
     1
 90
        5
176
     1
 90
        0
176
     1
 90
        0
176
     1
290
     0
176
     1
 90
       13
176
     1
 40
0.0
176
     1
 90
        0
176
     1
290
     0
176
     1
290
     1
176
     1
290
     1
176
     1
290
     0
176
     1
290
     0
176
     1
290
     0
176
     1
290
     0
176
     1
290
     0
176
     1
290
     0
176
     1
 90
       50
176
     1
 40
0.0
176
     1
 40
1.0
176
     1
 90
        0
176
     1
 62
    18
420
        0
176
     1
 90
       50
176
     1
 90
        3
176
     1
 62
     5
420
      255
176
     1
290
     0
176
     1
 90
       50
176
     1
 90
       50
176
     1
 90
       50
176
     1
290
     0
176
     1
 90
       50
176
     1
 62
   256
176
     0
 40
1.0
176
     0
 90
        2
176
     1
  1
strokes_ogs.tif
176
     1
290
     0
176
     1
 40
1.0
176
     1
 40
1.0
176
     1
  0
VISUALSTYLE
  5
2B
102
{ACAD_REACTORS
330
29
102
}
330
29
100
AcDbVisualStyle
  2
FlatWithEdges
 70
     1
177
     3
291
     1
 70
    58
 90
        2
176
     1
 90
        1
176
     1
 90
        1
176
     1
 90
        2
176
     1
 40
0.6
176
     1
 40
30.0
176
     1
 62
     7
420
 16777215
176
     1
 90
        1
176
     1
 90
        0
176
     1
 62
     7
176
     1
 62
   257
176
     1
 90
        1
176
     1
 90
        1
176
     1
 40
1.0
176
     1
 90
        0
176
     1
 62
   257
176
     1
 40
1.0
176
     1
 90
        1
176
     1
 90
        6
176
     1
 90
        2
176
     1
 62
     7
176
     1
 90
        5
176
     1
 90
        0
176
     1
 90
        0
176
     1
290
     0
176
     1
 90
       13
176
     1
 40
0.0
176
     1
 90
        0
176
     1
290
     0
176
     1
290
     1
176
     1
290
     1
176
     1
290
     0
176
     1
290
     0
176
     1
290
     0
176
     1
290
     0
176
     1
290
     0
176
     1
290
     0
176
     1
 90
       50
176
     1
 40
0.0
176
     1
 40
1.0
176
     1
 90
        0
176
     1
 62
    18
420
        0
176
     1
 90
       50
176
     1
 90
        3
176
     1
 62
     5
420
      255
176
     1
290
     0
176
     1
 90
       50
176
     1
 90
       50
176
     1
 90
       50
176
     1
290
     0
176
     1
 90
       50
176
     1
 62
   256
176
     0
 40
1.0
176
     0
 90
        2
176
     1
  1
strokes_ogs.tif
176
     1
290
     0
176
     1
 40
1.0
176
     1
 40
1.0
176
     1
  0
VISUALSTYLE
  5
2C
102
{ACAD_REACTORS
330
29
102
}
330
29
100
AcDbVisualStyle
  2
Gouraud
 70
     2
177
     3
291
     1
 70
    58
 90
        2
176
     1
 90
        2
176
     1
 90
        1
176
     1
 90
        2
176
     1
 40
0.6
176
     1
 40
30.0
176
     1
 62
     7
420
 16777215
176
     1
 90
        0
176
     1
 90
        0
176
     1
 62
     7
176
     1
 62
   257
176
     1
 90
        1
176
     1
 90
        1
176
     1
 40
1.0
176
     1
 90
        0
176
     1
 62
     7
176
     1
 40
1.0
176
     1
 90
        1
176
     1
 90
        6
176
     1
 90
        2
176
     1
 62
     7
176
     1
 90
        5
176
     1
 90
        0
176
     1
 90
        0
176
     1
290
     0
176
     1
 90
       13
176
     1
 40
0.0
176
     1
 90
        0
176
     1
290
     0
176
     1
290
     1
176
     1
290
     1
176
     1
290
     0
176
     1
290
     0
176
     1
290
     0
176
     1
290
     0
176
     1
290
     0
176
     1
290
     0
176
     1
 90
       50
176
     1
 40
0.0
176
     1
 40
1.0
176
     1
 90
        0
176
     1
 62
    18
420
        0
176
     1
 90
       50
176
     1
 90
        3
176
     1
 62
     5
420
      255
176
     1
290
     0
176
     1
 90
       50
176
     1
 90
       50
176
     1
 90
       50
176
     1
290
     0
176
     1
 90
       50
176
     1
 62
   256
176
     0
 40
1.0
176
     0
 90
        2
176
     1
  1
strokes_ogs.tif
176
     1
290
     0
176
     1
 40
1.0
176
     1
 40
1.0
176
     1
  0
VISUALSTYLE
  5
2D
102
{ACAD_REACTORS
330
29
102
}
330
29
100
AcDbVisualStyle
  2
GouraudWithEdges
 70
     3
177
     3
291
     1
 70
    58
 90
        2
176
     1
 90
        2
176
     1
 90
        1
176
     1
 90
        2
176
     1
 40
0.6
176
     1
 40
30.0
176
     1
 62
     7
420
 16777215
176
     1
 90
        1
176
     1
 90
        0
176
     1
 62
     7
176
     1
 62
   257
176
     1
 90
        1
176
     1
 90
        1
176
     1
 40
1.0
176
     1
 90
        0
176
     1
 62
   257
176
     1
 40
1.0
176
     1
 90
        1
176
     1
 90
        6
176
     1
 90
        2
176
     1
 62
     7
176
     1
 90
        5
176
     1
 90
        0
176
     1
 90
        0
176
     1
290
     0
176
     1
 90
       13
176
     1
 40
0.0
176
     1
 90
        0
176
     1
290
     0
176
     1
290
     1
176
     1
290
     1
176
     1
290
     0
176
     1
290
     0
176
     1
290
     0
176
     1
290
     0
176
     1
290
     0
176
     1
290
     0
176
     1
 90
       50
176
     1
 40
0.0
176
     1
 40
1.0
176
     1
 90
        0
176
     1
 62
    18
420
        0
176
     1
 90
       50
176
     1
 90
        3
176
     1
 62
     5
420
      255
176
     1
290
     0
176
     1
 90
       50
176
     1
 90
       50
176
     1
 90
       50
176
     1
290
     0
176
     1
 90
       50
176
     1
 62
   256
176
     0
 40
1.0
176
     0
 90
        2
176
     1
  1
strokes_ogs.tif
176
     1
290
     0
176
     1
 40
1.0
176
     1
 40
1.0
176
     1
  0
VISUALSTYLE
  5
31
102
{ACAD_REACTORS
330
29
102
}
330
29
100
AcDbVisualStyle
  2
Hidden
 70
     6
177
     3
291
     0
 70
    58
 90
        1
176
     1
 90
        2
176
     1
 90
        2
176
     1
 90
        0
176
     1
 40
0.6
176
     1
 40
30.0
176
     1
 62
     7
420
 16777215
176
     1
 90
        2
176
     1
 90
        2
176
     1
 62
     7
176
     1
 62
   257
176
     1
 90
        2
176
     1
 90
        1
176
     1
 40
40.0
176
     1
 90
        0
176
     1
 62
   257
176
     1
 40
1.0
176
     1
 90
        1
176
     1
 90
        6
176
     1
 90
        2
176
     1
 62
     7
176
     1
 90
        3
176
     1
 90
        0
176
     1
 90
        0
176
     1
290
     0
176
     1
 90
        1
176
     1
 40
0.0
176
     1
 90
        0
176
     1
290
     0
176
     1
290
     1
176
     1
290
     1
176
     1
290
     0
176
     1
290
     0
176
     1
290
     0
176
     1
290
     0
176
     1
290
     0
176
     1
290
     0
176
     1
 90
       50
176
     1
 40
0.0
176
     1
 40
1.0
176
     1
 90
        0
176
     1
 62
    18
420
        0
176
     1
 90
       50
176
     1
 90
        3
176
     1
 62
     5
420
      255
176
     1
290
     0
176
     1
 90
       50
176
     1
 90
       50
176
     1
 90
       50
176
     1
290
     0
176
     1
 90
       50
176
     1
 62
   256
176
     0
 40
1.0
176
     0
 90
        2
176
     1
  1
strokes_ogs.tif
176
     1
290
     0
176
     1
 40
1.0
176
     1
 40
1.0
176
     1
  0
VISUALSTYLE
  5
3F
102
{ACAD_REACTORS
330
29
102
}
330
29
100
AcDbVisualStyle
  2
JitterOff
 70
    20
177
     3
291
     1
 70
    58
 90
        2
176
     0
 90
        2
176
     0
 90
        0
176
     0
 90
        0
176
     0
 40
0.6
176
     0
 40
30.0
176
     0
 62
     7
420
 16777215
176
     0
 90
        1
176
     0
 90
        4
176
     0
 62
     7
176
     0
 62
   257
176
     0
 90
        1
176
     0
 90
        1
176
     0
 40
1.0
176
     0
 90
       10
176
     2
 62
     7
176
     0
 40
1.0
176
     0
 90
        1
176
     0
 90
        6
176
     0
 90
        2
176
     0
 62
     7
176
     0
 90
        5
176
     0
 90
        0
176
     0
 90
        0
176
     0
290
     0
176
     0
 90
        1
176
     0
 40
0.0
176
     0
 90
        0
176
     0
290
     0
176
     0
290
     1
176
     0
290
     1
176
     0
290
     0
176
     0
290
     0
176
     0
290
     0
176
     0
290
     0
176
     0
290
     0
176
     0
290
     0
176
     0
 90
       50
176
     0
 40
0.0
176
     0
 40
1.0
176
     0
 90
        0
176
     0
 62
    18
420
        0
176
     0
 90
       50
176
     0
 90
        3
176
     0
 62
     5
420
      255
176
     0
290
     0
176
     0
 90
       50
176
     0
 90
       50
176
     0
 90
       50
176
     0
290
     0
176
     0
 90
       50
176
     0
 62
   256
176
     0
 40
1.0
176
     0
 90
        2
176
     0
  1
strokes_ogs.tif
176
     0
290
     0
176
     0
 40
1.0
176
     0
 40
1.0
176
     0
  0
VISUALSTYLE
  5
37
102
{ACAD_REACTORS
330
29
102
}
330
29
100
AcDbVisualStyle
  2
Linepattern
 70
    14
177
     3
291
     1
 70
    58
 90
        2
176
     1
 90
        2
176
     1
 90
        0
176
     1
 90
        0
176
     1
 40
0.6
176
     1
 40
30.0
176
     1
 62
     7
420
 16777215
176
     1
 90
        1
176
     1
 90
        4
176
     1
 62
     7
176
     1
 62
   257
176
     1
 90
        7
176
     1
 90
        7
176
     1
 40
1.0
176
     1
 90
        8
176
     1
 62
     7
176
     1
 40
1.0
176
     1
 90
        1
176
     1
 90
        6
176
     1
 90
        2
176
     1
 62
     7
176
     1
 90
        5
176
     1
 90
        0
176
     1
 90
        0
176
     1
290
     0
176
     1
 90
        1
176
     1
 40
0.0
176
     1
 90
        0
176
     1
290
     0
176
     1
290
     1
176
     1
290
     1
176
     1
290
     0
176
     1
290
     0
176
     1
290
     0
176
     1
290
     0
176
     1
290
     0
176
     1
290
     0
176
     1
 90
       50
176
     1
 40
0.0
176
     1
 40
1.0
176
     1
 90
        0
176
     1
 62
    18
420
        0
176
     1
 90
       50
176
     1
 90
        3
176
     1
 62
     5
420
      255
176
     1
290
     0
176
     1
 90
       50
176
     1
 90
       50
176
     1
 90
       50
176
     1
290
     0
176
     1
 90
       50
176
     1
 62
   256
176
     0
 40
1.0
176
     0
 90
        2
176
     1
  1
strokes_ogs.tif
176
     1
290
     0
176
     1
 40
1.0
176
     1
 40
1.0
176
     1
  0
VISUALSTYLE
  5
40
102
{ACAD_REACTORS
330
29
102
}
330
29
100
AcDbVisualStyle
  2
OverhangOff
 70
    21
177
     3
291
     1
 70
    58
 90
        2
176
     0
 90
        2
176
     0
 90
        0
176
     0
 90
        0
176
     0
 40
0.6
176
     0
 40
30.0
176
     0
 62
     7
420
 16777215
176
     0
 90
        1
176
     0
 90
        4
176
     0
 62
     7
176
     0
 62
   257
176
     0
 90
        1
176
     0
 90
        1
176
     0
 40
1.0
176
     0
 90
        9
176
     2
 62
     7
176
     0
 40
1.0
176
     0
 90
        1
176
     0
 90
        6
176
     0
 90
        2
176
     0
 62
     7
176
     0
 90
        5
176
     0
 90
        0
176
     0
 90
        0
176
     0
290
     0
176
     0
 90
        1
176
     0
 40
0.0
176
     0
 90
        0
176
     0
290
     0
176
     0
290
     1
176
     0
290
     1
176
     0
290
     0
176
     0
290
     0
176
     0
290
     0
176
     0
290
     0
176
     0
290
     0
176
     0
290
     0
176
     0
 90
       50
176
     0
 40
0.0
176
     0
 40
1.0
176
     0
 90
        0
176
     0
 62
    18
420
        0
176
     0
 90
       50
176
     0
 90
        3
176
     0
 62
     5
420
      255
176
     0
290
     0
176
     0
 90
       50
176
     0
 90
       50
176
     0
 90
       50
176
     0
290
     0
176
     0
 90
       50
176
     0
 62
   256
176
     0
 40
1.0
176
     0
 90
        2
176
     0
  1
strokes_ogs.tif
176
     0
290
     0
176
     0
 40
1.0
176
     0
 40
1.0
176
     0
  0
VISUALSTYLE
  5
33
102
{ACAD_REACTORS
330
29
102
}
330
29
100
AcDbVisualStyle
  2
Realistic
 70
     8
177
     3
291
     0
 70
    58
 90
        2
176
     1
 90
        3
176
     1
 90
        0
176
     1
 90
        2
176
     1
 40
0.6
176
     1
 40
30.0
176
     1
 62
     7
420
 16777215
176
     1
 90
        0
176
     1
 90
        0
176
     1
 62
     7
176
     1
 62
   257
176
     1
 90
        1
176
     1
 90
        1
176
     1
 40
1.0
176
     1
 90
        8
176
     1
 62
   257
176
     1
 40
1.0
176
     1
 90
        1
176
     1
 90
        6
176
     1
 90
        2
176
     1
 62
     7
176
     1
 90
        3
176
     1
 90
        0
176
     1
 90
        0
176
     1
290
     0
176
     1
 90
       13
176
     1
 40
0.0
176
     1
 90
        0
176
     1
290
     0
176
     1
290
     1
176
     1
290
     1
176
     1
290
     0
176
     1
290
     0
176
     1
290
     0
176
     1
290
     0
176
     1
290
     0
176
     1
290
     0
176
     1
 90
       50
176
     1
 40
0.0
176
     1
 40
1.0
176
     1
 90
        0
176
     1
 62
    18
420
        0
176
     1
 90
       50
176
     1
 90
        3
176
     1
 62
     5
420
      255
176
     1
290
     0
176
     1
 90
       50
176
     1
 90
       50
176
     1
 90
       50
176
     1
290
     0
176
     1
 90
       50
176
     1
 62
   256
176
     0
 40
1.0
176
     0
 90
        2
176
     1
  1
strokes_ogs.tif
176
     1
290
     0
176
     1
 40
1.0
176
     1
 40
1.0
176
     1
  0
VISUALSTYLE
  5
3E
102
{ACAD_REACTORS
330
29
102
}
330
29
100
AcDbVisualStyle
  2
Shaded
 70
    27
177
     3
291
     0
 70
    58
 90
        2
176
     1
 90
        2
176
     1
 90
        1
176
     1
 90
        2
176
     1
 40
0.6
176
     1
 40
30.0
176
     1
 62
     7
420
 16777215
176
     1
 90
        0
176
     1
 90
        4
176
     1
 62
     7
176
     1
 62
   257
176
     1
 90
        1
176
     1
 90
        1
176
     1
 40
1.0
176
     1
 90
        8
176
     1
 62
   257
176
     1
 40
1.0
176
     1
 90
        1
176
     1
 90
        6
176
     1
 90
        2
176
     1
 62
     8
420
  7895160
176
     1
 90
        3
176
     1
 90
        0
176
     1
 90
        0
176
     1
290
     0
176
     1
 90
        5
176
     1
 40
0.0
176
     1
 90
        0
176
     1
290
     0
176
     1
290
     1
176
     1
290
     1
176
     1
290
     0
176
     1
290
     0
176
     1
290
     0
176
     1
290
     0
176
     1
290
     0
176
     1
290
     0
176
     1
 90
       50
176
     1
 40
0.0
176
     1
 40
1.0
176
     1
 90
        0
176
     1
 62
    18
420
        0
176
     1
 90
       50
176
     1
 90
        3
176
     1
 62
     5
420
      255
176
     1
290
     0
176
     1
 90
       50
176
     1
 90
       50
176
     1
 90
       50
176
     1
290
     0
176
     1
 90
       50
176
     1
 62
   256
176
     0
 40
1.0
176
     0
 90
        2
176
     1
  1
strokes_ogs.tif
176
     1
290
     0
176
     1
 40
1.0
176
     1
 40
1.0
176
     1
  0
VISUALSTYLE
  5
3D
102
{ACAD_REACTORS
330
29
102
}
330
29
100
AcDbVisualStyle
  2
Shaded with edges
 70
    26
177
     3
291
     0
 70
    58
 90
        2
176
     1
 90
        2
176
     1
 90
        1
176
     1
 90
        2
176
     1
 40
0.6
176
     1
 40
30.0
176
     1
 62
     7
420
 16777215
176
     1
 90
        1
176
     1
 90
       10
176
     1
 62
     7
176
     1
 62
   257
176
     1
 90
        2
176
     1
 90
        1
176
     1
 40
1.0
176
     1
 90
        8
176
     1
 62
   257
176
     1
 40
1.0
176
     1
 90
        1
176
     1
 90
        6
176
     1
 90
        2
176
     1
 62
     7
176
     1
 90
        3
176
     1
 90
        0
176
     1
 90
        0
176
     1
290
     0
176
     1
 90
        5
176
     1
 40
0.0
176
     1
 90
        0
176
     1
290
     0
176
     1
290
     1
176
     1
290
     1
176
     1
290
     0
176
     1
290
     0
176
     1
290
     0
176
     1
290
     0
176
     1
290
     0
176
     1
290
     0
176
     1
 90
       50
176
     1
 40
0.0
176
     1
 40
1.0
176
     1
 90
        0
176
     1
 62
    18
420
        0
176
     1
 90
       50
176
     1
 90
        3
176
     1
 62
     5
420
      255
176
     1
290
     0
176
     1
 90
       50
176
     1
 90
       50
176
     1
 90
       50
176
     1
290
     0
176
     1
 90
       50
176
     1
 62
   256
176
     0
 40
1.0
176
     0
 90
        2
176
     1
  1
strokes_ogs.tif
176
     1
290
     0
176
     1
 40
1.0
176
     1
 40
1.0
176
     1
  0
VISUALSTYLE
  5
3A
102
{ACAD_REACTORS
330
29
102
}
330
29
100
AcDbVisualStyle
  2
Shades of Gray
 70
    23
177
     3
291
     0
 70
    58
 90
        2
176
     1
 90
        2
176
     1
 90
        3
176
     1
 90
        0
176
     1
 40
0.6
176
     1
 40
30.0
176
     1
 62
     7
420
 16777215
176
     1
 90
        2
176
     1
 90
        2
176
     1
 62
     7
176
     1
 62
     7
176
     1
 90
        1
176
     1
 90
        1
176
     1
 40
40.0
176
     1
 90
        8
176
     1
 62
     7
176
     1
 40
1.0
176
     1
 90
        1
176
     1
 90
        6
176
     1
 90
        2
176
     1
 62
     7
176
     1
 90
        3
176
     1
 90
        0
176
     1
 90
        0
176
     1
290
     0
176
     1
 90
        1
176
     1
 40
0.0
176
     1
 90
        0
176
     1
290
     0
176
     1
290
     1
176
     1
290
     1
176
     1
290
     0
176
     1
290
     0
176
     1
290
     0
176
     1
290
     0
176
     1
290
     0
176
     1
290
     0
176
     1
 90
       50
176
     1
 40
0.0
176
     1
 40
1.0
176
     1
 90
        0
176
     1
 62
    18
420
        0
176
     1
 90
       50
176
     1
 90
        3
176
     1
 62
     5
420
      255
176
     1
290
     0
176
     1
 90
       50
176
     1
 90
       50
176
     1
 90
       50
176
     1
290
     0
176
     1
 90
       50
176
     1
 62
   256
176
     0
 40
1.0
176
     0
 90
        2
176
     1
  1
strokes_ogs.tif
176
     1
290
     0
176
     1
 40
1.0
176
     1
 40
1.0
176
     1
  0
VISUALSTYLE
  5
3B
102
{ACAD_REACTORS
330
29
102
}
330
29
100
AcDbVisualStyle
  2
Sketchy
 70
    24
177
     3
291
     0
 70
    58
 90
        1
176
     1
 90
        2
176
     1
 90
        2
176
     1
 90
        0
176
     1
 40
0.6
176
     1
 40
30.0
176
     1
 62
     7
420
 16777215
176
     1
 90
        2
176
     1
 90
        2
176
     1
 62
     7
176
     1
 62
     7
176
     1
 90
        1
176
     1
 90
        1
176
     1
 40
40.0
176
     1
 90
       11
176
     1
 62
     7
176
     1
 40
1.0
176
     1
 90
        1
176
     1
 90
        6
176
     1
 90
        2
176
     1
 62
     7
176
     1
 90
        6
176
     1
 90
        0
176
     1
 90
        0
176
     1
290
     0
176
     1
 90
        1
176
     1
 40
0.0
176
     1
 90
        0
176
     1
290
     0
176
     1
290
     1
176
     1
290
     1
176
     1
290
     0
176
     1
290
     0
176
     1
290
     0
176
     1
290
     0
176
     1
290
     0
176
     1
290
     0
176
     1
 90
       50
176
     1
 40
0.0
176
     1
 40
1.0
176
     1
 90
        0
176
     1
 62
    18
420
        0
176
     1
 90
       50
176
     1
 90
        3
176
     1
 62
     5
420
      255
176
     1
290
     0
176
     1
 90
       50
176
     1
 90
       50
176
     1
 90
       50
176
     1
290
     0
176
     1
 90
       50
176
     1
 62
   256
176
     0
 40
1.0
176
     0
 90
        2
176
     1
  1
strokes_ogs.tif
176
     1
290
     0
176
     1
 40
1.0
176
     1
 40
1.0
176
     1
  0
VISUALSTYLE
  5
36
102
{ACAD_REACTORS
330
29
102
}
330
29
100
AcDbVisualStyle
  2
Thicken
 70
    13
177
     3
291
     1
 70
    58
 90
        2
176
     1
 90
        2
176
     1
 90
        0
176
     1
 90
        0
176
     1
 40
0.6
176
     1
 40
30.0
176
     1
 62
     7
420
 16777215
176
     1
 90
        1
176
     1
 90
        4
176
     1
 62
     7
176
     1
 62
   257
176
     1
 90
        1
176
     1
 90
        1
176
     1
 40
1.0
176
     1
 90
       12
176
     1
 62
     7
176
     1
 40
1.0
176
     1
 90
        1
176
     1
 90
        6
176
     1
 90
        2
176
     1
 62
     7
176
     1
 90
        5
176
     1
 90
        0
176
     1
 90
        0
176
     1
290
     0
176
     1
 90
        1
176
     1
 40
0.0
176
     1
 90
        0
176
     1
290
     0
176
     1
290
     1
176
     1
290
     1
176
     1
290
     0
176
     1
290
     0
176
     1
290
     0
176
     1
290
     0
176
     1
290
     0
176
     1
290
     0
176
     1
 90
       50
176
     1
 40
0.0
176
     1
 40
1.0
176
     1
 90
        0
176
     1
 62
    18
420
        0
176
     1
 90
       50
176
     1
 90
        3
176
     1
 62
     5
420
      255
176
     1
290
     0
176
     1
 90
       50
176
     1
 90
       50
176
     1
 90
       50
176
     1
290
     0
176
     1
 90
       50
176
     1
 62
   256
176
     0
 40
1.0
176
     0
 90
        2
176
     1
  1
strokes_ogs.tif
176
     1
290
     0
176
     1
 40
1.0
176
     1
 40
1.0
176
     1
  0
VISUALSTYLE
  5
30
102
{ACAD_REACTORS
330
29
102
}
330
29
100
AcDbVisualStyle
  2
Wireframe
 70
     5
177
     3
291
     0
 70
    58
 90
        0
176
     1
 90
        2
176
     1
 90
        0
176
     1
 90
        0
176
     1
 40
0.6
176
     1
 40
30.0
176
     1
 62
     7
420
 16777215
176
     1
 90
        1
176
     1
 90
        4
176
     1
 62
     7
176
     1
 62
   257
176
     1
 90
        1
176
     1
 90
        1
176
     1
 40
1.0
176
     1
 90
        0
176
     1
 62
   257
176
     1
 40
1.0
176
     1
 90
        1
176
     1
 90
        6
176
     1
 90
        2
176
     1
 62
     7
176
     1
 90
        3
176
     1
 90
        0
176
     1
 90
        0
176
     1
290
     0
176
     1
 90
        1
176
     1
 40
0.0
176
     1
 90
        0
176
     1
290
     0
176
     1
290
     1
176
     1
290
     1
176
     1
290
     0
176
     1
290
     0
176
     1
290
     0
176
     1
290
     0
176
     1
290
     0
176
     1
290
     0
176
     1
 90
       50
176
     1
 40
0.0
176
     1
 40
1.0
176
     1
 90
        0
176
     1
 62
    18
420
        0
176
     1
 90
       50
176
     1
 90
        3
176
     1
 62
     5
420
      255
176
     1
290
     0
176
     1
 90
       50
176
     1
 90
       50
176
     1
 90
       50
176
     1
290
     0
176
     1
 90
       50
176
     1
 62
   256
176
     0
 40
1.0
176
     0
 90
        2
176
     1
  1
strokes_ogs.tif
176
     1
290
     0
176
     1
 40
1.0
176
     1
 40
1.0
176
     1
  0
VISUALSTYLE
  5
3C
102
{ACAD_REACTORS
330
29
102
}
330
29
100
AcDbVisualStyle
  2
X-Ray
 70
    25
177
     3
291
     0
 70
    58
 90
        2
176
     1
 90
        2
176
     1
 90
        1
176
     1
 90
        1
176
     1
 40
0.5
176
     1
 40
30.0
176
     1
 62
     7
420
 16777215
176
     1
 90
        1
176
     1
 90
        0
176
     1
 62
     7
176
     1
 62
   257
176
     1
 90
        1
176
     1
 90
        1
176
     1
 40
1.0
176
     1
 90
        8
176
     1
 62
     7
176
     1
 40
1.0
176
     1
 90
        1
176
     1
 90
        6
176
     1
 90
        2
176
     1
 62
     7
176
     1
 90
        3
176
     1
 90
        0
176
     1
 90
        0
176
     1
290
     0
176
     1
 90
       13
176
     1
 40
0.0
176
     1
 90
        0
176
     1
290
     0
176
     1
290
     1
176
     1
290
     1
176
     1
290
     0
176
     1
290
     0
176
     1
290
     0
176
     1
290
     0
176
     1
290
     0
176
     1
290
     0
176
     1
 90
       50
176
     1
 40
0.0
176
     1
 40
1.0
176
     1
 90
        0
176
     1
 62
    18
420
        0
176
     1
 90
       50
176
     1
 90
        3
176
     1
 62
     5
420
      255
176
     1
290
     0
176
     1
 90
       50
176
     1
 90
       50
176
     1
 90
       50
176
     1
290
     0
176
     1
 90
       50
176
     1
 62
   256
176
     0
 40
1.0
176
     0
 90
        2
176
     1
  1
strokes_ogs.tif
176
     1
290
     0
176
     1
 40
1.0
176
     1
 40
1.0
176
     1
  0
DICTIONARYVAR
  5
81
102
{ACAD_REACTORS
330
7C
102
}
330
7C
100
DictionaryVariables
280
     0
  1
1:1
  0
DICTIONARYVAR
  5
7E
102
{ACAD_REACTORS
330
7C
102
}
330
7C
100
DictionaryVariables
280
     0
  1
STANDARD
  0
DICTIONARYVAR
  5
7D
102
{ACAD_REACTORS
330
7C
102
}
330
7C
100
DictionaryVariables
280
     0
  1
STANDARD
  0
DICTIONARYVAR
  5
7F
102
{ACAD_REACTORS
330
7C
102
}
330
7C
100
DictionaryVariables
280
     0
  1
Imperial24
  0
DICTIONARYVAR
  5
80
102
{ACAD_REACTORS
330
7C
102
}
330
7C
100
DictionaryVariables
280
     0
  1
Imperial24
  0
XRECORD
  5
2FC
102
{ACAD_REACTORS
330
2F8
102
}
330
2F8
100
AcDbXrecord
280
     1
  1
BUILDING_ID
  1
Progetto per messa in tavola DXF, DWG
  1
FLOOR_ID
  1
694395
  0
XRECORD
  5
2FA
102
{ACAD_REACTORS
330
2F8
102
}
330
2F8
100
AcDbXrecord
280
     1
  1
-2001160
  1
Apparecchi idraulici
  0
XRECORD
  5
2FB
102
{ACAD_REACTORS
330
2F8
102
}
330
2F8
100
AcDbXrecord
280
     1
  1
963222
  1
Insulation
  0
XRECORD
  5
2F9
102
{ACAD_REACTORS
330
2F8
102
}
330
2F8
100
AcDbXrecord
280
     1
  1
859151
  1
Automatic flow rate regulator valve_Caleffi_121 DN15 : 1/2''
  0
DICTIONARY
  5
1A
330
19
100
AcDbDictionary
280
     1
281
     1
  3
BUMPTILE
360
1C
  3
DIFFUSETILE
360
1B
  3
OPACITYTILE
360
1F
  3
REFLECTIONTILE
360
1E
  3
REFRACTIONTILE
360
20
  3
SPECULARTILE
360
1D
  0
DICTIONARY
  5
12
330
11
100
AcDbDictionary
280
     1
281
     1
  3
BUMPTILE
360
14
  3
DIFFUSETILE
360
13
  3
OPACITYTILE
360
17
  3
REFLECTIONTILE
360
16
  3
REFRACTIONTILE
360
18
  3
SPECULARTILE
360
15
  0
DICTIONARY
  5
22
330
21
100
AcDbDictionary
280
     1
281
     1
  3
BUMPTILE
360
24
  3
DIFFUSETILE
360
23
  3
OPACITYTILE
360
27
  3
REFLECTIONTILE
360
26
  3
REFRACTIONTILE
360
28
  3
SPECULARTILE
360
25
  0
DICTIONARY
  5
2FF
330
65
100
AcDbDictionary
280
     1
281
     1
  3
ACAD_ROUNDTRIP_2008_TABLESTYLE_CELLSTYLEMAP
360
300
  0
XRECORD
  5
1C
102
{ACAD_REACTORS
330
1A
102
}
330
1A
100
AcDbXrecord
280
     1
270
     1
271
     1
  0
XRECORD
  5
1B
102
{ACAD_REACTORS
330
1A
102
}
330
1A
100
AcDbXrecord
280
     1
270
     1
271
     1
  0
XRECORD
  5
1F
102
{ACAD_REACTORS
330
1A
102
}
330
1A
100
AcDbXrecord
280
     1
270
     1
271
     1
  0
XRECORD
  5
1E
102
{ACAD_REACTORS
330
1A
102
}
330
1A
100
AcDbXrecord
280
     1
270
     1
271
     1
  0
XRECORD
  5
20
102
{ACAD_REACTORS
330
1A
102
}
330
1A
100
AcDbXrecord
280
     1
270
     1
271
     1
  0
XRECORD
  5
1D
102
{ACAD_REACTORS
330
1A
102
}
330
1A
100
AcDbXrecord
280
     1
270
     1
271
     1
  0
XRECORD
  5
14
102
{ACAD_REACTORS
330
12
102
}
330
12
100
AcDbXrecord
280
     1
270
     1
271
     1
  0
XRECORD
  5
13
102
{ACAD_REACTORS
330
12
102
}
330
12
100
AcDbXrecord
280
     1
270
     1
271
     1
  0
XRECORD
  5
17
102
{ACAD_REACTORS
330
12
102
}
330
12
100
AcDbXrecord
280
     1
270
     1
271
     1
  0
XRECORD
  5
16
102
{ACAD_REACTORS
330
12
102
}
330
12
100
AcDbXrecord
280
     1
270
     1
271
     1
  0
XRECORD
  5
18
102
{ACAD_REACTORS
330
12
102
}
330
12
100
AcDbXrecord
280
     1
270
     1
271
     1
  0
XRECORD
  5
15
102
{ACAD_REACTORS
330
12
102
}
330
12
100
AcDbXrecord
280
     1
270
     1
271
     1
  0
XRECORD
  5
24
102
{ACAD_REACTORS
330
22
102
}
330
22
100
AcDbXrecord
280
     1
270
     1
271
     1
  0
XRECORD
  5
23
102
{ACAD_REACTORS
330
22
102
}
330
22
100
AcDbXrecord
280
     1
270
     1
271
     1
  0
XRECORD
  5
27
102
{ACAD_REACTORS
330
22
102
}
330
22
100
AcDbXrecord
280
     1
270
     1
271
     1
  0
XRECORD
  5
26
102
{ACAD_REACTORS
330
22
102
}
330
22
100
AcDbXrecord
280
     1
270
     1
271
     1
  0
XRECORD
  5
28
102
{ACAD_REACTORS
330
22
102
}
330
22
100
AcDbXrecord
280
     1
270
     1
271
     1
  0
XRECORD
  5
25
102
{ACAD_REACTORS
330
22
102
}
330
22
100
AcDbXrecord
280
     1
270
     1
271
     1
  0
CELLSTYLEMAP
  5
300
102
{ACAD_REACTORS
330
2FF
102
}
330
2FF
100
AcDbCellStyleMap
 90
        3
300
CELLSTYLE
  1
TABLEFORMAT_BEGIN
 90
        5
170
     1
 91
        0
 92
    32768
 62
   257
 93
        1
300
CONTENTFORMAT
  1
CONTENTFORMAT_BEGIN
 90
        0
 91
        0
 92
      512
 93
        0
300

 40
0.0
140
1.0
 94
        5
 62
     0
340
55
144
0.25
309
CONTENTFORMAT_END
171
     0
 94
        0
309
TABLEFORMAT_END
  1
CELLSTYLE_BEGIN
 90
        1
 91
        1
300
_TITLE
309
CELLSTYLE_END
300
CELLSTYLE
  1
TABLEFORMAT_BEGIN
 90
        5
170
     1
 91
        0
 92
        0
 62
   257
 93
        1
300
CONTENTFORMAT
  1
CONTENTFORMAT_BEGIN
 90
        0
 91
        0
 92
      512
 93
        0
300

 40
0.0
140
1.0
 94
        5
 62
     0
340
55
144
0.18
309
CONTENTFORMAT_END
171
     0
 94
        0
309
TABLEFORMAT_END
  1
CELLSTYLE_BEGIN
 90
        2
 91
        1
300
_HEADER
309
CELLSTYLE_END
300
CELLSTYLE
  1
TABLEFORMAT_BEGIN
 90
        5
170
     1
 91
        0
 92
        0
 62
   257
 93
        1
300
CONTENTFORMAT
  1
CONTENTFORMAT_BEGIN
 90
        0
 91
        0
 92
      512
 93
        0
300

 40
0.0
140
1.0
 94
        2
 62
     0
340
55
144
0.18
309
CONTENTFORMAT_END
171
     0
 94
        0
309
TABLEFORMAT_END
  1
CELLSTYLE_BEGIN
 90
        3
 91
        2
300
_DATA
309
CELLSTYLE_END
  0
ENDSEC
  0
EOF
