  0
SECTION
  2
HEADER
  9
$ACADVER
  1
AC1027
  9
$ACADMAINTVER
 70
    20
  9
$DWGCODEPAGE
  3
ANSI_1252
  9
$REQUIREDVERSIONS
160
                 0
  9
$INSBASE
 10
0.0
 20
0.0
 30
0.0
  9
$EXTMIN
 10
867.0468756319532
 20
1801.168759748019
 30
-0.00000001
  9
$EXTMAX
 10
1239.69147292513
 20
2064.000000000028
 30
0.00000001
  9
$LIMMIN
 10
0.0
 20
0.0
  9
$LIMMAX
 10
12.0
 20
9.0
  9
$ORTHOMODE
 70
     0
  9
$REGENMODE
 70
     1
  9
$FILLMODE
 70
     1
  9
$QTEXTMODE
 70
     0
  9
$MIRRTEXT
 70
     0
  9
$LTSCALE
 40
1.0
  9
$ATTMODE
 70
     1
  9
$TEXTSIZE
 40
0.2
  9
$TRACEWID
 40
0.05
  9
$TEXTSTYLE
  7
Standard
  9
$CLAYER
  8
0
  9
$CELTYPE
  6
ByLayer
  9
$CECOLOR
 62
   256
  9
$CELTSCALE
 40
1.0
  9
$DISPSILH
 70
     0
  9
$DIMSCALE
 40
1.0
  9
$DIMASZ
 40
0.18
  9
$DIMEXO
 40
0.0625
  9
$DIMDLI
 40
0.38
  9
$DIMRND
 40
0.0
  9
$DIMDLE
 40
0.0
  9
$DIMEXE
 40
0.18
  9
$DIMTP
 40
0.0
  9
$DIMTM
 40
0.0
  9
$DIMTXT
 40
0.18
  9
$DIMCEN
 40
0.09
  9
$DIMTSZ
 40
0.0
  9
$DIMTOL
 70
     0
  9
$DIMLIM
 70
     0
  9
$DIMTIH
 70
     1
  9
$DIMTOH
 70
     1
  9
$DIMSE1
 70
     0
  9
$DIMSE2
 70
     0
  9
$DIMTAD
 70
     0
  9
$DIMZIN
 70
     0
  9
$DIMBLK
  1

  9
$DIMASO
 70
     1
  9
$DIMSHO
 70
     1
  9
$DIMPOST
  1

  9
$DIMAPOST
  1

  9
$DIMALT
 70
     0
  9
$DIMALTD
 70
     2
  9
$DIMALTF
 40
25.4
  9
$DIMLFAC
 40
1.0
  9
$DIMTOFL
 70
     0
  9
$DIMTVP
 40
0.0
  9
$DIMTIX
 70
     0
  9
$DIMSOXD
 70
     0
  9
$DIMSAH
 70
     0
  9
$DIMBLK1
  1

  9
$DIMBLK2
  1

  9
$DIMSTYLE
  2
Standard
  9
$DIMCLRD
 70
     0
  9
$DIMCLRE
 70
     0
  9
$DIMCLRT
 70
     0
  9
$DIMTFAC
 40
1.0
  9
$DIMGAP
 40
0.09
  9
$DIMJUST
 70
     0
  9
$DIMSD1
 70
     0
  9
$DIMSD2
 70
     0
  9
$DIMTOLJ
 70
     1
  9
$DIMTZIN
 70
     0
  9
$DIMALTZ
 70
     0
  9
$DIMALTTZ
 70
     0
  9
$DIMUPT
 70
     0
  9
$DIMDEC
 70
     4
  9
$DIMTDEC
 70
     4
  9
$DIMALTU
 70
     2
  9
$DIMALTTD
 70
     2
  9
$DIMTXSTY
  7
Standard
  9
$DIMAUNIT
 70
     0
  9
$DIMADEC
 70
     0
  9
$DIMALTRND
 40
0.0
  9
$DIMAZIN
 70
     0
  9
$DIMDSEP
 70
    46
  9
$DIMATFIT
 70
     3
  9
$DIMFRAC
 70
     0
  9
$DIMLDRBLK
  1

  9
$DIMLUNIT
 70
     2
  9
$DIMLWD
 70
    -2
  9
$DIMLWE
 70
    -2
  9
$DIMTMOVE
 70
     0
  9
$DIMFXL
 40
1.0
  9
$DIMFXLON
 70
     0
  9
$DIMJOGANG
 40
0.7853981633974483
  9
$DIMTFILL
 70
     0
  9
$DIMTFILLCLR
 70
     0
  9
$DIMARCSYM
 70
     0
  9
$DIMLTYPE
  6

  9
$DIMLTEX1
  6

  9
$DIMLTEX2
  6

  9
$DIMTXTDIRECTION
 70
     0
  9
$LUNITS
 70
     2
  9
$LUPREC
 70
     4
  9
$SKETCHINC
 40
0.1
  9
$FILLETRAD
 40
0.0
  9
$AUNITS
 70
     0
  9
$AUPREC
 70
     0
  9
$MENU
  1
.
  9
$ELEVATION
 40
0.0
  9
$PELEVATION
 40
0.0
  9
$THICKNESS
 40
0.0
  9
$LIMCHECK
 70
     0
  9
$CHAMFERA
 40
0.0
  9
$CHAMFERB
 40
0.0
  9
$CHAMFERC
 40
0.0
  9
$CHAMFERD
 40
0.0
  9
$SKPOLY
 70
     0
  9
$TDCREATE
 40
2457550.710051180
  9
$TDUCREATE
 40
2457550.626717847
  9
$TDUPDATE
 40
2457550.710051180
  9
$TDUUPDATE
 40
2457550.626717847
  9
$TDINDWG
 40
0.0000158912
  9
$TDUSRTIMER
 40
0.0000158912
  9
$USRTIMER
 70
     1
  9
$ANGBASE
 50
0.0
  9
$ANGDIR
 70
     0
  9
$PDMODE
 70
     0
  9
$PDSIZE
 40
0.0
  9
$PLINEWID
 40
0.0
  9
$SPLFRAME
 70
     0
  9
$SPLINETYPE
 70
     6
  9
$SPLINESEGS
 70
     8
  9
$HANDSEED
  5
37E
  9
$SURFTAB1
 70
     6
  9
$SURFTAB2
 70
     6
  9
$SURFTYPE
 70
     6
  9
$SURFU
 70
     6
  9
$SURFV
 70
     6
  9
$UCSBASE
  2

  9
$UCSNAME
  2

  9
$UCSORG
 10
0.0
 20
0.0
 30
0.0
  9
$UCSXDIR
 10
1.0
 20
0.0
 30
0.0
  9
$UCSYDIR
 10
0.0
 20
1.0
 30
0.0
  9
$UCSORTHOREF
  2

  9
$UCSORTHOVIEW
 70
     0
  9
$UCSORGTOP
 10
0.0
 20
0.0
 30
0.0
  9
$UCSORGBOTTOM
 10
0.0
 20
0.0
 30
0.0
  9
$UCSORGLEFT
 10
0.0
 20
0.0
 30
0.0
  9
$UCSORGRIGHT
 10
0.0
 20
0.0
 30
0.0
  9
$UCSORGFRONT
 10
0.0
 20
0.0
 30
0.0
  9
$UCSORGBACK
 10
0.0
 20
0.0
 30
0.0
  9
$PUCSBASE
  2

  9
$PUCSNAME
  2

  9
$PUCSORG
 10
0.0
 20
0.0
 30
0.0
  9
$PUCSXDIR
 10
1.0
 20
0.0
 30
0.0
  9
$PUCSYDIR
 10
0.0
 20
1.0
 30
0.0
  9
$PUCSORTHOREF
  2

  9
$PUCSORTHOVIEW
 70
     0
  9
$PUCSORGTOP
 10
0.0
 20
0.0
 30
0.0
  9
$PUCSORGBOTTOM
 10
0.0
 20
0.0
 30
0.0
  9
$PUCSORGLEFT
 10
0.0
 20
0.0
 30
0.0
  9
$PUCSORGRIGHT
 10
0.0
 20
0.0
 30
0.0
  9
$PUCSORGFRONT
 10
0.0
 20
0.0
 30
0.0
  9
$PUCSORGBACK
 10
0.0
 20
0.0
 30
0.0
  9
$USERI1
 70
     0
  9
$USERI2
 70
     0
  9
$USERI3
 70
     0
  9
$USERI4
 70
     0
  9
$USERI5
 70
     0
  9
$USERR1
 40
0.0
  9
$USERR2
 40
0.0
  9
$USERR3
 40
0.0
  9
$USERR4
 40
0.0
  9
$USERR5
 40
0.0
  9
$WORLDVIEW
 70
     1
  9
$SHADEDGE
 70
     3
  9
$SHADEDIF
 70
    70
  9
$TILEMODE
 70
     1
  9
$MAXACTVP
 70
    64
  9
$PINSBASE
 10
0.0
 20
0.0
 30
0.0
  9
$PLIMCHECK
 70
     0
  9
$PEXTMIN
 10
1.000000000000000E+20
 20
1.000000000000000E+20
 30
1.000000000000000E+20
  9
$PEXTMAX
 10
-1.000000000000000E+20
 20
-1.000000000000000E+20
 30
-1.000000000000000E+20
  9
$PLIMMIN
 10
0.0
 20
0.0
  9
$PLIMMAX
 10
12.0
 20
9.0
  9
$UNITMODE
 70
     0
  9
$VISRETAIN
 70
     1
  9
$PLINEGEN
 70
     0
  9
$PSLTSCALE
 70
     1
  9
$TREEDEPTH
 70
  3020
  9
$CMLSTYLE
  2
Standard
  9
$CMLJUST
 70
     0
  9
$CMLSCALE
 40
1.0
  9
$PROXYGRAPHICS
 70
     1
  9
$MEASUREMENT
 70
     1
  9
$CELWEIGHT
370
    -1
  9
$ENDCAPS
280
     0
  9
$JOINSTYLE
280
     0
  9
$LWDISPLAY
290
     0
  9
$INSUNITS
 70
     4
  9
$HYPERLINKBASE
  1

  9
$STYLESHEET
  1

  9
$XEDIT
290
     1
  9
$CEPSNTYPE
380
     0
  9
$PSTYLEMODE
290
     1
  9
$FINGERPRINTGUID
  2
{5DA08D6B-661C-4871-BBE5-7D64901687BB}
  9
$VERSIONGUID
  2
{000C2965-985E-4924-9426-B1F89C3E2874}
  9
$EXTNAMES
290
     1
  9
$PSVPSCALE
 40
0.0
  9
$OLESTARTUP
290
     0
  9
$SORTENTS
280
   127
  9
$INDEXCTL
280
     0
  9
$HIDETEXT
280
     1
  9
$XCLIPFRAME
280
     2
  9
$HALOGAP
280
     0
  9
$OBSCOLOR
 70
   257
  9
$OBSLTYPE
280
     0
  9
$INTERSECTIONDISPLAY
280
     0
  9
$INTERSECTIONCOLOR
 70
   257
  9
$DIMASSOC
280
     2
  9
$PROJECTNAME
  1

  9
$CAMERADISPLAY
290
     0
  9
$LENSLENGTH
 40
50.0
  9
$CAMERAHEIGHT
 40
0.0
  9
$STEPSPERSEC
 40
2.0
  9
$STEPSIZE
 40
6.0
  9
$3DDWFPREC
 40
2.0
  9
$PSOLWIDTH
 40
0.25
  9
$PSOLHEIGHT
 40
4.0
  9
$LOFTANG1
 40
1.570796326794896
  9
$LOFTANG2
 40
1.570796326794896
  9
$LOFTMAG1
 40
0.0
  9
$LOFTMAG2
 40
0.0
  9
$LOFTPARAM
 70
     7
  9
$LOFTNORMALS
280
     1
  9
$LATITUDE
 40
37.795
  9
$LONGITUDE
 40
-122.394
  9
$NORTHDIRECTION
 40
0.0
  9
$TIMEZONE
 70
 -8000
  9
$LIGHTGLYPHDISPLAY
280
     1
  9
$TILEMODELIGHTSYNCH
280
     1
  9
$CMATERIAL
347
11
  9
$SOLIDHIST
280
     0
  9
$SHOWHIST
280
     1
  9
$DWFFRAME
280
     2
  9
$DGNFRAME
280
     0
  9
$REALWORLDSCALE
290
     1
  9
$INTERFERECOLOR
 62
     1
  9
$INTERFEREOBJVS
345
33
  9
$INTERFEREVPVS
346
30
  9
$CSHADOW
280
     0
  9
$SHADOWPLANELOCATION
 40
0.0
  0
ENDSEC
  0
SECTION
  2
CLASSES
  0
CLASS
  1
ACDBDICTIONARYWDFLT
  2
AcDbDictionaryWithDefault
  3
ObjectDBX Classes
 90
        0
 91
        1
280
     0
281
     0
  0
CLASS
  1
MATERIAL
  2
AcDbMaterial
  3
ObjectDBX Classes
 90
     1153
 91
        3
280
     0
281
     0
  0
CLASS
  1
VISUALSTYLE
  2
AcDbVisualStyle
  3
ObjectDBX Classes
 90
     4095
 91
       24
280
     0
281
     0
  0
CLASS
  1
SCALE
  2
AcDbScale
  3
ObjectDBX Classes
 90
     1153
 91
       17
280
     0
281
     0
  0
CLASS
  1
TABLESTYLE
  2
AcDbTableStyle
  3
ObjectDBX Classes
 90
     4095
 91
        1
280
     0
281
     0
  0
CLASS
  1
MLEADERSTYLE
  2
AcDbMLeaderStyle
  3
ACDB_MLEADERSTYLE_CLASS
 90
     4095
 91
        1
280
     0
281
     0
  0
CLASS
  1
ACDBSECTIONVIEWSTYLE
  2
AcDbSectionViewStyle
  3
ObjectDBX Classes
 90
     1025
 91
        1
280
     0
281
     0
  0
CLASS
  1
ACDBDETAILVIEWSTYLE
  2
AcDbDetailViewStyle
  3
ObjectDBX Classes
 90
     1025
 91
        1
280
     0
281
     0
  0
CLASS
  1
RASTERVARIABLES
  2
AcDbRasterVariables
  3
ISM
 90
        0
 91
        1
280
     0
281
     0
  0
CLASS
  1
DICTIONARYVAR
  2
AcDbDictionaryVar
  3
ObjectDBX Classes
 90
        0
 91
        5
280
     0
281
     0
  0
CLASS
  1
CELLSTYLEMAP
  2
AcDbCellStyleMap
  3
ObjectDBX Classes
 90
     1152
 91
        2
280
     0
281
     0
  0
CLASS
  1
SORTENTSTABLE
  2
AcDbSortentsTable
  3
ObjectDBX Classes
 90
        0
 91
        1
280
     0
281
     0
  0
ENDSEC
  0
SECTION
  2
TABLES
  0
TABLE
  2
VPORT
  5
8
330
0
100
AcDbSymbolTable
 70
     1
  0
VPORT
  5
57
330
8
100
AcDbSymbolTableRecord
100
AcDbViewportTableRecord
  2
*Active
 70
     0
 10
0.0
 20
0.0
 11
1.0
 21
1.0
 12
1053.369174278542
 22
1932.584379874024
 13
0.0
 23
0.0
 14
1.0
 24
1.0
 15
0.0
 25
0.0
 16
0.0
 26
0.0
 36
1.0
 17
0.0
 27
0.0
 37
0.0
 40
262.8312402520091
 41
1.417809378123683
 42
50.0
 43
0.0
 44
0.0
 50
0.0
 51
0.0
 71
     0
 72
  1000
 73
     1
 74
     1
 75
     0
 76
     0
 77
     0
 78
     0
281
     0
 65
     1
110
0.0
120
0.0
130
0.0
111
1.0
121
0.0
131
0.0
112
0.0
122
1.0
132
0.0
 79
     0
146
0.0
 60
     3
 61
     5
292
     1
282
     1
141
0.0
142
0.0
 63
   250
421
  3355443
  0
ENDTAB
  0
TABLE
  2
LTYPE
  5
5
330
0
100
AcDbSymbolTable
 70
     3
  0
LTYPE
  5
5B
330
5
100
AcDbSymbolTableRecord
100
AcDbLinetypeTableRecord
  2
ByBlock
 70
     0
  3

 72
    65
 73
     0
 40
0.0
  0
LTYPE
  5
5C
330
5
100
AcDbSymbolTableRecord
100
AcDbLinetypeTableRecord
  2
ByLayer
 70
     0
  3

 72
    65
 73
     0
 40
0.0
  0
LTYPE
  5
5D
330
5
100
AcDbSymbolTableRecord
100
AcDbLinetypeTableRecord
  2
Continuous
 70
     0
  3
Solid line
 72
    65
 73
     0
 40
0.0
  0
LTYPE
  5
69
330
5
100
AcDbSymbolTableRecord
100
AcDbLinetypeTableRecord
  2
PHANTOM2
 70
     0
  3
___ _ _ ___ _ _ ___ _ _ ___ _ _
 72
    65
 73
     6
 40
1.25
 49
0.625
 74
     0
 49
-0.125
 74
     0
 49
0.125
 74
     0
 49
-0.125
 74
     0
 49
0.125
 74
     0
 49
-0.125
 74
     0
  0
LTYPE
  5
86
330
5
100
AcDbSymbolTableRecord
100
AcDbLinetypeTableRecord
  2
Nascosto 1_5 mm
 70
     0
  3

 72
    65
 73
     2
 40
2.2
 49
1.5
 74
     0
 49
-0.7000000000000001
 74
     0
  0
ENDTAB
  0
TABLE
  2
LAYER
  5
2
330
0
100
AcDbSymbolTable
 70
     4
  0
LAYER
  5
54
330
2
100
AcDbSymbolTableRecord
100
AcDbLayerTableRecord
  2
0
 70
     0
 62
     7
  6
Continuous
370
    -3
390
F
347
21
348
0
  0
LAYER
  5
85
330
2
100
AcDbSymbolTableRecord
100
AcDbLayerTableRecord
  2
P-SANR-FIXT
 70
     0
 62
     6
  6
Continuous
370
    18
390
F
347
21
348
0
  0
LAYER
  5
88
330
2
100
AcDbSymbolTableRecord
100
AcDbLayerTableRecord
  2
M-PIPE
 70
     0
 62
     3
  6
Continuous
370
    18
390
F
347
21
348
0
  0
ENDTAB
  0
TABLE
  2
STYLE
  5
3
330
0
100
AcDbSymbolTable
 70
     2
  0
STYLE
  5
55
330
3
100
AcDbSymbolTableRecord
100
AcDbTextStyleTableRecord
  2
Standard
 70
     0
 40
0.0
 41
1.0
 50
0.0
 71
     0
 42
0.2
  3
txt
  4

  0
STYLE
  5
5A
330
3
100
AcDbSymbolTableRecord
100
AcDbTextStyleTableRecord
  2
Annotative
 70
     0
 40
0.0
 41
1.0
 50
0.0
 71
     0
 42
0.2
  3
txt
  4

1001
AcadAnnotative
1000
AnnotativeData
1002
{
1070
     1
1070
     1
1002
}
  0
ENDTAB
  0
TABLE
  2
VIEW
  5
6
330
0
100
AcDbSymbolTable
 70
     0
  0
ENDTAB
  0
TABLE
  2
UCS
  5
7
330
0
100
AcDbSymbolTable
 70
     0
  0
ENDTAB
  0
TABLE
  2
APPID
  5
9
330
0
100
AcDbSymbolTable
 70
     3
  0
APPID
  5
56
330
9
100
AcDbSymbolTableRecord
100
AcDbRegAppTableRecord
  2
ACAD
 70
     0
  0
APPID
  5
5E
330
9
100
AcDbSymbolTableRecord
100
AcDbRegAppTableRecord
  2
AcadAnnotative
 70
     0
  0
APPID
  5
79
330
9
100
AcDbSymbolTableRecord
100
AcDbRegAppTableRecord
  2
REVIT
 70
     0
  0
ENDTAB
  0
TABLE
  2
DIMSTYLE
  5
A
330
0
100
AcDbSymbolTable
 70
     2
100
AcDbDimStyleTable
 71
     0
  0
DIMSTYLE
105
58
330
A
100
AcDbSymbolTableRecord
100
AcDbDimStyleTableRecord
  2
Standard
 70
     0
340
55
  0
DIMSTYLE
105
59
330
A
100
AcDbSymbolTableRecord
100
AcDbDimStyleTableRecord
  2
Annotative
 70
     0
340
55
1001
AcadAnnotative
1000
AnnotativeData
1002
{
1070
     1
1070
     1
1002
}
  0
ENDTAB
  0
TABLE
  2
BLOCK_RECORD
  5
1
330
0
100
AcDbSymbolTable
 70
     4
  0
BLOCK_RECORD
  5
71
102
{ACAD_XDICTIONARY
360
379
102
}
330
1
100
AcDbSymbolTableRecord
100
AcDbBlockTableRecord
  2
*Model_Space
340
74
 70
     0
280
     1
281
     0
  0
BLOCK_RECORD
  5
6D
330
1
100
AcDbSymbolTableRecord
100
AcDbBlockTableRecord
  2
*Paper_Space
340
70
 70
     0
280
     1
281
     0
  0
BLOCK_RECORD
  5
75
330
1
100
AcDbSymbolTableRecord
100
AcDbBlockTableRecord
  2
*Paper_Space0
340
78
 70
     0
280
     1
281
     0
  0
BLOCK_RECORD
  5
87
330
1
100
AcDbSymbolTableRecord
100
AcDbBlockTableRecord
  2
Automatic flow rate regulator valve_Caleffi_121 DN15 - 1_2__-859151-Est - Idraulica
340
0
102
{BLKREFS
331
1DC
102
}
 70
     0
280
     1
281
     0
  0
BLOCK_RECORD
  5
1DD
330
1
100
AcDbSymbolTableRecord
100
AcDbBlockTableRecord
  2
Automatic flow rate regulator valve_Caleffi_121 DN15 - 1_2__-V1-Est - Idraulica
340
0
102
{BLKREFS
331
2E2
102
}
 70
     0
280
     1
281
     0
  0
BLOCK_RECORD
  5
2E3
330
1
100
AcDbSymbolTableRecord
100
AcDbBlockTableRecord
  2
Automatic flow rate regulator valve_Caleffi_121 DN15 - 1_2__-V2-Est - Idraulica
340
0
102
{BLKREFS
331
372
102
}
 70
     0
280
     1
281
     0
  0
ENDTAB
  0
ENDSEC
  0
SECTION
  2
BLOCKS
  0
BLOCK
  5
72
330
71
100
AcDbEntity
  8
0
100
AcDbBlockBegin
  2
*Model_Space
 70
     0
 10
0.0
 20
0.0
 30
0.0
  3
*Model_Space
  1

  0
ENDBLK
  5
73
330
71
100
AcDbEntity
  8
0
100
AcDbBlockEnd
  0
BLOCK
  5
6E
330
6D
100
AcDbEntity
 67
     1
  8
0
100
AcDbBlockBegin
  2
*Paper_Space
 70
     0
 10
0.0
 20
0.0
 30
0.0
  3
*Paper_Space
  1

  0
ENDBLK
  5
6F
330
6D
100
AcDbEntity
 67
     1
  8
0
100
AcDbBlockEnd
  0
BLOCK
  5
76
330
75
100
AcDbEntity
 67
     1
  8
0
100
AcDbBlockBegin
  2
*Paper_Space0
 70
     0
 10
0.0
 20
0.0
 30
0.0
  3
*Paper_Space0
  1

  0
ENDBLK
  5
77
330
75
100
AcDbEntity
 67
     1
  8
0
100
AcDbBlockEnd
  0
BLOCK
  5
1DA
330
87
100
AcDbEntity
  8
0
100
AcDbBlockBegin
  2
Automatic flow rate regulator valve_Caleffi_121 DN15 - 1_2__-859151-Est - Idraulica
 70
     0
 10
0.0
 20
0.0
 30
0.0
  3
Automatic flow rate regulator valve_Caleffi_121 DN15 - 1_2__-859151-Est - Idraulica
  1

  0
LWPOLYLINE
  5
89
330
87
100
AcDbEntity
  8
M-PIPE
100
AcDbPolyline
 90
       41
 70
   128
 43
0.0
 10
1002.046875641954
 20
1957.999999999995
 10
1002.042876175259
 20
1957.800053329062
 10
1002.030884173467
 20
1957.600426530149
 10
1002.010918821224
 20
1957.401438963551
 10
1001.983012058832
 20
1957.203408966924
 10
1001.94720853116
 20
1957.00665334602
 10
1001.903565516214
 20
1956.81148686786
 10
1001.852152833508
 20
1956.618221757175
 10
1001.793052732367
 20
1956.427167196915
 10
1001.726359760344
 20
1956.23862883362
 10
1001.652180611968
 20
1956.052908288452
 10
1001.570633958054
 20
1955.870302674665
 10
1001.481850255851
 20
1955.691104122288
 10
1001.385971540343
 20
1955.515599310777
 10
1001.283151197021
 20
1955.344069010391
 10
1001.173553716503
 20
1955.176787633021
 10
1001.057354431376
 20
1955.014022793184
 10
1000.934739235709
 20
1954.856034879903
 10
1000.805904287659
 20
1954.703076640138
 10
1000.671055695659
 20
1954.555392774443
 10
1000.53040918869
 20
1954.413219545498
 10
1000.384189771161
 20
1954.276784400141
 10
1000.232631362947
 20
1954.146305605501
 10
1000.075976425172
 20
1954.021991899814
 10
999.9144755723166
 20
1953.904042158491
 10
999.7483871712951
 20
1953.792645075956
 10
999.5779769281183
 20
1953.687978863779
 10
999.403517462823
 20
1953.590210965571
 10
999.2252878733379
 20
1953.499497789113
 10
999.0435732889858
 20
1953.415984456137
 10
998.8586644143376
 20
1953.33980457016
 10
998.6708570641482
 20
1953.271080002748
 10
998.4804516901141
 20
1953.209920698549
 10
998.2877529002163
 20
1953.156424499404
 10
998.0930689714115
 20
1953.110676987819
 10
997.8967113564555
 20
1953.072751350053
 10
997.6989941856452
 20
1953.042708259037
 10
997.5002337642759
 20
1953.020595777308
 10
997.3007480666224
 20
1953.006449280118
 10
997.1008562272457
 20
1953.000291398846
 10
997.0468756419544
 20
1952.999999999996
1001
REVIT
1002
{
1070
     3
1000
963222
1002
}
  0
LWPOLYLINE
  5
8A
330
87
100
AcDbEntity
  8
M-PIPE
100
AcDbPolyline
 90
       41
 70
   128
 43
0.0
 10
997.0468756419544
 20
2046.999999999996
 10
997.2468223128874
 20
2046.9960005333
 10
997.4464491118002
 20
2046.984008531509
 10
997.645436678399
 20
2046.964043179265
 10
997.8434666750255
 20
2046.936136416874
 10
998.0402222959297
 20
2046.900332889202
 10
998.2353887740901
 20
2046.856689874256
 10
998.4286538847751
 20
2046.80527719155
 10
998.6197084450351
 20
2046.746177090408
 10
998.8082468083298
 20
2046.679484118385
 10
998.9939673534976
 20
2046.605304970011
 10
999.1765729672843
 20
2046.523758316096
 10
999.3557715196619
 20
2046.434974613892
 10
999.531276331173
 20
2046.339095898384
 10
999.7028066315587
 20
2046.236275555063
 10
999.8700880089295
 20
2046.126678074544
 10
1000.032852848766
 20
2046.010478789417
 10
1000.190840762047
 20
2045.887863593751
 10
1000.343799001812
 20
2045.7590286457
 10
1000.491482867507
 20
2045.6241800537
 10
1000.633656096452
 20
2045.483533546732
 10
1000.770091241808
 20
2045.337314129202
 10
1000.900570036449
 20
2045.185755720989
 10
1001.024883742136
 20
2045.029100783213
 10
1001.142833483459
 20
2044.867599930358
 10
1001.254230565994
 20
2044.701511529336
 10
1001.358896778171
 20
2044.53110128616
 10
1001.456664676379
 20
2044.356641820865
 10
1001.547377852837
 20
2044.17841223138
 10
1001.630891185813
 20
2043.996697647027
 10
1001.70707107179
 20
2043.811788772379
 10
1001.775795639202
 20
2043.623981422189
 10
1001.8369549434
 20
2043.433576048156
 10
1001.890451142545
 20
2043.240877258258
 10
1001.936198654131
 20
2043.046193329453
 10
1001.974124291896
 20
2042.849835714497
 10
1002.004167382913
 20
2042.652118543687
 10
1002.026279864642
 20
2042.453358122317
 10
1002.040426361832
 20
2042.253872424664
 10
1002.046584243104
 20
2042.053980585287
 10
1002.046875641954
 20
2041.999999999996
1001
REVIT
1002
{
1070
     3
1000
963222
1002
}
  0
LWPOLYLINE
  5
8B
330
87
100
AcDbEntity
  8
M-PIPE
100
AcDbPolyline
 90
       41
 70
   128
 43
0.0
 10
872.0468756419549
 20
1952.999999999996
 10
871.8469289710215
 20
1953.003999466691
 10
871.6473021721089
 20
1953.015991468483
 10
871.4483146055103
 20
1953.035956820726
 10
871.2502846088836
 20
1953.063863583118
 10
871.0535289879796
 20
1953.099667110789
 10
870.8583625098194
 20
1953.143310125735
 10
870.6650973991342
 20
1953.194722808442
 10
870.4740428388742
 20
1953.253822909583
 10
870.2855044755793
 20
1953.320515881606
 10
870.0997839304116
 20
1953.394695029981
 10
869.9171783166249
 20
1953.476241683896
 10
869.7379797642474
 20
1953.565025386099
 10
869.5624749527361
 20
1953.660904101607
 10
869.3909446523504
 20
1953.763724444928
 10
869.2236632749796
 20
1953.873321925447
 10
869.0608984351429
 20
1953.989521210574
 10
868.9029105218624
 20
1954.112136406241
 10
868.7499522820974
 20
1954.240971354291
 10
868.602268416402
 20
1954.375819946291
 10
868.4600951874573
 20
1954.51646645326
 10
868.3236600421006
 20
1954.662685870789
 10
868.1931812474598
 20
1954.814244279003
 10
868.068867541773
 20
1954.970899216778
 10
867.9509178004497
 20
1955.132400069634
 10
867.8395207179153
 20
1955.298488470655
 10
867.7348545057382
 20
1955.468898713832
 10
867.63708660753
 20
1955.643358179127
 10
867.5463734310723
 20
1955.821587768612
 10
867.4628600980961
 20
1956.003302352964
 10
867.3866802121187
 20
1956.188211227613
 10
867.3179556447072
 20
1956.376018577802
 10
867.2567963405088
 20
1956.566423951836
 10
867.2033001413634
 20
1956.759122741734
 10
867.1575526297781
 20
1956.953806670538
 10
867.1196269920127
 20
1957.150164285495
 10
867.0895839009963
 20
1957.347881456305
 10
867.0674714192667
 20
1957.546641877674
 10
867.0533249220769
 20
1957.746127575327
 10
867.0471670408051
 20
1957.946019414704
 10
867.0468756419548
 20
1957.999999999995
1001
REVIT
1002
{
1070
     3
1000
963222
1002
}
  0
LWPOLYLINE
  5
8C
330
87
100
AcDbEntity
  8
M-PIPE
100
AcDbPolyline
 90
       41
 70
   128
 43
0.0
 10
867.0468756419548
 20
2041.999999999996
 10
867.0508751086501
 20
2042.199946670929
 10
867.0628671104417
 20
2042.399573469842
 10
867.0828324626853
 20
2042.59856103644
 10
867.1107392250767
 20
2042.796591033067
 10
867.1465427527486
 20
2042.993346653971
 10
867.1901857676948
 20
2043.188513132132
 10
867.2415984504009
 20
2043.381778242816
 10
867.3006985515426
 20
2043.572832803076
 10
867.3673915235651
 20
2043.761371166372
 10
867.4415706719404
 20
2043.947091711539
 10
867.5231173258552
 20
2044.129697325326
 10
867.6119010280583
 20
2044.308895877703
 10
867.7077797435666
 20
2044.484400689214
 10
867.8106000868877
 20
2044.6559309896
 10
867.9201975674063
 20
2044.823212366971
 10
868.0363968525334
 20
2044.985977206808
 10
868.1590120482002
 20
2045.143965120088
 10
868.2878469962503
 20
2045.296923359853
 10
868.4226955882504
 20
2045.444607225549
 10
868.5633420952189
 20
2045.586780454494
 10
868.7095615127484
 20
2045.72321559985
 10
868.8611199209619
 20
2045.853694394491
 10
869.0177748587373
 20
2045.978008100178
 10
869.1792757115925
 20
2046.095957841501
 10
869.345364112614
 20
2046.207354924035
 10
869.5157743557912
 20
2046.312021136213
 10
869.6902338210863
 20
2046.409789034421
 10
869.8684634105713
 20
2046.500502210879
 10
870.0501779949235
 20
2046.584015543855
 10
870.2350868695715
 20
2046.660195429832
 10
870.4228942197611
 20
2046.728919997244
 10
870.613299593795
 20
2046.790079301442
 10
870.805998383693
 20
2046.843575500587
 10
871.0006823124977
 20
2046.889323012172
 10
871.1970399274537
 20
2046.927248649938
 10
871.3947570982641
 20
2046.957291740954
 10
871.5935175196332
 20
2046.979404222684
 10
871.7930032172869
 20
2046.993550719874
 10
871.9928950566636
 20
2046.999708601146
 10
872.0468756419549
 20
2046.999999999996
1001
REVIT
1002
{
1070
     3
1000
963222
1002
}
  0
LINE
  5
8D
330
87
100
AcDbEntity
  8
M-PIPE
100
AcDbLine
 10
867.0468756419529
 20
1975.999999999996
 30
0.0
 11
867.0468756419529
 21
2023.999999999995
 31
0.0
1001
REVIT
1002
{
1070
     3
1000
963222
1002
}
  0
LINE
  5
8E
330
87
100
AcDbEntity
  8
M-PIPE
100
AcDbLine
 10
867.0468756419529
 20
2023.999999999995
 30
0.0
 11
867.0468756419529
 21
2041.999999999995
 31
0.0
1001
REVIT
1002
{
1070
     3
1000
963222
1002
}
  0
LINE
  5
8F
330
87
100
AcDbEntity
  8
M-PIPE
100
AcDbLine
 10
867.0468756419529
 20
1957.999999999995
 30
0.0
 11
867.0468756419529
 21
1975.999999999996
 31
0.0
1001
REVIT
1002
{
1070
     3
1000
963222
1002
}
  0
LINE
  5
90
330
87
100
AcDbEntity
  8
M-PIPE
100
AcDbLine
 10
1002.046875641952
 20
2023.999999999995
 30
0.0
 11
1002.046875641952
 21
1975.999999999996
 31
0.0
1001
REVIT
1002
{
1070
     3
1000
963222
1002
}
  0
LINE
  5
91
330
87
100
AcDbEntity
  8
M-PIPE
100
AcDbLine
 10
1002.046875641952
 20
1975.999999999996
 30
0.0
 11
1002.046875641952
 21
1957.999999999995
 31
0.0
1001
REVIT
1002
{
1070
     3
1000
963222
1002
}
  0
LINE
  5
92
330
87
100
AcDbEntity
  8
M-PIPE
100
AcDbLine
 10
1002.046875641952
 20
2041.999999999995
 30
0.0
 11
1002.046875641952
 21
2023.999999999995
 31
0.0
1001
REVIT
1002
{
1070
     3
1000
963222
1002
}
  0
LINE
  5
93
330
87
100
AcDbEntity
  8
M-PIPE
100
AcDbLine
 10
997.0468756419528
 20
1952.999999999995
 30
0.0
 11
872.0468756419533
 21
1952.999999999995
 31
0.0
1001
REVIT
1002
{
1070
     3
1000
963222
1002
}
  0
SPLINE
  5
94
330
87
100
AcDbEntity
  8
M-PIPE
100
AcDbSpline
210
0.0
220
0.0
230
1.0
 70
     8
 71
     3
 72
    20
 73
    16
 74
     0
 42
0.000000001
 43
0.0000000001
 40
0.0
 40
0.0
 40
0.0
 40
0.0
 40
0.125
 40
0.1875
 40
0.25
 40
0.3125
 40
0.375
 40
0.4375
 40
0.5
 40
0.53125
 40
0.5625
 40
0.625
 40
0.6875
 40
0.75
 40
1.0
 40
1.0
 40
1.0
 40
1.0
 10
892.3468756419531
 20
2046.999999999995
 30
0.0
 10
892.388660211062
 20
2046.999999999995
 30
0.0
 10
892.6065371312917
 20
2046.90248376766
 30
0.0
 10
893.2117843862997
 20
2046.606762119539
 30
0.0
 10
893.8144030517683
 20
2046.309991813451
 30
0.0
 10
894.6004614340035
 20
2045.943177276895
 30
0.0
 10
895.5628875421139
 20
2045.512549973969
 30
0.0
 10
896.6541245617147
 20
2045.029120419929
 30
0.0
 10
897.6298057843385
 20
2044.593166995664
 30
0.0
 10
898.4491154651024
 20
2044.230244246654
 30
0.0
 10
899.3158546953143
 20
2043.857412499447
 30
0.0
 10
900.46624832813
 20
2043.376161426301
 30
0.0
 10
901.9313008163917
 20
2042.781858671402
 30
0.0
 10
904.9489447365193
 20
2041.574628677054
 30
0.0
 10
907.6852618188908
 20
2040.559383446031
 30
0.0
 10
910.0511617311484
 20
2039.799999999995
 30
0.0
1001
REVIT
1002
{
1070
     3
1000
963222
1002
}
  0
SPLINE
  5
95
330
87
100
AcDbEntity
  8
M-PIPE
100
AcDbSpline
210
0.0
220
0.0
230
1.0
 70
     8
 71
     3
 72
    19
 73
    15
 74
     0
 42
0.000000001
 43
0.0000000001
 40
0.0
 40
0.0
 40
0.0
 40
0.0
 40
0.25
 40
0.375
 40
0.4375
 40
0.5
 40
0.53125
 40
0.5625
 40
0.625
 40
0.6875
 40
0.75
 40
0.8125
 40
0.875
 40
1.0
 40
1.0
 40
1.0
 40
1.0
 10
959.0425895527578
 20
2039.799999999995
 30
0.0
 10
961.4084894650154
 20
2040.559383446031
 30
0.0
 10
964.6823349335624
 20
2041.777650978486
 30
0.0
 10
968.1635827093742
 20
2043.183566710356
 30
0.0
 10
970.0103744949689
 20
2043.953795229183
 30
0.0
 10
971.0633306684947
 20
2044.414243625733
 30
0.0
 10
971.8515929601792
 20
2044.767371350678
 30
0.0
 10
972.6230151192515
 20
2045.10979421172
 30
0.0
 10
973.5303488398411
 20
2045.51251525236
 30
0.0
 10
974.4934278047649
 20
2045.943186579665
 30
0.0
 10
975.2793113146394
 20
2046.309989323977
 30
0.0
 10
975.8819766127373
 20
2046.606762774664
 30
0.0
 10
976.4872083235358
 20
2046.902483374585
 30
0.0
 10
976.7050910728441
 20
2046.999999999995
 30
0.0
 10
976.746875641953
 20
2046.999999999995
 30
0.0
1001
REVIT
1002
{
1070
     3
1000
963222
1002
}
  0
LINE
  5
96
330
87
100
AcDbEntity
  8
M-PIPE
100
AcDbLine
 10
976.746875641953
 20
2046.999999999995
 30
0.0
 11
997.0468756419528
 21
2046.999999999995
 31
0.0
1001
REVIT
1002
{
1070
     3
1000
963222
1002
}
  0
LINE
  5
97
330
87
100
AcDbEntity
  8
M-PIPE
100
AcDbLine
 10
872.0468756419533
 20
2046.999999999995
 30
0.0
 11
892.3468756419531
 21
2046.999999999995
 31
0.0
1001
REVIT
1002
{
1070
     3
1000
963222
1002
}
  0
LINE
  5
98
330
87
100
AcDbEntity
  8
M-PIPE
100
AcDbLine
 10
899.546875641953
 20
2039.799999999995
 30
0.0
 11
904.7990186865504
 21
2039.799999999995
 31
0.0
1001
REVIT
1002
{
1070
     3
1000
963222
1002
}
  0
LINE
  5
99
330
87
100
AcDbEntity
  8
M-PIPE
100
AcDbLine
 10
904.7990186865504
 20
2039.799999999996
 30
0.0
 11
913.528910003173
 21
2039.799999999996
 31
0.0
1001
REVIT
1002
{
1070
     3
1000
963222
1002
}
  0
LINE
  5
9A
330
87
100
AcDbEntity
  8
M-PIPE
100
AcDbLine
 10
956.3439728635307
 20
2039.799999999996
 30
0.0
 11
956.5664612104384
 21
2039.799999999996
 31
0.0
1001
REVIT
1002
{
1070
     3
1000
963222
1002
}
  0
LINE
  5
9B
330
87
100
AcDbEntity
  8
M-PIPE
100
AcDbLine
 10
964.2947325973553
 20
2039.799999999995
 30
0.0
 11
969.5468756419531
 21
2039.799999999995
 31
0.0
1001
REVIT
1002
{
1070
     3
1000
963222
1002
}
  0
LINE
  5
9C
330
87
100
AcDbEntity
  8
M-PIPE
100
AcDbLine
 10
892.3468756419531
 20
2046.999999999995
 30
0.0
 11
899.546875641953
 21
2039.799999999995
 31
0.0
1001
REVIT
1002
{
1070
     3
1000
963222
1002
}
  0
LINE
  5
9D
330
87
100
AcDbEntity
  8
M-PIPE
100
AcDbLine
 10
969.5468756419531
 20
2039.799999999995
 30
0.0
 11
976.746875641953
 21
2046.999999999995
 31
0.0
1001
REVIT
1002
{
1070
     3
1000
963222
1002
}
  0
ARC
  5
9E
330
87
100
AcDbEntity
  8
M-PIPE
100
AcDbCircle
 10
930.8713509456266
 20
2061.787022971234
 30
0.0
 40
34.10565478869179
100
AcDbArc
 50
220.1412244907975
 51
239.4567372408446
1001
REVIT
1002
{
1070
     3
1000
963222
1002
}
  0
ARC
  5
9F
330
87
100
AcDbEntity
  8
M-PIPE
100
AcDbCircle
 10
938.2224003382797
 20
2061.787022971234
 30
0.0
 40
34.10565478869165
100
AcDbArc
 50
300.5432627591662
 51
319.8587755092014
1001
REVIT
1002
{
1070
     3
1000
963222
1002
}
  0
ARC
  5
A0
330
87
100
AcDbEntity
  8
M-PIPE
100
AcDbCircle
 10
997.0468756419528
 20
1957.999999999995
 30
0.0
 40
4.999999999999886
100
AcDbArc
 50
269.9999999999997
 51
0.0
1001
REVIT
1002
{
1070
     3
1000
963222
1002
}
  0
ARC
  5
A1
330
87
100
AcDbEntity
  8
M-PIPE
100
AcDbCircle
 10
997.0468756419528
 20
2041.999999999995
 30
0.0
 40
4.999999999999886
100
AcDbArc
 50
0.0
 51
90.0
1001
REVIT
1002
{
1070
     3
1000
963222
1002
}
  0
ARC
  5
A2
330
87
100
AcDbEntity
  8
M-PIPE
100
AcDbCircle
 10
872.0468756419533
 20
1957.999999999995
 30
0.0
 40
5.000000000000113
100
AcDbArc
 50
180.0
 51
269.9999999999997
1001
REVIT
1002
{
1070
     3
1000
963222
1002
}
  0
ARC
  5
A3
330
87
100
AcDbEntity
  8
M-PIPE
100
AcDbCircle
 10
872.0468756419533
 20
2041.999999999995
 30
0.0
 40
5.000000000000113
100
AcDbArc
 50
90.0
 51
180.0
1001
REVIT
1002
{
1070
     3
1000
963222
1002
}
  0
LINE
  5
A4
330
87
100
AcDbEntity
  8
M-PIPE
100
AcDbLine
 10
867.0468756419529
 20
1975.999999999996
 30
0.0
 11
1002.046875641952
 21
1975.999999999996
 31
0.0
1001
REVIT
1002
{
1070
     3
1000
963222
1002
}
  0
LINE
  5
A5
330
87
100
AcDbEntity
  8
M-PIPE
100
AcDbLine
 10
1002.046875641952
 20
2023.999999999995
 30
0.0
 11
956.0522967721862
 21
2023.999999999995
 31
0.0
1001
REVIT
1002
{
1070
     3
1000
963222
1002
}
  0
LINE
  5
A6
330
87
100
AcDbEntity
  8
M-PIPE
100
AcDbLine
 10
913.0414545117256
 20
2023.999999999995
 30
0.0
 11
867.0468756419529
 21
2023.999999999995
 31
0.0
1001
REVIT
1002
{
1070
     3
1000
963222
1002
}
  0
LWPOLYLINE
  5
A7
330
87
100
AcDbEntity
  8
M-PIPE
100
AcDbPolyline
 90
       31
 70
   128
 43
0.0
 10
949.7661555771477
 20
2033.200000000045
 10
949.4991034306217
 20
2033.200000000045
 10
949.2081309092723
 20
2033.200000000045
 10
948.8937035070629
 20
2033.200000000045
 10
948.5563242407625
 20
2033.200000000045
 10
948.1965328452272
 20
2033.200000000045
 10
947.8149049099382
 20
2033.200000000045
 10
947.4120509581823
 20
2033.200000000045
 10
946.988615470345
 20
2033.200000000045
 10
946.5452758528783
 20
2033.200000000045
 10
946.0827413545965
 20
2033.200000000045
 10
945.601751932028
 20
2033.200000000045
 10
945.103077065643
 20
2033.200000000045
 10
944.5875145288496
 20
2033.200000000045
 10
944.0558891117261
 20
2033.200000000045
 10
943.5090513015323
 20
2033.200000000045
 10
942.9478759221119
 20
2033.200000000045
 10
942.3732607343612
 20
2033.200000000045
 10
941.7861250000026
 20
2033.200000000045
 10
941.1874080109617
 20
2033.200000000045
 10
940.5780675867017
 20
2033.200000000045
 10
939.9590785419158
 20
2033.200000000045
 10
939.3314311270316
 20
2033.200000000045
 10
938.6961294440224
 20
2033.200000000045
 10
938.0541898400563
 20
2033.200000000045
 10
937.4066392815606
 20
2033.200000000045
 10
936.7545137112919
 20
2033.200000000045
 10
936.0988563910503
 20
2033.200000000045
 10
935.4407162326811
 20
2033.200000000045
 10
934.781146120043
 20
2033.200000000045
 10
934.5468756419576
 20
2033.200000000045
1001
REVIT
1002
{
1070
     3
1000
923114
1002
}
  0
LWPOLYLINE
  5
A8
330
87
100
AcDbEntity
  8
M-PIPE
100
AcDbPolyline
 90
       31
 70
   128
 43
0.0
 10
934.5468756419576
 20
2033.200000000045
 10
933.8870516278779
 20
2033.200000000045
 10
933.2282831914662
 20
2033.200000000045
 10
932.5716242216902
 20
2033.200000000045
 10
931.9181252328224
 20
2033.200000000045
 10
931.2688316838388
 20
2033.200000000045
 10
930.6247823059097
 20
2033.200000000045
 10
929.9870074406497
 20
2033.200000000045
 10
929.3565273917916
 20
2033.200000000045
 10
928.7343507929186
 20
2033.200000000045
 10
928.1214729938648
 20
2033.200000000045
 10
927.5188744683687
 20
2033.200000000045
 10
926.927519245523
 20
2033.200000000045
 10
926.3483533675358
 20
2033.200000000045
 10
925.7823033762628
 20
2033.200000000045
 10
925.2302748309393
 20
2033.200000000045
 10
924.6931508594778
 20
2033.200000000045
 10
924.1717907456527
 20
2033.200000000045
 10
923.6670285544279
 20
2033.200000000045
 10
923.1796717976333
 20
2033.200000000045
 10
922.7105001421151
 20
2033.200000000045
 10
922.2602641624382
 20
2033.200000000045
 10
921.8296841401244
 20
2033.200000000045
 10
921.4194489113573
 20
2033.200000000045
 10
921.0302147649908
 20
2033.200000000045
 10
920.6626043926272
 20
2033.200000000045
 10
920.3172058924423
 20
2033.200000000045
 10
919.9945718283558
 20
2033.200000000045
 10
919.6952183460451
 20
2033.200000000045
 10
919.4196243472232
 20
2033.200000000045
 10
919.3275958818039
 20
2033.200000000045
1001
REVIT
1002
{
1070
     3
1000
923114
1002
}
  0
LINE
  5
A9
330
87
100
AcDbEntity
  8
M-PIPE
100
AcDbLine
 10
923.4714934913618
 20
2064.000000000028
 30
0.0
 11
917.0468756419579
 21
2064.000000000028
 31
0.0
1001
REVIT
1002
{
1070
     3
1000
923114
1002
}
  0
LINE
  5
AA
330
87
100
AcDbEntity
  8
M-PIPE
100
AcDbLine
 10
952.0468756419578
 20
2064.000000000028
 30
0.0
 11
945.62225792627
 21
2064.000000000028
 31
0.0
1001
REVIT
1002
{
1070
     3
1000
923114
1002
}
  0
LINE
  5
AB
330
87
100
AcDbEntity
  8
M-PIPE
100
AcDbLine
 10
913.5468756419577
 20
2060.500000000028
 30
0.0
 11
913.5468756419577
 21
2029.200000000028
 31
0.0
1001
REVIT
1002
{
1070
     3
1000
923114
1002
}
  0
LINE
  5
AC
330
87
100
AcDbEntity
  8
M-PIPE
100
AcDbLine
 10
955.5468756419577
 20
2029.200000000027
 30
0.0
 11
955.5468756419578
 21
2060.500000000028
 31
0.0
1001
REVIT
1002
{
1070
     3
1000
923114
1002
}
  0
LINE
  5
AD
330
87
100
AcDbEntity
  8
M-PIPE
100
AcDbLine
 10
955.5468756419561
 20
2029.200000000027
 30
0.0
 11
953.687933059551
 21
2029.200000000027
 31
0.0
1001
REVIT
1002
{
1070
     3
1000
923114
1002
}
  0
LINE
  5
AE
330
87
100
AcDbEntity
  8
M-PIPE
100
AcDbLine
 10
915.4058183347585
 20
2029.200000000027
 30
0.0
 11
913.5468756419562
 21
2029.200000000027
 31
0.0
1001
REVIT
1002
{
1070
     3
1000
923114
1002
}
  0
SPLINE
  5
AF
330
87
100
AcDbEntity
  8
M-PIPE
100
AcDbSpline
210
0.0
220
0.0
230
1.0
 70
     8
 71
     3
 72
    13
 73
     9
 74
     0
 42
0.000000001
 43
0.0000000001
 40
0.0
 40
0.0
 40
0.0
 40
0.0
 40
0.2
 40
0.4
 40
0.55
 40
0.625
 40
0.7
 40
1.0
 40
1.0
 40
1.0
 40
1.0
 10
916.3790441581381
 20
2031.745379170311
 30
0.0
 10
916.5112888685966
 20
2031.938256592654
 30
0.0
 10
916.8078377381005
 20
2032.286295951159
 30
0.0
 10
917.3164230768799
 20
2032.665481092232
 30
0.0
 10
917.7519019214271
 20
2032.882480053146
 30
0.0
 10
918.070247684513
 20
2033.002404201244
 30
0.0
 10
918.5628551525292
 20
2033.14771034885
 30
0.0
 10
918.984328561712
 20
2033.200883900433
 30
0.0
 10
919.3275958818025
 20
2033.200000000043
 30
0.0
1001
REVIT
1002
{
1070
     3
1000
923114
1002
}
  0
LINE
  5
B0
330
87
100
AcDbEntity
  8
M-PIPE
100
AcDbLine
 10
920.9538855265344
 20
2033.200000000043
 30
0.0
 11
920.9538855265346
 21
2060.500000000027
 31
0.0
1001
REVIT
1002
{
1070
     3
1000
923114
1002
}
  0
SPLINE
  5
B1
330
87
100
AcDbEntity
  8
M-PIPE
100
AcDbSpline
210
0.0
220
0.0
230
1.0
 70
     8
 71
     3
 72
    15
 73
    11
 74
     0
 42
0.000000001
 43
0.0000000001
 40
0.0
 40
0.0
 40
0.0
 40
0.0
 40
0.2
 40
0.4
 40
0.55
 40
0.625
 40
0.7
 40
0.775
 40
0.85
 40
1.0
 40
1.0
 40
1.0
 40
1.0
 10
949.7661555771459
 20
2033.200000000044
 30
0.0
 10
949.9950004392195
 20
2033.200589266713
 30
0.0
 10
950.4455838462883
 20
2033.162828046215
 30
0.0
 10
951.0537150657846
 20
2033.005981391772
 30
0.0
 10
951.4994389793239
 20
2032.809458073689
 30
0.0
 10
951.7934564816911
 20
2032.637494853011
 30
0.0
 10
952.0062027761531
 20
2032.491007645389
 30
0.0
 10
952.2072524329333
 20
2032.32828782334
 30
0.0
 10
952.4524033747502
 20
2032.091376288556
 30
0.0
 10
952.6155235907268
 20
2031.890037412145
 30
0.0
 10
952.714707125774
 20
2031.745379364609
 30
0.0
1001
REVIT
1002
{
1070
     3
1000
923114
1002
}
  0
LINE
  5
B2
330
87
100
AcDbEntity
  8
M-PIPE
100
AcDbLine
 10
948.1398659662826
 20
2033.200000000044
 30
0.0
 11
948.1398659662826
 21
2060.500000000027
 31
0.0
1001
REVIT
1002
{
1070
     3
1000
923114
1002
}
  0
SPLINE
  5
B3
330
87
100
AcDbEntity
  8
M-PIPE
100
AcDbSpline
210
0.0
220
0.0
230
1.0
 70
     8
 71
     3
 72
    11
 73
     7
 74
     0
 42
0.000000001
 43
0.0000000001
 40
0.0
 40
0.0
 40
0.0
 40
0.0
 40
0.25
 40
0.5
 40
0.75
 40
1.0
 40
1.0
 40
1.0
 40
1.0
 10
914.3461896000992
 20
2062.726273771
 30
0.0
 10
914.5096947207219
 20
2062.924621342981
 30
0.0
 10
914.8805337228351
 20
2063.285102831208
 30
0.0
 10
915.5415092601593
 20
2063.691152271955
 30
0.0
 10
916.2747645967305
 20
2063.942914561564
 30
0.0
 10
916.7894075535942
 20
2064.000000000028
 30
0.0
 10
917.0468756419563
 20
2064.000000000028
 30
0.0
1001
REVIT
1002
{
1070
     3
1000
923114
1002
}
  0
SPLINE
  5
B4
330
87
100
AcDbEntity
  8
M-PIPE
100
AcDbSpline
210
0.0
220
0.0
230
1.0
 70
     8
 71
     3
 72
    15
 73
    11
 74
     0
 42
0.000000001
 43
0.0000000001
 40
0.0
 40
0.0
 40
0.0
 40
0.0
 40
0.1428571428571428
 40
0.2857142857142857
 40
0.4285714285714286
 40
0.5714285714285714
 40
0.6785714285714287
 40
0.7321428571428572
 40
0.7857142857142857
 40
1.0
 40
1.0
 40
1.0
 40
1.0
 10
920.9538855265346
 20
2060.500000000027
 30
0.0
 10
920.9545739358532
 20
2060.781618227395
 30
0.0
 10
920.9996490956035
 20
2061.340633724033
 30
0.0
 10
921.2007480535985
 20
2062.123143957009
 30
0.0
 10
921.5157669141907
 20
2062.797933658056
 30
0.0
 10
921.8883600954058
 20
2063.291041535631
 30
0.0
 10
922.2198168084586
 20
2063.577533149002
 30
0.0
 10
922.4669345949678
 20
2063.736150464386
 30
0.0
 10
922.8524910506893
 20
2063.929831430084
 30
0.0
 10
923.1921041284397
 20
2064.000000000027
 30
0.0
 10
923.4714934913601
 20
2064.000000000027
 30
0.0
1001
REVIT
1002
{
1070
     3
1000
923114
1002
}
  0
SPLINE
  5
B5
330
87
100
AcDbEntity
  8
M-PIPE
100
AcDbSpline
210
0.0
220
0.0
230
1.0
 70
     8
 71
     3
 72
    13
 73
     9
 74
     0
 42
0.000000001
 43
0.0000000001
 40
-1.0
 40
-1.0
 40
-1.0
 40
-1.0
 40
-0.8333333333333332
 40
-0.6666666666666666
 40
-0.5
 40
-0.3333333333333333
 40
-0.1666666666666666
 40
0.0
 40
0.0
 40
0.0
 40
0.0
 10
948.1398659662826
 20
2060.500000000027
 30
0.0
 10
948.1367754143667
 20
2060.805432619126
 30
0.0
 10
948.0791467860465
 20
2061.416270018467
 30
0.0
 10
947.8465898472739
 20
2062.270105953993
 30
0.0
 10
947.4525378041223
 20
2063.003306165724
 30
0.0
 10
946.9342765790999
 20
2063.565911788193
 30
0.0
 10
946.3313085711613
 20
2063.919580161143
 30
0.0
 10
945.8669441687437
 20
2064.000000000027
 30
0.0
 10
945.6222579262686
 20
2064.000000000027
 30
0.0
1001
REVIT
1002
{
1070
     3
1000
923114
1002
}
  0
SPLINE
  5
B6
330
87
100
AcDbEntity
  8
M-PIPE
100
AcDbSpline
210
0.0
220
0.0
230
1.0
 70
     8
 71
     3
 72
    11
 73
     7
 74
     0
 42
0.000000001
 43
0.0000000001
 40
0.0
 40
0.0
 40
0.0
 40
0.0
 40
0.25
 40
0.5
 40
0.75
 40
1.0
 40
1.0
 40
1.0
 40
1.0
 10
954.7475616838132
 20
2062.726273771
 30
0.0
 10
954.5815223347505
 20
2062.924621342981
 30
0.0
 10
954.2142761127394
 20
2063.285102831208
 30
0.0
 10
953.5523384355956
 20
2063.691152271955
 30
0.0
 10
952.8175424881499
 20
2063.942914561564
 30
0.0
 10
952.3076492534981
 20
2064.000000000027
 30
0.0
 10
952.0468756419562
 20
2064.000000000027
 30
0.0
1001
REVIT
1002
{
1070
     3
1000
923114
1002
}
  0
LINE
  5
B7
330
87
100
AcDbEntity
  8
M-PIPE
100
AcDbLine
 10
915.8886913525368
 20
2030.200000000044
 30
0.0
 11
915.8886913525368
 21
2029.200000000027
 31
0.0
1001
REVIT
1002
{
1070
     3
1000
923114
1002
}
  0
SPLINE
  5
B8
330
87
100
AcDbEntity
  8
M-PIPE
100
AcDbSpline
210
0.0
220
0.0
230
1.0
 70
     8
 71
     3
 72
    10
 73
     6
 74
     0
 42
0.000000001
 43
0.0000000001
 40
-1.0
 40
-1.0
 40
-1.0
 40
-1.0
 40
-0.6666666666666666
 40
-0.3333333333333333
 40
0.0
 40
0.0
 40
0.0
 40
0.0
 10
916.3790441581381
 20
2031.745379170311
 30
0.0
 10
916.2749440966027
 20
2031.592632039562
 30
0.0
 10
916.1008848913278
 20
2031.274381206734
 30
0.0
 10
915.9276782594814
 20
2030.749382926947
 30
0.0
 10
915.8901673388379
 20
2030.386340686504
 30
0.0
 10
915.8886913525371
 20
2030.200000000044
 30
0.0
1001
REVIT
1002
{
1070
     3
1000
923114
1002
}
  0
SPLINE
  5
B9
330
87
100
AcDbEntity
  8
M-PIPE
100
AcDbSpline
210
0.0
220
0.0
230
1.0
 70
     8
 71
     3
 72
    10
 73
     6
 74
     0
 42
0.000000001
 43
0.0000000001
 40
-1.0
 40
-1.0
 40
-1.0
 40
-1.0
 40
-0.6666666666666666
 40
-0.3333333333333333
 40
0.0
 40
0.0
 40
0.0
 40
0.0
 10
914.3461896000992
 20
2062.726273771
 30
0.0
 10
914.5282171135352
 20
2062.499419103074
 30
0.0
 10
914.939064201909
 20
2062.031838077257
 30
0.0
 10
915.6285390116043
 20
2061.272735139279
 30
0.0
 10
916.1278478392294
 20
2060.760411573171
 30
0.0
 10
916.3790441581383
 20
2060.500000000027
 30
0.0
1001
REVIT
1002
{
1070
     3
1000
923114
1002
}
  0
SPLINE
  5
BA
330
87
100
AcDbEntity
  8
M-PIPE
100
AcDbSpline
210
0.0
220
0.0
230
1.0
 70
     8
 71
     3
 72
    10
 73
     6
 74
     0
 42
0.000000001
 43
0.0000000001
 40
-1.0
 40
-1.0
 40
-1.0
 40
-1.0
 40
-0.6666666666666666
 40
-0.3333333333333333
 40
0.0
 40
0.0
 40
0.0
 40
0.0
 10
913.5468756419562
 20
2060.500000000027
 30
0.0
 10
913.5468756419562
 20
2060.760411573171
 30
0.0
 10
913.6039515025403
 20
2061.272735139279
 30
0.0
 10
913.8631991761787
 20
2062.031838077257
 30
0.0
 10
914.1641620866632
 20
2062.499419103074
 30
0.0
 10
914.3461896000992
 20
2062.726273771
 30
0.0
1001
REVIT
1002
{
1070
     3
1000
923114
1002
}
  0
SPLINE
  5
BB
330
87
100
AcDbEntity
  8
M-PIPE
100
AcDbSpline
210
0.0
220
0.0
230
1.0
 70
     8
 71
     3
 72
    10
 73
     6
 74
     0
 42
0.000000001
 43
0.0000000001
 40
-1.0
 40
-1.0
 40
-1.0
 40
-1.0
 40
-0.6666666666666666
 40
-0.3333333333333333
 40
0.0
 40
0.0
 40
0.0
 40
0.0
 10
954.7475616838132
 20
2062.726273771
 30
0.0
 10
954.9295891972493
 20
2062.499419103073
 30
0.0
 10
955.2305521077338
 20
2062.031838077257
 30
0.0
 10
955.4897997813721
 20
2061.272735139279
 30
0.0
 10
955.5468756419562
 20
2060.760411573171
 30
0.0
 10
955.5468756419562
 20
2060.500000000027
 30
0.0
1001
REVIT
1002
{
1070
     3
1000
923114
1002
}
  0
SPLINE
  5
BC
330
87
100
AcDbEntity
  8
M-PIPE
100
AcDbSpline
210
0.0
220
0.0
230
1.0
 70
     8
 71
     3
 72
    10
 73
     6
 74
     0
 42
0.000000001
 43
0.0000000001
 40
-1.0
 40
-1.0
 40
-1.0
 40
-1.0
 40
-0.6666666666666666
 40
-0.3333333333333333
 40
0.0
 40
0.0
 40
0.0
 40
0.0
 10
952.7147071257742
 20
2060.500000000027
 30
0.0
 10
952.9659034446831
 20
2060.760411573171
 30
0.0
 10
953.4652122723082
 20
2061.272735139279
 30
0.0
 10
954.1546870820033
 20
2062.031838077256
 30
0.0
 10
954.5655341703771
 20
2062.499419103073
 30
0.0
 10
954.7475616838132
 20
2062.726273771
 30
0.0
1001
REVIT
1002
{
1070
     3
1000
923114
1002
}
  0
SPLINE
  5
BD
330
87
100
AcDbEntity
  8
M-PIPE
100
AcDbSpline
210
0.0
220
0.0
230
1.0
 70
     8
 71
     3
 72
    10
 73
     6
 74
     0
 42
0.000000001
 43
0.0000000001
 40
-1.0
 40
-1.0
 40
-1.0
 40
-1.0
 40
-0.6666666666666666
 40
-0.3333333333333333
 40
0.0
 40
0.0
 40
0.0
 40
0.0
 10
953.2050600619033
 20
2030.200000000044
 30
0.0
 10
953.2035840749269
 20
2030.386340713284
 30
0.0
 10
953.166073144235
 20
2030.749383003884
 30
0.0
 10
952.9928664639696
 20
2031.274381353448
 30
0.0
 10
952.8188072139723
 20
2031.59263221966
 30
0.0
 10
952.714707125774
 20
2031.745379364609
 30
0.0
1001
REVIT
1002
{
1070
     3
1000
923114
1002
}
  0
LINE
  5
BE
330
87
100
AcDbEntity
  8
M-PIPE
100
AcDbLine
 10
953.2050600619033
 20
2029.200000000027
 30
0.0
 11
953.2050600619033
 21
2030.200000000044
 31
0.0
1001
REVIT
1002
{
1070
     3
1000
923114
1002
}
  0
ARC
  5
BF
330
87
100
AcDbEntity
  8
P-SANR-FIXT
100
AcDbCircle
 10
950.5468756419558
 20
1999.999999999995
 30
0.0
 40
9.000000000000227
100
AcDbArc
 50
180.0
 51
207.3228108217597
  0
ARC
  5
C0
330
87
100
AcDbEntity
  8
P-SANR-FIXT
100
AcDbCircle
 10
950.5468756419558
 20
1999.999999999995
 30
0.0
 40
9.000000000000277
100
AcDbArc
 50
212.8092865028435
 51
267.2592615422798
  0
ARC
  5
C1
330
87
100
AcDbEntity
  8
P-SANR-FIXT
100
AcDbCircle
 10
950.5468756419558
 20
1999.999999999995
 30
0.0
 40
9.000000000000262
100
AcDbArc
 50
272.7407384577173
 51
327.1907134971501
  0
ARC
  5
C2
330
87
100
AcDbEntity
  8
P-SANR-FIXT
100
AcDbCircle
 10
950.5468756419558
 20
1999.999999999995
 30
0.0
 40
9.000000000000307
100
AcDbArc
 50
332.6771891782521
 51
0.0
  0
ARC
  5
C3
330
87
100
AcDbEntity
  8
P-SANR-FIXT
100
AcDbCircle
 10
950.5468756419558
 20
1999.999999999995
 30
0.0
 40
9.000000000000227
100
AcDbArc
 50
152.6771891782467
 51
180.0
  0
ARC
  5
C4
330
87
100
AcDbEntity
  8
P-SANR-FIXT
100
AcDbCircle
 10
950.5468756419558
 20
1999.999999999995
 30
0.0
 40
9.000000000000271
100
AcDbArc
 50
92.74073845773148
 51
147.1907134971531
  0
ARC
  5
C5
330
87
100
AcDbEntity
  8
P-SANR-FIXT
100
AcDbCircle
 10
950.5468756419558
 20
1999.999999999995
 30
0.0
 40
9.000000000000333
100
AcDbArc
 50
32.80928650285502
 51
87.25926154227293
  0
ARC
  5
C6
330
87
100
AcDbEntity
  8
P-SANR-FIXT
100
AcDbCircle
 10
950.5468756419558
 20
1999.999999999995
 30
0.0
 40
9.000000000000296
100
AcDbArc
 50
0.0
 51
27.32281082174295
  0
ARC
  5
C7
330
87
100
AcDbEntity
  8
P-SANR-FIXT
100
AcDbCircle
 10
918.546875641956
 20
1999.999999999995
 30
0.0
 40
9.000000000000341
100
AcDbArc
 50
180.0
 51
207.32281082176
  0
ARC
  5
C8
330
87
100
AcDbEntity
  8
P-SANR-FIXT
100
AcDbCircle
 10
918.546875641956
 20
1999.999999999995
 30
0.0
 40
9.000000000000277
100
AcDbArc
 50
212.8092865028435
 51
267.2592615422813
  0
ARC
  5
C9
330
87
100
AcDbEntity
  8
P-SANR-FIXT
100
AcDbCircle
 10
918.546875641956
 20
1999.999999999995
 30
0.0
 40
9.000000000000371
100
AcDbArc
 50
272.7407384577166
 51
327.1907134971502
  0
ARC
  5
CA
330
87
100
AcDbEntity
  8
P-SANR-FIXT
100
AcDbCircle
 10
918.546875641956
 20
1999.999999999995
 30
0.0
 40
9.000000000000255
100
AcDbArc
 50
332.6771891782523
 51
0.0
  0
ARC
  5
CB
330
87
100
AcDbEntity
  8
P-SANR-FIXT
100
AcDbCircle
 10
918.546875641956
 20
1999.999999999995
 30
0.0
 40
9.000000000000341
100
AcDbArc
 50
152.6771891782462
 51
180.0
  0
ARC
  5
CC
330
87
100
AcDbEntity
  8
P-SANR-FIXT
100
AcDbCircle
 10
918.546875641956
 20
1999.999999999995
 30
0.0
 40
9.000000000000271
100
AcDbArc
 50
92.74073845772933
 51
147.1907134971531
  0
ARC
  5
CD
330
87
100
AcDbEntity
  8
P-SANR-FIXT
100
AcDbCircle
 10
918.546875641956
 20
1999.999999999995
 30
0.0
 40
9.000000000000214
100
AcDbArc
 50
32.80928650285467
 51
87.25926154227364
  0
ARC
  5
CE
330
87
100
AcDbEntity
  8
P-SANR-FIXT
100
AcDbCircle
 10
918.546875641956
 20
1999.999999999995
 30
0.0
 40
9.000000000000346
100
AcDbArc
 50
0.0
 51
27.32281082174274
  0
LINE
  5
CF
330
87
100
AcDbEntity
  8
P-SANR-FIXT
100
AcDbLine
 10
913.5468756419575
 20
2028.107861503047
 30
0.0
 11
913.5468756419575
 21
2027.000000000026
 31
0.0
  0
LINE
  5
D0
330
87
100
AcDbEntity
  8
P-SANR-FIXT
100
AcDbLine
 10
955.5468756419575
 20
2027.000000000026
 30
0.0
 11
955.5468756419575
 21
2028.107861503047
 31
0.0
  0
LINE
  5
D1
330
87
100
AcDbEntity
  8
P-SANR-FIXT
100
AcDbLine
 10
914.6390141389389
 20
2029.200000000028
 30
0.0
 11
913.5468756419575
 21
2028.107861503047
 31
0.0
  0
LINE
  5
D2
330
87
100
AcDbEntity
  8
P-SANR-FIXT
100
AcDbLine
 10
955.5468756419575
 20
2028.107861503047
 30
0.0
 11
954.4547371449763
 21
2029.200000000027
 31
0.0
  0
LINE
  5
D3
330
87
100
AcDbEntity
  8
P-SANR-FIXT
100
AcDbLine
 10
955.5468756419559
 20
2028.107861503046
 30
0.0
 11
913.5468756419559
 21
2028.107861503046
 31
0.0
  0
LINE
  5
D4
330
87
100
AcDbEntity
  8
P-SANR-FIXT
100
AcDbLine
 10
913.5468756419559
 20
2027.000000000026
 30
0.0
 11
913.6116116335603
 21
2027.000000000026
 31
0.0
  0
LINE
  5
D5
330
87
100
AcDbEntity
  8
P-SANR-FIXT
100
AcDbLine
 10
913.6750322397315
 20
2027.000000000026
 30
0.0
 11
913.8369224145067
 21
2027.000000000026
 31
0.0
  0
LINE
  5
D6
330
87
100
AcDbEntity
  8
P-SANR-FIXT
100
AcDbLine
 10
913.9611578002668
 20
2027.000000000026
 30
0.0
 11
914.1982864395528
 21
2027.000000000026
 31
0.0
  0
LINE
  5
D7
330
87
100
AcDbEntity
  8
P-SANR-FIXT
100
AcDbLine
 10
914.3894519525741
 20
2027.000000000026
 30
0.0
 11
914.7985365303604
 21
2027.000000000026
 31
0.0
  0
LINE
  5
D8
330
87
100
AcDbEntity
  8
P-SANR-FIXT
100
AcDbLine
 10
914.8506654963291
 20
2027.000000000026
 30
0.0
 11
915.4997853073236
 21
2027.000000000026
 31
0.0
  0
LINE
  5
D9
330
87
100
AcDbEntity
  8
P-SANR-FIXT
100
AcDbLine
 10
915.8357386340002
 20
2027.000000000026
 30
0.0
 11
916.347535230612
 21
2027.000000000026
 31
0.0
  0
LINE
  5
DA
330
87
100
AcDbEntity
  8
P-SANR-FIXT
100
AcDbLine
 10
916.6414321905199
 20
2027.000000000026
 30
0.0
 11
917.3351242623734
 21
2027.000000000026
 31
0.0
  0
LINE
  5
DB
330
87
100
AcDbEntity
  8
P-SANR-FIXT
100
AcDbLine
 10
917.557518760082
 20
2027.000000000026
 30
0.0
 11
918.4547692146539
 21
2027.000000000026
 31
0.0
  0
LINE
  5
DC
330
87
100
AcDbEntity
  8
P-SANR-FIXT
100
AcDbLine
 10
918.5783503643552
 20
2027.000000000026
 30
0.0
 11
920.9084666270221
 21
2027.000000000025
 31
0.0
  0
LINE
  5
DD
330
87
100
AcDbEntity
  8
P-SANR-FIXT
100
AcDbLine
 10
921.0444230117319
 20
2027.000000000025
 30
0.0
 11
922.2033853438139
 21
2027.000000000025
 31
0.0
  0
LINE
  5
DE
330
87
100
AcDbEntity
  8
P-SANR-FIXT
100
AcDbLine
 10
922.4955767169962
 20
2027.000000000025
 30
0.0
 11
923.9233061530821
 21
2027.000000000025
 31
0.0
  0
LINE
  5
DF
330
87
100
AcDbEntity
  8
P-SANR-FIXT
100
AcDbLine
 10
924.0398405794737
 20
2027.000000000025
 30
0.0
 11
925.0130751474253
 21
2027.000000000025
 31
0.0
  0
LINE
  5
E0
330
87
100
AcDbEntity
  8
P-SANR-FIXT
100
AcDbLine
 10
925.6651889148535
 20
2027.000000000025
 30
0.0
 11
927.3589299659821
 21
2027.000000000025
 31
0.0
  0
LINE
  5
E1
330
87
100
AcDbEntity
  8
P-SANR-FIXT
100
AcDbLine
 10
927.5497619173659
 20
2027.000000000025
 30
0.0
 11
929.1078150403164
 21
2027.000000000025
 31
0.0
  0
LINE
  5
E2
330
87
100
AcDbEntity
  8
P-SANR-FIXT
100
AcDbLine
 10
929.6445230009817
 20
2027.000000000025
 30
0.0
 11
930.8981509881231
 21
2027.000000000025
 31
0.0
  0
LINE
  5
E3
330
87
100
AcDbEntity
  8
P-SANR-FIXT
100
AcDbLine
 10
931.2617518761109
 20
2027.000000000025
 30
0.0
 11
932.7159156461474
 21
2027.000000000025
 31
0.0
  0
LINE
  5
E4
330
87
100
AcDbEntity
  8
P-SANR-FIXT
100
AcDbLine
 10
932.8992346316711
 20
2027.000000000025
 30
0.0
 11
936.1945166522405
 21
2027.000000000025
 31
0.0
  0
LINE
  5
E5
330
87
100
AcDbEntity
  8
P-SANR-FIXT
100
AcDbLine
 10
936.377835637764
 20
2027.000000000025
 30
0.0
 11
937.8319994078006
 21
2027.000000000025
 31
0.0
  0
LINE
  5
E6
330
87
100
AcDbEntity
  8
P-SANR-FIXT
100
AcDbLine
 10
938.1956002957887
 20
2027.000000000025
 30
0.0
 11
939.4492282829297
 21
2027.000000000025
 31
0.0
  0
LINE
  5
E7
330
87
100
AcDbEntity
  8
P-SANR-FIXT
100
AcDbLine
 10
939.9859362435954
 20
2027.000000000025
 30
0.0
 11
943.428562369058
 21
2027.000000000025
 31
0.0
  0
LINE
  5
E8
330
87
100
AcDbEntity
  8
P-SANR-FIXT
100
AcDbLine
 10
944.0806761364862
 20
2027.000000000025
 30
0.0
 11
945.0539107044379
 21
2027.000000000025
 31
0.0
  0
LINE
  5
E9
330
87
100
AcDbEntity
  8
P-SANR-FIXT
100
AcDbLine
 10
945.5193455009906
 20
2027.000000000025
 30
0.0
 11
946.5981745669152
 21
2027.000000000025
 31
0.0
  0
LINE
  5
EA
330
87
100
AcDbEntity
  8
P-SANR-FIXT
100
AcDbLine
 10
946.8903659400977
 20
2027.000000000025
 30
0.0
 11
948.0493282721798
 21
2027.000000000025
 31
0.0
  0
LINE
  5
EB
330
87
100
AcDbEntity
  8
P-SANR-FIXT
100
AcDbLine
 10
948.1852846568896
 20
2027.000000000025
 30
0.0
 11
950.5154009195566
 21
2027.000000000025
 31
0.0
  0
LINE
  5
EC
330
87
100
AcDbEntity
  8
P-SANR-FIXT
100
AcDbLine
 10
950.6389820692579
 20
2027.000000000025
 30
0.0
 11
951.5362325238296
 21
2027.000000000025
 31
0.0
  0
LINE
  5
ED
330
87
100
AcDbEntity
  8
P-SANR-FIXT
100
AcDbLine
 10
951.7586270215385
 20
2027.000000000025
 30
0.0
 11
952.4523190933917
 21
2027.000000000025
 31
0.0
  0
LINE
  5
EE
330
87
100
AcDbEntity
  8
P-SANR-FIXT
100
AcDbLine
 10
952.7462160532998
 20
2027.000000000025
 30
0.0
 11
953.2580126499116
 21
2027.000000000025
 31
0.0
  0
LINE
  5
EF
330
87
100
AcDbEntity
  8
P-SANR-FIXT
100
AcDbLine
 10
953.5939659765881
 20
2027.000000000025
 30
0.0
 11
954.1374986170659
 21
2027.000000000025
 31
0.0
  0
LINE
  5
F0
330
87
100
AcDbEntity
  8
P-SANR-FIXT
100
AcDbLine
 10
954.2952147535515
 20
2027.000000000025
 30
0.0
 11
954.7604248382143
 21
2027.000000000025
 31
0.0
  0
LINE
  5
F1
330
87
100
AcDbEntity
  8
P-SANR-FIXT
100
AcDbLine
 10
954.8954648443597
 20
2027.000000000025
 30
0.0
 11
955.132593483646
 21
2027.000000000025
 31
0.0
  0
LINE
  5
F2
330
87
100
AcDbEntity
  8
P-SANR-FIXT
100
AcDbLine
 10
955.2568288694045
 20
2027.000000000025
 30
0.0
 11
955.4187190441812
 21
2027.000000000025
 31
0.0
  0
LINE
  5
F3
330
87
100
AcDbEntity
  8
P-SANR-FIXT
100
AcDbLine
 10
955.4716113188561
 20
2027.000000000025
 30
0.0
 11
955.5468756419559
 21
2027.000000000025
 31
0.0
  0
LINE
  5
F4
330
87
100
AcDbEntity
  8
P-SANR-FIXT
100
AcDbLine
 10
915.4050310644789
 20
2029.200000000027
 30
0.0
 11
938.430706753232
 21
2029.200000000027
 31
0.0
  0
LINE
  5
F5
330
87
100
AcDbEntity
  8
P-SANR-FIXT
100
AcDbLine
 10
938.4307085093817
 20
2029.200000000027
 30
0.0
 11
953.6887203474762
 21
2029.200000000027
 31
0.0
  0
LINE
  5
F6
330
87
100
AcDbEntity
  8
P-SANR-FIXT
100
AcDbLine
 10
892.0468756419577
 20
1978.749999999996
 30
0.0
 11
893.5743890791458
 21
1976.104269117542
 31
0.0
  0
LINE
  5
F7
330
87
100
AcDbEntity
  8
P-SANR-FIXT
100
AcDbLine
 10
893.575479731272
 20
1976.102380052646
 30
0.0
 11
893.6057213687698
 21
1976.049999999996
 31
0.0
  0
LINE
  5
F8
330
87
100
AcDbEntity
  8
P-SANR-FIXT
100
AcDbLine
 10
893.6057213687702
 20
2023.949999999996
 30
0.0
 11
893.5754797312723
 21
2023.897619947346
 31
0.0
  0
LINE
  5
F9
330
87
100
AcDbEntity
  8
P-SANR-FIXT
100
AcDbLine
 10
893.5743890791462
 20
2023.89573088245
 30
0.0
 11
892.0468756419577
 21
2021.249999999996
 31
0.0
  0
LINE
  5
FA
330
87
100
AcDbEntity
  8
P-SANR-FIXT
100
AcDbLine
 10
893.6057213687698
 20
1976.049999999996
 30
0.0
 11
903.346875641958
 21
1976.049999999996
 31
0.0
  0
LINE
  5
FB
330
87
100
AcDbEntity
  8
P-SANR-FIXT
100
AcDbLine
 10
903.3468756419582
 20
2023.949999999996
 30
0.0
 11
893.6057213687702
 21
2023.949999999996
 31
0.0
  0
LINE
  5
FC
330
87
100
AcDbEntity
  8
P-SANR-FIXT
100
AcDbLine
 10
903.346875641958
 20
1976.049999999996
 30
0.0
 11
903.3771162028367
 21
1976.102378187887
 31
0.0
  0
LINE
  5
FD
330
87
100
AcDbEntity
  8
P-SANR-FIXT
100
AcDbLine
 10
903.3782079315821
 20
1976.104269117542
 30
0.0
 11
905.9160843398519
 21
1980.499999999995
 31
0.0
  0
LINE
  5
FE
330
87
100
AcDbEntity
  8
P-SANR-FIXT
100
AcDbLine
 10
905.9160843398521
 20
2019.499999999996
 30
0.0
 11
903.3782079315821
 21
2023.89573088245
 31
0.0
  0
LINE
  5
FF
330
87
100
AcDbEntity
  8
P-SANR-FIXT
100
AcDbLine
 10
903.3771162028367
 20
2023.897621812105
 30
0.0
 11
903.3468756419582
 21
2023.949999999996
 31
0.0
  0
LWPOLYLINE
  5
100
330
87
100
AcDbEntity
  8
P-SANR-FIXT
100
AcDbPolyline
 90
       28
 70
   128
 43
0.0
 10
905.9160843398521
 20
2019.499999999996
 10
905.9574591299424
 20
2019.431536334763
 10
906.0015386410027
 20
2019.364781983467
 10
906.0482523552179
 20
2019.299843738831
 10
906.0975255406104
 20
2019.236825488194
 10
906.1492793705948
 20
2019.175828047312
 10
906.2034310500832
 20
2019.11694899908
 10
906.2598939479403
 20
2019.060282537413
 10
906.3185777355744
 20
2019.005919316564
 10
906.3793885314433
 20
2018.953946306088
 10
906.4422290512467
 20
2018.904446651715
 10
906.5069987635574
 20
2018.857499542333
 10
906.5735940506529
 20
2018.813180083302
 10
906.6419083742802
 20
2018.771559176301
 10
906.7118324460942
 20
2018.732703405904
 10
906.7832544024962
 20
2018.696674933055
 10
906.8560599835922
 20
2018.663531395623
 10
906.9301327159832
 20
2018.6333258162
 10
907.005354099099
 20
2018.606106517268
 10
907.0816037947725
 20
2018.5819170439
 10
907.158759819757
 20
2018.560796094092
 10
907.2366987408711
 20
2018.542777456858
 10
907.3152958724673
 20
2018.527889958176
 10
907.3944254759014
 20
2018.516157414865
 10
907.4739609606883
 20
2018.507598596494
 10
907.5537750870186
 20
2018.502227195345
 10
907.6337401693164
 20
2018.500051804515
 10
907.6481351474209
 20
2018.499999999995
  0
LWPOLYLINE
  5
101
330
87
100
AcDbEntity
  8
P-SANR-FIXT
100
AcDbPolyline
 90
       28
 70
   128
 43
0.0
 10
907.6481351474209
 20
1981.499999999996
 10
907.5681564790476
 20
1981.498400213317
 10
907.4883057594824
 20
1981.493603412601
 10
907.4087107328431
 20
1981.485617271703
 10
907.3294987341922
 20
1981.474454566747
 10
907.2507964858306
 20
1981.460133155678
 10
907.1727298945665
 20
1981.442675949699
 10
907.0954238502924
 20
1981.422110876617
 10
907.0190020261886
 20
1981.39847083616
 10
906.9435866808706
 20
1981.371793647351
 10
906.8692984628034
 20
1981.342121988001
 10
906.7962562172889
 20
1981.309503326436
 10
906.7245767963379
 20
1981.273989845554
 10
906.6543748717334
 20
1981.235638359351
 10
906.5857627515791
 20
1981.194510222022
 10
906.5188502006305
 20
1981.150671229815
 10
906.453744264696
 20
1981.104191515764
 10
906.3905490993839
 20
1981.055145437497
 10
906.3293658034778
 20
1981.003611458277
 10
906.2702922571997
 20
1980.949672021477
 10
906.2134229656217
 20
1980.89341341869
 10
906.1588489074789
 20
1980.834925651678
 10
906.1066573896228
 20
1980.774302288393
 10
906.0569319073481
 20
1980.711640313282
 10
906.009752010819
 20
1980.64703997214
 10
905.9651931778049
 20
1980.580604611732
 10
905.9233266929341
 20
1980.512440514461
 10
905.9160843398519
 20
1980.499999999995
  0
LINE
  5
102
330
87
100
AcDbEntity
  8
P-SANR-FIXT
100
AcDbLine
 10
907.6481351474209
 20
1981.499999999996
 30
0.0
 11
917.5468756419579
 21
1981.499999999996
 31
0.0
  0
LINE
  5
103
330
87
100
AcDbEntity
  8
P-SANR-FIXT
100
AcDbLine
 10
913.0468756419574
 20
2018.499999999995
 30
0.0
 11
907.6481351474209
 21
2018.499999999995
 31
0.0
  0
LINE
  5
104
330
87
100
AcDbEntity
  8
P-SANR-FIXT
100
AcDbLine
 10
917.5468756419579
 20
1981.499999999996
 30
0.0
 11
918.5468756419581
 21
1982.499999999996
 31
0.0
  0
LINE
  5
105
330
87
100
AcDbEntity
  8
P-SANR-FIXT
100
AcDbLine
 10
918.5468756419583
 20
1982.499999999996
 30
0.0
 11
950.5468756419574
 21
1982.499999999996
 31
0.0
  0
LINE
  5
106
330
87
100
AcDbEntity
  8
P-SANR-FIXT
100
AcDbLine
 10
950.5468756419574
 20
1982.499999999996
 30
0.0
 11
951.5468756419574
 21
1981.499999999995
 31
0.0
  0
LINE
  5
107
330
87
100
AcDbEntity
  8
P-SANR-FIXT
100
AcDbLine
 10
951.5468756419576
 20
1981.499999999995
 30
0.0
 11
961.4456161364948
 21
1981.499999999995
 31
0.0
  0
LINE
  5
108
330
87
100
AcDbEntity
  8
P-SANR-FIXT
100
AcDbLine
 10
961.4456161364952
 20
2018.499999999995
 30
0.0
 11
956.0468756419576
 21
2018.499999999995
 31
0.0
  0
LWPOLYLINE
  5
109
330
87
100
AcDbEntity
  8
P-SANR-FIXT
100
AcDbPolyline
 90
       28
 70
   128
 43
0.0
 10
961.4456161364952
 20
2018.499999999995
 10
961.5255948048682
 20
2018.501599786674
 10
961.6054455244332
 20
2018.50639658739
 10
961.6850405510728
 20
2018.514382728288
 10
961.7642525497235
 20
2018.525545433245
 10
961.842954798085
 20
2018.539866844313
 10
961.9210213893493
 20
2018.557324050292
 10
961.9983274336231
 20
2018.577889123374
 10
962.0747492577272
 20
2018.601529163831
 10
962.1501646030452
 20
2018.62820635264
 10
962.2244528211123
 20
2018.65787801199
 10
962.297495066627
 20
2018.690496673556
 10
962.3691744875779
 20
2018.726010154437
 10
962.4393764121824
 20
2018.76436164064
 10
962.5079885323367
 20
2018.805489777969
 10
962.5749010832851
 20
2018.849328770176
 10
962.6400070192197
 20
2018.895808484227
 10
962.7032021845321
 20
2018.944854562494
 10
962.7643854804379
 20
2018.996388541714
 10
962.823459026716
 20
2019.050327978514
 10
962.8803283182941
 20
2019.106586581301
 10
962.9349023764365
 20
2019.165074348313
 10
962.9870938942929
 20
2019.225697711599
 10
963.0368193765676
 20
2019.288359686709
 10
963.0839992730969
 20
2019.352960027851
 10
963.1285581061106
 20
2019.419395388259
 10
963.1704245909817
 20
2019.487559485531
 10
963.177666944064
 20
2019.499999999996
  0
LWPOLYLINE
  5
10A
330
87
100
AcDbEntity
  8
P-SANR-FIXT
100
AcDbPolyline
 90
       28
 70
   128
 43
0.0
 10
963.1776669440638
 20
1980.499999999995
 10
963.1362921539734
 20
1980.568463665228
 10
963.0922126429133
 20
1980.635218016524
 10
963.0454989286981
 20
1980.70015626116
 10
962.9962257433055
 20
1980.763174511798
 10
962.9444719133209
 20
1980.824171952679
 10
962.8903202338324
 20
1980.883051000912
 10
962.8338573359753
 20
1980.939717462578
 10
962.7751735483414
 20
1980.994080683427
 10
962.7143627524723
 20
1981.046053693903
 10
962.6515222326691
 20
1981.095553348276
 10
962.5867525203583
 20
1981.142500457659
 10
962.5201572332626
 20
1981.18681991669
 10
962.4518429096356
 20
1981.22844082369
 10
962.3819188378218
 20
1981.267296594087
 10
962.3104968814194
 20
1981.303325066937
 10
962.2376913003234
 20
1981.336468604368
 10
962.1636185679324
 20
1981.366674183791
 10
962.0883971848169
 20
1981.393893482723
 10
962.0121474891432
 20
1981.418082956091
 10
961.9349914641587
 20
1981.4392039059
 10
961.8570525430445
 20
1981.457222543133
 10
961.7784554114484
 20
1981.472110041815
 10
961.6993258080142
 20
1981.483842585126
 10
961.6197903232276
 20
1981.492401403497
 10
961.5399761968971
 20
1981.497772804646
 10
961.4600111145994
 20
1981.499948195476
 10
961.4456161364948
 20
1981.499999999995
  0
LINE
  5
10B
330
87
100
AcDbEntity
  8
P-SANR-FIXT
100
AcDbLine
 10
963.1776669440638
 20
1980.499999999995
 30
0.0
 11
965.7155433523337
 21
1976.104269117541
 31
0.0
  0
LINE
  5
10C
330
87
100
AcDbEntity
  8
P-SANR-FIXT
100
AcDbLine
 10
965.7166350810792
 20
1976.102378187886
 30
0.0
 11
965.7468756419575
 21
1976.049999999995
 31
0.0
  0
LINE
  5
10D
330
87
100
AcDbEntity
  8
P-SANR-FIXT
100
AcDbLine
 10
965.7468756419579
 20
2023.949999999996
 30
0.0
 11
965.7166350810793
 21
2023.897621812105
 31
0.0
  0
LINE
  5
10E
330
87
100
AcDbEntity
  8
P-SANR-FIXT
100
AcDbLine
 10
965.7155433523339
 20
2023.89573088245
 30
0.0
 11
963.177666944064
 21
2019.499999999996
 31
0.0
  0
LINE
  5
10F
330
87
100
AcDbEntity
  8
P-SANR-FIXT
100
AcDbLine
 10
965.7468756419575
 20
1976.049999999995
 30
0.0
 11
975.4880299151453
 21
1976.049999999995
 31
0.0
  0
LINE
  5
110
330
87
100
AcDbEntity
  8
P-SANR-FIXT
100
AcDbLine
 10
975.4880299151455
 20
2023.949999999996
 30
0.0
 11
965.7468756419579
 21
2023.949999999996
 31
0.0
  0
LINE
  5
111
330
87
100
AcDbEntity
  8
P-SANR-FIXT
100
AcDbLine
 10
975.4880299151453
 20
1976.049999999995
 30
0.0
 11
975.5182715526432
 21
1976.102380052645
 31
0.0
  0
LINE
  5
112
330
87
100
AcDbEntity
  8
P-SANR-FIXT
100
AcDbLine
 10
975.5193622047691
 20
1976.104269117541
 30
0.0
 11
977.0468756419576
 21
1978.749999999996
 31
0.0
  0
LINE
  5
113
330
87
100
AcDbEntity
  8
P-SANR-FIXT
100
AcDbLine
 10
977.0468756419576
 20
2021.249999999995
 30
0.0
 11
975.5193622047691
 21
2023.89573088245
 31
0.0
  0
LINE
  5
114
330
87
100
AcDbEntity
  8
P-SANR-FIXT
100
AcDbLine
 10
975.5182715526432
 20
2023.897619947345
 30
0.0
 11
975.4880299151455
 21
2023.949999999996
 31
0.0
  0
LINE
  5
115
330
87
100
AcDbEntity
  8
P-SANR-FIXT
100
AcDbLine
 10
913.0468756419574
 20
2026.499999999996
 30
0.0
 11
913.0468756419574
 21
2018.499999999995
 31
0.0
  0
LINE
  5
116
330
87
100
AcDbEntity
  8
P-SANR-FIXT
100
AcDbLine
 10
956.0468756419576
 20
2018.499999999995
 30
0.0
 11
956.0468756419576
 21
2026.499999999996
 31
0.0
  0
LINE
  5
117
330
87
100
AcDbEntity
  8
P-SANR-FIXT
100
AcDbLine
 10
913.5468756419575
 20
2026.999999999996
 30
0.0
 11
913.0468756419574
 21
2026.499999999996
 31
0.0
  0
LINE
  5
118
330
87
100
AcDbEntity
  8
P-SANR-FIXT
100
AcDbLine
 10
956.0468756419576
 20
2026.499999999996
 30
0.0
 11
955.5468756419575
 21
2026.999999999996
 31
0.0
  0
LWPOLYLINE
  5
119
330
87
100
AcDbEntity
  8
P-SANR-FIXT
100
AcDbPolyline
 90
       20
 70
   128
 43
0.0
 10
927.5468756419574
 20
1999.999999999996
 10
928.2802917635251
 20
1999.999999999996
 10
929.0237330824986
 20
1999.999999999996
 10
929.7760102513594
 20
1999.999999999996
 10
930.5359197871151
 20
1999.999999999996
 10
931.3022459966132
 20
1999.999999999996
 10
932.0737629213935
 20
1999.999999999996
 10
932.8492362989573
 20
1999.999999999996
 10
933.6274255373263
 20
1999.999999999996
 10
934.4070856997236
 20
1999.999999999996
 10
935.1869694962081
 20
1999.999999999996
 10
935.9658292790722
 20
1999.999999999996
 10
936.7424190388108
 20
1999.999999999996
 10
937.5154963974718
 20
1999.999999999996
 10
938.2838245961963
 20
1999.999999999996
 10
939.0461744737672
 20
1999.999999999996
 10
939.8013264330064
 20
1999.999999999996
 10
940.5480723918694
 20
1999.999999999996
 10
941.28521771612
 20
1999.999999999996
 10
941.5468756419572
 20
1999.999999999996
  0
ARC
  5
11A
330
87
100
AcDbEntity
  8
P-SANR-FIXT
100
AcDbCircle
 10
950.5468756419553
 20
1999.999999999994
 30
0.0
 40
9.000000000006947
100
AcDbArc
 50
147.2660444508569
 51
152.7339555491363
  0
LINE
  5
11B
330
87
100
AcDbEntity
  8
P-SANR-FIXT
100
AcDbLine
 10
942.5468756419585
 20
2004.123105625634
 30
0.0
 11
942.5468756419585
 21
1995.876894374355
 31
0.0
  0
ARC
  5
11C
330
87
100
AcDbEntity
  8
P-SANR-FIXT
100
AcDbCircle
 10
950.5468756419553
 20
1999.999999999994
 30
0.0
 40
9.000000000006963
100
AcDbArc
 50
207.2660444508635
 51
212.7339555491338
  0
LINE
  5
11D
330
87
100
AcDbEntity
  8
P-SANR-FIXT
100
AcDbLine
 10
942.9761614276666
 20
1995.133349582542
 30
0.0
 11
950.1175898562474
 21
1991.010243956902
 31
0.0
  0
ARC
  5
11E
330
87
100
AcDbEntity
  8
P-SANR-FIXT
100
AcDbCircle
 10
950.5468756419553
 20
1999.999999999994
 30
0.0
 40
9.000000000007034
100
AcDbArc
 50
267.2660444508666
 51
272.7339555491392
  0
LINE
  5
11F
330
87
100
AcDbEntity
  8
P-SANR-FIXT
100
AcDbLine
 10
950.9761614276641
 20
1991.010243956902
 30
0.0
 11
958.1175898562435
 21
1995.133349582541
 31
0.0
  0
ARC
  5
120
330
87
100
AcDbEntity
  8
P-SANR-FIXT
100
AcDbCircle
 10
950.5468756419553
 20
1999.999999999994
 30
0.0
 40
9.00000000000705
100
AcDbArc
 50
327.26604445086
 51
332.7339555491482
  0
LINE
  5
121
330
87
100
AcDbEntity
  8
P-SANR-FIXT
100
AcDbLine
 10
958.5468756419528
 20
1995.876894374357
 30
0.0
 11
958.5468756419528
 21
2004.123105625632
 31
0.0
  0
ARC
  5
122
330
87
100
AcDbEntity
  8
P-SANR-FIXT
100
AcDbCircle
 10
950.5468756419553
 20
1999.999999999994
 30
0.0
 40
9.000000000006989
100
AcDbArc
 50
27.2660444508531
 51
32.73395554915057
  0
LINE
  5
123
330
87
100
AcDbEntity
  8
P-SANR-FIXT
100
AcDbLine
 10
958.1175898562424
 20
2004.866650417449
 30
0.0
 11
950.9761614276657
 21
2008.989756043087
 31
0.0
  0
ARC
  5
124
330
87
100
AcDbEntity
  8
P-SANR-FIXT
100
AcDbCircle
 10
950.5468756419553
 20
1999.999999999994
 30
0.0
 40
9.000000000006931
100
AcDbArc
 50
87.26604445085028
 51
92.73395554914459
  0
LINE
  5
125
330
87
100
AcDbEntity
  8
P-SANR-FIXT
100
AcDbLine
 10
950.1175898562456
 20
2008.989756043087
 30
0.0
 11
942.9761614276674
 21
2004.866650417449
 31
0.0
  0
LINE
  5
126
330
87
100
AcDbEntity
  8
P-SANR-FIXT
100
AcDbLine
 10
892.0468756419561
 20
1978.749999999995
 30
0.0
 11
892.0468756419563
 21
2021.249999999995
 31
0.0
  0
SPLINE
  5
127
330
87
100
AcDbEntity
  8
P-SANR-FIXT
100
AcDbSpline
210
0.0
220
0.0
230
1.0
 70
     8
 71
     3
 72
     9
 73
     5
 74
     0
 42
0.000000001
 43
0.0000000001
 40
-1.0
 40
-1.0
 40
-1.0
 40
-1.0
 40
-0.5
 40
0.0
 40
0.0
 40
0.0
 40
0.0
 10
893.6057213687682
 20
1976.104269117541
 30
0.0
 10
892.6627574494832
 20
1977.885699668059
 30
0.0
 10
891.7197935301981
 20
1981.425858452272
 30
0.0
 10
892.662757449483
 20
1984.920612602843
 30
0.0
 10
893.6057213687682
 20
1986.656638519718
 30
0.0
  0
SPLINE
  5
128
330
87
100
AcDbEntity
  8
P-SANR-FIXT
100
AcDbSpline
210
0.0
220
0.0
230
1.0
 70
     8
 71
     3
 72
     9
 73
     5
 74
     0
 42
0.000000001
 43
0.0000000001
 40
-1.0
 40
-1.0
 40
-1.0
 40
-1.0
 40
-0.5
 40
0.0
 40
0.0
 40
0.0
 40
0.0
 10
893.6057213687682
 20
1989.447630597818
 30
0.0
 10
892.6627574494832
 20
1993.010491698854
 30
0.0
 10
891.7197935301981
 20
2000.090809267281
 30
0.0
 10
892.6627574494832
 20
2007.080317568423
 30
0.0
 10
893.6057213687682
 20
2010.552369402172
 30
0.0
  0
SPLINE
  5
129
330
87
100
AcDbEntity
  8
P-SANR-FIXT
100
AcDbSpline
210
0.0
220
0.0
230
1.0
 70
     8
 71
     3
 72
     9
 73
     5
 74
     0
 42
0.000000001
 43
0.0000000001
 40
-1.0
 40
-1.0
 40
-1.0
 40
-1.0
 40
-0.5
 40
0.0
 40
0.0
 40
0.0
 40
0.0
 10
893.6057213687682
 20
2013.343361480272
 30
0.0
 10
892.6627574494832
 20
2015.124792030789
 30
0.0
 10
891.7197935301983
 20
2018.664950815004
 30
0.0
 10
892.6627574494832
 20
2022.159704965574
 30
0.0
 10
893.6057213687684
 20
2023.895730882449
 30
0.0
  0
LINE
  5
12A
330
87
100
AcDbEntity
  8
P-SANR-FIXT
100
AcDbLine
 10
903.3468756419566
 20
1976.104269117541
 30
0.0
 11
893.6057213687682
 21
1976.104269117541
 31
0.0
  0
LINE
  5
12B
330
87
100
AcDbEntity
  8
P-SANR-FIXT
100
AcDbLine
 10
893.6057213687682
 20
1976.049999999995
 30
0.0
 11
893.6057213687682
 21
1976.104269117541
 31
0.0
  0
LINE
  5
12C
330
87
100
AcDbEntity
  8
P-SANR-FIXT
100
AcDbLine
 10
893.6057213687684
 20
2023.895730882449
 30
0.0
 11
893.6057213687684
 21
2023.949999999995
 31
0.0
  0
LINE
  5
12D
330
87
100
AcDbEntity
  8
P-SANR-FIXT
100
AcDbLine
 10
893.6057213687684
 20
2023.895730882449
 30
0.0
 11
903.3468756419566
 21
2023.895730882449
 31
0.0
  0
LINE
  5
12E
330
87
100
AcDbEntity
  8
P-SANR-FIXT
100
AcDbLine
 10
893.6057213687682
 20
1986.656638519718
 30
0.0
 11
893.6057213687682
 21
1989.447630597818
 31
0.0
  0
LINE
  5
12F
330
87
100
AcDbEntity
  8
P-SANR-FIXT
100
AcDbLine
 10
893.6057213687682
 20
1986.656638519718
 30
0.0
 11
903.3468756419564
 21
1986.656638519718
 31
0.0
  0
LINE
  5
130
330
87
100
AcDbEntity
  8
P-SANR-FIXT
100
AcDbLine
 10
903.3468756419564
 20
1989.447630597818
 30
0.0
 11
893.6057213687682
 21
1989.447630597818
 31
0.0
  0
LINE
  5
131
330
87
100
AcDbEntity
  8
P-SANR-FIXT
100
AcDbLine
 10
893.6057213687682
 20
2010.552369402172
 30
0.0
 11
893.6057213687682
 21
2013.343361480272
 31
0.0
  0
LINE
  5
132
330
87
100
AcDbEntity
  8
P-SANR-FIXT
100
AcDbLine
 10
893.6057213687682
 20
2010.552369402172
 30
0.0
 11
903.3468756419566
 21
2010.552369402172
 31
0.0
  0
LINE
  5
133
330
87
100
AcDbEntity
  8
P-SANR-FIXT
100
AcDbLine
 10
903.3468756419566
 20
2013.343361480272
 30
0.0
 11
893.6057213687682
 21
2013.343361480272
 31
0.0
  0
LINE
  5
134
330
87
100
AcDbEntity
  8
P-SANR-FIXT
100
AcDbLine
 10
903.3468756419566
 20
2023.895730882449
 30
0.0
 11
903.3468756419566
 21
2023.949999999995
 31
0.0
  0
SPLINE
  5
135
330
87
100
AcDbEntity
  8
P-SANR-FIXT
100
AcDbSpline
210
0.0
220
0.0
230
1.0
 70
     8
 71
     3
 72
     9
 73
     5
 74
     0
 42
0.000000001
 43
0.0000000001
 40
-1.0
 40
-1.0
 40
-1.0
 40
-1.0
 40
-0.5
 40
0.0
 40
0.0
 40
0.0
 40
0.0
 10
903.3468756419566
 20
2023.895730882449
 30
0.0
 10
904.2898395612416
 20
2022.159704965574
 30
0.0
 10
905.2328034805267
 20
2018.664950815004
 30
0.0
 10
904.2898395612416
 20
2015.12479203079
 30
0.0
 10
903.3468756419566
 20
2013.343361480272
 30
0.0
  0
LINE
  5
136
330
87
100
AcDbEntity
  8
P-SANR-FIXT
100
AcDbLine
 10
903.3468756419566
 20
2010.552369402172
 30
0.0
 11
903.3468756419566
 21
2013.343361480272
 31
0.0
  0
SPLINE
  5
137
330
87
100
AcDbEntity
  8
P-SANR-FIXT
100
AcDbSpline
210
0.0
220
0.0
230
1.0
 70
     8
 71
     3
 72
     9
 73
     5
 74
     0
 42
0.000000001
 43
0.0000000001
 40
-1.0
 40
-1.0
 40
-1.0
 40
-1.0
 40
-0.5
 40
0.0
 40
0.0
 40
0.0
 40
0.0
 10
903.3468756419566
 20
2010.552369402172
 30
0.0
 10
904.2898395612416
 20
2007.080317568423
 30
0.0
 10
905.2328034805267
 20
2000.090809267281
 30
0.0
 10
904.2898395612414
 20
1993.010491698854
 30
0.0
 10
903.3468756419564
 20
1989.447630597818
 30
0.0
  0
LINE
  5
138
330
87
100
AcDbEntity
  8
P-SANR-FIXT
100
AcDbLine
 10
903.3468756419564
 20
1986.656638519718
 30
0.0
 11
903.3468756419564
 21
1989.447630597818
 31
0.0
  0
SPLINE
  5
139
330
87
100
AcDbEntity
  8
P-SANR-FIXT
100
AcDbSpline
210
0.0
220
0.0
230
1.0
 70
     8
 71
     3
 72
     9
 73
     5
 74
     0
 42
0.000000001
 43
0.0000000001
 40
-1.0
 40
-1.0
 40
-1.0
 40
-1.0
 40
-0.5
 40
0.0
 40
0.0
 40
0.0
 40
0.0
 10
903.3468756419564
 20
1986.656638519718
 30
0.0
 10
904.2898395612414
 20
1984.920612602843
 30
0.0
 10
905.2328034805267
 20
1981.425858452272
 30
0.0
 10
904.2898395612416
 20
1977.885699668059
 30
0.0
 10
903.3468756419566
 20
1976.104269117541
 30
0.0
  0
LINE
  5
13A
330
87
100
AcDbEntity
  8
P-SANR-FIXT
100
AcDbLine
 10
903.3468756419566
 20
1976.049999999995
 30
0.0
 11
903.3468756419566
 21
1976.104269117541
 31
0.0
  0
SPLINE
  5
13B
330
87
100
AcDbEntity
  8
P-SANR-FIXT
100
AcDbSpline
210
0.0
220
0.0
230
1.0
 70
     8
 71
     3
 72
     8
 73
     4
 74
     0
 42
0.000000001
 43
0.0000000001
 40
0.0
 40
0.0
 40
0.0
 40
0.0
 40
0.0065323813972559
 40
0.0065323813972559
 40
0.0065323813972559
 40
0.0065323813972559
 10
917.5468756419565
 20
1991.055728090003
 30
0.0
 10
917.4873606270763
 20
1991.063613071602
 30
0.0
 10
917.4280903678225
 20
1991.07195014619
 30
0.0
 10
917.3690680810732
 20
1991.080737120488
 30
0.0
  0
SPLINE
  5
13C
330
87
100
AcDbEntity
  8
P-SANR-FIXT
100
AcDbSpline
210
0.0
220
0.0
230
1.0
 70
     8
 71
     3
 72
     8
 73
     4
 74
     0
 42
0.000000001
 43
0.0000000001
 40
0.037037037037037
 40
0.037037037037037
 40
0.037037037037037
 40
0.037037037037037
 40
0.0503988421597375
 40
0.0503988421597375
 40
0.0503988421597375
 40
0.0503988421597375
 10
916.5587582161125
 20
1991.233045399608
 30
0.0
 10
916.4429104527526
 20
1991.259515843918
 30
0.0
 10
916.3281630528095
 20
1991.287825796432
 30
0.0
 10
916.2145435348676
 20
1991.317956487414
 30
0.0
  0
SPLINE
  5
13D
330
87
100
AcDbEntity
  8
P-SANR-FIXT
100
AcDbSpline
210
0.0
220
0.0
230
1.0
 70
     8
 71
     3
 72
     8
 73
     4
 74
     0
 42
0.000000001
 43
0.0000000001
 40
0.0740740740740741
 40
0.0740740740740741
 40
0.0740740740740741
 40
0.0740740740740741
 40
0.1111111111111111
 40
0.1111111111111111
 40
0.1111111111111111
 40
0.1111111111111111
 10
915.6210732597882
 20
1991.495519160209
 30
0.0
 10
915.3168681599421
 20
1991.597471505206
 30
0.0
 10
915.0205308942325
 20
1991.714583697589
 30
0.0
 10
914.7303029016102
 20
1991.849308463841
 30
0.0
  0
SPLINE
  5
13E
330
87
100
AcDbEntity
  8
P-SANR-FIXT
100
AcDbSpline
210
0.0
220
0.0
230
1.0
 70
     8
 71
     3
 72
     8
 73
     4
 74
     0
 42
0.000000001
 43
0.0000000001
 40
0.140982192645752
 40
0.140982192645752
 40
0.140982192645752
 40
0.140982192645752
 40
0.1481481481481481
 40
0.1481481481481481
 40
0.1481481481481481
 40
0.1481481481481481
 10
914.0415213193234
 20
1992.208192026426
 30
0.0
 10
913.9876391619536
 20
1992.239405093329
 30
0.0
 10
913.934073235905
 20
1992.271193434714
 30
0.0
 10
913.8808445214881
 20
1992.303536891317
 30
0.0
  0
SPLINE
  5
13F
330
87
100
AcDbEntity
  8
P-SANR-FIXT
100
AcDbSpline
210
0.0
220
0.0
230
1.0
 70
     8
 71
     3
 72
     8
 73
     4
 74
     0
 42
0.000000001
 43
0.0000000001
 40
0.1851851851851852
 40
0.1851851851851852
 40
0.1851851851851852
 40
0.1851851851851852
 40
0.1859301490789727
 40
0.1859301490789727
 40
0.1859301490789727
 40
0.1859301490789727
 10
913.0851729091013
 20
1992.846990930648
 30
0.0
 10
913.0800495150143
 20
1992.850904014971
 30
0.0
 10
913.0749305159771
 20
1992.85482238107
 30
0.0
 10
913.06981591866
 20
1992.858746022714
 30
0.0
  0
SPLINE
  5
140
330
87
100
AcDbEntity
  8
P-SANR-FIXT
100
AcDbSpline
210
0.0
220
0.0
230
1.0
 70
     8
 71
     3
 72
     8
 73
     4
 74
     0
 42
0.000000001
 43
0.0000000001
 40
0.2222222222222222
 40
0.2222222222222222
 40
0.2222222222222222
 40
0.2222222222222222
 40
0.2311441872214243
 40
0.2311441872214243
 40
0.2311441872214243
 40
0.2311441872214243
 10
912.3544303692915
 20
1993.46902598803
 30
0.0
 10
912.2985016347749
 20
1993.521996000156
 30
0.0
 10
912.2432509091639
 20
1993.575679143199
 30
0.0
 10
912.1886940590446
 20
1993.630062452567
 30
0.0
  0
SPLINE
  5
141
330
87
100
AcDbEntity
  8
P-SANR-FIXT
100
AcDbSpline
210
0.0
220
0.0
230
1.0
 70
     8
 71
     3
 72
     8
 73
     4
 74
     0
 42
0.000000001
 43
0.0000000001
 40
0.2592592592592593
 40
0.2592592592592593
 40
0.2592592592592593
 40
0.2592592592592593
 40
0.2962962962962963
 40
0.2962962962962963
 40
0.2962962962962963
 40
0.2962962962962963
 10
911.6940921126564
 20
1994.164638792264
 30
0.0
 10
911.4864186731008
 20
1994.40818095365
 30
0.0
 10
911.2915685261526
 20
1994.663082927141
 30
0.0
 10
911.1106738986562
 20
1994.928418862929
 30
0.0
  0
SPLINE
  5
142
330
87
100
AcDbEntity
  8
P-SANR-FIXT
100
AcDbSpline
210
0.0
220
0.0
230
1.0
 70
     8
 71
     3
 72
     8
 73
     4
 74
     0
 42
0.000000001
 43
0.0000000001
 40
0.367124719845102
 40
0.367124719845102
 40
0.367124719845102
 40
0.367124719845102
 40
0.3703703703703703
 40
0.3703703703703703
 40
0.3703703703703703
 40
0.3703703703703703
 10
910.2334110532144
 20
1996.557610675748
 30
0.0
 10
910.2225505465568
 20
1996.583961554393
 30
0.0
 10
910.2118088517462
 20
1996.610369361395
 30
0.0
 10
910.2011863420264
 20
1996.636832499888
 30
0.0
  0
SPLINE
  5
143
330
87
100
AcDbEntity
  8
P-SANR-FIXT
100
AcDbSpline
210
0.0
220
0.0
230
1.0
 70
     8
 71
     3
 72
     8
 73
     4
 74
     0
 42
0.000000001
 43
0.0000000001
 40
0.4074074074074074
 40
0.4074074074074074
 40
0.4074074074074074
 40
0.4074074074074074
 40
0.4114788928487496
 40
0.4114788928487496
 40
0.4114788928487496
 40
0.4114788928487496
 10
909.8847783225586
 20
1997.562239922274
 30
0.0
 10
909.8749596087113
 20
1997.596807124487
 30
0.0
 10
909.8653441883598
 20
1997.63144213731
 30
0.0
 10
909.8559344698411
 20
1997.666144090367
 30
0.0
  0
SPLINE
  5
144
330
87
100
AcDbEntity
  8
P-SANR-FIXT
100
AcDbSpline
210
0.0
220
0.0
230
1.0
 70
     8
 71
     3
 72
     8
 73
     4
 74
     0
 42
0.000000001
 43
0.0000000001
 40
0.4444444444444445
 40
0.4444444444444445
 40
0.4444444444444445
 40
0.4444444444444445
 40
0.4559229280407311
 40
0.4559229280407311
 40
0.4559229280407311
 40
0.4559229280407311
 10
909.6691052936872
 20
1998.521759950687
 30
0.0
 10
909.6524335424099
 20
1998.622475032525
 30
0.0
 10
909.6375477553731
 20
1998.723670428956
 30
0.0
 10
909.6244304414042
 20
1998.825222411097
 30
0.0
  0
SPLINE
  5
145
330
87
100
AcDbEntity
  8
P-SANR-FIXT
100
AcDbSpline
210
0.0
220
0.0
230
1.0
 70
     8
 71
     3
 72
     9
 73
     5
 74
     0
 42
0.000000001
 43
0.0000000001
 40
0.4814814814814815
 40
0.4814814814814815
 40
0.4814814814814815
 40
0.4814814814814815
 40
0.5138888888888889
 40
0.5185185185185186
 40
0.5185185185185186
 40
0.5185185185185186
 40
0.5185185185185186
 10
909.5631611190963
 20
1999.507341277809
 30
0.0
 10
909.5481777400809
 20
1999.796761014714
 30
0.0
 10
909.5465489895817
 20
2000.12848373522
 30
0.0
 10
909.5624537396631
 20
2000.457327412345
 30
0.0
 10
909.5647155600874
 20
2000.498388236639
 30
0.0
  0
SPLINE
  5
146
330
87
100
AcDbEntity
  8
P-SANR-FIXT
100
AcDbSpline
210
0.0
220
0.0
230
1.0
 70
     8
 71
     3
 72
     8
 73
     4
 74
     0
 42
0.000000001
 43
0.0000000001
 40
0.5440392907311118
 40
0.5440392907311118
 40
0.5440392907311118
 40
0.5440392907311118
 40
0.5555555555555556
 40
0.5555555555555556
 40
0.5555555555555556
 40
0.5555555555555556
 10
909.6262623517926
 20
2001.174106143231
 30
0.0
 10
909.6392864681556
 20
2001.275129039481
 30
0.0
 10
909.6540777168156
 20
2001.375810063767
 30
0.0
 10
909.6706039286882
 20
2001.476184617384
 30
0.0
  0
SPLINE
  5
147
330
87
100
AcDbEntity
  8
P-SANR-FIXT
100
AcDbSpline
210
0.0
220
0.0
230
1.0
 70
     8
 71
     3
 72
     8
 73
     4
 74
     0
 42
0.000000001
 43
0.0000000001
 40
0.5884596661700491
 40
0.5884596661700491
 40
0.5884596661700491
 40
0.5884596661700491
 40
0.5925925925925926
 40
0.5925925925925926
 40
0.5925925925925926
 40
0.5925925925925926
 10
909.8543331467277
 20
2002.32952848184
 30
0.0
 10
909.8638346779852
 20
2002.364908604949
 30
0.0
 10
909.873540707095
 20
2002.400261410822
 30
0.0
 10
909.883452110038
 20
2002.435577572008
 30
0.0
  0
SPLINE
  5
148
330
87
100
AcDbEntity
  8
P-SANR-FIXT
100
AcDbSpline
210
0.0
220
0.0
230
1.0
 70
     8
 71
     3
 72
     8
 73
     4
 74
     0
 42
0.000000001
 43
0.0000000001
 40
0.6296296296296296
 40
0.6296296296296296
 40
0.6296296296296296
 40
0.6296296296296296
 40
0.6327728697983716
 40
0.6327728697983716
 40
0.6327728697983716
 40
0.6327728697983716
 10
910.2021984548237
 20
2003.367110190005
 30
0.0
 10
910.2126016504739
 20
2003.392886806209
 30
0.0
 10
910.2231034842468
 20
2003.418622568011
 30
0.0
 10
910.2337082777049
 20
2003.444308382322
 30
0.0
  0
SPLINE
  5
149
330
87
100
AcDbEntity
  8
P-SANR-FIXT
100
AcDbSpline
210
0.0
220
0.0
230
1.0
 70
     8
 71
     3
 72
     9
 73
     5
 74
     0
 42
0.000000001
 43
0.0000000001
 40
0.7037037037037035
 40
0.7037037037037035
 40
0.7037037037037035
 40
0.7037037037037035
 40
0.7222222222222223
 40
0.7407407407407405
 40
0.7407407407407405
 40
0.7407407407407405
 40
0.7407407407407405
 10
911.1131918475326
 20
2005.074177027842
 30
0.0
 10
911.2033614372736
 20
2005.206359666646
 30
0.0
 10
911.3927109030575
 20
2005.462736975301
 30
0.0
 10
911.5884849738375
 20
2005.721088054706
 30
0.0
 10
911.6885935535551
 20
2005.849286341085
 30
0.0
  0
SPLINE
  5
14A
330
87
100
AcDbEntity
  8
P-SANR-FIXT
100
AcDbSpline
210
0.0
220
0.0
230
1.0
 70
     8
 71
     3
 72
     8
 73
     4
 74
     0
 42
0.000000001
 43
0.0000000001
 40
0.7688051532725986
 40
0.7688051532725986
 40
0.7688051532725986
 40
0.7688051532725986
 40
0.7777777777777775
 40
0.7777777777777775
 40
0.7777777777777775
 40
0.7777777777777775
 10
912.1919457715735
 20
2006.372770848361
 30
0.0
 10
912.2470414293006
 20
2006.42773185406
 30
0.0
 10
912.3023547397808
 20
2006.482820204628
 30
0.0
 10
912.3580049697784
 20
2006.537771339459
 30
0.0
  0
SPLINE
  5
14B
330
87
100
AcDbEntity
  8
P-SANR-FIXT
100
AcDbSpline
210
0.0
220
0.0
230
1.0
 70
     8
 71
     3
 72
     8
 73
     4
 74
     0
 42
0.000000001
 43
0.0000000001
 40
0.8140310166751135
 40
0.8140310166751135
 40
0.8140310166751135
 40
0.8140310166751135
 40
0.8148148148148145
 40
0.8148148148148145
 40
0.8148148148148145
 40
0.8148148148148145
 10
913.0759604013253
 20
2007.147459200538
 30
0.0
 10
913.0813439050855
 20
2007.151591820976
 30
0.0
 10
913.0867282213856
 20
2007.155724899281
 30
0.0
 10
913.0921135183319
 20
2007.159858086078
 30
0.0
  0
SPLINE
  5
14C
330
87
100
AcDbEntity
  8
P-SANR-FIXT
100
AcDbSpline
210
0.0
220
0.0
230
1.0
 70
     8
 71
     3
 72
     8
 73
     4
 74
     0
 42
0.000000001
 43
0.0000000001
 40
0.8518518518518513
 40
0.8518518518518513
 40
0.8518518518518513
 40
0.8518518518518513
 40
0.8589852206442078
 40
0.8589852206442078
 40
0.8589852206442078
 40
0.8589852206442078
 10
913.8848938415206
 20
2007.70045149672
 30
0.0
 10
913.9375026568718
 20
2007.732265812515
 30
0.0
 10
913.9901379157311
 20
2007.764033713038
 30
0.0
 10
914.0434418069368
 20
2007.79451713503
 30
0.0
  0
SPLINE
  5
14D
330
87
100
AcDbEntity
  8
P-SANR-FIXT
100
AcDbSpline
210
0.0
220
0.0
230
1.0
 70
     8
 71
     3
 72
     8
 73
     4
 74
     0
 42
0.000000001
 43
0.0000000001
 40
0.8888888888888883
 40
0.8888888888888883
 40
0.8888888888888883
 40
0.8888888888888883
 40
0.9259259259259254
 40
0.9259259259259254
 40
0.9259259259259254
 40
0.9259259259259254
 10
914.7284282015126
 20
2008.148608006083
 30
0.0
 10
915.0175620595772
 20
2008.282254177045
 30
0.0
 10
915.3253990882268
 20
2008.380882063567
 30
0.0
 10
915.6412451064268
 20
2008.464430259913
 30
0.0
  0
SPLINE
  5
14E
330
87
100
AcDbEntity
  8
P-SANR-FIXT
100
AcDbSpline
210
0.0
220
0.0
230
1.0
 70
     8
 71
     3
 72
     8
 73
     4
 74
     0
 42
0.000000001
 43
0.0000000001
 40
0.9495858835157655
 40
0.9495858835157655
 40
0.9495858835157655
 40
0.9495858835157655
 40
0.9629629629629622
 40
0.9629629629629622
 40
0.9629629629629622
 40
0.9629629629629622
 10
916.2143018369986
 20
2008.682335029518
 30
0.0
 10
916.32820278524
 20
2008.712646323476
 30
0.0
 10
916.4447009152189
 20
2008.738286580904
 30
0.0
 10
916.5625657568611
 20
2008.761465227965
 30
0.0
  0
SPLINE
  5
14F
330
87
100
AcDbEntity
  8
P-SANR-FIXT
100
AcDbSpline
210
0.0
220
0.0
230
1.0
 70
     8
 71
     3
 72
     8
 73
     4
 74
     0
 42
0.000000001
 43
0.0000000001
 40
0.9934656227348316
 40
0.9934656227348316
 40
0.9934656227348316
 40
0.9934656227348316
 40
1.0
 40
1.0
 40
1.0
 40
1.0
 10
917.3690897081559
 20
2008.919308105475
 30
0.0
 10
917.4280996614983
 20
2008.928069286898
 30
0.0
 10
917.4873615541557
 20
2008.936389634345
 30
0.0
 10
917.5468756419565
 20
2008.944271910001
 30
0.0
  0
SPLINE
  5
150
330
87
100
AcDbEntity
  8
P-SANR-FIXT
100
AcDbSpline
210
0.0
220
0.0
230
1.0
 70
     8
 71
     3
 72
    15
 73
    11
 74
     0
 42
0.000000001
 43
0.0000000001
 40
0.0
 40
0.0
 40
0.0
 40
0.0
 40
0.25
 40
0.375
 40
0.4375
 40
0.5
 40
0.5625
 40
0.625
 40
0.75
 40
1.0
 40
1.0
 40
1.0
 40
1.0
 10
917.5468756419569
 20
2012.999999999994
 30
0.0
 10
916.9131491176704
 20
2013.801298372546
 30
0.0
 10
916.0465023013678
 20
2014.92032261858
 30
0.0
 10
915.1444664952787
 20
2016.018548735917
 30
0.0
 10
914.6721997163027
 20
2016.579105106255
 30
0.0
 10
914.3533690202881
 20
2016.964201448373
 30
0.0
 10
914.0646464184479
 20
2017.312320529397
 30
0.0
 10
913.7118859158873
 20
2017.723466477924
 30
0.0
 10
913.2234401258259
 20
2018.292534839819
 30
0.0
 10
913.0577785631246
 20
2018.499999999995
 30
0.0
 10
913.0468756419558
 20
2018.499999999995
 30
0.0
  0
LINE
  5
151
330
87
100
AcDbEntity
  8
P-SANR-FIXT
100
AcDbLine
 10
917.5468756419565
 20
1981.499999999995
 30
0.0
 11
917.5468756419565
 21
1991.055728090003
 31
0.0
  0
SPLINE
  5
152
330
87
100
AcDbEntity
  8
P-SANR-FIXT
100
AcDbSpline
210
0.0
220
0.0
230
1.0
 70
     8
 71
     3
 72
     9
 73
     5
 74
     0
 42
0.000000001
 43
0.0000000001
 40
-1.0
 40
-1.0
 40
-1.0
 40
-1.0
 40
-0.5
 40
0.0
 40
0.0
 40
0.0
 40
0.0
 10
918.5468756419568
 20
2009.999999999994
 30
0.0
 10
918.3928505259958
 20
2010.515399131961
 30
0.0
 10
918.0704630488278
 20
2011.530798263929
 30
0.0
 10
917.7243822013121
 20
2012.515399131961
 30
0.0
 10
917.5468756419569
 20
2012.999999999994
 30
0.0
  0
LINE
  5
153
330
87
100
AcDbEntity
  8
P-SANR-FIXT
100
AcDbLine
 10
917.5468756419565
 20
2008.944271910001
 30
0.0
 11
917.5468756419565
 21
2012.999999999994
 31
0.0
  0
SPLINE
  5
154
330
87
100
AcDbEntity
  8
P-SANR-FIXT
100
AcDbSpline
210
0.0
220
0.0
230
1.0
 70
     8
 71
     3
 72
     8
 73
     4
 74
     0
 42
0.000000001
 43
0.0000000001
 40
0.0714285714285714
 40
0.0714285714285714
 40
0.0714285714285714
 40
0.0714285714285714
 40
0.0814912943537187
 40
0.0814912943537187
 40
0.0814912943537187
 40
0.0814912943537187
 10
927.4861508437917
 20
1998.96774137972
 30
0.0
 10
927.4806906755943
 20
1998.919923352422
 30
0.0
 10
927.4748595870811
 20
1998.872195754052
 30
0.0
 10
927.468656113294
 20
1998.824557750252
 30
0.0
  0
SPLINE
  5
155
330
87
100
AcDbEntity
  8
P-SANR-FIXT
100
AcDbSpline
210
0.0
220
0.0
230
1.0
 70
     8
 71
     3
 72
     8
 73
     4
 74
     0
 42
0.000000001
 43
0.0000000001
 40
0.1428571428571428
 40
0.1428571428571428
 40
0.1428571428571428
 40
0.1428571428571428
 40
0.1642123120988281
 40
0.1642123120988281
 40
0.1642123120988281
 40
0.1642123120988281
 10
927.3132846277141
 20
1997.96282708284
 30
0.0
 10
927.2903654712889
 20
1997.863982334088
 30
0.0
 10
927.2657289116159
 20
1997.765518248132
 30
0.0
 10
927.2394168231793
 20
1997.667511431334
 30
0.0
  0
SPLINE
  5
156
330
87
100
AcDbEntity
  8
P-SANR-FIXT
100
AcDbSpline
210
0.0
220
0.0
230
1.0
 70
     8
 71
     3
 72
     8
 73
     4
 74
     0
 42
0.000000001
 43
0.0000000001
 40
0.2142857142857143
 40
0.2142857142857143
 40
0.2142857142857143
 40
0.2142857142857143
 40
0.2857142857142857
 40
0.2857142857142857
 40
0.2857142857142857
 40
0.2857142857142857
 10
927.0272345751246
 20
1996.986620734265
 30
0.0
 10
926.9137155305747
 20
1996.667388417391
 30
0.0
 10
926.7825466292491
 20
1996.355285831002
 30
0.0
 10
926.6352976162083
 20
1996.053174697759
 30
0.0
  0
SPLINE
  5
157
330
87
100
AcDbEntity
  8
P-SANR-FIXT
100
AcDbSpline
210
0.0
220
0.0
230
1.0
 70
     8
 71
     3
 72
     8
 73
     4
 74
     0
 42
0.000000001
 43
0.0000000001
 40
0.4150184186304969
 40
0.4150184186304969
 40
0.4150184186304969
 40
0.4150184186304969
 40
0.4285714285714285
 40
0.4285714285714285
 40
0.4285714285714285
 40
0.4285714285714285
 10
925.683852304712
 20
1994.516440757892
 30
0.0
 10
925.6455306767572
 20
1994.46657934982
 30
0.0
 10
925.6067001228817
 20
1994.417139723434
 30
0.0
 10
925.5673679259677
 20
1994.368128484777
 30
0.0
  0
SPLINE
  5
158
330
87
100
AcDbEntity
  8
P-SANR-FIXT
100
AcDbSpline
210
0.0
220
0.0
230
1.0
 70
     8
 71
     3
 72
     8
 73
     4
 74
     0
 42
0.000000001
 43
0.0000000001
 40
0.5714285714285714
 40
0.5714285714285714
 40
0.5714285714285714
 40
0.5714285714285714
 40
0.5837132195976813
 40
0.5837132195976813
 40
0.5837132195976813
 40
0.5837132195976813
 10
924.1649349546921
 20
1992.968825876246
 30
0.0
 10
924.1204335068013
 20
1992.933248894215
 30
0.0
 10
924.0755828453561
 20
1992.898081552408
 30
0.0
 10
924.0303907755633
 20
1992.863331416925
 30
0.0
  0
SPLINE
  5
159
330
87
100
AcDbEntity
  8
P-SANR-FIXT
100
AcDbSpline
210
0.0
220
0.0
230
1.0
 70
     8
 71
     3
 72
     8
 73
     4
 74
     0
 42
0.000000001
 43
0.0000000001
 40
0.6428571428571427
 40
0.6428571428571427
 40
0.6428571428571427
 40
0.6428571428571427
 40
0.6681399982868099
 40
0.6681399982868099
 40
0.6681399982868099
 40
0.6681399982868099
 10
923.3548104883913
 20
1992.391243077619
 30
0.0
 10
923.2554079561488
 20
1992.328353098794
 30
0.0
 10
923.1547137814837
 20
1992.267396340977
 30
0.0
 10
923.052800605588
 20
1992.208426112492
 30
0.0
  0
SPLINE
  5
15A
330
87
100
AcDbEntity
  8
P-SANR-FIXT
100
AcDbSpline
210
0.0
220
0.0
230
1.0
 70
     8
 71
     3
 72
     9
 73
     5
 74
     0
 42
0.000000001
 43
0.0000000001
 40
0.7142857142857141
 40
0.7142857142857141
 40
0.7142857142857141
 40
0.7142857142857141
 40
0.7321428571428572
 40
0.7857142857142857
 40
0.7857142857142857
 40
0.7857142857142857
 40
0.7857142857142857
 10
922.4834358368637
 20
1991.906523842278
 30
0.0
 10
922.4086420876755
 20
1991.87043404137
 30
0.0
 10
922.1071469060355
 20
1991.73047760399
 30
0.0
 10
921.7936639661443
 20
1991.602312012338
 30
0.0
 10
921.553973721623
 20
1991.517960965141
 30
0.0
  0
SPLINE
  5
15B
330
87
100
AcDbEntity
  8
P-SANR-FIXT
100
AcDbSpline
210
0.0
220
0.0
230
1.0
 70
     8
 71
     3
 72
     9
 73
     5
 74
     0
 42
0.000000001
 43
0.0000000001
 40
0.8354436494855299
 40
0.8354436494855299
 40
0.8354436494855299
 40
0.8354436494855299
 40
0.8392857142857142
 40
0.8571428571428569
 40
0.8571428571428569
 40
0.8571428571428569
 40
0.8571428571428569
 10
920.8787503522611
 20
1991.306886403881
 30
0.0
 10
920.8611905520625
 20
1991.302175752842
 30
0.0
 10
920.761926772387
 20
1991.276027165509
 30
0.0
 10
920.6628031590991
 20
1991.250375104963
 30
0.0
 10
920.5809787261134
 20
1991.230527331573
 30
0.0
  0
SPLINE
  5
15C
330
87
100
AcDbEntity
  8
P-SANR-FIXT
100
AcDbSpline
210
0.0
220
0.0
230
1.0
 70
     8
 71
     3
 72
     8
 73
     4
 74
     0
 42
0.000000001
 43
0.0000000001
 40
0.9184836528307707
 40
0.9184836528307707
 40
0.9184836528307707
 40
0.9184836528307707
 40
0.9285714285714282
 40
0.9285714285714282
 40
0.9285714285714282
 40
0.9285714285714282
 10
919.7233332178482
 20
1991.079998380479
 30
0.0
 10
919.6756908913114
 20
1991.073817645299
 30
0.0
 10
919.6277467951381
 20
1991.068618225386
 30
0.0
 10
919.579572203475
 20
1991.064168154609
 30
0.0
  0
LINE
  5
15D
330
87
100
AcDbEntity
  8
P-SANR-FIXT
100
AcDbLine
 10
918.5468756419567
 20
1982.499999999995
 30
0.0
 11
918.5468756419567
 21
1991.000000000002
 31
0.0
  0
SPLINE
  5
15E
330
87
100
AcDbEntity
  8
P-SANR-FIXT
100
AcDbSpline
210
0.0
220
0.0
230
1.0
 70
     8
 71
     3
 72
     9
 73
     5
 74
     0
 42
0.000000001
 43
0.0000000001
 40
0.0
 40
0.0
 40
0.0
 40
0.0
 40
0.5
 40
1.0
 40
1.0
 40
1.0
 40
1.0
 10
919.1644641118351
 20
2008.978785245338
 30
0.0
 10
919.0632105244565
 20
2009.15193562591
 30
0.0
 10
918.8590255254316
 20
2009.495460366764
 30
0.0
 10
918.6514848778712
 20
2009.832917694627
 30
0.0
 10
918.5468756419568
 20
2009.999999999994
 30
0.0
  0
LINE
  5
15F
330
87
100
AcDbEntity
  8
P-SANR-FIXT
100
AcDbLine
 10
918.5468756419567
 20
2009.000000000002
 30
0.0
 11
918.5468756419567
 21
2009.999999999994
 31
0.0
  0
SPLINE
  5
160
330
87
100
AcDbEntity
  8
P-SANR-FIXT
100
AcDbSpline
210
0.0
220
0.0
230
1.0
 70
     8
 71
     3
 72
     9
 73
     5
 74
     0
 42
0.000000001
 43
0.0000000001
 40
0.0
 40
0.0
 40
0.0
 40
0.0
 40
0.5
 40
1.0
 40
1.0
 40
1.0
 40
1.0
 10
950.546875641956
 20
2009.999999999995
 30
0.0
 10
950.4422664060417
 20
2009.832917694629
 30
0.0
 10
950.2347257584807
 20
2009.495460366766
 30
0.0
 10
950.0305407594554
 20
2009.15193562591
 30
0.0
 10
949.9292871720768
 20
2008.978785245338
 30
0.0
  0
LINE
  5
161
330
87
100
AcDbEntity
  8
P-SANR-FIXT
100
AcDbLine
 10
950.5468756419558
 20
1982.499999999994
 30
0.0
 11
950.5468756419558
 21
1991.000000000002
 31
0.0
  0
SPLINE
  5
162
330
87
100
AcDbEntity
  8
P-SANR-FIXT
100
AcDbSpline
210
0.0
220
0.0
230
1.0
 70
     8
 71
     3
 72
     9
 73
     5
 74
     0
 42
0.000000001
 43
0.0000000001
 40
-1.0
 40
-1.0
 40
-1.0
 40
-1.0
 40
-0.5
 40
0.0
 40
0.0
 40
0.0
 40
0.0
 10
951.5468756419563
 20
2012.999999999995
 30
0.0
 10
951.3693690826009
 20
2012.515399131963
 30
0.0
 10
951.0232882350848
 20
2011.53079826393
 30
0.0
 10
950.7009007579169
 20
2010.515399131963
 30
0.0
 10
950.5468756419562
 20
2009.999999999995
 30
0.0
  0
LINE
  5
163
330
87
100
AcDbEntity
  8
P-SANR-FIXT
100
AcDbLine
 10
950.5468756419558
 20
2009.000000000002
 30
0.0
 11
950.5468756419558
 21
2009.999999999995
 31
0.0
  0
SPLINE
  5
164
330
87
100
AcDbEntity
  8
P-SANR-FIXT
100
AcDbSpline
210
0.0
220
0.0
230
1.0
 70
     8
 71
     3
 72
    14
 73
    10
 74
     0
 42
0.000000001
 43
0.0000000001
 40
0.0
 40
0.0
 40
0.0
 40
0.0
 40
0.25
 40
0.375
 40
0.5
 40
0.5625
 40
0.625
 40
0.75
 40
1.0
 40
1.0
 40
1.0
 40
1.0
 10
956.046875641956
 20
2018.499999999995
 30
0.0
 10
956.0359727207872
 20
2018.499999999995
 30
0.0
 10
955.8713659687086
 20
2018.292559756895
 30
0.0
 10
955.3103293803115
 20
2017.642129469193
 30
0.0
 10
954.8457238968769
 20
2017.092544802606
 30
0.0
 10
954.4217238533446
 20
2016.579109176044
 30
0.0
 10
953.9491863396422
 20
2016.018546410323
 30
0.0
 10
953.0473228192885
 20
2014.920324362777
 30
0.0
 10
952.1806021662422
 20
2013.801298372547
 30
0.0
 10
951.5468756419561
 20
2012.999999999995
 30
0.0
  0
LINE
  5
165
330
87
100
AcDbEntity
  8
P-SANR-FIXT
100
AcDbLine
 10
951.5468756419561
 20
2008.944271910001
 30
0.0
 11
951.5468756419561
 21
2012.999999999995
 31
0.0
  0
LINE
  5
166
330
87
100
AcDbEntity
  8
P-SANR-FIXT
100
AcDbLine
 10
951.5468756419561
 20
1981.499999999994
 30
0.0
 11
951.5468756419561
 21
1991.055728090002
 31
0.0
  0
SPLINE
  5
167
330
87
100
AcDbEntity
  8
P-SANR-FIXT
100
AcDbSpline
210
0.0
220
0.0
230
1.0
 70
     8
 71
     3
 72
     9
 73
     5
 74
     0
 42
0.000000001
 43
0.0000000001
 40
-1.0
 40
-1.0
 40
-1.0
 40
-1.0
 40
-0.5
 40
0.0
 40
0.0
 40
0.0
 40
0.0
 10
965.7468756419559
 20
1976.104269117541
 30
0.0
 10
964.8039117226709
 20
1977.885699668058
 30
0.0
 10
963.8609478033858
 20
1981.425858452272
 30
0.0
 10
964.8039117226707
 20
1984.920612602843
 30
0.0
 10
965.7468756419559
 20
1986.656638519718
 30
0.0
  0
SPLINE
  5
168
330
87
100
AcDbEntity
  8
P-SANR-FIXT
100
AcDbSpline
210
0.0
220
0.0
230
1.0
 70
     8
 71
     3
 72
     9
 73
     5
 74
     0
 42
0.000000001
 43
0.0000000001
 40
-1.0
 40
-1.0
 40
-1.0
 40
-1.0
 40
-0.5
 40
0.0
 40
0.0
 40
0.0
 40
0.0
 10
965.7468756419559
 20
1989.447630597817
 30
0.0
 10
964.8039117226709
 20
1993.010491698853
 30
0.0
 10
963.8609478033858
 20
2000.090809267281
 30
0.0
 10
964.8039117226709
 20
2007.080317568423
 30
0.0
 10
965.7468756419559
 20
2010.552369402172
 30
0.0
  0
SPLINE
  5
169
330
87
100
AcDbEntity
  8
P-SANR-FIXT
100
AcDbSpline
210
0.0
220
0.0
230
1.0
 70
     8
 71
     3
 72
     9
 73
     5
 74
     0
 42
0.000000001
 43
0.0000000001
 40
-1.0
 40
-1.0
 40
-1.0
 40
-1.0
 40
-0.5
 40
0.0
 40
0.0
 40
0.0
 40
0.0
 10
965.7468756419559
 20
2013.343361480272
 30
0.0
 10
964.803911722671
 20
2015.124792030789
 30
0.0
 10
963.8609478033862
 20
2018.664950815004
 30
0.0
 10
964.8039117226712
 20
2022.159704965574
 30
0.0
 10
965.7468756419561
 20
2023.895730882449
 30
0.0
  0
LINE
  5
16A
330
87
100
AcDbEntity
  8
P-SANR-FIXT
100
AcDbLine
 10
965.7468756419559
 20
1986.656638519718
 30
0.0
 11
965.7468756419559
 21
1989.447630597817
 31
0.0
  0
LINE
  5
16B
330
87
100
AcDbEntity
  8
P-SANR-FIXT
100
AcDbLine
 10
965.7468756419559
 20
1986.656638519718
 30
0.0
 11
975.4880299151436
 21
1986.656638519718
 31
0.0
  0
LINE
  5
16C
330
87
100
AcDbEntity
  8
P-SANR-FIXT
100
AcDbLine
 10
975.4880299151436
 20
1989.447630597817
 30
0.0
 11
965.7468756419559
 21
1989.447630597817
 31
0.0
  0
LINE
  5
16D
330
87
100
AcDbEntity
  8
P-SANR-FIXT
100
AcDbLine
 10
965.7468756419559
 20
2010.552369402172
 30
0.0
 11
965.7468756419559
 21
2013.343361480272
 31
0.0
  0
LINE
  5
16E
330
87
100
AcDbEntity
  8
P-SANR-FIXT
100
AcDbLine
 10
965.7468756419559
 20
2010.552369402172
 30
0.0
 11
975.4880299151437
 21
2010.552369402172
 31
0.0
  0
LINE
  5
16F
330
87
100
AcDbEntity
  8
P-SANR-FIXT
100
AcDbLine
 10
975.4880299151437
 20
2013.343361480272
 30
0.0
 11
965.7468756419559
 21
2013.343361480272
 31
0.0
  0
LINE
  5
170
330
87
100
AcDbEntity
  8
P-SANR-FIXT
100
AcDbLine
 10
975.4880299151437
 20
1976.104269117541
 30
0.0
 11
965.7468756419559
 21
1976.104269117541
 31
0.0
  0
LINE
  5
171
330
87
100
AcDbEntity
  8
P-SANR-FIXT
100
AcDbLine
 10
965.7468756419559
 20
1976.049999999995
 30
0.0
 11
965.7468756419559
 21
1976.104269117541
 31
0.0
  0
LINE
  5
172
330
87
100
AcDbEntity
  8
P-SANR-FIXT
100
AcDbLine
 10
965.7468756419561
 20
2023.895730882449
 30
0.0
 11
965.7468756419561
 21
2023.949999999995
 31
0.0
  0
LINE
  5
173
330
87
100
AcDbEntity
  8
P-SANR-FIXT
100
AcDbLine
 10
965.7468756419561
 20
2023.895730882449
 30
0.0
 11
975.4880299151439
 21
2023.895730882449
 31
0.0
  0
LINE
  5
174
330
87
100
AcDbEntity
  8
P-SANR-FIXT
100
AcDbLine
 10
975.4880299151439
 20
2023.895730882449
 30
0.0
 11
975.4880299151439
 21
2023.949999999995
 31
0.0
  0
SPLINE
  5
175
330
87
100
AcDbEntity
  8
P-SANR-FIXT
100
AcDbSpline
210
0.0
220
0.0
230
1.0
 70
     8
 71
     3
 72
     9
 73
     5
 74
     0
 42
0.000000001
 43
0.0000000001
 40
-1.0
 40
-1.0
 40
-1.0
 40
-1.0
 40
-0.5
 40
0.0
 40
0.0
 40
0.0
 40
0.0
 10
975.4880299151439
 20
2023.895730882449
 30
0.0
 10
976.4309938344288
 20
2022.159704965574
 30
0.0
 10
977.3739577537138
 20
2018.664950815004
 30
0.0
 10
976.4309938344286
 20
2015.124792030789
 30
0.0
 10
975.4880299151437
 20
2013.343361480272
 30
0.0
  0
LINE
  5
176
330
87
100
AcDbEntity
  8
P-SANR-FIXT
100
AcDbLine
 10
975.4880299151437
 20
2010.552369402172
 30
0.0
 11
975.4880299151437
 21
2013.343361480272
 31
0.0
  0
SPLINE
  5
177
330
87
100
AcDbEntity
  8
P-SANR-FIXT
100
AcDbSpline
210
0.0
220
0.0
230
1.0
 70
     8
 71
     3
 72
     9
 73
     5
 74
     0
 42
0.000000001
 43
0.0000000001
 40
-1.0
 40
-1.0
 40
-1.0
 40
-1.0
 40
-0.5
 40
0.0
 40
0.0
 40
0.0
 40
0.0
 10
975.4880299151437
 20
2010.552369402172
 30
0.0
 10
976.4309938344288
 20
2007.080317568423
 30
0.0
 10
977.3739577537138
 20
2000.090809267281
 30
0.0
 10
976.4309938344286
 20
1993.010491698853
 30
0.0
 10
975.4880299151436
 20
1989.447630597817
 30
0.0
  0
LINE
  5
178
330
87
100
AcDbEntity
  8
P-SANR-FIXT
100
AcDbLine
 10
975.4880299151436
 20
1986.656638519718
 30
0.0
 11
975.4880299151436
 21
1989.447630597817
 31
0.0
  0
SPLINE
  5
179
330
87
100
AcDbEntity
  8
P-SANR-FIXT
100
AcDbSpline
210
0.0
220
0.0
230
1.0
 70
     8
 71
     3
 72
     9
 73
     5
 74
     0
 42
0.000000001
 43
0.0000000001
 40
-1.0
 40
-1.0
 40
-1.0
 40
-1.0
 40
-0.5
 40
0.0
 40
0.0
 40
0.0
 40
0.0
 10
975.4880299151436
 20
1986.656638519718
 30
0.0
 10
976.4309938344288
 20
1984.920612602843
 30
0.0
 10
977.3739577537142
 20
1981.425858452272
 30
0.0
 10
976.430993834429
 20
1977.885699668058
 30
0.0
 10
975.4880299151437
 20
1976.104269117541
 30
0.0
  0
LINE
  5
17A
330
87
100
AcDbEntity
  8
P-SANR-FIXT
100
AcDbLine
 10
975.4880299151437
 20
1976.049999999995
 30
0.0
 11
975.4880299151437
 21
1976.104269117541
 31
0.0
  0
LINE
  5
17B
330
87
100
AcDbEntity
  8
P-SANR-FIXT
100
AcDbLine
 10
977.046875641956
 20
1978.749999999995
 30
0.0
 11
977.046875641956
 21
2021.249999999994
 31
0.0
  0
SPLINE
  5
17C
330
87
100
AcDbEntity
  8
P-SANR-FIXT
100
AcDbSpline
210
0.0
220
0.0
230
1.0
 70
     8
 71
     3
 72
     8
 73
     4
 74
     0
 42
0.000000001
 43
0.0000000001
 40
0.0
 40
0.0
 40
0.0
 40
0.0
 40
0.1
 40
0.1
 40
0.1
 40
0.1
 10
949.9292871720768
 20
2008.978785245338
 30
0.0
 10
949.6276842510331
 20
2008.958040068633
 30
0.0
 10
949.3174165128721
 20
2008.921460874944
 30
0.0
 10
949.0006917790859
 20
2008.866245292387
 30
0.0
  0
SPLINE
  5
17D
330
87
100
AcDbEntity
  8
P-SANR-FIXT
100
AcDbSpline
210
0.0
220
0.0
230
1.0
 70
     8
 71
     3
 72
     8
 73
     4
 74
     0
 42
0.000000001
 43
0.0000000001
 40
0.180924954507388
 40
0.180924954507388
 40
0.180924954507388
 40
0.180924954507388
 40
0.2
 40
0.2
 40
0.2
 40
0.2
 10
948.2202480421857
 20
2008.694096512624
 30
0.0
 10
948.1581149906309
 20
2008.67746044216
 30
0.0
 10
948.0958113063268
 20
2008.660064743059
 30
0.0
 10
948.0333544123437
 20
2008.641887006223
 30
0.0
  0
SPLINE
  5
17E
330
87
100
AcDbEntity
  8
P-SANR-FIXT
100
AcDbSpline
210
0.0
220
0.0
230
1.0
 70
     8
 71
     3
 72
     8
 73
     4
 74
     0
 42
0.000000001
 43
0.0000000001
 40
0.2938822096001051
 40
0.2938822096001051
 40
0.2938822096001051
 40
0.2938822096001051
 40
0.3
 40
0.3
 40
0.3
 40
0.3
 10
947.1033605880679
 20
2008.315135658749
 30
0.0
 10
947.0830650990752
 20
2008.306733772952
 30
0.0
 10
947.0627685274152
 20
2008.298244255202
 30
0.0
 10
947.0424717878913
 20
2008.289666684608
 30
0.0
  0
SPLINE
  5
17F
330
87
100
AcDbEntity
  8
P-SANR-FIXT
100
AcDbSpline
210
0.0
220
0.0
230
1.0
 70
     8
 71
     3
 72
     8
 73
     4
 74
     0
 42
0.000000001
 43
0.0000000001
 40
0.5
 40
0.5
 40
0.5
 40
0.5
 40
0.5021749207553682
 40
0.5021749207553682
 40
0.5021749207553682
 40
0.5021749207553682
 10
945.0863130961772
 20
2007.153877005695
 30
0.0
 10
945.079501516491
 20
2007.148680902604
 30
0.0
 10
945.0726947843891
 20
2007.143473452453
 30
0.0
 10
945.0658929850371
 20
2007.13825465276
 30
0.0
  0
SPLINE
  5
180
330
87
100
AcDbEntity
  8
P-SANR-FIXT
100
AcDbSpline
210
0.0
220
0.0
230
1.0
 70
     8
 71
     3
 72
     8
 73
     4
 74
     0
 42
0.000000001
 43
0.0000000001
 40
0.6953663194570466
 40
0.6953663194570466
 40
0.6953663194570466
 40
0.6953663194570466
 40
0.7
 40
0.7
 40
0.7
 40
0.7
 10
943.4088624904719
 20
2005.481675414246
 30
0.0
 10
943.3971068392738
 20
2005.466368367602
 30
0.0
 10
943.3853851504302
 20
2005.451021113812
 30
0.0
 10
943.3737269491508
 20
2005.435617520662
 30
0.0
  0
SPLINE
  5
181
330
87
100
AcDbEntity
  8
P-SANR-FIXT
100
AcDbSpline
210
0.0
220
0.0
230
1.0
 70
     8
 71
     3
 72
     8
 73
     4
 74
     0
 42
0.000000001
 43
0.0000000001
 40
0.8814697588770561
 40
0.8814697588770561
 40
0.8814697588770561
 40
0.8814697588770561
 40
0.9
 40
0.9
 40
0.9
 40
0.9
 10
942.2350200370724
 20
2003.451362110791
 30
0.0
 10
942.2047856370808
 20
2003.378520847899
 30
0.0
 10
942.1771232685532
 20
2003.304519666793
 30
0.0
 10
942.1512739956046
 20
2003.229697940658
 30
0.0
  0
SPLINE
  5
182
330
87
100
AcDbEntity
  8
P-SANR-FIXT
100
AcDbSpline
210
0.0
220
0.0
230
1.0
 70
     8
 71
     3
 72
     8
 73
     4
 74
     0
 42
0.000000001
 43
0.0000000001
 40
0.9732395882888988
 40
0.9732395882888988
 40
0.9732395882888988
 40
0.9732395882888988
 40
1.0
 40
1.0
 40
1.0
 40
1.0
 10
941.8553927162921
 20
2002.336159865766
 30
0.0
 10
941.825458008545
 20
2002.224846678801
 30
0.0
 10
941.7976136098435
 20
2002.112768626129
 30
0.0
 10
941.771911254562
 20
2001.999999999995
 30
0.0
  0
SPLINE
  5
183
330
87
100
AcDbEntity
  8
P-SANR-FIXT
100
AcDbSpline
210
0.0
220
0.0
230
1.0
 70
     8
 71
     3
 72
     8
 73
     4
 74
     0
 42
0.000000001
 43
0.0000000001
 40
0.1428571428571428
 40
0.1428571428571428
 40
0.1428571428571428
 40
0.1428571428571428
 40
0.2857142857142857
 40
0.2857142857142857
 40
0.2857142857142857
 40
0.2857142857142857
 10
941.680782528839
 20
2001.545690198347
 30
0.0
 10
941.6548778032121
 20
2001.397044472395
 30
0.0
 10
941.6334620732921
 20
2001.252837056673
 30
0.0
 10
941.6161922860451
 20
2001.114851916833
 30
0.0
  0
SPLINE
  5
184
330
87
100
AcDbEntity
  8
P-SANR-FIXT
100
AcDbSpline
210
0.0
220
0.0
230
1.0
 70
     8
 71
     3
 72
     9
 73
     5
 74
     0
 42
0.000000001
 43
0.0000000001
 40
0.7142857142857143
 40
0.7142857142857143
 40
0.7142857142857143
 40
0.7142857142857143
 40
0.7857142857142857
 40
1.0
 40
1.0
 40
1.0
 40
1.0
 10
941.5487709305386
 20
2000.185995164979
 30
0.0
 10
941.5481431562154
 20
2000.155127004577
 30
0.0
 10
941.5466008877073
 20
2000.046702176792
 30
0.0
 10
941.5468756419558
 20
2000.000106358066
 30
0.0
 10
941.5468756419558
 20
1999.999999999995
 30
0.0
  0
SPLINE
  5
185
330
87
100
AcDbEntity
  8
P-SANR-FIXT
100
AcDbSpline
210
0.0
220
0.0
230
1.0
 70
     8
 71
     3
 72
     8
 73
     4
 74
     0
 42
0.000000001
 43
0.0000000001
 40
-0.9285714285714286
 40
-0.9285714285714286
 40
-0.9285714285714286
 40
-0.9285714285714286
 40
-0.9182229973777637
 40
-0.9182229973777637
 40
-0.9182229973777637
 40
-0.9182229973777637
 10
949.5184174671969
 20
1991.059038953303
 30
0.0
 10
949.469146994984
 20
1991.064707513309
 30
0.0
 10
949.4199490494205
 20
1991.070779366303
 30
0.0
 10
949.3708301841037
 20
1991.077252387812
 30
0.0
  0
SPLINE
  5
186
330
87
100
AcDbEntity
  8
P-SANR-FIXT
100
AcDbSpline
210
0.0
220
0.0
230
1.0
 70
     8
 71
     3
 72
     8
 73
     4
 74
     0
 42
0.000000001
 43
0.0000000001
 40
-0.8571428571428572
 40
-0.8571428571428572
 40
-0.8571428571428572
 40
-0.8571428571428572
 40
-0.8356525562597472
 40
-0.8356525562597472
 40
-0.8356525562597472
 40
-0.8356525562597472
 10
948.5106914146312
 20
1991.233361317337
 30
0.0
 10
948.4111003715051
 20
1991.256484419049
 30
0.0
 10
948.3120171846744
 20
1991.28128351027
 30
0.0
 10
948.2134927200958
 20
1991.307730720533
 30
0.0
  0
SPLINE
  5
187
330
87
100
AcDbEntity
  8
P-SANR-FIXT
100
AcDbSpline
210
0.0
220
0.0
230
1.0
 70
     8
 71
     3
 72
     8
 73
     4
 74
     0
 42
0.000000001
 43
0.0000000001
 40
-0.7857142857142858
 40
-0.7857142857142858
 40
-0.7857142857142858
 40
-0.7857142857142858
 40
-0.7142857142857144
 40
-0.7142857142857144
 40
-0.7142857142857144
 40
-0.7142857142857144
 10
947.536340836786
 20
1991.518450602229
 30
0.0
 10
947.2184129453838
 20
1991.631313394989
 30
0.0
 10
946.9079632674651
 20
1991.761668095614
 30
0.0
 10
946.6071592396433
 20
1991.908113034074
 30
0.0
  0
SPLINE
  5
188
330
87
100
AcDbEntity
  8
P-SANR-FIXT
100
AcDbSpline
210
0.0
220
0.0
230
1.0
 70
     8
 71
     3
 72
     8
 73
     4
 74
     0
 42
0.000000001
 43
0.0000000001
 40
-0.6683939146850058
 40
-0.6683939146850058
 40
-0.6683939146850058
 40
-0.6683939146850058
 40
-0.6428571428571428
 40
-0.6428571428571428
 40
-0.6428571428571428
 40
-0.6428571428571428
 10
946.0397355098097
 20
1992.209897947445
 30
0.0
 10
945.936849249999
 20
1992.269424972904
 30
0.0
 10
945.8353005342669
 20
1992.330899004723
 30
0.0
 10
945.7350968306517
 20
1992.394292625202
 30
0.0
  0
SPLINE
  5
189
330
87
100
AcDbEntity
  8
P-SANR-FIXT
100
AcDbSpline
210
0.0
220
0.0
230
1.0
 70
     8
 71
     3
 72
     8
 73
     4
 74
     0
 42
0.000000001
 43
0.0000000001
 40
-0.5839551267371553
 40
-0.5839551267371553
 40
-0.5839551267371553
 40
-0.5839551267371553
 40
-0.5714285714285714
 40
-0.5714285714285714
 40
-0.5714285714285714
 40
-0.5714285714285714
 10
945.0632817294012
 20
1992.863461815884
 30
0.0
 10
945.0172201121681
 20
1992.898854262707
 30
0.0
 10
944.9715072323858
 20
1992.934687720963
 30
0.0
 10
944.9261565002524
 20
1992.97095196132
 30
0.0
  0
SPLINE
  5
18A
330
87
100
AcDbEntity
  8
P-SANR-FIXT
100
AcDbSpline
210
0.0
220
0.0
230
1.0
 70
     8
 71
     3
 72
     8
 73
     4
 74
     0
 42
0.000000001
 43
0.0000000001
 40
-0.4285714285714286
 40
-0.4285714285714286
 40
-0.4285714285714286
 40
-0.4285714285714286
 40
-0.4152546237405316
 40
-0.4152546237405316
 40
-0.4152546237405316
 40
-0.4152546237405316
 10
943.5252738920187
 20
1994.369981450718
 30
0.0
 10
943.486582004845
 20
1994.418237270465
 30
0.0
 10
943.4483673440769
 20
1994.466917233398
 30
0.0
 10
943.4106441823546
 20
1994.516005517416
 30
0.0
  0
SPLINE
  5
18B
330
87
100
AcDbEntity
  8
P-SANR-FIXT
100
AcDbSpline
210
0.0
220
0.0
230
1.0
 70
     8
 71
     3
 72
     9
 73
     5
 74
     0
 42
0.000000001
 43
0.0000000001
 40
-0.2857142857142857
 40
-0.2857142857142857
 40
-0.2857142857142857
 40
-0.2857142857142857
 40
-0.25
 40
-0.2142857142857143
 40
-0.2142857142857143
 40
-0.2142857142857143
 40
-0.2142857142857143
 10
942.4570341065882
 20
1996.056085202159
 30
0.0
 10
942.3834561485548
 20
1996.207012089249
 30
0.0
 10
942.2434653405591
 20
1996.513545862427
 30
0.0
 10
942.1241150248466
 20
1996.829443852307
 30
0.0
 10
942.0656587310205
 20
1996.988528647047
 30
0.0
  0
SPLINE
  5
18C
330
87
100
AcDbEntity
  8
P-SANR-FIXT
100
AcDbSpline
210
0.0
220
0.0
230
1.0
 70
     8
 71
     3
 72
     8
 73
     4
 74
     0
 42
0.000000001
 43
0.0000000001
 40
-0.164405753105847
 40
-0.164405753105847
 40
-0.164405753105847
 40
-0.164405753105847
 40
-0.1428571428571428
 40
-0.1428571428571428
 40
-0.1428571428571428
 40
-0.1428571428571428
 10
941.8545693461865
 20
1997.666792502851
 30
0.0
 10
941.8279918655715
 20
1997.765801617054
 30
0.0
 10
941.801565250371
 20
1997.865096956702
 30
0.0
 10
941.779879705456
 20
1997.965354515059
 30
0.0
  0
SPLINE
  5
18D
330
87
100
AcDbEntity
  8
P-SANR-FIXT
100
AcDbSpline
210
0.0
220
0.0
230
1.0
 70
     8
 71
     3
 72
     8
 73
     4
 74
     0
 42
0.000000001
 43
0.0000000001
 40
-0.08190780737396
 40
-0.08190780737396
 40
-0.08190780737396
 40
-0.08190780737396
 40
-0.0714285714285717
 40
-0.0714285714285717
 40
-0.0714285714285717
 40
-0.0714285714285717
 10
941.6240987601822
 20
1998.824024202286
 30
0.0
 10
941.6175480733695
 20
1998.873736168766
 30
0.0
 10
941.6121419460036
 20
1998.923598805348
 30
0.0
 10
941.6076010311803
 20
1998.973575851547
 30
0.0
  0
SPLINE
  5
18E
330
87
100
AcDbEntity
  8
P-SANR-FIXT
100
AcDbSpline
210
0.0
220
0.0
230
1.0
 70
     8
 71
     3
 72
     8
 73
     4
 74
     0
 42
0.000000001
 43
0.0000000001
 40
-1.0
 40
-1.0
 40
-1.0
 40
-1.0
 40
-0.9933518737431953
 40
-0.9933518737431953
 40
-0.9933518737431953
 40
-0.9933518737431953
 10
951.5468756419563
 20
2008.944271910001
 30
0.0
 10
951.6056446655838
 20
2008.937701333411
 30
0.0
 10
951.6643180577004
 20
2008.930553413392
 30
0.0
 10
951.7228849476108
 20
2008.922832221096
 30
0.0
  0
SPLINE
  5
18F
330
87
100
AcDbEntity
  8
P-SANR-FIXT
100
AcDbSpline
210
0.0
220
0.0
230
1.0
 70
     8
 71
     3
 72
     8
 73
     4
 74
     0
 42
0.000000001
 43
0.0000000001
 40
-0.9629629629629629
 40
-0.9629629629629629
 40
-0.9629629629629629
 40
-0.9629629629629629
 40
-0.9489758372699039
 40
-0.9489758372699039
 40
-0.9489758372699039
 40
-0.9489758372699039
 10
952.5183071310447
 20
2008.781404517587
 30
0.0
 10
952.6390008125256
 20
2008.754312257956
 30
0.0
 10
952.7590031103141
 20
2008.724764794742
 30
0.0
 10
952.8782127860806
 20
2008.692800042416
 30
0.0
  0
SPLINE
  5
190
330
87
100
AcDbEntity
  8
P-SANR-FIXT
100
AcDbSpline
210
0.0
220
0.0
230
1.0
 70
     8
 71
     3
 72
     9
 73
     5
 74
     0
 42
0.000000001
 43
0.0000000001
 40
-0.9259259259259259
 40
-0.9259259259259259
 40
-0.9259259259259259
 40
-0.9259259259259259
 40
-0.9166666666666666
 40
-0.8888888888888889
 40
-0.8888888888888889
 40
-0.8888888888888889
 40
-0.8888888888888889
 10
953.4606952551589
 20
2008.515264496221
 30
0.0
 10
953.5377202257519
 20
2008.488906613514
 30
0.0
 10
953.8441810452994
 20
2008.379363773745
 30
0.0
 10
954.1437012348691
 20
2008.253584518995
 30
0.0
 10
954.3634483823019
 20
2008.150691536163
 30
0.0
  0
SPLINE
  5
191
330
87
100
AcDbEntity
  8
P-SANR-FIXT
100
AcDbSpline
210
0.0
220
0.0
230
1.0
 70
     8
 71
     3
 72
     8
 73
     4
 74
     0
 42
0.000000001
 43
0.0000000001
 40
-0.8591406376503933
 40
-0.8591406376503933
 40
-0.8591406376503933
 40
-0.8591406376503933
 40
-0.8518518518518519
 40
-0.8518518518518519
 40
-0.8518518518518519
 40
-0.8518518518518519
 10
955.051941223348
 20
2007.791302520553
 30
0.0
 10
955.1066864924846
 20
2007.759648781805
 30
0.0
 10
955.1610560342165
 20
2007.727442545175
 30
0.0
 10
955.2150467709296
 20
2007.694688304643
 30
0.0
  0
SPLINE
  5
192
330
87
100
AcDbEntity
  8
P-SANR-FIXT
100
AcDbSpline
210
0.0
220
0.0
230
1.0
 70
     8
 71
     3
 72
     8
 73
     4
 74
     0
 42
0.000000001
 43
0.0000000001
 40
-0.8148148148148148
 40
-0.8148148148148148
 40
-0.8148148148148148
 40
-0.8148148148148148
 40
-0.8139675880508386
 40
-0.8139675880508386
 40
-0.8139675880508386
 40
-0.8139675880508386
 10
956.0082928148899
 20
2007.153524944708
 30
0.0
 10
956.0141095952445
 20
2007.149084077727
 30
0.0
 10
956.0199209443309
 20
2007.144636126644
 30
0.0
 10
956.0257268526527
 20
2007.140181099046
 30
0.0
  0
SPLINE
  5
193
330
87
100
AcDbEntity
  8
P-SANR-FIXT
100
AcDbSpline
210
0.0
220
0.0
230
1.0
 70
     8
 71
     3
 72
     8
 73
     4
 74
     0
 42
0.000000001
 43
0.0000000001
 40
-0.7777777777777778
 40
-0.7777777777777778
 40
-0.7777777777777778
 40
-0.7777777777777778
 40
-0.768890547531264
 40
-0.768890547531264
 40
-0.768890547531264
 40
-0.768890547531264
 10
956.7393209146203
 20
2006.530974011974
 30
0.0
 10
956.7951512923105
 20
2006.478037563739
 30
0.0
 10
956.8503021077699
 20
2006.424384438281
 30
0.0
 10
956.9047353321128
 20
2006.370055613441
 30
0.0
  0
SPLINE
  5
194
330
87
100
AcDbEntity
  8
P-SANR-FIXT
100
AcDbSpline
210
0.0
220
0.0
230
1.0
 70
     8
 71
     3
 72
     9
 73
     5
 74
     0
 42
0.000000001
 43
0.0000000001
 40
-0.7407407407407407
 40
-0.7407407407407407
 40
-0.7407407407407407
 40
-0.7407407407407407
 40
-0.7222222222222223
 40
-0.7037037037037038
 40
-0.7037037037037038
 40
-0.7037037037037038
 40
-0.7037037037037038
 10
957.3998466111087
 20
2005.834105498755
 30
0.0
 10
957.503529432453
 20
2005.712315604522
 30
0.0
 10
957.704404729689
 20
2005.463203707146
 30
0.0
 10
957.8919615908093
 20
2005.203412341608
 30
0.0
 10
957.9823305437658
 20
2005.070902628136
 30
0.0
  0
SPLINE
  5
195
330
87
100
AcDbEntity
  8
P-SANR-FIXT
100
AcDbSpline
210
0.0
220
0.0
230
1.0
 70
     8
 71
     3
 72
     8
 73
     4
 74
     0
 42
0.000000001
 43
0.0000000001
 40
-0.6329895854847198
 40
-0.6329895854847198
 40
-0.6329895854847198
 40
-0.6329895854847198
 40
-0.6296296296296297
 40
-0.6296296296296297
 40
-0.6296296296296297
 40
-0.6296296296296297
 10
958.8612583887091
 20
2003.44542993028
 30
0.0
 10
958.8725604972898
 20
2003.418154236097
 30
0.0
 10
958.8837310877591
 20
2003.390816371898
 30
0.0
 10
958.8947693580841
 20
2003.363418039524
 30
0.0
  0
SPLINE
  5
196
330
87
100
AcDbEntity
  8
P-SANR-FIXT
100
AcDbSpline
210
0.0
220
0.0
230
1.0
 70
     8
 71
     3
 72
     8
 73
     4
 74
     0
 42
0.000000001
 43
0.0000000001
 40
-0.5925925925925926
 40
-0.5925925925925926
 40
-0.5925925925925926
 40
-0.5925925925925926
 40
-0.5884250036602767
 40
-0.5884250036602767
 40
-0.5884250036602767
 40
-0.5884250036602767
 10
959.2105382493926
 20
2002.437496819161
 30
0.0
 10
959.2205018387993
 20
2002.402089356501
 30
0.0
 10
959.230250786082
 20
2002.366611792686
 30
0.0
 10
959.2397841315669
 20
2002.331066040481
 30
0.0
  0
SPLINE
  5
197
330
87
100
AcDbEntity
  8
P-SANR-FIXT
100
AcDbSpline
210
0.0
220
0.0
230
1.0
 70
     8
 71
     3
 72
     8
 73
     4
 74
     0
 42
0.000000001
 43
0.0000000001
 40
-0.5555555555555556
 40
-0.5555555555555556
 40
-0.5555555555555556
 40
-0.5555555555555556
 40
-0.5441130589235119
 40
-0.5441130589235119
 40
-0.5441130589235119
 40
-0.5441130589235119
 10
959.4246459902247
 20
2001.478240049317
 30
0.0
 10
959.4413193668788
 20
2001.378019468859
 30
0.0
 10
959.4563104222077
 20
2001.277398586855
 30
0.0
 10
959.4696046856469
 20
2001.176459773182
 30
0.0
  0
SPLINE
  5
198
330
87
100
AcDbEntity
  8
P-SANR-FIXT
100
AcDbSpline
210
0.0
220
0.0
230
1.0
 70
     8
 71
     3
 72
     9
 73
     5
 74
     0
 42
0.000000001
 43
0.0000000001
 40
-0.5185185185185186
 40
-0.5185185185185186
 40
-0.5185185185185186
 40
-0.5185185185185186
 40
-0.5
 40
-0.4814814814814815
 40
-0.4814814814814815
 40
-0.4814814814814815
 40
-0.4814814814814815
 10
959.5331839675315
 20
2000.495270651774
 30
0.0
 10
959.5422973405131
 20
2000.330276562359
 30
0.0
 10
959.5514660103107
 20
1999.999588073963
 30
0.0
 10
959.5422731687998
 20
1999.668895607389
 30
0.0
 10
959.5331452196269
 20
1999.503890979586
 30
0.0
  0
SPLINE
  5
199
330
87
100
AcDbEntity
  8
P-SANR-FIXT
100
AcDbSpline
210
0.0
220
0.0
230
1.0
 70
     8
 71
     3
 72
     8
 73
     4
 74
     0
 42
0.000000001
 43
0.0000000001
 40
-0.4559243841507725
 40
-0.4559243841507725
 40
-0.4559243841507725
 40
-0.4559243841507725
 40
-0.4444444444444445
 40
-0.4444444444444445
 40
-0.4444444444444445
 40
-0.4444444444444445
 10
959.4696152666726
 20
1998.823583044037
 30
0.0
 10
959.4562724044166
 20
1998.722282936418
 30
0.0
 10
959.4412193018623
 20
1998.62129580859
 30
0.0
 10
959.424469978861
 20
1998.520703278802
 30
0.0
  0
SPLINE
  5
19A
330
87
100
AcDbEntity
  8
P-SANR-FIXT
100
AcDbSpline
210
0.0
220
0.0
230
1.0
 70
     8
 71
     3
 72
     8
 73
     4
 74
     0
 42
0.000000001
 43
0.0000000001
 40
-0.4116365696940595
 40
-0.4116365696940595
 40
-0.4116365696940595
 40
-0.4116365696940595
 40
-0.4074074074074075
 40
-0.4074074074074075
 40
-0.4074074074074075
 40
-0.4074074074074075
 10
959.2397743311648
 20
1997.668918506021
 30
0.0
 10
959.2300923567171
 20
1997.632817852838
 30
0.0
 10
959.2201879170263
 20
1997.596787038669
 30
0.0
 10
959.2100620095934
 20
1997.560828162891
 30
0.0
  0
SPLINE
  5
19B
330
87
100
AcDbEntity
  8
P-SANR-FIXT
100
AcDbSpline
210
0.0
220
0.0
230
1.0
 70
     8
 71
     3
 72
     8
 73
     4
 74
     0
 42
0.000000001
 43
0.0000000001
 40
-0.3703703703703705
 40
-0.3703703703703705
 40
-0.3703703703703705
 40
-0.3703703703703705
 40
-0.3671127578326567
 40
-0.3671127578326567
 40
-0.3671127578326567
 40
-0.3671127578326567
 10
958.8938019055031
 20
1996.634181327914
 30
0.0
 10
958.8830837423248
 20
1996.607599648092
 30
0.0
 10
958.8722412144198
 20
1996.58107541626
 30
0.0
 10
958.8612751037917
 20
1996.554610270329
 30
0.0
  0
SPLINE
  5
19C
330
87
100
AcDbEntity
  8
P-SANR-FIXT
100
AcDbSpline
210
0.0
220
0.0
230
1.0
 70
     8
 71
     3
 72
     9
 73
     5
 74
     0
 42
0.000000001
 43
0.0000000001
 40
-0.2962962962962965
 40
-0.2962962962962965
 40
-0.2962962962962965
 40
-0.2962962962962965
 40
-0.2777777777777778
 40
-0.2592592592592595
 40
-0.2592592592592595
 40
-0.2592592592592595
 40
-0.2592592592592595
 10
957.9808400835563
 20
1994.926912510979
 30
0.0
 10
957.8904979772104
 20
1994.794525595636
 30
0.0
 10
957.7030263219018
 20
1994.53500381376
 30
0.0
 10
957.502277146896
 20
1994.28616311987
 30
0.0
 10
957.3986592417377
 20
1994.164499832578
 30
0.0
  0
SPLINE
  5
19D
330
87
100
AcDbEntity
  8
P-SANR-FIXT
100
AcDbSpline
210
0.0
220
0.0
230
1.0
 70
     8
 71
     3
 72
     8
 73
     4
 74
     0
 42
0.000000001
 43
0.0000000001
 40
-0.2311600346328219
 40
-0.2311600346328219
 40
-0.2311600346328219
 40
-0.2311600346328219
 40
-0.2222222222222222
 40
-0.2222222222222222
 40
-0.2222222222222222
 40
-0.2222222222222222
 10
956.904750866467
 20
1993.629959875478
 30
0.0
 10
956.8500385670033
 20
1993.575352244497
 30
0.0
 10
956.7945970366315
 20
1993.521423595329
 30
0.0
 10
956.7384653121894
 20
1993.468214841604
 30
0.0
  0
SPLINE
  5
19E
330
87
100
AcDbEntity
  8
P-SANR-FIXT
100
AcDbSpline
210
0.0
220
0.0
230
1.0
 70
     8
 71
     3
 72
     8
 73
     4
 74
     0
 42
0.000000001
 43
0.0000000001
 40
-0.1860708747448459
 40
-0.1860708747448459
 40
-0.1860708747448459
 40
-0.1860708747448459
 40
-0.1851851851851856
 40
-0.1851851851851856
 40
-0.1851851851851856
 40
-0.1851851851851856
 10
956.0257616258008
 20
1992.859845690789
 30
0.0
 10
956.0196929128604
 20
1992.855188961728
 30
0.0
 10
956.0136182995682
 20
1992.850539832241
 30
0.0
 10
956.0075377893127
 20
1992.845898328094
 30
0.0
  0
SPLINE
  5
19F
330
87
100
AcDbEntity
  8
P-SANR-FIXT
100
AcDbSpline
210
0.0
220
0.0
230
1.0
 70
     8
 71
     3
 72
     8
 73
     4
 74
     0
 42
0.000000001
 43
0.0000000001
 40
-0.1481481481481486
 40
-0.1481481481481486
 40
-0.1481481481481486
 40
-0.1481481481481486
 40
-0.1408917266760332
 40
-0.1408917266760332
 40
-0.1408917266760332
 40
-0.1408917266760332
 10
955.2142911471804
 20
1992.304853452117
 30
0.0
 10
955.1605400204309
 20
1992.272251771634
 30
0.0
 10
955.1064019574868
 20
1992.240223476347
 30
0.0
 10
955.051908241479
 20
1992.208702410428
 30
0.0
  0
SPLINE
  5
1A0
330
87
100
AcDbEntity
  8
P-SANR-FIXT
100
AcDbSpline
210
0.0
220
0.0
230
1.0
 70
     8
 71
     3
 72
     9
 73
     5
 74
     0
 42
0.000000001
 43
0.0000000001
 40
-0.1111111111111111
 40
-0.1111111111111111
 40
-0.1111111111111111
 40
-0.1111111111111111
 40
-0.0833333333333333
 40
-0.0740740740740746
 40
-0.0740740740740746
 40
-0.0740740740740746
 40
-0.0740740740740746
 10
954.3627470348376
 20
1991.848980093696
 30
0.0
 10
954.1430305926219
 20
1991.746124407731
 30
0.0
 10
953.8426947949689
 20
1991.623525421167
 30
0.0
 10
953.5377602914286
 20
1991.508817439686
 30
0.0
 10
953.461044408424
 20
1991.48142843474
 30
0.0
  0
SPLINE
  5
1A1
330
87
100
AcDbEntity
  8
P-SANR-FIXT
100
AcDbSpline
210
0.0
220
0.0
230
1.0
 70
     8
 71
     3
 72
     8
 73
     4
 74
     0
 42
0.000000001
 43
0.0000000001
 40
-0.0510392365764681
 40
-0.0510392365764681
 40
-0.0510392365764681
 40
-0.0510392365764681
 40
-0.0370370370370377
 40
-0.0370370370370377
 40
-0.0370370370370377
 40
-0.0370370370370377
 10
952.8782100831783
 20
1991.30719916512
 30
0.0
 10
952.7589041042025
 20
1991.275208584104
 30
0.0
 10
952.6379963960296
 20
1991.249281470649
 30
0.0
 10
952.516254080405
 20
1991.226458246955
 30
0.0
  0
SPLINE
  5
1A2
330
87
100
AcDbEntity
  8
P-SANR-FIXT
100
AcDbSpline
210
0.0
220
0.0
230
1.0
 70
     8
 71
     3
 72
     8
 73
     4
 74
     0
 42
0.000000001
 43
0.0000000001
 40
-0.00665013935287
 40
-0.00665013935287
 40
-0.00665013935287
 40
-0.00665013935287
 40
0.0
 40
0.0
 40
0.0
 40
0.0
 10
951.722881858079
 20
1991.077167358018
 30
0.0
 10
951.6643158023919
 20
1991.069446304675
 30
0.0
 10
951.6056434406756
 20
1991.062298529644
 30
0.0
 10
951.546875641956
 20
1991.055728090002
 30
0.0
  0
LINE
  5
1A3
330
87
100
AcDbEntity
  8
P-SANR-FIXT
100
AcDbLine
 10
913.6267869820294
 20
2026.999999999995
 30
0.0
 11
913.6750472950973
 21
2026.999999999995
 31
0.0
  0
LINE
  5
1A4
330
87
100
AcDbEntity
  8
P-SANR-FIXT
100
AcDbLine
 10
913.8368734886
 20
2026.999999999995
 30
0.0
 11
913.961204151016
 21
2026.999999999995
 31
0.0
  0
LINE
  5
1A5
330
87
100
AcDbEntity
  8
P-SANR-FIXT
100
AcDbLine
 10
914.1981972587178
 20
2026.999999999995
 30
0.0
 11
914.3895391894673
 21
2026.999999999995
 31
0.0
  0
LINE
  5
1A6
330
87
100
AcDbEntity
  8
P-SANR-FIXT
100
AcDbLine
 10
914.8133306054518
 20
2026.999999999995
 30
0.0
 11
914.8607031267566
 21
2026.999999999995
 31
0.0
  0
LINE
  5
1A7
330
87
100
AcDbEntity
  8
P-SANR-FIXT
100
AcDbLine
 10
915.5144121141864
 20
2026.999999999995
 30
0.0
 11
915.8190031435125
 21
2026.999999999995
 31
0.0
  0
LINE
  5
1A8
330
87
100
AcDbEntity
  8
P-SANR-FIXT
100
AcDbLine
 10
916.3603421624827
 20
2026.999999999995
 30
0.0
 11
916.6276213868254
 21
2026.999999999995
 31
0.0
  0
LINE
  5
1A9
330
87
100
AcDbEntity
  8
P-SANR-FIXT
100
AcDbLine
 10
916.6637302617417
 20
2026.999999999995
 30
0.0
 11
917.3446827118871
 21
2026.999999999995
 31
0.0
  0
LINE
  5
1AA
330
87
100
AcDbEntity
  8
P-SANR-FIXT
100
AcDbLine
 10
917.5476571917073
 20
2026.999999999995
 30
0.0
 11
918.4599423364575
 21
2026.999999999995
 31
0.0
  0
LINE
  5
1AB
330
87
100
AcDbEntity
  8
P-SANR-FIXT
100
AcDbLine
 10
918.5731962553123
 20
2026.999999999995
 30
0.0
 11
920.9035162157478
 21
2026.999999999995
 31
0.0
  0
LINE
  5
1AC
330
87
100
AcDbEntity
  8
P-SANR-FIXT
100
AcDbLine
 10
921.0483358385387
 20
2026.999999999995
 30
0.0
 11
922.1955339740222
 21
2026.999999999995
 31
0.0
  0
LINE
  5
1AD
330
87
100
AcDbEntity
  8
P-SANR-FIXT
100
AcDbLine
 10
922.5017704785839
 20
2026.999999999995
 30
0.0
 11
923.5653679850715
 21
2026.999999999995
 31
0.0
  0
LINE
  5
1AE
330
87
100
AcDbEntity
  8
P-SANR-FIXT
100
AcDbLine
 10
923.9262931207292
 20
2026.999999999995
 30
0.0
 11
925.0042233214895
 21
2026.999999999995
 31
0.0
  0
LINE
  5
1AF
330
87
100
AcDbEntity
  8
P-SANR-FIXT
100
AcDbLine
 10
925.6718921454012
 20
2026.999999999995
 30
0.0
 11
926.5028729333511
 21
2026.999999999995
 31
0.0
  0
LINE
  5
1B0
330
87
100
AcDbEntity
  8
P-SANR-FIXT
100
AcDbLine
 10
927.3644526321167
 20
2026.999999999995
 30
0.0
 11
927.5522029372943
 21
2026.999999999995
 31
0.0
  0
LINE
  5
1B1
330
87
100
AcDbEntity
  8
P-SANR-FIXT
100
AcDbLine
 10
928.0517103383127
 20
2026.999999999995
 30
0.0
 11
929.1116756948028
 21
2026.999999999995
 31
0.0
  0
LINE
  5
1B2
330
87
100
AcDbEntity
  8
P-SANR-FIXT
100
AcDbLine
 10
929.6408077411582
 20
2026.999999999995
 30
0.0
 11
930.9002639109504
 21
2026.999999999995
 31
0.0
  0
LINE
  5
1B3
330
87
100
AcDbEntity
  8
P-SANR-FIXT
100
AcDbLine
 10
931.2599778090467
 20
2026.999999999995
 30
0.0
 11
932.7166050442549
 21
2026.999999999995
 31
0.0
  0
LINE
  5
1B4
330
87
100
AcDbEntity
  8
P-SANR-FIXT
100
AcDbLine
 10
932.8988378815081
 20
2026.999999999995
 30
0.0
 11
936.1949134024035
 21
2026.999999999995
 31
0.0
  0
LINE
  5
1B5
330
87
100
AcDbEntity
  8
P-SANR-FIXT
100
AcDbLine
 10
936.3771462396565
 20
2026.999999999995
 30
0.0
 11
937.8337734748646
 21
2026.999999999995
 31
0.0
  0
LINE
  5
1B6
330
87
100
AcDbEntity
  8
P-SANR-FIXT
100
AcDbLine
 10
938.1934873729614
 20
2026.999999999995
 30
0.0
 11
939.452943542753
 21
2026.999999999995
 31
0.0
  0
LINE
  5
1B7
330
87
100
AcDbEntity
  8
P-SANR-FIXT
100
AcDbLine
 10
939.9820755891086
 20
2026.999999999995
 30
0.0
 11
941.0420409455989
 21
2026.999999999995
 31
0.0
  0
LINE
  5
1B8
330
87
100
AcDbEntity
  8
P-SANR-FIXT
100
AcDbLine
 10
941.7292986517947
 20
2026.999999999995
 30
0.0
 11
942.0607351829458
 21
2026.999999999995
 31
0.0
  0
LINE
  5
1B9
330
87
100
AcDbEntity
  8
P-SANR-FIXT
100
AcDbLine
 10
942.5908783505606
 20
2026.999999999995
 30
0.0
 11
943.4218591385105
 21
2026.999999999995
 31
0.0
  0
LINE
  5
1BA
330
87
100
AcDbEntity
  8
P-SANR-FIXT
100
AcDbLine
 10
944.089527962422
 20
2026.999999999995
 30
0.0
 11
945.0468756419558
 21
2026.999999999995
 31
0.0
  0
LINE
  5
1BB
330
87
100
AcDbEntity
  8
P-SANR-FIXT
100
AcDbLine
 10
945.5283832988399
 20
2026.999999999995
 30
0.0
 11
946.5919808053277
 21
2026.999999999995
 31
0.0
  0
LINE
  5
1BC
330
87
100
AcDbEntity
  8
P-SANR-FIXT
100
AcDbLine
 10
946.8982173098893
 20
2026.999999999995
 30
0.0
 11
948.0454154453733
 21
2026.999999999995
 31
0.0
  0
LINE
  5
1BD
330
87
100
AcDbEntity
  8
P-SANR-FIXT
100
AcDbLine
 10
948.1902350681641
 20
2026.999999999995
 30
0.0
 11
950.5205550285992
 21
2026.999999999995
 31
0.0
  0
LINE
  5
1BE
330
87
100
AcDbEntity
  8
P-SANR-FIXT
100
AcDbLine
 10
950.6338089474544
 20
2026.999999999995
 30
0.0
 11
951.5460940922043
 21
2026.999999999995
 31
0.0
  0
LINE
  5
1BF
330
87
100
AcDbEntity
  8
P-SANR-FIXT
100
AcDbLine
 10
952.4661298970865
 20
2026.999999999995
 30
0.0
 11
952.9448569063337
 21
2026.999999999995
 31
0.0
  0
LINE
  5
1C0
330
87
100
AcDbEntity
  8
P-SANR-FIXT
100
AcDbLine
 10
953.2747481403992
 20
2026.999999999995
 30
0.0
 11
953.5793391697254
 21
2026.999999999995
 31
0.0
  0
LINE
  5
1C1
330
87
100
AcDbEntity
  8
P-SANR-FIXT
100
AcDbLine
 10
954.7549642882666
 20
2026.999999999995
 30
0.0
 11
954.8955540251933
 21
2026.999999999995
 31
0.0
  0
LINE
  5
1C2
330
87
100
AcDbEntity
  8
P-SANR-FIXT
100
AcDbLine
 10
955.1325471328938
 20
2026.999999999995
 30
0.0
 11
955.2568777953124
 21
2026.999999999995
 31
0.0
  0
LINE
  5
1C3
330
87
100
AcDbEntity
  8
P-SANR-FIXT
100
AcDbLine
 10
955.4187039888159
 20
2026.999999999995
 30
0.0
 11
955.4669643018824
 21
2026.999999999995
 31
0.0
  0
SPLINE
  5
1C4
330
87
100
AcDbEntity
  8
P-SANR-FIXT
100
AcDbSpline
210
0.0
220
0.0
230
1.0
 70
     8
 71
     3
 72
     8
 73
     4
 74
     0
 42
0.000000001
 43
0.0000000001
 40
0.0
 40
0.0
 40
0.0
 40
0.0
 40
0.1
 40
0.1
 40
0.1
 40
0.1
 10
919.1644641118351
 20
2008.978785245338
 30
0.0
 10
919.4701888609227
 20
2008.964998892817
 30
0.0
 10
919.780866221704
 20
2008.929460672526
 30
0.0
 10
920.096765309789
 20
2008.873025870621
 30
0.0
  0
SPLINE
  5
1C5
330
87
100
AcDbEntity
  8
P-SANR-FIXT
100
AcDbSpline
210
0.0
220
0.0
230
1.0
 70
     8
 71
     3
 72
     8
 73
     4
 74
     0
 42
0.000000001
 43
0.0000000001
 40
0.1808771808514851
 40
0.1808771808514851
 40
0.1808771808514851
 40
0.1808771808514851
 40
0.2
 40
0.2
 40
0.2
 40
0.2
 10
920.8736252905449
 20
2008.695543605637
 30
0.0
 10
920.9356829484555
 20
2008.678394934298
 30
0.0
 10
920.9979394975066
 20
2008.660507381935
 30
0.0
 10
921.060396871568
 20
2008.641887006223
 30
0.0
  0
SPLINE
  5
1C6
330
87
100
AcDbEntity
  8
P-SANR-FIXT
100
AcDbSpline
210
0.0
220
0.0
230
1.0
 70
     8
 71
     3
 72
     8
 73
     4
 74
     0
 42
0.000000001
 43
0.0000000001
 40
0.2937541780836566
 40
0.2937541780836566
 40
0.2937541780836566
 40
0.2937541780836566
 40
0.3
 40
0.3
 40
0.3
 40
0.3
 10
921.9901841373573
 20
2008.31353609338
 30
0.0
 10
922.0110050640599
 20
2008.30499865094
 30
0.0
 10
922.0318326514204
 20
2008.296375806143
 30
0.0
 10
922.0526658824136
 20
2008.287667035677
 30
0.0
  0
SPLINE
  5
1C7
330
87
100
AcDbEntity
  8
P-SANR-FIXT
100
AcDbSpline
210
0.0
220
0.0
230
1.0
 70
     8
 71
     3
 72
     8
 73
     4
 74
     0
 42
0.000000001
 43
0.0000000001
 40
0.5
 40
0.5
 40
0.5
 40
0.5
 40
0.5020297007043768
 40
0.5020297007043768
 40
0.5020297007043768
 40
0.5020297007043768
 10
924.0062063522119
 20
2007.151881573085
 30
0.0
 10
924.0126146296654
 20
2007.147021606284
 30
0.0
 10
924.0190191175264
 20
2007.142152086871
 30
0.0
 10
924.0254196379435
 20
2007.137273031071
 30
0.0
  0
SPLINE
  5
1C8
330
87
100
AcDbEntity
  8
P-SANR-FIXT
100
AcDbSpline
210
0.0
220
0.0
230
1.0
 70
     8
 71
     3
 72
     8
 73
     4
 74
     0
 42
0.000000001
 43
0.0000000001
 40
0.6952641283031747
 40
0.6952641283031747
 40
0.6952641283031747
 40
0.6952641283031747
 40
0.7
 40
0.7
 40
0.7
 40
0.7
 10
925.6826275272798
 20
2005.480336106555
 30
0.0
 10
925.6947117056736
 20
2005.464620786279
 30
0.0
 10
925.7067625622621
 20
2005.448866148407
 30
0.0
 10
925.7187496777429
 20
2005.433054547778
 30
0.0
  0
SPLINE
  5
1C9
330
87
100
AcDbEntity
  8
P-SANR-FIXT
100
AcDbSpline
210
0.0
220
0.0
230
1.0
 70
     8
 71
     3
 72
     8
 73
     4
 74
     0
 42
0.000000001
 43
0.0000000001
 40
0.8822497392010863
 40
0.8822497392010863
 40
0.8822497392010863
 40
0.8822497392010863
 40
0.9
 40
0.9
 40
0.9
 40
0.9
 10
926.8570733000787
 20
2003.45098001014
 30
0.0
 10
926.8857231996902
 20
2003.381573953537
 30
0.0
 10
926.9122153963861
 20
2003.310744191261
 30
0.0
 10
926.9371646289641
 20
2003.23889574792
 30
0.0
  0
SPLINE
  5
1CA
330
87
100
AcDbEntity
  8
P-SANR-FIXT
100
AcDbSpline
210
0.0
220
0.0
230
1.0
 70
     8
 71
     3
 72
     8
 73
     4
 74
     0
 42
0.000000001
 43
0.0000000001
 40
0.973474873416314
 40
0.973474873416314
 40
0.973474873416314
 40
0.973474873416314
 40
1.0
 40
1.0
 40
1.0
 40
1.0
 10
927.2357907532777
 20
2002.338918666727
 30
0.0
 10
927.2663055958524
 20
2002.227104678178
 30
0.0
 10
927.2949958009292
 20
2002.114128824874
 30
0.0
 10
927.3218400293496
 20
2001.999999999995
 30
0.0
  0
LINE
  5
1CB
330
87
100
AcDbEntity
  8
P-SANR-FIXT
100
AcDbLine
 10
956.046875641956
 20
2026.499999999995
 30
0.0
 11
913.0468756419558
 21
2026.499999999995
 31
0.0
  0
SPLINE
  5
1CC
330
87
100
AcDbEntity
  8
P-SANR-FIXT
100
AcDbSpline
210
0.0
220
0.0
230
1.0
 70
     8
 71
     3
 72
     8
 73
     4
 74
     0
 42
0.000000001
 43
0.0000000001
 40
0.0
 40
0.0
 40
0.0
 40
0.0
 40
0.2857142857142857
 40
0.2857142857142857
 40
0.2857142857142857
 40
0.2857142857142857
 10
927.5468756419556
 20
1999.999999999995
 30
0.0
 10
927.5468756419556
 20
2000.000141810756
 30
0.0
 10
927.5475946649347
 20
2000.06253135775
 30
0.0
 10
927.544956061671
 20
2000.185872968278
 30
0.0
  0
SPLINE
  5
1CD
330
87
100
AcDbEntity
  8
P-SANR-FIXT
100
AcDbSpline
210
0.0
220
0.0
230
1.0
 70
     8
 71
     3
 72
     9
 73
     5
 74
     0
 42
0.000000001
 43
0.0000000001
 40
0.7142857142857143
 40
0.7142857142857143
 40
0.7142857142857143
 40
0.7142857142857143
 40
0.7857142857142857
 40
0.8571428571428569
 40
0.8571428571428569
 40
0.8571428571428569
 40
0.8571428571428569
 10
927.4774746056225
 20
2001.115486166889
 30
0.0
 10
927.4688423846134
 20
2001.184574369998
 30
0.0
 10
927.4506089539636
 20
2001.325972339281
 30
0.0
 10
927.4235590985012
 20
2001.474266653326
 30
0.0
 10
927.4091201920789
 20
2001.549172919128
 30
0.0
  0
ARC
  5
1CE
330
87
100
AcDbEntity
  8
P-SANR-FIXT
100
AcDbCircle
 10
918.5468756419552
 20
1999.999999999994
 30
0.0
 40
9.000000000006947
100
AcDbArc
 50
147.2660444508569
 51
152.7339555491363
  0
LINE
  5
1CF
330
87
100
AcDbEntity
  8
P-SANR-FIXT
100
AcDbLine
 10
910.5468756419584
 20
2004.123105625634
 30
0.0
 11
910.5468756419586
 21
1995.876894374355
 31
0.0
  0
ARC
  5
1D0
330
87
100
AcDbEntity
  8
P-SANR-FIXT
100
AcDbCircle
 10
918.5468756419552
 20
1999.999999999994
 30
0.0
 40
9.00000000000691
100
AcDbArc
 50
207.2660444508644
 51
212.7339555491333
  0
LINE
  5
1D1
330
87
100
AcDbEntity
  8
P-SANR-FIXT
100
AcDbLine
 10
910.9761614276667
 20
1995.133349582542
 30
0.0
 11
918.1175898562475
 21
1991.010243956902
 31
0.0
  0
ARC
  5
1D2
330
87
100
AcDbEntity
  8
P-SANR-FIXT
100
AcDbCircle
 10
918.5468756419552
 20
1999.999999999994
 30
0.0
 40
9.000000000006931
100
AcDbArc
 50
267.2660444508651
 51
272.7339555491392
  0
LINE
  5
1D3
330
87
100
AcDbEntity
  8
P-SANR-FIXT
100
AcDbLine
 10
918.9761614276642
 20
1991.010243956902
 30
0.0
 11
926.1175898562434
 21
1995.133349582541
 31
0.0
  0
ARC
  5
1D4
330
87
100
AcDbEntity
  8
P-SANR-FIXT
100
AcDbCircle
 10
918.5468756419552
 20
1999.999999999994
 30
0.0
 40
9.000000000006988
100
AcDbArc
 50
327.2660444508602
 51
332.7339555491484
  0
LINE
  5
1D5
330
87
100
AcDbEntity
  8
P-SANR-FIXT
100
AcDbLine
 10
926.5468756419529
 20
1995.876894374357
 30
0.0
 11
926.5468756419528
 21
2004.123105625632
 31
0.0
  0
ARC
  5
1D6
330
87
100
AcDbEntity
  8
P-SANR-FIXT
100
AcDbCircle
 10
918.5468756419552
 20
1999.999999999994
 30
0.0
 40
9.000000000006888
100
AcDbArc
 50
27.26604445085317
 51
32.73395554915067
  0
LINE
  5
1D7
330
87
100
AcDbEntity
  8
P-SANR-FIXT
100
AcDbLine
 10
926.1175898562425
 20
2004.866650417449
 30
0.0
 11
918.9761614276658
 21
2008.989756043087
 31
0.0
  0
ARC
  5
1D8
330
87
100
AcDbEntity
  8
P-SANR-FIXT
100
AcDbCircle
 10
918.5468756419552
 20
1999.999999999994
 30
0.0
 40
9.000000000006931
100
AcDbArc
 50
87.26604445085028
 51
92.73395554914459
  0
LINE
  5
1D9
330
87
100
AcDbEntity
  8
P-SANR-FIXT
100
AcDbLine
 10
918.1175898562456
 20
2008.989756043087
 30
0.0
 11
910.9761614276676
 21
2004.866650417449
 31
0.0
  0
ENDBLK
  5
1DB
330
87
100
AcDbEntity
  8
0
100
AcDbBlockEnd
  0
BLOCK
  5
2E0
330
1DD
100
AcDbEntity
  8
0
100
AcDbBlockBegin
  2
Automatic flow rate regulator valve_Caleffi_121 DN15 - 1_2__-V1-Est - Idraulica
 70
     0
 10
0.0
 20
0.0
 30
0.0
  3
Automatic flow rate regulator valve_Caleffi_121 DN15 - 1_2__-V1-Est - Idraulica
  1

  0
LINE
  5
1DE
330
1DD
100
AcDbEntity
  8
M-PIPE
100
AcDbLine
 10
997.0468756419544
 20
1879.668759748035
 30
0.0
 11
872.0468756419547
 21
1879.668759748035
 31
0.0
1001
REVIT
1002
{
1070
     3
1000
963222
1002
}
  0
LWPOLYLINE
  5
1DF
330
1DD
100
AcDbEntity
  8
M-PIPE
100
AcDbPolyline
 90
       41
 70
   128
 43
0.0
 10
997.0468756419544
 20
1879.668759748035
 10
997.2468223128876
 20
1879.66476028134
 10
997.4464491118002
 20
1879.652768279548
 10
997.6454366783988
 20
1879.632802927305
 10
997.8434666750255
 20
1879.604896164914
 10
998.0402222959297
 20
1879.569092637242
 10
998.2353887740901
 20
1879.525449622296
 10
998.4286538847749
 20
1879.474036939589
 10
998.6197084450349
 20
1879.414936838448
 10
998.8082468083298
 20
1879.348243866425
 10
998.9939673534976
 20
1879.27406471805
 10
999.1765729672843
 20
1879.192518064136
 10
999.3557715196615
 20
1879.103734361932
 10
999.531276331173
 20
1879.007855646424
 10
999.7028066315587
 20
1878.905035303102
 10
999.8700880089295
 20
1878.795437822584
 10
1000.032852848766
 20
1878.679238537457
 10
1000.190840762047
 20
1878.55662334179
 10
1000.343799001812
 20
1878.42778839374
 10
1000.491482867507
 20
1878.29293980174
 10
1000.633656096452
 20
1878.152293294771
 10
1000.770091241808
 20
1878.006073877242
 10
1000.900570036449
 20
1877.854515469028
 10
1001.024883742136
 20
1877.697860531253
 10
1001.142833483459
 20
1877.536359678398
 10
1001.254230565994
 20
1877.370271277376
 10
1001.358896778171
 20
1877.199861034199
 10
1001.456664676379
 20
1877.025401568904
 10
1001.547377852837
 20
1876.847171979419
 10
1001.630891185813
 20
1876.665457395067
 10
1001.70707107179
 20
1876.480548520419
 10
1001.775795639202
 20
1876.29274117023
 10
1001.8369549434
 20
1876.102335796195
 10
1001.890451142545
 20
1875.909637006298
 10
1001.936198654131
 20
1875.714953077492
 10
1001.974124291896
 20
1875.518595462537
 10
1002.004167382913
 20
1875.320878291726
 10
1002.026279864642
 20
1875.122117870357
 10
1002.040426361832
 20
1874.922632172703
 10
1002.046584243104
 20
1874.722740333327
 10
1002.046875641954
 20
1874.668759748035
1001
REVIT
1002
{
1070
     3
1000
963222
1002
}
  0
LWPOLYLINE
  5
1E0
330
1DD
100
AcDbEntity
  8
M-PIPE
100
AcDbPolyline
 90
       41
 70
   128
 43
0.0
 10
867.0468756419548
 20
1874.668759748035
 10
867.0508751086499
 20
1874.868706418968
 10
867.0628671104417
 20
1875.068333217881
 10
867.0828324626855
 20
1875.267320784479
 10
867.1107392250766
 20
1875.465350781106
 10
867.1465427527486
 20
1875.66210640201
 10
867.1901857676948
 20
1875.85727288017
 10
867.2415984504008
 20
1876.050537990855
 10
867.3006985515424
 20
1876.241592551115
 10
867.3673915235651
 20
1876.43013091441
 10
867.4415706719402
 20
1876.615851459578
 10
867.523117325855
 20
1876.798457073365
 10
867.6119010280583
 20
1876.977655625742
 10
867.7077797435666
 20
1877.153160437254
 10
867.8106000868877
 20
1877.324690737639
 10
867.9201975674063
 20
1877.49197211501
 10
868.0363968525332
 20
1877.654736954847
 10
868.1590120481999
 20
1877.812724868127
 10
868.2878469962501
 20
1877.965683107892
 10
868.4226955882502
 20
1878.113366973587
 10
868.5633420952189
 20
1878.255540202532
 10
868.7095615127482
 20
1878.391975347889
 10
868.8611199209619
 20
1878.52245414253
 10
869.0177748587375
 20
1878.646767848217
 10
869.1792757115923
 20
1878.76471758954
 10
869.345364112614
 20
1878.876114672074
 10
869.515774355791
 20
1878.980780884251
 10
869.6902338210861
 20
1879.078548782459
 10
869.8684634105712
 20
1879.169261958917
 10
870.0501779949235
 20
1879.252775291893
 10
870.2350868695715
 20
1879.328955177871
 10
870.4228942197609
 20
1879.397679745282
 10
870.613299593795
 20
1879.458839049481
 10
870.8059983836928
 20
1879.512335248626
 10
871.0006823124977
 20
1879.558082760211
 10
871.1970399274536
 20
1879.596008397977
 10
871.3947570982639
 20
1879.626051488993
 10
871.5935175196332
 20
1879.648163970723
 10
871.7930032172867
 20
1879.662310467913
 10
871.9928950566634
 20
1879.668468349185
 10
872.0468756419547
 20
1879.668759748035
1001
REVIT
1002
{
1070
     3
1000
963222
1002
}
  0
SPLINE
  5
1E1
330
1DD
100
AcDbEntity
  8
M-PIPE
100
AcDbSpline
210
0.0
220
0.0
230
1.0
 70
     8
 71
     3
 72
    20
 73
    16
 74
     0
 42
0.000000001
 43
0.0000000001
 40
0.0
 40
0.0
 40
0.0
 40
0.0
 40
0.125
 40
0.1875
 40
0.25
 40
0.3125
 40
0.375
 40
0.4375
 40
0.5
 40
0.53125
 40
0.5625
 40
0.625
 40
0.6875
 40
0.75
 40
1.0
 40
1.0
 40
1.0
 40
1.0
 10
892.3468756419532
 20
1832.668759748034
 30
0.0
 10
892.3886602110624
 20
1834.096410936578
 30
0.0
 10
892.6065371312919
 20
1836.183100347976
 30
0.0
 10
893.2117843863
 20
1838.842313377775
 30
0.0
 10
893.8144030517685
 20
1840.769430752465
 30
0.0
 10
894.6004614340036
 20
1842.639074637654
 30
0.0
 10
895.562887542114
 20
1844.446829888832
 30
0.0
 10
896.6541245617149
 20
1846.174518917145
 30
0.0
 10
897.6298057843386
 20
1847.534402804977
 30
0.0
 10
898.4491154651026
 20
1848.571810176112
 30
0.0
 10
899.3158546953143
 20
1849.581056004054
 30
0.0
 10
900.46624832813
 20
1850.787238886667
 30
0.0
 10
901.9313008163917
 20
1852.147240615124
 30
0.0
 10
904.9489447365193
 20
1854.692878276333
 30
0.0
 10
907.6852618188908
 20
1856.458982601257
 30
0.0
 10
910.0511617311484
 20
1857.667959735234
 30
0.0
1001
REVIT
1002
{
1070
     3
1000
963222
1002
}
  0
LINE
  5
1E2
330
1DD
100
AcDbEntity
  8
M-PIPE
100
AcDbLine
 10
910.0511617311482
 20
1857.667959735234
 30
0.0
 11
918.4231355845387
 21
1857.667959735234
 31
0.0
1001
REVIT
1002
{
1070
     3
1000
963222
1002
}
  0
SPLINE
  5
1E3
330
1DD
100
AcDbEntity
  8
M-PIPE
100
AcDbSpline
210
0.0
220
0.0
230
1.0
 70
     8
 71
     3
 72
    11
 73
     7
 74
     0
 42
0.000000001
 43
0.0000000001
 40
0.0
 40
0.0
 40
0.0
 40
0.0
 40
0.25
 40
0.5
 40
0.75
 40
1.0
 40
1.0
 40
1.0
 40
1.0
 10
918.4231355845387
 20
1857.667959735234
 30
0.0
 10
920.995160879791
 20
1858.66888052381
 30
0.0
 10
926.2385238665522
 20
1860.124545110105
 30
0.0
 10
934.5683082049744
 20
1860.829234119291
 30
0.0
 10
942.8624243931491
 20
1860.121505775544
 30
0.0
 10
948.1014691943395
 20
1858.667396096672
 30
0.0
 10
950.6706156992109
 20
1857.667959735234
 30
0.0
1001
REVIT
1002
{
1070
     3
1000
963222
1002
}
  0
LINE
  5
1E4
330
1DD
100
AcDbEntity
  8
M-PIPE
100
AcDbLine
 10
950.6706156992109
 20
1857.667959735234
 30
0.0
 11
959.0425895527578
 21
1857.667959735234
 31
0.0
1001
REVIT
1002
{
1070
     3
1000
963222
1002
}
  0
SPLINE
  5
1E5
330
1DD
100
AcDbEntity
  8
M-PIPE
100
AcDbSpline
210
0.0
220
0.0
230
1.0
 70
     8
 71
     3
 72
    19
 73
    15
 74
     0
 42
0.000000001
 43
0.0000000001
 40
0.0
 40
0.0
 40
0.0
 40
0.0
 40
0.25
 40
0.375
 40
0.4375
 40
0.5
 40
0.53125
 40
0.5625
 40
0.625
 40
0.6875
 40
0.75
 40
0.8125
 40
0.875
 40
1.0
 40
1.0
 40
1.0
 40
1.0
 10
959.0425895527578
 20
1857.667959735234
 30
0.0
 10
961.4084894650154
 20
1856.458982601257
 30
0.0
 10
964.6823349335624
 20
1854.33984597317
 30
0.0
 10
968.1635827093742
 20
1851.270022480873
 30
0.0
 10
970.0103744949689
 20
1849.339416619733
 30
0.0
 10
971.063330668495
 20
1848.060969459097
 30
0.0
 10
971.8515929601796
 20
1846.99101065818
 30
0.0
 10
972.6230151192517
 20
1845.886246616596
 30
0.0
 10
973.5303488398413
 20
1844.446940009638
 30
0.0
 10
974.4934278047653
 20
1842.63904513359
 30
0.0
 10
975.2793113146397
 20
1840.76943864792
 30
0.0
 10
975.8819766127375
 20
1838.842311300025
 30
0.0
 10
976.487208323536
 20
1836.183101594627
 30
0.0
 10
976.7050910728444
 20
1834.096410936578
 30
0.0
 10
976.7468756419534
 20
1832.668759748035
 30
0.0
1001
REVIT
1002
{
1070
     3
1000
963222
1002
}
  0
LINE
  5
1E6
330
1DD
100
AcDbEntity
  8
M-PIPE
100
AcDbLine
 10
976.7468756419534
 20
1832.668759748035
 30
0.0
 11
997.0468756419531
 21
1832.668759748035
 31
0.0
1001
REVIT
1002
{
1070
     3
1000
963222
1002
}
  0
LINE
  5
1E7
330
1DD
100
AcDbEntity
  8
M-PIPE
100
AcDbLine
 10
872.0468756419537
 20
1832.668759748034
 30
0.0
 11
892.3468756419532
 21
1832.668759748034
 31
0.0
1001
REVIT
1002
{
1070
     3
1000
963222
1002
}
  0
ARC
  5
1E8
330
1DD
100
AcDbEntity
  8
M-PIPE
100
AcDbCircle
 10
934.5468756419533
 20
1832.668759748034
 30
0.0
 40
35.00000000000001
100
AcDbArc
 50
134.4171798682691
 51
180.0
1001
REVIT
1002
{
1070
     3
1000
963222
1002
}
  0
LINE
  5
1E9
330
1DD
100
AcDbEntity
  8
M-PIPE
100
AcDbLine
 10
899.5468756419533
 20
1832.668759748034
 30
0.0
 11
904.7990186865508
 21
1832.668759748034
 31
0.0
1001
REVIT
1002
{
1070
     3
1000
963222
1002
}
  0
ARC
  5
1EA
330
1DD
100
AcDbEntity
  8
M-PIPE
100
AcDbCircle
 10
934.5468756419533
 20
1832.668759748034
 30
0.0
 40
29.74785695540226
100
AcDbArc
 50
122.8208119664438
 51
179.9999999999997
1001
REVIT
1002
{
1070
     3
1000
963222
1002
}
  0
ARC
  5
1EB
330
1DD
100
AcDbEntity
  8
M-PIPE
100
AcDbCircle
 10
934.5468756419533
 20
1832.668759748034
 30
0.0
 40
35.00000000000032
100
AcDbArc
 50
0.0000000000004707
 51
45.58282013173054
1001
REVIT
1002
{
1070
     3
1000
963222
1002
}
  0
ARC
  5
1EC
330
1DD
100
AcDbEntity
  8
M-PIPE
100
AcDbCircle
 10
934.5468756419533
 20
1832.668759748034
 30
0.0
 40
29.74785695540242
100
AcDbArc
 50
0.0000000000008759
 51
57.17918803380988
1001
REVIT
1002
{
1070
     3
1000
963222
1002
}
  0
LINE
  5
1ED
330
1DD
100
AcDbEntity
  8
M-PIPE
100
AcDbLine
 10
964.2947325973556
 20
1832.668759748035
 30
0.0
 11
969.5468756419533
 21
1832.668759748035
 31
0.0
1001
REVIT
1002
{
1070
     3
1000
963222
1002
}
  0
LINE
  5
1EE
330
1DD
100
AcDbEntity
  8
M-PIPE
100
AcDbLine
 10
892.3468756419532
 20
1832.668759748034
 30
0.0
 11
899.5468756419533
 21
1832.668759748034
 31
0.0
1001
REVIT
1002
{
1070
     3
1000
963222
1002
}
  0
LINE
  5
1EF
330
1DD
100
AcDbEntity
  8
M-PIPE
100
AcDbLine
 10
969.5468756419533
 20
1832.668759748035
 30
0.0
 11
976.7468756419534
 21
1832.668759748035
 31
0.0
1001
REVIT
1002
{
1070
     3
1000
963222
1002
}
  0
LINE
  5
1F0
330
1DD
100
AcDbEntity
  8
M-PIPE
100
AcDbLine
 10
904.7990186865508
 20
1832.668759748035
 30
0.0
 11
913.5392386508646
 21
1832.668759748035
 31
0.0
1001
REVIT
1002
{
1070
     3
1000
963222
1002
}
  0
LINE
  5
1F1
330
1DD
100
AcDbEntity
  8
M-PIPE
100
AcDbLine
 10
997.0468756419531
 20
1832.668759748035
 30
0.0
 11
1002.046875641953
 21
1832.668759748035
 31
0.0
1001
REVIT
1002
{
1070
     3
1000
963222
1002
}
  0
LINE
  5
1F2
330
1DD
100
AcDbEntity
  8
M-PIPE
100
AcDbLine
 10
867.0468756419536
 20
1832.668759748034
 30
0.0
 11
872.0468756419537
 21
1832.668759748034
 31
0.0
1001
REVIT
1002
{
1070
     3
1000
963222
1002
}
  0
LWPOLYLINE
  5
1F3
330
1DD
100
AcDbEntity
  8
M-PIPE
100
AcDbPolyline
 90
       33
 70
   128
 43
0.0
 10
934.5468756419579
 20
1813.168759748035
 10
935.3266676585972
 20
1813.184357668145
 10
936.1052121743567
 20
1813.231126475133
 10
936.8812636840916
 20
1813.308991348884
 10
937.6535806709355
 20
1813.41782772221
 10
938.4209275924616
 20
1813.55746148013
 10
939.1820768572868
 20
1813.72766923842
 10
939.9358107889581
 20
1813.928178700974
 10
940.6809235739723
 20
1814.158669095427
 10
941.4162231908221
 20
1814.418771686314
 10
942.1405333169763
 20
1814.708070364978
 10
942.8526952107448
 20
1815.026102315245
 10
943.5515695650167
 20
1815.372358753839
 10
944.2360383299108
 20
1815.74628574432
 10
944.9050065014152
 20
1816.147285083273
 10
945.557403873161
 20
1816.574715257296
 10
946.1921867485242
 20
1817.027892469291
 10
946.8083396103178
 20
1817.506091732391
 10
947.4048767454014
 20
1818.008548029787
 10
947.9808438216135
 20
1818.534457538587
 10
948.5353194144984
 20
1819.082978915765
 10
949.0674164813894
 20
1819.653234644129
 10
949.5762837804877
 20
1820.244312436162
 10
950.061107232667
 20
1820.855266693487
 10
950.5211112238271
 20
1821.485120019621
 10
950.9555598457117
 20
1822.132864783606
 10
951.3637580732028
 20
1822.797464731995
 10
951.7450528762141
 20
1823.477856646647
 10
952.0988342643995
 20
1824.172952045638
 10
952.424536263007
 20
1824.881638924612
 10
952.7216378183185
 20
1825.60278353574
 10
952.9896636312235
 20
1826.335232201478
 10
953.2050600619053
 20
1827.001118779234
1001
REVIT
1002
{
1070
     3
1000
923114
1002
}
  0
LWPOLYLINE
  5
1F4
330
1DD
100
AcDbEntity
  8
M-PIPE
100
AcDbPolyline
 90
       33
 70
   128
 43
0.0
 10
915.8886913525391
 20
1827.001118349525
 10
916.1302611158054
 20
1826.259523491263
 10
916.4012935336451
 20
1825.52818204378
 10
916.7013550120074
 20
1824.808263997382
 10
917.0299655165361
 20
1824.100921067369
 10
917.3865993405241
 20
1823.407284851537
 10
917.7706859459304
 20
1822.728465019863
 10
918.1816108761211
 20
1822.065547539271
 10
918.6187167388666
 20
1821.419592936315
 10
919.0813042580312
 20
1820.791634600564
 10
919.568633392264
 20
1820.182677131397
 10
920.0799245189086
 20
1819.593694730861
 10
920.6143596812314
 20
1819.025629645155
 10
921.17108389698
 20
1818.479390657233
 10
921.7492065261707
 20
1817.955851632953
 10
922.3478026959226
 20
1817.455850123071
 10
922.965914780058
 20
1816.98018602334
 10
923.6025539310993
 20
1816.529620294853
 10
924.2567016622141
 20
1816.104873746657
 10
924.9273114765763
 20
1815.706625882624
 10
925.6133105415388
 20
1815.335513814379
 10
926.3136014049363
 20
1814.992131242066
 10
927.0270637507749
 20
1814.67702750455
 10
927.7525561914986
 20
1814.390706700592
 10
928.4889180939654
 20
1814.1336268824
 10
929.2349714362137
 20
1813.906199322842
 10
929.9895226920453
 20
1813.708787857498
 10
930.7513647404134
 20
1813.541708302601
 10
931.519278796558
 20
1813.405227949796
 10
932.2920363618024
 20
1813.299565138535
 10
933.0684011888886
 20
1813.224888906774
 10
933.8471312597084
 20
1813.181318720554
 10
934.5468756419579
 20
1813.168759748035
1001
REVIT
1002
{
1070
     3
1000
923114
1002
}
  0
LINE
  5
1F5
330
1DD
100
AcDbEntity
  8
M-PIPE
100
AcDbLine
 10
952.7147071257759
 20
1838.46927753974
 30
0.0
 11
948.1398659662707
 21
1839.358536578581
 31
0.0
1001
REVIT
1002
{
1070
     3
1000
923114
1002
}
  0
LWPOLYLINE
  5
1F6
330
1DD
100
AcDbEntity
  8
M-PIPE
100
AcDbPolyline
 90
       57
 70
   128
 43
0.0
 10
948.1398659662707
 20
1839.358536578581
 10
947.8614733025416
 20
1839.896760103329
 10
947.5617801228517
 20
1840.423420369402
 10
947.241265872357
 20
1840.937674832718
 10
946.9004433054859
 20
1841.438700795841
 10
946.5398576656404
 20
1841.925696724107
 10
946.1600858129232
 20
1842.397883527921
 10
945.7617353012853
 20
1842.854505809121
 10
945.3454434065683
 20
1843.294833069468
 10
944.9118761069994
 20
1843.718160879275
 10
944.4617270177685
 20
1844.123812004352
 10
943.995716281392
 20
1844.511137489433
 10
943.5145894156374
 20
1844.879517696367
 10
943.0191161208549
 20
1845.228363295405
 10
942.5100890486213
 20
1845.557116208008
 10
941.9883225336654
 20
1845.865250499644
 10
941.4546512911066
 20
1846.152273221179
 10
940.9099290810893
 20
1846.417725197485
 10
940.3550273429484
 20
1846.66118176203
 10
939.7908338010921
 20
1846.882253436242
 10
939.2182510448327
 20
1847.080586552604
 10
938.6381950844356
 20
1847.255863820437
 10
938.0515938856985
 20
1847.407804833504
 10
937.459385885405
 20
1847.536166518596
 10
936.8625184900244
 20
1847.6407435244
 10
936.2619465600644
 20
1847.721368550014
 10
935.6586308824974
 20
1847.777912612597
 10
935.0535366337075
 20
1847.81028525371
 10
934.4476318354125
 20
1847.818434684035
 10
933.8418858060371
 20
1847.80234786622
 10
933.2372676100094
 20
1847.762050535743
 10
932.6347445074645
 20
1847.697607159735
 10
932.0352804068356
 20
1847.609120833852
 10
931.4398343228042
 20
1847.496733117339
 10
930.8493588420834
 20
1847.360623806567
 10
930.2647985994806
 20
1847.201010647399
 10
929.687088766685
 20
1847.018148986839
 10
929.1171535561902
 20
1846.812331364538
 10
928.5559047427542
 20
1846.583887044784
 10
928.0042402047508
 20
1846.333181489758
 10
927.4630424877592
 20
1846.060615774866
 10
926.9331773926774
 20
1845.766625947108
 10
926.4154925906252
 20
1845.451682327494
 10
925.9108162668525
 20
1845.116288758631
 10
925.4199557958189
 20
1844.760981798682
 10
924.943696449567
 20
1844.386329862988
 10
924.4828001414537
 20
1843.992932314726
 10
924.0380042072528
 20
1843.581418506051
 10
923.6100202255745
 20
1843.152446771274
 10
923.199532879491
 20
1842.706703373659
 10
922.8071988611899
 20
1842.244901407558
 10
922.4336458214077
 20
1841.767779657602
 10
922.07947136532
 20
1841.276101416812
 10
921.745242096504
 20
1840.770653265487
 10
921.4314927104911
 20
1840.252243812846
 10
921.1387251393695
 20
1839.721702403424
 10
920.9538842559069
 20
1839.358534421298
1001
REVIT
1002
{
1070
     3
1000
923114
1002
}
  0
LINE
  5
1F7
330
1DD
100
AcDbEntity
  8
M-PIPE
100
AcDbLine
 10
920.9538842559069
 20
1839.358534421298
 30
0.0
 11
916.3790441581403
 21
1838.469275588838
 31
0.0
1001
REVIT
1002
{
1070
     3
1000
923114
1002
}
  0
LINE
  5
1F8
330
1DD
100
AcDbEntity
  8
M-PIPE
100
AcDbLine
 10
913.546875641958
 20
1835.033580446772
 30
0.0
 11
913.546875641958
 21
1830.303936714459
 31
0.0
1001
REVIT
1002
{
1070
     3
1000
923114
1002
}
  0
LINE
  5
1F9
330
1DD
100
AcDbEntity
  8
M-PIPE
100
AcDbLine
 10
916.3790441581401
 20
1826.868241572392
 30
0.0
 11
920.9538855265364
 21
1825.978982492947
 31
0.0
1001
REVIT
1002
{
1070
     3
1000
923114
1002
}
  0
LWPOLYLINE
  5
1FA
330
1DD
100
AcDbEntity
  8
M-PIPE
100
AcDbPolyline
 90
       57
 70
   128
 43
0.0
 10
920.9538855265364
 20
1825.978982492947
 10
921.2322782070744
 20
1825.440758976893
 10
921.5319714032121
 20
1824.91409872018
 10
921.8524856697673
 20
1824.399844266874
 10
922.1933082522856
 20
1823.898818314395
 10
922.55389390734
 20
1823.411822397389
 10
922.933665774804
 20
1822.939635605436
 10
923.3320163007023
 20
1822.483013336676
 10
923.748308209171
 20
1822.042686089331
 10
924.1818755219608
 20
1821.619358293064
 10
924.6320246238601
 20
1821.213707182046
 10
925.0980353723333
 20
1820.826381711519
 10
925.5791622495923
 20
1820.458001519611
 10
926.0746355552694
 20
1820.109155936046
 10
926.5836626377701
 20
1819.780403039341
 10
927.1054291623494
 20
1819.472268763999
 10
927.6391004138723
 20
1819.185246059132
 10
928.1838226321795
 20
1818.919794099837
 10
928.7387243779237
 20
1818.676337552622
 10
929.3029179266842
 20
1818.45526589603
 10
929.8755006891376
 20
1818.256932797551
 10
930.4555566550087
 20
1818.081655547833
 10
931.0421578584907
 20
1817.929714553086
 10
931.6343658627932
 20
1817.801352886488
 10
932.23123326144
 20
1817.696775899326
 10
932.8318051939181
 20
1817.616150892467
 10
933.4351208732508
 20
1817.559606848726
 10
934.040215123052
 20
1817.52723422651
 10
934.6461199216012
 20
1817.519084815108
 10
935.2518659504742
 20
1817.535171651841
 10
935.8564841452432
 20
1817.5754690012
 10
936.4590072457755
 20
1817.639912396025
 10
937.0584713436411
 20
1817.72839874063
 10
937.6539174241626
 20
1817.840786475739
 10
938.2443929006328
 20
1817.976895804951
 10
938.8289531382506
 20
1818.136508982376
 10
939.4066629653353
 20
1818.319370660978
 10
939.9765981694022
 20
1818.525188301079
 10
940.5378469757042
 20
1818.753632638361
 10
941.0895115058776
 20
1819.004338210616
 10
941.6307092143568
 20
1819.276903942409
 10
942.1605743002574
 20
1819.570893786715
 10
942.6782590924737
 20
1819.885837422497
 10
943.1829354057718
 20
1820.221231007121
 10
943.673795865709
 20
1820.5765379824
 10
944.1500552002604
 20
1820.951189932968
 10
944.6109514960877
 20
1821.344587495624
 10
945.0557474174368
 20
1821.756101318189
 10
945.4837313857181
 20
1822.185073066333
 10
945.8942187178807
 20
1822.630816476767
 10
946.2865527217592
 20
1823.092618455122
 10
946.6601057466411
 20
1823.569740216743
 10
947.0142801873734
 20
1824.061418468594
 10
947.3485094404042
 20
1824.566866630358
 10
947.6622588102266
 20
1825.085276092798
 10
947.9550263647793
 20
1825.615817511363
 10
948.1398659662842
 20
1825.978982917491
1001
REVIT
1002
{
1070
     3
1000
923114
1002
}
  0
LINE
  5
1FB
330
1DD
100
AcDbEntity
  8
M-PIPE
100
AcDbLine
 10
948.1398659662842
 20
1825.978982917491
 30
0.0
 11
952.7147071257758
 21
1826.868241956329
 31
0.0
1001
REVIT
1002
{
1070
     3
1000
923114
1002
}
  0
LINE
  5
1FC
330
1DD
100
AcDbEntity
  8
M-PIPE
100
AcDbLine
 10
955.5468756419582
 20
1830.303937098396
 30
0.0
 11
955.5468756419582
 21
1832.668759748022
 31
0.0
1001
REVIT
1002
{
1070
     3
1000
923114
1002
}
  0
LINE
  5
1FD
330
1DD
100
AcDbEntity
  8
M-PIPE
100
AcDbLine
 10
955.5468756419582
 20
1832.668759748022
 30
0.0
 11
955.546875641958
 21
1835.033582397673
 31
0.0
1001
REVIT
1002
{
1070
     3
1000
923114
1002
}
  0
ARC
  5
1FE
330
1DD
100
AcDbEntity
  8
M-PIPE
100
AcDbCircle
 10
934.5468756419395
 20
1832.668759748021
 30
0.0
 40
15.15000000000001
100
AcDbArc
 50
276.3795940254935
 51
277.0938465433932
1001
REVIT
1002
{
1070
     3
1000
923114
1002
}
  0
ARC
  5
1FF
330
1DD
100
AcDbEntity
  8
M-PIPE
100
AcDbCircle
 10
934.5468756419395
 20
1832.668759748021
 30
0.0
 40
15.14999999999989
100
AcDbArc
 50
281.8222067089134
 51
282.7591880509242
1001
REVIT
1002
{
1070
     3
1000
923114
1002
}
  0
ARC
  5
200
330
1DD
100
AcDbEntity
  8
M-PIPE
100
AcDbCircle
 10
934.5468756419395
 20
1832.668759748021
 30
0.0
 40
15.14999999999994
100
AcDbArc
 50
289.1387820763556
 51
291.297249046755
1001
REVIT
1002
{
1070
     3
1000
923114
1002
}
  0
ARC
  5
201
330
1DD
100
AcDbEntity
  8
M-PIPE
100
AcDbCircle
 10
934.5468756419395
 20
1832.668759748021
 30
0.0
 40
15.14999999999998
100
AcDbArc
 50
295.5183761017865
 51
296.0038961139178
1001
REVIT
1002
{
1070
     3
1000
923114
1002
}
  0
ARC
  5
202
330
1DD
100
AcDbEntity
  8
M-PIPE
100
AcDbCircle
 10
934.5468756419395
 20
1832.668759748021
 30
0.0
 40
15.15000000000005
100
AcDbArc
 50
300.7465458400113
 51
301.8979701272174
1001
REVIT
1002
{
1070
     3
1000
923114
1002
}
  0
ARC
  5
203
330
1DD
100
AcDbEntity
  8
M-PIPE
100
AcDbCircle
 10
934.5468756419395
 20
1832.668759748021
 30
0.0
 40
15.15000000000002
100
AcDbArc
 50
308.2775641526481
 51
310.232711029531
1001
REVIT
1002
{
1070
     3
1000
923114
1002
}
  0
ARC
  5
204
330
1DD
100
AcDbEntity
  8
M-PIPE
100
AcDbCircle
 10
934.5468756419395
 20
1832.668759748021
 30
0.0
 40
15.14999999999991
100
AcDbArc
 50
314.6571581780787
 51
314.8817545826045
1001
REVIT
1002
{
1070
     3
1000
923114
1002
}
  0
ARC
  5
205
330
1DD
100
AcDbEntity
  8
M-PIPE
100
AcDbCircle
 10
934.5468756419395
 20
1832.668759748021
 30
0.0
 40
15.14999999999996
100
AcDbArc
 50
319.5641172637535
 51
321.0367522035097
1001
REVIT
1002
{
1070
     3
1000
923114
1002
}
  0
ARC
  5
206
330
1DD
100
AcDbEntity
  8
M-PIPE
100
AcDbCircle
 10
934.5468756419395
 20
1832.668759748021
 30
0.0
 40
15.14999999999995
100
AcDbArc
 50
327.4163462289408
 51
329.0312743702161
1001
REVIT
1002
{
1070
     3
1000
923114
1002
}
  0
ARC
  5
207
330
1DD
100
AcDbEntity
  8
M-PIPE
100
AcDbCircle
 10
934.5468756419395
 20
1832.668759748021
 30
0.0
 40
15.14999999999997
100
AcDbArc
 50
210.9687274177515
 51
212.5836553816125
1001
REVIT
1002
{
1070
     3
1000
923114
1002
}
  0
ARC
  5
208
330
1DD
100
AcDbEntity
  8
M-PIPE
100
AcDbCircle
 10
934.5468756419395
 20
1832.668759748021
 30
0.0
 40
15.15000000000011
100
AcDbArc
 50
218.9632492281067
 51
220.4358845364409
1001
REVIT
1002
{
1070
     3
1000
923114
1002
}
  0
ARC
  5
209
330
1DD
100
AcDbEntity
  8
M-PIPE
100
AcDbCircle
 10
934.5468756419395
 20
1832.668759748021
 30
0.0
 40
15.14999999999997
100
AcDbArc
 50
225.1182471815905
 51
225.3428430746009
1001
REVIT
1002
{
1070
     3
1000
923114
1002
}
  0
ARC
  5
20A
330
1DD
100
AcDbEntity
  8
M-PIPE
100
AcDbCircle
 10
934.5468756419395
 20
1832.668759748021
 30
0.0
 40
15.14999999999999
100
AcDbArc
 50
229.7672907797237
 51
231.7224369210955
1001
REVIT
1002
{
1070
     3
1000
923114
1002
}
  0
ARC
  5
20B
330
1DD
100
AcDbEntity
  8
M-PIPE
100
AcDbCircle
 10
934.5468756419395
 20
1832.668759748021
 30
0.0
 40
15.15000000000007
100
AcDbArc
 50
238.10203076759
 51
239.2534559342502
1001
REVIT
1002
{
1070
     3
1000
923114
1002
}
  0
ARC
  5
20C
330
1DD
100
AcDbEntity
  8
M-PIPE
100
AcDbCircle
 10
934.5468756419395
 20
1832.668759748021
 30
0.0
 40
15.14999999999993
100
AcDbArc
 50
243.9961057036333
 51
244.4816246140844
1001
REVIT
1002
{
1070
     3
1000
923114
1002
}
  0
ARC
  5
20D
330
1DD
100
AcDbEntity
  8
M-PIPE
100
AcDbCircle
 10
934.5468756419395
 20
1832.668759748021
 30
0.0
 40
15.14999999999993
100
AcDbArc
 50
248.7027527550292
 51
250.8612184605787
1001
REVIT
1002
{
1070
     3
1000
923114
1002
}
  0
ARC
  5
20E
330
1DD
100
AcDbEntity
  8
M-PIPE
100
AcDbCircle
 10
934.5468756419395
 20
1832.668759748021
 30
0.0
 40
15.15000000000006
100
AcDbArc
 50
257.240812307073
 51
258.1777950712679
1001
REVIT
1002
{
1070
     3
1000
923114
1002
}
  0
ARC
  5
20F
330
1DD
100
AcDbEntity
  8
M-PIPE
100
AcDbCircle
 10
934.5468756419395
 20
1832.668759748021
 30
0.0
 40
15.14999999999998
100
AcDbArc
 50
262.9061552574988
 51
263.6204061535675
1001
REVIT
1002
{
1070
     3
1000
923114
1002
}
  0
ARC
  5
210
330
1DD
100
AcDbEntity
  8
M-PIPE
100
AcDbCircle
 10
934.5468756419395
 20
1832.668759748021
 30
0.0
 40
15.15000000000003
100
AcDbArc
 50
30.96872602692751
 51
32.58365377116415
1001
REVIT
1002
{
1070
     3
1000
923114
1002
}
  0
ARC
  5
211
330
1DD
100
AcDbEntity
  8
M-PIPE
100
AcDbCircle
 10
934.5468756419395
 20
1832.668759748021
 30
0.0
 40
15.14999999999996
100
AcDbArc
 50
38.96324779658328
 51
40.43588397943451
1001
REVIT
1002
{
1070
     3
1000
923114
1002
}
  0
ARC
  5
212
330
1DD
100
AcDbEntity
  8
M-PIPE
100
AcDbCircle
 10
934.5468756419395
 20
1832.668759748021
 30
0.0
 40
15.15
100
AcDbArc
 50
45.11824695317169
 51
45.34284182200269
1001
REVIT
1002
{
1070
     3
1000
923114
1002
}
  0
ARC
  5
213
330
1DD
100
AcDbEntity
  8
M-PIPE
100
AcDbCircle
 10
934.5468756419395
 20
1832.668759748021
 30
0.0
 40
15.15000000000005
100
AcDbArc
 50
49.76729102678143
 51
51.72243584742215
1001
REVIT
1002
{
1070
     3
1000
923114
1002
}
  0
ARC
  5
214
330
1DD
100
AcDbEntity
  8
M-PIPE
100
AcDbCircle
 10
934.5468756419395
 20
1832.668759748021
 30
0.0
 40
15.14999999999994
100
AcDbArc
 50
58.10202987284085
 51
59.2534569270139
1001
REVIT
1002
{
1070
     3
1000
923114
1002
}
  0
ARC
  5
215
330
1DD
100
AcDbEntity
  8
M-PIPE
100
AcDbCircle
 10
934.5468756419395
 20
1832.668759748021
 30
0.0
 40
15.14999999999997
100
AcDbArc
 50
63.99610719241767
 51
64.4816238982603
1001
REVIT
1002
{
1070
     3
1000
923114
1002
}
  0
ARC
  5
216
330
1DD
100
AcDbEntity
  8
M-PIPE
100
AcDbCircle
 10
934.5468756419395
 20
1832.668759748021
 30
0.0
 40
15.14999999999997
100
AcDbArc
 50
68.70275460974278
 51
70.8612179236798
1001
REVIT
1002
{
1070
     3
1000
923114
1002
}
  0
ARC
  5
217
330
1DD
100
AcDbEntity
  8
M-PIPE
100
AcDbCircle
 10
934.5468756419395
 20
1832.668759748021
 30
0.0
 40
15.14999999999998
100
AcDbArc
 50
77.2408119490984
 51
78.17779769437507
1001
REVIT
1002
{
1070
     3
1000
923114
1002
}
  0
ARC
  5
218
330
1DD
100
AcDbEntity
  8
M-PIPE
100
AcDbCircle
 10
934.5468756419395
 20
1832.668759748021
 30
0.0
 40
15.15000000000009
100
AcDbArc
 50
82.90615832662972
 51
83.62040597451784
1001
REVIT
1002
{
1070
     3
1000
923114
1002
}
  0
ARC
  5
219
330
1DD
100
AcDbEntity
  8
M-PIPE
100
AcDbCircle
 10
934.5468756419395
 20
1832.668759748021
 30
0.0
 40
15.15000000000006
100
AcDbArc
 50
96.37959493468486
 51
97.09385082446777
1001
REVIT
1002
{
1070
     3
1000
923114
1002
}
  0
ARC
  5
21A
330
1DD
100
AcDbEntity
  8
M-PIPE
100
AcDbCircle
 10
934.5468756419395
 20
1832.668759748021
 30
0.0
 40
15.15000000000008
100
AcDbArc
 50
101.8222113514733
 51
102.7591898694321
1001
REVIT
1002
{
1070
     3
1000
923114
1002
}
  0
LINE
  5
21B
330
1DD
100
AcDbEntity
  8
M-PIPE
100
AcDbLine
 10
931.1796736527369
 20
1847.439827778598
 30
0.0
 11
931.1561955029816
 21
1847.434456080917
 31
0.0
1001
REVIT
1002
{
1070
     3
1000
923114
1002
}
  0
ARC
  5
21C
330
1DD
100
AcDbEntity
  8
M-PIPE
100
AcDbCircle
 10
934.5468756419395
 20
1832.668759748021
 30
0.0
 40
15.15000000000006
100
AcDbArc
 50
109.1387848041791
 51
111.2972545458864
1001
REVIT
1002
{
1070
     3
1000
923114
1002
}
  0
ARC
  5
21D
330
1DD
100
AcDbEntity
  8
M-PIPE
100
AcDbCircle
 10
934.5468756419395
 20
1832.668759748021
 30
0.0
 40
15.14999999999999
100
AcDbArc
 50
115.5183797389262
 51
116.0039020433394
1001
REVIT
1002
{
1070
     3
1000
923114
1002
}
  0
ARC
  5
21E
330
1DD
100
AcDbEntity
  8
M-PIPE
100
AcDbCircle
 10
934.5468756419395
 20
1832.668759748021
 30
0.0
 40
15.15000000000008
100
AcDbArc
 50
120.7465520887475
 51
121.8979746736731
1001
REVIT
1002
{
1070
     3
1000
923114
1002
}
  0
ARC
  5
21F
330
1DD
100
AcDbEntity
  8
M-PIPE
100
AcDbCircle
 10
934.5468756419395
 20
1832.668759748021
 30
0.0
 40
15.15000000000003
100
AcDbArc
 50
128.277569608421
 51
130.2327181668131
1001
REVIT
1002
{
1070
     3
1000
923114
1002
}
  0
ARC
  5
220
330
1DD
100
AcDbEntity
  8
M-PIPE
100
AcDbCircle
 10
934.5468756419395
 20
1832.668759748021
 30
0.0
 40
15.15000000000001
100
AcDbArc
 50
134.657164543168
 51
134.8817620114377
1001
REVIT
1002
{
1070
     3
1000
923114
1002
}
  0
ARC
  5
221
330
1DD
100
AcDbEntity
  8
M-PIPE
100
AcDbCircle
 10
934.5468756419395
 20
1832.668759748021
 30
0.0
 40
15.15000000000006
100
AcDbArc
 50
139.5641251681169
 51
141.0367594779143
1001
REVIT
1002
{
1070
     3
1000
923114
1002
}
  0
ARC
  5
222
330
1DD
100
AcDbEntity
  8
M-PIPE
100
AcDbCircle
 10
934.5468756419395
 20
1832.668759748021
 30
0.0
 40
15.1500000000001
100
AcDbArc
 50
147.4163544126625
 51
149.0312830584891
1001
REVIT
1002
{
1070
     3
1000
923114
1002
}
  0
SPLINE
  5
223
330
1DD
100
AcDbEntity
  8
M-PIPE
100
AcDbSpline
210
0.0
220
0.0
230
1.0
 70
     8
 71
     3
 72
    15
 73
    11
 74
     0
 42
0.000000001
 43
0.0000000001
 40
0.0
 40
0.0
 40
0.0
 40
0.0
 40
0.1428571428571428
 40
0.2857142857142857
 40
0.4285714285714286
 40
0.5714285714285714
 40
0.6785714285714287
 40
0.7321428571428572
 40
0.7857142857142857
 40
1.0
 40
1.0
 40
1.0
 40
1.0
 10
948.1398659662691
 20
1839.35853657858
 30
0.0
 10
948.1391775568802
 20
1839.35867039181
 30
0.0
 10
948.094102395434
 20
1839.298102975198
 30
0.0
 10
947.8930034299173
 20
1839.036993877489
 30
0.0
 10
947.5779845584588
 20
1838.63264041372
 30
0.0
 10
947.2053913654788
 20
1838.163049889318
 30
0.0
 10
946.87393464273
 20
1837.756359707036
 30
0.0
 10
946.6268168492744
 20
1837.455292304201
 30
0.0
 10
946.2412603829957
 20
1836.995096701343
 30
0.0
 10
945.9016472963648
 20
1836.595032623848
 30
0.0
 10
945.62225792626
 20
1836.282401575341
 30
0.0
1001
REVIT
1002
{
1070
     3
1000
923114
1002
}
  0
SPLINE
  5
224
330
1DD
100
AcDbEntity
  8
M-PIPE
100
AcDbSpline
210
0.0
220
0.0
230
1.0
 70
     8
 71
     3
 72
    13
 73
     9
 74
     0
 42
0.000000001
 43
0.0000000001
 40
-1.0
 40
-1.0
 40
-1.0
 40
-1.0
 40
-0.8333333333333332
 40
-0.6666666666666666
 40
-0.5
 40
-0.3333333333333333
 40
-0.1666666666666666
 40
0.0
 40
0.0
 40
0.0
 40
0.0
 10
920.9538842559057
 20
1839.358534421298
 30
0.0
 10
920.9569748082623
 20
1839.359135163821
 30
0.0
 10
921.0146034448273
 20
1839.288412003534
 30
0.0
 10
921.2471604170499
 20
1838.973328623684
 30
0.0
 10
921.6412125177518
 20
1838.476788852551
 30
0.0
 10
922.1594738198982
 20
1837.830605348241
 30
0.0
 10
922.7624419200076
 20
1837.077993551667
 30
0.0
 10
923.2268063959153
 20
1836.545986605436
 30
0.0
 10
923.4714926779789
 20
1836.282399492325
 30
0.0
1001
REVIT
1002
{
1070
     3
1000
923114
1002
}
  0
SPLINE
  5
225
330
1DD
100
AcDbEntity
  8
M-PIPE
100
AcDbSpline
210
0.0
220
0.0
230
1.0
 70
     8
 71
     3
 72
    11
 73
     7
 74
     0
 42
0.000000001
 43
0.0000000001
 40
0.0
 40
0.0
 40
0.0
 40
0.0
 40
0.25
 40
0.5
 40
0.75
 40
1.0
 40
1.0
 40
1.0
 40
1.0
 10
914.3461896000994
 20
1837.259854217743
 30
0.0
 10
914.5122289491622
 20
1837.125563601654
 30
0.0
 10
914.8794751711733
 20
1836.819169153225
 30
0.0
 10
915.5414128483172
 20
1836.274489988709
 30
0.0
 10
916.2762087957629
 20
1835.670340399097
 30
0.0
 10
916.7861020304146
 20
1835.245178231577
 30
0.0
 10
917.0468756419564
 20
1835.033580446771
 30
0.0
1001
REVIT
1002
{
1070
     3
1000
923114
1002
}
  0
SPLINE
  5
226
330
1DD
100
AcDbEntity
  8
M-PIPE
100
AcDbSpline
210
0.0
220
0.0
230
1.0
 70
     8
 71
     3
 72
    11
 73
     7
 74
     0
 42
0.000000001
 43
0.0000000001
 40
0.0
 40
0.0
 40
0.0
 40
0.0
 40
0.25
 40
0.5
 40
0.75
 40
1.0
 40
1.0
 40
1.0
 40
1.0
 10
914.3461896000994
 20
1828.077662943486
 30
0.0
 10
914.5096947207221
 20
1828.215027824503
 30
0.0
 10
914.8805337228354
 20
1828.517063882155
 30
0.0
 10
915.5415092601597
 20
1829.062910215604
 30
0.0
 10
916.2747645967309
 20
1829.668928715652
 30
0.0
 10
916.7894075535945
 20
1830.088329009386
 30
0.0
 10
917.0468756419564
 20
1830.303936714458
 30
0.0
1001
REVIT
1002
{
1070
     3
1000
923114
1002
}
  0
SPLINE
  5
227
330
1DD
100
AcDbEntity
  8
M-PIPE
100
AcDbSpline
210
0.0
220
0.0
230
1.0
 70
     8
 71
     3
 72
    15
 73
    11
 74
     0
 42
0.000000001
 43
0.0000000001
 40
0.0
 40
0.0
 40
0.0
 40
0.0
 40
0.1428571428571428
 40
0.2857142857142857
 40
0.4285714285714286
 40
0.5714285714285714
 40
0.6785714285714287
 40
0.7321428571428572
 40
0.7857142857142857
 40
1.0
 40
1.0
 40
1.0
 40
1.0
 10
920.9538855265348
 20
1825.978982492947
 30
0.0
 10
920.9545739358533
 20
1825.978848679731
 30
0.0
 10
920.9996490956037
 20
1826.039416095915
 30
0.0
 10
921.2007480535989
 20
1826.300525192409
 30
0.0
 10
921.5157669141909
 20
1826.704878655612
 30
0.0
 10
921.8883600954059
 20
1827.174469181077
 30
0.0
 10
922.219816808459
 20
1827.581159365546
 30
0.0
 10
922.466934594968
 20
1827.882226770468
 30
0.0
 10
922.8524910506894
 20
1828.342422377064
 30
0.0
 10
923.1921041284401
 20
1828.74248645864
 30
0.0
 10
923.4714934913604
 20
1829.0551175108
 30
0.0
1001
REVIT
1002
{
1070
     3
1000
923114
1002
}
  0
SPLINE
  5
228
330
1DD
100
AcDbEntity
  8
M-PIPE
100
AcDbSpline
210
0.0
220
0.0
230
1.0
 70
     8
 71
     3
 72
    13
 73
     9
 74
     0
 42
0.000000001
 43
0.0000000001
 40
-1.0
 40
-1.0
 40
-1.0
 40
-1.0
 40
-0.8333333333333332
 40
-0.6666666666666666
 40
-0.5
 40
-0.3333333333333333
 40
-0.1666666666666666
 40
0.0
 40
0.0
 40
0.0
 40
0.0
 10
948.1398659662827
 20
1825.97898291749
 30
0.0
 10
948.136775414367
 20
1825.978382175054
 30
0.0
 10
948.0791467860468
 20
1826.049105336943
 30
0.0
 10
947.8465898472743
 20
1826.364188723294
 30
0.0
 10
947.4525378041226
 20
1826.860728505614
 30
0.0
 10
946.9342765791003
 20
1827.506912024915
 30
0.0
 10
946.3313085711616
 20
1828.259523839405
 30
0.0
 10
945.866944168744
 20
1828.791530799922
 30
0.0
 10
945.6222579262687
 20
1829.055117920728
 30
0.0
1001
REVIT
1002
{
1070
     3
1000
923114
1002
}
  0
SPLINE
  5
229
330
1DD
100
AcDbEntity
  8
M-PIPE
100
AcDbSpline
210
0.0
220
0.0
230
1.0
 70
     8
 71
     3
 72
    11
 73
     7
 74
     0
 42
0.000000001
 43
0.0000000001
 40
0.0
 40
0.0
 40
0.0
 40
0.0
 40
0.25
 40
0.5
 40
0.75
 40
1.0
 40
1.0
 40
1.0
 40
1.0
 10
954.7475616838134
 20
1828.077663327423
 30
0.0
 10
954.5815223347506
 20
1828.211953943512
 30
0.0
 10
954.2142761127395
 20
1828.518348391941
 30
0.0
 10
953.5523384355959
 20
1829.063027556457
 30
0.0
 10
952.8175424881501
 20
1829.66717714607
 30
0.0
 10
952.3076492534984
 20
1830.092339313589
 30
0.0
 10
952.0468756419564
 20
1830.303937098395
 30
0.0
1001
REVIT
1002
{
1070
     3
1000
923114
1002
}
  0
SPLINE
  5
22A
330
1DD
100
AcDbEntity
  8
M-PIPE
100
AcDbSpline
210
0.0
220
0.0
230
1.0
 70
     8
 71
     3
 72
    11
 73
     7
 74
     0
 42
0.000000001
 43
0.0000000001
 40
-1.0
 40
-1.0
 40
-1.0
 40
-1.0
 40
-0.75
 40
-0.5
 40
-0.25
 40
0.0
 40
0.0
 40
0.0
 40
0.0
 10
952.0468756419564
 20
1835.033582397673
 30
0.0
 10
952.3043437303186
 20
1835.249190102745
 30
0.0
 10
952.8189866871823
 20
1835.668590396479
 30
0.0
 10
953.5522420237533
 20
1836.274608896528
 30
0.0
 10
954.2132175610776
 20
1836.820455229977
 30
0.0
 10
954.5840565631907
 20
1837.122491287627
 30
0.0
 10
954.7475616838134
 20
1837.259856168645
 30
0.0
1001
REVIT
1002
{
1070
     3
1000
923114
1002
}
  0
SPLINE
  5
22B
330
1DD
100
AcDbEntity
  8
M-PIPE
100
AcDbSpline
210
0.0
220
0.0
230
1.0
 70
     8
 71
     3
 72
    10
 73
     6
 74
     0
 42
0.000000001
 43
0.0000000001
 40
-1.0
 40
-1.0
 40
-1.0
 40
-1.0
 40
-0.6666666666666666
 40
-0.3333333333333333
 40
0.0
 40
0.0
 40
0.0
 40
0.0
 10
914.3461896000994
 20
1837.259854217743
 30
0.0
 10
914.1641620866634
 20
1837.039037186531
 30
0.0
 10
913.8631991761791
 20
1836.561999134952
 30
0.0
 10
913.6039515025407
 20
1835.80922699262
 30
0.0
 10
913.5468756419564
 20
1835.289478330555
 30
0.0
 10
913.5468756419564
 20
1835.033580446771
 30
0.0
1001
REVIT
1002
{
1070
     3
1000
923114
1002
}
  0
SPLINE
  5
22C
330
1DD
100
AcDbEntity
  8
M-PIPE
100
AcDbSpline
210
0.0
220
0.0
230
1.0
 70
     8
 71
     3
 72
    10
 73
     6
 74
     0
 42
0.000000001
 43
0.0000000001
 40
-1.0
 40
-1.0
 40
-1.0
 40
-1.0
 40
-0.6666666666666666
 40
-0.3333333333333333
 40
0.0
 40
0.0
 40
0.0
 40
0.0
 10
916.3790441581387
 20
1838.469275588838
 30
0.0
 10
916.1278478392295
 20
1838.420447970714
 30
0.0
 10
915.6285390116044
 20
1838.265248034389
 30
0.0
 10
914.9390642019094
 20
1837.867127774474
 30
0.0
 10
914.5282171135356
 20
1837.480671248955
 30
0.0
 10
914.3461896000994
 20
1837.259854217743
 30
0.0
1001
REVIT
1002
{
1070
     3
1000
923114
1002
}
  0
SPLINE
  5
22D
330
1DD
100
AcDbEntity
  8
M-PIPE
100
AcDbSpline
210
0.0
220
0.0
230
1.0
 70
     8
 71
     3
 72
     8
 73
     4
 74
     0
 42
0.000000001
 43
0.0000000001
 40
-0.1888585527182175
 40
-0.1888585527182175
 40
-0.1888585527182175
 40
-0.1888585527182175
 40
0.0
 40
0.0
 40
0.0
 40
0.0
 10
916.2181007221873
 20
1838.434087252319
 30
0.0
 10
916.2665626145114
 20
1838.445900330227
 30
0.0
 10
916.3200635053925
 20
1838.457810911324
 30
0.0
 10
916.3790441581387
 20
1838.469275588838
 30
0.0
1001
REVIT
1002
{
1070
     3
1000
923114
1002
}
  0
SPLINE
  5
22E
330
1DD
100
AcDbEntity
  8
M-PIPE
100
AcDbSpline
210
0.0
220
0.0
230
1.0
 70
     8
 71
     3
 72
     8
 73
     4
 74
     0
 42
0.000000001
 43
0.0000000001
 40
-1.0
 40
-1.0
 40
-1.0
 40
-1.0
 40
-0.6666666666666666
 40
-0.6666666666666666
 40
-0.6666666666666666
 40
-0.6666666666666666
 10
916.3790441581383
 20
1826.868241572392
 30
0.0
 10
916.2749440966029
 20
1826.888476574534
 30
0.0
 10
916.1879144939655
 20
1826.910100640437
 30
0.0
 10
916.1155319206724
 20
1826.93012597987
 30
0.0
1001
REVIT
1002
{
1070
     3
1000
923114
1002
}
  0
SPLINE
  5
22F
330
1DD
100
AcDbEntity
  8
M-PIPE
100
AcDbSpline
210
0.0
220
0.0
230
1.0
 70
     8
 71
     3
 72
    10
 73
     6
 74
     0
 42
0.000000001
 43
0.0000000001
 40
-1.0
 40
-1.0
 40
-1.0
 40
-1.0
 40
-0.6666666666666666
 40
-0.3333333333333333
 40
0.0
 40
0.0
 40
0.0
 40
0.0
 10
914.3461896000994
 20
1828.077662943486
 30
0.0
 10
914.5282171135356
 20
1827.856845912275
 30
0.0
 10
914.9390642019094
 20
1827.470389386755
 30
0.0
 10
915.6285390116044
 20
1827.07226912684
 30
0.0
 10
916.1278478392295
 20
1826.917069190515
 30
0.0
 10
916.3790441581387
 20
1826.868241572392
 30
0.0
1001
REVIT
1002
{
1070
     3
1000
923114
1002
}
  0
SPLINE
  5
230
330
1DD
100
AcDbEntity
  8
M-PIPE
100
AcDbSpline
210
0.0
220
0.0
230
1.0
 70
     8
 71
     3
 72
    10
 73
     6
 74
     0
 42
0.000000001
 43
0.0000000001
 40
-1.0
 40
-1.0
 40
-1.0
 40
-1.0
 40
-0.6666666666666666
 40
-0.3333333333333333
 40
0.0
 40
0.0
 40
0.0
 40
0.0
 10
913.5468756419564
 20
1830.303936714459
 30
0.0
 10
913.5468756419564
 20
1830.048038830675
 30
0.0
 10
913.6039515025407
 20
1829.52829016861
 30
0.0
 10
913.8631991761791
 20
1828.775518026277
 30
0.0
 10
914.1641620866634
 20
1828.298479974698
 30
0.0
 10
914.3461896000994
 20
1828.077662943486
 30
0.0
1001
REVIT
1002
{
1070
     3
1000
923114
1002
}
  0
SPLINE
  5
231
330
1DD
100
AcDbEntity
  8
M-PIPE
100
AcDbSpline
210
0.0
220
0.0
230
1.0
 70
     8
 71
     3
 72
    10
 73
     6
 74
     0
 42
0.000000001
 43
0.0000000001
 40
-1.0
 40
-1.0
 40
-1.0
 40
-1.0
 40
-0.6666666666666666
 40
-0.3333333333333333
 40
0.0
 40
0.0
 40
0.0
 40
0.0
 10
954.7475616838134
 20
1828.077663327423
 30
0.0
 10
954.9295891972496
 20
1828.298480358635
 30
0.0
 10
955.2305521077339
 20
1828.775518410214
 30
0.0
 10
955.4897997813723
 20
1829.528290552547
 30
0.0
 10
955.5468756419564
 20
1830.048039214611
 30
0.0
 10
955.5468756419564
 20
1830.303937098395
 30
0.0
1001
REVIT
1002
{
1070
     3
1000
923114
1002
}
  0
SPLINE
  5
232
330
1DD
100
AcDbEntity
  8
M-PIPE
100
AcDbSpline
210
0.0
220
0.0
230
1.0
 70
     8
 71
     3
 72
    10
 73
     6
 74
     0
 42
0.000000001
 43
0.0000000001
 40
-1.0
 40
-1.0
 40
-1.0
 40
-1.0
 40
-0.6666666666666666
 40
-0.3333333333333333
 40
0.0
 40
0.0
 40
0.0
 40
0.0
 10
952.7147071257743
 20
1826.868241956329
 30
0.0
 10
952.9659034446835
 20
1826.917069574452
 30
0.0
 10
953.4652122723084
 20
1827.072269510777
 30
0.0
 10
954.1546870820036
 20
1827.470389770692
 30
0.0
 10
954.5655341703774
 20
1827.856846296211
 30
0.0
 10
954.7475616838134
 20
1828.077663327423
 30
0.0
1001
REVIT
1002
{
1070
     3
1000
923114
1002
}
  0
SPLINE
  5
233
330
1DD
100
AcDbEntity
  8
M-PIPE
100
AcDbSpline
210
0.0
220
0.0
230
1.0
 70
     8
 71
     3
 72
     8
 73
     4
 74
     0
 42
0.000000001
 43
0.0000000001
 40
-0.3333333333333333
 40
-0.3333333333333333
 40
-0.3333333333333333
 40
-0.3333333333333333
 40
0.0
 40
0.0
 40
0.0
 40
0.0
 10
952.9782194315147
 20
1826.930126382654
 30
0.0
 10
952.905836838971
 20
1826.910101036295
 30
0.0
 10
952.8188072139725
 20
1826.888476963653
 30
0.0
 10
952.7147071257743
 20
1826.868241956329
 30
0.0
1001
REVIT
1002
{
1070
     3
1000
923114
1002
}
  0
SPLINE
  5
234
330
1DD
100
AcDbEntity
  8
M-PIPE
100
AcDbSpline
210
0.0
220
0.0
230
1.0
 70
     8
 71
     3
 72
     8
 73
     4
 74
     0
 42
0.000000001
 43
0.0000000001
 40
-1.0
 40
-1.0
 40
-1.0
 40
-1.0
 40
-0.7839626604589789
 40
-0.7839626604589789
 40
-0.7839626604589789
 40
-0.7839626604589789
 10
952.7147071257743
 20
1838.46927753974
 30
0.0
 10
952.7821756440753
 20
1838.456162988295
 30
0.0
 10
952.8424737281589
 20
1838.442464961092
 30
0.0
 10
952.8962611302119
 20
1838.42899685131
 30
0.0
1001
REVIT
1002
{
1070
     3
1000
923114
1002
}
  0
SPLINE
  5
235
330
1DD
100
AcDbEntity
  8
M-PIPE
100
AcDbSpline
210
0.0
220
0.0
230
1.0
 70
     8
 71
     3
 72
    10
 73
     6
 74
     0
 42
0.000000001
 43
0.0000000001
 40
-1.0
 40
-1.0
 40
-1.0
 40
-1.0
 40
-0.6666666666666666
 40
-0.3333333333333333
 40
0.0
 40
0.0
 40
0.0
 40
0.0
 10
954.7475616838134
 20
1837.259856168645
 30
0.0
 10
954.5655341703774
 20
1837.480673199857
 30
0.0
 10
954.1546870820036
 20
1837.867129725376
 30
0.0
 10
953.4652122723086
 20
1838.265249985291
 30
0.0
 10
952.9659034446835
 20
1838.420449921616
 30
0.0
 10
952.7147071257743
 20
1838.46927753974
 30
0.0
1001
REVIT
1002
{
1070
     3
1000
923114
1002
}
  0
SPLINE
  5
236
330
1DD
100
AcDbEntity
  8
M-PIPE
100
AcDbSpline
210
0.0
220
0.0
230
1.0
 70
     8
 71
     3
 72
    10
 73
     6
 74
     0
 42
0.000000001
 43
0.0000000001
 40
-1.0
 40
-1.0
 40
-1.0
 40
-1.0
 40
-0.6666666666666666
 40
-0.3333333333333333
 40
0.0
 40
0.0
 40
0.0
 40
0.0
 10
955.5468756419564
 20
1835.033582397673
 30
0.0
 10
955.5468756419564
 20
1835.289480281456
 30
0.0
 10
955.4897997813723
 20
1835.809228943521
 30
0.0
 10
955.2305521077339
 20
1836.562001085854
 30
0.0
 10
954.9295891972496
 20
1837.039039137433
 30
0.0
 10
954.7475616838134
 20
1837.259856168645
 30
0.0
1001
REVIT
1002
{
1070
     3
1000
923114
1002
}
  0
LINE
  5
237
330
1DD
100
AcDbEntity
  8
P-SANR-FIXT
100
AcDbLine
 10
941.5468756419578
 20
1806.668759748004
 30
0.0
 11
941.5468756419578
 21
1804.668759748036
 31
0.0
  0
LINE
  5
238
330
1DD
100
AcDbEntity
  8
P-SANR-FIXT
100
AcDbLine
 10
959.5468756419583
 20
1804.668759748036
 30
0.0
 11
959.5468756419583
 21
1806.668759748004
 31
0.0
  0
LINE
  5
239
330
1DD
100
AcDbEntity
  8
P-SANR-FIXT
100
AcDbLine
 10
959.5468756419567
 20
1806.668759748003
 30
0.0
 11
941.5468756419562
 21
1806.668759748004
 31
0.0
  0
LINE
  5
23A
330
1DD
100
AcDbEntity
  8
P-SANR-FIXT
100
AcDbLine
 10
941.5468756419562
 20
1804.668759748036
 30
0.0
 11
942.5303900814018
 21
1804.668759748036
 31
0.0
  0
LINE
  5
23B
330
1DD
100
AcDbEntity
  8
P-SANR-FIXT
100
AcDbLine
 10
942.7526470078962
 20
1804.668759748036
 30
0.0
 11
942.9616784355596
 21
1804.668759748036
 31
0.0
  0
LINE
  5
23C
330
1DD
100
AcDbEntity
  8
P-SANR-FIXT
100
AcDbLine
 10
942.9957569898666
 20
1804.668759748036
 30
0.0
 11
950.0815087334917
 21
1804.668759748036
 31
0.0
  0
LINE
  5
23D
330
1DD
100
AcDbEntity
  8
P-SANR-FIXT
100
AcDbLine
 10
950.1165256151901
 20
1804.668759748036
 30
0.0
 11
950.977225668722
 21
1804.668759748036
 31
0.0
  0
LINE
  5
23E
330
1DD
100
AcDbEntity
  8
P-SANR-FIXT
100
AcDbLine
 10
951.0122425504205
 20
1804.668759748036
 30
0.0
 11
958.0979942940464
 21
1804.668759748036
 31
0.0
  0
LINE
  5
23F
330
1DD
100
AcDbEntity
  8
P-SANR-FIXT
100
AcDbLine
 10
958.1320728483511
 20
1804.668759748036
 30
0.0
 11
958.3411042760166
 21
1804.668759748036
 31
0.0
  0
LINE
  5
240
330
1DD
100
AcDbEntity
  8
P-SANR-FIXT
100
AcDbLine
 10
958.5633612025104
 20
1804.668759748036
 30
0.0
 11
959.5468756419567
 21
1804.668759748036
 31
0.0
  0
LINE
  5
241
330
1DD
100
AcDbEntity
  8
P-SANR-FIXT
100
AcDbLine
 10
909.5468756419576
 20
1806.668759748004
 30
0.0
 11
909.5468756419576
 21
1804.668759748036
 31
0.0
  0
LINE
  5
242
330
1DD
100
AcDbEntity
  8
P-SANR-FIXT
100
AcDbLine
 10
927.5468756419583
 20
1804.668759748036
 30
0.0
 11
927.5468756419583
 21
1806.668759748004
 31
0.0
  0
LINE
  5
243
330
1DD
100
AcDbEntity
  8
P-SANR-FIXT
100
AcDbLine
 10
927.5468756419567
 20
1806.668759748004
 30
0.0
 11
909.5468756419561
 21
1806.668759748004
 31
0.0
  0
LINE
  5
244
330
1DD
100
AcDbEntity
  8
P-SANR-FIXT
100
AcDbLine
 10
909.5468756419561
 20
1804.668759748036
 30
0.0
 11
910.5303900814019
 21
1804.668759748036
 31
0.0
  0
LINE
  5
245
330
1DD
100
AcDbEntity
  8
P-SANR-FIXT
100
AcDbLine
 10
910.7526470078962
 20
1804.668759748036
 30
0.0
 11
910.9616784355598
 21
1804.668759748036
 31
0.0
  0
LINE
  5
246
330
1DD
100
AcDbEntity
  8
P-SANR-FIXT
100
AcDbLine
 10
910.9957569898666
 20
1804.668759748036
 30
0.0
 11
918.0815087334918
 21
1804.668759748036
 31
0.0
  0
LINE
  5
247
330
1DD
100
AcDbEntity
  8
P-SANR-FIXT
100
AcDbLine
 10
918.1165256151901
 20
1804.668759748036
 30
0.0
 11
918.9772256687222
 21
1804.668759748036
 31
0.0
  0
LINE
  5
248
330
1DD
100
AcDbEntity
  8
P-SANR-FIXT
100
AcDbLine
 10
919.0122425504203
 20
1804.668759748036
 30
0.0
 11
926.0979942940466
 21
1804.668759748036
 31
0.0
  0
LINE
  5
249
330
1DD
100
AcDbEntity
  8
P-SANR-FIXT
100
AcDbLine
 10
926.1320728483513
 20
1804.668759748036
 30
0.0
 11
926.3411042760166
 21
1804.668759748036
 31
0.0
  0
LINE
  5
24A
330
1DD
100
AcDbEntity
  8
P-SANR-FIXT
100
AcDbLine
 10
926.5633612025103
 20
1804.668759748036
 30
0.0
 11
927.5468756419567
 21
1804.668759748036
 31
0.0
  0
ARC
  5
24B
330
1DD
100
AcDbEntity
  8
P-SANR-FIXT
100
AcDbCircle
 10
934.5468756419561
 20
1832.668759748034
 30
0.0
 40
20.99999999999999
100
AcDbArc
 50
190.6748523010778
 51
349.3251487672392
  0
ARC
  5
24C
330
1DD
100
AcDbEntity
  8
P-SANR-FIXT
100
AcDbCircle
 10
934.5468756419561
 20
1832.668759748034
 30
0.0
 40
19.90786150301865
100
AcDbArc
 50
195.8566603279341
 51
281.25
  0
ARC
  5
24D
330
1DD
100
AcDbEntity
  8
P-SANR-FIXT
100
AcDbCircle
 10
934.5468756419561
 20
1832.668759748034
 30
0.0
 40
19.90786150301872
100
AcDbArc
 50
281.2500051533009
 51
344.1433410066347
  0
LINE
  5
24E
330
1DD
100
AcDbEntity
  8
P-SANR-FIXT
100
AcDbLine
 10
892.0468756419579
 20
1811.418759748034
 30
0.0
 11
892.1913436623976
 21
1811.168533796564
 31
0.0
  0
LINE
  5
24F
330
1DD
100
AcDbEntity
  8
P-SANR-FIXT
100
AcDbLine
 10
904.7612533483309
 20
1811.168533796564
 30
0.0
 11
905.9160843398522
 21
1813.168759748035
 31
0.0
  0
LWPOLYLINE
  5
250
330
1DD
100
AcDbEntity
  8
P-SANR-FIXT
100
AcDbPolyline
 90
       28
 70
   128
 43
0.0
 10
907.6481351474212
 20
1814.168759748034
 10
907.5681564790478
 20
1814.167159961357
 10
907.4883057594828
 20
1814.16236316064
 10
907.4087107328432
 20
1814.154377019742
 10
907.3294987341927
 20
1814.143214314785
 10
907.250796485831
 20
1814.128892903717
 10
907.1727298945669
 20
1814.111435697738
 10
907.0954238502928
 20
1814.090870624656
 10
907.0190020261888
 20
1814.067230584199
 10
906.9435866808708
 20
1814.04055339539
 10
906.8692984628038
 20
1814.01088173604
 10
906.796256217289
 20
1813.978263074474
 10
906.7245767963381
 20
1813.942749593593
 10
906.6543748717336
 20
1813.904398107389
 10
906.5857627515791
 20
1813.863269970061
 10
906.5188502006311
 20
1813.819430977854
 10
906.4537442646964
 20
1813.772951263803
 10
906.3905490993843
 20
1813.723905185536
 10
906.3293658034782
 20
1813.672371206316
 10
906.2702922571999
 20
1813.618431769516
 10
906.2134229656221
 20
1813.562173166728
 10
906.1588489074793
 20
1813.503685399717
 10
906.1066573896232
 20
1813.443062036431
 10
906.0569319073483
 20
1813.380400061321
 10
906.009752010819
 20
1813.315799720179
 10
905.9651931778052
 20
1813.249364359771
 10
905.9233266929345
 20
1813.1812002625
 10
905.9160843398522
 20
1813.168759748035
  0
LINE
  5
251
330
1DD
100
AcDbEntity
  8
P-SANR-FIXT
100
AcDbLine
 10
907.6481351474212
 20
1814.168759748034
 30
0.0
 11
909.5513793797387
 21
1814.168759748034
 31
0.0
  0
LINE
  5
252
330
1DD
100
AcDbEntity
  8
P-SANR-FIXT
100
AcDbLine
 10
959.5423719041773
 20
1814.168759748034
 30
0.0
 11
961.4456161364952
 21
1814.168759748034
 31
0.0
  0
LWPOLYLINE
  5
253
330
1DD
100
AcDbEntity
  8
P-SANR-FIXT
100
AcDbPolyline
 90
       28
 70
   128
 43
0.0
 10
963.1776669440641
 20
1813.168759748035
 10
963.1362921539738
 20
1813.237223413267
 10
963.0922126429135
 20
1813.303977764563
 10
963.0454989286983
 20
1813.368916009199
 10
962.9962257433058
 20
1813.431934259837
 10
962.9444719133214
 20
1813.492931700718
 10
962.8903202338328
 20
1813.55181074895
 10
962.8338573359757
 20
1813.608477210617
 10
962.7751735483418
 20
1813.662840431466
 10
962.7143627524727
 20
1813.714813441942
 10
962.6515222326695
 20
1813.764313096315
 10
962.5867525203586
 20
1813.811260205697
 10
962.5201572332629
 20
1813.855579664729
 10
962.4518429096358
 20
1813.897200571729
 10
962.381918837822
 20
1813.936056342126
 10
962.31049688142
 20
1813.972084814976
 10
962.2376913003238
 20
1814.005228352407
 10
962.1636185679328
 20
1814.03543393183
 10
962.088397184817
 20
1814.062653230762
 10
962.0121474891435
 20
1814.08684270413
 10
961.934991464159
 20
1814.107963653938
 10
961.8570525430451
 20
1814.125982291171
 10
961.7784554114487
 20
1814.140869789855
 10
961.6993258080146
 20
1814.152602333165
 10
961.6197903232279
 20
1814.161161151536
 10
961.5399761968976
 20
1814.166532552684
 10
961.4600111145996
 20
1814.168707943515
 10
961.4456161364952
 20
1814.168759748034
  0
LINE
  5
254
330
1DD
100
AcDbEntity
  8
P-SANR-FIXT
100
AcDbLine
 10
963.1776669440641
 20
1813.168759748035
 30
0.0
 11
964.3324979355853
 21
1811.168533796564
 31
0.0
  0
LINE
  5
255
330
1DD
100
AcDbEntity
  8
P-SANR-FIXT
100
AcDbLine
 10
976.9024076215183
 20
1811.168533796564
 30
0.0
 11
977.046875641958
 21
1811.418759748035
 31
0.0
  0
LINE
  5
256
330
1DD
100
AcDbEntity
  8
P-SANR-FIXT
100
AcDbLine
 10
941.5468756419578
 20
1812.35393137859
 30
0.0
 11
941.5468756419578
 21
1807.168759748028
 31
0.0
  0
LINE
  5
257
330
1DD
100
AcDbEntity
  8
P-SANR-FIXT
100
AcDbLine
 10
959.5468756419581
 20
1807.168759748028
 30
0.0
 11
959.5468756419581
 21
1814.17360863683
 31
0.0
  0
LINE
  5
258
330
1DD
100
AcDbEntity
  8
P-SANR-FIXT
100
AcDbLine
 10
941.5468756419578
 20
1807.168759748028
 30
0.0
 11
942.0468756419513
 21
1806.668759748034
 31
0.0
  0
LINE
  5
259
330
1DD
100
AcDbEntity
  8
P-SANR-FIXT
100
AcDbLine
 10
959.0468756419646
 20
1806.668759748034
 30
0.0
 11
959.5468756419581
 21
1807.168759748028
 31
0.0
  0
LINE
  5
25A
330
1DD
100
AcDbEntity
  8
P-SANR-FIXT
100
AcDbLine
 10
909.5468756419581
 20
1814.17360863683
 30
0.0
 11
909.5468756419581
 21
1807.168759748028
 31
0.0
  0
LINE
  5
25B
330
1DD
100
AcDbEntity
  8
P-SANR-FIXT
100
AcDbLine
 10
927.5468756419577
 20
1807.168759748028
 30
0.0
 11
927.5468756419577
 21
1812.35393137859
 31
0.0
  0
LINE
  5
25C
330
1DD
100
AcDbEntity
  8
P-SANR-FIXT
100
AcDbLine
 10
909.5468756419581
 20
1807.168759748028
 30
0.0
 11
910.0468756419514
 21
1806.668759748034
 31
0.0
  0
LINE
  5
25D
330
1DD
100
AcDbEntity
  8
P-SANR-FIXT
100
AcDbLine
 10
927.0468756419646
 20
1806.668759748034
 30
0.0
 11
927.5468756419577
 21
1807.168759748028
 31
0.0
  0
LINE
  5
25E
330
1DD
100
AcDbEntity
  8
P-SANR-FIXT
100
AcDbLine
 10
942.976161427668
 20
1801.168759748019
 30
0.0
 11
942.546875641959
 21
1801.168759748019
 31
0.0
  0
LINE
  5
25F
330
1DD
100
AcDbEntity
  8
P-SANR-FIXT
100
AcDbLine
 10
958.5468756419533
 20
1801.168759748019
 30
0.0
 11
958.1175898562431
 21
1801.168759748019
 31
0.0
  0
LINE
  5
260
330
1DD
100
AcDbEntity
  8
P-SANR-FIXT
100
AcDbLine
 10
958.1175898562431
 20
1801.168759748019
 30
0.0
 11
950.9761614276662
 21
1801.168759748019
 31
0.0
  0
LINE
  5
261
330
1DD
100
AcDbEntity
  8
P-SANR-FIXT
100
AcDbLine
 10
950.9761614276662
 20
1801.168759748019
 30
0.0
 11
950.1175898562461
 21
1801.168759748019
 31
0.0
  0
LINE
  5
262
330
1DD
100
AcDbEntity
  8
P-SANR-FIXT
100
AcDbLine
 10
950.1175898562461
 20
1801.168759748019
 30
0.0
 11
942.976161427668
 21
1801.168759748019
 31
0.0
  0
LINE
  5
263
330
1DD
100
AcDbEntity
  8
P-SANR-FIXT
100
AcDbLine
 10
950.1175898562461
 20
1804.668759748036
 30
0.0
 11
950.9761614276662
 21
1804.668759748036
 31
0.0
  0
LINE
  5
264
330
1DD
100
AcDbEntity
  8
P-SANR-FIXT
100
AcDbLine
 10
958.1175898562429
 20
1804.668759748036
 30
0.0
 11
958.5468756419533
 21
1804.668759748036
 31
0.0
  0
LINE
  5
265
330
1DD
100
AcDbEntity
  8
P-SANR-FIXT
100
AcDbLine
 10
942.546875641959
 20
1804.668759748036
 30
0.0
 11
942.976161427668
 21
1804.668759748036
 31
0.0
  0
LINE
  5
266
330
1DD
100
AcDbEntity
  8
P-SANR-FIXT
100
AcDbLine
 10
942.546875641959
 20
1801.168759748019
 30
0.0
 11
942.546875641959
 21
1804.668759748036
 31
0.0
  0
LINE
  5
267
330
1DD
100
AcDbEntity
  8
P-SANR-FIXT
100
AcDbLine
 10
958.1175898562431
 20
1801.168759748019
 30
0.0
 11
958.1175898562431
 21
1804.668759748036
 31
0.0
  0
LINE
  5
268
330
1DD
100
AcDbEntity
  8
P-SANR-FIXT
100
AcDbLine
 10
950.1175898562461
 20
1801.168759748019
 30
0.0
 11
950.1175898562461
 21
1804.668759748036
 31
0.0
  0
LINE
  5
269
330
1DD
100
AcDbEntity
  8
P-SANR-FIXT
100
AcDbLine
 10
892.0468756419564
 20
1811.418759748034
 30
0.0
 11
892.0468756419564
 21
1832.668759748034
 31
0.0
  0
SPLINE
  5
26A
330
1DD
100
AcDbEntity
  8
P-SANR-FIXT
100
AcDbSpline
210
0.0
220
0.0
230
1.0
 70
    24
 71
     3
 72
     9
 73
     5
 74
     0
 42
0.000000001
 43
0.0000000001
 40
-0.5034712158695749
 40
-0.5034712158695749
 40
-0.5034712158695749
 40
-0.5034712158695749
 40
-0.5
 40
0.0
 40
0.0
 40
0.0
 40
0.0
 10
892.1913436623961
 20
1811.168759748033
 30
0.0
 10
892.1912982140259
 20
1811.168759748033
 30
0.0
 10
892.1880022585209
 20
1811.168759748033
 30
0.0
 10
892.6627574495128
 20
1811.168759748033
 30
0.0
 10
893.6057213687687
 20
1811.168759748033
 30
0.0
  0
SPLINE
  5
26B
330
1DD
100
AcDbEntity
  8
P-SANR-FIXT
100
AcDbSpline
210
0.0
220
0.0
230
1.0
 70
     8
 71
     3
 72
     9
 73
     5
 74
     0
 42
0.000000001
 43
0.0000000001
 40
-1.0
 40
-1.0
 40
-1.0
 40
-1.0
 40
-0.5
 40
0.0
 40
0.0
 40
0.0
 40
0.0
 10
893.6057213687687
 20
1812.780139775631
 30
0.0
 10
892.6627574494837
 20
1815.865667999283
 30
0.0
 10
891.7197935301985
 20
1821.997402880403
 30
0.0
 10
892.6627574494835
 20
1828.050494629153
 30
0.0
 10
893.6057213687687
 20
1831.057379720437
 30
0.0
  0
LINE
  5
26C
330
1DD
100
AcDbEntity
  8
P-SANR-FIXT
100
AcDbLine
 10
893.6057213687687
 20
1831.057379720436
 30
0.0
 11
893.6057213687687
 21
1832.668759748034
 31
0.0
  0
LINE
  5
26D
330
1DD
100
AcDbEntity
  8
P-SANR-FIXT
100
AcDbLine
 10
893.6057213687687
 20
1831.057379720437
 30
0.0
 11
903.3468756419569
 21
1831.057379720437
 31
0.0
  0
LINE
  5
26E
330
1DD
100
AcDbEntity
  8
P-SANR-FIXT
100
AcDbLine
 10
893.6057213687687
 20
1811.168759748033
 30
0.0
 11
893.6057213687687
 21
1812.780139775631
 31
0.0
  0
LINE
  5
26F
330
1DD
100
AcDbEntity
  8
P-SANR-FIXT
100
AcDbLine
 10
893.6057213687687
 20
1811.168759748034
 30
0.0
 11
903.3468756419569
 21
1811.168759748034
 31
0.0
  0
LINE
  5
270
330
1DD
100
AcDbEntity
  8
P-SANR-FIXT
100
AcDbLine
 10
903.3468756419569
 20
1812.780139775631
 30
0.0
 11
893.6057213687687
 21
1812.780139775631
 31
0.0
  0
LINE
  5
271
330
1DD
100
AcDbEntity
  8
P-SANR-FIXT
100
AcDbLine
 10
903.3468756419569
 20
1831.057379720437
 30
0.0
 11
903.3468756419569
 21
1832.668759748034
 31
0.0
  0
SPLINE
  5
272
330
1DD
100
AcDbEntity
  8
P-SANR-FIXT
100
AcDbSpline
210
0.0
220
0.0
230
1.0
 70
     8
 71
     3
 72
     9
 73
     5
 74
     0
 42
0.000000001
 43
0.0000000001
 40
-1.0
 40
-1.0
 40
-1.0
 40
-1.0
 40
-0.5
 40
0.0
 40
0.0
 40
0.0
 40
0.0
 10
903.3468756419569
 20
1831.057379720437
 30
0.0
 10
904.289839561242
 20
1828.050494629154
 30
0.0
 10
905.2328034805269
 20
1821.997402880403
 30
0.0
 10
904.289839561242
 20
1815.865667999283
 30
0.0
 10
903.3468756419569
 20
1812.780139775631
 30
0.0
  0
LINE
  5
273
330
1DD
100
AcDbEntity
  8
P-SANR-FIXT
100
AcDbLine
 10
903.3468756419569
 20
1811.168759748034
 30
0.0
 11
903.3468756419569
 21
1812.780139775631
 31
0.0
  0
SPLINE
  5
274
330
1DD
100
AcDbEntity
  8
P-SANR-FIXT
100
AcDbSpline
210
0.0
220
0.0
230
1.0
 70
    24
 71
     3
 72
     9
 73
     5
 74
     0
 42
0.000000001
 43
0.0000000001
 40
-1.0
 40
-1.0
 40
-1.0
 40
-1.0
 40
-0.5
 40
-0.4965287841304434
 40
-0.4965287841304434
 40
-0.4965287841304434
 40
-0.4965287841304434
 10
903.3468756419569
 20
1811.168759748034
 30
0.0
 10
904.289839561242
 20
1811.168759748034
 30
0.0
 10
904.7645947522052
 20
1811.168759748034
 30
0.0
 10
904.7612987966996
 20
1811.168759748034
 30
0.0
 10
904.7612533483295
 20
1811.168759748034
 30
0.0
  0
SPLINE
  5
275
330
1DD
100
AcDbEntity
  8
P-SANR-FIXT
100
AcDbSpline
210
0.0
220
0.0
230
1.0
 70
     8
 71
     3
 72
     8
 73
     4
 74
     0
 42
0.000000001
 43
0.0000000001
 40
0.4814814814814815
 40
0.4814814814814815
 40
0.4814814814814815
 40
0.4814814814814815
 40
0.4999842769514812
 40
0.4999842769514812
 40
0.4999842769514812
 40
0.4999842769514812
 10
909.5631611190968
 20
1814.175702430276
 30
0.0
 10
909.5546064576922
 20
1814.17129307771
 30
0.0
 10
909.5504688376049
 20
1814.169039667309
 30
0.0
 10
909.5507277797652
 20
1814.168977041363
 30
0.0
  0
SPLINE
  5
276
330
1DD
100
AcDbEntity
  8
P-SANR-FIXT
100
AcDbSpline
210
0.0
220
0.0
230
1.0
 70
     8
 71
     3
 72
    13
 73
     9
 74
     0
 42
0.000000001
 43
0.0000000001
 40
0.4999846016618825
 40
0.4999846016618825
 40
0.4999846016618825
 40
0.4999846016618825
 40
0.5138888888888889
 40
0.5833333333333333
 40
0.6527777777777777
 40
0.7222222222222223
 40
0.861111111111111
 40
1.0
 40
1.0
 40
1.0
 40
1.0
 10
909.5507934430093
 20
1814.168981872214
 30
0.0
 10
909.5509991514578
 20
1814.16893567889
 30
0.0
 10
909.5669920424098
 20
1814.176065764662
 30
0.0
 10
909.755489531985
 20
1814.27132550503
 30
0.0
 10
910.3996910156853
 20
1814.571794117831
 30
0.0
 10
911.6596096445238
 20
1815.11973630857
 30
0.0
 10
913.9798139354653
 20
1815.970864598972
 30
0.0
 10
916.2818973291875
 20
1816.382090831255
 30
0.0
 10
917.5468756419569
 20
1816.474625007336
 30
0.0
  0
SPLINE
  5
277
330
1DD
100
AcDbEntity
  8
P-SANR-FIXT
100
AcDbSpline
210
0.0
220
0.0
230
1.0
 70
     8
 71
     3
 72
     8
 73
     4
 74
     0
 42
0.000000001
 43
0.0000000001
 40
0.1666666666666666
 40
0.1666666666666666
 40
0.1666666666666666
 40
0.1666666666666666
 40
0.25
 40
0.25
 40
0.25
 40
0.25
 10
916.349766476366
 20
1821.207415842063
 30
0.0
 10
916.1612602475203
 20
1821.510230717937
 30
0.0
 10
915.977896275846
 20
1821.822481288769
 30
0.0
 10
915.7991637040344
 20
1822.143870338035
 30
0.0
  0
SPLINE
  5
278
330
1DD
100
AcDbEntity
  8
P-SANR-FIXT
100
AcDbSpline
210
0.0
220
0.0
230
1.0
 70
     8
 71
     3
 72
     9
 73
     5
 74
     0
 42
0.000000001
 43
0.0000000001
 40
0.3333333333333333
 40
0.3333333333333333
 40
0.3333333333333333
 40
0.3333333333333333
 40
0.375
 40
0.4166666666666666
 40
0.4166666666666666
 40
0.4166666666666666
 40
0.4166666666666666
 10
915.2779783308307
 20
1823.135077039673
 30
0.0
 10
915.1938179521092
 20
1823.304732130255
 30
0.0
 10
915.0284174672478
 20
1823.648450785541
 30
0.0
 10
914.8693403998933
 20
1824.000763254666
 30
0.0
 10
914.7921124307899
 20
1824.179071797646
 30
0.0
  0
SPLINE
  5
279
330
1DD
100
AcDbEntity
  8
P-SANR-FIXT
100
AcDbSpline
210
0.0
220
0.0
230
1.0
 70
     8
 71
     3
 72
     8
 73
     4
 74
     0
 42
0.000000001
 43
0.0000000001
 40
0.5
 40
0.5
 40
0.5
 40
0.5
 40
0.5029701937279143
 40
0.5029701937279143
 40
0.5029701937279143
 40
0.5029701937279143
 10
914.358387035984
 20
1825.274510103443
 30
0.0
 10
914.3535748999983
 20
1825.287829187557
 30
0.0
 10
914.3487723109604
 20
1825.301158341565
 30
0.0
 10
914.3439794169548
 20
1825.31449764464
 30
0.0
  0
SPLINE
  5
27A
330
1DD
100
AcDbEntity
  8
P-SANR-FIXT
100
AcDbSpline
210
0.0
220
0.0
230
1.0
 70
     8
 71
     3
 72
     9
 73
     5
 74
     0
 42
0.000000001
 43
0.0000000001
 40
0.5833333333333333
 40
0.5833333333333333
 40
0.5833333333333333
 40
0.5833333333333333
 40
0.625
 40
0.6666666666666666
 40
0.6666666666666666
 40
0.6666666666666666
 40
0.6666666666666666
 10
913.9778763058364
 20
1826.420430500958
 30
0.0
 10
913.9183448074046
 20
1826.615389091932
 30
0.0
 10
913.8055421036364
 20
1827.009731319006
 30
0.0
 10
913.6954246922751
 20
1827.407805936258
 30
0.0
 10
913.6435683830583
 20
1827.608445215102
 30
0.0
  0
SPLINE
  5
27B
330
1DD
100
AcDbEntity
  8
P-SANR-FIXT
100
AcDbSpline
210
0.0
220
0.0
230
1.0
 70
     8
 71
     3
 72
     8
 73
     4
 74
     0
 42
0.000000001
 43
0.0000000001
 40
0.75
 40
0.75
 40
0.75
 40
0.75
 40
0.7565439115046857
 40
0.7565439115046857
 40
0.7565439115046857
 40
0.7565439115046857
 10
913.3911078722162
 20
1828.836855512171
 30
0.0
 10
913.3852736278297
 20
1828.869356108055
 30
0.0
 10
913.3796576457694
 20
1828.901928477219
 30
0.0
 10
913.3742486051383
 20
1828.934568902522
 30
0.0
  0
SPLINE
  5
27C
330
1DD
100
AcDbEntity
  8
P-SANR-FIXT
100
AcDbSpline
210
0.0
220
0.0
230
1.0
 70
     8
 71
     3
 72
     8
 73
     4
 74
     0
 42
0.000000001
 43
0.0000000001
 40
0.8333333333333333
 40
0.8333333333333333
 40
0.8333333333333333
 40
0.8333333333333333
 40
0.9166666666666667
 40
0.9166666666666667
 40
0.9166666666666667
 40
0.9166666666666667
 10
913.2052238984275
 20
1830.092053597322
 30
0.0
 10
913.155437966667
 20
1830.514694960602
 30
0.0
 10
913.1289669047559
 20
1830.94400645728
 30
0.0
 10
913.1083843246816
 20
1831.375090133638
 30
0.0
  0
LINE
  5
27D
330
1DD
100
AcDbEntity
  8
P-SANR-FIXT
100
AcDbLine
 10
917.5468756419569
 20
1819.534452319028
 30
0.0
 11
917.5468756419569
 21
1819.502293385683
 31
0.0
  0
SPLINE
  5
27E
330
1DD
100
AcDbEntity
  8
P-SANR-FIXT
100
AcDbSpline
210
0.0
220
0.0
230
1.0
 70
     8
 71
     3
 72
     8
 73
     4
 74
     0
 42
0.000000001
 43
0.0000000001
 40
-1.0
 40
-1.0
 40
-1.0
 40
-1.0
 40
-0.5
 40
-0.5
 40
-0.5
 40
-0.5
 10
918.546875641957
 20
1818.307353131688
 30
0.0
 10
918.3928505259959
 20
1818.478952051014
 30
0.0
 10
918.2316567874121
 20
1818.664068484257
 30
0.0
 10
918.0645397062411
 20
1818.863593972056
 30
0.0
  0
LINE
  5
27F
330
1DD
100
AcDbEntity
  8
P-SANR-FIXT
100
AcDbLine
 10
917.5468756419569
 20
1816.474625007336
 30
0.0
 11
917.5468756419569
 21
1819.506313166945
 31
0.0
  0
SPLINE
  5
280
330
1DD
100
AcDbEntity
  8
P-SANR-FIXT
100
AcDbSpline
210
0.0
220
0.0
230
1.0
 70
     8
 71
     3
 72
     9
 73
     5
 74
     0
 42
0.000000001
 43
0.0000000001
 40
-1.0
 40
-1.0
 40
-1.0
 40
-1.0
 40
-0.5
 40
0.0
 40
0.0
 40
0.0
 40
0.0
 10
917.5468756419569
 20
1816.474625007336
 30
0.0
 10
917.7116000987
 20
1816.67332488276
 30
0.0
 10
918.0433216140203
 20
1817.069658711666
 30
0.0
 10
918.3786033862094
 20
1817.463860696692
 30
0.0
 10
918.5468756419568
 20
1817.660428728234
 30
0.0
  0
SPLINE
  5
281
330
1DD
100
AcDbEntity
  8
P-SANR-FIXT
100
AcDbSpline
210
0.0
220
0.0
230
1.0
 70
     8
 71
     3
 72
     8
 73
     4
 74
     0
 42
0.000000001
 43
0.0000000001
 40
0.9558263345514223
 40
0.9558263345514223
 40
0.9558263345514223
 40
0.9558263345514223
 40
0.9573166262473222
 40
0.9573166262473222
 40
0.9573166262473222
 40
0.9573166262473222
 10
919.1896897685126
 20
1817.644818790294
 30
0.0
 10
919.1825306568826
 20
1817.645131686904
 30
0.0
 10
919.1753646426823
 20
1817.645430991919
 30
0.0
 10
919.1681921862446
 20
1817.645717611964
 30
0.0
  0
LINE
  5
282
330
1DD
100
AcDbEntity
  8
P-SANR-FIXT
100
AcDbLine
 10
918.5468756419568
 20
1818.327937924003
 30
0.0
 11
918.5468756419568
 21
1818.298217322313
 31
0.0
  0
LINE
  5
283
330
1DD
100
AcDbEntity
  8
P-SANR-FIXT
100
AcDbLine
 10
918.5468756419568
 20
1817.660428728234
 30
0.0
 11
918.5468756419568
 21
1818.307353131688
 31
0.0
  0
SPLINE
  5
284
330
1DD
100
AcDbEntity
  8
P-SANR-FIXT
100
AcDbSpline
210
0.0
220
0.0
230
1.0
 70
     8
 71
     3
 72
     9
 73
     5
 74
     0
 42
0.000000001
 43
0.0000000001
 40
0.0
 40
0.0
 40
0.0
 40
0.0
 40
0.5
 40
1.0
 40
1.0
 40
1.0
 40
1.0
 10
918.5468756419568
 20
1817.660428728234
 30
0.0
 10
918.6499718774092
 20
1817.660426536709
 30
0.0
 10
918.8559995245078
 20
1817.65830432171
 30
0.0
 10
919.0616975239949
 20
1817.651953932873
 30
0.0
 10
919.1644641118354
 20
1817.647727309549
 30
0.0
  0
LINE
  5
285
330
1DD
100
AcDbEntity
  8
P-SANR-FIXT
100
AcDbLine
 10
950.5468756419562
 20
1818.327937924004
 30
0.0
 11
950.5468756419562
 21
1818.298217322314
 31
0.0
  0
SPLINE
  5
286
330
1DD
100
AcDbEntity
  8
P-SANR-FIXT
100
AcDbSpline
210
0.0
220
0.0
230
1.0
 70
     8
 71
     3
 72
     8
 73
     4
 74
     0
 42
0.000000001
 43
0.0000000001
 40
-0.5
 40
-0.5
 40
-0.5
 40
-0.5
 40
0.0
 40
0.0
 40
0.0
 40
0.0
 10
951.0292115776721
 20
1818.863593972057
 30
0.0
 10
950.8620944965011
 20
1818.664068484258
 30
0.0
 10
950.7009007579172
 20
1818.478952051016
 30
0.0
 10
950.5468756419565
 20
1818.307353131689
 30
0.0
  0
LINE
  5
287
330
1DD
100
AcDbEntity
  8
P-SANR-FIXT
100
AcDbLine
 10
950.5468756419562
 20
1817.660428728234
 30
0.0
 11
950.5468756419562
 21
1818.307353131689
 31
0.0
  0
SPLINE
  5
288
330
1DD
100
AcDbEntity
  8
P-SANR-FIXT
100
AcDbSpline
210
0.0
220
0.0
230
1.0
 70
     8
 71
     3
 72
     8
 73
     4
 74
     0
 42
0.000000001
 43
0.0000000001
 40
0.0833333333333333
 40
0.0833333333333333
 40
0.0833333333333333
 40
0.0833333333333333
 40
0.1666666666666666
 40
0.1666666666666666
 40
0.1666666666666666
 40
0.1666666666666666
 10
956.0024715004891
 20
1831.371050932448
 30
0.0
 10
955.9763176301956
 20
1830.94133164139
 30
0.0
 10
955.9386065269075
 20
1830.51475713782
 30
0.0
 10
955.8888109317377
 20
1830.092125281265
 30
0.0
  0
SPLINE
  5
289
330
1DD
100
AcDbEntity
  8
P-SANR-FIXT
100
AcDbSpline
210
0.0
220
0.0
230
1.0
 70
     8
 71
     3
 72
     8
 73
     4
 74
     0
 42
0.000000001
 43
0.0000000001
 40
0.2434560884953108
 40
0.2434560884953108
 40
0.2434560884953108
 40
0.2434560884953108
 40
0.25
 40
0.25
 40
0.25
 40
0.25
 10
955.7199676095121
 20
1828.934452926271
 30
0.0
 10
955.7142707058025
 20
1828.901891254948
 30
0.0
 10
955.7084958546239
 20
1828.869358878969
 30
0.0
 10
955.7026434116963
 20
1828.836855512171
 30
0.0
  0
SPLINE
  5
28A
330
1DD
100
AcDbEntity
  8
P-SANR-FIXT
100
AcDbSpline
210
0.0
220
0.0
230
1.0
 70
     8
 71
     3
 72
     9
 73
     5
 74
     0
 42
0.000000001
 43
0.0000000001
 40
0.3333333333333333
 40
0.3333333333333333
 40
0.3333333333333333
 40
0.3333333333333333
 40
0.375
 40
0.4166666666666666
 40
0.4166666666666666
 40
0.4166666666666666
 40
0.4166666666666666
 10
955.4427812831514
 20
1827.61068926082
 30
0.0
 10
955.393705912539
 20
1827.409127544522
 30
0.0
 10
955.2901053768243
 20
1827.008960765505
 30
0.0
 10
955.1762347625098
 20
1826.615608590671
 30
0.0
 10
955.116971176772
 20
1826.420757071146
 30
0.0
  0
SPLINE
  5
28B
330
1DD
100
AcDbEntity
  8
P-SANR-FIXT
100
AcDbSpline
210
0.0
220
0.0
230
1.0
 70
     8
 71
     3
 72
     8
 73
     4
 74
     0
 42
0.000000001
 43
0.0000000001
 40
0.497029806272113
 40
0.497029806272113
 40
0.497029806272113
 40
0.497029806272113
 40
0.5
 40
0.5
 40
0.5
 40
0.5
 10
954.749825434801
 20
1825.314508122572
 30
0.0
 10
954.745014933057
 20
1825.301164385759
 30
0.0
 10
954.7401940166897
 20
1825.2878324128
 30
0.0
 10
954.7353642479286
 20
1825.274510103444
 30
0.0
  0
SPLINE
  5
28C
330
1DD
100
AcDbEntity
  8
P-SANR-FIXT
100
AcDbSpline
210
0.0
220
0.0
230
1.0
 70
     8
 71
     3
 72
     9
 73
     5
 74
     0
 42
0.000000001
 43
0.0000000001
 40
0.5833333333333333
 40
0.5833333333333333
 40
0.5833333333333333
 40
0.5833333333333333
 40
0.625
 40
0.6666666666666666
 40
0.6666666666666666
 40
0.6666666666666666
 40
0.6666666666666666
 10
954.3016596517359
 20
1824.179096999349
 30
0.0
 10
954.2244368053268
 20
1824.000791193785
 30
0.0
 10
954.064405676134
 20
1823.650080747717
 30
0.0
 10
953.9017636915586
 20
1823.301444266788
 30
0.0
 10
953.8188445186625
 20
1823.129600162796
 30
0.0
  0
SPLINE
  5
28D
330
1DD
100
AcDbEntity
  8
P-SANR-FIXT
100
AcDbSpline
210
0.0
220
0.0
230
1.0
 70
     8
 71
     3
 72
     8
 73
     4
 74
     0
 42
0.000000001
 43
0.0000000001
 40
0.75
 40
0.75
 40
0.75
 40
0.75
 40
0.8333333333333333
 40
0.8333333333333333
 40
0.8333333333333333
 40
0.8333333333333333
 10
953.2945875798786
 20
1822.143870338036
 30
0.0
 10
953.1158636982324
 20
1821.822488568992
 30
0.0
 10
952.9249342653073
 20
1821.523237696702
 30
0.0
 10
952.7288493878231
 20
1821.233426778128
 30
0.0
  0
LINE
  5
28E
330
1DD
100
AcDbEntity
  8
P-SANR-FIXT
100
AcDbLine
 10
951.5468756419563
 20
1816.474625007336
 30
0.0
 11
951.5468756419563
 21
1819.506313166946
 31
0.0
  0
LINE
  5
28F
330
1DD
100
AcDbEntity
  8
P-SANR-FIXT
100
AcDbLine
 10
951.5468756419563
 20
1819.534452319029
 30
0.0
 11
951.5468756419563
 21
1819.502293385685
 31
0.0
  0
SPLINE
  5
290
330
1DD
100
AcDbEntity
  8
P-SANR-FIXT
100
AcDbSpline
210
0.0
220
0.0
230
1.0
 70
    24
 71
     3
 72
     9
 73
     5
 74
     0
 42
0.000000001
 43
0.0000000001
 40
-0.50347121586957
 40
-0.50347121586957
 40
-0.50347121586957
 40
-0.50347121586957
 40
-0.5
 40
0.0
 40
0.0
 40
0.0
 40
0.0
 10
964.3324979355838
 20
1811.168759748034
 30
0.0
 10
964.3324524872138
 20
1811.168759748034
 30
0.0
 10
964.3291565317076
 20
1811.168759748034
 30
0.0
 10
964.8039117226948
 20
1811.168759748038
 30
0.0
 10
965.7468756419564
 20
1811.168759748034
 30
0.0
  0
SPLINE
  5
291
330
1DD
100
AcDbEntity
  8
P-SANR-FIXT
100
AcDbSpline
210
0.0
220
0.0
230
1.0
 70
     8
 71
     3
 72
     9
 73
     5
 74
     0
 42
0.000000001
 43
0.0000000001
 40
-1.0
 40
-1.0
 40
-1.0
 40
-1.0
 40
-0.5
 40
0.0
 40
0.0
 40
0.0
 40
0.0
 10
965.7468756419564
 20
1812.780139775631
 30
0.0
 10
964.8039117226716
 20
1815.865667999283
 30
0.0
 10
963.8609478033865
 20
1821.997402880403
 30
0.0
 10
964.8039117226714
 20
1828.050494629153
 30
0.0
 10
965.7468756419564
 20
1831.057379720436
 30
0.0
  0
LINE
  5
292
330
1DD
100
AcDbEntity
  8
P-SANR-FIXT
100
AcDbLine
 10
965.7468756419564
 20
1811.168759748034
 30
0.0
 11
965.7468756419564
 21
1812.780139775631
 31
0.0
  0
LINE
  5
293
330
1DD
100
AcDbEntity
  8
P-SANR-FIXT
100
AcDbLine
 10
965.7468756419564
 20
1811.168759748034
 30
0.0
 11
975.4880299151443
 21
1811.168759748034
 31
0.0
  0
LINE
  5
294
330
1DD
100
AcDbEntity
  8
P-SANR-FIXT
100
AcDbLine
 10
975.4880299151443
 20
1812.780139775631
 30
0.0
 11
965.7468756419564
 21
1812.780139775631
 31
0.0
  0
LINE
  5
295
330
1DD
100
AcDbEntity
  8
P-SANR-FIXT
100
AcDbLine
 10
965.7468756419564
 20
1831.057379720436
 30
0.0
 11
965.7468756419564
 21
1832.668759748034
 31
0.0
  0
LINE
  5
296
330
1DD
100
AcDbEntity
  8
P-SANR-FIXT
100
AcDbLine
 10
965.7468756419564
 20
1831.057379720437
 30
0.0
 11
975.4880299151441
 21
1831.057379720437
 31
0.0
  0
LINE
  5
297
330
1DD
100
AcDbEntity
  8
P-SANR-FIXT
100
AcDbLine
 10
975.4880299151441
 20
1831.057379720436
 30
0.0
 11
975.4880299151441
 21
1832.668759748034
 31
0.0
  0
SPLINE
  5
298
330
1DD
100
AcDbEntity
  8
P-SANR-FIXT
100
AcDbSpline
210
0.0
220
0.0
230
1.0
 70
     8
 71
     3
 72
     9
 73
     5
 74
     0
 42
0.000000001
 43
0.0000000001
 40
-1.0
 40
-1.0
 40
-1.0
 40
-1.0
 40
-0.5
 40
0.0
 40
0.0
 40
0.0
 40
0.0
 10
975.4880299151441
 20
1831.057379720436
 30
0.0
 10
976.430993834429
 20
1828.050494629153
 30
0.0
 10
977.3739577537142
 20
1821.997402880403
 30
0.0
 10
976.4309938344293
 20
1815.865667999284
 30
0.0
 10
975.4880299151443
 20
1812.780139775631
 30
0.0
  0
LINE
  5
299
330
1DD
100
AcDbEntity
  8
P-SANR-FIXT
100
AcDbLine
 10
975.4880299151443
 20
1811.168759748034
 30
0.0
 11
975.4880299151443
 21
1812.780139775631
 31
0.0
  0
SPLINE
  5
29A
330
1DD
100
AcDbEntity
  8
P-SANR-FIXT
100
AcDbSpline
210
0.0
220
0.0
230
1.0
 70
    24
 71
     3
 72
     9
 73
     5
 74
     0
 42
0.000000001
 43
0.0000000001
 40
-1.0
 40
-1.0
 40
-1.0
 40
-1.0
 40
-0.5
 40
-0.4965287841304504
 40
-0.4965287841304504
 40
-0.4965287841304504
 40
-0.4965287841304504
 10
975.4880299151443
 20
1811.168759748034
 30
0.0
 10
976.4309938344293
 20
1811.168759748034
 30
0.0
 10
976.9057490253931
 20
1811.168759748034
 30
0.0
 10
976.9024530698869
 20
1811.168759748034
 30
0.0
 10
976.9024076215167
 20
1811.168759748034
 30
0.0
  0
LINE
  5
29B
330
1DD
100
AcDbEntity
  8
P-SANR-FIXT
100
AcDbLine
 10
977.0468756419564
 20
1811.418759748034
 30
0.0
 11
977.0468756419564
 21
1832.668759748034
 31
0.0
  0
LINE
  5
29C
330
1DD
100
AcDbEntity
  8
P-SANR-FIXT
100
AcDbLine
 10
941.5468756419564
 20
1807.168759748028
 30
0.0
 11
950.5468756419565
 21
1807.168759748028
 31
0.0
  0
SPLINE
  5
29D
330
1DD
100
AcDbEntity
  8
P-SANR-FIXT
100
AcDbSpline
210
0.0
220
0.0
230
1.0
 70
     8
 71
     3
 72
     9
 73
     5
 74
     0
 42
0.000000001
 43
0.0000000001
 40
-1.0
 40
-1.0
 40
-1.0
 40
-1.0
 40
-0.5
 40
0.0
 40
0.0
 40
0.0
 40
0.0
 10
949.929287172077
 20
1817.64772730955
 30
0.0
 10
950.0320133912994
 20
1817.651957052236
 30
0.0
 10
950.2377517218958
 20
1817.658303698037
 30
0.0
 10
950.4438198501411
 20
1817.660424664693
 30
0.0
 10
950.5468756419563
 20
1817.660428728234
 30
0.0
  0
SPLINE
  5
29E
330
1DD
100
AcDbEntity
  8
P-SANR-FIXT
100
AcDbSpline
210
0.0
220
0.0
230
1.0
 70
     8
 71
     3
 72
     8
 73
     4
 74
     0
 42
0.000000001
 43
0.0000000001
 40
0.0
 40
0.0
 40
0.0
 40
0.0
 40
0.0193023898732801
 40
0.0193023898732801
 40
0.0193023898732801
 40
0.0193023898732801
 10
949.929287172077
 20
1817.64772730955
 30
0.0
 10
949.871070600388
 20
1817.587406779101
 30
0.0
 10
949.8125311929891
 20
1817.527575940071
 30
0.0
 10
949.7536848279317
 20
1817.468229606893
 30
0.0
  0
SPLINE
  5
29F
330
1DD
100
AcDbEntity
  8
P-SANR-FIXT
100
AcDbSpline
210
0.0
220
0.0
230
1.0
 70
     8
 71
     3
 72
     8
 73
     4
 74
     0
 42
0.000000001
 43
0.0000000001
 40
0.1
 40
0.1
 40
0.1
 40
0.1
 40
0.2
 40
0.2
 40
0.2
 40
0.2
 10
949.0006917790861
 20
1816.748927055624
 30
0.0
 10
948.6839670452997
 20
1816.461989449695
 30
0.0
 10
948.3607708642791
 20
1816.18745947561
 30
0.0
 10
948.0333544123441
 20
1815.92465958183
 30
0.0
  0
SPLINE
  5
2A0
330
1DD
100
AcDbEntity
  8
P-SANR-FIXT
100
AcDbSpline
210
0.0
220
0.0
230
1.0
 70
     8
 71
     3
 72
     8
 73
     4
 74
     0
 42
0.000000001
 43
0.0000000001
 40
0.3
 40
0.3
 40
0.3
 40
0.3
 40
0.3164787221036987
 40
0.3164787221036987
 40
0.3164787221036987
 40
0.3164787221036987
 10
947.042471182495
 20
1815.173482796024
 30
0.0
 10
946.9877993556265
 20
1815.134387178474
 30
0.0
 10
946.9331266148611
 20
1815.095669403195
 30
0.0
 10
946.8784707762909
 20
1815.057338476558
 30
0.0
  0
SPLINE
  5
2A1
330
1DD
100
AcDbEntity
  8
P-SANR-FIXT
100
AcDbSpline
210
0.0
220
0.0
230
1.0
 70
     8
 71
     3
 72
     8
 73
     4
 74
     0
 42
0.000000001
 43
0.0000000001
 40
0.4782841904576773
 40
0.4782841904576773
 40
0.4782841904576773
 40
0.4782841904576773
 40
0.5
 40
0.5
 40
0.5
 40
0.5
 10
945.2917724597451
 20
1814.047715344553
 30
0.0
 10
945.2228328773133
 20
1814.008063659985
 30
0.0
 10
945.1543120911605
 20
1813.96913975688
 30
0.0
 10
945.0862875714966
 20
1813.930945533249
 30
0.0
  0
SPLINE
  5
2A2
330
1DD
100
AcDbEntity
  8
P-SANR-FIXT
100
AcDbSpline
210
0.0
220
0.0
230
1.0
 70
     8
 71
     3
 72
     9
 73
     5
 74
     0
 42
0.000000001
 43
0.0000000001
 40
0.6
 40
0.6
 40
0.6
 40
0.6
 40
0.625
 40
0.7
 40
0.7
 40
0.7
 40
0.7
 10
944.1843685007066
 20
1813.44973778864
 30
0.0
 10
944.1127126878958
 20
1813.413572298108
 30
0.0
 10
943.8300861722067
 20
1813.273146793747
 30
0.0
 10
943.5611063669252
 20
1813.148722826692
 30
0.0
 10
943.3737269491514
 20
1813.06510174629
 30
0.0
  0
SPLINE
  5
2A3
330
1DD
100
AcDbEntity
  8
P-SANR-FIXT
100
AcDbSpline
210
0.0
220
0.0
230
1.0
 70
     8
 71
     3
 72
     8
 73
     4
 74
     0
 42
0.000000001
 43
0.0000000001
 40
0.9
 40
0.9
 40
0.9
 40
0.9
 40
1.0
 40
1.0
 40
1.0
 40
1.0
 10
942.147085638043
 20
1812.552480334586
 30
0.0
 10
941.9939154397539
 20
1812.494197521281
 30
0.0
 10
941.8679574423377
 20
1812.449780617631
 30
0.0
 10
941.7719112545626
 20
1812.419096531166
 30
0.0
  0
SPLINE
  5
2A4
330
1DD
100
AcDbEntity
  8
P-SANR-FIXT
100
AcDbSpline
210
0.0
220
0.0
230
1.0
 70
     8
 71
     3
 72
     8
 73
     4
 74
     0
 42
0.000000001
 43
0.0000000001
 40
-0.9571208496961665
 40
-0.9571208496961665
 40
-0.9571208496961665
 40
-0.9571208496961665
 40
-0.9556302986606263
 40
-0.9556302986606263
 40
-0.9556302986606263
 40
-0.9556302986606263
 10
949.9277204257227
 20
1817.644284646648
 30
0.0
 10
949.9205732277202
 20
1817.643979694835
 30
0.0
 10
949.9134271592913
 20
1817.643670541059
 30
0.0
 10
949.9062822400196
 20
1817.643357174471
 30
0.0
  0
SPLINE
  5
2A5
330
1DD
100
AcDbEntity
  8
P-SANR-FIXT
100
AcDbSpline
210
0.0
220
0.0
230
1.0
 70
     8
 71
     3
 72
     9
 73
     5
 74
     0
 42
0.000000001
 43
0.0000000001
 40
-0.3177461479553122
 40
-0.3177461479553122
 40
-0.3177461479553122
 40
-0.3177461479553122
 40
-0.3055555555555556
 40
-0.3034279935293088
 40
-0.3034279935293088
 40
-0.3034279935293088
 40
-0.3034279935293088
 10
958.2824850875892
 20
1850.590361545737
 30
0.0
 10
958.2282852481611
 20
1850.567404933093
 30
0.0
 10
958.1628210032661
 20
1850.539612468573
 30
0.0
 10
958.0952946792354
 20
1850.510751297889
 30
0.0
 10
958.0852154045238
 20
1850.506440438072
 30
0.0
  0
LINE
  5
2A6
330
1DD
100
AcDbEntity
  8
P-SANR-FIXT
100
AcDbLine
 10
950.5468756419565
 20
1807.168759748028
 30
0.0
 11
959.5468756419565
 21
1807.168759748028
 31
0.0
  0
SPLINE
  5
2A7
330
1DD
100
AcDbEntity
  8
P-SANR-FIXT
100
AcDbSpline
210
0.0
220
0.0
230
1.0
 70
     8
 71
     3
 72
    24
 73
    20
 74
     0
 42
0.000000001
 43
0.0000000001
 40
-1.0
 40
-1.0
 40
-1.0
 40
-1.0
 40
-0.9444444444444444
 40
-0.9166666666666666
 40
-0.8888888888888889
 40
-0.861111111111111
 40
-0.8333333333333332
 40
-0.8055555555555555
 40
-0.7916666666666668
 40
-0.7777777777777778
 40
-0.7638888888888889
 40
-0.75
 40
-0.7222222222222223
 40
-0.6944444444444445
 40
-0.6666666666666666
 40
-0.6388888888888889
 40
-0.6111111111111112
 40
-0.5555555555555556
 40
-0.5000157230479497
 40
-0.5000157230479497
 40
-0.5000157230479497
 40
-0.5000157230479497
 10
951.5468756419565
 20
1816.474625007336
 30
0.0
 10
952.0379833061276
 20
1816.429657775474
 30
0.0
 10
952.7646275469058
 20
1816.34447340688
 30
0.0
 10
953.6944209505151
 20
1816.193995004347
 30
0.0
 10
954.3683413770466
 20
1816.065550985849
 30
0.0
 10
955.012903835113
 20
1815.910064128334
 30
0.0
 10
955.62479653071
 20
1815.729549911587
 30
0.0
 10
956.1066305602743
 20
1815.572470185527
 30
0.0
 10
956.4742477630387
 20
1815.448666732392
 30
0.0
 10
956.7409806214342
 20
1815.35985581863
 30
0.0
 10
956.9977552389492
 20
1815.271352859397
 30
0.0
 10
957.325682541729
 20
1815.14851661169
 30
0.0
 10
957.7085667409757
 20
1814.993310538782
 30
0.0
 10
958.1230780581817
 20
1814.814192384215
 30
0.0
 10
958.4910223148538
 20
1814.65920825235
 30
0.0
 10
958.809407577681
 20
1814.523489803917
 30
0.0
 10
959.1627788994303
 20
1814.355542595206
 30
0.0
 10
959.4642690838906
 20
1814.206206202055
 30
0.0
 10
959.5468703837095
 20
1814.173613132517
 30
0.0
 10
959.546875637949
 20
1814.173608637772
 30
0.0
  0
SPLINE
  5
2A8
330
1DD
100
AcDbEntity
  8
P-SANR-FIXT
100
AcDbSpline
210
0.0
220
0.0
230
1.0
 70
     8
 71
     3
 72
     9
 73
     5
 74
     0
 42
0.000000001
 43
0.0000000001
 40
-0.50001539833807
 40
-0.50001539833807
 40
-0.50001539833807
 40
-0.50001539833807
 40
-0.5
 40
-0.4815450378862563
 40
-0.4815450378862563
 40
-0.4815450378862563
 40
-0.4815450378862563
 10
959.5468756380368
 20
1814.173608637695
 30
0.0
 10
959.5468756393598
 20
1814.173608636502
 30
0.0
 10
959.5468734191756
 20
1814.173608707014
 30
0.0
 10
959.5423046672079
 20
1814.175410196391
 30
0.0
 10
959.5332390421281
 20
1814.179209599467
 30
0.0
  0
SPLINE
  5
2A9
330
1DD
100
AcDbEntity
  8
P-SANR-FIXT
100
AcDbSpline
210
0.0
220
0.0
230
1.0
 70
     8
 71
     3
 72
     9
 73
     5
 74
     0
 42
0.000000001
 43
0.0000000001
 40
-1.0
 40
-1.0
 40
-1.0
 40
-1.0
 40
-0.5
 40
0.0
 40
0.0
 40
0.0
 40
0.0
 10
950.5468756419563
 20
1817.660428728234
 30
0.0
 10
950.7151478977036
 20
1817.463860696692
 30
0.0
 10
951.0504296698929
 20
1817.069658711666
 30
0.0
 10
951.3821511852132
 20
1816.67332488276
 30
0.0
 10
951.5468756419565
 20
1816.474625007336
 30
0.0
  0
ARC
  5
2AA
330
1DD
100
AcDbEntity
  8
P-SANR-FIXT
100
AcDbCircle
 10
934.5468756419561
 20
1832.668759748034
 30
0.0
 40
20.9999999999999
100
AcDbArc
 50
193.5104248664718
 51
194.9999999999999
  0
ARC
  5
2AB
330
1DD
100
AcDbEntity
  8
P-SANR-FIXT
100
AcDbCircle
 10
934.5468756419561
 20
1832.668759748034
 30
0.0
 40
20.99999999999994
100
AcDbArc
 50
198.0166638628846
 51
200.0
  0
ARC
  5
2AC
330
1DD
100
AcDbEntity
  8
P-SANR-FIXT
100
AcDbCircle
 10
934.5468756419561
 20
1832.668759748034
 30
0.0
 40
21.00000000000001
100
AcDbArc
 50
204.9999999999997
 51
207.0271086372933
  0
ARC
  5
2AD
330
1DD
100
AcDbEntity
  8
P-SANR-FIXT
100
AcDbCircle
 10
934.5468756419561
 20
1832.668759748034
 30
0.0
 40
20.99999999999996
100
AcDbArc
 50
209.9999999999999
 51
211.5289246008462
  0
ARC
  5
2AE
330
1DD
100
AcDbEntity
  8
P-SANR-FIXT
100
AcDbCircle
 10
934.5468756419561
 20
1832.668759748034
 30
0.0
 40
20.99999999999997
100
AcDbArc
 50
215.0000000000002
 51
216.0264828102641
  0
ARC
  5
2AF
330
1DD
100
AcDbEntity
  8
P-SANR-FIXT
100
AcDbCircle
 10
934.5468756419561
 20
1832.668759748034
 30
0.0
 40
20.99999999999989
100
AcDbArc
 50
219.9999999999999
 51
220.5177646484177
  0
ARC
  5
2B0
330
1DD
100
AcDbEntity
  8
P-SANR-FIXT
100
AcDbCircle
 10
934.5468756419561
 20
1832.668759748034
 30
0.0
 40
20.99999999999992
100
AcDbArc
 50
229.4822353515821
 51
229.9999999999998
  0
ARC
  5
2B1
330
1DD
100
AcDbEntity
  8
P-SANR-FIXT
100
AcDbCircle
 10
934.5468756419561
 20
1832.668759748034
 30
0.0
 40
20.99999999999991
100
AcDbArc
 50
233.9735171897352
 51
235.0
  0
ARC
  5
2B2
330
1DD
100
AcDbEntity
  8
P-SANR-FIXT
100
AcDbCircle
 10
934.5468756419561
 20
1832.668759748034
 30
0.0
 40
20.99999999999997
100
AcDbArc
 50
238.4710753991529
 51
240.0000000000002
  0
ARC
  5
2B3
330
1DD
100
AcDbEntity
  8
P-SANR-FIXT
100
AcDbCircle
 10
934.5468756419561
 20
1832.668759748034
 30
0.0
 40
20.9999999999998
100
AcDbArc
 50
242.9728913627061
 51
245.0000000000001
  0
ARC
  5
2B4
330
1DD
100
AcDbEntity
  8
P-SANR-FIXT
100
AcDbCircle
 10
934.5468756419561
 20
1832.668759748034
 30
0.0
 40
20.99999999999996
100
AcDbArc
 50
250.0
 51
251.983336137115
  0
ARC
  5
2B5
330
1DD
100
AcDbEntity
  8
P-SANR-FIXT
100
AcDbCircle
 10
934.5468756419561
 20
1832.668759748034
 30
0.0
 40
20.99999999999994
100
AcDbArc
 50
255.0
 51
256.4895751335277
  0
ARC
  5
2B6
330
1DD
100
AcDbEntity
  8
P-SANR-FIXT
100
AcDbCircle
 10
934.5468756419561
 20
1832.668759748034
 30
0.0
 40
20.99999999999992
100
AcDbArc
 50
260.0000000000001
 51
260.9950993195397
  0
ARC
  5
2B7
330
1DD
100
AcDbEntity
  8
P-SANR-FIXT
100
AcDbCircle
 10
934.5468756419561
 20
1832.668759748034
 30
0.0
 40
20.99999999999992
100
AcDbArc
 50
265.0000000000001
 51
265.498914170521
  0
ARC
  5
2B8
330
1DD
100
AcDbEntity
  8
P-SANR-FIXT
100
AcDbCircle
 10
934.5468756419561
 20
1832.668759748034
 30
0.0
 40
21.00000000000001
100
AcDbArc
 50
274.5010858294795
 51
275.0000000000001
  0
ARC
  5
2B9
330
1DD
100
AcDbEntity
  8
P-SANR-FIXT
100
AcDbCircle
 10
934.5468756419561
 20
1832.668759748034
 30
0.0
 40
21.00000000000004
100
AcDbArc
 50
279.0049006804602
 51
280.0000000000004
  0
ARC
  5
2BA
330
1DD
100
AcDbEntity
  8
P-SANR-FIXT
100
AcDbCircle
 10
934.5468756419561
 20
1832.668759748034
 30
0.0
 40
21.00000000000002
100
AcDbArc
 50
283.5104248664718
 51
285.0000000000001
  0
ARC
  5
2BB
330
1DD
100
AcDbEntity
  8
P-SANR-FIXT
100
AcDbCircle
 10
934.5468756419561
 20
1832.668759748034
 30
0.0
 40
21.00000000000005
100
AcDbArc
 50
288.016663862885
 51
290.0
  0
ARC
  5
2BC
330
1DD
100
AcDbEntity
  8
P-SANR-FIXT
100
AcDbCircle
 10
934.5468756419561
 20
1832.668759748034
 30
0.0
 40
21.00000000000001
100
AcDbArc
 50
295.0000000000002
 51
297.0271086372941
  0
ARC
  5
2BD
330
1DD
100
AcDbEntity
  8
P-SANR-FIXT
100
AcDbCircle
 10
934.5468756419561
 20
1832.668759748034
 30
0.0
 40
21.00000000000016
100
AcDbArc
 50
300.0
 51
301.5289246008459
  0
ARC
  5
2BE
330
1DD
100
AcDbEntity
  8
P-SANR-FIXT
100
AcDbCircle
 10
934.5468756419561
 20
1832.668759748034
 30
0.0
 40
21.00000000000016
100
AcDbArc
 50
304.9999999999997
 51
306.026482810264
  0
ARC
  5
2BF
330
1DD
100
AcDbEntity
  8
P-SANR-FIXT
100
AcDbCircle
 10
934.5468756419561
 20
1832.668759748034
 30
0.0
 40
21.00000000000006
100
AcDbArc
 50
309.9999999999996
 51
310.5177646484168
  0
ARC
  5
2C0
330
1DD
100
AcDbEntity
  8
P-SANR-FIXT
100
AcDbCircle
 10
934.5468756419561
 20
1832.668759748034
 30
0.0
 40
21.00000000000008
100
AcDbArc
 50
319.4822353515817
 51
319.9999999999997
  0
ARC
  5
2C1
330
1DD
100
AcDbEntity
  8
P-SANR-FIXT
100
AcDbCircle
 10
934.5468756419561
 20
1832.668759748034
 30
0.0
 40
20.99999999999997
100
AcDbArc
 50
323.9735171897347
 51
325.0000000000002
  0
ARC
  5
2C2
330
1DD
100
AcDbEntity
  8
P-SANR-FIXT
100
AcDbCircle
 10
934.5468756419561
 20
1832.668759748034
 30
0.0
 40
20.99999999999991
100
AcDbArc
 50
328.471075399153
 51
329.9999999999998
  0
ARC
  5
2C3
330
1DD
100
AcDbEntity
  8
P-SANR-FIXT
100
AcDbCircle
 10
934.5468756419561
 20
1832.668759748034
 30
0.0
 40
20.99999999999995
100
AcDbArc
 50
332.9728913627057
 51
334.9999999999992
  0
ARC
  5
2C4
330
1DD
100
AcDbEntity
  8
P-SANR-FIXT
100
AcDbCircle
 10
934.5468756419561
 20
1832.668759748034
 30
0.0
 40
21.0
100
AcDbArc
 50
339.9999999999995
 51
341.9833361371146
  0
ARC
  5
2C5
330
1DD
100
AcDbEntity
  8
P-SANR-FIXT
100
AcDbCircle
 10
934.5468756419561
 20
1832.668759748034
 30
0.0
 40
20.99999999999994
100
AcDbArc
 50
344.9999999999994
 51
346.4895751335275
  0
SPLINE
  5
2C6
330
1DD
100
AcDbEntity
  8
P-SANR-FIXT
100
AcDbSpline
210
0.0
220
0.0
230
1.0
 70
     8
 71
     3
 72
     8
 73
     4
 74
     0
 42
0.000000001
 43
0.0000000001
 40
0.0
 40
0.0
 40
0.0
 40
0.0
 40
0.0192524904065352
 40
0.0192524904065352
 40
0.0192524904065352
 40
0.0192524904065352
 10
919.1644641118354
 20
1817.647727309549
 30
0.0
 10
919.2233237398239
 20
1817.58745162451
 30
0.0
 10
919.2823669405184
 20
1817.527687511243
 30
0.0
 10
919.3415956343542
 20
1817.46842586359
 30
0.0
  0
SPLINE
  5
2C7
330
1DD
100
AcDbEntity
  8
P-SANR-FIXT
100
AcDbSpline
210
0.0
220
0.0
230
1.0
 70
     8
 71
     3
 72
     8
 73
     4
 74
     0
 42
0.000000001
 43
0.0000000001
 40
0.1
 40
0.1
 40
0.1
 40
0.1
 40
0.2
 40
0.2
 40
0.2
 40
0.2
 10
920.0967653097894
 20
1816.748616540517
 30
0.0
 10
920.4126643978748
 20
1816.461863942558
 30
0.0
 10
920.7337849218642
 20
1816.187637272944
 30
0.0
 10
921.0603968715686
 20
1815.92465958183
 30
0.0
  0
SPLINE
  5
2C8
330
1DD
100
AcDbEntity
  8
P-SANR-FIXT
100
AcDbSpline
210
0.0
220
0.0
230
1.0
 70
     8
 71
     3
 72
     8
 73
     4
 74
     0
 42
0.000000001
 43
0.0000000001
 40
0.3
 40
0.3
 40
0.3
 40
0.3
 40
0.3163644824493395
 40
0.3163644824493395
 40
0.3163644824493395
 40
0.3163644824493395
 10
922.0526658824141
 20
1815.171767935595
 30
0.0
 10
922.1072504075177
 20
1815.132789961409
 30
0.0
 10
922.1618736584929
 20
1815.094174763662
 30
0.0
 10
922.2164548593093
 20
1815.05596621772
 30
0.0
  0
SPLINE
  5
2C9
330
1DD
100
AcDbEntity
  8
P-SANR-FIXT
100
AcDbSpline
210
0.0
220
0.0
230
1.0
 70
     8
 71
     3
 72
     8
 73
     4
 74
     0
 42
0.000000001
 43
0.0000000001
 40
0.4781755077604895
 40
0.4781755077604895
 40
0.4781755077604895
 40
0.4781755077604895
 40
0.5
 40
0.5
 40
0.5
 40
0.5
 10
923.7983360213645
 20
1814.048376562178
 30
0.0
 10
923.8679432593325
 20
1814.008210932349
 30
0.0
 10
923.9373130902722
 20
1813.968707305829
 30
0.0
 10
924.006231766079
 20
1813.929950600633
 30
0.0
  0
SPLINE
  5
2CA
330
1DD
100
AcDbEntity
  8
P-SANR-FIXT
100
AcDbSpline
210
0.0
220
0.0
230
1.0
 70
     8
 71
     3
 72
     9
 73
     5
 74
     0
 42
0.000000001
 43
0.0000000001
 40
0.6
 40
0.6
 40
0.6
 40
0.6
 40
0.625
 40
0.7
 40
0.7
 40
0.7
 40
0.7
 10
924.9089532292313
 20
1813.449960438878
 30
0.0
 10
924.9800383910129
 20
1813.41432367452
 30
0.0
 10
925.2604414582767
 20
1813.275759221747
 30
0.0
 10
925.5301991251787
 20
1813.149653952364
 30
0.0
 10
925.7187496777435
 20
1813.064826674286
 30
0.0
  0
SPLINE
  5
2CB
330
1DD
100
AcDbEntity
  8
P-SANR-FIXT
100
AcDbSpline
210
0.0
220
0.0
230
1.0
 70
     8
 71
     3
 72
     8
 73
     4
 74
     0
 42
0.000000001
 43
0.0000000001
 40
0.9
 40
0.9
 40
0.9
 40
0.9
 40
1.0
 40
1.0
 40
1.0
 40
1.0
 10
926.9406639211116
 20
1812.559129271838
 30
0.0
 10
927.0931971701832
 20
1812.501408885602
 30
0.0
 10
927.2206370121441
 20
1812.455205546688
 30
0.0
 10
927.3218400293501
 20
1812.419096531166
 30
0.0
  0
ARC
  5
2CC
330
1DD
100
AcDbEntity
  8
P-SANR-FIXT
100
AcDbCircle
 10
934.5468756419561
 20
1832.668759748034
 30
0.0
 40
21.49999999999983
100
AcDbArc
 50
180.0000000000016
 51
0.000000000000458
  0
LINE
  5
2CD
330
1DD
100
AcDbEntity
  8
P-SANR-FIXT
100
AcDbLine
 10
909.5468756419565
 20
1807.168759748027
 30
0.0
 11
918.5468756419563
 21
1807.168759748027
 31
0.0
  0
LINE
  5
2CE
330
1DD
100
AcDbEntity
  8
P-SANR-FIXT
100
AcDbLine
 10
918.5468756419563
 20
1807.168759748027
 30
0.0
 11
927.5468756419563
 21
1807.168759748027
 31
0.0
  0
LINE
  5
2CF
330
1DD
100
AcDbEntity
  8
P-SANR-FIXT
100
AcDbLine
 10
942.976161427668
 20
1804.668759748036
 30
0.0
 11
942.976161427668
 21
1801.168759748019
 31
0.0
  0
LINE
  5
2D0
330
1DD
100
AcDbEntity
  8
P-SANR-FIXT
100
AcDbLine
 10
958.5468756419533
 20
1804.668759748036
 30
0.0
 11
958.5468756419533
 21
1801.168759748019
 31
0.0
  0
LINE
  5
2D1
330
1DD
100
AcDbEntity
  8
P-SANR-FIXT
100
AcDbLine
 10
950.9761614276662
 20
1804.668759748036
 30
0.0
 11
950.9761614276662
 21
1801.168759748019
 31
0.0
  0
LINE
  5
2D2
330
1DD
100
AcDbEntity
  8
P-SANR-FIXT
100
AcDbLine
 10
910.9761614276681
 20
1801.168759748019
 30
0.0
 11
910.5468756419591
 21
1801.168759748019
 31
0.0
  0
LINE
  5
2D3
330
1DD
100
AcDbEntity
  8
P-SANR-FIXT
100
AcDbLine
 10
926.5468756419535
 20
1801.168759748019
 30
0.0
 11
926.1175898562431
 21
1801.168759748019
 31
0.0
  0
LINE
  5
2D4
330
1DD
100
AcDbEntity
  8
P-SANR-FIXT
100
AcDbLine
 10
926.1175898562431
 20
1801.168759748019
 30
0.0
 11
918.9761614276664
 21
1801.168759748019
 31
0.0
  0
LINE
  5
2D5
330
1DD
100
AcDbEntity
  8
P-SANR-FIXT
100
AcDbLine
 10
918.9761614276664
 20
1801.168759748019
 30
0.0
 11
918.1175898562463
 21
1801.168759748019
 31
0.0
  0
LINE
  5
2D6
330
1DD
100
AcDbEntity
  8
P-SANR-FIXT
100
AcDbLine
 10
918.1175898562463
 20
1801.168759748019
 30
0.0
 11
910.9761614276681
 21
1801.168759748019
 31
0.0
  0
LINE
  5
2D7
330
1DD
100
AcDbEntity
  8
P-SANR-FIXT
100
AcDbLine
 10
918.1175898562461
 20
1804.668759748036
 30
0.0
 11
918.9761614276662
 21
1804.668759748036
 31
0.0
  0
LINE
  5
2D8
330
1DD
100
AcDbEntity
  8
P-SANR-FIXT
100
AcDbLine
 10
926.1175898562431
 20
1804.668759748036
 30
0.0
 11
926.5468756419535
 21
1804.668759748036
 31
0.0
  0
LINE
  5
2D9
330
1DD
100
AcDbEntity
  8
P-SANR-FIXT
100
AcDbLine
 10
910.5468756419591
 20
1804.668759748036
 30
0.0
 11
910.9761614276681
 21
1804.668759748036
 31
0.0
  0
LINE
  5
2DA
330
1DD
100
AcDbEntity
  8
P-SANR-FIXT
100
AcDbLine
 10
910.9761614276681
 20
1801.168759748019
 30
0.0
 11
910.9761614276681
 21
1804.668759748036
 31
0.0
  0
LINE
  5
2DB
330
1DD
100
AcDbEntity
  8
P-SANR-FIXT
100
AcDbLine
 10
910.5468756419591
 20
1804.668759748036
 30
0.0
 11
910.5468756419591
 21
1801.168759748019
 31
0.0
  0
LINE
  5
2DC
330
1DD
100
AcDbEntity
  8
P-SANR-FIXT
100
AcDbLine
 10
926.5468756419535
 20
1804.668759748036
 30
0.0
 11
926.5468756419535
 21
1801.168759748019
 31
0.0
  0
LINE
  5
2DD
330
1DD
100
AcDbEntity
  8
P-SANR-FIXT
100
AcDbLine
 10
926.1175898562431
 20
1804.668759748036
 30
0.0
 11
926.1175898562431
 21
1801.168759748019
 31
0.0
  0
LINE
  5
2DE
330
1DD
100
AcDbEntity
  8
P-SANR-FIXT
100
AcDbLine
 10
918.9761614276664
 20
1804.668759748036
 30
0.0
 11
918.9761614276664
 21
1801.168759748019
 31
0.0
  0
LINE
  5
2DF
330
1DD
100
AcDbEntity
  8
P-SANR-FIXT
100
AcDbLine
 10
918.1175898562463
 20
1804.668759748036
 30
0.0
 11
918.1175898562463
 21
1801.168759748019
 31
0.0
  0
ENDBLK
  5
2E1
330
1DD
100
AcDbEntity
  8
0
100
AcDbBlockEnd
  0
BLOCK
  5
370
330
2E3
100
AcDbEntity
  8
0
100
AcDbBlockBegin
  2
Automatic flow rate regulator valve_Caleffi_121 DN15 - 1_2__-V2-Est - Idraulica
 70
     0
 10
0.0
 20
0.0
 30
0.0
  3
Automatic flow rate regulator valve_Caleffi_121 DN15 - 1_2__-V2-Est - Idraulica
  1

  0
LWPOLYLINE
  5
2E4
330
2E3
100
AcDbEntity
  8
M-PIPE
100
AcDbPolyline
 90
       41
 70
   128
 43
0.0
 10
1161.191472925115
 20
1999.982558850011
 10
1161.229067912048
 20
1998.10306014324
 10
1161.341792728892
 20
1996.226568233461
 10
1161.529467039983
 20
1994.356085107433
 10
1161.79179060646
 20
1992.494603139142
 10
1162.128343766576
 20
1990.645100302644
 10
1162.538588107069
 20
1988.810535407936
 10
1163.021867324508
 20
1986.993843367498
 10
1163.57740827524
 20
1985.197930501054
 10
1164.204322212252
 20
1983.425669886082
 10
1164.901606206979
 20
1981.679896761505
 10
1165.668144753777
 20
1979.96340399191
 10
1166.502711554488
 20
1978.278937599562
 10
1167.403971480265
 20
1976.629192371356
 10
1168.370482707484
 20
1975.01680754773
 10
1169.40069902436
 20
1973.444362600445
 10
1170.492972304553
 20
1971.914373105979
 10
1171.645555143821
 20
1970.429286721143
 10
1172.856603655493
 20
1968.991479267352
 10
1174.124180420292
 20
1967.603250929816
 10
1175.446257585798
 20
1966.266822577734
 10
1176.820720110573
 20
1964.984332211381
 10
1178.245369147781
 20
1963.75783154176
 10
1179.717925562872
 20
1962.589282708302
 10
1181.236033579709
 20
1961.480555139864
 10
1182.797264549312
 20
1960.43342256404
 10
1184.399120835174
 20
1959.449560169575
 10
1186.039039808949
 20
1958.530541926419
 10
1187.714397950109
 20
1957.677838067716
 10
1189.42251504302
 20
1956.892812737739
 10
1191.160658464711
 20
1956.176721809552
 10
1192.926047556492
 20
1955.530710875883
 10
1194.715858072413
 20
1954.955813416418
 10
1196.527226697453
 20
1954.452949144453
 10
1198.357255628218
 20
1954.022922535552
 10
1200.203017208804
 20
1953.666421540554
 10
1202.061558614422
 20
1953.384016485002
 10
1203.929906575292
 20
1953.176159156743
 10
1205.805072133237
 20
1953.043182083159
 10
1207.684055423376
 20
1952.985297999203
 10
1208.191472925115
 20
1952.982558850012
1001
REVIT
1002
{
1070
     3
1000
963222
1002
}
  0
LWPOLYLINE
  5
2E5
330
2E3
100
AcDbEntity
  8
M-PIPE
100
AcDbPolyline
 90
       41
 70
   128
 43
0.0
 10
1208.191472925115
 20
2046.982558850012
 10
1206.311974218343
 20
2046.944963863078
 10
1204.435482308564
 20
2046.832239046235
 10
1202.564999182536
 20
2046.644564735144
 10
1200.703517214245
 20
2046.382241168666
 10
1198.854014377747
 20
2046.04568800855
 10
1197.019449483039
 20
2045.635443668057
 10
1195.202757442602
 20
2045.152164450618
 10
1193.406844576157
 20
2044.596623499886
 10
1191.634583961185
 20
2043.969709562875
 10
1189.888810836608
 20
2043.272425568147
 10
1188.172318067013
 20
2042.50588702135
 10
1186.487851674665
 20
2041.671320220638
 10
1184.838106446459
 20
2040.770060294861
 10
1183.225721622833
 20
2039.803549067642
 10
1181.653276675548
 20
2038.773332750766
 10
1180.123287181083
 20
2037.681059470573
 10
1178.638200796247
 20
2036.528476631305
 10
1177.200393342455
 20
2035.317428119634
 10
1175.812165004919
 20
2034.049851354834
 10
1174.475736652837
 20
2032.727774189329
 10
1173.193246286484
 20
2031.353311664553
 10
1171.966745616863
 20
2029.928662627344
 10
1170.798196783406
 20
2028.456106212255
 10
1169.689469214968
 20
2026.937998195417
 10
1168.642336639143
 20
2025.376767225814
 10
1167.658474244678
 20
2023.774910939952
 10
1166.739456001522
 20
2022.134991966177
 10
1165.886752142819
 20
2020.459633825018
 10
1165.101726812842
 20
2018.751516732106
 10
1164.385635884655
 20
2017.013373310415
 10
1163.739624950986
 20
2015.247984218634
 10
1163.164727491521
 20
2013.458173702714
 10
1162.661863219556
 20
2011.646805077673
 10
1162.231836610655
 20
2009.816776146908
 10
1161.875335615657
 20
2007.971014566323
 10
1161.592930560106
 20
2006.112473160705
 10
1161.385073231846
 20
2004.244125199834
 10
1161.252096158262
 20
2002.36895964189
 10
1161.194212074307
 20
2000.48997635175
 10
1161.191472925115
 20
1999.982558850011
1001
REVIT
1002
{
1070
     3
1000
963222
1002
}
  0
ARC
  5
2E6
330
2E3
100
AcDbEntity
  8
M-PIPE
100
AcDbCircle
 10
1208.191472925113
 20
1999.982558850011
 30
0.0
 40
23.99999999999955
100
AcDbArc
 50
90.0000000000011
 51
269.9999999999997
1001
REVIT
1002
{
1070
     3
1000
963222
1002
}
  0
LINE
  5
2E7
330
2E3
100
AcDbEntity
  8
M-PIPE
100
AcDbLine
 10
1208.191472925113
 20
2023.98255885001
 30
0.0
 11
1208.191472925113
 21
2041.982558850011
 31
0.0
1001
REVIT
1002
{
1070
     3
1000
963222
1002
}
  0
LINE
  5
2E8
330
2E3
100
AcDbEntity
  8
M-PIPE
100
AcDbLine
 10
1208.191472925113
 20
1957.982558850011
 30
0.0
 11
1208.191472925113
 21
1975.982558850011
 31
0.0
1001
REVIT
1002
{
1070
     3
1000
963222
1002
}
  0
SPLINE
  5
2E9
330
2E3
100
AcDbEntity
  8
M-PIPE
100
AcDbSpline
210
0.0
220
0.0
230
1.0
 70
     8
 71
     3
 72
     8
 73
     4
 74
     0
 42
0.000000001
 43
0.0000000001
 40
0.0
 40
0.0
 40
0.0
 40
0.0
 40
0.125
 40
0.125
 40
0.125
 40
0.125
 10
1208.191472925113
 20
2046.982558850011
 30
0.0
 10
1206.763821736569
 20
2046.982558850011
 30
0.0
 10
1205.372695462304
 20
2046.917548028454
 30
0.0
 10
1204.022582360949
 20
2046.797303871895
 30
0.0
1001
REVIT
1002
{
1070
     3
1000
963222
1002
}
  0
SPLINE
  5
2EA
330
2E3
100
AcDbEntity
  8
M-PIPE
100
AcDbSpline
210
0.0
220
0.0
230
1.0
 70
     8
 71
     3
 72
     8
 73
     4
 74
     0
 42
0.000000001
 43
0.0000000001
 40
0.1875
 40
0.1875
 40
0.1875
 40
0.1875
 40
0.25
 40
0.25
 40
0.25
 40
0.25
 10
1202.029134694982
 20
2046.576824457888
 30
0.0
 10
1201.375546837142
 20
2046.490397534192
 30
0.0
 10
1200.73317459651
 20
2046.391474046661
 30
0.0
 10
1200.100380835599
 20
2046.280876625055
 30
0.0
1001
REVIT
1002
{
1070
     3
1000
963222
1002
}
  0
SPLINE
  5
2EB
330
2E3
100
AcDbEntity
  8
M-PIPE
100
AcDbSpline
210
0.0
220
0.0
230
1.0
 70
     8
 71
     3
 72
     8
 73
     4
 74
     0
 42
0.000000001
 43
0.0000000001
 40
0.3125
 40
0.3125
 40
0.3125
 40
0.3125
 40
0.375
 40
0.375
 40
0.375
 40
0.375
 10
1198.231472807828
 20
2045.915100665848
 30
0.0
 10
1197.618572951767
 20
2045.782193692601
 30
0.0
 10
1197.015990499781
 20
2045.638650914392
 30
0.0
 10
1196.426747154792
 20
2045.486308448798
 30
0.0
1001
REVIT
1002
{
1070
     3
1000
963222
1002
}
  0
SPLINE
  5
2EC
330
2E3
100
AcDbEntity
  8
M-PIPE
100
AcDbSpline
210
0.0
220
0.0
230
1.0
 70
     8
 71
     3
 72
     8
 73
     4
 74
     0
 42
0.000000001
 43
0.0000000001
 40
0.4375
 40
0.4375
 40
0.4375
 40
0.4375
 40
0.5
 40
0.5
 40
0.5
 40
0.5
 10
1194.701685149821
 20
2045.005060177431
 30
0.0
 10
1194.141760200869
 20
2044.837297900238
 30
0.0
 10
1193.597836064369
 20
2044.662915124922
 30
0.0
 10
1193.070686336981
 20
2044.483815157627
 30
0.0
1001
REVIT
1002
{
1070
     3
1000
963222
1002
}
  0
SPLINE
  5
2ED
330
2E3
100
AcDbEntity
  8
M-PIPE
100
AcDbSpline
210
0.0
220
0.0
230
1.0
 70
     8
 71
     3
 72
     8
 73
     4
 74
     0
 42
0.000000001
 43
0.0000000001
 40
0.5625
 40
0.5625
 40
0.5625
 40
0.5625
 40
0.625
 40
0.625
 40
0.625
 40
0.625
 10
1191.535179752899
 20
2043.932165193655
 30
0.0
 10
1191.03794009257
 20
2043.743721134833
 30
0.0
 10
1190.554230676482
 20
2043.551179998021
 30
0.0
 10
1190.08756340826
 20
2043.355920031796
 30
0.0
1001
REVIT
1002
{
1070
     3
1000
963222
1002
}
  0
SPLINE
  5
2EE
330
2E3
100
AcDbEntity
  8
M-PIPE
100
AcDbSpline
210
0.0
220
0.0
230
1.0
 70
     8
 71
     3
 72
     9
 73
     5
 74
     0
 42
0.000000001
 43
0.0000000001
 40
0.6875
 40
0.6875
 40
0.6875
 40
0.6875
 40
0.75
 40
1.0
 40
1.0
 40
1.0
 40
1.0
 10
1188.727522540999
 20
2042.762865481039
 30
0.0
 10
1188.288719114488
 20
2042.56321252236
 30
0.0
 10
1186.167354396815
 20
2041.55718752707
 30
0.0
 10
1184.40125007189
 20
2040.541942296047
 30
0.0
 10
1183.192272937913
 20
2039.78255885001
 30
0.0
1001
REVIT
1002
{
1070
     3
1000
963222
1002
}
  0
SPLINE
  5
2EF
330
2E3
100
AcDbEntity
  8
M-PIPE
100
AcDbSpline
210
0.0
220
0.0
230
1.0
 70
     8
 71
     3
 72
     9
 73
     5
 74
     0
 42
0.000000001
 43
0.0000000001
 40
0.0
 40
0.0
 40
0.0
 40
0.0
 40
0.25
 40
0.3333333333333333
 40
0.3333333333333333
 40
0.3333333333333333
 40
0.3333333333333333
 10
1183.192272937913
 20
2039.78255885001
 30
0.0
 10
1182.191352149337
 20
2039.153859881042
 30
0.0
 10
1181.220909091807
 20
2038.478482649279
 30
0.0
 10
1180.688631329168
 20
2038.096037312721
 30
0.0
 10
1180.582537401431
 20
2038.019200098361
 30
0.0
1001
REVIT
1002
{
1070
     3
1000
963222
1002
}
  0
SPLINE
  5
2F0
330
2E3
100
AcDbEntity
  8
M-PIPE
100
AcDbSpline
210
0.0
220
0.0
230
1.0
 70
     8
 71
     3
 72
     9
 73
     5
 74
     0
 42
0.000000001
 43
0.0000000001
 40
0.6666666666666666
 40
0.6666666666666666
 40
0.6666666666666666
 40
0.6666666666666666
 40
0.75
 40
1.0
 40
1.0
 40
1.0
 40
1.0
 10
1180.584298355548
 20
2038.020469583477
 30
0.0
 10
1180.690597352664
 20
2038.097450460098
 30
0.0
 10
1181.223430123894
 20
2038.480266689925
 30
0.0
 10
1182.192836576476
 20
2039.154792280311
 30
0.0
 10
1183.192272937913
 20
2039.78255885001
 30
0.0
1001
REVIT
1002
{
1070
     3
1000
963222
1002
}
  0
SPLINE
  5
2F1
330
2E3
100
AcDbEntity
  8
M-PIPE
100
AcDbSpline
210
0.0
220
0.0
230
1.0
 70
     8
 71
     3
 72
     9
 73
     5
 74
     0
 42
0.000000001
 43
0.0000000001
 40
0.0
 40
0.0
 40
0.0
 40
0.0
 40
0.25
 40
0.3125
 40
0.3125
 40
0.3125
 40
0.3125
 10
1183.192272937913
 20
2039.78255885001
 30
0.0
 10
1184.40125007189
 20
2040.541942296047
 30
0.0
 10
1186.167197261963
 20
2041.55716523976
 30
0.0
 10
1188.288797681914
 20
2042.563223666014
 30
0.0
 10
1188.727581705852
 20
2042.762870731776
 30
0.0
1001
REVIT
1002
{
1070
     3
1000
963222
1002
}
  0
SPLINE
  5
2F2
330
2E3
100
AcDbEntity
  8
M-PIPE
100
AcDbSpline
210
0.0
220
0.0
230
1.0
 70
     8
 71
     3
 72
     8
 73
     4
 74
     0
 42
0.000000001
 43
0.0000000001
 40
0.375
 40
0.375
 40
0.375
 40
0.375
 40
0.4375
 40
0.4375
 40
0.4375
 40
0.4375
 10
1190.08756340826
 20
2043.355920031796
 30
0.0
 10
1190.555513122845
 20
2043.551239819785
 30
0.0
 10
1191.038163716235
 20
2043.743797707007
 30
0.0
 10
1191.535179752899
 20
2043.932165193655
 30
0.0
1001
REVIT
1002
{
1070
     3
1000
963222
1002
}
  0
LINE
  5
2F3
330
2E3
100
AcDbEntity
  8
M-PIPE
100
AcDbLine
 10
1183.192272937913
 20
2039.78255885001
 30
0.0
 11
1183.252910829629
 21
2039.78255885001
 31
0.0
1001
REVIT
1002
{
1070
     3
1000
963222
1002
}
  0
LINE
  5
2F4
330
2E3
100
AcDbEntity
  8
M-PIPE
100
AcDbLine
 10
1183.250533548755
 20
2039.782558850011
 30
0.0
 11
1183.192272937913
 21
2039.782558850011
 31
0.0
1001
REVIT
1002
{
1070
     3
1000
963222
1002
}
  0
LINE
  5
2F5
330
2E3
100
AcDbEntity
  8
M-PIPE
100
AcDbLine
 10
1208.191472925113
 20
1952.98255885001
 30
0.0
 11
1208.191472925113
 21
1957.982558850011
 31
0.0
1001
REVIT
1002
{
1070
     3
1000
963222
1002
}
  0
LINE
  5
2F6
330
2E3
100
AcDbEntity
  8
M-PIPE
100
AcDbLine
 10
1208.191472925113
 20
2041.982558850011
 30
0.0
 11
1208.191472925113
 21
2046.982558850011
 31
0.0
1001
REVIT
1002
{
1070
     3
1000
963222
1002
}
  0
LINE
  5
2F7
330
2E3
100
AcDbEntity
  8
M-PIPE
100
AcDbLine
 10
1223.341472925128
 20
2033.18255885006
 30
0.0
 11
1223.341472925128
 21
2060.482558850044
 31
0.0
1001
REVIT
1002
{
1070
     3
1000
923114
1002
}
  0
LINE
  5
2F8
330
2E3
100
AcDbEntity
  8
M-PIPE
100
AcDbLine
 10
1193.041472925128
 20
2060.482558850044
 30
0.0
 11
1193.041472925128
 21
2044.44081337044
 31
0.0
1001
REVIT
1002
{
1070
     3
1000
923114
1002
}
  0
LWPOLYLINE
  5
2F9
330
2E3
100
AcDbEntity
  8
M-PIPE
100
AcDbPolyline
 90
       41
 70
   128
 43
0.0
 10
1224.691472925116
 20
2033.18255885006
 10
1224.811440927675
 20
2033.180159170044
 10
1224.931217007023
 20
2033.172963968968
 10
1225.050609546982
 20
2033.160984757622
 10
1225.169427544958
 20
2033.144240700187
 10
1225.287480917501
 20
2033.122758583584
 10
1225.404580804397
 20
2033.096572774617
 10
1225.520539870808
 20
2033.065725164993
 10
1225.635172606964
 20
2033.030265104308
 10
1225.748295624941
 20
2032.990249321094
 10
1225.859727952041
 20
2032.945741832069
 10
1225.969291320313
 20
2032.89681383972
 10
1226.07681045174
 20
2032.843543618398
 10
1226.182113338647
 20
2032.786016389093
 10
1226.285031518878
 20
2032.724324183101
 10
1226.3854003453
 20
2032.65856569479
 10
1226.483059249203
 20
2032.588846123713
 10
1226.577851997171
 20
2032.515277006313
 10
1226.66962694103
 20
2032.437976037483
 10
1226.758237260447
 20
2032.357066882283
 10
1226.843541197814
 20
2032.272678978102
 10
1226.925402285028
 20
2032.184947327584
 10
1227.003689561813
 20
2032.094012282656
 10
1227.078277785224
 20
2032.00001931999
 10
1227.149047630019
 20
2031.903118808278
 10
1227.215885879539
 20
2031.803465767665
 10
1227.278685606845
 20
2031.701219621758
 10
1227.33734634577
 20
2031.596543942582
 10
1227.391774251645
 20
2031.48960618889
 10
1227.441882251431
 20
2031.380577438279
 10
1227.487590183017
 20
2031.26963211349
 10
1227.528824923464
 20
2031.156947703377
 10
1227.565520505983
 20
2031.042704478956
 10
1227.59761822547
 20
2030.927085205018
 10
1227.625066732421
 20
2030.810274847735
 10
1227.647822115081
 20
2030.692460278761
 10
1227.66584796969
 20
2030.573829976275
 10
1227.679115458728
 20
2030.454573723453
 10
1227.687603357042
 20
2030.334882304861
 10
1227.691298085805
 20
2030.214947201235
 10
1227.691472925115
 20
2030.18255885006
1001
REVIT
1002
{
1070
     3
1000
923114
1002
}
  0
LWPOLYLINE
  5
2FA
330
2E3
100
AcDbEntity
  8
M-PIPE
100
AcDbPolyline
 90
        5
 70
   128
 43
0.0
 10
1224.585310877533
 20
2033.18255885006
 10
1224.618321550291
 20
2033.18255885006
 10
1224.667244500322
 20
2033.18255885006
 10
1224.689809730476
 20
2033.18255885006
 10
1224.691472925116
 20
2033.18255885006
1001
REVIT
1002
{
1070
     3
1000
923114
1002
}
  0
LWPOLYLINE
  5
2FB
330
2E3
100
AcDbEntity
  8
M-PIPE
100
AcDbPolyline
 90
       31
 70
   128
 43
0.0
 10
1224.691472925116
 20
2033.18255885006
 10
1224.678274685021
 20
2033.18255885006
 10
1224.638701079109
 20
2033.18255885006
 10
1224.572815416704
 20
2033.18255885006
 10
1224.480723100813
 20
2033.18255885006
 10
1224.362571459496
 20
2033.18255885006
 10
1224.218549510174
 20
2033.18255885006
 10
1224.048887657243
 20
2033.18255885006
 10
1223.853857323476
 20
2033.18255885006
 10
1223.633770515802
 20
2033.18255885006
 10
1223.388979326163
 20
2033.18255885006
 10
1223.119875368245
 20
2033.18255885006
 10
1222.826889150974
 20
2033.18255885006
 10
1222.510489389797
 20
2033.18255885006
 10
1222.171182256837
 20
2033.18255885006
 10
1221.809510571125
 20
2033.18255885006
 10
1221.426052930207
 20
2033.18255885006
 10
1221.021422784506
 20
2033.18255885006
 10
1220.59626745594
 20
2033.18255885006
 10
1220.15126710234
 20
2033.18255885006
 10
1219.687133629344
 20
2033.18255885006
 10
1219.204609551497
 20
2033.18255885006
 10
1218.704466804392
 20
2033.18255885006
 10
1218.187505509733
 20
2033.18255885006
 10
1217.654552695311
 20
2033.18255885006
 10
1217.10646097194
 20
2033.18255885006
 10
1216.544107169456
 20
2033.18255885006
 10
1215.968390933982
 20
2033.18255885006
 10
1215.380233288682
 20
2033.18255885006
 10
1214.780575160319
 20
2033.18255885006
 10
1214.565131496312
 20
2033.18255885006
1001
REVIT
1002
{
1070
     3
1000
923114
1002
}
  0
LINE
  5
2FC
330
2E3
100
AcDbEntity
  8
M-PIPE
100
AcDbLine
 10
1227.691472925115
 20
2029.182558850044
 30
0.0
 11
1227.691472925115
 21
2030.18255885006
 31
0.0
1001
REVIT
1002
{
1070
     3
1000
923114
1002
}
  0
LWPOLYLINE
  5
2FD
330
2E3
100
AcDbEntity
  8
M-PIPE
100
AcDbPolyline
 90
       41
 70
   128
 43
0.0
 10
1193.041472925128
 20
2060.482558850044
 10
1193.044272551814
 20
2060.622521519697
 10
1193.052666953069
 20
2060.762260278936
 10
1193.066642699639
 20
2060.901551575555
 10
1193.086177433313
 20
2061.040172573194
 10
1193.111239902684
 20
2061.177901507827
 10
1193.141790013146
 20
2061.314518042539
 10
1193.17777889104
 20
2061.449803620018
 10
1193.21914896184
 20
2061.5835418122
 10
1193.265834042255
 20
2061.715518666506
 10
1193.317759446118
 20
2061.845523048124
 10
1193.374842103858
 20
2061.973346977775
 10
1193.4369906954
 20
2062.098785964439
 10
1193.504105796256
 20
2062.221639332497
 10
1193.576080036581
 20
2062.341710542767
 10
1193.652798272944
 20
2062.458807506927
 10
1193.734137772533
 20
2062.572742894812
 10
1193.8199684095
 20
2062.683334434109
 10
1193.910152873135
 20
2062.790405201944
 10
1194.004546887535
 20
2062.893783907931
 10
1194.102999442413
 20
2062.993305168192
 10
1194.205353034683
 20
2063.088809769942
 10
1194.311443920433
 20
2063.180144926191
 10
1194.421102376876
 20
2063.267164520171
 10
1194.534152973874
 20
2063.349729339098
 10
1194.65041485459
 20
2063.427707296871
 10
1194.769702024813
 20
2063.500973645395
 10
1194.89182365052
 20
2063.569411174142
 10
1195.016584363159
 20
2063.632910397661
 10
1195.143784572206
 20
2063.691369730745
 10
1195.27322078446
 20
2063.744695650929
 10
1195.404685929592
 20
2063.792802848118
 10
1195.537969691416
 20
2063.835614361056
 10
1195.672858844345
 20
2063.873061700458
 10
1195.809137594508
 20
2063.905084958568
 10
1195.946587924977
 20
2063.931632905004
 10
1196.084989944544
 20
2063.952663068715
 10
1196.224122239503
 20
2063.968141805926
 10
1196.36376222786
 20
2063.978044353959
 10
1196.503686515424
 20
2063.982354870849
 10
1196.541472925128
 20
2063.982558850044
1001
REVIT
1002
{
1070
     3
1000
923114
1002
}
  0
LINE
  5
2FE
330
2E3
100
AcDbEntity
  8
M-PIPE
100
AcDbLine
 10
1205.826652226378
 20
2063.982558850044
 30
0.0
 11
1204.577833180825
 21
2063.982558850044
 31
0.0
1001
REVIT
1002
{
1070
     3
1000
923114
1002
}
  0
LINE
  5
2FF
330
2E3
100
AcDbEntity
  8
M-PIPE
100
AcDbLine
 10
1210.556295958691
 20
2063.982558850044
 30
0.0
 11
1205.826652226378
 21
2063.982558850044
 31
0.0
1001
REVIT
1002
{
1070
     3
1000
923114
1002
}
  0
LINE
  5
300
330
2E3
100
AcDbEntity
  8
M-PIPE
100
AcDbLine
 10
1211.80511516235
 20
2063.982558850044
 30
0.0
 11
1210.556295958691
 21
2063.982558850044
 31
0.0
1001
REVIT
1002
{
1070
     3
1000
923114
1002
}
  0
LWPOLYLINE
  5
301
330
2E3
100
AcDbEntity
  8
M-PIPE
100
AcDbPolyline
 90
       41
 70
   128
 43
0.0
 10
1219.841472925128
 20
2063.982558850044
 10
1219.981435594781
 20
2063.979759223357
 10
1220.12117435402
 20
2063.971364822103
 10
1220.260465650639
 20
2063.957389075532
 10
1220.399086648278
 20
2063.937854341858
 10
1220.536815582911
 20
2063.912791872488
 10
1220.673432117623
 20
2063.882241762026
 10
1220.808717695102
 20
2063.846252884132
 10
1220.942455887284
 20
2063.804882813332
 10
1221.074432741591
 20
2063.758197732917
 10
1221.204437123208
 20
2063.706272329054
 10
1221.332261052859
 20
2063.649189671314
 10
1221.457700039523
 20
2063.587041079771
 10
1221.580553407581
 20
2063.519925978916
 10
1221.700624617851
 20
2063.447951738591
 10
1221.81772158201
 20
2063.371233502228
 10
1221.931656969896
 20
2063.289894002639
 10
1222.042248509193
 20
2063.204063365672
 10
1222.149319277028
 20
2063.113878902037
 10
1222.252697983015
 20
2063.019484887637
 10
1222.352219243276
 20
2062.921032332759
 10
1222.447723845026
 20
2062.818678740489
 10
1222.539059001274
 20
2062.712587854738
 10
1222.626078595255
 20
2062.602929398296
 10
1222.708643414181
 20
2062.489878801297
 10
1222.786621371956
 20
2062.373616920583
 10
1222.85988772048
 20
2062.254329750359
 10
1222.928325249225
 20
2062.132208124652
 10
1222.991824472746
 20
2062.007447412012
 10
1223.050283805829
 20
2061.880247202966
 10
1223.103609726013
 20
2061.750810990712
 10
1223.151716923201
 20
2061.61934584558
 10
1223.19452843614
 20
2061.486062083756
 10
1223.231975775542
 20
2061.351172930827
 10
1223.263999033652
 20
2061.214894180664
 10
1223.290546980087
 20
2061.077443850195
 10
1223.311577143799
 20
2060.939041830627
 10
1223.32705588101
 20
2060.799909535669
 10
1223.336958429042
 20
2060.660269547311
 10
1223.341268945933
 20
2060.520345259748
 10
1223.341472925128
 20
2060.482558850044
1001
REVIT
1002
{
1070
     3
1000
923114
1002
}
  0
LINE
  5
302
330
2E3
100
AcDbEntity
  8
M-PIPE
100
AcDbLine
 10
1213.647724579002
 20
2029.182558850043
 30
0.0
 11
1210.556295958689
 21
2029.182558850043
 31
0.0
1001
REVIT
1002
{
1070
     3
1000
923114
1002
}
  0
LINE
  5
303
330
2E3
100
AcDbEntity
  8
M-PIPE
100
AcDbLine
 10
1210.556295958689
 20
2029.182558850043
 30
0.0
 11
1208.191472925113
 21
2029.182558850043
 31
0.0
1001
REVIT
1002
{
1070
     3
1000
923114
1002
}
  0
LINE
  5
304
330
2E3
100
AcDbEntity
  8
M-PIPE
100
AcDbLine
 10
1201.501698251849
 20
2060.482558850043
 30
0.0
 11
1201.501698251849
 21
2046.49312352696
 31
0.0
1001
REVIT
1002
{
1070
     3
1000
923114
1002
}
  0
SPLINE
  5
305
330
2E3
100
AcDbEntity
  8
M-PIPE
100
AcDbSpline
210
0.0
220
0.0
230
1.0
 70
     8
 71
     3
 72
    13
 73
     9
 74
     0
 42
0.000000001
 43
0.0000000001
 40
0.0
 40
0.0
 40
0.0
 40
0.0
 40
0.2
 40
0.4
 40
0.55
 40
0.625
 40
0.7
 40
1.0
 40
1.0
 40
1.0
 40
1.0
 10
1213.991991100755
 20
2031.727938020327
 30
0.0
 10
1214.017696868456
 20
2031.920815442671
 30
0.0
 10
1214.075340129385
 20
2032.268854801175
 30
0.0
 10
1214.17419910476
 20
2032.648039942248
 30
0.0
 10
1214.258847617186
 20
2032.865038903162
 30
0.0
 10
1214.320727765027
 20
2032.98496305126
 30
0.0
 10
1214.416480956943
 20
2033.130269198865
 30
0.0
 10
1214.498407088514
 20
2033.183442750448
 30
0.0
 10
1214.56513149631
 20
2033.18255885006
 30
0.0
1001
REVIT
1002
{
1070
     3
1000
923114
1002
}
  0
LINE
  5
306
330
2E3
100
AcDbEntity
  8
M-PIPE
100
AcDbLine
 10
1214.8812501802
 20
2033.182558850059
 30
0.0
 11
1214.8812501802
 21
2060.482558850043
 31
0.0
1001
REVIT
1002
{
1070
     3
1000
923114
1002
}
  0
SPLINE
  5
307
330
2E3
100
AcDbEntity
  8
M-PIPE
100
AcDbSpline
210
0.0
220
0.0
230
1.0
 70
     8
 71
     3
 72
    13
 73
     9
 74
     0
 42
0.000000001
 43
0.0000000001
 40
-1.0
 40
-1.0
 40
-1.0
 40
-1.0
 40
-0.8333333333333332
 40
-0.6666666666666666
 40
-0.5
 40
-0.3333333333333333
 40
-0.1666666666666666
 40
0.0
 40
0.0
 40
0.0
 40
0.0
 10
1201.501698251849
 20
2060.482558850043
 30
0.0
 10
1201.501097509327
 20
2060.787991469142
 30
0.0
 10
1201.571820669613
 20
2061.398828868482
 30
0.0
 10
1201.886904049463
 20
2062.252664804009
 30
0.0
 10
1202.383443820597
 20
2062.98586501574
 30
0.0
 10
1203.029627324906
 20
2063.548470638208
 30
0.0
 10
1203.78223912148
 20
2063.902139011158
 30
0.0
 10
1204.314246067712
 20
2063.982558850042
 30
0.0
 10
1204.577833180822
 20
2063.982558850042
 30
0.0
1001
REVIT
1002
{
1070
     3
1000
923114
1002
}
  0
SPLINE
  5
308
330
2E3
100
AcDbEntity
  8
M-PIPE
100
AcDbSpline
210
0.0
220
0.0
230
1.0
 70
     8
 71
     3
 72
    11
 73
     7
 74
     0
 42
0.000000001
 43
0.0000000001
 40
0.0
 40
0.0
 40
0.0
 40
0.0
 40
0.25
 40
0.5
 40
0.75
 40
1.0
 40
1.0
 40
1.0
 40
1.0
 10
1203.600378455404
 20
2062.708832621015
 30
0.0
 10
1203.734669071493
 20
2062.907180192997
 30
0.0
 10
1204.041063519922
 20
2063.267661681224
 30
0.0
 10
1204.585742684438
 20
2063.673711121971
 30
0.0
 10
1205.18989227405
 20
2063.925473411579
 30
0.0
 10
1205.61505444157
 20
2063.982558850043
 30
0.0
 10
1205.826652226376
 20
2063.982558850043
 30
0.0
1001
REVIT
1002
{
1070
     3
1000
923114
1002
}
  0
SPLINE
  5
309
330
2E3
100
AcDbEntity
  8
M-PIPE
100
AcDbSpline
210
0.0
220
0.0
230
1.0
 70
     8
 71
     3
 72
    11
 73
     7
 74
     0
 42
0.000000001
 43
0.0000000001
 40
0.0
 40
0.0
 40
0.0
 40
0.0
 40
0.25
 40
0.5
 40
0.75
 40
1.0
 40
1.0
 40
1.0
 40
1.0
 10
1212.782569729661
 20
2062.708832621015
 30
0.0
 10
1212.645204848643
 20
2062.907180192997
 30
0.0
 10
1212.343168790992
 20
2063.267661681224
 30
0.0
 10
1211.797322457544
 20
2063.673711121971
 30
0.0
 10
1211.191303957495
 20
2063.925473411579
 30
0.0
 10
1210.771903663761
 20
2063.982558850042
 30
0.0
 10
1210.556295958689
 20
2063.982558850042
 30
0.0
1001
REVIT
1002
{
1070
     3
1000
923114
1002
}
  0
SPLINE
  5
30A
330
2E3
100
AcDbEntity
  8
M-PIPE
100
AcDbSpline
210
0.0
220
0.0
230
1.0
 70
     8
 71
     3
 72
    15
 73
    11
 74
     0
 42
0.000000001
 43
0.0000000001
 40
0.0
 40
0.0
 40
0.0
 40
0.0
 40
0.1428571428571428
 40
0.2857142857142857
 40
0.4285714285714286
 40
0.5714285714285714
 40
0.6785714285714287
 40
0.7321428571428572
 40
0.7857142857142857
 40
1.0
 40
1.0
 40
1.0
 40
1.0
 10
1214.8812501802
 20
2060.482558850043
 30
0.0
 10
1214.881383993416
 20
2060.764177077411
 30
0.0
 10
1214.820816577232
 20
2061.323192574048
 30
0.0
 10
1214.559707480739
 20
2062.105702807025
 30
0.0
 10
1214.155354017535
 20
2062.780492508072
 30
0.0
 10
1213.685763492071
 20
2063.273600385646
 30
0.0
 10
1213.279073307601
 20
2063.560091999018
 30
0.0
 10
1212.978005902679
 20
2063.718709314401
 30
0.0
 10
1212.517810296083
 20
2063.912390280099
 30
0.0
 10
1212.117746214507
 20
2063.982558850042
 30
0.0
 10
1211.805115162347
 20
2063.982558850042
 30
0.0
1001
REVIT
1002
{
1070
     3
1000
923114
1002
}
  0
SPLINE
  5
30B
330
2E3
100
AcDbEntity
  8
M-PIPE
100
AcDbSpline
210
0.0
220
0.0
230
1.0
 70
     8
 71
     3
 72
    10
 73
     6
 74
     0
 42
0.000000001
 43
0.0000000001
 40
-1.0
 40
-1.0
 40
-1.0
 40
-1.0
 40
-0.6666666666666666
 40
-0.3333333333333333
 40
0.0
 40
0.0
 40
0.0
 40
0.0
 10
1203.600378455404
 20
2062.708832621015
 30
0.0
 10
1203.821195486616
 20
2062.481977953089
 30
0.0
 10
1204.298233538195
 20
2062.014396927272
 30
0.0
 10
1205.051005680527
 20
2061.255293989295
 30
0.0
 10
1205.570754342592
 20
2060.742970423187
 30
0.0
 10
1205.826652226376
 20
2060.482558850043
 30
0.0
1001
REVIT
1002
{
1070
     3
1000
923114
1002
}
  0
SPLINE
  5
30C
330
2E3
100
AcDbEntity
  8
M-PIPE
100
AcDbSpline
210
0.0
220
0.0
230
1.0
 70
     8
 71
     3
 72
    10
 73
     6
 74
     0
 42
0.000000001
 43
0.0000000001
 40
-1.0
 40
-1.0
 40
-1.0
 40
-1.0
 40
-0.6666666666666666
 40
-0.3333333333333333
 40
0.0
 40
0.0
 40
0.0
 40
0.0
 10
1202.390957084309
 20
2060.482558850043
 30
0.0
 10
1202.439784702433
 20
2060.742970423187
 30
0.0
 10
1202.594984638758
 20
2061.255293989295
 30
0.0
 10
1202.993104898673
 20
2062.014396927272
 30
0.0
 10
1203.379561424192
 20
2062.481977953089
 30
0.0
 10
1203.600378455404
 20
2062.708832621015
 30
0.0
1001
REVIT
1002
{
1070
     3
1000
923114
1002
}
  0
LINE
  5
30D
330
2E3
100
AcDbEntity
  8
M-PIPE
100
AcDbLine
 10
1213.859114323622
 20
2030.182558850059
 30
0.0
 11
1213.859114323622
 21
2029.182558850043
 31
0.0
1001
REVIT
1002
{
1070
     3
1000
923114
1002
}
  0
SPLINE
  5
30E
330
2E3
100
AcDbEntity
  8
M-PIPE
100
AcDbSpline
210
0.0
220
0.0
230
1.0
 70
     8
 71
     3
 72
    10
 73
     6
 74
     0
 42
0.000000001
 43
0.0000000001
 40
-1.0
 40
-1.0
 40
-1.0
 40
-1.0
 40
-0.6666666666666666
 40
-0.3333333333333333
 40
0.0
 40
0.0
 40
0.0
 40
0.0
 10
1213.991991100755
 20
2031.727938020327
 30
0.0
 10
1213.971756098613
 20
2031.575190889578
 30
0.0
 10
1213.928507966807
 20
2031.256940056749
 30
0.0
 10
1213.873228127919
 20
2030.731941776963
 30
0.0
 10
1213.859631901023
 20
2030.36889953652
 30
0.0
 10
1213.859114323622
 20
2030.182558850059
 30
0.0
1001
REVIT
1002
{
1070
     3
1000
923114
1002
}
  0
SPLINE
  5
30F
330
2E3
100
AcDbEntity
  8
M-PIPE
100
AcDbSpline
210
0.0
220
0.0
230
1.0
 70
     8
 71
     3
 72
    10
 73
     6
 74
     0
 42
0.000000001
 43
0.0000000001
 40
-1.0
 40
-1.0
 40
-1.0
 40
-1.0
 40
-0.6666666666666666
 40
-0.3333333333333333
 40
0.0
 40
0.0
 40
0.0
 40
0.0
 10
1212.782569729661
 20
2062.708832621015
 30
0.0
 10
1213.003386760873
 20
2062.481977953089
 30
0.0
 10
1213.389843286392
 20
2062.014396927272
 30
0.0
 10
1213.787963546307
 20
2061.255293989295
 30
0.0
 10
1213.943163482632
 20
2060.742970423187
 30
0.0
 10
1213.991991100755
 20
2060.482558850043
 30
0.0
1001
REVIT
1002
{
1070
     3
1000
923114
1002
}
  0
SPLINE
  5
310
330
2E3
100
AcDbEntity
  8
M-PIPE
100
AcDbSpline
210
0.0
220
0.0
230
1.0
 70
     8
 71
     3
 72
    10
 73
     6
 74
     0
 42
0.000000001
 43
0.0000000001
 40
-1.0
 40
-1.0
 40
-1.0
 40
-1.0
 40
-0.6666666666666666
 40
-0.3333333333333333
 40
0.0
 40
0.0
 40
0.0
 40
0.0
 10
1210.556295958689
 20
2060.482558850043
 30
0.0
 10
1210.812193842472
 20
2060.742970423187
 30
0.0
 10
1211.331942504538
 20
2061.255293989295
 30
0.0
 10
1212.08471464687
 20
2062.014396927272
 30
0.0
 10
1212.561752698449
 20
2062.481977953089
 30
0.0
 10
1212.782569729661
 20
2062.708832621015
 30
0.0
1001
REVIT
1002
{
1070
     3
1000
923114
1002
}
  0
LINE
  5
311
330
2E3
100
AcDbEntity
  8
P-SANR-FIXT
100
AcDbLine
 10
1236.191472925114
 20
2008.982558850012
 30
0.0
 11
1234.191472925146
 21
2008.982558850012
 31
0.0
  0
LINE
  5
312
330
2E3
100
AcDbEntity
  8
P-SANR-FIXT
100
AcDbLine
 10
1234.191472925146
 20
1990.982558850011
 30
0.0
 11
1236.191472925114
 21
1990.982558850011
 31
0.0
  0
LINE
  5
313
330
2E3
100
AcDbEntity
  8
P-SANR-FIXT
100
AcDbLine
 10
1234.191472925144
 20
2008.982558850011
 30
0.0
 11
1234.191472925144
 21
1999.982558850011
 31
0.0
  0
LINE
  5
314
330
2E3
100
AcDbEntity
  8
P-SANR-FIXT
100
AcDbLine
 10
1236.191472925112
 20
1999.982558850011
 30
0.0
 11
1236.191472925112
 21
1995.891598173418
 31
0.0
  0
LINE
  5
315
330
2E3
100
AcDbEntity
  8
P-SANR-FIXT
100
AcDbLine
 10
1236.191472925112
 20
1995.85152916869
 30
0.0
 11
1236.191472925112
 21
1995.10595886981
 31
0.0
  0
LINE
  5
316
330
2E3
100
AcDbEntity
  8
P-SANR-FIXT
100
AcDbLine
 10
1236.191472925112
 20
1995.085559043796
 30
0.0
 11
1236.191472925112
 21
1990.994598367203
 31
0.0
  0
LINE
  5
317
330
2E3
100
AcDbEntity
  8
P-SANR-FIXT
100
AcDbLine
 10
1234.191472925144
 20
1999.982558850011
 30
0.0
 11
1234.191472925144
 21
1990.98255885001
 31
0.0
  0
LINE
  5
318
330
2E3
100
AcDbEntity
  8
P-SANR-FIXT
100
AcDbLine
 10
1236.191472925112
 20
1999.982558850011
 30
0.0
 11
1236.191472925112
 21
2004.073519526603
 31
0.0
  0
LINE
  5
319
330
2E3
100
AcDbEntity
  8
P-SANR-FIXT
100
AcDbLine
 10
1236.191472925112
 20
2004.11358853133
 30
0.0
 11
1236.191472925112
 21
2004.859158830211
 31
0.0
  0
LINE
  5
31A
330
2E3
100
AcDbEntity
  8
P-SANR-FIXT
100
AcDbLine
 10
1236.191472925112
 20
2004.879558656225
 30
0.0
 11
1236.191472925112
 21
2008.970519332818
 31
0.0
  0
LINE
  5
31B
330
2E3
100
AcDbEntity
  8
P-SANR-FIXT
100
AcDbLine
 10
1229.191472925115
 20
2026.982558850042
 30
0.0
 11
1229.191472925115
 21
2028.090420353063
 31
0.0
  0
LINE
  5
31C
330
2E3
100
AcDbEntity
  8
P-SANR-FIXT
100
AcDbLine
 10
1229.191472925115
 20
2028.090420353063
 30
0.0
 11
1228.099334428134
 21
2029.182558850044
 31
0.0
  0
LINE
  5
31D
330
2E3
100
AcDbEntity
  8
P-SANR-FIXT
100
AcDbLine
 10
1229.191472925113
 20
2028.090420353061
 30
0.0
 11
1208.191472925113
 21
2028.090420353061
 31
0.0
  0
LINE
  5
31E
330
2E3
100
AcDbEntity
  8
P-SANR-FIXT
100
AcDbLine
 10
1208.191472925113
 20
2026.982558850042
 30
0.0
 11
1211.476596690958
 21
2026.982558850042
 31
0.0
  0
LINE
  5
31F
330
2E3
100
AcDbEntity
  8
P-SANR-FIXT
100
AcDbLine
 10
1211.840197578946
 20
2026.982558850042
 30
0.0
 11
1213.093825566087
 21
2026.982558850042
 31
0.0
  0
LINE
  5
320
330
2E3
100
AcDbEntity
  8
P-SANR-FIXT
100
AcDbLine
 10
1213.630533526753
 20
2026.982558850042
 30
0.0
 11
1214.680829806987
 21
2026.982558850042
 31
0.0
  0
LINE
  5
321
330
2E3
100
AcDbEntity
  8
P-SANR-FIXT
100
AcDbLine
 10
1215.379418601087
 20
2026.982558850042
 30
0.0
 11
1217.073159652216
 21
2026.982558850042
 31
0.0
  0
LINE
  5
322
330
2E3
100
AcDbEntity
  8
P-SANR-FIXT
100
AcDbLine
 10
1217.586054368851
 20
2026.982558850042
 30
0.0
 11
1218.698507987596
 21
2026.982558850042
 31
0.0
  0
LINE
  5
323
330
2E3
100
AcDbEntity
  8
P-SANR-FIXT
100
AcDbLine
 10
1219.163942784148
 20
2026.982558850042
 30
0.0
 11
1220.242771850073
 21
2026.982558850042
 31
0.0
  0
LINE
  5
324
330
2E3
100
AcDbEntity
  8
P-SANR-FIXT
100
AcDbLine
 10
1220.534963223255
 20
2026.982558850042
 30
0.0
 11
1221.693925555337
 21
2026.982558850042
 31
0.0
  0
LINE
  5
325
330
2E3
100
AcDbEntity
  8
P-SANR-FIXT
100
AcDbLine
 10
1221.829881940047
 20
2026.982558850042
 30
0.0
 11
1224.159998202714
 21
2026.982558850042
 31
0.0
  0
LINE
  5
326
330
2E3
100
AcDbEntity
  8
P-SANR-FIXT
100
AcDbLine
 10
1224.283579352416
 20
2026.982558850042
 30
0.0
 11
1225.180829806987
 21
2026.982558850042
 31
0.0
  0
LINE
  5
327
330
2E3
100
AcDbEntity
  8
P-SANR-FIXT
100
AcDbLine
 10
1225.403224304696
 20
2026.982558850042
 30
0.0
 11
1226.096916376549
 21
2026.982558850041
 31
0.0
  0
LINE
  5
328
330
2E3
100
AcDbEntity
  8
P-SANR-FIXT
100
AcDbLine
 10
1226.390813336457
 20
2026.982558850041
 30
0.0
 11
1226.902609933069
 21
2026.982558850041
 31
0.0
  0
LINE
  5
329
330
2E3
100
AcDbEntity
  8
P-SANR-FIXT
100
AcDbLine
 10
1227.238563259746
 20
2026.982558850041
 30
0.0
 11
1227.782095900223
 21
2026.982558850041
 31
0.0
  0
LINE
  5
32A
330
2E3
100
AcDbEntity
  8
P-SANR-FIXT
100
AcDbLine
 10
1227.939812036709
 20
2026.982558850041
 30
0.0
 11
1228.473741218039
 21
2026.982558850041
 31
0.0
  0
LINE
  5
32B
330
2E3
100
AcDbEntity
  8
P-SANR-FIXT
100
AcDbLine
 10
1228.540062127516
 20
2026.982558850041
 30
0.0
 11
1228.777190766806
 21
2026.982558850041
 31
0.0
  0
LINE
  5
32C
330
2E3
100
AcDbEntity
  8
P-SANR-FIXT
100
AcDbLine
 10
1228.901426152562
 20
2026.982558850041
 30
0.0
 11
1229.063316327338
 21
2026.982558850041
 31
0.0
  0
LINE
  5
32D
330
2E3
100
AcDbEntity
  8
P-SANR-FIXT
100
AcDbLine
 10
1229.116208602013
 20
2026.982558850041
 30
0.0
 11
1229.191472925113
 21
2026.982558850041
 31
0.0
  0
LINE
  5
32E
330
2E3
100
AcDbEntity
  8
P-SANR-FIXT
100
AcDbLine
 10
1213.660726603183
 20
2029.182558850043
 30
0.0
 11
1228.099334428132
 21
2029.182558850043
 31
0.0
  0
LINE
  5
32F
330
2E3
100
AcDbEntity
  8
P-SANR-FIXT
100
AcDbLine
 10
1186.691472925115
 20
2010.608306852281
 30
0.0
 11
1186.691472925115
 21
2010.534928252189
 31
0.0
  0
LINE
  5
330
330
2E3
100
AcDbEntity
  8
P-SANR-FIXT
100
AcDbLine
 10
1229.691472925116
 20
2010.534928252189
 30
0.0
 11
1229.691472925116
 21
2026.482558850012
 31
0.0
  0
LINE
  5
331
330
2E3
100
AcDbEntity
  8
P-SANR-FIXT
100
AcDbLine
 10
1229.691472925116
 20
2026.482558850012
 30
0.0
 11
1229.191472925115
 21
2026.982558850011
 31
0.0
  0
LINE
  5
332
330
2E3
100
AcDbEntity
  8
P-SANR-FIXT
100
AcDbLine
 10
1233.691472925122
 20
2008.982558850019
 30
0.0
 11
1229.691472925116
 21
2008.982558850019
 31
0.0
  0
LINE
  5
333
330
2E3
100
AcDbEntity
  8
P-SANR-FIXT
100
AcDbLine
 10
1186.691472925115
 20
2008.982558850018
 30
0.0
 11
1185.966706920327
 21
2008.982558850018
 31
0.0
  0
LINE
  5
334
330
2E3
100
AcDbEntity
  8
P-SANR-FIXT
100
AcDbLine
 10
1185.966706920322
 20
1990.982558850018
 30
0.0
 11
1186.691472925115
 21
1990.982558850018
 31
0.0
  0
LINE
  5
335
330
2E3
100
AcDbEntity
  8
P-SANR-FIXT
100
AcDbLine
 10
1229.691472925116
 20
1990.982558850019
 30
0.0
 11
1233.691472925122
 21
1990.982558850019
 31
0.0
  0
LINE
  5
336
330
2E3
100
AcDbEntity
  8
P-SANR-FIXT
100
AcDbLine
 10
1233.691472925122
 20
1990.982558850019
 30
0.0
 11
1234.191472925116
 21
1991.482558850012
 31
0.0
  0
LINE
  5
337
330
2E3
100
AcDbEntity
  8
P-SANR-FIXT
100
AcDbLine
 10
1234.191472925116
 20
2008.482558850025
 30
0.0
 11
1233.691472925122
 21
2008.982558850019
 31
0.0
  0
LINE
  5
338
330
2E3
100
AcDbEntity
  8
P-SANR-FIXT
100
AcDbLine
 10
1236.191472925114
 20
1990.982558850004
 30
0.0
 11
1239.69147292513
 21
1990.982558850004
 31
0.0
  0
LINE
  5
339
330
2E3
100
AcDbEntity
  8
P-SANR-FIXT
100
AcDbLine
 10
1239.69147292513
 20
2008.982558850018
 30
0.0
 11
1236.191472925114
 21
2008.982558850018
 31
0.0
  0
ARC
  5
33A
330
2E3
100
AcDbEntity
  8
P-SANR-FIXT
100
AcDbCircle
 10
1208.191472925113
 20
1999.982558850011
 30
0.0
 40
12.7
100
AcDbArc
 50
90.00000000000053
 51
270.0000000000002
  0
ARC
  5
33B
330
2E3
100
AcDbEntity
  8
P-SANR-FIXT
100
AcDbCircle
 10
1208.191472925113
 20
1999.982558850011
 30
0.0
 40
12.70000000000004
100
AcDbArc
 50
270.0000000000007
 51
90.0
  0
ARC
  5
33C
330
2E3
100
AcDbEntity
  8
P-SANR-FIXT
100
AcDbCircle
 10
1208.191472925113
 20
1999.982558850011
 30
0.0
 40
21.24999999999977
100
AcDbArc
 50
90.0
 51
269.999999999999
  0
SPLINE
  5
33D
330
2E3
100
AcDbEntity
  8
P-SANR-FIXT
100
AcDbSpline
210
0.0
220
0.0
230
1.0
 70
    24
 71
     3
 72
     9
 73
     5
 74
     0
 42
0.000000001
 43
0.0000000001
 40
-1.0
 40
-1.0
 40
-1.0
 40
-1.0
 40
-0.5
 40
0.0
 40
0.0
 40
0.0
 40
0.0
 10
1206.580092897516
 20
2023.878289732465
 30
0.0
 10
1203.494564673864
 20
2022.096859181947
 30
0.0
 10
1197.362829792744
 20
2018.556700397733
 30
0.0
 10
1191.309738043993
 20
2015.061946247162
 30
0.0
 10
1188.30285295271
 20
2013.325920330288
 30
0.0
  0
SPLINE
  5
33E
330
2E3
100
AcDbEntity
  8
P-SANR-FIXT
100
AcDbSpline
210
0.0
220
0.0
230
1.0
 70
    24
 71
     3
 72
     9
 73
     5
 74
     0
 42
0.000000001
 43
0.0000000001
 40
-1.0
 40
-1.0
 40
-1.0
 40
-1.0
 40
-0.5
 40
0.0
 40
0.0
 40
0.0
 40
0.0
 10
1186.691472925113
 20
2010.534928252187
 30
0.0
 10
1186.691472925113
 20
2006.972067151152
 30
0.0
 10
1186.691472925113
 20
1999.891749582724
 30
0.0
 10
1186.691472925113
 20
1992.902241281583
 30
0.0
 10
1186.691472925113
 20
1989.430189447833
 30
0.0
  0
SPLINE
  5
33F
330
2E3
100
AcDbEntity
  8
P-SANR-FIXT
100
AcDbSpline
210
0.0
220
0.0
230
1.0
 70
    24
 71
     3
 72
     9
 73
     5
 74
     0
 42
0.000000001
 43
0.0000000001
 40
-1.0
 40
-1.0
 40
-1.0
 40
-1.0
 40
-0.5
 40
0.0
 40
0.0
 40
0.0
 40
0.0
 10
1188.302852952711
 20
1986.639197369733
 30
0.0
 10
1191.388381176362
 20
1984.857766819216
 30
0.0
 10
1197.520116057482
 20
1981.317608035002
 30
0.0
 10
1203.573207806233
 20
1977.822853884431
 30
0.0
 10
1206.580092897516
 20
1976.086827967557
 30
0.0
  0
ARC
  5
340
330
2E3
100
AcDbEntity
  8
P-SANR-FIXT
100
AcDbCircle
 10
1208.191472925113
 20
1999.982558850011
 30
0.0
 40
21.24999999999977
100
AcDbArc
 50
269.9999999999997
 51
89.99999999999939
  0
SPLINE
  5
341
330
2E3
100
AcDbEntity
  8
P-SANR-FIXT
100
AcDbSpline
210
0.0
220
0.0
230
1.0
 70
    24
 71
     3
 72
     9
 73
     5
 74
     0
 42
0.000000001
 43
0.0000000001
 40
-1.0
 40
-1.0
 40
-1.0
 40
-1.0
 40
-0.5
 40
0.0
 40
0.0
 40
0.0
 40
0.0
 10
1209.802852952711
 20
1976.086827967557
 30
0.0
 10
1212.888381176363
 20
1977.868258518074
 30
0.0
 10
1219.020116057482
 20
1981.408417302288
 30
0.0
 10
1225.073207806233
 20
1984.903171452859
 30
0.0
 10
1228.080092897516
 20
1986.639197369734
 30
0.0
  0
SPLINE
  5
342
330
2E3
100
AcDbEntity
  8
P-SANR-FIXT
100
AcDbSpline
210
0.0
220
0.0
230
1.0
 70
    24
 71
     3
 72
     9
 73
     5
 74
     0
 42
0.000000001
 43
0.0000000001
 40
-1.0
 40
-1.0
 40
-1.0
 40
-1.0
 40
-0.5
 40
0.0
 40
0.0
 40
0.0
 40
0.0
 10
1229.691472925113
 20
1989.430189447834
 30
0.0
 10
1229.691472925113
 20
1992.993050548869
 30
0.0
 10
1229.691472925113
 20
2000.073368117297
 30
0.0
 10
1229.691472925113
 20
2007.062876418439
 30
0.0
 10
1229.691472925113
 20
2010.534928252188
 30
0.0
  0
SPLINE
  5
343
330
2E3
100
AcDbEntity
  8
P-SANR-FIXT
100
AcDbSpline
210
0.0
220
0.0
230
1.0
 70
    24
 71
     3
 72
     9
 73
     5
 74
     0
 42
0.000000001
 43
0.0000000001
 40
-1.0
 40
-1.0
 40
-1.0
 40
-1.0
 40
-0.5
 40
0.0
 40
0.0
 40
0.0
 40
0.0
 10
1228.080092897516
 20
2013.325920330288
 30
0.0
 10
1224.994564673864
 20
2015.107350880805
 30
0.0
 10
1218.862829792744
 20
2018.647509665019
 30
0.0
 10
1212.809738043993
 20
2022.14226381559
 30
0.0
 10
1209.80285295271
 20
2023.878289732465
 30
0.0
  0
ARC
  5
344
330
2E3
100
AcDbEntity
  8
P-SANR-FIXT
100
AcDbCircle
 10
1208.191472925113
 20
1999.982558850011
 30
0.0
 40
23.95000000000012
100
AcDbArc
 50
268.0710840842601
 51
269.9999999999991
  0
ARC
  5
345
330
2E3
100
AcDbEntity
  8
P-SANR-FIXT
100
AcDbCircle
 10
1208.191472925113
 20
1999.982558850011
 30
0.0
 40
23.95000000000004
100
AcDbArc
 50
90.0
 51
91.92891591573944
  0
ARC
  5
346
330
2E3
100
AcDbEntity
  8
P-SANR-FIXT
100
AcDbCircle
 10
1208.191472925113
 20
1999.982558850011
 30
0.0
 40
23.95
100
AcDbArc
 50
146.1421681685219
 51
153.8578318314791
  0
ARC
  5
347
330
2E3
100
AcDbEntity
  8
P-SANR-FIXT
100
AcDbCircle
 10
1208.191472925113
 20
1999.982558850011
 30
0.0
 40
23.95000000000001
100
AcDbArc
 50
206.1421681685213
 51
213.8578318314784
  0
ARC
  5
348
330
2E3
100
AcDbEntity
  8
P-SANR-FIXT
100
AcDbCircle
 10
1208.191472925113
 20
1999.982558850011
 30
0.0
 40
23.95000000000004
100
AcDbArc
 50
269.9999999999997
 51
273.8578318314782
  0
ARC
  5
349
330
2E3
100
AcDbEntity
  8
P-SANR-FIXT
100
AcDbCircle
 10
1208.191472925113
 20
1999.982558850011
 30
0.0
 40
23.95000000000012
100
AcDbArc
 50
86.14216816852144
 51
89.99999999999946
  0
ARC
  5
34A
330
2E3
100
AcDbEntity
  8
P-SANR-FIXT
100
AcDbCircle
 10
1208.191472925113
 20
1999.982558850011
 30
0.0
 40
23.95000000000012
100
AcDbArc
 50
326.1421681685211
 51
333.8578318314783
  0
ARC
  5
34B
330
2E3
100
AcDbEntity
  8
P-SANR-FIXT
100
AcDbCircle
 10
1208.191472925113
 20
1999.982558850011
 30
0.0
 40
23.95000000000001
100
AcDbArc
 50
26.14216816852167
 51
33.85783183147875
  0
LINE
  5
34C
330
2E3
100
AcDbEntity
  8
P-SANR-FIXT
100
AcDbLine
 10
1208.191472925113
 20
2026.982558850011
 30
0.0
 11
1209.839510685561
 21
2026.982558850011
 31
0.0
  0
LINE
  5
34D
330
2E3
100
AcDbEntity
  8
P-SANR-FIXT
100
AcDbLine
 10
1210.021743522814
 20
2026.982558850011
 30
0.0
 11
1211.478370758022
 21
2026.982558850011
 31
0.0
  0
LINE
  5
34E
330
2E3
100
AcDbEntity
  8
P-SANR-FIXT
100
AcDbLine
 10
1211.838084656119
 20
2026.982558850011
 30
0.0
 11
1213.097540825911
 21
2026.982558850011
 31
0.0
  0
LINE
  5
34F
330
2E3
100
AcDbEntity
  8
P-SANR-FIXT
100
AcDbLine
 10
1213.626672872266
 20
2026.982558850011
 30
0.0
 11
1214.686638228756
 21
2026.982558850011
 31
0.0
  0
LINE
  5
350
330
2E3
100
AcDbEntity
  8
P-SANR-FIXT
100
AcDbLine
 10
1216.235475633718
 20
2026.982558850011
 30
0.0
 11
1217.591608507506
 21
2026.982558850011
 31
0.0
  0
LINE
  5
351
330
2E3
100
AcDbEntity
  8
P-SANR-FIXT
100
AcDbLine
 10
1217.73412524558
 20
2026.982558850011
 30
0.0
 11
1218.691472925113
 21
2026.982558850011
 31
0.0
  0
LINE
  5
352
330
2E3
100
AcDbEntity
  8
P-SANR-FIXT
100
AcDbLine
 10
1219.172980581998
 20
2026.982558850011
 30
0.0
 11
1220.236578088486
 21
2026.982558850011
 31
0.0
  0
LINE
  5
353
330
2E3
100
AcDbEntity
  8
P-SANR-FIXT
100
AcDbLine
 10
1220.542814593047
 20
2026.982558850011
 30
0.0
 11
1221.690012728531
 21
2026.982558850011
 31
0.0
  0
LINE
  5
354
330
2E3
100
AcDbEntity
  8
P-SANR-FIXT
100
AcDbLine
 10
1221.834832351321
 20
2026.982558850011
 30
0.0
 11
1224.165152311757
 21
2026.982558850011
 31
0.0
  0
LINE
  5
355
330
2E3
100
AcDbEntity
  8
P-SANR-FIXT
100
AcDbLine
 10
1224.278406230612
 20
2026.982558850011
 30
0.0
 11
1225.190691375362
 21
2026.982558850011
 31
0.0
  0
LINE
  5
356
330
2E3
100
AcDbEntity
  8
P-SANR-FIXT
100
AcDbLine
 10
1226.110727180244
 20
2026.982558850011
 30
0.0
 11
1226.378006404586
 21
2026.982558850011
 31
0.0
  0
LINE
  5
357
330
2E3
100
AcDbEntity
  8
P-SANR-FIXT
100
AcDbLine
 10
1226.919345423557
 20
2026.982558850011
 30
0.0
 11
1227.223936452883
 21
2026.982558850011
 31
0.0
  0
LINE
  5
358
330
2E3
100
AcDbEntity
  8
P-SANR-FIXT
100
AcDbLine
 10
1228.461947897435
 20
2026.982558850011
 30
0.0
 11
1228.540151308352
 21
2026.982558850011
 31
0.0
  0
LINE
  5
359
330
2E3
100
AcDbEntity
  8
P-SANR-FIXT
100
AcDbLine
 10
1228.777144416052
 20
2026.982558850011
 30
0.0
 11
1228.90147507847
 21
2026.982558850011
 31
0.0
  0
LINE
  5
35A
330
2E3
100
AcDbEntity
  8
P-SANR-FIXT
100
AcDbLine
 10
1229.063301271974
 20
2026.982558850011
 30
0.0
 11
1229.11156158504
 21
2026.982558850011
 31
0.0
  0
LINE
  5
35B
330
2E3
100
AcDbEntity
  8
P-SANR-FIXT
100
AcDbLine
 10
1229.691472925113
 20
2026.482558850011
 30
0.0
 11
1208.191472925114
 21
2026.482558850011
 31
0.0
  0
LINE
  5
35C
330
2E3
100
AcDbEntity
  8
P-SANR-FIXT
100
AcDbLine
 10
1233.69147292512
 20
1990.982558850018
 30
0.0
 11
1233.69147292512
 21
2008.982558850017
 31
0.0
  0
LINE
  5
35D
330
2E3
100
AcDbEntity
  8
P-SANR-FIXT
100
AcDbLine
 10
1239.691472925128
 20
2004.849209267464
 30
0.0
 11
1239.691472925128
 21
2004.10566447565
 31
0.0
  0
LINE
  5
35E
330
2E3
100
AcDbEntity
  8
P-SANR-FIXT
100
AcDbLine
 10
1239.691472925128
 20
2004.10566447565
 30
0.0
 11
1239.691472925128
 21
1995.859453224371
 31
0.0
  0
LINE
  5
35F
330
2E3
100
AcDbEntity
  8
P-SANR-FIXT
100
AcDbLine
 10
1239.691472925128
 20
1995.859453224371
 30
0.0
 11
1239.691472925128
 21
1995.115908432557
 31
0.0
  0
LINE
  5
360
330
2E3
100
AcDbEntity
  8
P-SANR-FIXT
100
AcDbLine
 10
1239.691472925128
 20
1995.115908432557
 30
0.0
 11
1239.691472925128
 21
1990.992802806918
 31
0.0
  0
LINE
  5
361
330
2E3
100
AcDbEntity
  8
P-SANR-FIXT
100
AcDbLine
 10
1239.691472925128
 20
1990.992802806918
 30
0.0
 11
1239.691472925128
 21
1990.982558850003
 31
0.0
  0
LINE
  5
362
330
2E3
100
AcDbEntity
  8
P-SANR-FIXT
100
AcDbLine
 10
1239.691472925128
 20
2008.982558850017
 30
0.0
 11
1239.691472925128
 21
2008.972314893103
 31
0.0
  0
LINE
  5
363
330
2E3
100
AcDbEntity
  8
P-SANR-FIXT
100
AcDbLine
 10
1239.691472925128
 20
2008.972314893103
 30
0.0
 11
1239.691472925128
 21
2004.849209267464
 31
0.0
  0
LINE
  5
364
330
2E3
100
AcDbEntity
  8
P-SANR-FIXT
100
AcDbLine
 10
1236.191472925112
 20
2008.952130553887
 30
0.0
 11
1236.191472925112
 21
2008.972314893103
 31
0.0
  0
LINE
  5
365
330
2E3
100
AcDbEntity
  8
P-SANR-FIXT
100
AcDbLine
 10
1236.191472925112
 20
2008.972314893103
 30
0.0
 11
1236.191472925112
 21
2008.982558850017
 31
0.0
  0
LINE
  5
366
330
2E3
100
AcDbEntity
  8
P-SANR-FIXT
100
AcDbLine
 10
1236.191472925112
 20
1990.982558850003
 30
0.0
 11
1236.191472925112
 21
1990.992802806918
 31
0.0
  0
LINE
  5
367
330
2E3
100
AcDbEntity
  8
P-SANR-FIXT
100
AcDbLine
 10
1236.191472925112
 20
1990.992802806918
 30
0.0
 11
1236.191472925112
 21
1991.012987146134
 31
0.0
  0
LINE
  5
368
330
2E3
100
AcDbEntity
  8
P-SANR-FIXT
100
AcDbLine
 10
1236.191472925112
 20
1995.115908432557
 30
0.0
 11
1236.191472925112
 21
1995.859453224371
 31
0.0
  0
LINE
  5
369
330
2E3
100
AcDbEntity
  8
P-SANR-FIXT
100
AcDbLine
 10
1236.191472925112
 20
2004.10566447565
 30
0.0
 11
1236.191472925112
 21
2004.849209267464
 31
0.0
  0
LINE
  5
36A
330
2E3
100
AcDbEntity
  8
P-SANR-FIXT
100
AcDbLine
 10
1239.691472925128
 20
2004.849209267464
 30
0.0
 11
1236.191472925112
 21
2004.849209267464
 31
0.0
  0
LINE
  5
36B
330
2E3
100
AcDbEntity
  8
P-SANR-FIXT
100
AcDbLine
 10
1236.191472925112
 20
2004.10566447565
 30
0.0
 11
1239.691472925128
 21
2004.10566447565
 31
0.0
  0
LINE
  5
36C
330
2E3
100
AcDbEntity
  8
P-SANR-FIXT
100
AcDbLine
 10
1236.191472925112
 20
1995.859453224371
 30
0.0
 11
1239.691472925128
 21
1995.859453224371
 31
0.0
  0
LINE
  5
36D
330
2E3
100
AcDbEntity
  8
P-SANR-FIXT
100
AcDbLine
 10
1236.191472925112
 20
1995.115908432557
 30
0.0
 11
1239.691472925128
 21
1995.115908432557
 31
0.0
  0
LINE
  5
36E
330
2E3
100
AcDbEntity
  8
P-SANR-FIXT
100
AcDbLine
 10
1236.191472925112
 20
1990.992802806918
 30
0.0
 11
1239.691472925128
 21
1990.992802806918
 31
0.0
  0
LINE
  5
36F
330
2E3
100
AcDbEntity
  8
P-SANR-FIXT
100
AcDbLine
 10
1236.191472925112
 20
2008.972314893103
 30
0.0
 11
1239.691472925128
 21
2008.972314893103
 31
0.0
  0
ENDBLK
  5
371
330
2E3
100
AcDbEntity
  8
0
100
AcDbBlockEnd
  0
ENDSEC
  0
SECTION
  2
ENTITIES
  0
INSERT
  5
1DC
330
71
100
AcDbEntity
  8
P-SANR-FIXT
100
AcDbBlockReference
  2
Automatic flow rate regulator valve_Caleffi_121 DN15 - 1_2__-859151-Est - Idraulica
 10
0.0
 20
0.0
 30
0.0
1001
REVIT
1002
{
1070
     1
1000
863131
1002
}
1002
{
1070
     5
1000
859151
1002
}
1002
{
1070
     2
1000
-2001160
1002
}
  0
INSERT
  5
2E2
330
71
100
AcDbEntity
  8
P-SANR-FIXT
100
AcDbBlockReference
  2
Automatic flow rate regulator valve_Caleffi_121 DN15 - 1_2__-V1-Est - Idraulica
 10
0.0
 20
0.0
 30
0.0
1001
REVIT
1002
{
1070
     1
1000
863152
1002
}
1002
{
1070
     5
1000
859151
1002
}
1002
{
1070
     2
1000
-2001160
1002
}
  0
INSERT
  5
372
330
71
100
AcDbEntity
  8
P-SANR-FIXT
100
AcDbBlockReference
  2
Automatic flow rate regulator valve_Caleffi_121 DN15 - 1_2__-V2-Est - Idraulica
 10
0.0
 20
0.0
 30
0.0
1001
REVIT
1002
{
1070
     1
1000
863172
1002
}
1002
{
1070
     5
1000
859151
1002
}
1002
{
1070
     2
1000
-2001160
1002
}
  0
ENDSEC
  0
SECTION
  2
OBJECTS
  0
DICTIONARY
  5
C
330
0
100
AcDbDictionary
281
     1
  3
ACAD_CIP_PREVIOUS_PRODUCT_INFO
350
7A
  3
ACAD_COLOR
350
63
  3
ACAD_DETAILVIEWSTYLE
350
6B
  3
ACAD_GROUP
350
D
  3
ACAD_IMAGE_VARS
350
7B
  3
ACAD_LAYOUT
350
62
  3
ACAD_MATERIAL
350
10
  3
ACAD_MLEADERSTYLE
350
66
  3
ACAD_MLINESTYLE
350
5F
  3
ACAD_PLOTSETTINGS
350
61
  3
ACAD_PLOTSTYLENAME
350
E
  3
ACAD_SCALELIST
350
42
  3
ACAD_SECTIONVIEWSTYLE
350
68
  3
ACAD_TABLESTYLE
350
64
  3
ACAD_VISUALSTYLE
350
29
  3
ACDB_RECOMPOSE_DATA
350
37D
  3
AcDbVariableDictionary
350
7C
  3
REVIT_DICTIONARY
350
374
  0
DICTIONARY
  5
379
330
71
100
AcDbDictionary
280
     1
281
     1
  3
ACAD_SORTENTS
360
37A
  0
XRECORD
  5
7A
102
{ACAD_REACTORS
330
C
102
}
330
C
100
AcDbXrecord
280
     1
300
RVT
300
2013
300
RVT2013
  0
DICTIONARY
  5
63
102
{ACAD_REACTORS
330
C
102
}
330
C
100
AcDbDictionary
281
     1
  0
DICTIONARY
  5
6B
102
{ACAD_REACTORS
330
C
102
}
330
C
100
AcDbDictionary
281
     1
  3
Imperial24
350
6C
  0
DICTIONARY
  5
D
102
{ACAD_REACTORS
330
C
102
}
330
C
100
AcDbDictionary
281
     1
  0
RASTERVARIABLES
  5
7B
102
{ACAD_REACTORS
330
C
102
}
330
C
100
AcDbRasterVariables
 90
        0
 70
     0
 71
     1
 72
     1
  0
DICTIONARY
  5
62
102
{ACAD_REACTORS
330
C
102
}
330
C
100
AcDbDictionary
281
     1
  3
Layout1
350
70
  3
Layout2
350
78
  3
Model
350
74
  0
DICTIONARY
  5
10
102
{ACAD_REACTORS
330
C
102
}
330
C
100
AcDbDictionary
281
     1
  3
ByBlock
350
19
  3
ByLayer
350
11
  3
Global
350
21
  0
DICTIONARY
  5
66
102
{ACAD_REACTORS
330
C
102
}
330
C
100
AcDbDictionary
281
     1
  3
Standard
350
67
  0
DICTIONARY
  5
5F
102
{ACAD_REACTORS
330
C
102
}
330
C
100
AcDbDictionary
281
     1
  3
Standard
350
60
  0
DICTIONARY
  5
61
102
{ACAD_REACTORS
330
C
102
}
330
C
100
AcDbDictionary
281
     1
  0
ACDBDICTIONARYWDFLT
  5
E
102
{ACAD_REACTORS
330
C
102
}
330
C
100
AcDbDictionary
281
     1
  3
Normal
350
F
100
AcDbDictionaryWithDefault
340
F
  0
DICTIONARY
  5
42
102
{ACAD_REACTORS
330
C
102
}
330
C
100
AcDbDictionary
281
     1
  3
A0
350
43
  3
A1
350
44
  3
A2
350
45
  3
A3
350
46
  3
A4
350
47
  3
A5
350
48
  3
A6
350
49
  3
A7
350
4A
  3
A8
350
4B
  3
A9
350
4C
  3
B0
350
4D
  3
B1
350
4E
  3
B2
350
4F
  3
B3
350
50
  3
B4
350
51
  3
B5
350
52
  3
B6
350
53
  0
DICTIONARY
  5
68
102
{ACAD_REACTORS
330
C
102
}
330
C
100
AcDbDictionary
281
     1
  3
Imperial24
350
6A
  0
DICTIONARY
  5
64
102
{ACAD_REACTORS
330
C
102
}
330
C
100
AcDbDictionary
281
     1
  3
Standard
350
65
  0
DICTIONARY
  5
29
102
{ACAD_REACTORS
330
C
102
}
330
C
100
AcDbDictionary
281
     1
  3
2dWireframe
350
2F
  3
Basic
350
2E
  3
Brighten
350
35
  3
ColorChange
350
39
  3
Conceptual
350
32
  3
Dim
350
34
  3
EdgeColorOff
350
41
  3
Facepattern
350
38
  3
Flat
350
2A
  3
FlatWithEdges
350
2B
  3
Gouraud
350
2C
  3
GouraudWithEdges
350
2D
  3
Hidden
350
31
  3
JitterOff
350
3F
  3
Linepattern
350
37
  3
OverhangOff
350
40
  3
Realistic
350
33
  3
Shaded
350
3E
  3
Shaded with edges
350
3D
  3
Shades of Gray
350
3A
  3
Sketchy
350
3B
  3
Thicken
350
36
  3
Wireframe
350
30
  3
X-Ray
350
3C
  0
XRECORD
  5
37D
102
{ACAD_REACTORS
330
C
102
}
330
C
100
AcDbXrecord
280
     1
 90
        1
330
65
  0
DICTIONARY
  5
7C
102
{ACAD_REACTORS
330
C
102
}
330
C
100
AcDbDictionary
281
     1
  3
CANNOSCALE
350
81
  3
CMLEADERSTYLE
350
7E
  3
CTABLESTYLE
350
7D
  3
CVIEWDETAILSTYLE
350
7F
  3
CVIEWSECTIONSTYLE
350
80
  0
DICTIONARY
  5
374
102
{ACAD_REACTORS
330
C
102
}
330
C
100
AcDbDictionary
281
     1
  3
DRAWING_TOOL
350
378
  3
REVIT_CATEGORY_MAPPING
350
376
  3
REVIT_SUB_CATEGORY_MAPPING
350
377
  3
REVIT_TYPE_MAPPING
350
375
  0
SORTENTSTABLE
  5
37A
102
{ACAD_REACTORS
330
379
102
}
330
379
100
AcDbSortentsTable
330
71
  0
ACDBDETAILVIEWSTYLE
  5
6C
102
{ACAD_REACTORS
330
6B
102
}
330
6B
100
AcDbModelDocViewStyle
 70
     0
  3
Imperial24
290
     1
100
AcDbDetailViewStyle
 70
     0
 71
     0
 90
        3
 71
     1
340
55
 62
   256
 40
0.24
340
0
 62
   256
 40
0.24
300

 40
0.36
280
     3
 71
     2
340
5D
 90
       25
 62
   256
 71
     3
340
55
 62
   256
 40
0.24
 90
        1
 40
0.75
 90
        1
300
%<\AcVar ViewType \f "%tc1">% %<\AcVar ViewDetailId>%\PSCALA %<\AcVar ViewScale \f "%sn">%
 71
     4
340
5D
 90
       25
 62
   256
340
5D
 90
       25
 62
   256
280
     0
  0
LAYOUT
  5
70
102
{ACAD_REACTORS
330
62
102
}
330
62
100
AcDbPlotSettings
  1

  2

  4

  6

 40
0.0
 41
0.0
 42
0.0
 43
0.0
 44
0.0
 45
0.0
 46
0.0
 47
0.0
 48
0.0
 49
0.0
140
0.0
141
0.0
142
1.0
143
1.0
 70
   688
 72
     0
 73
     0
 74
     5
  7

 75
    16
147
1.0
 76
     0
 77
     2
 78
   300
148
0.0
149
0.0
100
AcDbLayout
  1
Layout1
 70
     1
 71
     1
 10
0.0
 20
0.0
 11
12.0
 21
9.0
 12
0.0
 22
0.0
 32
0.0
 14
0.0
 24
0.0
 34
0.0
 15
0.0
 25
0.0
 35
0.0
146
0.0
 13
0.0
 23
0.0
 33
0.0
 16
1.0
 26
0.0
 36
0.0
 17
0.0
 27
1.0
 37
0.0
 76
     0
330
6D
  0
LAYOUT
  5
78
102
{ACAD_REACTORS
330
62
102
}
330
62
100
AcDbPlotSettings
  1

  2

  4

  6

 40
0.0
 41
0.0
 42
0.0
 43
0.0
 44
0.0
 45
0.0
 46
0.0
 47
0.0
 48
0.0
 49
0.0
140
0.0
141
0.0
142
1.0
143
1.0
 70
   688
 72
     0
 73
     0
 74
     5
  7

 75
    16
147
1.0
 76
     0
 77
     2
 78
   300
148
0.0
149
0.0
100
AcDbLayout
  1
Layout2
 70
     1
 71
     2
 10
0.0
 20
0.0
 11
12.0
 21
9.0
 12
0.0
 22
0.0
 32
0.0
 14
0.0
 24
0.0
 34
0.0
 15
0.0
 25
0.0
 35
0.0
146
0.0
 13
0.0
 23
0.0
 33
0.0
 16
1.0
 26
0.0
 36
0.0
 17
0.0
 27
1.0
 37
0.0
 76
     0
330
75
  0
LAYOUT
  5
74
102
{ACAD_REACTORS
330
62
102
}
330
62
100
AcDbPlotSettings
  1

  2

  4

  6

 40
0.0
 41
0.0
 42
0.0
 43
0.0
 44
0.0
 45
0.0
 46
0.0
 47
0.0
 48
0.0
 49
0.0
140
0.0
141
0.0
142
1.0
143
1.0
 70
  1712
 72
     0
 73
     0
 74
     0
  7

 75
     0
147
1.0
 76
     0
 77
     2
 78
   300
148
0.0
149
0.0
100
AcDbLayout
  1
Model
 70
     1
 71
     0
 10
0.0
 20
0.0
 11
12.0
 21
9.0
 12
0.0
 22
0.0
 32
0.0
 14
0.0
 24
0.0
 34
0.0
 15
0.0
 25
0.0
 35
0.0
146
0.0
 13
0.0
 23
0.0
 33
0.0
 16
1.0
 26
0.0
 36
0.0
 17
0.0
 27
1.0
 37
0.0
 76
     0
330
71
  0
MATERIAL
  5
19
102
{ACAD_XDICTIONARY
360
1A
102
}
102
{ACAD_REACTORS
330
10
102
}
330
10
100
AcDbMaterial
  1
ByBlock
 72
     0
 43
0.0208333333333333
 43
0.0
 43
0.0
 43
0.0
 43
0.0
 43
0.0208333333333333
 43
0.0
 43
0.0
 43
0.0
 43
0.0
 43
1.0
 43
0.0
 43
0.0
 43
0.0
 43
0.0
 43
1.0
 77
     0
 47
0.0208333333333333
 47
0.0
 47
0.0
 47
0.0
 47
0.0
 47
0.0208333333333333
 47
0.0
 47
0.0
 47
0.0
 47
0.0
 47
1.0
 47
0.0
 47
0.0
 47
0.0
 47
0.0
 47
1.0
171
     0
 49
0.0208333333333333
 49
0.0
 49
0.0
 49
0.0
 49
0.0
 49
0.0208333333333333
 49
0.0
 49
0.0
 49
0.0
 49
0.0
 49
1.0
 49
0.0
 49
0.0
 49
0.0
 49
0.0
 49
1.0
175
     0
142
0.0208333333333333
142
0.0
142
0.0
142
0.0
142
0.0
142
0.0208333333333333
142
0.0
142
0.0
142
0.0
142
0.0
142
1.0
142
0.0
142
0.0
142
0.0
142
0.0
142
1.0
179
     0
144
0.0208333333333333
144
0.0
144
0.0
144
0.0
144
0.0
144
0.0208333333333333
144
0.0
144
0.0
144
0.0
144
0.0
144
1.0
144
0.0
144
0.0
144
0.0
144
0.0
144
1.0
147
0.0208333333333333
147
0.0
147
0.0
147
0.0
147
0.0
147
0.0208333333333333
147
0.0
147
0.0
147
0.0
147
0.0
147
1.0
147
0.0
147
0.0
147
0.0
147
0.0
147
1.0
  0
MATERIAL
  5
11
102
{ACAD_XDICTIONARY
360
12
102
}
102
{ACAD_REACTORS
330
10
102
}
330
10
100
AcDbMaterial
  1
ByLayer
 72
     0
 43
0.0208333333333333
 43
0.0
 43
0.0
 43
0.0
 43
0.0
 43
0.0208333333333333
 43
0.0
 43
0.0
 43
0.0
 43
0.0
 43
1.0
 43
0.0
 43
0.0
 43
0.0
 43
0.0
 43
1.0
 77
     0
 47
0.0208333333333333
 47
0.0
 47
0.0
 47
0.0
 47
0.0
 47
0.0208333333333333
 47
0.0
 47
0.0
 47
0.0
 47
0.0
 47
1.0
 47
0.0
 47
0.0
 47
0.0
 47
0.0
 47
1.0
171
     0
 49
0.0208333333333333
 49
0.0
 49
0.0
 49
0.0
 49
0.0
 49
0.0208333333333333
 49
0.0
 49
0.0
 49
0.0
 49
0.0
 49
1.0
 49
0.0
 49
0.0
 49
0.0
 49
0.0
 49
1.0
175
     0
142
0.0208333333333333
142
0.0
142
0.0
142
0.0
142
0.0
142
0.0208333333333333
142
0.0
142
0.0
142
0.0
142
0.0
142
1.0
142
0.0
142
0.0
142
0.0
142
0.0
142
1.0
179
     0
144
0.0208333333333333
144
0.0
144
0.0
144
0.0
144
0.0
144
0.0208333333333333
144
0.0
144
0.0
144
0.0
144
0.0
144
1.0
144
0.0
144
0.0
144
0.0
144
0.0
144
1.0
147
0.0208333333333333
147
0.0
147
0.0
147
0.0
147
0.0
147
0.0208333333333333
147
0.0
147
0.0
147
0.0
147
0.0
147
1.0
147
0.0
147
0.0
147
0.0
147
0.0
147
1.0
  0
MATERIAL
  5
21
102
{ACAD_XDICTIONARY
360
22
102
}
102
{ACAD_REACTORS
330
10
102
}
330
10
100
AcDbMaterial
  1
Global
 72
     0
 43
0.0208333333333333
 43
0.0
 43
0.0
 43
0.0
 43
0.0
 43
0.0208333333333333
 43
0.0
 43
0.0
 43
0.0
 43
0.0
 43
1.0
 43
0.0
 43
0.0
 43
0.0
 43
0.0
 43
1.0
 77
     0
 47
0.0208333333333333
 47
0.0
 47
0.0
 47
0.0
 47
0.0
 47
0.0208333333333333
 47
0.0
 47
0.0
 47
0.0
 47
0.0
 47
1.0
 47
0.0
 47
0.0
 47
0.0
 47
0.0
 47
1.0
171
     0
 49
0.0208333333333333
 49
0.0
 49
0.0
 49
0.0
 49
0.0
 49
0.0208333333333333
 49
0.0
 49
0.0
 49
0.0
 49
0.0
 49
1.0
 49
0.0
 49
0.0
 49
0.0
 49
0.0
 49
1.0
175
     0
142
0.0208333333333333
142
0.0
142
0.0
142
0.0
142
0.0
142
0.0208333333333333
142
0.0
142
0.0
142
0.0
142
0.0
142
1.0
142
0.0
142
0.0
142
0.0
142
0.0
142
1.0
179
     0
144
0.0208333333333333
144
0.0
144
0.0
144
0.0
144
0.0
144
0.0208333333333333
144
0.0
144
0.0
144
0.0
144
0.0
144
1.0
144
0.0
144
0.0
144
0.0
144
0.0
144
1.0
147
0.0208333333333333
147
0.0
147
0.0
147
0.0
147
0.0
147
0.0208333333333333
147
0.0
147
0.0
147
0.0
147
0.0
147
1.0
147
0.0
147
0.0
147
0.0
147
0.0
147
1.0
  0
MLEADERSTYLE
  5
67
102
{ACAD_REACTORS
330
66
102
}
330
66
100
AcDbMLeaderStyle
179
     2
170
     2
171
     1
172
     0
 90
        2
 40
0.0
 41
0.0
173
     1
 91
-1056964608
340
5B
 92
       -2
290
     1
 42
0.09
291
     1
 43
0.36
  3
Standard
 44
0.18
300

342
55
174
     1
178
     6
175
     1
176
     0
 93
-1056964608
 45
0.18
292
     0
297
     0
 46
0.18
 94
-1056964608
 47
1.0
 49
1.0
140
1.0
293
     1
141
0.0
294
     1
177
     0
142
1.0
295
     1
296
     0
143
0.125
271
     0
272
     9
273
     9
298
     1
  0
MLINESTYLE
  5
60
102
{ACAD_REACTORS
330
5F
102
}
330
5F
100
AcDbMlineStyle
  2
STANDARD
 70
     0
  3

 62
   256
 51
90.0
 52
90.0
 71
     2
 49
0.5
 62
   256
  6
BYLAYER
 49
-0.5
 62
   256
  6
BYLAYER
  0
ACDBPLACEHOLDER
  5
F
102
{ACAD_REACTORS
330
E
102
}
330
E
  0
SCALE
  5
43
102
{ACAD_REACTORS
330
42
102
}
330
42
100
AcDbScale
 70
     0
300
1:1
140
1.0
141
1.0
290
     1
  0
SCALE
  5
44
102
{ACAD_REACTORS
330
42
102
}
330
42
100
AcDbScale
 70
     0
300
1/128" = 1'-0"
140
0.0078125
141
12.0
290
     0
  0
SCALE
  5
45
102
{ACAD_REACTORS
330
42
102
}
330
42
100
AcDbScale
 70
     0
300
1/64" = 1'-0"
140
0.015625
141
12.0
290
     0
  0
SCALE
  5
46
102
{ACAD_REACTORS
330
42
102
}
330
42
100
AcDbScale
 70
     0
300
1/32" = 1'-0"
140
0.03125
141
12.0
290
     0
  0
SCALE
  5
47
102
{ACAD_REACTORS
330
42
102
}
330
42
100
AcDbScale
 70
     0
300
1/16" = 1'-0"
140
0.0625
141
12.0
290
     0
  0
SCALE
  5
48
102
{ACAD_REACTORS
330
42
102
}
330
42
100
AcDbScale
 70
     0
300
3/32" = 1'-0"
140
0.09375
141
12.0
290
     0
  0
SCALE
  5
49
102
{ACAD_REACTORS
330
42
102
}
330
42
100
AcDbScale
 70
     0
300
1/8" = 1'-0"
140
0.125
141
12.0
290
     0
  0
SCALE
  5
4A
102
{ACAD_REACTORS
330
42
102
}
330
42
100
AcDbScale
 70
     0
300
3/16" = 1'-0"
140
0.1875
141
12.0
290
     0
  0
SCALE
  5
4B
102
{ACAD_REACTORS
330
42
102
}
330
42
100
AcDbScale
 70
     0
300
1/4" = 1'-0"
140
0.25
141
12.0
290
     0
  0
SCALE
  5
4C
102
{ACAD_REACTORS
330
42
102
}
330
42
100
AcDbScale
 70
     0
300
3/8" = 1'-0"
140
0.375
141
12.0
290
     0
  0
SCALE
  5
4D
102
{ACAD_REACTORS
330
42
102
}
330
42
100
AcDbScale
 70
     0
300
1/2" = 1'-0"
140
0.5
141
12.0
290
     0
  0
SCALE
  5
4E
102
{ACAD_REACTORS
330
42
102
}
330
42
100
AcDbScale
 70
     0
300
3/4" = 1'-0"
140
0.75
141
12.0
290
     0
  0
SCALE
  5
4F
102
{ACAD_REACTORS
330
42
102
}
330
42
100
AcDbScale
 70
     0
300
1" = 1'-0"
140
1.0
141
12.0
290
     0
  0
SCALE
  5
50
102
{ACAD_REACTORS
330
42
102
}
330
42
100
AcDbScale
 70
     0
300
1-1/2" = 1'-0"
140
1.5
141
12.0
290
     0
  0
SCALE
  5
51
102
{ACAD_REACTORS
330
42
102
}
330
42
100
AcDbScale
 70
     0
300
3" = 1'-0"
140
3.0
141
12.0
290
     0
  0
SCALE
  5
52
102
{ACAD_REACTORS
330
42
102
}
330
42
100
AcDbScale
 70
     0
300
6" = 1'-0"
140
6.0
141
12.0
290
     0
  0
SCALE
  5
53
102
{ACAD_REACTORS
330
42
102
}
330
42
100
AcDbScale
 70
     0
300
1'-0" = 1'-0"
140
12.0
141
12.0
290
     0
  0
ACDBSECTIONVIEWSTYLE
  5
6A
102
{ACAD_REACTORS
330
68
102
}
330
68
100
AcDbModelDocViewStyle
 70
     0
  3
Imperial24
290
     1
100
AcDbSectionViewStyle
 70
     0
 71
     0
 90
       78
 71
     1
340
55
 62
   256
 40
0.24
340
0
340
0
 62
   256
 40
0.24
300
I, O, Q, S, X, Z
 40
0.48
 90
        3
 40
0.18
 90
        1
 71
     2
340
69
 90
       25
 62
   256
340
5D
 90
       50
 62
   256
 40
0.24
 40
0.0
 40
0.24
 71
     3
340
55
 62
   256
 40
0.24
 90
        1
 40
0.75
 90
        1
300
%<\AcVar ViewType \f "%tc1">% %<\AcVar ViewSectionStartId>%-%<\AcVar ViewSectionEndId>%\PSCALA %<\AcVar ViewScale \f "%sn">%
 71
     4
 62
   256
 62
   257
300
ANSI31
 40
1.0
 90
        0
290
     0
290
     0
 90
        6
 40
0.0
 40
1.570796326794896
 40
0.2617993877991494
 40
1.308996938995747
 40
-0.2617993877991494
 40
1.832595714594046
  0
TABLESTYLE
  5
65
102
{ACAD_XDICTIONARY
360
37B
102
}
102
{ACAD_REACTORS
330
64
102
}
330
64
100
AcDbTableStyle
280
     0
  3
Standard
 70
     0
 71
     0
 40
0.06
 41
0.06
280
     0
281
     0
  7
Standard
140
0.18
170
     2
 62
     0
 63
     7
283
     0
 90
      512
 91
        0
  1

274
    -2
284
     1
 64
     0
275
    -2
285
     1
 65
     0
276
    -2
286
     1
 66
     0
277
    -2
287
     1
 67
     0
278
    -2
288
     1
 68
     0
279
    -2
289
     1
 69
     0
  7
Standard
140
0.25
170
     5
 62
     0
 63
     7
283
     0
 90
      512
 91
        0
  1

274
    -2
284
     1
 64
     0
275
    -2
285
     1
 65
     0
276
    -2
286
     1
 66
     0
277
    -2
287
     1
 67
     0
278
    -2
288
     1
 68
     0
279
    -2
289
     1
 69
     0
  7
Standard
140
0.18
170
     5
 62
     0
 63
     7
283
     0
 90
      512
 91
        0
  1

274
    -2
284
     1
 64
     0
275
    -2
285
     1
 65
     0
276
    -2
286
     1
 66
     0
277
    -2
287
     1
 67
     0
278
    -2
288
     1
 68
     0
279
    -2
289
     1
 69
     0
  0
VISUALSTYLE
  5
2F
102
{ACAD_REACTORS
330
29
102
}
330
29
100
AcDbVisualStyle
  2
2dWireframe
 70
     4
177
     3
291
     0
 70
    58
 90
        0
176
     1
 90
        2
176
     1
 90
        0
176
     1
 90
        0
176
     1
 40
0.6
176
     1
 40
30.0
176
     1
 62
     7
420
 16777215
176
     1
 90
        1
176
     1
 90
        4
176
     1
 62
     7
176
     1
 62
   257
176
     1
 90
        1
176
     1
 90
        1
176
     1
 40
1.0
176
     1
 90
        0
176
     1
 62
   257
176
     1
 40
1.0
176
     1
 90
        1
176
     1
 90
        6
176
     1
 90
        2
176
     1
 62
     7
176
     1
 90
        5
176
     1
 90
        0
176
     1
 90
        0
176
     1
290
     0
176
     1
 90
        1
176
     1
 40
0.0
176
     1
 90
        0
176
     1
290
     1
176
     1
290
     1
176
     1
290
     0
176
     1
290
     0
176
     1
290
     0
176
     1
290
     0
176
     1
290
     0
176
     1
290
     0
176
     1
290
     0
176
     1
 90
       50
176
     1
 40
0.0
176
     1
 40
1.0
176
     1
 90
        0
176
     1
 62
    18
420
        0
176
     1
 90
       50
176
     1
 90
        3
176
     1
 62
     5
420
      255
176
     1
290
     0
176
     1
 90
       50
176
     1
 90
       50
176
     1
 90
       50
176
     1
290
     0
176
     1
 90
       50
176
     1
 62
   256
176
     0
 40
1.0
176
     0
 90
        2
176
     1
  1
strokes_ogs.tif
176
     1
290
     0
176
     1
 40
1.0
176
     1
 40
1.0
176
     1
  0
VISUALSTYLE
  5
2E
102
{ACAD_REACTORS
330
29
102
}
330
29
100
AcDbVisualStyle
  2
Basic
 70
     7
177
     3
291
     1
 70
    58
 90
        1
176
     1
 90
        0
176
     1
 90
        1
176
     1
 90
        0
176
     1
 40
0.6
176
     1
 40
30.0
176
     1
 62
     7
420
 16777215
176
     1
 90
        0
176
     1
 90
        4
176
     1
 62
     7
176
     1
 62
   257
176
     1
 90
        1
176
     1
 90
        1
176
     1
 40
1.0
176
     1
 90
        8
176
     1
 62
     7
176
     1
 40
1.0
176
     1
 90
        1
176
     1
 90
        6
176
     1
 90
        2
176
     1
 62
     7
176
     1
 90
        5
176
     1
 90
        0
176
     1
 90
        0
176
     1
290
     0
176
     1
 90
        1
176
     1
 40
0.0
176
     1
 90
        0
176
     1
290
     0
176
     1
290
     1
176
     1
290
     1
176
     1
290
     0
176
     1
290
     0
176
     1
290
     0
176
     1
290
     0
176
     1
290
     0
176
     1
290
     0
176
     1
 90
       50
176
     1
 40
0.0
176
     1
 40
1.0
176
     1
 90
        0
176
     1
 62
    18
420
        0
176
     1
 90
       50
176
     1
 90
        3
176
     1
 62
     5
420
      255
176
     1
290
     0
176
     1
 90
       50
176
     1
 90
       50
176
     1
 90
       50
176
     1
290
     0
176
     1
 90
       50
176
     1
 62
   256
176
     0
 40
1.0
176
     0
 90
        2
176
     1
  1
strokes_ogs.tif
176
     1
290
     0
176
     1
 40
1.0
176
     1
 40
1.0
176
     1
  0
VISUALSTYLE
  5
35
102
{ACAD_REACTORS
330
29
102
}
330
29
100
AcDbVisualStyle
  2
Brighten
 70
    12
177
     3
291
     1
 70
    58
 90
        2
176
     1
 90
        2
176
     1
 90
        0
176
     1
 90
        0
176
     1
 40
0.6
176
     1
 40
30.0
176
     1
 62
     7
420
 16777215
176
     1
 90
        1
176
     1
 90
        4
176
     1
 62
     7
176
     1
 62
   257
176
     1
 90
        1
176
     1
 90
        1
176
     1
 40
1.0
176
     1
 90
        8
176
     1
 62
     7
176
     1
 40
1.0
176
     1
 90
        1
176
     1
 90
        6
176
     1
 90
        2
176
     1
 62
     7
176
     1
 90
        5
176
     1
 90
        0
176
     1
 90
        0
176
     1
290
     0
176
     1
 90
        1
176
     1
 40
50.0
176
     1
 90
        0
176
     1
290
     0
176
     1
290
     1
176
     1
290
     1
176
     1
290
     0
176
     1
290
     0
176
     1
290
     0
176
     1
290
     0
176
     1
290
     0
176
     1
290
     0
176
     1
 90
       50
176
     1
 40
0.0
176
     1
 40
1.0
176
     1
 90
        0
176
     1
 62
    18
420
        0
176
     1
 90
       50
176
     1
 90
        3
176
     1
 62
     5
420
      255
176
     1
290
     0
176
     1
 90
       50
176
     1
 90
       50
176
     1
 90
       50
176
     1
290
     0
176
     1
 90
       50
176
     1
 62
   256
176
     0
 40
1.0
176
     0
 90
        2
176
     1
  1
strokes_ogs.tif
176
     1
290
     0
176
     1
 40
1.0
176
     1
 40
1.0
176
     1
  0
VISUALSTYLE
  5
39
102
{ACAD_REACTORS
330
29
102
}
330
29
100
AcDbVisualStyle
  2
ColorChange
 70
    16
177
     3
291
     1
 70
    58
 90
        2
176
     1
 90
        2
176
     1
 90
        3
176
     1
 90
        0
176
     1
 40
0.6
176
     1
 40
30.0
176
     1
 62
     8
420
  8421504
176
     1
 90
        1
176
     1
 90
        4
176
     1
 62
     7
176
     1
 62
   257
176
     1
 90
        1
176
     1
 90
        1
176
     1
 40
1.0
176
     1
 90
        8
176
     1
 62
     8
420
  8421504
176
     1
 40
1.0
176
     1
 90
        1
176
     1
 90
        6
176
     1
 90
        2
176
     1
 62
     7
176
     1
 90
        5
176
     1
 90
        0
176
     1
 90
        0
176
     1
290
     0
176
     1
 90
        1
176
     1
 40
0.0
176
     1
 90
        0
176
     1
290
     0
176
     1
290
     1
176
     1
290
     1
176
     1
290
     0
176
     1
290
     0
176
     1
290
     0
176
     1
290
     0
176
     1
290
     0
176
     1
290
     0
176
     1
 90
       50
176
     1
 40
0.0
176
     1
 40
1.0
176
     1
 90
        0
176
     1
 62
    18
420
        0
176
     1
 90
       50
176
     1
 90
        3
176
     1
 62
     5
420
      255
176
     1
290
     0
176
     1
 90
       50
176
     1
 90
       50
176
     1
 90
       50
176
     1
290
     0
176
     1
 90
       50
176
     1
 62
   256
176
     0
 40
1.0
176
     0
 90
        2
176
     1
  1
strokes_ogs.tif
176
     1
290
     0
176
     1
 40
1.0
176
     1
 40
1.0
176
     1
  0
VISUALSTYLE
  5
32
102
{ACAD_REACTORS
330
29
102
}
330
29
100
AcDbVisualStyle
  2
Conceptual
 70
     9
177
     3
291
     0
 70
    58
 90
        3
176
     1
 90
        2
176
     1
 90
        0
176
     1
 90
        0
176
     1
 40
0.6
176
     1
 40
30.0
176
     1
 62
     7
420
 16777215
176
     1
 90
        2
176
     1
 90
        2
176
     1
 62
     7
176
     1
 62
   257
176
     1
 90
        1
176
     1
 90
        1
176
     1
 40
179.0
176
     1
 90
        8
176
     1
 62
     7
176
     1
 40
1.0
176
     1
 90
        1
176
     1
 90
        6
176
     1
 90
        2
176
     1
 62
     7
176
     1
 90
        3
176
     1
 90
        0
176
     1
 90
        0
176
     1
290
     0
176
     1
 90
        1
176
     1
 40
0.0
176
     1
 90
        0
176
     1
290
     0
176
     1
290
     1
176
     1
290
     1
176
     1
290
     0
176
     1
290
     0
176
     1
290
     0
176
     1
290
     0
176
     1
290
     0
176
     1
290
     0
176
     1
 90
       50
176
     1
 40
0.0
176
     1
 40
1.0
176
     1
 90
        0
176
     1
 62
    18
420
        0
176
     1
 90
       50
176
     1
 90
        3
176
     1
 62
     5
420
      255
176
     1
290
     0
176
     1
 90
       50
176
     1
 90
       50
176
     1
 90
       50
176
     1
290
     0
176
     1
 90
       50
176
     1
 62
   256
176
     0
 40
1.0
176
     0
 90
        2
176
     1
  1
strokes_ogs.tif
176
     1
290
     0
176
     1
 40
1.0
176
     1
 40
1.0
176
     1
  0
VISUALSTYLE
  5
34
102
{ACAD_REACTORS
330
29
102
}
330
29
100
AcDbVisualStyle
  2
Dim
 70
    11
177
     3
291
     1
 70
    58
 90
        2
176
     1
 90
        2
176
     1
 90
        0
176
     1
 90
        0
176
     1
 40
0.6
176
     1
 40
30.0
176
     1
 62
     7
420
 16777215
176
     1
 90
        1
176
     1
 90
        4
176
     1
 62
     7
176
     1
 62
   257
176
     1
 90
        1
176
     1
 90
        1
176
     1
 40
1.0
176
     1
 90
        8
176
     1
 62
     7
176
     1
 40
1.0
176
     1
 90
        1
176
     1
 90
        6
176
     1
 90
        2
176
     1
 62
     7
176
     1
 90
        5
176
     1
 90
        0
176
     1
 90
        0
176
     1
290
     0
176
     1
 90
        1
176
     1
 40
-50.0
176
     1
 90
        0
176
     1
290
     0
176
     1
290
     1
176
     1
290
     1
176
     1
290
     0
176
     1
290
     0
176
     1
290
     0
176
     1
290
     0
176
     1
290
     0
176
     1
290
     0
176
     1
 90
       50
176
     1
 40
0.0
176
     1
 40
1.0
176
     1
 90
        0
176
     1
 62
    18
420
        0
176
     1
 90
       50
176
     1
 90
        3
176
     1
 62
     5
420
      255
176
     1
290
     0
176
     1
 90
       50
176
     1
 90
       50
176
     1
 90
       50
176
     1
290
     0
176
     1
 90
       50
176
     1
 62
   256
176
     0
 40
1.0
176
     0
 90
        2
176
     1
  1
strokes_ogs.tif
176
     1
290
     0
176
     1
 40
1.0
176
     1
 40
1.0
176
     1
  0
VISUALSTYLE
  5
41
102
{ACAD_REACTORS
330
29
102
}
330
29
100
AcDbVisualStyle
  2
EdgeColorOff
 70
    22
177
     3
291
     1
 70
    58
 90
        2
176
     0
 90
        2
176
     0
 90
        0
176
     0
 90
        0
176
     0
 40
0.6
176
     0
 40
30.0
176
     0
 62
     7
420
 16777215
176
     0
 90
        1
176
     0
 90
        4
176
     0
 62
     7
176
     0
 62
   257
176
     0
 90
        1
176
     0
 90
        1
176
     0
 40
1.0
176
     0
 90
        8
176
     2
 62
     7
176
     0
 40
1.0
176
     0
 90
        1
176
     0
 90
        6
176
     0
 90
        2
176
     0
 62
     7
176
     0
 90
        5
176
     0
 90
        0
176
     0
 90
        0
176
     0
290
     0
176
     0
 90
        1
176
     0
 40
0.0
176
     0
 90
        0
176
     0
290
     0
176
     0
290
     1
176
     0
290
     1
176
     0
290
     0
176
     0
290
     0
176
     0
290
     0
176
     0
290
     0
176
     0
290
     0
176
     0
290
     0
176
     0
 90
       50
176
     0
 40
0.0
176
     0
 40
1.0
176
     0
 90
        0
176
     0
 62
    18
420
        0
176
     0
 90
       50
176
     0
 90
        3
176
     0
 62
     5
420
      255
176
     0
290
     0
176
     0
 90
       50
176
     0
 90
       50
176
     0
 90
       50
176
     0
290
     0
176
     0
 90
       50
176
     0
 62
   256
176
     0
 40
1.0
176
     0
 90
        2
176
     0
  1
strokes_ogs.tif
176
     0
290
     0
176
     0
 40
1.0
176
     0
 40
1.0
176
     0
  0
VISUALSTYLE
  5
38
102
{ACAD_REACTORS
330
29
102
}
330
29
100
AcDbVisualStyle
  2
Facepattern
 70
    15
177
     3
291
     1
 70
    58
 90
        2
176
     1
 90
        2
176
     1
 90
        0
176
     1
 90
        0
176
     1
 40
0.6
176
     1
 40
30.0
176
     1
 62
     7
420
 16777215
176
     1
 90
        1
176
     1
 90
        4
176
     1
 62
     7
176
     1
 62
   257
176
     1
 90
        1
176
     1
 90
        1
176
     1
 40
1.0
176
     1
 90
        8
176
     1
 62
     7
176
     1
 40
1.0
176
     1
 90
        1
176
     1
 90
        6
176
     1
 90
        2
176
     1
 62
     7
176
     1
 90
        5
176
     1
 90
        0
176
     1
 90
        0
176
     1
290
     0
176
     1
 90
        1
176
     1
 40
0.0
176
     1
 90
        0
176
     1
290
     0
176
     1
290
     1
176
     1
290
     1
176
     1
290
     0
176
     1
290
     0
176
     1
290
     0
176
     1
290
     0
176
     1
290
     0
176
     1
290
     0
176
     1
 90
       50
176
     1
 40
0.0
176
     1
 40
1.0
176
     1
 90
        0
176
     1
 62
    18
420
        0
176
     1
 90
       50
176
     1
 90
        3
176
     1
 62
     5
420
      255
176
     1
290
     0
176
     1
 90
       50
176
     1
 90
       50
176
     1
 90
       50
176
     1
290
     0
176
     1
 90
       50
176
     1
 62
   256
176
     0
 40
1.0
176
     0
 90
        2
176
     1
  1
strokes_ogs.tif
176
     1
290
     0
176
     1
 40
1.0
176
     1
 40
1.0
176
     1
  0
VISUALSTYLE
  5
2A
102
{ACAD_REACTORS
330
29
102
}
330
29
100
AcDbVisualStyle
  2
Flat
 70
     0
177
     3
291
     1
 70
    58
 90
        2
176
     1
 90
        1
176
     1
 90
        1
176
     1
 90
        2
176
     1
 40
0.6
176
     1
 40
30.0
176
     1
 62
     7
420
 16777215
176
     1
 90
        0
176
     1
 90
        0
176
     1
 62
     7
176
     1
 62
   257
176
     1
 90
        1
176
     1
 90
        1
176
     1
 40
1.0
176
     1
 90
        8
176
     1
 62
     7
176
     1
 40
1.0
176
     1
 90
        1
176
     1
 90
        6
176
     1
 90
        2
176
     1
 62
     7
176
     1
 90
        5
176
     1
 90
        0
176
     1
 90
        0
176
     1
290
     0
176
     1
 90
       13
176
     1
 40
0.0
176
     1
 90
        0
176
     1
290
     0
176
     1
290
     1
176
     1
290
     1
176
     1
290
     0
176
     1
290
     0
176
     1
290
     0
176
     1
290
     0
176
     1
290
     0
176
     1
290
     0
176
     1
 90
       50
176
     1
 40
0.0
176
     1
 40
1.0
176
     1
 90
        0
176
     1
 62
    18
420
        0
176
     1
 90
       50
176
     1
 90
        3
176
     1
 62
     5
420
      255
176
     1
290
     0
176
     1
 90
       50
176
     1
 90
       50
176
     1
 90
       50
176
     1
290
     0
176
     1
 90
       50
176
     1
 62
   256
176
     0
 40
1.0
176
     0
 90
        2
176
     1
  1
strokes_ogs.tif
176
     1
290
     0
176
     1
 40
1.0
176
     1
 40
1.0
176
     1
  0
VISUALSTYLE
  5
2B
102
{ACAD_REACTORS
330
29
102
}
330
29
100
AcDbVisualStyle
  2
FlatWithEdges
 70
     1
177
     3
291
     1
 70
    58
 90
        2
176
     1
 90
        1
176
     1
 90
        1
176
     1
 90
        2
176
     1
 40
0.6
176
     1
 40
30.0
176
     1
 62
     7
420
 16777215
176
     1
 90
        1
176
     1
 90
        0
176
     1
 62
     7
176
     1
 62
   257
176
     1
 90
        1
176
     1
 90
        1
176
     1
 40
1.0
176
     1
 90
        0
176
     1
 62
   257
176
     1
 40
1.0
176
     1
 90
        1
176
     1
 90
        6
176
     1
 90
        2
176
     1
 62
     7
176
     1
 90
        5
176
     1
 90
        0
176
     1
 90
        0
176
     1
290
     0
176
     1
 90
       13
176
     1
 40
0.0
176
     1
 90
        0
176
     1
290
     0
176
     1
290
     1
176
     1
290
     1
176
     1
290
     0
176
     1
290
     0
176
     1
290
     0
176
     1
290
     0
176
     1
290
     0
176
     1
290
     0
176
     1
 90
       50
176
     1
 40
0.0
176
     1
 40
1.0
176
     1
 90
        0
176
     1
 62
    18
420
        0
176
     1
 90
       50
176
     1
 90
        3
176
     1
 62
     5
420
      255
176
     1
290
     0
176
     1
 90
       50
176
     1
 90
       50
176
     1
 90
       50
176
     1
290
     0
176
     1
 90
       50
176
     1
 62
   256
176
     0
 40
1.0
176
     0
 90
        2
176
     1
  1
strokes_ogs.tif
176
     1
290
     0
176
     1
 40
1.0
176
     1
 40
1.0
176
     1
  0
VISUALSTYLE
  5
2C
102
{ACAD_REACTORS
330
29
102
}
330
29
100
AcDbVisualStyle
  2
Gouraud
 70
     2
177
     3
291
     1
 70
    58
 90
        2
176
     1
 90
        2
176
     1
 90
        1
176
     1
 90
        2
176
     1
 40
0.6
176
     1
 40
30.0
176
     1
 62
     7
420
 16777215
176
     1
 90
        0
176
     1
 90
        0
176
     1
 62
     7
176
     1
 62
   257
176
     1
 90
        1
176
     1
 90
        1
176
     1
 40
1.0
176
     1
 90
        0
176
     1
 62
     7
176
     1
 40
1.0
176
     1
 90
        1
176
     1
 90
        6
176
     1
 90
        2
176
     1
 62
     7
176
     1
 90
        5
176
     1
 90
        0
176
     1
 90
        0
176
     1
290
     0
176
     1
 90
       13
176
     1
 40
0.0
176
     1
 90
        0
176
     1
290
     0
176
     1
290
     1
176
     1
290
     1
176
     1
290
     0
176
     1
290
     0
176
     1
290
     0
176
     1
290
     0
176
     1
290
     0
176
     1
290
     0
176
     1
 90
       50
176
     1
 40
0.0
176
     1
 40
1.0
176
     1
 90
        0
176
     1
 62
    18
420
        0
176
     1
 90
       50
176
     1
 90
        3
176
     1
 62
     5
420
      255
176
     1
290
     0
176
     1
 90
       50
176
     1
 90
       50
176
     1
 90
       50
176
     1
290
     0
176
     1
 90
       50
176
     1
 62
   256
176
     0
 40
1.0
176
     0
 90
        2
176
     1
  1
strokes_ogs.tif
176
     1
290
     0
176
     1
 40
1.0
176
     1
 40
1.0
176
     1
  0
VISUALSTYLE
  5
2D
102
{ACAD_REACTORS
330
29
102
}
330
29
100
AcDbVisualStyle
  2
GouraudWithEdges
 70
     3
177
     3
291
     1
 70
    58
 90
        2
176
     1
 90
        2
176
     1
 90
        1
176
     1
 90
        2
176
     1
 40
0.6
176
     1
 40
30.0
176
     1
 62
     7
420
 16777215
176
     1
 90
        1
176
     1
 90
        0
176
     1
 62
     7
176
     1
 62
   257
176
     1
 90
        1
176
     1
 90
        1
176
     1
 40
1.0
176
     1
 90
        0
176
     1
 62
   257
176
     1
 40
1.0
176
     1
 90
        1
176
     1
 90
        6
176
     1
 90
        2
176
     1
 62
     7
176
     1
 90
        5
176
     1
 90
        0
176
     1
 90
        0
176
     1
290
     0
176
     1
 90
       13
176
     1
 40
0.0
176
     1
 90
        0
176
     1
290
     0
176
     1
290
     1
176
     1
290
     1
176
     1
290
     0
176
     1
290
     0
176
     1
290
     0
176
     1
290
     0
176
     1
290
     0
176
     1
290
     0
176
     1
 90
       50
176
     1
 40
0.0
176
     1
 40
1.0
176
     1
 90
        0
176
     1
 62
    18
420
        0
176
     1
 90
       50
176
     1
 90
        3
176
     1
 62
     5
420
      255
176
     1
290
     0
176
     1
 90
       50
176
     1
 90
       50
176
     1
 90
       50
176
     1
290
     0
176
     1
 90
       50
176
     1
 62
   256
176
     0
 40
1.0
176
     0
 90
        2
176
     1
  1
strokes_ogs.tif
176
     1
290
     0
176
     1
 40
1.0
176
     1
 40
1.0
176
     1
  0
VISUALSTYLE
  5
31
102
{ACAD_REACTORS
330
29
102
}
330
29
100
AcDbVisualStyle
  2
Hidden
 70
     6
177
     3
291
     0
 70
    58
 90
        1
176
     1
 90
        2
176
     1
 90
        2
176
     1
 90
        0
176
     1
 40
0.6
176
     1
 40
30.0
176
     1
 62
     7
420
 16777215
176
     1
 90
        2
176
     1
 90
        2
176
     1
 62
     7
176
     1
 62
   257
176
     1
 90
        2
176
     1
 90
        1
176
     1
 40
40.0
176
     1
 90
        0
176
     1
 62
   257
176
     1
 40
1.0
176
     1
 90
        1
176
     1
 90
        6
176
     1
 90
        2
176
     1
 62
     7
176
     1
 90
        3
176
     1
 90
        0
176
     1
 90
        0
176
     1
290
     0
176
     1
 90
        1
176
     1
 40
0.0
176
     1
 90
        0
176
     1
290
     0
176
     1
290
     1
176
     1
290
     1
176
     1
290
     0
176
     1
290
     0
176
     1
290
     0
176
     1
290
     0
176
     1
290
     0
176
     1
290
     0
176
     1
 90
       50
176
     1
 40
0.0
176
     1
 40
1.0
176
     1
 90
        0
176
     1
 62
    18
420
        0
176
     1
 90
       50
176
     1
 90
        3
176
     1
 62
     5
420
      255
176
     1
290
     0
176
     1
 90
       50
176
     1
 90
       50
176
     1
 90
       50
176
     1
290
     0
176
     1
 90
       50
176
     1
 62
   256
176
     0
 40
1.0
176
     0
 90
        2
176
     1
  1
strokes_ogs.tif
176
     1
290
     0
176
     1
 40
1.0
176
     1
 40
1.0
176
     1
  0
VISUALSTYLE
  5
3F
102
{ACAD_REACTORS
330
29
102
}
330
29
100
AcDbVisualStyle
  2
JitterOff
 70
    20
177
     3
291
     1
 70
    58
 90
        2
176
     0
 90
        2
176
     0
 90
        0
176
     0
 90
        0
176
     0
 40
0.6
176
     0
 40
30.0
176
     0
 62
     7
420
 16777215
176
     0
 90
        1
176
     0
 90
        4
176
     0
 62
     7
176
     0
 62
   257
176
     0
 90
        1
176
     0
 90
        1
176
     0
 40
1.0
176
     0
 90
       10
176
     2
 62
     7
176
     0
 40
1.0
176
     0
 90
        1
176
     0
 90
        6
176
     0
 90
        2
176
     0
 62
     7
176
     0
 90
        5
176
     0
 90
        0
176
     0
 90
        0
176
     0
290
     0
176
     0
 90
        1
176
     0
 40
0.0
176
     0
 90
        0
176
     0
290
     0
176
     0
290
     1
176
     0
290
     1
176
     0
290
     0
176
     0
290
     0
176
     0
290
     0
176
     0
290
     0
176
     0
290
     0
176
     0
290
     0
176
     0
 90
       50
176
     0
 40
0.0
176
     0
 40
1.0
176
     0
 90
        0
176
     0
 62
    18
420
        0
176
     0
 90
       50
176
     0
 90
        3
176
     0
 62
     5
420
      255
176
     0
290
     0
176
     0
 90
       50
176
     0
 90
       50
176
     0
 90
       50
176
     0
290
     0
176
     0
 90
       50
176
     0
 62
   256
176
     0
 40
1.0
176
     0
 90
        2
176
     0
  1
strokes_ogs.tif
176
     0
290
     0
176
     0
 40
1.0
176
     0
 40
1.0
176
     0
  0
VISUALSTYLE
  5
37
102
{ACAD_REACTORS
330
29
102
}
330
29
100
AcDbVisualStyle
  2
Linepattern
 70
    14
177
     3
291
     1
 70
    58
 90
        2
176
     1
 90
        2
176
     1
 90
        0
176
     1
 90
        0
176
     1
 40
0.6
176
     1
 40
30.0
176
     1
 62
     7
420
 16777215
176
     1
 90
        1
176
     1
 90
        4
176
     1
 62
     7
176
     1
 62
   257
176
     1
 90
        7
176
     1
 90
        7
176
     1
 40
1.0
176
     1
 90
        8
176
     1
 62
     7
176
     1
 40
1.0
176
     1
 90
        1
176
     1
 90
        6
176
     1
 90
        2
176
     1
 62
     7
176
     1
 90
        5
176
     1
 90
        0
176
     1
 90
        0
176
     1
290
     0
176
     1
 90
        1
176
     1
 40
0.0
176
     1
 90
        0
176
     1
290
     0
176
     1
290
     1
176
     1
290
     1
176
     1
290
     0
176
     1
290
     0
176
     1
290
     0
176
     1
290
     0
176
     1
290
     0
176
     1
290
     0
176
     1
 90
       50
176
     1
 40
0.0
176
     1
 40
1.0
176
     1
 90
        0
176
     1
 62
    18
420
        0
176
     1
 90
       50
176
     1
 90
        3
176
     1
 62
     5
420
      255
176
     1
290
     0
176
     1
 90
       50
176
     1
 90
       50
176
     1
 90
       50
176
     1
290
     0
176
     1
 90
       50
176
     1
 62
   256
176
     0
 40
1.0
176
     0
 90
        2
176
     1
  1
strokes_ogs.tif
176
     1
290
     0
176
     1
 40
1.0
176
     1
 40
1.0
176
     1
  0
VISUALSTYLE
  5
40
102
{ACAD_REACTORS
330
29
102
}
330
29
100
AcDbVisualStyle
  2
OverhangOff
 70
    21
177
     3
291
     1
 70
    58
 90
        2
176
     0
 90
        2
176
     0
 90
        0
176
     0
 90
        0
176
     0
 40
0.6
176
     0
 40
30.0
176
     0
 62
     7
420
 16777215
176
     0
 90
        1
176
     0
 90
        4
176
     0
 62
     7
176
     0
 62
   257
176
     0
 90
        1
176
     0
 90
        1
176
     0
 40
1.0
176
     0
 90
        9
176
     2
 62
     7
176
     0
 40
1.0
176
     0
 90
        1
176
     0
 90
        6
176
     0
 90
        2
176
     0
 62
     7
176
     0
 90
        5
176
     0
 90
        0
176
     0
 90
        0
176
     0
290
     0
176
     0
 90
        1
176
     0
 40
0.0
176
     0
 90
        0
176
     0
290
     0
176
     0
290
     1
176
     0
290
     1
176
     0
290
     0
176
     0
290
     0
176
     0
290
     0
176
     0
290
     0
176
     0
290
     0
176
     0
290
     0
176
     0
 90
       50
176
     0
 40
0.0
176
     0
 40
1.0
176
     0
 90
        0
176
     0
 62
    18
420
        0
176
     0
 90
       50
176
     0
 90
        3
176
     0
 62
     5
420
      255
176
     0
290
     0
176
     0
 90
       50
176
     0
 90
       50
176
     0
 90
       50
176
     0
290
     0
176
     0
 90
       50
176
     0
 62
   256
176
     0
 40
1.0
176
     0
 90
        2
176
     0
  1
strokes_ogs.tif
176
     0
290
     0
176
     0
 40
1.0
176
     0
 40
1.0
176
     0
  0
VISUALSTYLE
  5
33
102
{ACAD_REACTORS
330
29
102
}
330
29
100
AcDbVisualStyle
  2
Realistic
 70
     8
177
     3
291
     0
 70
    58
 90
        2
176
     1
 90
        3
176
     1
 90
        0
176
     1
 90
        2
176
     1
 40
0.6
176
     1
 40
30.0
176
     1
 62
     7
420
 16777215
176
     1
 90
        0
176
     1
 90
        0
176
     1
 62
     7
176
     1
 62
   257
176
     1
 90
        1
176
     1
 90
        1
176
     1
 40
1.0
176
     1
 90
        8
176
     1
 62
   257
176
     1
 40
1.0
176
     1
 90
        1
176
     1
 90
        6
176
     1
 90
        2
176
     1
 62
     7
176
     1
 90
        3
176
     1
 90
        0
176
     1
 90
        0
176
     1
290
     0
176
     1
 90
       13
176
     1
 40
0.0
176
     1
 90
        0
176
     1
290
     0
176
     1
290
     1
176
     1
290
     1
176
     1
290
     0
176
     1
290
     0
176
     1
290
     0
176
     1
290
     0
176
     1
290
     0
176
     1
290
     0
176
     1
 90
       50
176
     1
 40
0.0
176
     1
 40
1.0
176
     1
 90
        0
176
     1
 62
    18
420
        0
176
     1
 90
       50
176
     1
 90
        3
176
     1
 62
     5
420
      255
176
     1
290
     0
176
     1
 90
       50
176
     1
 90
       50
176
     1
 90
       50
176
     1
290
     0
176
     1
 90
       50
176
     1
 62
   256
176
     0
 40
1.0
176
     0
 90
        2
176
     1
  1
strokes_ogs.tif
176
     1
290
     0
176
     1
 40
1.0
176
     1
 40
1.0
176
     1
  0
VISUALSTYLE
  5
3E
102
{ACAD_REACTORS
330
29
102
}
330
29
100
AcDbVisualStyle
  2
Shaded
 70
    27
177
     3
291
     0
 70
    58
 90
        2
176
     1
 90
        2
176
     1
 90
        1
176
     1
 90
        2
176
     1
 40
0.6
176
     1
 40
30.0
176
     1
 62
     7
420
 16777215
176
     1
 90
        0
176
     1
 90
        4
176
     1
 62
     7
176
     1
 62
   257
176
     1
 90
        1
176
     1
 90
        1
176
     1
 40
1.0
176
     1
 90
        8
176
     1
 62
   257
176
     1
 40
1.0
176
     1
 90
        1
176
     1
 90
        6
176
     1
 90
        2
176
     1
 62
     8
420
  7895160
176
     1
 90
        3
176
     1
 90
        0
176
     1
 90
        0
176
     1
290
     0
176
     1
 90
        5
176
     1
 40
0.0
176
     1
 90
        0
176
     1
290
     0
176
     1
290
     1
176
     1
290
     1
176
     1
290
     0
176
     1
290
     0
176
     1
290
     0
176
     1
290
     0
176
     1
290
     0
176
     1
290
     0
176
     1
 90
       50
176
     1
 40
0.0
176
     1
 40
1.0
176
     1
 90
        0
176
     1
 62
    18
420
        0
176
     1
 90
       50
176
     1
 90
        3
176
     1
 62
     5
420
      255
176
     1
290
     0
176
     1
 90
       50
176
     1
 90
       50
176
     1
 90
       50
176
     1
290
     0
176
     1
 90
       50
176
     1
 62
   256
176
     0
 40
1.0
176
     0
 90
        2
176
     1
  1
strokes_ogs.tif
176
     1
290
     0
176
     1
 40
1.0
176
     1
 40
1.0
176
     1
  0
VISUALSTYLE
  5
3D
102
{ACAD_REACTORS
330
29
102
}
330
29
100
AcDbVisualStyle
  2
Shaded with edges
 70
    26
177
     3
291
     0
 70
    58
 90
        2
176
     1
 90
        2
176
     1
 90
        1
176
     1
 90
        2
176
     1
 40
0.6
176
     1
 40
30.0
176
     1
 62
     7
420
 16777215
176
     1
 90
        1
176
     1
 90
       10
176
     1
 62
     7
176
     1
 62
   257
176
     1
 90
        2
176
     1
 90
        1
176
     1
 40
1.0
176
     1
 90
        8
176
     1
 62
   257
176
     1
 40
1.0
176
     1
 90
        1
176
     1
 90
        6
176
     1
 90
        2
176
     1
 62
     7
176
     1
 90
        3
176
     1
 90
        0
176
     1
 90
        0
176
     1
290
     0
176
     1
 90
        5
176
     1
 40
0.0
176
     1
 90
        0
176
     1
290
     0
176
     1
290
     1
176
     1
290
     1
176
     1
290
     0
176
     1
290
     0
176
     1
290
     0
176
     1
290
     0
176
     1
290
     0
176
     1
290
     0
176
     1
 90
       50
176
     1
 40
0.0
176
     1
 40
1.0
176
     1
 90
        0
176
     1
 62
    18
420
        0
176
     1
 90
       50
176
     1
 90
        3
176
     1
 62
     5
420
      255
176
     1
290
     0
176
     1
 90
       50
176
     1
 90
       50
176
     1
 90
       50
176
     1
290
     0
176
     1
 90
       50
176
     1
 62
   256
176
     0
 40
1.0
176
     0
 90
        2
176
     1
  1
strokes_ogs.tif
176
     1
290
     0
176
     1
 40
1.0
176
     1
 40
1.0
176
     1
  0
VISUALSTYLE
  5
3A
102
{ACAD_REACTORS
330
29
102
}
330
29
100
AcDbVisualStyle
  2
Shades of Gray
 70
    23
177
     3
291
     0
 70
    58
 90
        2
176
     1
 90
        2
176
     1
 90
        3
176
     1
 90
        0
176
     1
 40
0.6
176
     1
 40
30.0
176
     1
 62
     7
420
 16777215
176
     1
 90
        2
176
     1
 90
        2
176
     1
 62
     7
176
     1
 62
     7
176
     1
 90
        1
176
     1
 90
        1
176
     1
 40
40.0
176
     1
 90
        8
176
     1
 62
     7
176
     1
 40
1.0
176
     1
 90
        1
176
     1
 90
        6
176
     1
 90
        2
176
     1
 62
     7
176
     1
 90
        3
176
     1
 90
        0
176
     1
 90
        0
176
     1
290
     0
176
     1
 90
        1
176
     1
 40
0.0
176
     1
 90
        0
176
     1
290
     0
176
     1
290
     1
176
     1
290
     1
176
     1
290
     0
176
     1
290
     0
176
     1
290
     0
176
     1
290
     0
176
     1
290
     0
176
     1
290
     0
176
     1
 90
       50
176
     1
 40
0.0
176
     1
 40
1.0
176
     1
 90
        0
176
     1
 62
    18
420
        0
176
     1
 90
       50
176
     1
 90
        3
176
     1
 62
     5
420
      255
176
     1
290
     0
176
     1
 90
       50
176
     1
 90
       50
176
     1
 90
       50
176
     1
290
     0
176
     1
 90
       50
176
     1
 62
   256
176
     0
 40
1.0
176
     0
 90
        2
176
     1
  1
strokes_ogs.tif
176
     1
290
     0
176
     1
 40
1.0
176
     1
 40
1.0
176
     1
  0
VISUALSTYLE
  5
3B
102
{ACAD_REACTORS
330
29
102
}
330
29
100
AcDbVisualStyle
  2
Sketchy
 70
    24
177
     3
291
     0
 70
    58
 90
        1
176
     1
 90
        2
176
     1
 90
        2
176
     1
 90
        0
176
     1
 40
0.6
176
     1
 40
30.0
176
     1
 62
     7
420
 16777215
176
     1
 90
        2
176
     1
 90
        2
176
     1
 62
     7
176
     1
 62
     7
176
     1
 90
        1
176
     1
 90
        1
176
     1
 40
40.0
176
     1
 90
       11
176
     1
 62
     7
176
     1
 40
1.0
176
     1
 90
        1
176
     1
 90
        6
176
     1
 90
        2
176
     1
 62
     7
176
     1
 90
        6
176
     1
 90
        0
176
     1
 90
        0
176
     1
290
     0
176
     1
 90
        1
176
     1
 40
0.0
176
     1
 90
        0
176
     1
290
     0
176
     1
290
     1
176
     1
290
     1
176
     1
290
     0
176
     1
290
     0
176
     1
290
     0
176
     1
290
     0
176
     1
290
     0
176
     1
290
     0
176
     1
 90
       50
176
     1
 40
0.0
176
     1
 40
1.0
176
     1
 90
        0
176
     1
 62
    18
420
        0
176
     1
 90
       50
176
     1
 90
        3
176
     1
 62
     5
420
      255
176
     1
290
     0
176
     1
 90
       50
176
     1
 90
       50
176
     1
 90
       50
176
     1
290
     0
176
     1
 90
       50
176
     1
 62
   256
176
     0
 40
1.0
176
     0
 90
        2
176
     1
  1
strokes_ogs.tif
176
     1
290
     0
176
     1
 40
1.0
176
     1
 40
1.0
176
     1
  0
VISUALSTYLE
  5
36
102
{ACAD_REACTORS
330
29
102
}
330
29
100
AcDbVisualStyle
  2
Thicken
 70
    13
177
     3
291
     1
 70
    58
 90
        2
176
     1
 90
        2
176
     1
 90
        0
176
     1
 90
        0
176
     1
 40
0.6
176
     1
 40
30.0
176
     1
 62
     7
420
 16777215
176
     1
 90
        1
176
     1
 90
        4
176
     1
 62
     7
176
     1
 62
   257
176
     1
 90
        1
176
     1
 90
        1
176
     1
 40
1.0
176
     1
 90
       12
176
     1
 62
     7
176
     1
 40
1.0
176
     1
 90
        1
176
     1
 90
        6
176
     1
 90
        2
176
     1
 62
     7
176
     1
 90
        5
176
     1
 90
        0
176
     1
 90
        0
176
     1
290
     0
176
     1
 90
        1
176
     1
 40
0.0
176
     1
 90
        0
176
     1
290
     0
176
     1
290
     1
176
     1
290
     1
176
     1
290
     0
176
     1
290
     0
176
     1
290
     0
176
     1
290
     0
176
     1
290
     0
176
     1
290
     0
176
     1
 90
       50
176
     1
 40
0.0
176
     1
 40
1.0
176
     1
 90
        0
176
     1
 62
    18
420
        0
176
     1
 90
       50
176
     1
 90
        3
176
     1
 62
     5
420
      255
176
     1
290
     0
176
     1
 90
       50
176
     1
 90
       50
176
     1
 90
       50
176
     1
290
     0
176
     1
 90
       50
176
     1
 62
   256
176
     0
 40
1.0
176
     0
 90
        2
176
     1
  1
strokes_ogs.tif
176
     1
290
     0
176
     1
 40
1.0
176
     1
 40
1.0
176
     1
  0
VISUALSTYLE
  5
30
102
{ACAD_REACTORS
330
29
102
}
330
29
100
AcDbVisualStyle
  2
Wireframe
 70
     5
177
     3
291
     0
 70
    58
 90
        0
176
     1
 90
        2
176
     1
 90
        0
176
     1
 90
        0
176
     1
 40
0.6
176
     1
 40
30.0
176
     1
 62
     7
420
 16777215
176
     1
 90
        1
176
     1
 90
        4
176
     1
 62
     7
176
     1
 62
   257
176
     1
 90
        1
176
     1
 90
        1
176
     1
 40
1.0
176
     1
 90
        0
176
     1
 62
   257
176
     1
 40
1.0
176
     1
 90
        1
176
     1
 90
        6
176
     1
 90
        2
176
     1
 62
     7
176
     1
 90
        3
176
     1
 90
        0
176
     1
 90
        0
176
     1
290
     0
176
     1
 90
        1
176
     1
 40
0.0
176
     1
 90
        0
176
     1
290
     0
176
     1
290
     1
176
     1
290
     1
176
     1
290
     0
176
     1
290
     0
176
     1
290
     0
176
     1
290
     0
176
     1
290
     0
176
     1
290
     0
176
     1
 90
       50
176
     1
 40
0.0
176
     1
 40
1.0
176
     1
 90
        0
176
     1
 62
    18
420
        0
176
     1
 90
       50
176
     1
 90
        3
176
     1
 62
     5
420
      255
176
     1
290
     0
176
     1
 90
       50
176
     1
 90
       50
176
     1
 90
       50
176
     1
290
     0
176
     1
 90
       50
176
     1
 62
   256
176
     0
 40
1.0
176
     0
 90
        2
176
     1
  1
strokes_ogs.tif
176
     1
290
     0
176
     1
 40
1.0
176
     1
 40
1.0
176
     1
  0
VISUALSTYLE
  5
3C
102
{ACAD_REACTORS
330
29
102
}
330
29
100
AcDbVisualStyle
  2
X-Ray
 70
    25
177
     3
291
     0
 70
    58
 90
        2
176
     1
 90
        2
176
     1
 90
        1
176
     1
 90
        1
176
     1
 40
0.5
176
     1
 40
30.0
176
     1
 62
     7
420
 16777215
176
     1
 90
        1
176
     1
 90
        0
176
     1
 62
     7
176
     1
 62
   257
176
     1
 90
        1
176
     1
 90
        1
176
     1
 40
1.0
176
     1
 90
        8
176
     1
 62
     7
176
     1
 40
1.0
176
     1
 90
        1
176
     1
 90
        6
176
     1
 90
        2
176
     1
 62
     7
176
     1
 90
        3
176
     1
 90
        0
176
     1
 90
        0
176
     1
290
     0
176
     1
 90
       13
176
     1
 40
0.0
176
     1
 90
        0
176
     1
290
     0
176
     1
290
     1
176
     1
290
     1
176
     1
290
     0
176
     1
290
     0
176
     1
290
     0
176
     1
290
     0
176
     1
290
     0
176
     1
290
     0
176
     1
 90
       50
176
     1
 40
0.0
176
     1
 40
1.0
176
     1
 90
        0
176
     1
 62
    18
420
        0
176
     1
 90
       50
176
     1
 90
        3
176
     1
 62
     5
420
      255
176
     1
290
     0
176
     1
 90
       50
176
     1
 90
       50
176
     1
 90
       50
176
     1
290
     0
176
     1
 90
       50
176
     1
 62
   256
176
     0
 40
1.0
176
     0
 90
        2
176
     1
  1
strokes_ogs.tif
176
     1
290
     0
176
     1
 40
1.0
176
     1
 40
1.0
176
     1
  0
DICTIONARYVAR
  5
81
102
{ACAD_REACTORS
330
7C
102
}
330
7C
100
DictionaryVariables
280
     0
  1
1:1
  0
DICTIONARYVAR
  5
7E
102
{ACAD_REACTORS
330
7C
102
}
330
7C
100
DictionaryVariables
280
     0
  1
STANDARD
  0
DICTIONARYVAR
  5
7D
102
{ACAD_REACTORS
330
7C
102
}
330
7C
100
DictionaryVariables
280
     0
  1
STANDARD
  0
DICTIONARYVAR
  5
7F
102
{ACAD_REACTORS
330
7C
102
}
330
7C
100
DictionaryVariables
280
     0
  1
Imperial24
  0
DICTIONARYVAR
  5
80
102
{ACAD_REACTORS
330
7C
102
}
330
7C
100
DictionaryVariables
280
     0
  1
Imperial24
  0
XRECORD
  5
378
102
{ACAD_REACTORS
330
374
102
}
330
374
100
AcDbXrecord
280
     1
  1
BUILDING_ID
  1
Progetto per messa in tavola DXF, DWG
  1
FLOOR_ID
  1
694395
  0
XRECORD
  5
376
102
{ACAD_REACTORS
330
374
102
}
330
374
100
AcDbXrecord
280
     1
  1
-2001160
  1
Apparecchi idraulici
  0
XRECORD
  5
377
102
{ACAD_REACTORS
330
374
102
}
330
374
100
AcDbXrecord
280
     1
  1
923114
  1
Handle
  1
963222
  1
Insulation
  0
XRECORD
  5
375
102
{ACAD_REACTORS
330
374
102
}
330
374
100
AcDbXrecord
280
     1
  1
859151
  1
Automatic flow rate regulator valve_Caleffi_121 DN15 : 1/2''
  0
DICTIONARY
  5
1A
330
19
100
AcDbDictionary
280
     1
281
     1
  3
BUMPTILE
360
1C
  3
DIFFUSETILE
360
1B
  3
OPACITYTILE
360
1F
  3
REFLECTIONTILE
360
1E
  3
REFRACTIONTILE
360
20
  3
SPECULARTILE
360
1D
  0
DICTIONARY
  5
12
330
11
100
AcDbDictionary
280
     1
281
     1
  3
BUMPTILE
360
14
  3
DIFFUSETILE
360
13
  3
OPACITYTILE
360
17
  3
REFLECTIONTILE
360
16
  3
REFRACTIONTILE
360
18
  3
SPECULARTILE
360
15
  0
DICTIONARY
  5
22
330
21
100
AcDbDictionary
280
     1
281
     1
  3
BUMPTILE
360
24
  3
DIFFUSETILE
360
23
  3
OPACITYTILE
360
27
  3
REFLECTIONTILE
360
26
  3
REFRACTIONTILE
360
28
  3
SPECULARTILE
360
25
  0
DICTIONARY
  5
37B
330
65
100
AcDbDictionary
280
     1
281
     1
  3
ACAD_ROUNDTRIP_2008_TABLESTYLE_CELLSTYLEMAP
360
37C
  0
XRECORD
  5
1C
102
{ACAD_REACTORS
330
1A
102
}
330
1A
100
AcDbXrecord
280
     1
270
     1
271
     1
  0
XRECORD
  5
1B
102
{ACAD_REACTORS
330
1A
102
}
330
1A
100
AcDbXrecord
280
     1
270
     1
271
     1
  0
XRECORD
  5
1F
102
{ACAD_REACTORS
330
1A
102
}
330
1A
100
AcDbXrecord
280
     1
270
     1
271
     1
  0
XRECORD
  5
1E
102
{ACAD_REACTORS
330
1A
102
}
330
1A
100
AcDbXrecord
280
     1
270
     1
271
     1
  0
XRECORD
  5
20
102
{ACAD_REACTORS
330
1A
102
}
330
1A
100
AcDbXrecord
280
     1
270
     1
271
     1
  0
XRECORD
  5
1D
102
{ACAD_REACTORS
330
1A
102
}
330
1A
100
AcDbXrecord
280
     1
270
     1
271
     1
  0
XRECORD
  5
14
102
{ACAD_REACTORS
330
12
102
}
330
12
100
AcDbXrecord
280
     1
270
     1
271
     1
  0
XRECORD
  5
13
102
{ACAD_REACTORS
330
12
102
}
330
12
100
AcDbXrecord
280
     1
270
     1
271
     1
  0
XRECORD
  5
17
102
{ACAD_REACTORS
330
12
102
}
330
12
100
AcDbXrecord
280
     1
270
     1
271
     1
  0
XRECORD
  5
16
102
{ACAD_REACTORS
330
12
102
}
330
12
100
AcDbXrecord
280
     1
270
     1
271
     1
  0
XRECORD
  5
18
102
{ACAD_REACTORS
330
12
102
}
330
12
100
AcDbXrecord
280
     1
270
     1
271
     1
  0
XRECORD
  5
15
102
{ACAD_REACTORS
330
12
102
}
330
12
100
AcDbXrecord
280
     1
270
     1
271
     1
  0
XRECORD
  5
24
102
{ACAD_REACTORS
330
22
102
}
330
22
100
AcDbXrecord
280
     1
270
     1
271
     1
  0
XRECORD
  5
23
102
{ACAD_REACTORS
330
22
102
}
330
22
100
AcDbXrecord
280
     1
270
     1
271
     1
  0
XRECORD
  5
27
102
{ACAD_REACTORS
330
22
102
}
330
22
100
AcDbXrecord
280
     1
270
     1
271
     1
  0
XRECORD
  5
26
102
{ACAD_REACTORS
330
22
102
}
330
22
100
AcDbXrecord
280
     1
270
     1
271
     1
  0
XRECORD
  5
28
102
{ACAD_REACTORS
330
22
102
}
330
22
100
AcDbXrecord
280
     1
270
     1
271
     1
  0
XRECORD
  5
25
102
{ACAD_REACTORS
330
22
102
}
330
22
100
AcDbXrecord
280
     1
270
     1
271
     1
  0
CELLSTYLEMAP
  5
37C
102
{ACAD_REACTORS
330
37B
102
}
330
37B
100
AcDbCellStyleMap
 90
        3
300
CELLSTYLE
  1
TABLEFORMAT_BEGIN
 90
        5
170
     1
 91
        0
 92
    32768
 62
   257
 93
        1
300
CONTENTFORMAT
  1
CONTENTFORMAT_BEGIN
 90
        0
 91
        0
 92
      512
 93
        0
300

 40
0.0
140
1.0
 94
        5
 62
     0
340
55
144
0.25
309
CONTENTFORMAT_END
171
     0
 94
        0
309
TABLEFORMAT_END
  1
CELLSTYLE_BEGIN
 90
        1
 91
        1
300
_TITLE
309
CELLSTYLE_END
300
CELLSTYLE
  1
TABLEFORMAT_BEGIN
 90
        5
170
     1
 91
        0
 92
        0
 62
   257
 93
        1
300
CONTENTFORMAT
  1
CONTENTFORMAT_BEGIN
 90
        0
 91
        0
 92
      512
 93
        0
300

 40
0.0
140
1.0
 94
        5
 62
     0
340
55
144
0.18
309
CONTENTFORMAT_END
171
     0
 94
        0
309
TABLEFORMAT_END
  1
CELLSTYLE_BEGIN
 90
        2
 91
        1
300
_HEADER
309
CELLSTYLE_END
300
CELLSTYLE
  1
TABLEFORMAT_BEGIN
 90
        5
170
     1
 91
        0
 92
        0
 62
   257
 93
        1
300
CONTENTFORMAT
  1
CONTENTFORMAT_BEGIN
 90
        0
 91
        0
 92
      512
 93
        0
300

 40
0.0
140
1.0
 94
        2
 62
     0
340
55
144
0.18
309
CONTENTFORMAT_END
171
     0
 94
        0
309
TABLEFORMAT_END
  1
CELLSTYLE_BEGIN
 90
        3
 91
        2
300
_DATA
309
CELLSTYLE_END
  0
ENDSEC
  0
EOF
