  0
SECTION
  2
HEADER
  9
$ACADVER
  1
AC1027
  9
$ACADMAINTVER
 70
    20
  9
$DWGCODEPAGE
  3
ANSI_1252
  9
$REQUIREDVERSIONS
160
                 0
  9
$INSBASE
 10
0.0
 20
0.0
 30
0.0
  9
$EXTMIN
 10
872.046875631953
 20
1804.168759748019
 30
-0.00000001
  9
$EXTMAX
 10
1236.69147292513
 20
2064.000000000028
 30
0.00000001
  9
$LIMMIN
 10
0.0
 20
0.0
  9
$LIMMAX
 10
12.0
 20
9.0
  9
$ORTHOMODE
 70
     0
  9
$REGENMODE
 70
     1
  9
$FILLMODE
 70
     1
  9
$QTEXTMODE
 70
     0
  9
$MIRRTEXT
 70
     0
  9
$LTSCALE
 40
1.0
  9
$ATTMODE
 70
     1
  9
$TEXTSIZE
 40
0.2
  9
$TRACEWID
 40
0.05
  9
$TEXTSTYLE
  7
Standard
  9
$CLAYER
  8
0
  9
$CELTYPE
  6
ByLayer
  9
$CECOLOR
 62
   256
  9
$CELTSCALE
 40
1.0
  9
$DISPSILH
 70
     0
  9
$DIMSCALE
 40
1.0
  9
$DIMASZ
 40
0.18
  9
$DIMEXO
 40
0.0625
  9
$DIMDLI
 40
0.38
  9
$DIMRND
 40
0.0
  9
$DIMDLE
 40
0.0
  9
$DIMEXE
 40
0.18
  9
$DIMTP
 40
0.0
  9
$DIMTM
 40
0.0
  9
$DIMTXT
 40
0.18
  9
$DIMCEN
 40
0.09
  9
$DIMTSZ
 40
0.0
  9
$DIMTOL
 70
     0
  9
$DIMLIM
 70
     0
  9
$DIMTIH
 70
     1
  9
$DIMTOH
 70
     1
  9
$DIMSE1
 70
     0
  9
$DIMSE2
 70
     0
  9
$DIMTAD
 70
     0
  9
$DIMZIN
 70
     0
  9
$DIMBLK
  1

  9
$DIMASO
 70
     1
  9
$DIMSHO
 70
     1
  9
$DIMPOST
  1

  9
$DIMAPOST
  1

  9
$DIMALT
 70
     0
  9
$DIMALTD
 70
     2
  9
$DIMALTF
 40
25.4
  9
$DIMLFAC
 40
1.0
  9
$DIMTOFL
 70
     0
  9
$DIMTVP
 40
0.0
  9
$DIMTIX
 70
     0
  9
$DIMSOXD
 70
     0
  9
$DIMSAH
 70
     0
  9
$DIMBLK1
  1

  9
$DIMBLK2
  1

  9
$DIMSTYLE
  2
Standard
  9
$DIMCLRD
 70
     0
  9
$DIMCLRE
 70
     0
  9
$DIMCLRT
 70
     0
  9
$DIMTFAC
 40
1.0
  9
$DIMGAP
 40
0.09
  9
$DIMJUST
 70
     0
  9
$DIMSD1
 70
     0
  9
$DIMSD2
 70
     0
  9
$DIMTOLJ
 70
     1
  9
$DIMTZIN
 70
     0
  9
$DIMALTZ
 70
     0
  9
$DIMALTTZ
 70
     0
  9
$DIMUPT
 70
     0
  9
$DIMDEC
 70
     4
  9
$DIMTDEC
 70
     4
  9
$DIMALTU
 70
     2
  9
$DIMALTTD
 70
     2
  9
$DIMTXSTY
  7
Standard
  9
$DIMAUNIT
 70
     0
  9
$DIMADEC
 70
     0
  9
$DIMALTRND
 40
0.0
  9
$DIMAZIN
 70
     0
  9
$DIMDSEP
 70
    46
  9
$DIMATFIT
 70
     3
  9
$DIMFRAC
 70
     0
  9
$DIMLDRBLK
  1

  9
$DIMLUNIT
 70
     2
  9
$DIMLWD
 70
    -2
  9
$DIMLWE
 70
    -2
  9
$DIMTMOVE
 70
     0
  9
$DIMFXL
 40
1.0
  9
$DIMFXLON
 70
     0
  9
$DIMJOGANG
 40
0.7853981633974483
  9
$DIMTFILL
 70
     0
  9
$DIMTFILLCLR
 70
     0
  9
$DIMARCSYM
 70
     0
  9
$DIMLTYPE
  6

  9
$DIMLTEX1
  6

  9
$DIMLTEX2
  6

  9
$DIMTXTDIRECTION
 70
     0
  9
$LUNITS
 70
     2
  9
$LUPREC
 70
     4
  9
$SKETCHINC
 40
0.1
  9
$FILLETRAD
 40
0.0
  9
$AUNITS
 70
     0
  9
$AUPREC
 70
     0
  9
$MENU
  1
.
  9
$ELEVATION
 40
0.0
  9
$PELEVATION
 40
0.0
  9
$THICKNESS
 40
0.0
  9
$LIMCHECK
 70
     0
  9
$CHAMFERA
 40
0.0
  9
$CHAMFERB
 40
0.0
  9
$CHAMFERC
 40
0.0
  9
$CHAMFERD
 40
0.0
  9
$SKPOLY
 70
     0
  9
$TDCREATE
 40
2457550.708283889
  9
$TDUCREATE
 40
2457550.624950556
  9
$TDUPDATE
 40
2457550.708283889
  9
$TDUUPDATE
 40
2457550.624950556
  9
$TDINDWG
 40
0.0000151620
  9
$TDUSRTIMER
 40
0.0000151620
  9
$USRTIMER
 70
     1
  9
$ANGBASE
 50
0.0
  9
$ANGDIR
 70
     0
  9
$PDMODE
 70
     0
  9
$PDSIZE
 40
0.0
  9
$PLINEWID
 40
0.0
  9
$SPLFRAME
 70
     0
  9
$SPLINETYPE
 70
     6
  9
$SPLINESEGS
 70
     8
  9
$HANDSEED
  5
2DF
  9
$SURFTAB1
 70
     6
  9
$SURFTAB2
 70
     6
  9
$SURFTYPE
 70
     6
  9
$SURFU
 70
     6
  9
$SURFV
 70
     6
  9
$UCSBASE
  2

  9
$UCSNAME
  2

  9
$UCSORG
 10
0.0
 20
0.0
 30
0.0
  9
$UCSXDIR
 10
1.0
 20
0.0
 30
0.0
  9
$UCSYDIR
 10
0.0
 20
1.0
 30
0.0
  9
$UCSORTHOREF
  2

  9
$UCSORTHOVIEW
 70
     0
  9
$UCSORGTOP
 10
0.0
 20
0.0
 30
0.0
  9
$UCSORGBOTTOM
 10
0.0
 20
0.0
 30
0.0
  9
$UCSORGLEFT
 10
0.0
 20
0.0
 30
0.0
  9
$UCSORGRIGHT
 10
0.0
 20
0.0
 30
0.0
  9
$UCSORGFRONT
 10
0.0
 20
0.0
 30
0.0
  9
$UCSORGBACK
 10
0.0
 20
0.0
 30
0.0
  9
$PUCSBASE
  2

  9
$PUCSNAME
  2

  9
$PUCSORG
 10
0.0
 20
0.0
 30
0.0
  9
$PUCSXDIR
 10
1.0
 20
0.0
 30
0.0
  9
$PUCSYDIR
 10
0.0
 20
1.0
 30
0.0
  9
$PUCSORTHOREF
  2

  9
$PUCSORTHOVIEW
 70
     0
  9
$PUCSORGTOP
 10
0.0
 20
0.0
 30
0.0
  9
$PUCSORGBOTTOM
 10
0.0
 20
0.0
 30
0.0
  9
$PUCSORGLEFT
 10
0.0
 20
0.0
 30
0.0
  9
$PUCSORGRIGHT
 10
0.0
 20
0.0
 30
0.0
  9
$PUCSORGFRONT
 10
0.0
 20
0.0
 30
0.0
  9
$PUCSORGBACK
 10
0.0
 20
0.0
 30
0.0
  9
$USERI1
 70
     0
  9
$USERI2
 70
     0
  9
$USERI3
 70
     0
  9
$USERI4
 70
     0
  9
$USERI5
 70
     0
  9
$USERR1
 40
0.0
  9
$USERR2
 40
0.0
  9
$USERR3
 40
0.0
  9
$USERR4
 40
0.0
  9
$USERR5
 40
0.0
  9
$WORLDVIEW
 70
     1
  9
$SHADEDGE
 70
     3
  9
$SHADEDIF
 70
    70
  9
$TILEMODE
 70
     1
  9
$MAXACTVP
 70
    64
  9
$PINSBASE
 10
0.0
 20
0.0
 30
0.0
  9
$PLIMCHECK
 70
     0
  9
$PEXTMIN
 10
1.000000000000000E+20
 20
1.000000000000000E+20
 30
1.000000000000000E+20
  9
$PEXTMAX
 10
-1.000000000000000E+20
 20
-1.000000000000000E+20
 30
-1.000000000000000E+20
  9
$PLIMMIN
 10
0.0
 20
0.0
  9
$PLIMMAX
 10
12.0
 20
9.0
  9
$UNITMODE
 70
     0
  9
$VISRETAIN
 70
     1
  9
$PLINEGEN
 70
     0
  9
$PSLTSCALE
 70
     1
  9
$TREEDEPTH
 70
  3020
  9
$CMLSTYLE
  2
Standard
  9
$CMLJUST
 70
     0
  9
$CMLSCALE
 40
1.0
  9
$PROXYGRAPHICS
 70
     1
  9
$MEASUREMENT
 70
     1
  9
$CELWEIGHT
370
    -1
  9
$ENDCAPS
280
     0
  9
$JOINSTYLE
280
     0
  9
$LWDISPLAY
290
     0
  9
$INSUNITS
 70
     4
  9
$HYPERLINKBASE
  1

  9
$STYLESHEET
  1

  9
$XEDIT
290
     1
  9
$CEPSNTYPE
380
     0
  9
$PSTYLEMODE
290
     1
  9
$FINGERPRINTGUID
  2
{B11A7C05-5C15-4105-89F3-54DFB689467D}
  9
$VERSIONGUID
  2
{BCFFC75E-6327-4311-B21D-4EE8C11CED86}
  9
$EXTNAMES
290
     1
  9
$PSVPSCALE
 40
0.0
  9
$OLESTARTUP
290
     0
  9
$SORTENTS
280
   127
  9
$INDEXCTL
280
     0
  9
$HIDETEXT
280
     1
  9
$XCLIPFRAME
280
     2
  9
$HALOGAP
280
     0
  9
$OBSCOLOR
 70
   257
  9
$OBSLTYPE
280
     0
  9
$INTERSECTIONDISPLAY
280
     0
  9
$INTERSECTIONCOLOR
 70
   257
  9
$DIMASSOC
280
     2
  9
$PROJECTNAME
  1

  9
$CAMERADISPLAY
290
     0
  9
$LENSLENGTH
 40
50.0
  9
$CAMERAHEIGHT
 40
0.0
  9
$STEPSPERSEC
 40
2.0
  9
$STEPSIZE
 40
6.0
  9
$3DDWFPREC
 40
2.0
  9
$PSOLWIDTH
 40
0.25
  9
$PSOLHEIGHT
 40
4.0
  9
$LOFTANG1
 40
1.570796326794896
  9
$LOFTANG2
 40
1.570796326794896
  9
$LOFTMAG1
 40
0.0
  9
$LOFTMAG2
 40
0.0
  9
$LOFTPARAM
 70
     7
  9
$LOFTNORMALS
280
     1
  9
$LATITUDE
 40
37.795
  9
$LONGITUDE
 40
-122.394
  9
$NORTHDIRECTION
 40
0.0
  9
$TIMEZONE
 70
 -8000
  9
$LIGHTGLYPHDISPLAY
280
     1
  9
$TILEMODELIGHTSYNCH
280
     1
  9
$CMATERIAL
347
11
  9
$SOLIDHIST
280
     0
  9
$SHOWHIST
280
     1
  9
$DWFFRAME
280
     2
  9
$DGNFRAME
280
     0
  9
$REALWORLDSCALE
290
     1
  9
$INTERFERECOLOR
 62
     1
  9
$INTERFEREOBJVS
345
33
  9
$INTERFEREVPVS
346
30
  9
$CSHADOW
280
     0
  9
$SHADOWPLANELOCATION
 40
0.0
  0
ENDSEC
  0
SECTION
  2
CLASSES
  0
CLASS
  1
ACDBDICTIONARYWDFLT
  2
AcDbDictionaryWithDefault
  3
ObjectDBX Classes
 90
        0
 91
        1
280
     0
281
     0
  0
CLASS
  1
MATERIAL
  2
AcDbMaterial
  3
ObjectDBX Classes
 90
     1153
 91
        3
280
     0
281
     0
  0
CLASS
  1
VISUALSTYLE
  2
AcDbVisualStyle
  3
ObjectDBX Classes
 90
     4095
 91
       24
280
     0
281
     0
  0
CLASS
  1
SCALE
  2
AcDbScale
  3
ObjectDBX Classes
 90
     1153
 91
       17
280
     0
281
     0
  0
CLASS
  1
TABLESTYLE
  2
AcDbTableStyle
  3
ObjectDBX Classes
 90
     4095
 91
        1
280
     0
281
     0
  0
CLASS
  1
MLEADERSTYLE
  2
AcDbMLeaderStyle
  3
ACDB_MLEADERSTYLE_CLASS
 90
     4095
 91
        1
280
     0
281
     0
  0
CLASS
  1
ACDBSECTIONVIEWSTYLE
  2
AcDbSectionViewStyle
  3
ObjectDBX Classes
 90
     1025
 91
        1
280
     0
281
     0
  0
CLASS
  1
ACDBDETAILVIEWSTYLE
  2
AcDbDetailViewStyle
  3
ObjectDBX Classes
 90
     1025
 91
        1
280
     0
281
     0
  0
CLASS
  1
RASTERVARIABLES
  2
AcDbRasterVariables
  3
ISM
 90
        0
 91
        1
280
     0
281
     0
  0
CLASS
  1
DICTIONARYVAR
  2
AcDbDictionaryVar
  3
ObjectDBX Classes
 90
        0
 91
        5
280
     0
281
     0
  0
CLASS
  1
CELLSTYLEMAP
  2
AcDbCellStyleMap
  3
ObjectDBX Classes
 90
     1152
 91
        2
280
     0
281
     0
  0
CLASS
  1
SORTENTSTABLE
  2
AcDbSortentsTable
  3
ObjectDBX Classes
 90
        0
 91
        1
280
     0
281
     0
  0
ENDSEC
  0
SECTION
  2
TABLES
  0
TABLE
  2
VPORT
  5
8
330
0
100
AcDbSymbolTable
 70
     1
  0
VPORT
  5
57
330
8
100
AcDbSymbolTableRecord
100
AcDbViewportTableRecord
  2
*Active
 70
     0
 10
0.0
 20
0.0
 11
1.0
 21
1.0
 12
1054.369174278541
 22
1934.084379874024
 13
0.0
 23
0.0
 14
1.0
 24
1.0
 15
0.0
 25
0.0
 16
0.0
 26
0.0
 36
1.0
 17
0.0
 27
0.0
 37
0.0
 40
259.8312402520087
 41
1.403390127143721
 42
50.0
 43
0.0
 44
0.0
 50
0.0
 51
0.0
 71
     0
 72
  1000
 73
     1
 74
     1
 75
     0
 76
     0
 77
     0
 78
     0
281
     0
 65
     1
110
0.0
120
0.0
130
0.0
111
1.0
121
0.0
131
0.0
112
0.0
122
1.0
132
0.0
 79
     0
146
0.0
 60
     3
 61
     5
292
     1
282
     1
141
0.0
142
0.0
 63
   250
421
  3355443
  0
ENDTAB
  0
TABLE
  2
LTYPE
  5
5
330
0
100
AcDbSymbolTable
 70
     3
  0
LTYPE
  5
5B
330
5
100
AcDbSymbolTableRecord
100
AcDbLinetypeTableRecord
  2
ByBlock
 70
     0
  3

 72
    65
 73
     0
 40
0.0
  0
LTYPE
  5
5C
330
5
100
AcDbSymbolTableRecord
100
AcDbLinetypeTableRecord
  2
ByLayer
 70
     0
  3

 72
    65
 73
     0
 40
0.0
  0
LTYPE
  5
5D
330
5
100
AcDbSymbolTableRecord
100
AcDbLinetypeTableRecord
  2
Continuous
 70
     0
  3
Solid line
 72
    65
 73
     0
 40
0.0
  0
LTYPE
  5
69
330
5
100
AcDbSymbolTableRecord
100
AcDbLinetypeTableRecord
  2
PHANTOM2
 70
     0
  3
___ _ _ ___ _ _ ___ _ _ ___ _ _
 72
    65
 73
     6
 40
1.25
 49
0.625
 74
     0
 49
-0.125
 74
     0
 49
0.125
 74
     0
 49
-0.125
 74
     0
 49
0.125
 74
     0
 49
-0.125
 74
     0
  0
LTYPE
  5
86
330
5
100
AcDbSymbolTableRecord
100
AcDbLinetypeTableRecord
  2
Nascosto 1_5 mm
 70
     0
  3

 72
    65
 73
     2
 40
2.2
 49
1.5
 74
     0
 49
-0.7000000000000001
 74
     0
  0
ENDTAB
  0
TABLE
  2
LAYER
  5
2
330
0
100
AcDbSymbolTable
 70
     4
  0
LAYER
  5
54
330
2
100
AcDbSymbolTableRecord
100
AcDbLayerTableRecord
  2
0
 70
     0
 62
     7
  6
Continuous
370
    -3
390
F
347
21
348
0
  0
LAYER
  5
85
330
2
100
AcDbSymbolTableRecord
100
AcDbLayerTableRecord
  2
P-SANR-FIXT
 70
     0
 62
     6
  6
Continuous
370
    18
390
F
347
21
348
0
  0
LAYER
  5
88
330
2
100
AcDbSymbolTableRecord
100
AcDbLayerTableRecord
  2
M-PIPE
 70
     0
 62
     3
  6
Continuous
370
    18
390
F
347
21
348
0
  0
ENDTAB
  0
TABLE
  2
STYLE
  5
3
330
0
100
AcDbSymbolTable
 70
     2
  0
STYLE
  5
55
330
3
100
AcDbSymbolTableRecord
100
AcDbTextStyleTableRecord
  2
Standard
 70
     0
 40
0.0
 41
1.0
 50
0.0
 71
     0
 42
0.2
  3
txt
  4

  0
STYLE
  5
5A
330
3
100
AcDbSymbolTableRecord
100
AcDbTextStyleTableRecord
  2
Annotative
 70
     0
 40
0.0
 41
1.0
 50
0.0
 71
     0
 42
0.2
  3
txt
  4

1001
AcadAnnotative
1000
AnnotativeData
1002
{
1070
     1
1070
     1
1002
}
  0
ENDTAB
  0
TABLE
  2
VIEW
  5
6
330
0
100
AcDbSymbolTable
 70
     0
  0
ENDTAB
  0
TABLE
  2
UCS
  5
7
330
0
100
AcDbSymbolTable
 70
     0
  0
ENDTAB
  0
TABLE
  2
APPID
  5
9
330
0
100
AcDbSymbolTable
 70
     3
  0
APPID
  5
56
330
9
100
AcDbSymbolTableRecord
100
AcDbRegAppTableRecord
  2
ACAD
 70
     0
  0
APPID
  5
5E
330
9
100
AcDbSymbolTableRecord
100
AcDbRegAppTableRecord
  2
AcadAnnotative
 70
     0
  0
APPID
  5
79
330
9
100
AcDbSymbolTableRecord
100
AcDbRegAppTableRecord
  2
REVIT
 70
     0
  0
ENDTAB
  0
TABLE
  2
DIMSTYLE
  5
A
330
0
100
AcDbSymbolTable
 70
     2
100
AcDbDimStyleTable
 71
     0
  0
DIMSTYLE
105
58
330
A
100
AcDbSymbolTableRecord
100
AcDbDimStyleTableRecord
  2
Standard
 70
     0
340
55
  0
DIMSTYLE
105
59
330
A
100
AcDbSymbolTableRecord
100
AcDbDimStyleTableRecord
  2
Annotative
 70
     0
340
55
1001
AcadAnnotative
1000
AnnotativeData
1002
{
1070
     1
1070
     1
1002
}
  0
ENDTAB
  0
TABLE
  2
BLOCK_RECORD
  5
1
330
0
100
AcDbSymbolTable
 70
     4
  0
BLOCK_RECORD
  5
71
102
{ACAD_XDICTIONARY
360
2DA
102
}
330
1
100
AcDbSymbolTableRecord
100
AcDbBlockTableRecord
  2
*Model_Space
340
74
 70
     0
280
     1
281
     0
  0
BLOCK_RECORD
  5
6D
330
1
100
AcDbSymbolTableRecord
100
AcDbBlockTableRecord
  2
*Paper_Space
340
70
 70
     0
280
     1
281
     0
  0
BLOCK_RECORD
  5
75
330
1
100
AcDbSymbolTableRecord
100
AcDbBlockTableRecord
  2
*Paper_Space0
340
78
 70
     0
280
     1
281
     0
  0
BLOCK_RECORD
  5
87
330
1
100
AcDbSymbolTableRecord
100
AcDbBlockTableRecord
  2
Automatic flow rate regulator valve_Caleffi_121 DN15 - 1_2__-859151-Est - Idraulica
340
0
102
{BLKREFS
331
1A2
102
}
 70
     0
280
     1
281
     0
  0
BLOCK_RECORD
  5
1A3
330
1
100
AcDbSymbolTableRecord
100
AcDbBlockTableRecord
  2
Automatic flow rate regulator valve_Caleffi_121 DN15 - 1_2__-V1-Est - Idraulica
340
0
102
{BLKREFS
331
259
102
}
 70
     0
280
     1
281
     0
  0
BLOCK_RECORD
  5
25A
330
1
100
AcDbSymbolTableRecord
100
AcDbBlockTableRecord
  2
Automatic flow rate regulator valve_Caleffi_121 DN15 - 1_2__-V2-Est - Idraulica
340
0
102
{BLKREFS
331
2D3
102
}
 70
     0
280
     1
281
     0
  0
ENDTAB
  0
ENDSEC
  0
SECTION
  2
BLOCKS
  0
BLOCK
  5
72
330
71
100
AcDbEntity
  8
0
100
AcDbBlockBegin
  2
*Model_Space
 70
     0
 10
0.0
 20
0.0
 30
0.0
  3
*Model_Space
  1

  0
ENDBLK
  5
73
330
71
100
AcDbEntity
  8
0
100
AcDbBlockEnd
  0
BLOCK
  5
6E
330
6D
100
AcDbEntity
 67
     1
  8
0
100
AcDbBlockBegin
  2
*Paper_Space
 70
     0
 10
0.0
 20
0.0
 30
0.0
  3
*Paper_Space
  1

  0
ENDBLK
  5
6F
330
6D
100
AcDbEntity
 67
     1
  8
0
100
AcDbBlockEnd
  0
BLOCK
  5
76
330
75
100
AcDbEntity
 67
     1
  8
0
100
AcDbBlockBegin
  2
*Paper_Space0
 70
     0
 10
0.0
 20
0.0
 30
0.0
  3
*Paper_Space0
  1

  0
ENDBLK
  5
77
330
75
100
AcDbEntity
 67
     1
  8
0
100
AcDbBlockEnd
  0
BLOCK
  5
1A0
330
87
100
AcDbEntity
  8
0
100
AcDbBlockBegin
  2
Automatic flow rate regulator valve_Caleffi_121 DN15 - 1_2__-859151-Est - Idraulica
 70
     0
 10
0.0
 20
0.0
 30
0.0
  3
Automatic flow rate regulator valve_Caleffi_121 DN15 - 1_2__-859151-Est - Idraulica
  1

  0
LWPOLYLINE
  5
89
330
87
100
AcDbEntity
  8
M-PIPE
100
AcDbPolyline
 90
       41
 70
   128
 43
0.0
 10
879.9792601327455
 20
1958.999999999996
 10
879.6620493584466
 20
1959.006345061512
 10
879.3453460537183
 20
1959.025370095318
 10
879.0296568762887
 20
1959.057044665416
 10
878.7154868614983
 20
1959.101318099252
 10
878.403338614351
 20
1959.158119568776
 10
878.0937115054546
 20
1959.227358203754
 10
877.7871008721332
 20
1959.30892323714
 10
877.4839972259927
 20
1959.40268418228
 10
877.184885468209
 20
1959.508491041663
 10
876.8902441137869
 20
1959.626174546886
 10
876.6005445260404
 20
1959.755546429443
 10
876.3162501625101
 20
1959.896399721922
 10
876.0378158335319
 20
1960.048509089101
 10
875.7656869746359
 20
1960.21163118844
 10
875.5002989339452
 20
1960.38550505938
 10
875.2420762757115
 20
1960.569852540816
 10
874.991432101104
 20
1960.764378716105
 10
874.7487673873338
 20
1960.968772384862
 10
874.5144703461775
 20
1961.182706560819
 10
874.28891580292
 20
1961.405838994931
 10
874.0724645967146
 20
1961.637812722903
 10
873.8654630033179
 20
1961.878256636256
 10
873.668242181121
 20
1962.12678607602
 10
873.481117641368
 20
1962.383003448107
 10
873.3043887434048
 20
1962.64649885938
 10
873.1383382157682
 20
1962.916850773389
 10
872.9832317038795
 20
1963.193626684745
 10
872.8393173450708
 20
1963.476383811031
 10
872.7068253716154
 20
1963.764669801165
 10
872.5859677424082
 20
1964.058023459058
 10
872.4769378038738
 20
1964.355975481438
 10
872.3799099806555
 20
1964.658049208628
 10
872.2950394965724
 20
1964.963761387104
 10
872.2224621262943
 20
1965.272622942596
 10
872.162293978131
 20
1965.584139762501
 10
872.1146313082845
 20
1965.897813486361
 10
872.0795503668595
 20
1966.213142303131
 10
872.0571072758781
 20
1966.529621753972
 10
872.0473379394986
 20
1966.846745539273
 10
872.0468756419547
 20
1966.932384490787
1001
REVIT
1002
{
1070
     3
1000
963222
1002
}
  0
LWPOLYLINE
  5
8A
330
87
100
AcDbEntity
  8
M-PIPE
100
AcDbPolyline
 90
       41
 70
   128
 43
0.0
 10
872.0468756419547
 20
2033.067615509205
 10
872.0532207034715
 20
2033.384826283504
 10
872.0722457372769
 20
2033.701529588233
 10
872.1039203073752
 20
2034.017218765662
 10
872.1481937412111
 20
2034.331388780453
 10
872.2049952107353
 20
2034.6435370276
 10
872.2742338457132
 20
2034.953164136496
 10
872.3557988790989
 20
2035.259774769818
 10
872.4495598242391
 20
2035.562878415958
 10
872.5553666836225
 20
2035.861990173742
 10
872.6730501888447
 20
2036.156631528164
 10
872.8024220714024
 20
2036.44633111591
 10
872.943275363881
 20
2036.730625479441
 10
873.0953847310598
 20
2037.009059808418
 10
873.2585068303995
 20
2037.281188667315
 10
873.4323807013389
 20
2037.546576708006
 10
873.616728182775
 20
2037.804799366239
 10
873.8112543580639
 20
2038.055443540847
 10
874.0156480268206
 20
2038.298108254616
 10
874.2295822027777
 20
2038.532405295773
 10
874.4527146368902
 20
2038.757959839031
 10
874.6846883648625
 20
2038.974411045236
 10
874.9251322782152
 20
2039.181412638633
 10
875.1736617179785
 20
2039.37863346083
 10
875.4298790900659
 20
2039.565758000583
 10
875.6933745013386
 20
2039.742486898546
 10
875.9637264153482
 20
2039.908537426183
 10
876.240502326704
 20
2040.063643938071
 10
876.5232594529905
 20
2040.20755829688
 10
876.8115454431235
 20
2040.340050270335
 10
877.104899101017
 20
2040.460907899543
 10
877.4028511233971
 20
2040.569937838077
 10
877.7049248505873
 20
2040.666965661295
 10
878.0106370290633
 20
2040.751836145378
 10
878.3194985845549
 20
2040.824413515656
 10
878.6310154044597
 20
2040.884581663819
 10
878.9446891283198
 20
2040.932244333666
 10
879.2600179450902
 20
2040.967325275091
 10
879.5764973959308
 20
2040.989768366072
 10
879.8936211812319
 20
2040.999537702452
 10
879.9792601327455
 20
2040.999999999996
1001
REVIT
1002
{
1070
     3
1000
963222
1002
}
  0
LWPOLYLINE
  5
8B
330
87
100
AcDbEntity
  8
M-PIPE
100
AcDbPolyline
 90
       41
 70
   128
 43
0.0
 10
997.0468756419549
 20
1966.932384490787
 10
997.0405305804382
 20
1966.615173716488
 10
997.0215055466329
 20
1966.298470411759
 10
996.9898309765346
 20
1965.98278123433
 10
996.9455575426986
 20
1965.668611219539
 10
996.8887560731744
 20
1965.356462972392
 10
996.8195174381966
 20
1965.046835863496
 10
996.7379524048105
 20
1964.740225230174
 10
996.6441914596707
 20
1964.437121584034
 10
996.5383846002875
 20
1964.13800982625
 10
996.420701095065
 20
1963.843368471828
 10
996.2913292125074
 20
1963.553668884081
 10
996.1504759200288
 20
1963.269374520551
 10
995.9983665528499
 20
1962.990940191573
 10
995.8352444535101
 20
1962.718811332677
 10
995.6613705825711
 20
1962.453423291986
 10
995.4770231011345
 20
1962.195200633753
 10
995.2824969258461
 20
1961.944556459145
 10
995.078103257089
 20
1961.701891745375
 10
994.8641690811319
 20
1961.467594704219
 10
994.6410366470194
 20
1961.242040160961
 10
994.4090629190471
 20
1961.025588954756
 10
994.1686190056946
 20
1960.818587361359
 10
993.9200895659313
 20
1960.621366539162
 10
993.6638721938438
 20
1960.434241999409
 10
993.4003767825711
 20
1960.257513101446
 10
993.1300248685616
 20
1960.091462573809
 10
992.8532489572058
 20
1959.936356061921
 10
992.5704918309193
 20
1959.792441703112
 10
992.2822058407861
 20
1959.659949729656
 10
991.9888521828926
 20
1959.539092100449
 10
991.6909001605128
 20
1959.430062161915
 10
991.3888264333225
 20
1959.333034338697
 10
991.0831142548463
 20
1959.248163854613
 10
990.7742526993549
 20
1959.175586484335
 10
990.4627358794499
 20
1959.115418336172
 10
990.1490621555899
 20
1959.067755666326
 10
989.8337333388196
 20
1959.0326747249
 10
989.5172538879791
 20
1959.010231633919
 10
989.2001301026779
 20
1959.00046229754
 10
989.1144911511641
 20
1958.999999999996
1001
REVIT
1002
{
1070
     3
1000
963222
1002
}
  0
LWPOLYLINE
  5
8C
330
87
100
AcDbEntity
  8
M-PIPE
100
AcDbPolyline
 90
       41
 70
   128
 43
0.0
 10
989.1144911511641
 20
2040.999999999996
 10
989.4317019254632
 20
2040.993654938479
 10
989.7484052301914
 20
2040.974629904674
 10
990.064094407621
 20
2040.942955334575
 10
990.3782644224115
 20
2040.89868190074
 10
990.6904126695588
 20
2040.841880431216
 10
991.000039778455
 20
2040.772641796237
 10
991.3066504117765
 20
2040.691076762852
 10
991.6097540579167
 20
2040.597315817711
 10
991.9088658157008
 20
2040.491508958329
 10
992.2035071701227
 20
2040.373825453106
 10
992.4932067578694
 20
2040.244453570548
 10
992.7775011213995
 20
2040.10360027807
 10
993.0559354503778
 20
2039.951490910891
 10
993.3280643092739
 20
2039.788368811551
 10
993.5934523499648
 20
2039.614494940612
 10
993.8516750081983
 20
2039.430147459176
 10
994.1023191828058
 20
2039.235621283887
 10
994.344983896576
 20
2039.03122761513
 10
994.5792809377323
 20
2038.817293439173
 10
994.8048354809898
 20
2038.594161005061
 10
995.021286687195
 20
2038.362187277088
 10
995.2282882805917
 20
2038.121743363736
 10
995.4255091027887
 20
2037.873213923973
 10
995.6126336425416
 20
2037.616996551885
 10
995.7893625405048
 20
2037.353501140612
 10
995.9554130681416
 20
2037.083149226603
 10
996.1105195800302
 20
2036.806373315247
 10
996.2544339388392
 20
2036.52361618896
 10
996.3869259122942
 20
2036.235330198827
 10
996.5077835415014
 20
2035.941976540934
 10
996.6168134800359
 20
2035.644024518553
 10
996.7138413032541
 20
2035.341950791364
 10
996.7987117873374
 20
2035.036238612887
 10
996.8712891576155
 20
2034.727377057396
 10
996.9314573057786
 20
2034.415860237491
 10
996.9791199756251
 20
2034.102186513631
 10
997.0142009170501
 20
2033.78685769686
 10
997.0366440080317
 20
2033.47037824602
 10
997.046413344411
 20
2033.153254460719
 10
997.0468756419549
 20
2033.067615509205
1001
REVIT
1002
{
1070
     3
1000
963222
1002
}
  0
LINE
  5
8D
330
87
100
AcDbEntity
  8
M-PIPE
100
AcDbLine
 10
872.046875641953
 20
1980.999999999995
 30
0.0
 11
872.046875641953
 21
2018.999999999994
 31
0.0
1001
REVIT
1002
{
1070
     3
1000
963222
1002
}
  0
LINE
  5
8E
330
87
100
AcDbEntity
  8
M-PIPE
100
AcDbLine
 10
872.046875641953
 20
2018.999999999994
 30
0.0
 11
872.046875641953
 21
2033.067615509204
 31
0.0
1001
REVIT
1002
{
1070
     3
1000
963222
1002
}
  0
LINE
  5
8F
330
87
100
AcDbEntity
  8
M-PIPE
100
AcDbLine
 10
872.046875641953
 20
1966.932384490785
 30
0.0
 11
872.046875641953
 21
1980.999999999995
 31
0.0
1001
REVIT
1002
{
1070
     3
1000
963222
1002
}
  0
LINE
  5
90
330
87
100
AcDbEntity
  8
M-PIPE
100
AcDbLine
 10
997.0468756419528
 20
2018.999999999994
 30
0.0
 11
997.0468756419528
 21
1980.999999999995
 31
0.0
1001
REVIT
1002
{
1070
     3
1000
963222
1002
}
  0
LINE
  5
91
330
87
100
AcDbEntity
  8
M-PIPE
100
AcDbLine
 10
997.0468756419528
 20
1980.999999999995
 30
0.0
 11
997.0468756419528
 21
1966.932384490785
 31
0.0
1001
REVIT
1002
{
1070
     3
1000
963222
1002
}
  0
LINE
  5
92
330
87
100
AcDbEntity
  8
M-PIPE
100
AcDbLine
 10
997.0468756419528
 20
2033.067615509204
 30
0.0
 11
997.0468756419528
 21
2018.999999999994
 31
0.0
1001
REVIT
1002
{
1070
     3
1000
963222
1002
}
  0
LINE
  5
93
330
87
100
AcDbEntity
  8
M-PIPE
100
AcDbLine
 10
989.1144911511622
 20
1958.999999999995
 30
0.0
 11
879.9792601327437
 21
1958.999999999995
 31
0.0
1001
REVIT
1002
{
1070
     3
1000
963222
1002
}
  0
SPLINE
  5
94
330
87
100
AcDbEntity
  8
M-PIPE
100
AcDbSpline
210
0.0
220
0.0
230
1.0
 70
     8
 71
     3
 72
    20
 73
    16
 74
     0
 42
0.000000001
 43
0.0000000001
 40
0.0
 40
0.0
 40
0.0
 40
0.0
 40
0.25
 40
0.3125
 40
0.375
 40
0.4375
 40
0.5
 40
0.53125
 40
0.5625
 40
0.625
 40
0.6875
 40
0.75
 40
0.8125
 40
0.875
 40
1.0
 40
1.0
 40
1.0
 40
1.0
 10
962.0929987811534
 20
2033.999999999995
 30
0.0
 10
964.1372466918822
 20
2034.787700445372
 30
0.0
 10
966.5017165459373
 20
2035.810319242098
 30
0.0
 10
969.1129001750013
 20
2036.995958459031
 30
0.0
 10
970.3809948558019
 20
2037.57423953667
 30
0.0
 10
971.5780571460111
 20
2038.131474730167
 30
0.0
 10
972.4886926101911
 20
2038.572135815566
 30
0.0
 10
973.1685186962652
 20
2038.907985240673
 30
0.0
 10
973.8330309029199
 20
2039.232198127322
 30
0.0
 10
974.6133416205768
 20
2039.611472619709
 30
0.0
 10
975.440594694354
 20
2040.015173460117
 30
0.0
 10
976.1159099634808
 20
2040.358211834938
 30
0.0
 10
976.634294798786
 20
2040.635108989426
 30
0.0
 10
977.154428219222
 20
2040.90999805543
 30
0.0
 10
977.3413590056401
 20
2040.999999999995
 30
0.0
 10
977.376875641953
 20
2040.999999999995
 30
0.0
1001
REVIT
1002
{
1070
     3
1000
963222
1002
}
  0
LINE
  5
95
330
87
100
AcDbEntity
  8
M-PIPE
100
AcDbLine
 10
977.376875641953
 20
2040.999999999995
 30
0.0
 11
989.1144911511622
 21
2040.999999999995
 31
0.0
1001
REVIT
1002
{
1070
     3
1000
963222
1002
}
  0
LINE
  5
96
330
87
100
AcDbEntity
  8
M-PIPE
100
AcDbLine
 10
879.9792601327437
 20
2040.999999999995
 30
0.0
 11
891.7168756419529
 21
2040.999999999995
 31
0.0
1001
REVIT
1002
{
1070
     3
1000
963222
1002
}
  0
SPLINE
  5
97
330
87
100
AcDbEntity
  8
M-PIPE
100
AcDbSpline
210
0.0
220
0.0
230
1.0
 70
     8
 71
     3
 72
    20
 73
    16
 74
     0
 42
0.000000001
 43
0.0000000001
 40
0.0
 40
0.0
 40
0.0
 40
0.0
 40
0.125
 40
0.1875
 40
0.25
 40
0.3125
 40
0.375
 40
0.4375
 40
0.5
 40
0.53125
 40
0.5625
 40
0.625
 40
0.6875
 40
0.75
 40
1.0
 40
1.0
 40
1.0
 40
1.0
 10
891.7168756419529
 20
2040.999999999995
 30
0.0
 10
891.752392278266
 20
2040.999999999995
 30
0.0
 10
891.9393180226338
 20
2040.90999835472
 30
0.0
 10
892.4594648885376
 20
2040.635108490609
 30
0.0
 10
892.9778093874389
 20
2040.358213730442
 30
0.0
 10
893.6532759180803
 20
2040.015166376916
 30
0.0
 10
894.4799642822028
 20
2039.611499057008
 30
0.0
 10
895.418444720495
 20
2039.156244562851
 30
0.0
 10
896.2593068267329
 20
2038.742703659792
 30
0.0
 10
896.9670357956884
 20
2038.396009154531
 30
0.0
 10
897.7165190390186
 20
2038.038522663276
 30
0.0
 10
898.7123110717972
 20
2037.574266482833
 30
0.0
 10
899.980966039565
 20
2036.995951505183
 30
0.0
 10
902.591891074644
 20
2035.810327934409
 30
0.0
 10
904.9565045920241
 20
2034.787700445372
 30
0.0
 10
907.0007525027527
 20
2033.999999999995
 30
0.0
1001
REVIT
1002
{
1070
     3
1000
963222
1002
}
  0
LINE
  5
98
330
87
100
AcDbEntity
  8
M-PIPE
100
AcDbLine
 10
970.3768756419529
 20
2033.999999999995
 30
0.0
 11
977.3768756419531
 21
2040.999999999995
 31
0.0
1001
REVIT
1002
{
1070
     3
1000
963222
1002
}
  0
LINE
  5
99
330
87
100
AcDbEntity
  8
M-PIPE
100
AcDbLine
 10
891.7168756419529
 20
2040.999999999995
 30
0.0
 11
898.716875641953
 21
2033.999999999995
 31
0.0
1001
REVIT
1002
{
1070
     3
1000
963222
1002
}
  0
LINE
  5
9A
330
87
100
AcDbEntity
  8
M-PIPE
100
AcDbLine
 10
964.346875641953
 20
2033.999999999995
 30
0.0
 11
970.3768756419529
 21
2033.999999999995
 31
0.0
1001
REVIT
1002
{
1070
     3
1000
963222
1002
}
  0
LINE
  5
9B
330
87
100
AcDbEntity
  8
M-PIPE
100
AcDbLine
 10
898.716875641953
 20
2033.999999999995
 30
0.0
 11
904.7468756419526
 21
2033.999999999995
 31
0.0
1001
REVIT
1002
{
1070
     3
1000
963222
1002
}
  0
LINE
  5
9C
330
87
100
AcDbEntity
  8
M-PIPE
100
AcDbLine
 10
904.7468756419529
 20
2033.999999999995
 30
0.0
 11
913.5372960780214
 21
2033.999999999995
 31
0.0
1001
REVIT
1002
{
1070
     3
1000
963222
1002
}
  0
ARC
  5
9D
330
87
100
AcDbEntity
  8
M-PIPE
100
AcDbCircle
 10
931.6239132257354
 20
2052.355186344
 30
0.0
 40
32.54670513282733
100
AcDbArc
 50
214.3304153230001
 51
243.3729210251348
1001
REVIT
1002
{
1070
     3
1000
963222
1002
}
  0
ARC
  5
9E
330
87
100
AcDbEntity
  8
M-PIPE
100
AcDbCircle
 10
937.4698380581707
 20
2052.355186344
 30
0.0
 40
32.54670513282722
100
AcDbArc
 50
296.6270789748748
 51
325.6695846769984
1001
REVIT
1002
{
1070
     3
1000
963222
1002
}
  0
ARC
  5
9F
330
87
100
AcDbEntity
  8
M-PIPE
100
AcDbCircle
 10
879.9792601327437
 20
1966.932384490785
 30
0.0
 40
7.932384490790809
100
AcDbArc
 50
180.0
 51
269.9999999999997
1001
REVIT
1002
{
1070
     3
1000
963222
1002
}
  0
ARC
  5
A0
330
87
100
AcDbEntity
  8
M-PIPE
100
AcDbCircle
 10
879.9792601327437
 20
2033.067615509204
 30
0.0
 40
7.932384490790809
100
AcDbArc
 50
90.0
 51
180.0
1001
REVIT
1002
{
1070
     3
1000
963222
1002
}
  0
ARC
  5
A1
330
87
100
AcDbEntity
  8
M-PIPE
100
AcDbCircle
 10
989.1144911511622
 20
1966.932384490785
 30
0.0
 40
7.932384490790923
100
AcDbArc
 50
270.0000000000005
 51
0.0
1001
REVIT
1002
{
1070
     3
1000
963222
1002
}
  0
ARC
  5
A2
330
87
100
AcDbEntity
  8
M-PIPE
100
AcDbCircle
 10
989.1144911511622
 20
2033.067615509204
 30
0.0
 40
7.932384490790923
100
AcDbArc
 50
0.0
 51
90.0
1001
REVIT
1002
{
1070
     3
1000
963222
1002
}
  0
LINE
  5
A3
330
87
100
AcDbEntity
  8
M-PIPE
100
AcDbLine
 10
872.046875641953
 20
1980.999999999995
 30
0.0
 11
997.0468756419528
 21
1980.999999999995
 31
0.0
1001
REVIT
1002
{
1070
     3
1000
963222
1002
}
  0
LINE
  5
A4
330
87
100
AcDbEntity
  8
M-PIPE
100
AcDbLine
 10
997.0468756419528
 20
2018.999999999994
 30
0.0
 11
952.0550032522006
 21
2018.999999999994
 31
0.0
1001
REVIT
1002
{
1070
     3
1000
963222
1002
}
  0
LINE
  5
A5
330
87
100
AcDbEntity
  8
M-PIPE
100
AcDbLine
 10
917.0387480317115
 20
2018.999999999994
 30
0.0
 11
872.046875641953
 21
2018.999999999994
 31
0.0
1001
REVIT
1002
{
1070
     3
1000
963222
1002
}
  0
LWPOLYLINE
  5
A6
330
87
100
AcDbEntity
  8
M-PIPE
100
AcDbPolyline
 90
       31
 70
   128
 43
0.0
 10
949.766155577147
 20
2033.200000000045
 10
949.499103430621
 20
2033.200000000045
 10
949.2081309092714
 20
2033.200000000045
 10
948.8937035070621
 20
2033.200000000045
 10
948.556324240762
 20
2033.200000000045
 10
948.1965328452265
 20
2033.200000000045
 10
947.8149049099375
 20
2033.200000000045
 10
947.4120509581815
 20
2033.200000000045
 10
946.9886154703443
 20
2033.200000000045
 10
946.5452758528778
 20
2033.200000000045
 10
946.082741354596
 20
2033.200000000045
 10
945.6017519320273
 20
2033.200000000045
 10
945.1030770656425
 20
2033.200000000045
 10
944.5875145288491
 20
2033.200000000045
 10
944.0558891117255
 20
2033.200000000045
 10
943.5090513015316
 20
2033.200000000045
 10
942.9478759221112
 20
2033.200000000045
 10
942.3732607343607
 20
2033.200000000045
 10
941.786125000002
 20
2033.200000000045
 10
941.187408010961
 20
2033.200000000045
 10
940.5780675867012
 20
2033.200000000045
 10
939.9590785419151
 20
2033.200000000045
 10
939.3314311270311
 20
2033.200000000045
 10
938.6961294440215
 20
2033.200000000045
 10
938.0541898400556
 20
2033.200000000045
 10
937.4066392815599
 20
2033.200000000045
 10
936.7545137112912
 20
2033.200000000045
 10
936.0988563910494
 20
2033.200000000045
 10
935.4407162326806
 20
2033.200000000045
 10
934.7811461200421
 20
2033.200000000045
 10
934.5468756419569
 20
2033.200000000045
1001
REVIT
1002
{
1070
     3
1000
923114
1002
}
  0
LWPOLYLINE
  5
A7
330
87
100
AcDbEntity
  8
M-PIPE
100
AcDbPolyline
 90
       31
 70
   128
 43
0.0
 10
934.5468756419569
 20
2033.200000000045
 10
933.8870516278774
 20
2033.200000000045
 10
933.2282831914653
 20
2033.200000000045
 10
932.5716242216897
 20
2033.200000000045
 10
931.9181252328219
 20
2033.200000000045
 10
931.2688316838384
 20
2033.200000000045
 10
930.6247823059091
 20
2033.200000000045
 10
929.987007440649
 20
2033.200000000045
 10
929.3565273917909
 20
2033.200000000045
 10
928.7343507929179
 20
2033.200000000045
 10
928.1214729938643
 20
2033.200000000045
 10
927.518874468368
 20
2033.200000000045
 10
926.9275192455223
 20
2033.200000000045
 10
926.3483533675351
 20
2033.200000000045
 10
925.7823033762621
 20
2033.200000000045
 10
925.2302748309388
 20
2033.200000000045
 10
924.6931508594771
 20
2033.200000000045
 10
924.171790745652
 20
2033.200000000045
 10
923.6670285544274
 20
2033.200000000045
 10
923.1796717976324
 20
2033.200000000045
 10
922.7105001421145
 20
2033.200000000045
 10
922.2602641624375
 20
2033.200000000045
 10
921.8296841401238
 20
2033.200000000045
 10
921.4194489113568
 20
2033.200000000045
 10
921.0302147649903
 20
2033.200000000045
 10
920.6626043926265
 20
2033.200000000045
 10
920.3172058924415
 20
2033.200000000045
 10
919.9945718283549
 20
2033.200000000045
 10
919.6952183460444
 20
2033.200000000045
 10
919.4196243472225
 20
2033.200000000045
 10
919.3275958818032
 20
2033.200000000045
1001
REVIT
1002
{
1070
     3
1000
923114
1002
}
  0
LINE
  5
A8
330
87
100
AcDbEntity
  8
M-PIPE
100
AcDbLine
 10
923.4714934913609
 20
2064.000000000028
 30
0.0
 11
917.046875641957
 21
2064.000000000028
 31
0.0
1001
REVIT
1002
{
1070
     3
1000
923114
1002
}
  0
LINE
  5
A9
330
87
100
AcDbEntity
  8
M-PIPE
100
AcDbLine
 10
952.0468756419571
 20
2064.000000000028
 30
0.0
 11
945.6222579262695
 21
2064.000000000028
 31
0.0
1001
REVIT
1002
{
1070
     3
1000
923114
1002
}
  0
LINE
  5
AA
330
87
100
AcDbEntity
  8
M-PIPE
100
AcDbLine
 10
913.5468756419571
 20
2060.500000000028
 30
0.0
 11
913.546875641957
 21
2029.200000000028
 31
0.0
1001
REVIT
1002
{
1070
     3
1000
923114
1002
}
  0
LINE
  5
AB
330
87
100
AcDbEntity
  8
M-PIPE
100
AcDbLine
 10
955.5468756419569
 20
2029.200000000028
 30
0.0
 11
955.5468756419571
 21
2060.500000000028
 31
0.0
1001
REVIT
1002
{
1070
     3
1000
923114
1002
}
  0
LINE
  5
AC
330
87
100
AcDbEntity
  8
M-PIPE
100
AcDbLine
 10
955.5468756419552
 20
2029.200000000027
 30
0.0
 11
953.2050600619024
 21
2029.200000000027
 31
0.0
1001
REVIT
1002
{
1070
     3
1000
923114
1002
}
  0
LINE
  5
AD
330
87
100
AcDbEntity
  8
M-PIPE
100
AcDbLine
 10
953.2050600619026
 20
2029.200000000059
 30
0.0
 11
934.5468756419551
 21
2029.200000000059
 31
0.0
1001
REVIT
1002
{
1070
     3
1000
923114
1002
}
  0
LINE
  5
AE
330
87
100
AcDbEntity
  8
M-PIPE
100
AcDbLine
 10
934.5468756419551
 20
2029.200000000027
 30
0.0
 11
915.8886913525362
 21
2029.200000000027
 31
0.0
1001
REVIT
1002
{
1070
     3
1000
923114
1002
}
  0
LINE
  5
AF
330
87
100
AcDbEntity
  8
M-PIPE
100
AcDbLine
 10
915.8886913525359
 20
2029.200000000027
 30
0.0
 11
913.5468756419552
 21
2029.200000000027
 31
0.0
1001
REVIT
1002
{
1070
     3
1000
923114
1002
}
  0
SPLINE
  5
B0
330
87
100
AcDbEntity
  8
M-PIPE
100
AcDbSpline
210
0.0
220
0.0
230
1.0
 70
     8
 71
     3
 72
    13
 73
     9
 74
     0
 42
0.000000001
 43
0.0000000001
 40
0.0
 40
0.0
 40
0.0
 40
0.0
 40
0.2
 40
0.4
 40
0.55
 40
0.625
 40
0.7
 40
1.0
 40
1.0
 40
1.0
 40
1.0
 10
916.3790441581372
 20
2031.745379170311
 30
0.0
 10
916.5112888685955
 20
2031.938256592654
 30
0.0
 10
916.8078377380997
 20
2032.286295951159
 30
0.0
 10
917.316423076879
 20
2032.665481092232
 30
0.0
 10
917.7519019214262
 20
2032.882480053146
 30
0.0
 10
918.0702476845121
 20
2033.002404201244
 30
0.0
 10
918.5628551525283
 20
2033.14771034885
 30
0.0
 10
918.984328561711
 20
2033.200883900433
 30
0.0
 10
919.3275958818016
 20
2033.200000000044
 30
0.0
1001
REVIT
1002
{
1070
     3
1000
923114
1002
}
  0
LINE
  5
B1
330
87
100
AcDbEntity
  8
M-PIPE
100
AcDbLine
 10
920.9538855265334
 20
2033.200000000044
 30
0.0
 11
920.9538855265336
 21
2060.500000000027
 31
0.0
1001
REVIT
1002
{
1070
     3
1000
923114
1002
}
  0
SPLINE
  5
B2
330
87
100
AcDbEntity
  8
M-PIPE
100
AcDbSpline
210
0.0
220
0.0
230
1.0
 70
     8
 71
     3
 72
    15
 73
    11
 74
     0
 42
0.000000001
 43
0.0000000001
 40
0.0
 40
0.0
 40
0.0
 40
0.0
 40
0.2
 40
0.4
 40
0.55
 40
0.625
 40
0.7
 40
0.775
 40
0.85
 40
1.0
 40
1.0
 40
1.0
 40
1.0
 10
949.766155577145
 20
2033.200000000044
 30
0.0
 10
949.9950004392186
 20
2033.200589266713
 30
0.0
 10
950.4455838462874
 20
2033.162828046215
 30
0.0
 10
951.0537150657837
 20
2033.005981391772
 30
0.0
 10
951.499438979323
 20
2032.809458073689
 30
0.0
 10
951.7934564816901
 20
2032.637494853011
 30
0.0
 10
952.0062027761522
 20
2032.491007645389
 30
0.0
 10
952.2072524329324
 20
2032.32828782334
 30
0.0
 10
952.4524033747489
 20
2032.091376288556
 30
0.0
 10
952.6155235907259
 20
2031.890037412145
 30
0.0
 10
952.7147071257731
 20
2031.745379364609
 30
0.0
1001
REVIT
1002
{
1070
     3
1000
923114
1002
}
  0
LINE
  5
B3
330
87
100
AcDbEntity
  8
M-PIPE
100
AcDbLine
 10
948.1398659662815
 20
2033.200000000044
 30
0.0
 11
948.1398659662815
 21
2060.500000000027
 31
0.0
1001
REVIT
1002
{
1070
     3
1000
923114
1002
}
  0
SPLINE
  5
B4
330
87
100
AcDbEntity
  8
M-PIPE
100
AcDbSpline
210
0.0
220
0.0
230
1.0
 70
     8
 71
     3
 72
    11
 73
     7
 74
     0
 42
0.000000001
 43
0.0000000001
 40
0.0
 40
0.0
 40
0.0
 40
0.0
 40
0.25
 40
0.5
 40
0.75
 40
1.0
 40
1.0
 40
1.0
 40
1.0
 10
914.3461896000983
 20
2062.726273771
 30
0.0
 10
914.5096947207211
 20
2062.924621342981
 30
0.0
 10
914.8805337228342
 20
2063.285102831209
 30
0.0
 10
915.5415092601584
 20
2063.691152271955
 30
0.0
 10
916.2747645967296
 20
2063.942914561564
 30
0.0
 10
916.7894075535931
 20
2064.000000000028
 30
0.0
 10
917.0468756419552
 20
2064.000000000028
 30
0.0
1001
REVIT
1002
{
1070
     3
1000
923114
1002
}
  0
SPLINE
  5
B5
330
87
100
AcDbEntity
  8
M-PIPE
100
AcDbSpline
210
0.0
220
0.0
230
1.0
 70
     8
 71
     3
 72
    15
 73
    11
 74
     0
 42
0.000000001
 43
0.0000000001
 40
0.0
 40
0.0
 40
0.0
 40
0.0
 40
0.1428571428571428
 40
0.2857142857142857
 40
0.4285714285714286
 40
0.5714285714285714
 40
0.6785714285714287
 40
0.7321428571428572
 40
0.7857142857142857
 40
1.0
 40
1.0
 40
1.0
 40
1.0
 10
920.9538855265336
 20
2060.500000000027
 30
0.0
 10
920.9545739358521
 20
2060.781618227395
 30
0.0
 10
920.9996490956024
 20
2061.340633724033
 30
0.0
 10
921.2007480535977
 20
2062.123143957009
 30
0.0
 10
921.5157669141898
 20
2062.797933658057
 30
0.0
 10
921.8883600954049
 20
2063.291041535631
 30
0.0
 10
922.2198168084577
 20
2063.577533149002
 30
0.0
 10
922.4669345949669
 20
2063.736150464386
 30
0.0
 10
922.8524910506884
 20
2063.929831430084
 30
0.0
 10
923.1921041284387
 20
2064.000000000028
 30
0.0
 10
923.471493491359
 20
2064.000000000028
 30
0.0
1001
REVIT
1002
{
1070
     3
1000
923114
1002
}
  0
SPLINE
  5
B6
330
87
100
AcDbEntity
  8
M-PIPE
100
AcDbSpline
210
0.0
220
0.0
230
1.0
 70
     8
 71
     3
 72
    13
 73
     9
 74
     0
 42
0.000000001
 43
0.0000000001
 40
-1.0
 40
-1.0
 40
-1.0
 40
-1.0
 40
-0.8333333333333332
 40
-0.6666666666666666
 40
-0.5
 40
-0.3333333333333333
 40
-0.1666666666666666
 40
0.0
 40
0.0
 40
0.0
 40
0.0
 10
948.1398659662815
 20
2060.500000000027
 30
0.0
 10
948.1367754143658
 20
2060.805432619126
 30
0.0
 10
948.0791467860456
 20
2061.416270018467
 30
0.0
 10
947.846589847273
 20
2062.270105953993
 30
0.0
 10
947.4525378041214
 20
2063.003306165724
 30
0.0
 10
946.934276579099
 20
2063.565911788193
 30
0.0
 10
946.3313085711602
 20
2063.919580161143
 30
0.0
 10
945.8669441687428
 20
2064.000000000028
 30
0.0
 10
945.6222579262675
 20
2064.000000000028
 30
0.0
1001
REVIT
1002
{
1070
     3
1000
923114
1002
}
  0
SPLINE
  5
B7
330
87
100
AcDbEntity
  8
M-PIPE
100
AcDbSpline
210
0.0
220
0.0
230
1.0
 70
     8
 71
     3
 72
    11
 73
     7
 74
     0
 42
0.000000001
 43
0.0000000001
 40
0.0
 40
0.0
 40
0.0
 40
0.0
 40
0.25
 40
0.5
 40
0.75
 40
1.0
 40
1.0
 40
1.0
 40
1.0
 10
954.7475616838122
 20
2062.726273771
 30
0.0
 10
954.5815223347496
 20
2062.924621342981
 30
0.0
 10
954.2142761127385
 20
2063.285102831208
 30
0.0
 10
953.5523384355945
 20
2063.691152271955
 30
0.0
 10
952.817542488149
 20
2063.942914561564
 30
0.0
 10
952.3076492534972
 20
2064.000000000028
 30
0.0
 10
952.0468756419552
 20
2064.000000000028
 30
0.0
1001
REVIT
1002
{
1070
     3
1000
923114
1002
}
  0
LINE
  5
B8
330
87
100
AcDbEntity
  8
M-PIPE
100
AcDbLine
 10
915.8886913525359
 20
2030.200000000044
 30
0.0
 11
915.8886913525359
 21
2029.200000000027
 31
0.0
1001
REVIT
1002
{
1070
     3
1000
923114
1002
}
  0
SPLINE
  5
B9
330
87
100
AcDbEntity
  8
M-PIPE
100
AcDbSpline
210
0.0
220
0.0
230
1.0
 70
     8
 71
     3
 72
    10
 73
     6
 74
     0
 42
0.000000001
 43
0.0000000001
 40
-1.0
 40
-1.0
 40
-1.0
 40
-1.0
 40
-0.6666666666666666
 40
-0.3333333333333333
 40
0.0
 40
0.0
 40
0.0
 40
0.0
 10
916.3790441581372
 20
2031.745379170311
 30
0.0
 10
916.2749440966017
 20
2031.592632039562
 30
0.0
 10
916.1008848913267
 20
2031.274381206734
 30
0.0
 10
915.9276782594805
 20
2030.749382926947
 30
0.0
 10
915.8901673388369
 20
2030.386340686504
 30
0.0
 10
915.8886913525362
 20
2030.200000000044
 30
0.0
1001
REVIT
1002
{
1070
     3
1000
923114
1002
}
  0
SPLINE
  5
BA
330
87
100
AcDbEntity
  8
M-PIPE
100
AcDbSpline
210
0.0
220
0.0
230
1.0
 70
     8
 71
     3
 72
    10
 73
     6
 74
     0
 42
0.000000001
 43
0.0000000001
 40
-1.0
 40
-1.0
 40
-1.0
 40
-1.0
 40
-0.6666666666666666
 40
-0.3333333333333333
 40
0.0
 40
0.0
 40
0.0
 40
0.0
 10
914.3461896000983
 20
2062.726273771
 30
0.0
 10
914.5282171135344
 20
2062.499419103074
 30
0.0
 10
914.9390642019081
 20
2062.031838077257
 30
0.0
 10
915.6285390116032
 20
2061.272735139279
 30
0.0
 10
916.1278478392283
 20
2060.760411573172
 30
0.0
 10
916.3790441581374
 20
2060.500000000027
 30
0.0
1001
REVIT
1002
{
1070
     3
1000
923114
1002
}
  0
SPLINE
  5
BB
330
87
100
AcDbEntity
  8
M-PIPE
100
AcDbSpline
210
0.0
220
0.0
230
1.0
 70
     8
 71
     3
 72
    10
 73
     6
 74
     0
 42
0.000000001
 43
0.0000000001
 40
-1.0
 40
-1.0
 40
-1.0
 40
-1.0
 40
-0.6666666666666666
 40
-0.3333333333333333
 40
0.0
 40
0.0
 40
0.0
 40
0.0
 10
913.5468756419552
 20
2060.500000000027
 30
0.0
 10
913.5468756419552
 20
2060.760411573172
 30
0.0
 10
913.6039515025395
 20
2061.272735139279
 30
0.0
 10
913.8631991761778
 20
2062.031838077257
 30
0.0
 10
914.1641620866622
 20
2062.499419103074
 30
0.0
 10
914.3461896000983
 20
2062.726273771
 30
0.0
1001
REVIT
1002
{
1070
     3
1000
923114
1002
}
  0
SPLINE
  5
BC
330
87
100
AcDbEntity
  8
M-PIPE
100
AcDbSpline
210
0.0
220
0.0
230
1.0
 70
     8
 71
     3
 72
    10
 73
     6
 74
     0
 42
0.000000001
 43
0.0000000001
 40
-1.0
 40
-1.0
 40
-1.0
 40
-1.0
 40
-0.6666666666666666
 40
-0.3333333333333333
 40
0.0
 40
0.0
 40
0.0
 40
0.0
 10
954.7475616838122
 20
2062.726273771
 30
0.0
 10
954.9295891972484
 20
2062.499419103074
 30
0.0
 10
955.2305521077327
 20
2062.031838077257
 30
0.0
 10
955.4897997813711
 20
2061.272735139279
 30
0.0
 10
955.5468756419552
 20
2060.760411573171
 30
0.0
 10
955.5468756419552
 20
2060.500000000027
 30
0.0
1001
REVIT
1002
{
1070
     3
1000
923114
1002
}
  0
SPLINE
  5
BD
330
87
100
AcDbEntity
  8
M-PIPE
100
AcDbSpline
210
0.0
220
0.0
230
1.0
 70
     8
 71
     3
 72
    10
 73
     6
 74
     0
 42
0.000000001
 43
0.0000000001
 40
-1.0
 40
-1.0
 40
-1.0
 40
-1.0
 40
-0.6666666666666666
 40
-0.3333333333333333
 40
0.0
 40
0.0
 40
0.0
 40
0.0
 10
952.7147071257731
 20
2060.500000000027
 30
0.0
 10
952.9659034446822
 20
2060.760411573171
 30
0.0
 10
953.4652122723072
 20
2061.272735139279
 30
0.0
 10
954.1546870820024
 20
2062.031838077257
 30
0.0
 10
954.5655341703762
 20
2062.499419103074
 30
0.0
 10
954.7475616838122
 20
2062.726273771
 30
0.0
1001
REVIT
1002
{
1070
     3
1000
923114
1002
}
  0
SPLINE
  5
BE
330
87
100
AcDbEntity
  8
M-PIPE
100
AcDbSpline
210
0.0
220
0.0
230
1.0
 70
     8
 71
     3
 72
    10
 73
     6
 74
     0
 42
0.000000001
 43
0.0000000001
 40
-1.0
 40
-1.0
 40
-1.0
 40
-1.0
 40
-0.6666666666666666
 40
-0.3333333333333333
 40
0.0
 40
0.0
 40
0.0
 40
0.0
 10
953.2050600619024
 20
2030.200000000045
 30
0.0
 10
953.2035840749259
 20
2030.386340713284
 30
0.0
 10
953.166073144234
 20
2030.749383003885
 30
0.0
 10
952.9928664639685
 20
2031.274381353448
 30
0.0
 10
952.8188072139712
 20
2031.59263221966
 30
0.0
 10
952.7147071257731
 20
2031.745379364609
 30
0.0
1001
REVIT
1002
{
1070
     3
1000
923114
1002
}
  0
LINE
  5
BF
330
87
100
AcDbEntity
  8
M-PIPE
100
AcDbLine
 10
953.2050600619024
 20
2029.200000000027
 30
0.0
 11
953.2050600619024
 21
2030.200000000045
 31
0.0
1001
REVIT
1002
{
1070
     3
1000
923114
1002
}
  0
LINE
  5
C0
330
87
100
AcDbEntity
  8
P-SANR-FIXT
100
AcDbLine
 10
918.0468756419577
 20
2028.285925996639
 30
0.0
 11
918.0468756419577
 21
2026.999999999996
 31
0.0
  0
LINE
  5
C1
330
87
100
AcDbEntity
  8
P-SANR-FIXT
100
AcDbLine
 10
951.0468756419577
 20
2026.999999999996
 30
0.0
 11
951.0468756419577
 21
2028.285925996639
 31
0.0
  0
LINE
  5
C2
330
87
100
AcDbEntity
  8
P-SANR-FIXT
100
AcDbLine
 10
918.6869171496121
 20
2029.200000000028
 30
0.0
 11
918.0468756419577
 21
2028.285925996639
 31
0.0
  0
LINE
  5
C3
330
87
100
AcDbEntity
  8
P-SANR-FIXT
100
AcDbLine
 10
951.0468756419578
 20
2028.285925996639
 30
0.0
 11
950.4068341343034
 21
2029.200000000028
 31
0.0
  0
LINE
  5
C4
330
87
100
AcDbEntity
  8
P-SANR-FIXT
100
AcDbLine
 10
951.0468756419557
 20
2028.285925996638
 30
0.0
 11
918.0468756419561
 21
2028.285925996638
 31
0.0
  0
ARC
  5
C5
330
87
100
AcDbEntity
  8
P-SANR-FIXT
100
AcDbCircle
 10
918.546875641956
 20
1999.999999999995
 30
0.0
 40
8.999999999999886
100
AcDbArc
 50
332.7339555492323
 51
0.0
  0
ARC
  5
C6
330
87
100
AcDbEntity
  8
P-SANR-FIXT
100
AcDbCircle
 10
918.546875641956
 20
1999.999999999995
 30
0.0
 40
8.999999999999918
100
AcDbArc
 50
272.7339555492378
 51
327.2660444507619
  0
ARC
  5
C7
330
87
100
AcDbEntity
  8
P-SANR-FIXT
100
AcDbCircle
 10
918.546875641956
 20
1999.999999999995
 30
0.0
 40
8.999999999999994
100
AcDbArc
 50
212.7339555492419
 51
267.266044450758
  0
ARC
  5
C8
330
87
100
AcDbEntity
  8
P-SANR-FIXT
100
AcDbCircle
 10
918.546875641956
 20
1999.999999999995
 30
0.0
 40
8.999999999999946
100
AcDbArc
 50
180.0
 51
207.2660444507589
  0
ARC
  5
C9
330
87
100
AcDbEntity
  8
P-SANR-FIXT
100
AcDbCircle
 10
918.546875641956
 20
1999.999999999995
 30
0.0
 40
8.999999999999959
100
AcDbArc
 50
92.73395554923657
 51
147.2660444507642
  0
ARC
  5
CA
330
87
100
AcDbEntity
  8
P-SANR-FIXT
100
AcDbCircle
 10
918.546875641956
 20
1999.999999999995
 30
0.0
 40
8.999999999999795
100
AcDbArc
 50
32.73395554923082
 51
87.26604445076985
  0
ARC
  5
CB
330
87
100
AcDbEntity
  8
P-SANR-FIXT
100
AcDbCircle
 10
918.546875641956
 20
1999.999999999995
 30
0.0
 40
9.0
100
AcDbArc
 50
152.733955549242
 51
180.0
  0
ARC
  5
CC
330
87
100
AcDbEntity
  8
P-SANR-FIXT
100
AcDbCircle
 10
918.546875641956
 20
1999.999999999995
 30
0.0
 40
8.999999999999912
100
AcDbArc
 50
0.0
 51
27.26604445076885
  0
ARC
  5
CD
330
87
100
AcDbEntity
  8
P-SANR-FIXT
100
AcDbCircle
 10
918.5468756419556
 20
1999.999999999994
 30
0.0
 40
9.000000000013191
100
AcDbArc
 50
147.2660444509294
 51
152.7339555490709
  0
LINE
  5
CE
330
87
100
AcDbEntity
  8
P-SANR-FIXT
100
AcDbLine
 10
910.5468756419579
 20
2004.123105625646
 30
0.0
 11
910.5468756419579
 21
1995.876894374343
 31
0.0
  0
ARC
  5
CF
330
87
100
AcDbEntity
  8
P-SANR-FIXT
100
AcDbCircle
 10
918.5468756419556
 20
1999.999999999994
 30
0.0
 40
9.000000000013239
100
AcDbArc
 50
207.2660444509279
 51
212.7339555490705
  0
LINE
  5
D0
330
87
100
AcDbEntity
  8
P-SANR-FIXT
100
AcDbLine
 10
910.9761614276564
 20
1995.133349582546
 30
0.0
 11
918.1175898562571
 21
1991.010243956895
 31
0.0
  0
ARC
  5
D1
330
87
100
AcDbEntity
  8
P-SANR-FIXT
100
AcDbCircle
 10
918.5468756419556
 20
1999.999999999994
 30
0.0
 40
9.000000000013288
100
AcDbArc
 50
267.266044450928
 51
272.7339555490721
  0
LINE
  5
D2
330
87
100
AcDbEntity
  8
P-SANR-FIXT
100
AcDbLine
 10
918.9761614276543
 20
1991.010243956895
 30
0.0
 11
926.117589856255
 21
1995.133349582546
 31
0.0
  0
ARC
  5
D3
330
87
100
AcDbEntity
  8
P-SANR-FIXT
100
AcDbCircle
 10
918.5468756419556
 20
1999.999999999994
 30
0.0
 40
9.000000000013409
100
AcDbArc
 50
327.2660444509271
 51
332.7339555490713
  0
LINE
  5
D4
330
87
100
AcDbEntity
  8
P-SANR-FIXT
100
AcDbLine
 10
926.5468756419535
 20
1995.876894374343
 30
0.0
 11
926.5468756419535
 21
2004.123105625646
 31
0.0
  0
ARC
  5
D5
330
87
100
AcDbEntity
  8
P-SANR-FIXT
100
AcDbCircle
 10
918.5468756419556
 20
1999.999999999994
 30
0.0
 40
9.000000000013336
100
AcDbArc
 50
27.26604445092888
 51
32.73395554907192
  0
LINE
  5
D6
330
87
100
AcDbEntity
  8
P-SANR-FIXT
100
AcDbLine
 10
926.1175898562548
 20
2004.866650417443
 30
0.0
 11
918.9761614276543
 21
2008.989756043094
 31
0.0
  0
ARC
  5
D7
330
87
100
AcDbEntity
  8
P-SANR-FIXT
100
AcDbCircle
 10
918.5468756419556
 20
1999.999999999994
 30
0.0
 40
9.00000000001318
100
AcDbArc
 50
87.26604445092753
 51
92.73395554907175
  0
LINE
  5
D8
330
87
100
AcDbEntity
  8
P-SANR-FIXT
100
AcDbLine
 10
918.1175898562569
 20
2008.989756043094
 30
0.0
 11
910.9761614276564
 21
2004.866650417443
 31
0.0
  0
LINE
  5
D9
330
87
100
AcDbEntity
  8
P-SANR-FIXT
100
AcDbLine
 10
958.1175898562493
 20
2004.866650417443
 30
0.0
 11
950.9761614276486
 21
2008.989756043094
 31
0.0
  0
ARC
  5
DA
330
87
100
AcDbEntity
  8
P-SANR-FIXT
100
AcDbCircle
 10
950.5468756419501
 20
1999.999999999994
 30
0.0
 40
9.000000000013294
100
AcDbArc
 50
87.26604445092759
 51
92.73395554907098
  0
LINE
  5
DB
330
87
100
AcDbEntity
  8
P-SANR-FIXT
100
AcDbLine
 10
950.1175898562516
 20
2008.989756043094
 30
0.0
 11
942.9761614276509
 21
2004.866650417443
 31
0.0
  0
ARC
  5
DC
330
87
100
AcDbEntity
  8
P-SANR-FIXT
100
AcDbCircle
 10
950.5468756419501
 20
1999.999999999994
 30
0.0
 40
9.000000000013217
100
AcDbArc
 50
147.2660444509281
 51
152.7339555490712
  0
LINE
  5
DD
330
87
100
AcDbEntity
  8
P-SANR-FIXT
100
AcDbLine
 10
942.5468756419522
 20
2004.123105625646
 30
0.0
 11
942.5468756419522
 21
1995.876894374343
 31
0.0
  0
ARC
  5
DE
330
87
100
AcDbEntity
  8
P-SANR-FIXT
100
AcDbCircle
 10
950.5468756419501
 20
1999.999999999994
 30
0.0
 40
9.000000000013336
100
AcDbArc
 50
207.2660444509275
 51
212.7339555490708
  0
LINE
  5
DF
330
87
100
AcDbEntity
  8
P-SANR-FIXT
100
AcDbLine
 10
942.9761614276509
 20
1995.133349582546
 30
0.0
 11
950.1175898562516
 21
1991.010243956895
 31
0.0
  0
ARC
  5
E0
330
87
100
AcDbEntity
  8
P-SANR-FIXT
100
AcDbCircle
 10
950.5468756419501
 20
1999.999999999994
 30
0.0
 40
9.000000000013288
100
AcDbArc
 50
267.266044450928
 51
272.7339555490706
  0
LINE
  5
E1
330
87
100
AcDbEntity
  8
P-SANR-FIXT
100
AcDbLine
 10
950.9761614276486
 20
1991.010243956895
 30
0.0
 11
958.1175898562493
 21
1995.133349582546
 31
0.0
  0
ARC
  5
E2
330
87
100
AcDbEntity
  8
P-SANR-FIXT
100
AcDbCircle
 10
950.5468756419501
 20
1999.999999999994
 30
0.0
 40
9.000000000013313
100
AcDbArc
 50
327.266044450927
 51
332.7339555490712
  0
LINE
  5
E3
330
87
100
AcDbEntity
  8
P-SANR-FIXT
100
AcDbLine
 10
958.5468756419478
 20
1995.876894374343
 30
0.0
 11
958.5468756419478
 21
2004.123105625646
 31
0.0
  0
ARC
  5
E4
330
87
100
AcDbEntity
  8
P-SANR-FIXT
100
AcDbCircle
 10
950.5468756419501
 20
1999.999999999994
 30
0.0
 40
9.000000000013184
100
AcDbArc
 50
27.26604445092675
 51
32.73395554906939
  0
ARC
  5
E5
330
87
100
AcDbEntity
  8
P-SANR-FIXT
100
AcDbCircle
 10
950.5468756419535
 20
1999.999999999995
 30
0.0
 40
8.999999999999772
100
AcDbArc
 50
332.7339555491898
 51
0.0
  0
ARC
  5
E6
330
87
100
AcDbEntity
  8
P-SANR-FIXT
100
AcDbCircle
 10
950.5468756419535
 20
1999.999999999995
 30
0.0
 40
8.999999999999843
100
AcDbArc
 50
272.733955549216
 51
327.2660444509132
  0
ARC
  5
E7
330
87
100
AcDbEntity
  8
P-SANR-FIXT
100
AcDbCircle
 10
950.5468756419535
 20
1999.999999999995
 30
0.0
 40
8.999999999999905
100
AcDbArc
 50
212.7339555492627
 51
267.2660444509065
  0
ARC
  5
E8
330
87
100
AcDbEntity
  8
P-SANR-FIXT
100
AcDbCircle
 10
950.5468756419535
 20
1999.999999999995
 30
0.0
 40
9.0
100
AcDbArc
 50
180.0
 51
207.2660444509194
  0
ARC
  5
E9
330
87
100
AcDbEntity
  8
P-SANR-FIXT
100
AcDbCircle
 10
950.5468756419535
 20
1999.999999999995
 30
0.0
 40
9.0
100
AcDbArc
 50
152.7339555492831
 51
180.0
  0
ARC
  5
EA
330
87
100
AcDbEntity
  8
P-SANR-FIXT
100
AcDbCircle
 10
950.5468756419535
 20
1999.999999999995
 30
0.0
 40
8.999999999999884
100
AcDbArc
 50
92.73395554925771
 51
147.2660444509415
  0
ARC
  5
EB
330
87
100
AcDbEntity
  8
P-SANR-FIXT
100
AcDbCircle
 10
950.5468756419535
 20
1999.999999999995
 30
0.0
 40
8.999999999999813
100
AcDbArc
 50
32.73395554908107
 51
87.26604445094956
  0
ARC
  5
EC
330
87
100
AcDbEntity
  8
P-SANR-FIXT
100
AcDbCircle
 10
950.5468756419535
 20
1999.999999999995
 30
0.0
 40
8.99999999999988
100
AcDbArc
 50
0.0
 51
27.26604445093571
  0
ARC
  5
ED
330
87
100
AcDbEntity
  8
P-SANR-FIXT
100
AcDbCircle
 10
950.5468756419547
 20
2000.000000000008
 30
0.0
 40
8.999999999999836
100
AcDbArc
 50
80.71449854044892
 51
82.5000000000003
  0
ARC
  5
EE
330
87
100
AcDbEntity
  8
P-SANR-FIXT
100
AcDbCircle
 10
950.5468756419547
 20
2000.000000000008
 30
0.0
 40
8.999999999999886
100
AcDbArc
 50
74.09919291462687
 51
75.00000000000015
  0
ARC
  5
EF
330
87
100
AcDbEntity
  8
P-SANR-FIXT
100
AcDbCircle
 10
950.5468756419547
 20
2000.000000000008
 30
0.0
 40
8.999999999999873
100
AcDbArc
 50
60.00000000000016
 51
60.62384957458193
  0
ARC
  5
F0
330
87
100
AcDbEntity
  8
P-SANR-FIXT
100
AcDbCircle
 10
950.5468756419547
 20
2000.000000000008
 30
0.0
 40
8.999999999999998
100
AcDbArc
 50
52.50000000000033
 51
53.73917521513819
  0
ARC
  5
F1
330
87
100
AcDbEntity
  8
P-SANR-FIXT
100
AcDbCircle
 10
950.5468756419547
 20
2000.000000000008
 30
0.0
 40
9.0
100
AcDbArc
 50
45.00000000000154
 51
46.76861730127352
  0
ARC
  5
F2
330
87
100
AcDbEntity
  8
P-SANR-FIXT
100
AcDbCircle
 10
950.5468756419547
 20
2000.000000000008
 30
0.0
 40
9.000000000000003
100
AcDbArc
 50
37.5000000000021
 51
39.92340742116842
  0
ARC
  5
F3
330
87
100
AcDbEntity
  8
P-SANR-FIXT
100
AcDbCircle
 10
950.5468756419547
 20
2000.000000000008
 30
0.0
 40
8.999999999999927
100
AcDbArc
 50
21.56317284144019
 51
22.50000000000248
  0
LINE
  5
F4
330
87
100
AcDbEntity
  8
P-SANR-FIXT
100
AcDbLine
 10
959.236380374917
 20
2002.343609928265
 30
0.0
 11
959.2402080785563
 21
2002.329371405931
 31
0.0
  0
ARC
  5
F5
330
87
100
AcDbEntity
  8
P-SANR-FIXT
100
AcDbCircle
 10
950.5468756419547
 20
2000.000000000008
 30
0.0
 40
9.000000000000049
100
AcDbArc
 50
7.500000000000773
 51
7.915284120590995
  0
ARC
  5
F6
330
87
100
AcDbEntity
  8
P-SANR-FIXT
100
AcDbCircle
 10
950.5468756419547
 20
2000.000000000008
 30
0.0
 40
8.999999999999822
100
AcDbArc
 50
352.1948676307323
 51
352.5000000000007
  0
ARC
  5
F7
330
87
100
AcDbEntity
  8
P-SANR-FIXT
100
AcDbCircle
 10
950.5468756419547
 20
2000.000000000008
 30
0.0
 40
8.99999999999988
100
AcDbArc
 50
337.5000000000011
 51
338.543992129953
  0
ARC
  5
F8
330
87
100
AcDbEntity
  8
P-SANR-FIXT
100
AcDbCircle
 10
950.5468756419547
 20
2000.000000000008
 30
0.0
 40
8.99999999999985
100
AcDbArc
 50
320.1339144129424
 51
322.5000000000002
  0
ARC
  5
F9
330
87
100
AcDbEntity
  8
P-SANR-FIXT
100
AcDbCircle
 10
950.5468756419547
 20
2000.000000000008
 30
0.0
 40
8.999999999999911
100
AcDbArc
 50
313.3246280063816
 51
315.0000000000002
  0
ARC
  5
FA
330
87
100
AcDbEntity
  8
P-SANR-FIXT
100
AcDbCircle
 10
950.5468756419547
 20
2000.000000000008
 30
0.0
 40
8.999999999999808
100
AcDbArc
 50
306.377382504391
 51
307.5000000000005
  0
ARC
  5
FB
330
87
100
AcDbEntity
  8
P-SANR-FIXT
100
AcDbCircle
 10
950.5468756419547
 20
2000.000000000008
 30
0.0
 40
8.999999999999809
100
AcDbArc
 50
299.5006813232669
 51
300.000000000001
  0
ARC
  5
FC
330
87
100
AcDbEntity
  8
P-SANR-FIXT
100
AcDbCircle
 10
950.5468756419547
 20
2000.000000000008
 30
0.0
 40
8.999999999999829
100
AcDbArc
 50
292.5000000000005
 51
292.7063268958802
  0
ARC
  5
FD
330
87
100
AcDbEntity
  8
P-SANR-FIXT
100
AcDbCircle
 10
950.5468756419547
 20
2000.000000000008
 30
0.0
 40
8.999999999999905
100
AcDbArc
 50
285.0000000000002
 51
285.9984639042123
  0
ARC
  5
FE
330
87
100
AcDbEntity
  8
P-SANR-FIXT
100
AcDbCircle
 10
950.5468756419547
 20
2000.000000000008
 30
0.0
 40
8.999999999999868
100
AcDbArc
 50
277.5000000000001
 51
279.3419473792422
  0
ARC
  5
FF
330
87
100
AcDbEntity
  8
P-SANR-FIXT
100
AcDbCircle
 10
950.5468756419547
 20
2000.000000000008
 30
0.0
 40
8.99999999999995
100
AcDbArc
 50
260.5749949850951
 51
262.5
  0
ARC
  5
100
330
87
100
AcDbEntity
  8
P-SANR-FIXT
100
AcDbCircle
 10
950.5468756419547
 20
2000.000000000008
 30
0.0
 40
8.999999999999886
100
AcDbArc
 50
253.857895288189
 51
254.9999999999997
  0
ARC
  5
101
330
87
100
AcDbEntity
  8
P-SANR-FIXT
100
AcDbCircle
 10
950.5468756419547
 20
2000.000000000008
 30
0.0
 40
8.999999999999884
100
AcDbArc
 50
247.111808963185
 51
247.4999999999997
  0
ARC
  5
102
330
87
100
AcDbEntity
  8
P-SANR-FIXT
100
AcDbCircle
 10
950.5468756419547
 20
2000.000000000008
 30
0.0
 40
8.99999999999993
100
AcDbArc
 50
239.9999999999997
 51
240.3163270416467
  0
ARC
  5
103
330
87
100
AcDbEntity
  8
P-SANR-FIXT
100
AcDbCircle
 10
950.5468756419547
 20
2000.000000000008
 30
0.0
 40
8.999999999999946
100
AcDbArc
 50
232.5
 51
233.4514007565048
  0
ARC
  5
104
330
87
100
AcDbEntity
  8
P-SANR-FIXT
100
AcDbCircle
 10
950.5468756419547
 20
2000.000000000008
 30
0.0
 40
8.99999999999985
100
AcDbArc
 50
225.0000000000001
 51
226.5384058718299
  0
ARC
  5
105
330
87
100
AcDbEntity
  8
P-SANR-FIXT
100
AcDbCircle
 10
950.5468756419547
 20
2000.000000000008
 30
0.0
 40
8.999999999999879
100
AcDbArc
 50
217.4999999999994
 51
219.781637379238
  0
ARC
  5
106
330
87
100
AcDbEntity
  8
P-SANR-FIXT
100
AcDbCircle
 10
950.5468756419547
 20
2000.000000000008
 30
0.0
 40
8.999999999999779
100
AcDbArc
 50
201.5001410901572
 51
202.4999999999993
  0
ARC
  5
107
330
87
100
AcDbEntity
  8
P-SANR-FIXT
100
AcDbCircle
 10
950.5468756419547
 20
2000.000000000008
 30
0.0
 40
8.999999999999877
100
AcDbArc
 50
187.4999999999997
 51
187.8504891318734
  0
ARC
  5
108
330
87
100
AcDbEntity
  8
P-SANR-FIXT
100
AcDbCircle
 10
950.5468756419547
 20
2000.000000000008
 30
0.0
 40
8.99999999999995
100
AcDbArc
 50
172.233587826609
 51
172.4999999999998
  0
ARC
  5
109
330
87
100
AcDbEntity
  8
P-SANR-FIXT
100
AcDbCircle
 10
950.5468756419547
 20
2000.000000000008
 30
0.0
 40
8.999999999999847
100
AcDbArc
 50
164.9999999999999
 51
165.1029221418611
  0
ARC
  5
10A
330
87
100
AcDbEntity
  8
P-SANR-FIXT
100
AcDbCircle
 10
950.5468756419547
 20
2000.000000000008
 30
0.0
 40
8.999999999999861
100
AcDbArc
 50
157.5000000000007
 51
158.5816748010078
  0
ARC
  5
10B
330
87
100
AcDbEntity
  8
P-SANR-FIXT
100
AcDbCircle
 10
950.5468756419547
 20
2000.000000000008
 30
0.0
 40
8.999999999999829
100
AcDbArc
 50
140.0067965027005
 51
142.4999999999994
  0
ARC
  5
10C
330
87
100
AcDbEntity
  8
P-SANR-FIXT
100
AcDbCircle
 10
950.5468756419547
 20
2000.000000000008
 30
0.0
 40
8.999999999999911
100
AcDbArc
 50
133.1175443691554
 51
135.0000000000005
  0
ARC
  5
10D
330
87
100
AcDbEntity
  8
P-SANR-FIXT
100
AcDbCircle
 10
950.5468756419547
 20
2000.000000000008
 30
0.0
 40
8.999999999999829
100
AcDbArc
 50
126.1185314248137
 51
127.5000000000003
  0
ARC
  5
10E
330
87
100
AcDbEntity
  8
P-SANR-FIXT
100
AcDbCircle
 10
950.5468756419547
 20
2000.000000000008
 30
0.0
 40
8.999999999999852
100
AcDbArc
 50
119.2241701945761
 51
120.0000000000002
  0
ARC
  5
10F
330
87
100
AcDbEntity
  8
P-SANR-FIXT
100
AcDbCircle
 10
950.5468756419547
 20
2000.000000000008
 30
0.0
 40
8.999999999999928
100
AcDbArc
 50
105.0000000000008
 51
105.7817277001098
  0
ARC
  5
110
330
87
100
AcDbEntity
  8
P-SANR-FIXT
100
AcDbCircle
 10
950.5468756419547
 20
2000.000000000008
 30
0.0
 40
8.999999999999836
100
AcDbArc
 50
97.49999999999962
 51
99.21669747127165
  0
ARC
  5
111
330
87
100
AcDbEntity
  8
P-SANR-FIXT
100
AcDbCircle
 10
918.5468756419567
 20
2000.000000000008
 30
0.0
 40
8.999999999999852
100
AcDbArc
 50
260.540741236363
 51
262.4999999999992
  0
ARC
  5
112
330
87
100
AcDbEntity
  8
P-SANR-FIXT
100
AcDbCircle
 10
918.5468756419567
 20
2000.000000000008
 30
0.0
 40
8.999999999999886
100
AcDbArc
 50
253.7986763016166
 51
254.9999999999997
  0
ARC
  5
113
330
87
100
AcDbEntity
  8
P-SANR-FIXT
100
AcDbCircle
 10
918.5468756419567
 20
2000.000000000008
 30
0.0
 40
8.999999999999927
100
AcDbArc
 50
247.0368627005827
 51
247.4999999999992
  0
ARC
  5
114
330
87
100
AcDbEntity
  8
P-SANR-FIXT
100
AcDbCircle
 10
918.5468756419567
 20
2000.000000000008
 30
0.0
 40
8.99999999999988
100
AcDbArc
 50
239.9999999999996
 51
240.2409466391677
  0
ARC
  5
115
330
87
100
AcDbEntity
  8
P-SANR-FIXT
100
AcDbCircle
 10
918.5468756419567
 20
2000.000000000008
 30
0.0
 40
8.99999999999985
100
AcDbArc
 50
232.4999999999984
 51
233.3808911886432
  0
ARC
  5
116
330
87
100
AcDbEntity
  8
P-SANR-FIXT
100
AcDbCircle
 10
918.5468756419567
 20
2000.000000000008
 30
0.0
 40
8.999999999999907
100
AcDbArc
 50
224.9999999999996
 51
226.4820031993351
  0
ARC
  5
117
330
87
100
AcDbEntity
  8
P-SANR-FIXT
100
AcDbCircle
 10
918.5468756419567
 20
2000.000000000008
 30
0.0
 40
8.999999999999934
100
AcDbArc
 50
217.4999999999992
 51
219.7467748571001
  0
ARC
  5
118
330
87
100
AcDbEntity
  8
P-SANR-FIXT
100
AcDbCircle
 10
918.5468756419567
 20
2000.000000000008
 30
0.0
 40
8.999999999999927
100
AcDbArc
 50
200.8019633294555
 51
202.4999999999982
  0
ARC
  5
119
330
87
100
AcDbEntity
  8
P-SANR-FIXT
100
AcDbCircle
 10
918.5468756419567
 20
2000.000000000008
 30
0.0
 40
8.999999999999886
100
AcDbArc
 50
194.0737121533219
 51
194.9999999999987
  0
ARC
  5
11A
330
87
100
AcDbEntity
  8
P-SANR-FIXT
100
AcDbCircle
 10
918.5468756419567
 20
2000.000000000008
 30
0.0
 40
8.999999999999836
100
AcDbArc
 50
187.1402767933805
 51
187.4999999999984
  0
ARC
  5
11B
330
87
100
AcDbEntity
  8
P-SANR-FIXT
100
AcDbCircle
 10
918.5468756419567
 20
2000.000000000008
 30
0.0
 40
8.999999999999888
100
AcDbArc
 50
172.4999999999996
 51
172.8597232067852
  0
ARC
  5
11C
330
87
100
AcDbEntity
  8
P-SANR-FIXT
100
AcDbCircle
 10
918.5468756419567
 20
2000.000000000008
 30
0.0
 40
8.999999999999916
100
AcDbArc
 50
164.9999999999994
 51
165.9262878468465
  0
ARC
  5
11D
330
87
100
AcDbEntity
  8
P-SANR-FIXT
100
AcDbCircle
 10
918.5468756419567
 20
2000.000000000008
 30
0.0
 40
8.999999999999854
100
AcDbArc
 50
157.5000000000006
 51
159.1980366707195
  0
ARC
  5
11E
330
87
100
AcDbEntity
  8
P-SANR-FIXT
100
AcDbCircle
 10
918.5468756419567
 20
2000.000000000008
 30
0.0
 40
8.999999999999918
100
AcDbArc
 50
140.3310952176888
 51
142.4999999999996
  0
ARC
  5
11F
330
87
100
AcDbEntity
  8
P-SANR-FIXT
100
AcDbCircle
 10
918.5468756419567
 20
2000.000000000008
 30
0.0
 40
8.999999999999831
100
AcDbArc
 50
133.6436833322704
 51
135.0000000000002
  0
ARC
  5
120
330
87
100
AcDbEntity
  8
P-SANR-FIXT
100
AcDbCircle
 10
918.5468756419567
 20
2000.000000000008
 30
0.0
 40
8.999999999999987
100
AcDbArc
 50
126.7762358164816
 51
127.5000000000004
  0
ARC
  5
121
330
87
100
AcDbEntity
  8
P-SANR-FIXT
100
AcDbCircle
 10
918.5468756419567
 20
2000.000000000008
 30
0.0
 40
8.999999999999928
100
AcDbArc
 50
112.5000000000009
 51
113.1302608327647
  0
ARC
  5
122
330
87
100
AcDbEntity
  8
P-SANR-FIXT
100
AcDbCircle
 10
918.5468756419567
 20
2000.000000000008
 30
0.0
 40
8.999999999999891
100
AcDbArc
 50
105.0
 51
106.3334288344412
  0
ARC
  5
123
330
87
100
AcDbEntity
  8
P-SANR-FIXT
100
AcDbCircle
 10
918.5468756419567
 20
2000.000000000008
 30
0.0
 40
8.999999999999811
100
AcDbArc
 50
97.50000000000035
 51
99.53569601624096
  0
ARC
  5
124
330
87
100
AcDbEntity
  8
P-SANR-FIXT
100
AcDbCircle
 10
918.5468756419567
 20
2000.000000000008
 30
0.0
 40
8.999999999999964
100
AcDbArc
 50
80.56108312836245
 51
82.49999999999969
  0
ARC
  5
125
330
87
100
AcDbEntity
  8
P-SANR-FIXT
100
AcDbCircle
 10
918.5468756419567
 20
2000.000000000008
 30
0.0
 40
8.999999999999996
100
AcDbArc
 50
73.83384261962945
 51
75.00000000000034
  0
ARC
  5
126
330
87
100
AcDbEntity
  8
P-SANR-FIXT
100
AcDbCircle
 10
918.5468756419567
 20
2000.000000000008
 30
0.0
 40
8.999999999999989
100
AcDbArc
 50
67.08136623139913
 51
67.50000000000061
  0
ARC
  5
127
330
87
100
AcDbEntity
  8
P-SANR-FIXT
100
AcDbCircle
 10
918.5468756419567
 20
2000.000000000008
 30
0.0
 40
8.999999999999886
100
AcDbArc
 50
60.00000000000078
 51
60.28570581265466
  0
ARC
  5
128
330
87
100
AcDbEntity
  8
P-SANR-FIXT
100
AcDbCircle
 10
918.5468756419567
 20
2000.000000000008
 30
0.0
 40
8.999999999999849
100
AcDbArc
 50
52.49999999999977
 51
53.42275673692498
  0
ARC
  5
129
330
87
100
AcDbEntity
  8
P-SANR-FIXT
100
AcDbCircle
 10
918.5468756419567
 20
2000.000000000008
 30
0.0
 40
8.999999999999968
100
AcDbArc
 50
45.00000000000175
 51
46.51549254347841
  0
ARC
  5
12A
330
87
100
AcDbEntity
  8
P-SANR-FIXT
100
AcDbCircle
 10
918.5468756419567
 20
2000.000000000008
 30
0.0
 40
8.999999999999872
100
AcDbArc
 50
37.50000000000135
 51
39.76748076027457
  0
ARC
  5
12B
330
87
100
AcDbEntity
  8
P-SANR-FIXT
100
AcDbCircle
 10
918.5468756419567
 20
2000.000000000008
 30
0.0
 40
8.999999999999989
100
AcDbArc
 50
20.72960064548759
 51
22.50000000000007
  0
ARC
  5
12C
330
87
100
AcDbEntity
  8
P-SANR-FIXT
100
AcDbCircle
 10
918.5468756419567
 20
2000.000000000008
 30
0.0
 40
8.999999999999886
100
AcDbArc
 50
13.97707188065367
 51
15.00000000000073
  0
ARC
  5
12D
330
87
100
AcDbEntity
  8
P-SANR-FIXT
100
AcDbCircle
 10
918.5468756419567
 20
2000.000000000008
 30
0.0
 40
8.999999999999964
100
AcDbArc
 50
7.067414867338722
 51
7.500000000000427
  0
ARC
  5
12E
330
87
100
AcDbEntity
  8
P-SANR-FIXT
100
AcDbCircle
 10
918.5468756419567
 20
2000.000000000008
 30
0.0
 40
8.999999999999911
100
AcDbArc
 50
352.5000000000006
 51
352.9451072696121
  0
ARC
  5
12F
330
87
100
AcDbEntity
  8
P-SANR-FIXT
100
AcDbCircle
 10
918.5468756419567
 20
2000.000000000008
 30
0.0
 40
8.999999999999907
100
AcDbArc
 50
345.0000000000002
 51
346.0395394169605
  0
ARC
  5
130
330
87
100
AcDbEntity
  8
P-SANR-FIXT
100
AcDbCircle
 10
918.5468756419567
 20
2000.000000000008
 30
0.0
 40
8.999999999999934
100
AcDbArc
 50
337.5000000000007
 51
339.2828380557548
  0
ARC
  5
131
330
87
100
AcDbEntity
  8
P-SANR-FIXT
100
AcDbCircle
 10
918.5468756419567
 20
2000.000000000008
 30
0.0
 40
8.999999999999918
100
AcDbArc
 50
320.5736014474382
 51
322.5
  0
ARC
  5
132
330
87
100
AcDbEntity
  8
P-SANR-FIXT
100
AcDbCircle
 10
918.5468756419567
 20
2000.000000000008
 30
0.0
 40
8.999999999999992
100
AcDbArc
 50
314.0324878330797
 51
314.9999999999999
  0
ARC
  5
133
330
87
100
AcDbEntity
  8
P-SANR-FIXT
100
AcDbCircle
 10
918.5468756419567
 20
2000.000000000008
 30
0.0
 40
8.999999999999829
100
AcDbArc
 50
307.2623391261057
 51
307.4999999999999
  0
ARC
  5
134
330
87
100
AcDbEntity
  8
P-SANR-FIXT
100
AcDbCircle
 10
918.5468756419567
 20
2000.000000000008
 30
0.0
 40
8.999999999999907
100
AcDbArc
 50
300.0
 51
300.4824933153522
  0
ARC
  5
135
330
87
100
AcDbEntity
  8
P-SANR-FIXT
100
AcDbCircle
 10
918.5468756419567
 20
2000.000000000008
 30
0.0
 40
8.999999999999966
100
AcDbArc
 50
292.4999999999991
 51
293.6482575945401
  0
ARC
  5
136
330
87
100
AcDbEntity
  8
P-SANR-FIXT
100
AcDbCircle
 10
918.5468756419567
 20
2000.000000000008
 30
0.0
 40
8.999999999999868
100
AcDbArc
 50
284.9999999999997
 51
286.7433493555038
  0
ARC
  5
137
330
87
100
AcDbEntity
  8
P-SANR-FIXT
100
AcDbCircle
 10
918.5468756419567
 20
2000.000000000008
 30
0.0
 40
8.999999999999898
100
AcDbArc
 50
277.5000000000001
 51
279.7730968284961
  0
LINE
  5
138
330
87
100
AcDbEntity
  8
P-SANR-FIXT
100
AcDbLine
 10
897.0468756419579
 20
1982.999999999996
 30
0.0
 11
898.1438411534183
 21
1981.099999999996
 31
0.0
  0
LINE
  5
139
330
87
100
AcDbEntity
  8
P-SANR-FIXT
100
AcDbLine
 10
898.1438411534183
 20
2018.899999999996
 30
0.0
 11
897.0468756419579
 21
2016.999999999995
 31
0.0
  0
LINE
  5
13A
330
87
100
AcDbEntity
  8
P-SANR-FIXT
100
AcDbLine
 10
906.0468756419577
 20
1981.099999999996
 30
0.0
 11
907.4325162880128
 21
1983.499999999995
 31
0.0
  0
LINE
  5
13B
330
87
100
AcDbEntity
  8
P-SANR-FIXT
100
AcDbLine
 10
907.4325162880128
 20
2016.499999999996
 30
0.0
 11
906.0468756419579
 21
2018.899999999996
 31
0.0
  0
LWPOLYLINE
  5
13C
330
87
100
AcDbEntity
  8
P-SANR-FIXT
100
AcDbPolyline
 90
       28
 70
   128
 43
0.0
 10
907.4325162880128
 20
2016.499999999996
 10
907.4738910781034
 20
2016.431536334763
 10
907.5179705891635
 20
2016.364781983468
 10
907.5646843033787
 20
2016.299843738832
 10
907.6139574887712
 20
2016.236825488194
 10
907.6657113187557
 20
2016.175828047312
 10
907.7198629982442
 20
2016.11694899908
 10
907.7763258961013
 20
2016.060282537413
 10
907.8350096837352
 20
2016.005919316564
 10
907.8958204796043
 20
2015.953946306089
 10
907.9586609994075
 20
2015.904446651715
 10
908.0234307117184
 20
2015.857499542333
 10
908.0900259988139
 20
2015.813180083302
 10
908.158340322441
 20
2015.771559176301
 10
908.228264394255
 20
2015.732703405904
 10
908.299686350657
 20
2015.696674933055
 10
908.3724919317532
 20
2015.663531395624
 10
908.4465646641442
 20
2015.6333258162
 10
908.5217860472598
 20
2015.606106517269
 10
908.5980357429335
 20
2015.5819170439
 10
908.6751917679178
 20
2015.560796094092
 10
908.7531306890321
 20
2015.542777456859
 10
908.8317278206282
 20
2015.527889958176
 10
908.9108574240624
 20
2015.516157414866
 10
908.9903929088492
 20
2015.507598596494
 10
909.0702070351794
 20
2015.502227195346
 10
909.1501721174772
 20
2015.500051804516
 10
909.1645670955816
 20
2015.499999999996
  0
LWPOLYLINE
  5
13D
330
87
100
AcDbEntity
  8
P-SANR-FIXT
100
AcDbPolyline
 90
       28
 70
   128
 43
0.0
 10
909.1645670955816
 20
1984.499999999995
 10
909.0845884272084
 20
1984.498400213318
 10
909.0047377076434
 20
1984.493603412601
 10
908.9251426810038
 20
1984.485617271703
 10
908.8459306823532
 20
1984.474454566747
 10
908.7672284339916
 20
1984.460133155678
 10
908.6891618427275
 20
1984.4426759497
 10
908.6118557984535
 20
1984.422110876617
 10
908.5354339743496
 20
1984.39847083616
 10
908.4600186290314
 20
1984.371793647351
 10
908.3857304109644
 20
1984.342121988001
 10
908.3126881654496
 20
1984.309503326435
 10
908.2410087444987
 20
1984.273989845554
 10
908.1708068198944
 20
1984.235638359351
 10
908.1021946997401
 20
1984.194510222022
 10
908.0352821487919
 20
1984.150671229815
 10
907.970176212857
 20
1984.104191515764
 10
907.9069810475447
 20
1984.055145437497
 10
907.8457977516389
 20
1984.003611458277
 10
907.7867242053608
 20
1983.949672021477
 10
907.7298549137827
 20
1983.89341341869
 10
907.6752808556401
 20
1983.834925651678
 10
907.6230893377838
 20
1983.774302288393
 10
907.5733638555091
 20
1983.711640313283
 10
907.5261839589797
 20
1983.64703997214
 10
907.481625125966
 20
1983.580604611732
 10
907.4397586410951
 20
1983.512440514461
 10
907.4325162880128
 20
1983.499999999995
  0
LINE
  5
13E
330
87
100
AcDbEntity
  8
P-SANR-FIXT
100
AcDbLine
 10
909.1645670955816
 20
1984.499999999996
 30
0.0
 11
917.5468756419578
 21
1984.499999999996
 31
0.0
  0
LINE
  5
13F
330
87
100
AcDbEntity
  8
P-SANR-FIXT
100
AcDbLine
 10
917.0468756419577
 20
2015.499999999996
 30
0.0
 11
909.1645670955816
 21
2015.499999999996
 31
0.0
  0
LINE
  5
140
330
87
100
AcDbEntity
  8
P-SANR-FIXT
100
AcDbLine
 10
917.5468756419578
 20
1984.499999999995
 30
0.0
 11
917.5932343395269
 21
1984.546358697564
 31
0.0
  0
LINE
  5
141
330
87
100
AcDbEntity
  8
P-SANR-FIXT
100
AcDbLine
 10
917.6091876657379
 20
1984.562312023776
 30
0.0
 11
918.1075358137377
 21
1985.060660171775
 31
0.0
  0
LWPOLYLINE
  5
142
330
87
100
AcDbEntity
  8
P-SANR-FIXT
100
AcDbPolyline
 90
       21
 70
   128
 43
0.0
 10
919.1681959855175
 20
1985.499999999996
 10
919.1082119842375
 20
1985.498800159987
 10
919.0483239445638
 20
1985.495202559449
 10
918.9886276745841
 20
1985.489212953776
 10
918.9292186755963
 20
1985.480840925059
 10
918.8701919893249
 20
1985.470099866757
 10
918.8116420458769
 20
1985.457006962274
 10
918.7536625126714
 20
1985.441583157461
 10
918.6963461445934
 20
1985.423853127119
 10
918.6397846356049
 20
1985.403845235513
 10
918.5840684720545
 20
1985.381591491
 10
918.5292867879185
 20
1985.357127494826
 10
918.4755272222053
 20
1985.330492384164
 10
918.422875778752
 20
1985.301728769512
 10
918.371416688636
 20
1985.270882666515
 10
918.3212322754251
 20
1985.23800342236
 10
918.2724028234739
 20
1985.203143636822
 10
918.2250064494899
 20
1985.166359078122
 10
918.1791189775605
 20
1985.127708593707
 10
918.1348138178517
 20
1985.087254016107
 10
918.1075358137377
 20
1985.060660171775
  0
LINE
  5
143
330
87
100
AcDbEntity
  8
P-SANR-FIXT
100
AcDbLine
 10
919.1681959855175
 20
1985.499999999996
 30
0.0
 11
949.9255552983981
 21
1985.499999999996
 31
0.0
  0
LWPOLYLINE
  5
144
330
87
100
AcDbEntity
  8
P-SANR-FIXT
100
AcDbPolyline
 90
       21
 70
   128
 43
0.0
 10
950.9862154701778
 20
1985.060660171775
 10
950.9429519611039
 20
1985.102226850837
 10
950.8980608344023
 20
1985.142030202066
 10
950.8516139063001
 20
1985.180006548592
 10
950.8036854819739
 20
1985.216095136362
 10
950.7543522366786
 20
1985.250238231333
 10
950.7036930930823
 20
1985.282381211837
 10
950.6517890950084
 20
1985.312472655962
 10
950.5987232777817
 20
1985.340464423818
 10
950.5445805353893
 20
1985.366311734545
 10
950.4894474846695
 20
1985.389973237962
 10
950.4334123267422
 20
1985.411411080709
 10
950.3765647059069
 20
1985.430590966813
 10
950.3189955662296
 20
1985.447482212546
 10
950.2607970060532
 20
1985.462057795518
 10
950.2020621306588
 20
1985.474294397907
 10
950.142884903318
 20
1985.484172443758
 10
950.0833599949704
 20
1985.491676130306
 10
950.0235826327715
 20
1985.496793453253
 10
949.9636484477489
 20
1985.499516225974
 10
949.9255552983981
 20
1985.499999999996
  0
LINE
  5
145
330
87
100
AcDbEntity
  8
P-SANR-FIXT
100
AcDbLine
 10
950.986215470178
 20
1985.060660171775
 30
0.0
 11
951.4845636181776
 21
1984.562312023776
 31
0.0
  0
LINE
  5
146
330
87
100
AcDbEntity
  8
P-SANR-FIXT
100
AcDbLine
 10
951.5005169443888
 20
1984.546358697565
 30
0.0
 11
951.5468756419577
 21
1984.499999999995
 31
0.0
  0
LINE
  5
147
330
87
100
AcDbEntity
  8
P-SANR-FIXT
100
AcDbLine
 10
951.5468756419577
 20
1984.499999999996
 30
0.0
 11
959.9291841883339
 21
1984.499999999996
 31
0.0
  0
LINE
  5
148
330
87
100
AcDbEntity
  8
P-SANR-FIXT
100
AcDbLine
 10
959.9291841883339
 20
2015.499999999996
 30
0.0
 11
952.0468756419576
 21
2015.499999999996
 31
0.0
  0
LWPOLYLINE
  5
149
330
87
100
AcDbEntity
  8
P-SANR-FIXT
100
AcDbPolyline
 90
       28
 70
   128
 43
0.0
 10
959.9291841883339
 20
2015.499999999996
 10
960.0091628567072
 20
2015.501599786674
 10
960.0890135762721
 20
2015.506396587391
 10
960.1686086029117
 20
2015.514382728289
 10
960.2478206015623
 20
2015.525545433245
 10
960.3265228499241
 20
2015.539866844314
 10
960.404589441188
 20
2015.557324050292
 10
960.4818954854621
 20
2015.577889123374
 10
960.5583173095661
 20
2015.601529163832
 10
960.6337326548841
 20
2015.628206352641
 10
960.7080208729511
 20
2015.657878011991
 10
960.7810631184658
 20
2015.690496673556
 10
960.8527425394168
 20
2015.726010154438
 10
960.9229444640213
 20
2015.764361640641
 10
960.9915565841756
 20
2015.805489777969
 10
961.058469135124
 20
2015.849328770177
 10
961.1235750710587
 20
2015.895808484228
 10
961.1867702363708
 20
2015.944854562494
 10
961.2479535322769
 20
2015.996388541715
 10
961.3070270785552
 20
2016.050327978514
 10
961.363896370133
 20
2016.106586581302
 10
961.4184704282758
 20
2016.165074348314
 10
961.4706619461319
 20
2016.225697711599
 10
961.5203874284066
 20
2016.28835968671
 10
961.5675673249358
 20
2016.352960027851
 10
961.6121261579497
 20
2016.41939538826
 10
961.6539926428206
 20
2016.487559485531
 10
961.6612349959028
 20
2016.499999999996
  0
LWPOLYLINE
  5
14A
330
87
100
AcDbEntity
  8
P-SANR-FIXT
100
AcDbPolyline
 90
       24
 70
   128
 43
0.0
 10
961.6612349959028
 20
1983.499999999995
 10
961.6198602058124
 20
1983.568463665229
 10
961.5757806947522
 20
1983.635218016524
 10
961.5290669805371
 20
1983.70015626116
 10
961.4797937951445
 20
1983.763174511798
 10
961.4280399651601
 20
1983.824171952679
 10
961.3738882856715
 20
1983.883051000912
 10
961.3174253878145
 20
1983.939717462578
 10
961.2587416001804
 20
1983.994080683427
 10
961.1979308043114
 20
1984.046053693903
 10
961.1350902845082
 20
1984.095553348276
 10
961.0703205721973
 20
1984.142500457658
 10
961.003725285102
 20
1984.186819916689
 10
960.9354109614745
 20
1984.22844082369
 10
960.8654868896607
 20
1984.267296594087
 10
960.7940649332586
 20
1984.303325066937
 10
960.7212593521627
 20
1984.336468604368
 10
960.6471866197715
 20
1984.366674183791
 10
960.5719652366557
 20
1984.393893482723
 10
960.495715540982
 20
1984.418082956091
 10
960.4185595159979
 20
1984.4392039059
 10
960.3406205948838
 20
1984.457222543133
 10
960.2620234632876
 20
1984.472110041816
 10
960.1828938598535
 20
1984.483842585126
  0
LWPOLYLINE
  5
14B
330
87
100
AcDbEntity
  8
P-SANR-FIXT
100
AcDbPolyline
 90
        5
 70
   128
 43
0.0
 10
960.1828880750955
 20
1984.483843207624
 10
960.1033583750666
 20
1984.492401403497
 10
960.0235442487363
 20
1984.497772804646
 10
959.9435791664383
 20
1984.499948195476
 10
959.9291841883339
 20
1984.499999999995
  0
LINE
  5
14C
330
87
100
AcDbEntity
  8
P-SANR-FIXT
100
AcDbLine
 10
961.6612349959028
 20
1983.499999999995
 30
0.0
 11
963.0468756419578
 21
1981.099999999996
 31
0.0
  0
LINE
  5
14D
330
87
100
AcDbEntity
  8
P-SANR-FIXT
100
AcDbLine
 10
963.0468756419578
 20
2018.899999999996
 30
0.0
 11
961.6612349959028
 21
2016.499999999996
 31
0.0
  0
LINE
  5
14E
330
87
100
AcDbEntity
  8
P-SANR-FIXT
100
AcDbLine
 10
970.9499101304974
 20
1981.099999999996
 30
0.0
 11
972.0468756419579
 21
1982.999999999996
 31
0.0
  0
LINE
  5
14F
330
87
100
AcDbEntity
  8
P-SANR-FIXT
100
AcDbLine
 10
972.0468756419579
 20
2016.999999999996
 30
0.0
 11
970.9499101304976
 21
2018.899999999996
 31
0.0
  0
LINE
  5
150
330
87
100
AcDbEntity
  8
P-SANR-FIXT
100
AcDbLine
 10
952.0468756419576
 20
2015.499999999996
 30
0.0
 11
952.0468756419576
 21
2026.499999999996
 31
0.0
  0
LINE
  5
151
330
87
100
AcDbEntity
  8
P-SANR-FIXT
100
AcDbLine
 10
917.0468756419577
 20
2026.499999999996
 30
0.0
 11
917.0468756419577
 21
2015.499999999996
 31
0.0
  0
LWPOLYLINE
  5
152
330
87
100
AcDbEntity
  8
P-SANR-FIXT
100
AcDbPolyline
 90
       20
 70
   128
 43
0.0
 10
929.0696500669062
 20
1999.999999999996
 10
929.6538766088662
 20
1999.999999999996
 10
930.2459309054951
 20
1999.999999999996
 10
930.8448657962163
 20
1999.999999999996
 10
931.4497231129708
 20
1999.999999999996
 10
932.0595352130808
 20
1999.999999999996
 10
932.6733265272732
 20
1999.999999999996
 10
933.2901151203794
 20
1999.999999999996
 10
933.9089142622256
 20
1999.999999999996
 10
934.5287340061885
 20
1999.999999999996
 10
935.1485827728984
 20
1999.999999999996
 10
935.7674689365561
 20
1999.999999999996
 10
936.3844024113218
 20
1999.999999999996
 10
936.9983962352414
 20
1999.999999999996
 10
937.6084681491748
 20
1999.999999999996
 10
938.2136421682016
 20
1999.999999999996
 10
938.8129501429883
 20
1999.999999999996
 10
939.4054333086206
 20
1999.999999999996
 10
939.9901438184233
 20
1999.999999999996
 10
940.0241012170093
 20
1999.999999999996
  0
LINE
  5
153
330
87
100
AcDbEntity
  8
P-SANR-FIXT
100
AcDbLine
 10
917.5468756419574
 20
2026.999999999996
 30
0.0
 11
917.0468756419577
 21
2026.499999999996
 31
0.0
  0
LINE
  5
154
330
87
100
AcDbEntity
  8
P-SANR-FIXT
100
AcDbLine
 10
952.0468756419576
 20
2026.499999999996
 30
0.0
 11
951.5468756419579
 21
2026.999999999996
 31
0.0
  0
LINE
  5
155
330
87
100
AcDbEntity
  8
P-SANR-FIXT
100
AcDbLine
 10
897.0468756419561
 20
1998.926604306491
 30
0.0
 11
897.0468756419561
 21
2001.029698201579
 31
0.0
  0
LINE
  5
156
330
87
100
AcDbEntity
  8
P-SANR-FIXT
100
AcDbLine
 10
897.0468756419561
 20
2001.029698201579
 30
0.0
 11
897.0468756419561
 21
1998.926604306491
 31
0.0
  0
LINE
  5
157
330
87
100
AcDbEntity
  8
P-SANR-FIXT
100
AcDbLine
 10
897.0468756419561
 20
2015.253440331543
 30
0.0
 11
897.0468756419561
 21
2014.190037415243
 31
0.0
  0
LINE
  5
158
330
87
100
AcDbEntity
  8
P-SANR-FIXT
100
AcDbLine
 10
897.0468756419561
 20
1985.78651805703
 30
0.0
 11
897.0468756419561
 21
1984.815186879671
 31
0.0
  0
SPLINE
  5
159
330
87
100
AcDbEntity
  8
P-SANR-FIXT
100
AcDbSpline
210
0.0
220
0.0
230
1.0
 70
     8
 71
     3
 72
     8
 73
     4
 74
     0
 42
0.000000001
 43
0.0000000001
 40
-0.5079549869321599
 40
-0.5079549869321599
 40
-0.5079549869321599
 40
-0.5079549869321599
 40
-0.5
 40
-0.5
 40
-0.5
 40
-0.5
 10
897.047218328459
 20
2014.757197227914
 30
0.0
 10
897.0470332248442
 20
2014.735292100885
 30
0.0
 10
897.0468495706656
 20
2014.713387014742
 30
0.0
 10
897.0469406730368
 20
2014.691489679137
 30
0.0
  0
SPLINE
  5
15A
330
87
100
AcDbEntity
  8
P-SANR-FIXT
100
AcDbSpline
210
0.0
220
0.0
230
1.0
 70
     8
 71
     3
 72
     8
 73
     4
 74
     0
 42
0.000000001
 43
0.0000000001
 40
-0.5079549869321709
 40
-0.5079549869321709
 40
-0.5079549869321709
 40
-0.5079549869321709
 40
-0.5
 40
-0.5
 40
-0.5
 40
-0.5
 10
897.047218328459
 20
1985.312333499243
 30
0.0
 10
897.0470332248442
 20
1985.290428372214
 30
0.0
 10
897.0468495706656
 20
1985.268523286071
 30
0.0
 10
897.0469406730368
 20
1985.246625950466
 30
0.0
  0
LINE
  5
15B
330
87
100
AcDbEntity
  8
P-SANR-FIXT
100
AcDbLine
 10
897.0468756419561
 20
1982.999999999995
 30
0.0
 11
897.0468756419561
 21
2016.999999999995
 31
0.0
  0
SPLINE
  5
15C
330
87
100
AcDbEntity
  8
P-SANR-FIXT
100
AcDbSpline
210
0.0
220
0.0
230
1.0
 70
     8
 71
     3
 72
     8
 73
     4
 74
     0
 42
0.000000001
 43
0.0000000001
 40
-1.0
 40
-1.0
 40
-1.0
 40
-1.0
 40
-0.5833333333333341
 40
-0.5833333333333341
 40
-0.5833333333333341
 40
-0.5833333333333341
 10
898.1438411534165
 20
1981.148100857668
 30
0.0
 10
897.53445199765
 20
1982.31236520444
 30
0.0
 10
897.1789749901194
 20
1983.469467008342
 30
0.0
 10
897.0774101308249
 20
1984.619406269377
 30
0.0
  0
SPLINE
  5
15D
330
87
100
AcDbEntity
  8
P-SANR-FIXT
100
AcDbSpline
210
0.0
220
0.0
230
1.0
 70
     8
 71
     3
 72
     9
 73
     5
 74
     0
 42
0.000000001
 43
0.0000000001
 40
-0.573098412819371
 40
-0.573098412819371
 40
-0.573098412819371
 40
-0.573098412819371
 40
-0.5
 40
0.0
 40
0.0
 40
0.0
 40
0.0
 10
897.070385288427
 20
1984.70413397007
 30
0.0
 10
897.0547555448336
 20
1984.905813201384
 30
0.0
 10
896.9934862169457
 20
1986.485268960727
 30
0.0
 10
897.4125741664964
 20
1988.05117444445
 30
0.0
 10
898.1438411534165
 20
1989.407035413651
 30
0.0
  0
SPLINE
  5
15E
330
87
100
AcDbEntity
  8
P-SANR-FIXT
100
AcDbSpline
210
0.0
220
0.0
230
1.0
 70
     8
 71
     3
 72
     9
 73
     5
 74
     0
 42
0.000000001
 43
0.0000000001
 40
-1.0
 40
-1.0
 40
-1.0
 40
-1.0
 40
-0.5
 40
0.0
 40
0.0
 40
0.0
 40
0.0
 10
898.1438411534162
 20
1991.741065444013
 30
0.0
 10
897.4125741664966
 20
1994.535299876265
 30
0.0
 10
896.6813071795767
 20
2000.082512493844
 30
0.0
 10
897.4125741664966
 20
2005.547212617575
 30
0.0
 10
898.1438411534162
 20
2008.258934555978
 30
0.0
  0
SPLINE
  5
15F
330
87
100
AcDbEntity
  8
P-SANR-FIXT
100
AcDbSpline
210
0.0
220
0.0
230
1.0
 70
     8
 71
     3
 72
     9
 73
     5
 74
     0
 42
0.000000001
 43
0.0000000001
 40
-1.0
 40
-1.0
 40
-1.0
 40
-1.0
 40
-0.5
 40
-0.4460103691413213
 40
-0.4460103691413213
 40
-0.4460103691413213
 40
-0.4460103691413213
 10
898.1438411534165
 20
2010.59296458634
 30
0.0
 10
897.4125741664966
 20
2011.990081802466
 30
0.0
 10
897.0074598383538
 20
2013.526630937619
 30
0.0
 10
897.0512037844178
 20
2015.05051834448
 30
0.0
 10
897.0597300071798
 20
2015.198910106431
 30
0.0
  0
SPLINE
  5
160
330
87
100
AcDbEntity
  8
P-SANR-FIXT
100
AcDbSpline
210
0.0
220
0.0
230
1.0
 70
     8
 71
     3
 72
     8
 73
     4
 74
     0
 42
0.000000001
 43
0.0000000001
 40
-0.4375000000000004
 40
-0.4375000000000004
 40
-0.4375000000000004
 40
-0.4375000000000004
 40
0.0
 40
0.0
 40
0.0
 40
0.0
 10
897.0640797430426
 20
2015.269073987629
 30
0.0
 10
897.144062069737
 20
2016.471245742707
 30
0.0
 10
897.5039825398617
 20
2017.66552079427
 30
0.0
 10
898.1438411534165
 20
2018.851899142322
 30
0.0
  0
LINE
  5
161
330
87
100
AcDbEntity
  8
P-SANR-FIXT
100
AcDbLine
 10
898.1438411534165
 20
1989.407035413651
 30
0.0
 11
898.1438411534162
 21
1991.741065444013
 31
0.0
  0
LINE
  5
162
330
87
100
AcDbEntity
  8
P-SANR-FIXT
100
AcDbLine
 10
898.1438411534165
 20
1989.407035413651
 30
0.0
 11
906.046875641956
 21
1989.407035413651
 31
0.0
  0
LINE
  5
163
330
87
100
AcDbEntity
  8
P-SANR-FIXT
100
AcDbLine
 10
906.046875641956
 20
1991.741065444013
 30
0.0
 11
898.1438411534162
 21
1991.741065444013
 31
0.0
  0
LINE
  5
164
330
87
100
AcDbEntity
  8
P-SANR-FIXT
100
AcDbLine
 10
898.1438411534162
 20
2008.258934555978
 30
0.0
 11
898.1438411534165
 21
2010.592964586339
 31
0.0
  0
LINE
  5
165
330
87
100
AcDbEntity
  8
P-SANR-FIXT
100
AcDbLine
 10
898.1438411534162
 20
2008.258934555978
 30
0.0
 11
906.046875641956
 21
2008.258934555978
 31
0.0
  0
LINE
  5
166
330
87
100
AcDbEntity
  8
P-SANR-FIXT
100
AcDbLine
 10
906.046875641956
 20
2010.59296458634
 30
0.0
 11
898.1438411534165
 21
2010.59296458634
 31
0.0
  0
LINE
  5
167
330
87
100
AcDbEntity
  8
P-SANR-FIXT
100
AcDbLine
 10
906.046875641956
 20
1981.148100857668
 30
0.0
 11
898.1438411534165
 21
1981.148100857668
 31
0.0
  0
LINE
  5
168
330
87
100
AcDbEntity
  8
P-SANR-FIXT
100
AcDbLine
 10
898.1438411534165
 20
1981.099999999995
 30
0.0
 11
898.1438411534165
 21
1981.148100857668
 31
0.0
  0
LINE
  5
169
330
87
100
AcDbEntity
  8
P-SANR-FIXT
100
AcDbLine
 10
898.1438411534165
 20
2018.851899142322
 30
0.0
 11
898.1438411534165
 21
2018.899999999995
 31
0.0
  0
LINE
  5
16A
330
87
100
AcDbEntity
  8
P-SANR-FIXT
100
AcDbLine
 10
898.1438411534165
 20
2018.851899142322
 30
0.0
 11
906.046875641956
 21
2018.851899142322
 31
0.0
  0
LINE
  5
16B
330
87
100
AcDbEntity
  8
P-SANR-FIXT
100
AcDbLine
 10
906.046875641956
 20
2018.851899142322
 30
0.0
 11
906.046875641956
 21
2018.899999999995
 31
0.0
  0
SPLINE
  5
16C
330
87
100
AcDbEntity
  8
P-SANR-FIXT
100
AcDbSpline
210
0.0
220
0.0
230
1.0
 70
     8
 71
     3
 72
     9
 73
     5
 74
     0
 42
0.000000001
 43
0.0000000001
 40
-1.0
 40
-1.0
 40
-1.0
 40
-1.0
 40
-0.5
 40
0.0
 40
0.0
 40
0.0
 40
0.0
 10
906.046875641956
 20
2018.851899142322
 30
0.0
 10
906.7781426288759
 20
2017.49603817312
 30
0.0
 10
907.5094096157956
 20
2014.763688111255
 30
0.0
 10
906.7781426288759
 20
2011.990081802466
 30
0.0
 10
906.046875641956
 20
2010.59296458634
 30
0.0
  0
LINE
  5
16D
330
87
100
AcDbEntity
  8
P-SANR-FIXT
100
AcDbLine
 10
906.046875641956
 20
2008.258934555978
 30
0.0
 11
906.046875641956
 21
2010.592964586339
 31
0.0
  0
SPLINE
  5
16E
330
87
100
AcDbEntity
  8
P-SANR-FIXT
100
AcDbSpline
210
0.0
220
0.0
230
1.0
 70
     8
 71
     3
 72
     9
 73
     5
 74
     0
 42
0.000000001
 43
0.0000000001
 40
-1.0
 40
-1.0
 40
-1.0
 40
-1.0
 40
-0.5
 40
0.0
 40
0.0
 40
0.0
 40
0.0
 10
906.046875641956
 20
2008.258934555978
 30
0.0
 10
906.7781426288757
 20
2005.547212617575
 30
0.0
 10
907.5094096157956
 20
2000.082512493844
 30
0.0
 10
906.7781426288757
 20
1994.535299876265
 30
0.0
 10
906.046875641956
 20
1991.741065444013
 30
0.0
  0
LINE
  5
16F
330
87
100
AcDbEntity
  8
P-SANR-FIXT
100
AcDbLine
 10
906.046875641956
 20
1989.407035413651
 30
0.0
 11
906.046875641956
 21
1991.741065444013
 31
0.0
  0
SPLINE
  5
170
330
87
100
AcDbEntity
  8
P-SANR-FIXT
100
AcDbSpline
210
0.0
220
0.0
230
1.0
 70
     8
 71
     3
 72
     9
 73
     5
 74
     0
 42
0.000000001
 43
0.0000000001
 40
-1.0
 40
-1.0
 40
-1.0
 40
-1.0
 40
-0.5
 40
0.0
 40
0.0
 40
0.0
 40
0.0
 10
906.046875641956
 20
1989.407035413651
 30
0.0
 10
906.7781426288759
 20
1988.05117444445
 30
0.0
 10
907.5094096157956
 20
1985.318824382584
 30
0.0
 10
906.7781426288759
 20
1982.545218073794
 30
0.0
 10
906.046875641956
 20
1981.148100857668
 30
0.0
  0
LINE
  5
171
330
87
100
AcDbEntity
  8
P-SANR-FIXT
100
AcDbLine
 10
906.046875641956
 20
1981.099999999995
 30
0.0
 11
906.046875641956
 21
1981.148100857668
 31
0.0
  0
SPLINE
  5
172
330
87
100
AcDbEntity
  8
P-SANR-FIXT
100
AcDbSpline
210
0.0
220
0.0
230
1.0
 70
     8
 71
     3
 72
     9
 73
     5
 74
     0
 42
0.000000001
 43
0.0000000001
 40
0.0
 40
0.0
 40
0.0
 40
0.0
 40
0.5
 40
1.0
 40
1.0
 40
1.0
 40
1.0
 10
917.5468756419562
 20
2014.933184523063
 30
0.0
 10
917.3821593957715
 20
2015.118040197994
 30
0.0
 10
917.1341098162535
 20
2015.401822799991
 30
0.0
 10
917.0488260624379
 20
2015.499999999995
 30
0.0
 10
917.0468756419559
 20
2015.499999999995
 30
0.0
  0
SPLINE
  5
173
330
87
100
AcDbEntity
  8
P-SANR-FIXT
100
AcDbSpline
210
0.0
220
0.0
230
1.0
 70
     8
 71
     3
 72
     9
 73
     5
 74
     0
 42
0.000000001
 43
0.0000000001
 40
-1.0
 40
-1.0
 40
-1.0
 40
-1.0
 40
-0.5
 40
0.0
 40
0.0
 40
0.0
 40
0.0
 10
918.1075358137361
 20
2013.681585013828
 30
0.0
 10
918.0039927234989
 20
2013.920653961315
 30
0.0
 10
917.8047906918195
 20
2014.368322827007
 30
0.0
 10
917.6279422471486
 20
2014.755053634138
 30
0.0
 10
917.5468756419562
 20
2014.933184523063
 30
0.0
  0
LINE
  5
174
330
87
100
AcDbEntity
  8
P-SANR-FIXT
100
AcDbLine
 10
917.5468756419562
 20
1984.499999999995
 30
0.0
 11
917.5468756419562
 21
1991.057318958858
 31
0.0
  0
LINE
  5
175
330
87
100
AcDbEntity
  8
P-SANR-FIXT
100
AcDbLine
 10
917.5468756419562
 20
2008.942920471994
 30
0.0
 11
917.5468756419562
 21
2014.933184523063
 31
0.0
  0
SPLINE
  5
176
330
87
100
AcDbEntity
  8
P-SANR-FIXT
100
AcDbSpline
210
0.0
220
0.0
230
1.0
 70
     8
 71
     3
 72
    10
 73
     6
 74
     0
 42
0.000000001
 43
0.0000000001
 40
-1.0
 40
-1.0
 40
-1.0
 40
-1.0
 40
-0.75
 40
-0.5
 40
0.0
 40
0.0
 40
0.0
 40
0.0
 10
919.1681959855159
 20
2011.853429376147
 30
0.0
 10
919.0615715690917
 20
2011.993654404602
 30
0.0
 10
918.8579493579121
 20
2012.280543170528
 30
0.0
 10
918.48909624332
 20
2012.884454999213
 30
0.0
 10
918.2502040606394
 20
2013.356509274533
 30
0.0
 10
918.1075358137361
 20
2013.681585013828
 30
0.0
  0
SPLINE
  5
177
330
87
100
AcDbEntity
  8
P-SANR-FIXT
100
AcDbSpline
210
0.0
220
0.0
230
1.0
 70
     8
 71
     3
 72
    12
 73
     8
 74
     0
 42
0.000000001
 43
0.0000000001
 40
0.0
 40
0.0
 40
0.0
 40
0.0
 40
0.125
 40
0.25
 40
0.3125
 40
0.375
 40
0.4147073747974862
 40
0.4147073747974862
 40
0.4147073747974862
 40
0.4147073747974862
 10
949.9255552983964
 20
2011.853429376147
 30
0.0
 10
949.6954462475862
 20
2011.569014567687
 30
0.0
 10
949.2264964786818
 20
2010.961601744154
 30
0.0
 10
948.6243252873968
 20
2010.114000531909
 30
0.0
 10
948.1224766077742
 20
2009.393428965591
 30
0.0
 10
947.7819583139636
 20
2008.902201568445
 30
0.0
 10
947.5710771275153
 20
2008.587575588396
 30
0.0
 10
947.4895296609849
 20
2008.463781999191
 30
0.0
  0
SPLINE
  5
178
330
87
100
AcDbEntity
  8
P-SANR-FIXT
100
AcDbSpline
210
0.0
220
0.0
230
1.0
 70
     8
 71
     3
 72
     9
 73
     5
 74
     0
 42
0.000000001
 43
0.0000000001
 40
0.7100371608095228
 40
0.7100371608095228
 40
0.7100371608095228
 40
0.7100371608095228
 40
0.75
 40
0.8333333333333333
 40
0.8333333333333333
 40
0.8333333333333333
 40
0.8333333333333333
 10
941.5548883321649
 20
2000.09283342048
 30
0.0
 10
941.4849012528575
 20
2000.083187767605
 30
0.0
 10
941.2681437557036
 20
2000.057492987909
 30
0.0
 10
941.0509322880638
 20
2000.035997649877
 30
0.0
 10
940.9041937464152
 20
2000.027814966059
 30
0.0
  0
SPLINE
  5
179
330
87
100
AcDbEntity
  8
P-SANR-FIXT
100
AcDbSpline
210
0.0
220
0.0
230
1.0
 70
     8
 71
     3
 72
    10
 73
     6
 74
     0
 42
0.000000001
 43
0.0000000001
 40
0.0
 40
0.0
 40
0.0
 40
0.0
 40
0.1666666666666666
 40
0.25
 40
0.2898885066945283
 40
0.2898885066945283
 40
0.2898885066945283
 40
0.2898885066945283
 10
929.0696500669042
 20
1999.999999999995
 30
0.0
 10
928.7759021086563
 20
1999.997188905015
 30
0.0
 10
928.3365139814575
 20
2000.012428226498
 30
0.0
 10
927.8257315566035
 20
2000.056989881235
 30
0.0
 10
927.6091113793237
 20
2000.083156195776
 30
0.0
 10
927.539253490897
 20
2000.092779608585
 30
0.0
  0
SPLINE
  5
17A
330
87
100
AcDbEntity
  8
P-SANR-FIXT
100
AcDbSpline
210
0.0
220
0.0
230
1.0
 70
     8
 71
     3
 72
    12
 73
     8
 74
     0
 42
0.000000001
 43
0.0000000001
 40
0.5848871576512991
 40
0.5848871576512991
 40
0.5848871576512991
 40
0.5848871576512991
 40
0.625
 40
0.6875
 40
0.75
 40
0.875
 40
1.0
 40
1.0
 40
1.0
 40
1.0
 10
921.6067196432129
 20
2008.459989196058
 30
0.0
 10
921.5243473260214
 20
2008.585079124557
 30
0.0
 10
921.312631239145
 20
2008.900992291871
 30
0.0
 10
920.9712746761377
 20
2009.393428965591
 30
0.0
 10
920.4694259965151
 20
2010.114000531909
 30
0.0
 10
919.8672548052302
 20
2010.961601744154
 30
0.0
 10
919.3983050363257
 20
2011.569014567687
 30
0.0
 10
919.1681959855158
 20
2011.853429376147
 30
0.0
  0
SPLINE
  5
17B
330
87
100
AcDbEntity
  8
P-SANR-FIXT
100
AcDbSpline
210
0.0
220
0.0
230
1.0
 70
     8
 71
     3
 72
     9
 73
     5
 74
     0
 42
0.000000001
 43
0.0000000001
 40
-1.0
 40
-1.0
 40
-1.0
 40
-1.0
 40
-0.5
 40
0.0
 40
0.0
 40
0.0
 40
0.0
 10
950.9862154701762
 20
2013.681585013829
 30
0.0
 10
950.8434228158414
 20
2013.356240396168
 30
0.0
 10
950.5254259609243
 20
2012.726232043177
 30
0.0
 10
950.1388748786133
 20
2012.133978381054
 30
0.0
 10
949.9255552983964
 20
2011.853429376147
 30
0.0
  0
SPLINE
  5
17C
330
87
100
AcDbEntity
  8
P-SANR-FIXT
100
AcDbSpline
210
0.0
220
0.0
230
1.0
 70
     8
 71
     3
 72
     9
 73
     5
 74
     0
 42
0.000000001
 43
0.0000000001
 40
-1.0
 40
-1.0
 40
-1.0
 40
-1.0
 40
-0.5
 40
0.0
 40
0.0
 40
0.0
 40
0.0
 10
951.5468756419561
 20
2014.933184523064
 30
0.0
 10
951.4658090367634
 20
2014.755053634138
 30
0.0
 10
951.2889605920927
 20
2014.368322827008
 30
0.0
 10
951.0897585604132
 20
2013.920653961315
 30
0.0
 10
950.9862154701762
 20
2013.681585013829
 30
0.0
  0
SPLINE
  5
17D
330
87
100
AcDbEntity
  8
P-SANR-FIXT
100
AcDbSpline
210
0.0
220
0.0
230
1.0
 70
     8
 71
     3
 72
     9
 73
     5
 74
     0
 42
0.000000001
 43
0.0000000001
 40
0.0
 40
0.0
 40
0.0
 40
0.0
 40
0.5
 40
1.0
 40
1.0
 40
1.0
 40
1.0
 10
952.0468756419559
 20
2015.499999999995
 30
0.0
 10
952.0449252214737
 20
2015.499999999995
 30
0.0
 10
951.9596414676584
 20
2015.401822799991
 30
0.0
 10
951.7115918881405
 20
2015.118040197994
 30
0.0
 10
951.5468756419561
 20
2014.933184523064
 30
0.0
  0
LINE
  5
17E
330
87
100
AcDbEntity
  8
P-SANR-FIXT
100
AcDbLine
 10
951.5468756419561
 20
1984.499999999995
 30
0.0
 11
951.5468756419561
 21
1991.057318958858
 31
0.0
  0
LINE
  5
17F
330
87
100
AcDbEntity
  8
P-SANR-FIXT
100
AcDbLine
 10
951.5468756419561
 20
2008.942920471994
 30
0.0
 11
951.5468756419561
 21
2014.933184523064
 31
0.0
  0
SPLINE
  5
180
330
87
100
AcDbEntity
  8
P-SANR-FIXT
100
AcDbSpline
210
0.0
220
0.0
230
1.0
 70
     8
 71
     3
 72
     9
 73
     5
 74
     0
 42
0.000000001
 43
0.0000000001
 40
-1.0
 40
-1.0
 40
-1.0
 40
-1.0
 40
-0.5
 40
0.0
 40
0.0
 40
0.0
 40
0.0
 10
963.0468756419558
 20
1981.148100857668
 30
0.0
 10
962.3156086550361
 20
1982.545218073794
 30
0.0
 10
961.5843416681162
 20
1985.318824382584
 30
0.0
 10
962.3156086550361
 20
1988.05117444445
 30
0.0
 10
963.0468756419558
 20
1989.407035413651
 30
0.0
  0
SPLINE
  5
181
330
87
100
AcDbEntity
  8
P-SANR-FIXT
100
AcDbSpline
210
0.0
220
0.0
230
1.0
 70
     8
 71
     3
 72
     9
 73
     5
 74
     0
 42
0.000000001
 43
0.0000000001
 40
-1.0
 40
-1.0
 40
-1.0
 40
-1.0
 40
-0.5
 40
0.0
 40
0.0
 40
0.0
 40
0.0
 10
963.0468756419558
 20
1991.741065444013
 30
0.0
 10
962.3156086550359
 20
1994.535299876265
 30
0.0
 10
961.584341668116
 20
2000.082512493844
 30
0.0
 10
962.3156086550359
 20
2005.547212617575
 30
0.0
 10
963.0468756419558
 20
2008.258934555978
 30
0.0
  0
SPLINE
  5
182
330
87
100
AcDbEntity
  8
P-SANR-FIXT
100
AcDbSpline
210
0.0
220
0.0
230
1.0
 70
     8
 71
     3
 72
     9
 73
     5
 74
     0
 42
0.000000001
 43
0.0000000001
 40
-1.0
 40
-1.0
 40
-1.0
 40
-1.0
 40
-0.5
 40
0.0
 40
0.0
 40
0.0
 40
0.0
 10
963.0468756419558
 20
2010.59296458634
 30
0.0
 10
962.3156086550361
 20
2011.990081802466
 30
0.0
 10
961.5843416681162
 20
2014.763688111255
 30
0.0
 10
962.3156086550361
 20
2017.49603817312
 30
0.0
 10
963.0468756419558
 20
2018.851899142322
 30
0.0
  0
LINE
  5
183
330
87
100
AcDbEntity
  8
P-SANR-FIXT
100
AcDbLine
 10
963.0468756419558
 20
1989.407035413651
 30
0.0
 11
963.0468756419558
 21
1991.741065444013
 31
0.0
  0
LINE
  5
184
330
87
100
AcDbEntity
  8
P-SANR-FIXT
100
AcDbLine
 10
963.0468756419558
 20
1989.407035413651
 30
0.0
 11
970.9499101304956
 21
1989.407035413651
 31
0.0
  0
LINE
  5
185
330
87
100
AcDbEntity
  8
P-SANR-FIXT
100
AcDbLine
 10
970.9499101304954
 20
1991.741065444013
 30
0.0
 11
963.0468756419558
 21
1991.741065444013
 31
0.0
  0
LINE
  5
186
330
87
100
AcDbEntity
  8
P-SANR-FIXT
100
AcDbLine
 10
963.0468756419558
 20
2008.258934555978
 30
0.0
 11
963.0468756419558
 21
2010.59296458634
 31
0.0
  0
LINE
  5
187
330
87
100
AcDbEntity
  8
P-SANR-FIXT
100
AcDbLine
 10
963.0468756419558
 20
2008.258934555978
 30
0.0
 11
970.9499101304954
 21
2008.258934555978
 31
0.0
  0
LINE
  5
188
330
87
100
AcDbEntity
  8
P-SANR-FIXT
100
AcDbLine
 10
970.9499101304956
 20
2010.59296458634
 30
0.0
 11
963.0468756419558
 21
2010.59296458634
 31
0.0
  0
LINE
  5
189
330
87
100
AcDbEntity
  8
P-SANR-FIXT
100
AcDbLine
 10
970.9499101304956
 20
1981.148100857668
 30
0.0
 11
963.0468756419558
 21
1981.148100857668
 31
0.0
  0
LINE
  5
18A
330
87
100
AcDbEntity
  8
P-SANR-FIXT
100
AcDbLine
 10
963.0468756419558
 20
1981.099999999995
 30
0.0
 11
963.0468756419558
 21
1981.148100857668
 31
0.0
  0
LINE
  5
18B
330
87
100
AcDbEntity
  8
P-SANR-FIXT
100
AcDbLine
 10
963.046875641956
 20
2018.851899142322
 30
0.0
 11
963.046875641956
 21
2018.899999999995
 31
0.0
  0
LINE
  5
18C
330
87
100
AcDbEntity
  8
P-SANR-FIXT
100
AcDbLine
 10
963.0468756419558
 20
2018.851899142322
 30
0.0
 11
970.9499101304956
 21
2018.851899142322
 31
0.0
  0
SPLINE
  5
18D
330
87
100
AcDbEntity
  8
P-SANR-FIXT
100
AcDbSpline
210
0.0
220
0.0
230
1.0
 70
     8
 71
     3
 72
     8
 73
     4
 74
     0
 42
0.000000001
 43
0.0000000001
 40
-0.5
 40
-0.5
 40
-0.5
 40
-0.5
 40
-0.4920450130678347
 40
-0.4920450130678347
 40
-0.4920450130678347
 40
-0.4920450130678347
 10
972.0468106108754
 20
1985.246625950466
 30
0.0
 10
972.0468106108754
 20
1985.268525855955
 30
0.0
 10
972.0465359004469
 20
1985.29043351068
 30
0.0
 10
972.0459951740062
 20
1985.312348669383
 30
0.0
  0
SPLINE
  5
18E
330
87
100
AcDbEntity
  8
P-SANR-FIXT
100
AcDbSpline
210
0.0
220
0.0
230
1.0
 70
     8
 71
     3
 72
     8
 73
     4
 74
     0
 42
0.000000001
 43
0.0000000001
 40
-0.5
 40
-0.5
 40
-0.5
 40
-0.5
 40
-0.4920450130678321
 40
-0.4920450130678321
 40
-0.4920450130678321
 40
-0.4920450130678321
 10
972.0468106108754
 20
2014.691489679137
 30
0.0
 10
972.0468106108754
 20
2014.713389584626
 30
0.0
 10
972.0465359004469
 20
2014.735297239351
 30
0.0
 10
972.0459951740062
 20
2014.757212398054
 30
0.0
  0
SPLINE
  5
18F
330
87
100
AcDbEntity
  8
P-SANR-FIXT
100
AcDbSpline
210
0.0
220
0.0
230
1.0
 70
     8
 71
     3
 72
     9
 73
     5
 74
     0
 42
0.000000001
 43
0.0000000001
 40
-1.0
 40
-1.0
 40
-1.0
 40
-1.0
 40
-0.5
 40
0.0
 40
0.0
 40
0.0
 40
0.0
 10
972.046875641956
 20
1999.999999999995
 30
0.0
 10
972.0364023450189
 20
1998.601411939545
 30
0.0
 10
971.8431014628384
 20
1995.826334786432
 30
0.0
 10
971.3050920040453
 20
1993.09545556889
 30
0.0
 10
970.9499101304954
 20
1991.741065444013
 30
0.0
  0
LINE
  5
190
330
87
100
AcDbEntity
  8
P-SANR-FIXT
100
AcDbLine
 10
970.9499101304956
 20
1989.407035413651
 30
0.0
 11
970.9499101304954
 21
1991.741065444013
 31
0.0
  0
SPLINE
  5
191
330
87
100
AcDbEntity
  8
P-SANR-FIXT
100
AcDbSpline
210
0.0
220
0.0
230
1.0
 70
     8
 71
     3
 72
     9
 73
     5
 74
     0
 42
0.000000001
 43
0.0000000001
 40
-1.0
 40
-1.0
 40
-1.0
 40
-1.0
 40
-0.5
 40
-0.4269015871806184
 40
-0.4269015871806184
 40
-0.4269015871806184
 40
-0.4269015871806184
 10
970.9499101304956
 20
1989.407035413651
 30
0.0
 10
971.6811771174155
 20
1988.05117444445
 30
0.0
 10
972.1002650669664
 20
1986.485268960727
 30
0.0
 10
972.0389957390787
 20
1984.905813201384
 30
0.0
 10
972.0233659954852
 20
1984.70413397007
 30
0.0
  0
SPLINE
  5
192
330
87
100
AcDbEntity
  8
P-SANR-FIXT
100
AcDbSpline
210
0.0
220
0.0
230
1.0
 70
     8
 71
     3
 72
     8
 73
     4
 74
     0
 42
0.000000001
 43
0.0000000001
 40
-0.4166666666666657
 40
-0.4166666666666657
 40
-0.4166666666666657
 40
-0.4166666666666657
 40
0.0
 40
0.0
 40
0.0
 40
0.0
 10
972.0163411530871
 20
1984.619406269377
 30
0.0
 10
971.9147762937927
 20
1983.469467008342
 30
0.0
 10
971.5592992862623
 20
1982.31236520444
 30
0.0
 10
970.9499101304956
 20
1981.148100857668
 30
0.0
  0
LINE
  5
193
330
87
100
AcDbEntity
  8
P-SANR-FIXT
100
AcDbLine
 10
970.9499101304956
 20
1981.099999999995
 30
0.0
 11
970.9499101304956
 21
1981.148100857668
 31
0.0
  0
LINE
  5
194
330
87
100
AcDbEntity
  8
P-SANR-FIXT
100
AcDbLine
 10
970.9499101304954
 20
2018.851899142322
 30
0.0
 11
970.9499101304954
 21
2018.899999999995
 31
0.0
  0
SPLINE
  5
195
330
87
100
AcDbEntity
  8
P-SANR-FIXT
100
AcDbSpline
210
0.0
220
0.0
230
1.0
 70
     8
 71
     3
 72
     9
 73
     5
 74
     0
 42
0.000000001
 43
0.0000000001
 40
-1.0
 40
-1.0
 40
-1.0
 40
-1.0
 40
-0.5
 40
0.0
 40
0.0
 40
0.0
 40
0.0
 10
970.9499101304956
 20
2018.851899142322
 30
0.0
 10
971.6811771174155
 20
2017.49603817312
 30
0.0
 10
972.4124441043354
 20
2014.763688111255
 30
0.0
 10
971.6811771174155
 20
2011.990081802466
 30
0.0
 10
970.9499101304956
 20
2010.59296458634
 30
0.0
  0
LINE
  5
196
330
87
100
AcDbEntity
  8
P-SANR-FIXT
100
AcDbLine
 10
970.9499101304954
 20
2008.258934555978
 30
0.0
 11
970.9499101304956
 21
2010.59296458634
 31
0.0
  0
SPLINE
  5
197
330
87
100
AcDbEntity
  8
P-SANR-FIXT
100
AcDbSpline
210
0.0
220
0.0
230
1.0
 70
     8
 71
     3
 72
     9
 73
     5
 74
     0
 42
0.000000001
 43
0.0000000001
 40
-1.0
 40
-1.0
 40
-1.0
 40
-1.0
 40
-0.5
 40
0.0
 40
0.0
 40
0.0
 40
0.0
 10
970.9499101304954
 20
2008.258934555978
 30
0.0
 10
971.3050920040455
 20
2006.9045444311
 30
0.0
 10
971.8431014628384
 20
2004.173665213558
 30
0.0
 10
972.0364023450189
 20
2001.398588060445
 30
0.0
 10
972.046875641956
 20
1999.999999999995
 30
0.0
  0
LINE
  5
198
330
87
100
AcDbEntity
  8
P-SANR-FIXT
100
AcDbLine
 10
972.046875641956
 20
2015.254588125289
 30
0.0
 11
972.046875641956
 21
2014.276262583169
 31
0.0
  0
LINE
  5
199
330
87
100
AcDbEntity
  8
P-SANR-FIXT
100
AcDbLine
 10
972.046875641956
 20
2001.349131690857
 30
0.0
 11
972.046875641956
 21
1998.650868309136
 31
0.0
  0
LINE
  5
19A
330
87
100
AcDbEntity
  8
P-SANR-FIXT
100
AcDbLine
 10
972.046875641956
 20
1985.679321821274
 30
0.0
 11
972.046875641956
 21
1984.73390194212
 31
0.0
  0
LINE
  5
19B
330
87
100
AcDbEntity
  8
P-SANR-FIXT
100
AcDbLine
 10
972.046875641956
 20
1982.999999999995
 30
0.0
 11
972.046875641956
 21
1999.999999999995
 31
0.0
  0
LINE
  5
19C
330
87
100
AcDbEntity
  8
P-SANR-FIXT
100
AcDbLine
 10
972.046875641956
 20
1998.650868309136
 30
0.0
 11
972.046875641956
 21
2001.349131690857
 31
0.0
  0
LINE
  5
19D
330
87
100
AcDbEntity
  8
P-SANR-FIXT
100
AcDbLine
 10
972.046875641956
 20
1999.999999999995
 30
0.0
 11
972.046875641956
 21
2016.999999999995
 31
0.0
  0
LINE
  5
19E
330
87
100
AcDbEntity
  8
P-SANR-FIXT
100
AcDbLine
 10
917.5468756419556
 20
2026.999999999995
 30
0.0
 11
951.5468756419561
 21
2026.999999999995
 31
0.0
  0
LINE
  5
19F
330
87
100
AcDbEntity
  8
P-SANR-FIXT
100
AcDbLine
 10
952.0468756419559
 20
2026.499999999995
 30
0.0
 11
917.0468756419559
 21
2026.499999999995
 31
0.0
  0
ENDBLK
  5
1A1
330
87
100
AcDbEntity
  8
0
100
AcDbBlockEnd
  0
BLOCK
  5
257
330
1A3
100
AcDbEntity
  8
0
100
AcDbBlockBegin
  2
Automatic flow rate regulator valve_Caleffi_121 DN15 - 1_2__-V1-Est - Idraulica
 70
     0
 10
0.0
 20
0.0
 30
0.0
  3
Automatic flow rate regulator valve_Caleffi_121 DN15 - 1_2__-V1-Est - Idraulica
  1

  0
LINE
  5
1A4
330
1A3
100
AcDbEntity
  8
M-PIPE
100
AcDbLine
 10
989.1144911511641
 20
1873.668759748036
 30
0.0
 11
879.9792601327455
 21
1873.668759748035
 31
0.0
1001
REVIT
1002
{
1070
     3
1000
963222
1002
}
  0
LWPOLYLINE
  5
1A5
330
1A3
100
AcDbEntity
  8
M-PIPE
100
AcDbPolyline
 90
       41
 70
   128
 43
0.0
 10
872.0485796167157
 20
1865.821562635163
 10
872.0532207034715
 20
1866.053586031543
 10
872.0722457372769
 20
1866.370289336271
 10
872.103920307375
 20
1866.6859785137
 10
872.1481937412113
 20
1867.000148528491
 10
872.2049952107353
 20
1867.312296775638
 10
872.2742338457132
 20
1867.621923884535
 10
872.3557988790989
 20
1867.928534517856
 10
872.4495598242389
 20
1868.231638163997
 10
872.5553666836221
 20
1868.53074992178
 10
872.6730501888447
 20
1868.825391276202
 10
872.8024220714024
 20
1869.115090863949
 10
872.9432753638809
 20
1869.399385227479
 10
873.0953847310598
 20
1869.677819556457
 10
873.2585068303995
 20
1869.949948415354
 10
873.4323807013387
 20
1870.215336456044
 10
873.616728182775
 20
1870.473559114278
 10
873.8112543580637
 20
1870.724203288886
 10
874.0156480268208
 20
1870.966868002655
 10
874.2295822027777
 20
1871.201165043812
 10
874.4527146368902
 20
1871.42671958707
 10
874.6846883648625
 20
1871.643170793275
 10
874.925132278215
 20
1871.850172386672
 10
875.1736617179785
 20
1872.047393208868
 10
875.4298790900659
 20
1872.234517748621
 10
875.6933745013386
 20
1872.411246646585
 10
875.9637264153482
 20
1872.577297174222
 10
876.240502326704
 20
1872.73240368611
 10
876.5232594529903
 20
1872.876318044919
 10
876.8115454431235
 20
1873.008810018374
 10
877.1048991010172
 20
1873.129667647581
 10
877.402851123397
 20
1873.238697586115
 10
877.7049248505871
 20
1873.335725409334
 10
878.0106370290635
 20
1873.420595893417
 10
878.3194985845547
 20
1873.493173263695
 10
878.6310154044597
 20
1873.553341411858
 10
878.9446891283198
 20
1873.601004081705
 10
879.2600179450902
 20
1873.63608502313
 10
879.5764973959306
 20
1873.658528114111
 10
879.8936211812318
 20
1873.668297450491
 10
879.9792601327455
 20
1873.668759748035
1001
REVIT
1002
{
1070
     3
1000
963222
1002
}
  0
LWPOLYLINE
  5
1A6
330
1A3
100
AcDbEntity
  8
M-PIPE
100
AcDbPolyline
 90
       41
 70
   128
 43
0.0
 10
989.1144911511641
 20
1873.668759748036
 10
989.431701925463
 20
1873.662414686519
 10
989.7484052301914
 20
1873.643389652713
 10
990.0640944076211
 20
1873.611715082615
 10
990.3782644224115
 20
1873.567441648779
 10
990.6904126695586
 20
1873.510640179255
 10
991.000039778455
 20
1873.441401544277
 10
991.3066504117763
 20
1873.359836510891
 10
991.6097540579167
 20
1873.266075565751
 10
991.9088658157006
 20
1873.160268706368
 10
992.2035071701227
 20
1873.042585201146
 10
992.4932067578694
 20
1872.913213318588
 10
992.7775011213995
 20
1872.772360026109
 10
993.0559354503779
 20
1872.62025065893
 10
993.3280643092739
 20
1872.457128559591
 10
993.5934523499646
 20
1872.283254688651
 10
993.851675008198
 20
1872.098907207215
 10
994.1023191828056
 20
1871.904381031926
 10
994.3449838965758
 20
1871.699987363169
 10
994.5792809377323
 20
1871.486053187213
 10
994.8048354809898
 20
1871.2629207531
 10
995.021286687195
 20
1871.030947025128
 10
995.2282882805919
 20
1870.790503111775
 10
995.4255091027887
 20
1870.541973672012
 10
995.6126336425416
 20
1870.285756299924
 10
995.7893625405048
 20
1870.022260888651
 10
995.9554130681416
 20
1869.751908974642
 10
996.1105195800302
 20
1869.475133063286
 10
996.254433938839
 20
1869.192375937
 10
996.3869259122942
 20
1868.904089946866
 10
996.5077835415014
 20
1868.610736288973
 10
996.6168134800359
 20
1868.312784266593
 10
996.7138413032541
 20
1868.010710539403
 10
996.7987117873372
 20
1867.704998360927
 10
996.8712891576153
 20
1867.396136805435
 10
996.9314573057785
 20
1867.084619985531
 10
996.9791199756251
 20
1866.77094626167
 10
997.0142009170503
 20
1866.4556174449
 10
997.0366440080317
 20
1866.139137994059
 10
997.046413344411
 20
1865.822014208758
 10
997.0468756419549
 20
1865.736375257245
1001
REVIT
1002
{
1070
     3
1000
963222
1002
}
  0
SPLINE
  5
1A7
330
1A3
100
AcDbEntity
  8
M-PIPE
100
AcDbSpline
210
0.0
220
0.0
230
1.0
 70
     8
 71
     3
 72
    20
 73
    16
 74
     0
 42
0.000000001
 43
0.0000000001
 40
0.0
 40
0.0
 40
0.0
 40
0.0
 40
0.25
 40
0.3125
 40
0.375
 40
0.4375
 40
0.5
 40
0.53125
 40
0.5625
 40
0.625
 40
0.6875
 40
0.75
 40
0.8125
 40
0.875
 40
1.0
 40
1.0
 40
1.0
 40
1.0
 10
962.0929987811534
 20
1855.581638222814
 30
0.0
 10
964.1372466918822
 20
1854.412783983383
 30
0.0
 10
966.5017165459373
 20
1852.734847677756
 30
0.0
 10
969.1129001750013
 20
1850.358154176333
 30
0.0
 10
970.3809948558021
 20
1849.095782279756
 30
0.0
 10
971.5780571460115
 20
1847.759060175744
 30
0.0
 10
972.4886926101914
 20
1846.584624211921
 30
0.0
 10
973.1685186962655
 20
1845.606067745315
 30
0.0
 10
973.8330309029201
 20
1844.599041702572
 30
0.0
 10
974.613341620577
 20
1843.291904074288
 30
0.0
 10
975.4405946943544
 20
1841.655249704116
 30
0.0
 10
976.1159099634809
 20
1839.964463176152
 30
0.0
 10
976.6342947987864
 20
1838.223114108129
 30
0.0
 10
977.1544282192222
 20
1835.82561386373
 30
0.0
 10
977.3413590056403
 20
1833.949601670429
 30
0.0
 10
977.3768756419531
 20
1832.668759748035
 30
0.0
1001
REVIT
1002
{
1070
     3
1000
963222
1002
}
  0
LINE
  5
1A8
330
1A3
100
AcDbEntity
  8
M-PIPE
100
AcDbLine
 10
977.3768756419531
 20
1832.668759748035
 30
0.0
 11
989.1144911511625
 21
1832.668759748035
 31
0.0
1001
REVIT
1002
{
1070
     3
1000
963222
1002
}
  0
LINE
  5
1A9
330
1A3
100
AcDbEntity
  8
M-PIPE
100
AcDbLine
 10
879.9792601327441
 20
1832.668759748034
 30
0.0
 11
891.7168756419533
 21
1832.668759748034
 31
0.0
1001
REVIT
1002
{
1070
     3
1000
963222
1002
}
  0
SPLINE
  5
1AA
330
1A3
100
AcDbEntity
  8
M-PIPE
100
AcDbSpline
210
0.0
220
0.0
230
1.0
 70
     8
 71
     3
 72
    20
 73
    16
 74
     0
 42
0.000000001
 43
0.0000000001
 40
0.0
 40
0.0
 40
0.0
 40
0.0
 40
0.125
 40
0.1875
 40
0.25
 40
0.3125
 40
0.375
 40
0.4375
 40
0.5
 40
0.53125
 40
0.5625
 40
0.625
 40
0.6875
 40
0.75
 40
1.0
 40
1.0
 40
1.0
 40
1.0
 10
891.7168756419533
 20
1832.668759748034
 30
0.0
 10
891.7523922782661
 20
1833.949601670428
 30
0.0
 10
891.9393180226339
 20
1835.825612950907
 30
0.0
 10
892.4594648885378
 20
1838.223115629499
 30
0.0
 10
892.9778093874391
 20
1839.964457394942
 30
0.0
 10
893.6532759180806
 20
1841.655271307583
 30
0.0
 10
894.4799642822029
 20
1843.291823441626
 30
0.0
 10
895.4184447204953
 20
1844.860770155403
 30
0.0
 10
896.2593068267331
 20
1846.102247681202
 30
0.0
 10
896.9670357956887
 20
1847.054003504677
 30
0.0
 10
897.7165190390188
 20
1847.982075275027
 30
0.0
 10
898.7123110717973
 20
1849.095705006089
 30
0.0
 10
899.980966039565
 20
1850.358174117923
 30
0.0
 10
902.591891074644
 20
1852.734822750767
 30
0.0
 10
904.9565045920241
 20
1854.412783983383
 30
0.0
 10
907.0007525027527
 20
1855.581638222814
 30
0.0
1001
REVIT
1002
{
1070
     3
1000
963222
1002
}
  0
LINE
  5
1AB
330
1A3
100
AcDbEntity
  8
M-PIPE
100
AcDbLine
 10
907.0007525027527
 20
1855.581638222814
 30
0.0
 11
915.4932670598503
 21
1855.581638222814
 31
0.0
1001
REVIT
1002
{
1070
     3
1000
963222
1002
}
  0
SPLINE
  5
1AC
330
1A3
100
AcDbEntity
  8
M-PIPE
100
AcDbSpline
210
0.0
220
0.0
230
1.0
 70
     8
 71
     3
 72
    12
 73
     8
 74
     0
 42
0.000000001
 43
0.0000000001
 40
0.0
 40
0.0
 40
0.0
 40
0.0
 40
0.2
 40
0.4
 40
0.7
 40
0.85
 40
1.0
 40
1.0
 40
1.0
 40
1.0
 10
915.4932670598503
 20
1855.581638222814
 30
0.0
 10
917.8171698488778
 20
1856.774453203302
 30
0.0
 10
922.6329873590346
 20
1858.602431480356
 30
0.0
 10
931.8589438414303
 20
1860.146075678455
 30
0.0
 10
940.6204085127418
 20
1859.791295165487
 30
0.0
 10
948.2756556862575
 20
1857.951256941507
 30
0.0
 10
951.856109033569
 20
1856.476054253801
 30
0.0
 10
953.600484224056
 20
1855.581638222814
 30
0.0
1001
REVIT
1002
{
1070
     3
1000
963222
1002
}
  0
LINE
  5
1AD
330
1A3
100
AcDbEntity
  8
M-PIPE
100
AcDbLine
 10
953.600484224056
 20
1855.581638222814
 30
0.0
 11
962.0929987811534
 21
1855.581638222814
 31
0.0
1001
REVIT
1002
{
1070
     3
1000
963222
1002
}
  0
LINE
  5
1AE
330
1A3
100
AcDbEntity
  8
M-PIPE
100
AcDbLine
 10
970.3768756419533
 20
1832.668759748035
 30
0.0
 11
977.3768756419535
 21
1832.668759748035
 31
0.0
1001
REVIT
1002
{
1070
     3
1000
963222
1002
}
  0
LINE
  5
1AF
330
1A3
100
AcDbEntity
  8
M-PIPE
100
AcDbLine
 10
891.7168756419533
 20
1832.668759748034
 30
0.0
 11
898.7168756419533
 21
1832.668759748034
 31
0.0
1001
REVIT
1002
{
1070
     3
1000
963222
1002
}
  0
ARC
  5
1B0
330
1A3
100
AcDbEntity
  8
M-PIPE
100
AcDbCircle
 10
934.5468756419531
 20
1832.668759748034
 30
0.0
 40
35.83000000000013
100
AcDbArc
 50
0.0000000000010908
 51
39.7537002808353
1001
REVIT
1002
{
1070
     3
1000
963222
1002
}
  0
ARC
  5
1B1
330
1A3
100
AcDbEntity
  8
M-PIPE
100
AcDbCircle
 10
934.5468756419533
 20
1832.668759748034
 30
0.0
 40
29.80000000000004
100
AcDbArc
 50
0.0000000000008743
 51
50.25418531161427
1001
REVIT
1002
{
1070
     3
1000
963222
1002
}
  0
LINE
  5
1B2
330
1A3
100
AcDbEntity
  8
M-PIPE
100
AcDbLine
 10
964.3468756419533
 20
1832.668759748035
 30
0.0
 11
970.3768756419533
 21
1832.668759748035
 31
0.0
1001
REVIT
1002
{
1070
     3
1000
963222
1002
}
  0
ARC
  5
1B3
330
1A3
100
AcDbEntity
  8
M-PIPE
100
AcDbCircle
 10
934.5468756419531
 20
1832.668759748034
 30
0.0
 40
35.83000000000016
100
AcDbArc
 50
140.2462997191651
 51
180.0000000000003
1001
REVIT
1002
{
1070
     3
1000
963222
1002
}
  0
LINE
  5
1B4
330
1A3
100
AcDbEntity
  8
M-PIPE
100
AcDbLine
 10
898.7168756419533
 20
1832.668759748034
 30
0.0
 11
904.7468756419529
 21
1832.668759748034
 31
0.0
1001
REVIT
1002
{
1070
     3
1000
963222
1002
}
  0
ARC
  5
1B5
330
1A3
100
AcDbEntity
  8
M-PIPE
100
AcDbCircle
 10
934.5468756419533
 20
1832.668759748034
 30
0.0
 40
29.79999999999991
100
AcDbArc
 50
129.7458146883861
 51
179.9999999999996
1001
REVIT
1002
{
1070
     3
1000
963222
1002
}
  0
LINE
  5
1B6
330
1A3
100
AcDbEntity
  8
M-PIPE
100
AcDbLine
 10
904.7468756419531
 20
1832.668759748035
 30
0.0
 11
913.531304391927
 21
1832.668759748035
 31
0.0
1001
REVIT
1002
{
1070
     3
1000
963222
1002
}
  0
LINE
  5
1B7
330
1A3
100
AcDbEntity
  8
M-PIPE
100
AcDbLine
 10
959.8756344932112
 20
1832.668759748035
 30
0.0
 11
960.1950505671743
 21
1832.668759748035
 31
0.0
1001
REVIT
1002
{
1070
     3
1000
963222
1002
}
  0
LINE
  5
1B8
330
1A3
100
AcDbEntity
  8
M-PIPE
100
AcDbLine
 10
872.0468756419531
 20
1832.668759748034
 30
0.0
 11
879.9792601327441
 21
1832.668759748034
 31
0.0
1001
REVIT
1002
{
1070
     3
1000
963222
1002
}
  0
LINE
  5
1B9
330
1A3
100
AcDbEntity
  8
M-PIPE
100
AcDbLine
 10
989.1144911511625
 20
1832.668759748035
 30
0.0
 11
997.0468756419533
 21
1832.668759748035
 31
0.0
1001
REVIT
1002
{
1070
     3
1000
963222
1002
}
  0
LWPOLYLINE
  5
1BA
330
1A3
100
AcDbEntity
  8
M-PIPE
100
AcDbPolyline
 90
       33
 70
   128
 43
0.0
 10
953.2050600619042
 20
1838.336400716835
 10
952.9634903157171
 20
1839.077995580661
 10
952.6924579147204
 20
1839.809337034386
 10
952.3923964529386
 20
1840.529255087695
 10
952.0637859647003
 20
1841.236598025276
 10
951.7071521566872
 20
1841.930234249321
 10
951.3230655669142
 20
1842.609054089841
 10
950.9121406519911
 20
1843.271971579897
 10
950.4750348041223
 20
1843.917926192919
 10
950.0124472994199
 20
1844.545884539324
 10
949.5251181792117
 20
1845.154842019714
 10
949.0138270661319
 20
1845.743824432025
 10
948.4793919168916
 20
1846.31188953004
 10
947.9226677137233
 20
1846.858128530784
 10
947.3445450965902
 20
1847.381667568378
 10
946.7459489383536
 20
1847.881669092046
 10
946.1278368651727
 20
1848.357333206012
 10
945.4911977245082
 20
1848.807898949162
 10
944.8370500031757
 20
1849.232645512423
 10
944.1664401979853
 20
1849.630893391901
 10
943.4804411415697
 20
1850.002005475944
 10
942.7801502860804
 20
1850.345388064385
 10
942.0666879474989
 20
1850.660491818333
 10
941.3411955133694
 20
1850.946812639
 10
940.6048336168234
 20
1851.203892474151
 10
939.8587802798129
 20
1851.431320050891
 10
939.1042290285275
 20
1851.628731533612
 10
938.3423869840074
 20
1851.795811106055
 10
937.574472931006
 20
1851.932291476545
 10
936.801715368195
 20
1852.037954305604
 10
936.0253505428287
 20
1852.112630555244
 10
935.2466204730125
 20
1852.156200759399
 10
934.5468756419565
 20
1852.168759748034
1001
REVIT
1002
{
1070
     3
1000
923114
1002
}
  0
LWPOLYLINE
  5
1BB
330
1A3
100
AcDbEntity
  8
M-PIPE
100
AcDbPolyline
 90
       33
 70
   128
 43
0.0
 10
934.5468756419572
 20
1813.168759748034
 10
935.3266676585967
 20
1813.184357668145
 10
936.105212174356
 20
1813.231126475133
 10
936.8812636840912
 20
1813.308991348884
 10
937.653580670935
 20
1813.417827722209
 10
938.4209275924609
 20
1813.55746148013
 10
939.1820768572866
 20
1813.72766923842
 10
939.9358107889575
 20
1813.928178700974
 10
940.6809235739716
 20
1814.158669095427
 10
941.4162231908216
 20
1814.418771686314
 10
942.1405333169758
 20
1814.708070364978
 10
942.8526952107443
 20
1815.026102315245
 10
943.5515695650163
 20
1815.372358753838
 10
944.2360383299101
 20
1815.74628574432
 10
944.9050065014144
 20
1816.147285083273
 10
945.5574038731603
 20
1816.574715257295
 10
946.1921867485237
 20
1817.027892469291
 10
946.8083396103171
 20
1817.506091732391
 10
947.4048767454007
 20
1818.008548029787
 10
947.9808438216128
 20
1818.534457538586
 10
948.5353194144977
 20
1819.082978915765
 10
949.0674164813887
 20
1819.653234644128
 10
949.5762837804868
 20
1820.244312436162
 10
950.0611072326661
 20
1820.855266693487
 10
950.5211112238264
 20
1821.485120019621
 10
950.955559845711
 20
1822.132864783606
 10
951.3637580732019
 20
1822.797464731995
 10
951.7450528762134
 20
1823.477856646647
 10
952.0988342643986
 20
1824.172952045638
 10
952.4245362630065
 20
1824.881638924612
 10
952.7216378183178
 20
1825.60278353574
 10
952.9896636312228
 20
1826.335232201478
 10
953.2050600619042
 20
1827.001118779234
1001
REVIT
1002
{
1070
     3
1000
923114
1002
}
  0
LWPOLYLINE
  5
1BC
330
1A3
100
AcDbEntity
  8
M-PIPE
100
AcDbPolyline
 90
       33
 70
   128
 43
0.0
 10
915.8886913525384
 20
1827.001118349525
 10
916.1302611158046
 20
1826.259523491262
 10
916.4012935336446
 20
1825.528182043779
 10
916.7013550120067
 20
1824.808263997381
 10
917.0299655165354
 20
1824.100921067368
 10
917.3865993405234
 20
1823.407284851536
 10
917.7706859459298
 20
1822.728465019862
 10
918.1816108761204
 20
1822.06554753927
 10
918.6187167388659
 20
1821.419592936315
 10
919.0813042580304
 20
1820.791634600563
 10
919.5686333922633
 20
1820.182677131396
 10
920.0799245189079
 20
1819.59369473086
 10
920.6143596812308
 20
1819.025629645154
 10
921.1710838969793
 20
1818.479390657232
 10
921.74920652617
 20
1817.955851632952
 10
922.3478026959218
 20
1817.45585012307
 10
922.9659147800573
 20
1816.98018602334
 10
923.6025539310988
 20
1816.529620294852
 10
924.2567016622135
 20
1816.104873746657
 10
924.9273114765756
 20
1815.706625882623
 10
925.6133105415381
 20
1815.335513814378
 10
926.3136014049358
 20
1814.992131242066
 10
927.0270637507744
 20
1814.67702750455
 10
927.7525561914981
 20
1814.390706700592
 10
928.4889180939648
 20
1814.133626882399
 10
929.234971436213
 20
1813.906199322842
 10
929.9895226920446
 20
1813.708787857498
 10
930.7513647404128
 20
1813.5417083026
 10
931.5192787965573
 20
1813.405227949796
 10
932.2920363618019
 20
1813.299565138534
 10
933.0684011888878
 20
1813.224888906773
 10
933.8471312597077
 20
1813.181318720554
 10
934.5468756419572
 20
1813.168759748034
1001
REVIT
1002
{
1070
     3
1000
923114
1002
}
  0
LWPOLYLINE
  5
1BD
330
1A3
100
AcDbEntity
  8
M-PIPE
100
AcDbPolyline
 90
       33
 70
   128
 43
0.0
 10
934.5468756419561
 20
1852.168759748034
 10
933.7670836253169
 20
1852.153161827923
 10
932.9885391095572
 20
1852.106393020935
 10
932.2124875998223
 20
1852.028528147184
 10
931.4401706129784
 20
1851.919691773859
 10
930.6728236914524
 20
1851.780058015938
 10
929.9116744266271
 20
1851.609850257649
 10
929.157940494956
 20
1851.409340795094
 10
928.4128277099419
 20
1851.178850400642
 10
927.677528093092
 20
1850.918747809753
 10
926.9532179669376
 20
1850.62944913109
 10
926.2410560731691
 20
1850.311417180823
 10
925.5421817188974
 20
1849.96516074223
 10
924.8577129540034
 20
1849.591233751748
 10
924.1887447824991
 20
1849.190234412796
 10
923.5363474107533
 20
1848.762804238773
 10
922.9015645353896
 20
1848.309627026777
 10
922.2854116735964
 20
1847.831427763677
 10
921.6888745385128
 20
1847.328971466281
 10
921.1129074623006
 20
1846.803061957481
 10
920.5584318694157
 20
1846.254540580304
 10
920.0263348025249
 20
1845.684284851939
 10
919.5174675034266
 20
1845.093207059906
 10
919.0326440512475
 20
1844.482252802581
 10
918.572640060087
 20
1843.852399476447
 10
918.1381914382026
 20
1843.204654712463
 10
917.7299932107116
 20
1842.540054764073
 10
917.3486984076999
 20
1841.859662849422
 10
916.9949170195147
 20
1841.16456745043
 10
916.6692150209071
 20
1840.455880571456
 10
916.3721134655956
 20
1839.734735960329
 10
916.1040876526907
 20
1839.00228729459
 10
915.8886905587506
 20
1838.336398533351
1001
REVIT
1002
{
1070
     3
1000
923114
1002
}
  0
LINE
  5
1BE
330
1A3
100
AcDbEntity
  8
M-PIPE
100
AcDbLine
 10
952.7147071257751
 20
1838.46927753974
 30
0.0
 11
948.1398659662698
 21
1839.358536578581
 31
0.0
1001
REVIT
1002
{
1070
     3
1000
923114
1002
}
  0
LWPOLYLINE
  5
1BF
330
1A3
100
AcDbEntity
  8
M-PIPE
100
AcDbPolyline
 90
       57
 70
   128
 43
0.0
 10
948.1398659662698
 20
1839.358536578581
 10
947.8614733025407
 20
1839.896760103329
 10
947.5617801228507
 20
1840.423420369401
 10
947.2412658723563
 20
1840.937674832718
 10
946.9004433054848
 20
1841.438700795841
 10
946.5398576656395
 20
1841.925696724107
 10
946.1600858129225
 20
1842.397883527921
 10
945.7617353012844
 20
1842.854505809121
 10
945.3454434065674
 20
1843.294833069468
 10
944.9118761069984
 20
1843.718160879275
 10
944.4617270177678
 20
1844.123812004352
 10
943.9957162813911
 20
1844.511137489433
 10
943.5145894156365
 20
1844.879517696366
 10
943.0191161208542
 20
1845.228363295405
 10
942.5100890486204
 20
1845.557116208007
 10
941.9883225336645
 20
1845.865250499644
 10
941.4546512911057
 20
1846.152273221179
 10
940.9099290810884
 20
1846.417725197485
 10
940.3550273429473
 20
1846.661181762029
 10
939.7908338010912
 20
1846.882253436242
 10
939.2182510448316
 20
1847.080586552603
 10
938.6381950844347
 20
1847.255863820437
 10
938.0515938856976
 20
1847.407804833504
 10
937.4593858854041
 20
1847.536166518596
 10
936.8625184900235
 20
1847.640743524399
 10
936.2619465600632
 20
1847.721368550014
 10
935.6586308824965
 20
1847.777912612597
 10
935.0535366337064
 20
1847.81028525371
 10
934.4476318354116
 20
1847.818434684035
 10
933.8418858060363
 20
1847.80234786622
 10
933.2372676100085
 20
1847.762050535743
 10
932.6347445074636
 20
1847.697607159735
 10
932.0352804068345
 20
1847.609120833852
 10
931.4398343228033
 20
1847.496733117339
 10
930.8493588420825
 20
1847.360623806567
 10
930.2647985994797
 20
1847.201010647398
 10
929.6870887666839
 20
1847.018148986839
 10
929.1171535561893
 20
1846.812331364537
 10
928.5559047427531
 20
1846.583887044784
 10
928.0042402047499
 20
1846.333181489757
 10
927.4630424877583
 20
1846.060615774865
 10
926.9331773926765
 20
1845.766625947108
 10
926.4154925906241
 20
1845.451682327493
 10
925.9108162668516
 20
1845.116288758631
 10
925.419955795818
 20
1844.760981798681
 10
924.9436964495659
 20
1844.386329862988
 10
924.4828001414527
 20
1843.992932314726
 10
924.0380042072519
 20
1843.581418506051
 10
923.6100202255737
 20
1843.152446771273
 10
923.1995328794901
 20
1842.706703373659
 10
922.807198861189
 20
1842.244901407557
 10
922.4336458214066
 20
1841.767779657602
 10
922.0794713653189
 20
1841.276101416812
 10
921.7452420965029
 20
1840.770653265487
 10
921.4314927104904
 20
1840.252243812845
 10
921.1387251393686
 20
1839.721702403424
 10
920.9538842559062
 20
1839.358534421298
1001
REVIT
1002
{
1070
     3
1000
923114
1002
}
  0
LINE
  5
1C0
330
1A3
100
AcDbEntity
  8
M-PIPE
100
AcDbLine
 10
920.9538842559062
 20
1839.358534421298
 30
0.0
 11
916.3790441581392
 21
1838.469275588838
 31
0.0
1001
REVIT
1002
{
1070
     3
1000
923114
1002
}
  0
LINE
  5
1C1
330
1A3
100
AcDbEntity
  8
M-PIPE
100
AcDbLine
 10
913.5468756419571
 20
1835.033580446771
 30
0.0
 11
913.5468756419573
 21
1830.303936714458
 31
0.0
1001
REVIT
1002
{
1070
     3
1000
923114
1002
}
  0
LINE
  5
1C2
330
1A3
100
AcDbEntity
  8
M-PIPE
100
AcDbLine
 10
916.3790441581392
 20
1826.868241572392
 30
0.0
 11
920.9538855265355
 21
1825.978982492947
 31
0.0
1001
REVIT
1002
{
1070
     3
1000
923114
1002
}
  0
LWPOLYLINE
  5
1C3
330
1A3
100
AcDbEntity
  8
M-PIPE
100
AcDbPolyline
 90
       57
 70
   128
 43
0.0
 10
920.9538855265355
 20
1825.978982492947
 10
921.2322782070737
 20
1825.440758976892
 10
921.5319714032114
 20
1824.91409872018
 10
921.8524856697664
 20
1824.399844266873
 10
922.1933082522848
 20
1823.898818314395
 10
922.5538939073395
 20
1823.411822397389
 10
922.9336657748032
 20
1822.939635605436
 10
923.3320163007014
 20
1822.483013336676
 10
923.7483082091705
 20
1822.04268608933
 10
924.18187552196
 20
1821.619358293064
 10
924.6320246238594
 20
1821.213707182046
 10
925.0980353723326
 20
1820.826381711519
 10
925.5791622495918
 20
1820.458001519611
 10
926.0746355552688
 20
1820.109155936046
 10
926.5836626377694
 20
1819.78040303934
 10
927.1054291623489
 20
1819.472268763999
 10
927.6391004138714
 20
1819.185246059132
 10
928.183822632179
 20
1818.919794099837
 10
928.738724377923
 20
1818.676337552622
 10
929.3029179266834
 20
1818.45526589603
 10
929.875500689137
 20
1818.25693279755
 10
930.455556655008
 20
1818.081655547833
 10
931.0421578584902
 20
1817.929714553085
 10
931.6343658627925
 20
1817.801352886488
 10
932.2312332614393
 20
1817.696775899325
 10
932.8318051939174
 20
1817.616150892467
 10
933.4351208732501
 20
1817.559606848726
 10
934.0402151230511
 20
1817.52723422651
 10
934.6461199216006
 20
1817.519084815108
 10
935.2518659504735
 20
1817.53517165184
 10
935.8564841452427
 20
1817.5754690012
 10
936.4590072457747
 20
1817.639912396025
 10
937.0584713436404
 20
1817.72839874063
 10
937.6539174241619
 20
1817.840786475739
 10
938.2443929006321
 20
1817.976895804951
 10
938.8289531382499
 20
1818.136508982376
 10
939.4066629653348
 20
1818.319370660978
 10
939.9765981694017
 20
1818.525188301078
 10
940.5378469757035
 20
1818.753632638361
 10
941.0895115058771
 20
1819.004338210616
 10
941.6307092143561
 20
1819.276903942409
 10
942.1605743002567
 20
1819.570893786715
 10
942.678259092473
 20
1819.885837422497
 10
943.1829354057711
 20
1820.221231007121
 10
943.6737958657083
 20
1820.5765379824
 10
944.1500552002599
 20
1820.951189932968
 10
944.610951496087
 20
1821.344587495624
 10
945.055747417436
 20
1821.756101318189
 10
945.4837313857174
 20
1822.185073066333
 10
945.89421871788
 20
1822.630816476767
 10
946.2865527217587
 20
1823.092618455122
 10
946.6601057466405
 20
1823.569740216743
 10
947.0142801873727
 20
1824.061418468594
 10
947.3485094404033
 20
1824.566866630358
 10
947.6622588102259
 20
1825.085276092798
 10
947.9550263647785
 20
1825.615817511362
 10
948.1398659662835
 20
1825.978982917491
1001
REVIT
1002
{
1070
     3
1000
923114
1002
}
  0
LINE
  5
1C4
330
1A3
100
AcDbEntity
  8
M-PIPE
100
AcDbLine
 10
948.1398659662835
 20
1825.978982917491
 30
0.0
 11
952.7147071257752
 21
1826.868241956329
 31
0.0
1001
REVIT
1002
{
1070
     3
1000
923114
1002
}
  0
LINE
  5
1C5
330
1A3
100
AcDbEntity
  8
M-PIPE
100
AcDbLine
 10
955.5468756419573
 20
1830.303937098396
 30
0.0
 11
955.5468756419571
 21
1832.668759748022
 31
0.0
1001
REVIT
1002
{
1070
     3
1000
923114
1002
}
  0
LINE
  5
1C6
330
1A3
100
AcDbEntity
  8
M-PIPE
100
AcDbLine
 10
955.5468756419571
 20
1832.668759748022
 30
0.0
 11
955.5468756419571
 21
1835.033582397673
 31
0.0
1001
REVIT
1002
{
1070
     3
1000
923114
1002
}
  0
ARC
  5
1C7
330
1A3
100
AcDbEntity
  8
M-PIPE
100
AcDbCircle
 10
934.5468756419382
 20
1832.668759748021
 30
0.0
 40
15.15000000000015
100
AcDbArc
 50
276.3795940254943
 51
277.0938465433943
1001
REVIT
1002
{
1070
     3
1000
923114
1002
}
  0
ARC
  5
1C8
330
1A3
100
AcDbEntity
  8
M-PIPE
100
AcDbCircle
 10
934.5468756419382
 20
1832.668759748021
 30
0.0
 40
15.15000000000005
100
AcDbArc
 50
281.8222067089142
 51
282.7591880509253
1001
REVIT
1002
{
1070
     3
1000
923114
1002
}
  0
ARC
  5
1C9
330
1A3
100
AcDbEntity
  8
M-PIPE
100
AcDbCircle
 10
934.5468756419382
 20
1832.668759748021
 30
0.0
 40
15.15000000000008
100
AcDbArc
 50
289.1387820763559
 51
291.2972490467557
1001
REVIT
1002
{
1070
     3
1000
923114
1002
}
  0
ARC
  5
1CA
330
1A3
100
AcDbEntity
  8
M-PIPE
100
AcDbCircle
 10
934.5468756419382
 20
1832.668759748021
 30
0.0
 40
15.15000000000002
100
AcDbArc
 50
295.5183761017869
 51
296.003896113919
1001
REVIT
1002
{
1070
     3
1000
923114
1002
}
  0
ARC
  5
1CB
330
1A3
100
AcDbEntity
  8
M-PIPE
100
AcDbCircle
 10
934.5468756419382
 20
1832.668759748021
 30
0.0
 40
15.15000000000016
100
AcDbArc
 50
300.7465458400121
 51
301.8979701272177
1001
REVIT
1002
{
1070
     3
1000
923114
1002
}
  0
ARC
  5
1CC
330
1A3
100
AcDbEntity
  8
M-PIPE
100
AcDbCircle
 10
934.5468756419382
 20
1832.668759748021
 30
0.0
 40
15.15000000000016
100
AcDbArc
 50
308.2775641526485
 51
310.2327110295318
1001
REVIT
1002
{
1070
     3
1000
923114
1002
}
  0
ARC
  5
1CD
330
1A3
100
AcDbEntity
  8
M-PIPE
100
AcDbCircle
 10
934.5468756419382
 20
1832.668759748021
 30
0.0
 40
15.15000000000015
100
AcDbArc
 50
314.6571581780792
 51
314.8817545826052
1001
REVIT
1002
{
1070
     3
1000
923114
1002
}
  0
ARC
  5
1CE
330
1A3
100
AcDbEntity
  8
M-PIPE
100
AcDbCircle
 10
934.5468756419382
 20
1832.668759748021
 30
0.0
 40
15.15000000000013
100
AcDbArc
 50
319.5641172637536
 51
321.0367522035105
1001
REVIT
1002
{
1070
     3
1000
923114
1002
}
  0
ARC
  5
1CF
330
1A3
100
AcDbEntity
  8
M-PIPE
100
AcDbCircle
 10
934.5468756419382
 20
1832.668759748021
 30
0.0
 40
15.15000000000008
100
AcDbArc
 50
327.4163462289408
 51
329.0312743702157
1001
REVIT
1002
{
1070
     3
1000
923114
1002
}
  0
ARC
  5
1D0
330
1A3
100
AcDbEntity
  8
M-PIPE
100
AcDbCircle
 10
934.5468756419382
 20
1832.668759748021
 30
0.0
 40
15.15000000000005
100
AcDbArc
 50
210.9687274177525
 51
212.5836553816143
1001
REVIT
1002
{
1070
     3
1000
923114
1002
}
  0
ARC
  5
1D1
330
1A3
100
AcDbEntity
  8
M-PIPE
100
AcDbCircle
 10
934.5468756419382
 20
1832.668759748021
 30
0.0
 40
15.15
100
AcDbArc
 50
218.9632492281082
 51
220.4358845364421
1001
REVIT
1002
{
1070
     3
1000
923114
1002
}
  0
ARC
  5
1D2
330
1A3
100
AcDbEntity
  8
M-PIPE
100
AcDbCircle
 10
934.5468756419382
 20
1832.668759748021
 30
0.0
 40
15.14999999999997
100
AcDbArc
 50
225.1182471815911
 51
225.3428430746024
1001
REVIT
1002
{
1070
     3
1000
923114
1002
}
  0
ARC
  5
1D3
330
1A3
100
AcDbEntity
  8
M-PIPE
100
AcDbCircle
 10
934.5468756419382
 20
1832.668759748021
 30
0.0
 40
15.14999999999993
100
AcDbArc
 50
229.7672907797246
 51
231.7224369210962
1001
REVIT
1002
{
1070
     3
1000
923114
1002
}
  0
ARC
  5
1D4
330
1A3
100
AcDbEntity
  8
M-PIPE
100
AcDbCircle
 10
934.5468756419382
 20
1832.668759748021
 30
0.0
 40
15.14999999999999
100
AcDbArc
 50
238.1020307675911
 51
239.253455934251
1001
REVIT
1002
{
1070
     3
1000
923114
1002
}
  0
ARC
  5
1D5
330
1A3
100
AcDbEntity
  8
M-PIPE
100
AcDbCircle
 10
934.5468756419382
 20
1832.668759748021
 30
0.0
 40
15.14999999999998
100
AcDbArc
 50
243.9961057036347
 51
244.4816246140854
1001
REVIT
1002
{
1070
     3
1000
923114
1002
}
  0
ARC
  5
1D6
330
1A3
100
AcDbEntity
  8
M-PIPE
100
AcDbCircle
 10
934.5468756419382
 20
1832.668759748021
 30
0.0
 40
15.1500000000001
100
AcDbArc
 50
248.70275275503
 51
250.8612184605797
1001
REVIT
1002
{
1070
     3
1000
923114
1002
}
  0
ARC
  5
1D7
330
1A3
100
AcDbEntity
  8
M-PIPE
100
AcDbCircle
 10
934.5468756419382
 20
1832.668759748021
 30
0.0
 40
15.14999999999999
100
AcDbArc
 50
257.2408123070742
 51
258.1777950712691
1001
REVIT
1002
{
1070
     3
1000
923114
1002
}
  0
ARC
  5
1D8
330
1A3
100
AcDbEntity
  8
M-PIPE
100
AcDbCircle
 10
934.5468756419382
 20
1832.668759748021
 30
0.0
 40
15.15000000000005
100
AcDbArc
 50
262.9061552575001
 51
263.6204061535689
1001
REVIT
1002
{
1070
     3
1000
923114
1002
}
  0
ARC
  5
1D9
330
1A3
100
AcDbEntity
  8
M-PIPE
100
AcDbCircle
 10
934.5468756419382
 20
1832.668759748021
 30
0.0
 40
15.15000000000013
100
AcDbArc
 50
30.968726026928
 51
32.58365377116462
1001
REVIT
1002
{
1070
     3
1000
923114
1002
}
  0
ARC
  5
1DA
330
1A3
100
AcDbEntity
  8
M-PIPE
100
AcDbCircle
 10
934.5468756419382
 20
1832.668759748021
 30
0.0
 40
15.15000000000005
100
AcDbArc
 50
38.96324779658358
 51
40.43588397943403
1001
REVIT
1002
{
1070
     3
1000
923114
1002
}
  0
ARC
  5
1DB
330
1A3
100
AcDbEntity
  8
M-PIPE
100
AcDbCircle
 10
934.5468756419382
 20
1832.668759748021
 30
0.0
 40
15.14999999999992
100
AcDbArc
 50
45.11824695317153
 51
45.34284182200223
1001
REVIT
1002
{
1070
     3
1000
923114
1002
}
  0
ARC
  5
1DC
330
1A3
100
AcDbEntity
  8
M-PIPE
100
AcDbCircle
 10
934.5468756419382
 20
1832.668759748021
 30
0.0
 40
15.14999999999996
100
AcDbArc
 50
49.76729102678152
 51
51.72243584742192
1001
REVIT
1002
{
1070
     3
1000
923114
1002
}
  0
ARC
  5
1DD
330
1A3
100
AcDbEntity
  8
M-PIPE
100
AcDbCircle
 10
934.5468756419382
 20
1832.668759748021
 30
0.0
 40
15.15000000000003
100
AcDbArc
 50
58.10202987284108
 51
59.25345692701458
1001
REVIT
1002
{
1070
     3
1000
923114
1002
}
  0
ARC
  5
1DE
330
1A3
100
AcDbEntity
  8
M-PIPE
100
AcDbCircle
 10
934.5468756419382
 20
1832.668759748021
 30
0.0
 40
15.15000000000002
100
AcDbArc
 50
63.99610719241771
 51
64.48162389826037
1001
REVIT
1002
{
1070
     3
1000
923114
1002
}
  0
ARC
  5
1DF
330
1A3
100
AcDbEntity
  8
M-PIPE
100
AcDbCircle
 10
934.5468756419382
 20
1832.668759748021
 30
0.0
 40
15.14999999999997
100
AcDbArc
 50
68.70275460974283
 51
70.86121792367954
1001
REVIT
1002
{
1070
     3
1000
923114
1002
}
  0
ARC
  5
1E0
330
1A3
100
AcDbEntity
  8
M-PIPE
100
AcDbCircle
 10
934.5468756419382
 20
1832.668759748021
 30
0.0
 40
15.14999999999995
100
AcDbArc
 50
77.24081194909889
 51
78.17779769437556
1001
REVIT
1002
{
1070
     3
1000
923114
1002
}
  0
ARC
  5
1E1
330
1A3
100
AcDbEntity
  8
M-PIPE
100
AcDbCircle
 10
934.5468756419382
 20
1832.668759748021
 30
0.0
 40
15.14999999999996
100
AcDbArc
 50
82.90615832663009
 51
83.62040597451811
1001
REVIT
1002
{
1070
     3
1000
923114
1002
}
  0
ARC
  5
1E2
330
1A3
100
AcDbEntity
  8
M-PIPE
100
AcDbCircle
 10
934.5468756419382
 20
1832.668759748021
 30
0.0
 40
15.14999999999995
100
AcDbArc
 50
96.37959493468491
 51
97.09385082446772
1001
REVIT
1002
{
1070
     3
1000
923114
1002
}
  0
ARC
  5
1E3
330
1A3
100
AcDbEntity
  8
M-PIPE
100
AcDbCircle
 10
934.5468756419382
 20
1832.668759748021
 30
0.0
 40
15.14999999999985
100
AcDbArc
 50
101.8222113514735
 51
102.7591898694323
1001
REVIT
1002
{
1070
     3
1000
923114
1002
}
  0
LINE
  5
1E4
330
1A3
100
AcDbEntity
  8
M-PIPE
100
AcDbLine
 10
931.1796736527373
 20
1847.439827778598
 30
0.0
 11
931.1561955029816
 21
1847.434456080917
 31
0.0
1001
REVIT
1002
{
1070
     3
1000
923114
1002
}
  0
ARC
  5
1E5
330
1A3
100
AcDbEntity
  8
M-PIPE
100
AcDbCircle
 10
934.5468756419382
 20
1832.668759748021
 30
0.0
 40
15.14999999999999
100
AcDbArc
 50
109.1387848041796
 51
111.2972545458869
1001
REVIT
1002
{
1070
     3
1000
923114
1002
}
  0
ARC
  5
1E6
330
1A3
100
AcDbEntity
  8
M-PIPE
100
AcDbCircle
 10
934.5468756419382
 20
1832.668759748021
 30
0.0
 40
15.14999999999984
100
AcDbArc
 50
115.518379738927
 51
116.0039020433394
1001
REVIT
1002
{
1070
     3
1000
923114
1002
}
  0
ARC
  5
1E7
330
1A3
100
AcDbEntity
  8
M-PIPE
100
AcDbCircle
 10
934.5468756419382
 20
1832.668759748021
 30
0.0
 40
15.14999999999998
100
AcDbArc
 50
120.7465520887482
 51
121.8979746736746
1001
REVIT
1002
{
1070
     3
1000
923114
1002
}
  0
ARC
  5
1E8
330
1A3
100
AcDbEntity
  8
M-PIPE
100
AcDbCircle
 10
934.5468756419382
 20
1832.668759748021
 30
0.0
 40
15.14999999999992
100
AcDbArc
 50
128.2775696084215
 51
130.2327181668142
1001
REVIT
1002
{
1070
     3
1000
923114
1002
}
  0
ARC
  5
1E9
330
1A3
100
AcDbEntity
  8
M-PIPE
100
AcDbCircle
 10
934.5468756419382
 20
1832.668759748021
 30
0.0
 40
15.14999999999992
100
AcDbArc
 50
134.657164543169
 51
134.88176201144
1001
REVIT
1002
{
1070
     3
1000
923114
1002
}
  0
ARC
  5
1EA
330
1A3
100
AcDbEntity
  8
M-PIPE
100
AcDbCircle
 10
934.5468756419382
 20
1832.668759748021
 30
0.0
 40
15.14999999999991
100
AcDbArc
 50
139.5641251681172
 51
141.0367594779162
1001
REVIT
1002
{
1070
     3
1000
923114
1002
}
  0
ARC
  5
1EB
330
1A3
100
AcDbEntity
  8
M-PIPE
100
AcDbCircle
 10
934.5468756419382
 20
1832.668759748021
 30
0.0
 40
15.14999999999992
100
AcDbArc
 50
147.4163544126636
 51
149.0312830584907
1001
REVIT
1002
{
1070
     3
1000
923114
1002
}
  0
SPLINE
  5
1EC
330
1A3
100
AcDbEntity
  8
M-PIPE
100
AcDbSpline
210
0.0
220
0.0
230
1.0
 70
     8
 71
     3
 72
    15
 73
    11
 74
     0
 42
0.000000001
 43
0.0000000001
 40
0.0
 40
0.0
 40
0.0
 40
0.0
 40
0.1428571428571428
 40
0.2857142857142857
 40
0.4285714285714286
 40
0.5714285714285714
 40
0.6785714285714287
 40
0.7321428571428572
 40
0.7857142857142857
 40
1.0
 40
1.0
 40
1.0
 40
1.0
 10
948.139865966268
 20
1839.35853657858
 30
0.0
 10
948.1391775568791
 20
1839.35867039181
 30
0.0
 10
948.0941023954327
 20
1839.298102975198
 30
0.0
 10
947.893003429916
 20
1839.036993877489
 30
0.0
 10
947.5779845584575
 20
1838.63264041372
 30
0.0
 10
947.2053913654777
 20
1838.163049889318
 30
0.0
 10
946.8739346427287
 20
1837.756359707036
 30
0.0
 10
946.6268168492732
 20
1837.4552923042
 30
0.0
 10
946.2412603829946
 20
1836.995096701343
 30
0.0
 10
945.9016472963638
 20
1836.595032623848
 30
0.0
 10
945.622257926259
 20
1836.282401575341
 30
0.0
1001
REVIT
1002
{
1070
     3
1000
923114
1002
}
  0
SPLINE
  5
1ED
330
1A3
100
AcDbEntity
  8
M-PIPE
100
AcDbSpline
210
0.0
220
0.0
230
1.0
 70
     8
 71
     3
 72
    13
 73
     9
 74
     0
 42
0.000000001
 43
0.0000000001
 40
-1.0
 40
-1.0
 40
-1.0
 40
-1.0
 40
-0.8333333333333332
 40
-0.6666666666666666
 40
-0.5
 40
-0.3333333333333333
 40
-0.1666666666666666
 40
0.0
 40
0.0
 40
0.0
 40
0.0
 10
920.9538842559044
 20
1839.358534421297
 30
0.0
 10
920.9569748082612
 20
1839.35913516382
 30
0.0
 10
921.0146034448262
 20
1839.288412003534
 30
0.0
 10
921.2471604170486
 20
1838.973328623684
 30
0.0
 10
921.6412125177507
 20
1838.47678885255
 30
0.0
 10
922.159473819897
 20
1837.830605348241
 30
0.0
 10
922.7624419200063
 20
1837.077993551667
 30
0.0
 10
923.2268063959143
 20
1836.545986605435
 30
0.0
 10
923.4714926779776
 20
1836.282399492324
 30
0.0
1001
REVIT
1002
{
1070
     3
1000
923114
1002
}
  0
SPLINE
  5
1EE
330
1A3
100
AcDbEntity
  8
M-PIPE
100
AcDbSpline
210
0.0
220
0.0
230
1.0
 70
     8
 71
     3
 72
    11
 73
     7
 74
     0
 42
0.000000001
 43
0.0000000001
 40
0.0
 40
0.0
 40
0.0
 40
0.0
 40
0.25
 40
0.5
 40
0.75
 40
1.0
 40
1.0
 40
1.0
 40
1.0
 10
914.3461896000983
 20
1837.259854217743
 30
0.0
 10
914.5122289491611
 20
1837.125563601654
 30
0.0
 10
914.8794751711722
 20
1836.819169153224
 30
0.0
 10
915.541412848316
 20
1836.274489988709
 30
0.0
 10
916.2762087957618
 20
1835.670340399096
 30
0.0
 10
916.7861020304135
 20
1835.245178231577
 30
0.0
 10
917.0468756419555
 20
1835.03358044677
 30
0.0
1001
REVIT
1002
{
1070
     3
1000
923114
1002
}
  0
SPLINE
  5
1EF
330
1A3
100
AcDbEntity
  8
M-PIPE
100
AcDbSpline
210
0.0
220
0.0
230
1.0
 70
     8
 71
     3
 72
    11
 73
     7
 74
     0
 42
0.000000001
 43
0.0000000001
 40
0.0
 40
0.0
 40
0.0
 40
0.0
 40
0.25
 40
0.5
 40
0.75
 40
1.0
 40
1.0
 40
1.0
 40
1.0
 10
914.3461896000985
 20
1828.077662943486
 30
0.0
 10
914.5096947207212
 20
1828.215027824503
 30
0.0
 10
914.8805337228344
 20
1828.517063882154
 30
0.0
 10
915.5415092601586
 20
1829.062910215603
 30
0.0
 10
916.2747645967298
 20
1829.668928715651
 30
0.0
 10
916.7894075535933
 20
1830.088329009386
 30
0.0
 10
917.0468756419555
 20
1830.303936714458
 30
0.0
1001
REVIT
1002
{
1070
     3
1000
923114
1002
}
  0
SPLINE
  5
1F0
330
1A3
100
AcDbEntity
  8
M-PIPE
100
AcDbSpline
210
0.0
220
0.0
230
1.0
 70
     8
 71
     3
 72
    15
 73
    11
 74
     0
 42
0.000000001
 43
0.0000000001
 40
0.0
 40
0.0
 40
0.0
 40
0.0
 40
0.1428571428571428
 40
0.2857142857142857
 40
0.4285714285714286
 40
0.5714285714285714
 40
0.6785714285714287
 40
0.7321428571428572
 40
0.7857142857142857
 40
1.0
 40
1.0
 40
1.0
 40
1.0
 10
920.9538855265339
 20
1825.978982492946
 30
0.0
 10
920.9545739358524
 20
1825.97884867973
 30
0.0
 10
920.9996490956028
 20
1826.039416095914
 30
0.0
 10
921.200748053598
 20
1826.300525192408
 30
0.0
 10
921.51576691419
 20
1826.704878655611
 30
0.0
 10
921.888360095405
 20
1827.174469181077
 30
0.0
 10
922.2198168084581
 20
1827.581159365546
 30
0.0
 10
922.4669345949671
 20
1827.882226770468
 30
0.0
 10
922.8524910506886
 20
1828.342422377064
 30
0.0
 10
923.192104128439
 20
1828.74248645864
 30
0.0
 10
923.4714934913593
 20
1829.055117510799
 30
0.0
1001
REVIT
1002
{
1070
     3
1000
923114
1002
}
  0
SPLINE
  5
1F1
330
1A3
100
AcDbEntity
  8
M-PIPE
100
AcDbSpline
210
0.0
220
0.0
230
1.0
 70
     8
 71
     3
 72
    13
 73
     9
 74
     0
 42
0.000000001
 43
0.0000000001
 40
-1.0
 40
-1.0
 40
-1.0
 40
-1.0
 40
-0.8333333333333332
 40
-0.6666666666666666
 40
-0.5
 40
-0.3333333333333333
 40
-0.1666666666666666
 40
0.0
 40
0.0
 40
0.0
 40
0.0
 10
948.1398659662819
 20
1825.97898291749
 30
0.0
 10
948.136775414366
 20
1825.978382175054
 30
0.0
 10
948.0791467860457
 20
1826.049105336942
 30
0.0
 10
947.8465898472732
 20
1826.364188723294
 30
0.0
 10
947.4525378041215
 20
1826.860728505614
 30
0.0
 10
946.9342765790992
 20
1827.506912024915
 30
0.0
 10
946.3313085711606
 20
1828.259523839405
 30
0.0
 10
945.8669441687431
 20
1828.791530799922
 30
0.0
 10
945.6222579262679
 20
1829.055117920728
 30
0.0
1001
REVIT
1002
{
1070
     3
1000
923114
1002
}
  0
SPLINE
  5
1F2
330
1A3
100
AcDbEntity
  8
M-PIPE
100
AcDbSpline
210
0.0
220
0.0
230
1.0
 70
     8
 71
     3
 72
    11
 73
     7
 74
     0
 42
0.000000001
 43
0.0000000001
 40
0.0
 40
0.0
 40
0.0
 40
0.0
 40
0.25
 40
0.5
 40
0.75
 40
1.0
 40
1.0
 40
1.0
 40
1.0
 10
954.7475616838125
 20
1828.077663327423
 30
0.0
 10
954.5815223347497
 20
1828.211953943512
 30
0.0
 10
954.2142761127387
 20
1828.518348391941
 30
0.0
 10
953.5523384355949
 20
1829.063027556457
 30
0.0
 10
952.8175424881492
 20
1829.66717714607
 30
0.0
 10
952.3076492534976
 20
1830.092339313589
 30
0.0
 10
952.0468756419555
 20
1830.303937098395
 30
0.0
1001
REVIT
1002
{
1070
     3
1000
923114
1002
}
  0
SPLINE
  5
1F3
330
1A3
100
AcDbEntity
  8
M-PIPE
100
AcDbSpline
210
0.0
220
0.0
230
1.0
 70
     8
 71
     3
 72
    11
 73
     7
 74
     0
 42
0.000000001
 43
0.0000000001
 40
-1.0
 40
-1.0
 40
-1.0
 40
-1.0
 40
-0.75
 40
-0.5
 40
-0.25
 40
0.0
 40
0.0
 40
0.0
 40
0.0
 10
952.0468756419555
 20
1835.033582397673
 30
0.0
 10
952.3043437303176
 20
1835.249190102745
 30
0.0
 10
952.8189866871812
 20
1835.668590396479
 30
0.0
 10
953.5522420237523
 20
1836.274608896528
 30
0.0
 10
954.2132175610765
 20
1836.820455229977
 30
0.0
 10
954.5840565631896
 20
1837.122491287627
 30
0.0
 10
954.7475616838125
 20
1837.259856168645
 30
0.0
1001
REVIT
1002
{
1070
     3
1000
923114
1002
}
  0
SPLINE
  5
1F4
330
1A3
100
AcDbEntity
  8
M-PIPE
100
AcDbSpline
210
0.0
220
0.0
230
1.0
 70
     8
 71
     3
 72
    10
 73
     6
 74
     0
 42
0.000000001
 43
0.0000000001
 40
-1.0
 40
-1.0
 40
-1.0
 40
-1.0
 40
-0.6666666666666666
 40
-0.3333333333333333
 40
0.0
 40
0.0
 40
0.0
 40
0.0
 10
914.3461896000983
 20
1837.259854217743
 30
0.0
 10
914.1641620866623
 20
1837.039037186531
 30
0.0
 10
913.863199176178
 20
1836.561999134952
 30
0.0
 10
913.6039515025396
 20
1835.809226992619
 30
0.0
 10
913.5468756419555
 20
1835.289478330555
 30
0.0
 10
913.5468756419555
 20
1835.03358044677
 30
0.0
1001
REVIT
1002
{
1070
     3
1000
923114
1002
}
  0
SPLINE
  5
1F5
330
1A3
100
AcDbEntity
  8
M-PIPE
100
AcDbSpline
210
0.0
220
0.0
230
1.0
 70
     8
 71
     3
 72
    10
 73
     6
 74
     0
 42
0.000000001
 43
0.0000000001
 40
-1.0
 40
-1.0
 40
-1.0
 40
-1.0
 40
-0.6666666666666666
 40
-0.3333333333333333
 40
0.0
 40
0.0
 40
0.0
 40
0.0
 10
916.3790441581374
 20
1838.469275588838
 30
0.0
 10
916.1278478392285
 20
1838.420447970714
 30
0.0
 10
915.6285390116035
 20
1838.265248034389
 30
0.0
 10
914.9390642019083
 20
1837.867127774474
 30
0.0
 10
914.5282171135345
 20
1837.480671248955
 30
0.0
 10
914.3461896000983
 20
1837.259854217743
 30
0.0
1001
REVIT
1002
{
1070
     3
1000
923114
1002
}
  0
SPLINE
  5
1F6
330
1A3
100
AcDbEntity
  8
M-PIPE
100
AcDbSpline
210
0.0
220
0.0
230
1.0
 70
     8
 71
     3
 72
     8
 73
     4
 74
     0
 42
0.000000001
 43
0.0000000001
 40
-0.3333333333333333
 40
-0.3333333333333333
 40
-0.3333333333333333
 40
-0.3333333333333333
 40
0.0
 40
0.0
 40
0.0
 40
0.0
 10
916.1155315054722
 20
1838.407391066743
 30
0.0
 10
916.1879141958337
 20
1838.427416448297
 30
0.0
 10
916.2749439344567
 20
1838.449040555177
 30
0.0
 10
916.3790441581374
 20
1838.469275588838
 30
0.0
1001
REVIT
1002
{
1070
     3
1000
923114
1002
}
  0
SPLINE
  5
1F7
330
1A3
100
AcDbEntity
  8
M-PIPE
100
AcDbSpline
210
0.0
220
0.0
230
1.0
 70
     8
 71
     3
 72
     8
 73
     4
 74
     0
 42
0.000000001
 43
0.0000000001
 40
-1.0
 40
-1.0
 40
-1.0
 40
-1.0
 40
-0.6666666666666666
 40
-0.6666666666666666
 40
-0.6666666666666666
 40
-0.6666666666666666
 10
916.3790441581374
 20
1826.868241572391
 30
0.0
 10
916.274944096602
 20
1826.888476574534
 30
0.0
 10
916.1879144939646
 20
1826.910100640437
 30
0.0
 10
916.1155319206715
 20
1826.930125979869
 30
0.0
1001
REVIT
1002
{
1070
     3
1000
923114
1002
}
  0
SPLINE
  5
1F8
330
1A3
100
AcDbEntity
  8
M-PIPE
100
AcDbSpline
210
0.0
220
0.0
230
1.0
 70
     8
 71
     3
 72
    10
 73
     6
 74
     0
 42
0.000000001
 43
0.0000000001
 40
-1.0
 40
-1.0
 40
-1.0
 40
-1.0
 40
-0.6666666666666666
 40
-0.3333333333333333
 40
0.0
 40
0.0
 40
0.0
 40
0.0
 10
914.3461896000985
 20
1828.077662943486
 30
0.0
 10
914.5282171135347
 20
1827.856845912274
 30
0.0
 10
914.9390642019083
 20
1827.470389386755
 30
0.0
 10
915.6285390116035
 20
1827.07226912684
 30
0.0
 10
916.1278478392286
 20
1826.917069190515
 30
0.0
 10
916.3790441581376
 20
1826.868241572391
 30
0.0
1001
REVIT
1002
{
1070
     3
1000
923114
1002
}
  0
SPLINE
  5
1F9
330
1A3
100
AcDbEntity
  8
M-PIPE
100
AcDbSpline
210
0.0
220
0.0
230
1.0
 70
     8
 71
     3
 72
    10
 73
     6
 74
     0
 42
0.000000001
 43
0.0000000001
 40
-1.0
 40
-1.0
 40
-1.0
 40
-1.0
 40
-0.6666666666666666
 40
-0.3333333333333333
 40
0.0
 40
0.0
 40
0.0
 40
0.0
 10
913.5468756419555
 20
1830.303936714458
 30
0.0
 10
913.5468756419555
 20
1830.048038830674
 30
0.0
 10
913.6039515025396
 20
1829.528290168609
 30
0.0
 10
913.863199176178
 20
1828.775518026277
 30
0.0
 10
914.1641620866625
 20
1828.298479974698
 30
0.0
 10
914.3461896000985
 20
1828.077662943486
 30
0.0
1001
REVIT
1002
{
1070
     3
1000
923114
1002
}
  0
SPLINE
  5
1FA
330
1A3
100
AcDbEntity
  8
M-PIPE
100
AcDbSpline
210
0.0
220
0.0
230
1.0
 70
     8
 71
     3
 72
    10
 73
     6
 74
     0
 42
0.000000001
 43
0.0000000001
 40
-1.0
 40
-1.0
 40
-1.0
 40
-1.0
 40
-0.6666666666666666
 40
-0.3333333333333333
 40
0.0
 40
0.0
 40
0.0
 40
0.0
 10
954.7475616838125
 20
1828.077663327423
 30
0.0
 10
954.9295891972487
 20
1828.298480358635
 30
0.0
 10
955.2305521077331
 20
1828.775518410214
 30
0.0
 10
955.4897997813712
 20
1829.528290552546
 30
0.0
 10
955.5468756419555
 20
1830.048039214611
 30
0.0
 10
955.5468756419555
 20
1830.303937098395
 30
0.0
1001
REVIT
1002
{
1070
     3
1000
923114
1002
}
  0
SPLINE
  5
1FB
330
1A3
100
AcDbEntity
  8
M-PIPE
100
AcDbSpline
210
0.0
220
0.0
230
1.0
 70
     8
 71
     3
 72
    10
 73
     6
 74
     0
 42
0.000000001
 43
0.0000000001
 40
-1.0
 40
-1.0
 40
-1.0
 40
-1.0
 40
-0.6666666666666666
 40
-0.3333333333333333
 40
0.0
 40
0.0
 40
0.0
 40
0.0
 10
952.7147071257735
 20
1826.868241956328
 30
0.0
 10
952.9659034446824
 20
1826.917069574452
 30
0.0
 10
953.4652122723075
 20
1827.072269510777
 30
0.0
 10
954.1546870820026
 20
1827.470389770692
 30
0.0
 10
954.5655341703765
 20
1827.856846296211
 30
0.0
 10
954.7475616838125
 20
1828.077663327423
 30
0.0
1001
REVIT
1002
{
1070
     3
1000
923114
1002
}
  0
SPLINE
  5
1FC
330
1A3
100
AcDbEntity
  8
M-PIPE
100
AcDbSpline
210
0.0
220
0.0
230
1.0
 70
     8
 71
     3
 72
     8
 73
     4
 74
     0
 42
0.000000001
 43
0.0000000001
 40
-0.3333333333333333
 40
-0.3333333333333333
 40
-0.3333333333333333
 40
-0.3333333333333333
 40
0.0
 40
0.0
 40
0.0
 40
0.0
 10
952.9782194315137
 20
1826.930126382654
 30
0.0
 10
952.9058368389701
 20
1826.910101036295
 30
0.0
 10
952.8188072139716
 20
1826.888476963653
 30
0.0
 10
952.7147071257733
 20
1826.868241956328
 30
0.0
1001
REVIT
1002
{
1070
     3
1000
923114
1002
}
  0
SPLINE
  5
1FD
330
1A3
100
AcDbEntity
  8
M-PIPE
100
AcDbSpline
210
0.0
220
0.0
230
1.0
 70
     8
 71
     3
 72
     8
 73
     4
 74
     0
 42
0.000000001
 43
0.0000000001
 40
-1.0
 40
-1.0
 40
-1.0
 40
-1.0
 40
-0.6666666666666666
 40
-0.6666666666666666
 40
-0.6666666666666666
 40
-0.6666666666666666
 10
952.7147071257731
 20
1838.46927753974
 30
0.0
 10
952.8188072139714
 20
1838.449042532414
 30
0.0
 10
952.9058368389701
 20
1838.427418459773
 30
0.0
 10
952.9782194315135
 20
1838.407393113414
 30
0.0
1001
REVIT
1002
{
1070
     3
1000
923114
1002
}
  0
SPLINE
  5
1FE
330
1A3
100
AcDbEntity
  8
M-PIPE
100
AcDbSpline
210
0.0
220
0.0
230
1.0
 70
     8
 71
     3
 72
    10
 73
     6
 74
     0
 42
0.000000001
 43
0.0000000001
 40
-1.0
 40
-1.0
 40
-1.0
 40
-1.0
 40
-0.6666666666666666
 40
-0.3333333333333333
 40
0.0
 40
0.0
 40
0.0
 40
0.0
 10
954.7475616838125
 20
1837.259856168645
 30
0.0
 10
954.5655341703762
 20
1837.480673199857
 30
0.0
 10
954.1546870820026
 20
1837.867129725376
 30
0.0
 10
953.4652122723075
 20
1838.265249985291
 30
0.0
 10
952.9659034446822
 20
1838.420449921615
 30
0.0
 10
952.7147071257733
 20
1838.46927753974
 30
0.0
1001
REVIT
1002
{
1070
     3
1000
923114
1002
}
  0
SPLINE
  5
1FF
330
1A3
100
AcDbEntity
  8
M-PIPE
100
AcDbSpline
210
0.0
220
0.0
230
1.0
 70
     8
 71
     3
 72
    10
 73
     6
 74
     0
 42
0.000000001
 43
0.0000000001
 40
-1.0
 40
-1.0
 40
-1.0
 40
-1.0
 40
-0.6666666666666666
 40
-0.3333333333333333
 40
0.0
 40
0.0
 40
0.0
 40
0.0
 10
955.5468756419555
 20
1835.033582397673
 30
0.0
 10
955.5468756419555
 20
1835.289480281456
 30
0.0
 10
955.4897997813712
 20
1835.809228943521
 30
0.0
 10
955.2305521077329
 20
1836.562001085854
 30
0.0
 10
954.9295891972485
 20
1837.039039137433
 30
0.0
 10
954.7475616838125
 20
1837.259856168645
 30
0.0
1001
REVIT
1002
{
1070
     3
1000
923114
1002
}
  0
LINE
  5
200
330
1A3
100
AcDbEntity
  8
P-SANR-FIXT
100
AcDbLine
 10
909.5468756419583
 20
1809.668759748004
 30
0.0
 11
909.5468756419583
 21
1807.668759748036
 31
0.0
  0
LINE
  5
201
330
1A3
100
AcDbEntity
  8
P-SANR-FIXT
100
AcDbLine
 10
927.5468756419583
 20
1807.668759748036
 30
0.0
 11
927.5468756419583
 21
1809.668759748004
 31
0.0
  0
LINE
  5
202
330
1A3
100
AcDbEntity
  8
P-SANR-FIXT
100
AcDbLine
 10
959.5468756419556
 20
1807.668759748036
 30
0.0
 11
959.5468756419556
 21
1809.668759748004
 31
0.0
  0
LINE
  5
203
330
1A3
100
AcDbEntity
  8
P-SANR-FIXT
100
AcDbLine
 10
941.5468756419558
 20
1809.668759748004
 30
0.0
 11
941.5468756419558
 21
1807.668759748036
 31
0.0
  0
LINE
  5
204
330
1A3
100
AcDbEntity
  8
P-SANR-FIXT
100
AcDbLine
 10
927.5468756419563
 20
1809.668759748004
 30
0.0
 11
909.5468756419565
 21
1809.668759748004
 31
0.0
  0
LINE
  5
205
330
1A3
100
AcDbEntity
  8
P-SANR-FIXT
100
AcDbLine
 10
910.9761614276823
 20
1807.668759748036
 30
0.0
 11
918.1175898562328
 21
1807.668759748036
 31
0.0
  0
LINE
  5
206
330
1A3
100
AcDbEntity
  8
P-SANR-FIXT
100
AcDbLine
 10
918.9761614276793
 20
1807.668759748036
 30
0.0
 11
926.117589856231
 21
1807.668759748036
 31
0.0
  0
LINE
  5
207
330
1A3
100
AcDbEntity
  8
P-SANR-FIXT
100
AcDbLine
 10
909.5468756419565
 20
1807.668759748036
 30
0.0
 11
910.5468756419584
 21
1807.668759748036
 31
0.0
  0
LINE
  5
208
330
1A3
100
AcDbEntity
  8
P-SANR-FIXT
100
AcDbLine
 10
926.546875641954
 20
1807.668759748036
 30
0.0
 11
927.5468756419563
 21
1807.668759748036
 31
0.0
  0
LINE
  5
209
330
1A3
100
AcDbEntity
  8
P-SANR-FIXT
100
AcDbLine
 10
910.9761614276569
 20
1804.168759748019
 30
0.0
 11
910.5468756419584
 21
1804.168759748019
 31
0.0
  0
LINE
  5
20A
330
1A3
100
AcDbEntity
  8
P-SANR-FIXT
100
AcDbLine
 10
926.546875641954
 20
1804.168759748019
 30
0.0
 11
926.1175898562553
 21
1804.168759748019
 31
0.0
  0
LINE
  5
20B
330
1A3
100
AcDbEntity
  8
P-SANR-FIXT
100
AcDbLine
 10
926.1175898562553
 20
1804.168759748019
 30
0.0
 11
918.9761614276546
 21
1804.168759748019
 31
0.0
  0
LINE
  5
20C
330
1A3
100
AcDbEntity
  8
P-SANR-FIXT
100
AcDbLine
 10
918.9761614276546
 20
1804.168759748019
 30
0.0
 11
918.1175898562576
 21
1804.168759748019
 31
0.0
  0
LINE
  5
20D
330
1A3
100
AcDbEntity
  8
P-SANR-FIXT
100
AcDbLine
 10
918.1175898562576
 20
1804.168759748019
 30
0.0
 11
910.9761614276569
 21
1804.168759748019
 31
0.0
  0
LINE
  5
20E
330
1A3
100
AcDbEntity
  8
P-SANR-FIXT
100
AcDbLine
 10
958.1175898562499
 20
1804.168759748019
 30
0.0
 11
950.9761614276492
 21
1804.168759748019
 31
0.0
  0
LINE
  5
20F
330
1A3
100
AcDbEntity
  8
P-SANR-FIXT
100
AcDbLine
 10
950.9761614276493
 20
1804.168759748019
 30
0.0
 11
950.1175898562522
 21
1804.168759748019
 31
0.0
  0
LINE
  5
210
330
1A3
100
AcDbEntity
  8
P-SANR-FIXT
100
AcDbLine
 10
950.117589856252
 20
1804.168759748019
 30
0.0
 11
942.9761614276513
 21
1804.168759748019
 31
0.0
  0
LINE
  5
211
330
1A3
100
AcDbEntity
  8
P-SANR-FIXT
100
AcDbLine
 10
942.9761614276516
 20
1804.168759748019
 30
0.0
 11
942.546875641953
 21
1804.168759748019
 31
0.0
  0
LINE
  5
212
330
1A3
100
AcDbEntity
  8
P-SANR-FIXT
100
AcDbLine
 10
958.5468756419484
 20
1804.168759748019
 30
0.0
 11
958.11758985625
 21
1804.168759748019
 31
0.0
  0
LINE
  5
213
330
1A3
100
AcDbEntity
  8
P-SANR-FIXT
100
AcDbLine
 10
910.9761614276569
 20
1804.168759748019
 30
0.0
 11
910.9761614276569
 21
1807.668759748036
 31
0.0
  0
LINE
  5
214
330
1A3
100
AcDbEntity
  8
P-SANR-FIXT
100
AcDbLine
 10
910.5468756419584
 20
1807.668759748036
 30
0.0
 11
910.5468756419584
 21
1804.168759748019
 31
0.0
  0
LINE
  5
215
330
1A3
100
AcDbEntity
  8
P-SANR-FIXT
100
AcDbLine
 10
926.546875641954
 20
1807.668759748036
 30
0.0
 11
926.546875641954
 21
1804.168759748019
 31
0.0
  0
LINE
  5
216
330
1A3
100
AcDbEntity
  8
P-SANR-FIXT
100
AcDbLine
 10
926.1175898562553
 20
1807.668759748036
 30
0.0
 11
926.1175898562553
 21
1804.168759748019
 31
0.0
  0
LINE
  5
217
330
1A3
100
AcDbEntity
  8
P-SANR-FIXT
100
AcDbLine
 10
918.9761614276546
 20
1807.668759748036
 30
0.0
 11
918.9761614276546
 21
1804.168759748019
 31
0.0
  0
LINE
  5
218
330
1A3
100
AcDbEntity
  8
P-SANR-FIXT
100
AcDbLine
 10
918.1175898562576
 20
1807.668759748036
 30
0.0
 11
918.1175898562576
 21
1804.168759748019
 31
0.0
  0
LINE
  5
219
330
1A3
100
AcDbEntity
  8
P-SANR-FIXT
100
AcDbLine
 10
958.11758985625
 20
1804.168759748019
 30
0.0
 11
958.11758985625
 21
1807.668759748036
 31
0.0
  0
LINE
  5
21A
330
1A3
100
AcDbEntity
  8
P-SANR-FIXT
100
AcDbLine
 10
950.9761614276493
 20
1807.668759748036
 30
0.0
 11
950.9761614276493
 21
1804.168759748019
 31
0.0
  0
LINE
  5
21B
330
1A3
100
AcDbEntity
  8
P-SANR-FIXT
100
AcDbLine
 10
950.117589856252
 20
1807.668759748036
 30
0.0
 11
950.117589856252
 21
1804.168759748019
 31
0.0
  0
LINE
  5
21C
330
1A3
100
AcDbEntity
  8
P-SANR-FIXT
100
AcDbLine
 10
942.9761614276516
 20
1807.668759748036
 30
0.0
 11
942.9761614276516
 21
1804.168759748019
 31
0.0
  0
LINE
  5
21D
330
1A3
100
AcDbEntity
  8
P-SANR-FIXT
100
AcDbLine
 10
942.5468756419528
 20
1807.668759748036
 30
0.0
 11
942.5468756419528
 21
1804.168759748019
 31
0.0
  0
LINE
  5
21E
330
1A3
100
AcDbEntity
  8
P-SANR-FIXT
100
AcDbLine
 10
958.5468756419484
 20
1807.668759748036
 30
0.0
 11
958.5468756419484
 21
1804.168759748019
 31
0.0
  0
LINE
  5
21F
330
1A3
100
AcDbEntity
  8
P-SANR-FIXT
100
AcDbLine
 10
941.546875641954
 20
1807.668759748036
 30
0.0
 11
942.5468756419528
 21
1807.668759748036
 31
0.0
  0
LINE
  5
220
330
1A3
100
AcDbEntity
  8
P-SANR-FIXT
100
AcDbLine
 10
942.976161427665
 20
1807.668759748036
 30
0.0
 11
950.1175898562269
 21
1807.668759748036
 31
0.0
  0
LINE
  5
221
330
1A3
100
AcDbEntity
  8
P-SANR-FIXT
100
AcDbLine
 10
950.9761614276486
 20
1807.668759748036
 30
0.0
 11
958.1175898562412
 21
1807.668759748036
 31
0.0
  0
LINE
  5
222
330
1A3
100
AcDbEntity
  8
P-SANR-FIXT
100
AcDbLine
 10
958.5468756419393
 20
1807.668759748036
 30
0.0
 11
959.5468756419538
 21
1807.668759748036
 31
0.0
  0
LINE
  5
223
330
1A3
100
AcDbEntity
  8
P-SANR-FIXT
100
AcDbLine
 10
959.5468756419538
 20
1809.668759748004
 30
0.0
 11
941.546875641954
 21
1809.668759748004
 31
0.0
  0
LINE
  5
224
330
1A3
100
AcDbEntity
  8
P-SANR-FIXT
100
AcDbLine
 10
959.5468756419569
 20
1809.668759748034
 30
0.0
 11
959.5468756419572
 21
1817.201473021304
 31
0.0
  0
LINE
  5
225
330
1A3
100
AcDbEntity
  8
P-SANR-FIXT
100
AcDbLine
 10
941.5468756419574
 20
1814.484315784103
 30
0.0
 11
941.5468756419572
 21
1809.668759748034
 31
0.0
  0
LINE
  5
226
330
1A3
100
AcDbEntity
  8
P-SANR-FIXT
100
AcDbLine
 10
950.5468756419553
 20
1809.668759748033
 30
0.0
 11
959.5468756419553
 21
1809.668759748033
 31
0.0
  0
LINE
  5
227
330
1A3
100
AcDbEntity
  8
P-SANR-FIXT
100
AcDbLine
 10
941.5468756419553
 20
1809.668759748033
 30
0.0
 11
950.5468756419553
 21
1809.668759748033
 31
0.0
  0
LINE
  5
228
330
1A3
100
AcDbEntity
  8
P-SANR-FIXT
100
AcDbLine
 10
909.5468756419586
 20
1817.201473021304
 30
0.0
 11
909.546875641959
 21
1809.668759748034
 31
0.0
  0
LINE
  5
229
330
1A3
100
AcDbEntity
  8
P-SANR-FIXT
100
AcDbLine
 10
927.5468756419588
 20
1809.668759748034
 30
0.0
 11
927.5468756419584
 21
1814.497800190125
 31
0.0
  0
LINE
  5
22A
330
1A3
100
AcDbEntity
  8
P-SANR-FIXT
100
AcDbLine
 10
909.5468756419574
 20
1809.668759748033
 30
0.0
 11
918.5468756419572
 21
1809.668759748033
 31
0.0
  0
LINE
  5
22B
330
1A3
100
AcDbEntity
  8
P-SANR-FIXT
100
AcDbLine
 10
918.5468756419572
 20
1809.668759748033
 30
0.0
 11
927.5468756419572
 21
1809.668759748033
 31
0.0
  0
LINE
  5
22C
330
1A3
100
AcDbEntity
  8
P-SANR-FIXT
100
AcDbLine
 10
907.1437050607437
 20
1815.668524028607
 30
0.0
 11
907.4325162880132
 21
1816.168759748034
 31
0.0
  0
LWPOLYLINE
  5
22D
330
1A3
100
AcDbEntity
  8
P-SANR-FIXT
100
AcDbPolyline
 90
       28
 70
   128
 43
0.0
 10
909.164567095582
 20
1817.168759748034
 10
909.0845884272086
 20
1817.167159961356
 10
909.0047377076434
 20
1817.162363160639
 10
908.925142681004
 20
1817.154377019742
 10
908.8459306823535
 20
1817.143214314785
 10
908.7672284339916
 20
1817.128892903717
 10
908.6891618427275
 20
1817.111435697738
 10
908.6118557984535
 20
1817.090870624656
 10
908.5354339743497
 20
1817.067230584199
 10
908.4600186290316
 20
1817.04055339539
 10
908.3857304109645
 20
1817.01088173604
 10
908.3126881654498
 20
1816.978263074474
 10
908.2410087444989
 20
1816.942749593593
 10
908.1708068198944
 20
1816.904398107389
 10
908.1021946997401
 20
1816.863269970061
 10
908.0352821487919
 20
1816.819430977853
 10
907.9701762128571
 20
1816.772951263803
 10
907.9069810475449
 20
1816.723905185536
 10
907.8457977516389
 20
1816.672371206316
 10
907.7867242053608
 20
1816.618431769516
 10
907.7298549137827
 20
1816.562173166729
 10
907.6752808556401
 20
1816.503685399717
 10
907.6230893377838
 20
1816.443062036431
 10
907.5733638555092
 20
1816.380400061321
 10
907.5261839589797
 20
1816.315799720179
 10
907.4816251259662
 20
1816.24936435977
 10
907.4397586410954
 20
1816.1812002625
 10
907.4325162880132
 20
1816.168759748034
  0
LINE
  5
22E
330
1A3
100
AcDbEntity
  8
P-SANR-FIXT
100
AcDbLine
 10
909.164567095582
 20
1817.168759748034
 30
0.0
 11
909.6056276387685
 21
1817.168759748034
 31
0.0
  0
LINE
  5
22F
330
1A3
100
AcDbEntity
  8
P-SANR-FIXT
100
AcDbLine
 10
959.929184188334
 20
1848.168759748034
 30
0.0
 11
959.7889751221492
 21
1848.168759748034
 31
0.0
  0
LINE
  5
230
330
1A3
100
AcDbEntity
  8
P-SANR-FIXT
100
AcDbLine
 10
959.4881236451474
 20
1817.168759748034
 30
0.0
 11
959.929184188334
 21
1817.168759748034
 31
0.0
  0
LINE
  5
231
330
1A3
100
AcDbEntity
  8
P-SANR-FIXT
100
AcDbLine
 10
959.929184188334
 20
1848.168759748035
 30
0.0
 11
959.9747479270975
 21
1848.169671144333
 31
0.0
  0
LWPOLYLINE
  5
232
330
1A3
100
AcDbEntity
  8
P-SANR-FIXT
100
AcDbPolyline
 90
       24
 70
   128
 43
0.0
 10
961.661234995903
 20
1816.168759748034
 10
961.6198602058126
 20
1816.237223413267
 10
961.5757806947524
 20
1816.303977764562
 10
961.5290669805371
 20
1816.368916009199
 10
961.4797937951445
 20
1816.431934259836
 10
961.4280399651603
 20
1816.492931700718
 10
961.3738882856717
 20
1816.551810748951
 10
961.3174253878145
 20
1816.608477210616
 10
961.2587416001804
 20
1816.662840431465
 10
961.1979308043116
 20
1816.714813441942
 10
961.1350902845082
 20
1816.764313096315
 10
961.0703205721975
 20
1816.811260205697
 10
961.003725285102
 20
1816.855579664728
 10
960.9354109614749
 20
1816.897200571729
 10
960.8654868896607
 20
1816.936056342125
 10
960.7940649332586
 20
1816.972084814975
 10
960.7212593521627
 20
1817.005228352406
 10
960.6471866197717
 20
1817.035433931829
 10
960.5719652366559
 20
1817.062653230762
 10
960.4957155409824
 20
1817.08684270413
 10
960.4185595159979
 20
1817.107963653938
 10
960.3406205948838
 20
1817.125982291171
 10
960.2620234632876
 20
1817.140869789854
 10
960.1828938598535
 20
1817.152602333164
  0
LWPOLYLINE
  5
233
330
1A3
100
AcDbEntity
  8
P-SANR-FIXT
100
AcDbPolyline
 90
        5
 70
   128
 43
0.0
 10
960.1828880750954
 20
1817.152602955663
 10
960.1033583750666
 20
1817.161161151536
 10
960.0235442487363
 20
1817.166532552684
 10
959.9435791664385
 20
1817.168707943514
 10
959.929184188334
 20
1817.168759748034
  0
LINE
  5
234
330
1A3
100
AcDbEntity
  8
P-SANR-FIXT
100
AcDbLine
 10
961.661234995903
 20
1816.168759748034
 30
0.0
 11
961.9500462231725
 21
1815.668524028607
 31
0.0
  0
LINE
  5
235
330
1A3
100
AcDbEntity
  8
P-SANR-FIXT
100
AcDbLine
 10
897.0468756419565
 20
1825.056693808405
 30
0.0
 11
897.0468756419565
 21
1823.22895911387
 31
0.0
  0
LINE
  5
236
330
1A3
100
AcDbEntity
  8
P-SANR-FIXT
100
AcDbLine
 10
897.0468756419565
 20
1823.22895911387
 30
0.0
 11
897.0468756419565
 21
1825.056693808405
 31
0.0
  0
LINE
  5
237
330
1A3
100
AcDbEntity
  8
P-SANR-FIXT
100
AcDbLine
 10
897.0468756419565
 20
1815.714821984496
 30
0.0
 11
897.0468756419565
 21
1832.668759748034
 31
0.0
  0
SPLINE
  5
238
330
1A3
100
AcDbEntity
  8
P-SANR-FIXT
100
AcDbSpline
210
0.0
220
0.0
230
1.0
 70
    24
 71
     3
 72
     9
 73
     5
 74
     0
 42
0.000000001
 43
0.0000000001
 40
-0.570289139640777
 40
-0.570289139640777
 40
-0.570289139640777
 40
-0.570289139640777
 40
-0.5
 40
0.0
 40
0.0
 40
0.0
 40
0.0
 10
897.0686178974137
 20
1815.668759748034
 30
0.0
 10
897.054166414496
 20
1815.668759748034
 30
0.0
 10
896.9955405456788
 20
1815.668759748034
 30
0.0
 10
897.4125741664973
 20
1815.668759748034
 30
0.0
 10
898.1438411534169
 20
1815.668759748034
 30
0.0
  0
SPLINE
  5
239
330
1A3
100
AcDbEntity
  8
P-SANR-FIXT
100
AcDbSpline
210
0.0
220
0.0
230
1.0
 70
     8
 71
     3
 72
     8
 73
     4
 74
     0
 42
0.000000001
 43
0.0000000001
 40
-1.0
 40
-1.0
 40
-1.0
 40
-1.0
 40
-0.5833333333333334
 40
-0.5833333333333334
 40
-0.5833333333333334
 40
-0.5833333333333334
 10
898.1438411534167
 20
1817.01631261436
 30
0.0
 10
897.5344519976502
 20
1819.032877616409
 30
0.0
 10
897.1789749901198
 20
1821.037036730298
 30
0.0
 10
897.0774101308254
 20
1823.028789956028
 30
0.0
  0
SPLINE
  5
23A
330
1A3
100
AcDbEntity
  8
P-SANR-FIXT
100
AcDbSpline
210
0.0
220
0.0
230
1.0
 70
     8
 71
     3
 72
     9
 73
     5
 74
     0
 42
0.000000001
 43
0.0000000001
 40
-0.5740889526175382
 40
-0.5740889526175382
 40
-0.5740889526175382
 40
-0.5740889526175382
 40
-0.5
 40
0.0
 40
0.0
 40
0.0
 40
0.0
 10
897.0710249786005
 20
1823.161341816749
 30
0.0
 10
897.0549687748913
 20
1823.51540451765
 30
0.0
 10
896.9927618678923
 20
1826.255871139322
 30
0.0
 10
897.412574166497
 20
1828.972786795051
 30
0.0
 10
898.1438411534169
 20
1831.321206881708
 30
0.0
  0
LINE
  5
23B
330
1A3
100
AcDbEntity
  8
P-SANR-FIXT
100
AcDbLine
 10
898.1438411534169
 20
1815.668759748034
 30
0.0
 11
898.1438411534167
 21
1817.01631261436
 31
0.0
  0
LINE
  5
23C
330
1A3
100
AcDbEntity
  8
P-SANR-FIXT
100
AcDbLine
 10
898.1438411534169
 20
1815.668759748034
 30
0.0
 11
906.0468756419563
 21
1815.668759748034
 31
0.0
  0
LINE
  5
23D
330
1A3
100
AcDbEntity
  8
P-SANR-FIXT
100
AcDbLine
 10
906.0468756419563
 20
1817.01631261436
 30
0.0
 11
898.1438411534167
 21
1817.01631261436
 31
0.0
  0
LINE
  5
23E
330
1A3
100
AcDbEntity
  8
P-SANR-FIXT
100
AcDbLine
 10
898.1438411534169
 20
1831.321206881708
 30
0.0
 11
898.1438411534169
 21
1832.668759748034
 31
0.0
  0
LINE
  5
23F
330
1A3
100
AcDbEntity
  8
P-SANR-FIXT
100
AcDbLine
 10
898.1438411534167
 20
1831.321206881708
 30
0.0
 11
906.0468756419563
 21
1831.321206881708
 31
0.0
  0
LINE
  5
240
330
1A3
100
AcDbEntity
  8
P-SANR-FIXT
100
AcDbLine
 10
906.0468756419563
 20
1831.321206881708
 30
0.0
 11
906.0468756419563
 21
1832.668759748034
 31
0.0
  0
SPLINE
  5
241
330
1A3
100
AcDbEntity
  8
P-SANR-FIXT
100
AcDbSpline
210
0.0
220
0.0
230
1.0
 70
     8
 71
     3
 72
     9
 73
     5
 74
     0
 42
0.000000001
 43
0.0000000001
 40
-1.0
 40
-1.0
 40
-1.0
 40
-1.0
 40
-0.5
 40
0.0
 40
0.0
 40
0.0
 40
0.0
 10
906.0468756419563
 20
1831.321206881708
 30
0.0
 10
906.778142628876
 20
1828.972786795051
 30
0.0
 10
907.5094096157959
 20
1824.240217663837
 30
0.0
 10
906.778142628876
 20
1819.436190616819
 30
0.0
 10
906.0468756419563
 20
1817.01631261436
 30
0.0
  0
LINE
  5
242
330
1A3
100
AcDbEntity
  8
P-SANR-FIXT
100
AcDbLine
 10
906.0468756419563
 20
1815.668759748034
 30
0.0
 11
906.0468756419563
 21
1817.01631261436
 31
0.0
  0
SPLINE
  5
243
330
1A3
100
AcDbEntity
  8
P-SANR-FIXT
100
AcDbSpline
210
0.0
220
0.0
230
1.0
 70
    24
 71
     3
 72
     9
 73
     5
 74
     0
 42
0.000000001
 43
0.0000000001
 40
-1.0
 40
-1.0
 40
-1.0
 40
-1.0
 40
-0.5
 40
-0.4959755747636062
 40
-0.4959755747636062
 40
-0.4959755747636062
 40
-0.4959755747636062
 10
906.0468756419563
 20
1815.668759748034
 30
0.0
 10
906.7781426288762
 20
1815.668759748034
 30
0.0
 10
907.1467190516528
 20
1815.668759748034
 30
0.0
 10
907.1437524351383
 20
1815.668759748034
 30
0.0
 10
907.1437050607421
 20
1815.668759748034
 30
0.0
  0
LINE
  5
244
330
1A3
100
AcDbEntity
  8
P-SANR-FIXT
100
AcDbLine
 10
917.5468756419563
 20
1820.008816089728
 30
0.0
 11
917.5468756419563
 21
1823.182583570718
 31
0.0
  0
LINE
  5
245
330
1A3
100
AcDbEntity
  8
P-SANR-FIXT
100
AcDbLine
 10
951.5468756419563
 20
1820.008816089728
 30
0.0
 11
951.5468756419563
 21
1823.133559575314
 31
0.0
  0
SPLINE
  5
246
330
1A3
100
AcDbEntity
  8
P-SANR-FIXT
100
AcDbSpline
210
0.0
220
0.0
230
1.0
 70
     8
 71
     3
 72
     8
 73
     4
 74
     0
 42
0.000000001
 43
0.0000000001
 40
-0.3193445696066584
 40
-0.3193445696066584
 40
-0.3193445696066584
 40
-0.3193445696066584
 40
-0.3020054088431179
 40
-0.3020054088431179
 40
-0.3020054088431179
 40
-0.3020054088431179
 10
962.0931706250544
 20
1843.799613631432
 30
0.0
 10
962.1023331475294
 20
1843.88184424708
 30
0.0
 10
962.112767038548
 20
1843.96401274496
 30
0.0
 10
962.1243368299962
 20
1844.046125743905
 30
0.0
  0
SPLINE
  5
247
330
1A3
100
AcDbEntity
  8
P-SANR-FIXT
100
AcDbSpline
210
0.0
220
0.0
230
1.0
 70
    24
 71
     3
 72
     9
 73
     5
 74
     0
 42
0.000000001
 43
0.0000000001
 40
-0.5040244252364086
 40
-0.5040244252364086
 40
-0.5040244252364086
 40
-0.5040244252364086
 40
-0.5
 40
0.0
 40
0.0
 40
0.0
 40
0.0
 10
961.9500462231705
 20
1815.668759748034
 30
0.0
 10
961.9499988487746
 20
1815.668759748034
 30
0.0
 10
961.9470322322591
 20
1815.668759748034
 30
0.0
 10
962.3156086551594
 20
1815.668759748034
 30
0.0
 10
963.0468756419563
 20
1815.668759748034
 30
0.0
  0
SPLINE
  5
248
330
1A3
100
AcDbEntity
  8
P-SANR-FIXT
100
AcDbSpline
210
0.0
220
0.0
230
1.0
 70
     8
 71
     3
 72
     9
 73
     5
 74
     0
 42
0.000000001
 43
0.0000000001
 40
-1.0
 40
-1.0
 40
-1.0
 40
-1.0
 40
-0.5
 40
0.0
 40
0.0
 40
0.0
 40
0.0
 10
963.0468756419562
 20
1817.01631261436
 30
0.0
 10
962.3156086550364
 20
1819.436190616819
 30
0.0
 10
961.5843416681165
 20
1824.240217663837
 30
0.0
 10
962.3156086550364
 20
1828.972786795052
 30
0.0
 10
963.0468756419562
 20
1831.321206881708
 30
0.0
  0
LINE
  5
249
330
1A3
100
AcDbEntity
  8
P-SANR-FIXT
100
AcDbLine
 10
964.2976062068141
 20
1834.01631261436
 30
0.0
 11
964.1985383114125
 21
1834.01631261436
 31
0.0
  0
LINE
  5
24A
330
1A3
100
AcDbEntity
  8
P-SANR-FIXT
100
AcDbLine
 10
963.0468756419563
 20
1815.668759748034
 30
0.0
 11
963.0468756419562
 21
1817.01631261436
 31
0.0
  0
LINE
  5
24B
330
1A3
100
AcDbEntity
  8
P-SANR-FIXT
100
AcDbLine
 10
963.0468756419563
 20
1815.668759748034
 30
0.0
 11
970.949910130496
 21
1815.668759748034
 31
0.0
  0
LINE
  5
24C
330
1A3
100
AcDbEntity
  8
P-SANR-FIXT
100
AcDbLine
 10
970.949910130496
 20
1817.01631261436
 30
0.0
 11
963.0468756419562
 21
1817.01631261436
 31
0.0
  0
LINE
  5
24D
330
1A3
100
AcDbEntity
  8
P-SANR-FIXT
100
AcDbLine
 10
963.0468756419563
 20
1831.321206881708
 30
0.0
 11
963.0468756419563
 21
1832.668759748034
 31
0.0
  0
LINE
  5
24E
330
1A3
100
AcDbEntity
  8
P-SANR-FIXT
100
AcDbLine
 10
963.0468756419562
 20
1831.321206881708
 30
0.0
 11
970.949910130496
 21
1831.321206881709
 31
0.0
  0
SPLINE
  5
24F
330
1A3
100
AcDbEntity
  8
P-SANR-FIXT
100
AcDbSpline
210
0.0
220
0.0
230
1.0
 70
    24
 71
     3
 72
     8
 73
     4
 74
     0
 42
0.000000001
 43
0.0000000001
 40
-1.0
 40
-1.0
 40
-1.0
 40
-1.0
 40
-0.8404955895509239
 40
-0.8404955895509239
 40
-0.8404955895509239
 40
-0.8404955895509239
 10
972.0468756419565
 20
1815.668759748034
 30
0.0
 10
972.0435345678497
 20
1815.668759748034
 30
0.0
 10
972.0314235363881
 20
1815.668759748034
 30
0.0
 10
972.0105425475715
 20
1815.668759748034
 30
0.0
  0
LINE
  5
250
330
1A3
100
AcDbEntity
  8
P-SANR-FIXT
100
AcDbLine
 10
970.9499101304958
 20
1831.321206881708
 30
0.0
 11
970.9499101304958
 21
1832.668759748034
 31
0.0
  0
SPLINE
  5
251
330
1A3
100
AcDbEntity
  8
P-SANR-FIXT
100
AcDbSpline
210
0.0
220
0.0
230
1.0
 70
     8
 71
     3
 72
     9
 73
     5
 74
     0
 42
0.000000001
 43
0.0000000001
 40
-1.0
 40
-1.0
 40
-1.0
 40
-1.0
 40
-0.5
 40
0.0
 40
0.0
 40
0.0
 40
0.0
 10
970.949910130496
 20
1831.321206881708
 30
0.0
 10
971.6811771174159
 20
1828.972786795052
 30
0.0
 10
972.4124441043356
 20
1824.240217663837
 30
0.0
 10
971.6811771174159
 20
1819.43619061682
 30
0.0
 10
970.949910130496
 20
1817.01631261436
 30
0.0
  0
LINE
  5
252
330
1A3
100
AcDbEntity
  8
P-SANR-FIXT
100
AcDbLine
 10
970.949910130496
 20
1815.668759748034
 30
0.0
 11
970.949910130496
 21
1817.01631261436
 31
0.0
  0
SPLINE
  5
253
330
1A3
100
AcDbEntity
  8
P-SANR-FIXT
100
AcDbSpline
210
0.0
220
0.0
230
1.0
 70
    24
 71
     3
 72
     9
 73
     5
 74
     0
 42
0.000000001
 43
0.0000000001
 40
-1.0
 40
-1.0
 40
-1.0
 40
-1.0
 40
-0.5
 40
0.0
 40
0.0
 40
0.0
 40
0.0
 10
970.949910130496
 20
1815.668759748034
 30
0.0
 10
971.3050920040458
 20
1815.668759748034
 30
0.0
 10
971.8431014628391
 20
1815.668759748034
 30
0.0
 10
972.0364023450194
 20
1815.668759748034
 30
0.0
 10
972.0468756419565
 20
1815.668759748034
 30
0.0
  0
LINE
  5
254
330
1A3
100
AcDbEntity
  8
P-SANR-FIXT
100
AcDbLine
 10
972.0468756419561
 20
1825.056693808406
 30
0.0
 11
972.0468756419561
 21
1823.375134417343
 31
0.0
  0
LINE
  5
255
330
1A3
100
AcDbEntity
  8
P-SANR-FIXT
100
AcDbLine
 10
972.0468756419561
 20
1823.375134417343
 30
0.0
 11
972.0468756419561
 21
1825.056693808406
 31
0.0
  0
LINE
  5
256
330
1A3
100
AcDbEntity
  8
P-SANR-FIXT
100
AcDbLine
 10
972.0468756419565
 20
1815.668759748034
 30
0.0
 11
972.0468756419561
 21
1832.668759748034
 31
0.0
  0
ENDBLK
  5
258
330
1A3
100
AcDbEntity
  8
0
100
AcDbBlockEnd
  0
BLOCK
  5
2D1
330
25A
100
AcDbEntity
  8
0
100
AcDbBlockBegin
  2
Automatic flow rate regulator valve_Caleffi_121 DN15 - 1_2__-V2-Est - Idraulica
 70
     0
 10
0.0
 20
0.0
 30
0.0
  3
Automatic flow rate regulator valve_Caleffi_121 DN15 - 1_2__-V2-Est - Idraulica
  1

  0
LWPOLYLINE
  5
25B
330
25A
100
AcDbEntity
  8
M-PIPE
100
AcDbPolyline
 90
       41
 70
   128
 43
0.0
 10
1167.191472925115
 20
1999.982558850011
 10
1167.224268552015
 20
1998.342996148359
 10
1167.322602966707
 20
1996.706056397275
 10
1167.486318855106
 20
1995.074358351166
 10
1167.715154306714
 20
1993.450512378827
 10
1168.008743233624
 20
1991.837116287413
 10
1168.366615956181
 20
1990.236751166499
 10
1168.788199954373
 20
1988.651977258882
 10
1169.272820783735
 20
1987.085329864751
 10
1169.81970315432
 20
1985.539315285732
 10
1170.427972170997
 20
1984.016406815356
 10
1171.096654733096
 20
1982.519040782305
 10
1171.824681091164
 20
1981.04961265281
 10
1172.610886558331
 20
1979.610473198418
 10
1173.454013373565
 20
1978.203924735255
 10
1174.352712713818
 20
1976.832217440815
 10
1175.305546851859
 20
1975.497545754153
 10
1176.310991456327
 20
1974.202044865254
 10
1177.367438030338
 20
1972.947787299181
 10
1178.473196484738
 20
1971.736779600479
 10
1179.626497841881
 20
1970.570959123131
 10
1180.825497065621
 20
1969.452190931206
 10
1182.068276012973
 20
1968.382264815154
 10
1183.352846502733
 20
1967.36289242852
 10
1184.677153496144
 20
1966.39570454967
 10
1186.039078384521
 20
1965.482248472887
 10
1187.436442378571
 20
1964.623985533034
 10
1188.867009993992
 20
1963.822288767729
 10
1190.32849262777
 20
1963.078440720775
 10
1191.818552219458
 20
1962.393631390369
 10
1193.334804991571
 20
1961.768956325355
 10
1194.874825263125
 20
1961.20541487258
 10
1196.436149330205
 20
1960.703908578153
 10
1198.016279407368
 20
1960.265239745162
 10
1199.612687623567
 20
1959.890110150163
 10
1201.222820066205
 20
1959.579119920485
 10
1202.844100866851
 20
1959.332766574152
 10
1204.473936322078
 20
1959.151444223968
 10
1206.109719042838
 20
1959.035442947012
 10
1207.748832125726
 20
1958.984948320583
 10
1208.191472925115
 20
1958.982558850011
1001
REVIT
1002
{
1070
     3
1000
963222
1002
}
  0
LWPOLYLINE
  5
25C
330
25A
100
AcDbEntity
  8
M-PIPE
100
AcDbPolyline
 90
       41
 70
   128
 43
0.0
 10
1208.191472925115
 20
2040.982558850012
 10
1206.551910223463
 20
2040.949763223112
 10
1204.914970472379
 20
2040.851428808419
 10
1203.28327242627
 20
2040.68771292002
 10
1201.659426453931
 20
2040.458877468413
 10
1200.046030362517
 20
2040.165288541503
 10
1198.445665241602
 20
2039.807415818945
 10
1196.860891333986
 20
2039.385831820753
 10
1195.294243939854
 20
2038.901210991392
 10
1193.748229360836
 20
2038.354328620807
 10
1192.22532089046
 20
2037.746059604129
 10
1190.727954857409
 20
2037.07737704203
 10
1189.258526727914
 20
2036.349350683962
 10
1187.819387273522
 20
2035.563145216795
 10
1186.412838810359
 20
2034.720018401562
 10
1185.041131515918
 20
2033.821319061308
 10
1183.706459829257
 20
2032.868484923268
 10
1182.410958940358
 20
2031.8630403188
 10
1181.156701374284
 20
2030.806593744788
 10
1179.945693675582
 20
2029.700835290389
 10
1178.779873198234
 20
2028.547533933245
 10
1177.661105006309
 20
2027.348534709505
 10
1176.591178890257
 20
2026.105755762154
 10
1175.571806503624
 20
2024.821185272394
 10
1174.604618624774
 20
2023.496878278982
 10
1173.691162547991
 20
2022.134953390605
 10
1172.832899608138
 20
2020.737589396555
 10
1172.031202842832
 20
2019.307021781135
 10
1171.287354795878
 20
2017.845539147357
 10
1170.602545465472
 20
2016.355479555668
 10
1169.977870400458
 20
2014.839226783555
 10
1169.414328947683
 20
2013.299206512002
 10
1168.912822653257
 20
2011.737882444922
 10
1168.474153820266
 20
2010.157752367759
 10
1168.099024225267
 20
2008.561344151559
 10
1167.788033995588
 20
2006.951211708921
 10
1167.541680649256
 20
2005.329930908275
 10
1167.360358299072
 20
2003.700095453048
 10
1167.244357022116
 20
2002.064312732288
 10
1167.193862395686
 20
2000.4251996494
 10
1167.191472925115
 20
1999.982558850011
1001
REVIT
1002
{
1070
     3
1000
963222
1002
}
  0
ARC
  5
25D
330
25A
100
AcDbEntity
  8
M-PIPE
100
AcDbCircle
 10
1208.191472925113
 20
1999.982558850011
 30
0.0
 40
18.99999999999954
100
AcDbArc
 50
90.00000000000138
 51
269.9999999999997
1001
REVIT
1002
{
1070
     3
1000
963222
1002
}
  0
LINE
  5
25E
330
25A
100
AcDbEntity
  8
M-PIPE
100
AcDbLine
 10
1208.191472925113
 20
2018.98255885001
 30
0.0
 11
1208.191472925113
 21
2033.05017435922
 31
0.0
1001
REVIT
1002
{
1070
     3
1000
963222
1002
}
  0
LINE
  5
25F
330
25A
100
AcDbEntity
  8
M-PIPE
100
AcDbLine
 10
1208.191472925113
 20
1966.914943340801
 30
0.0
 11
1208.191472925113
 21
1980.982558850011
 31
0.0
1001
REVIT
1002
{
1070
     3
1000
963222
1002
}
  0
SPLINE
  5
260
330
25A
100
AcDbEntity
  8
M-PIPE
100
AcDbSpline
210
0.0
220
0.0
230
1.0
 70
     8
 71
     3
 72
     8
 73
     4
 74
     0
 42
0.000000001
 43
0.0000000001
 40
0.0
 40
0.0
 40
0.0
 40
0.0
 40
0.0625
 40
0.0625
 40
0.0625
 40
0.0625
 10
1185.278594450333
 20
2033.982558850011
 30
0.0
 10
1185.570808010191
 20
2034.179483961355
 30
0.0
 10
1185.873864995365
 20
2034.378308734699
 30
0.0
 10
1186.18808096565
 20
2034.578212393384
 30
0.0
1001
REVIT
1002
{
1070
     3
1000
963222
1002
}
  0
SPLINE
  5
261
330
25A
100
AcDbEntity
  8
M-PIPE
100
AcDbSpline
210
0.0
220
0.0
230
1.0
 70
     8
 71
     3
 72
     8
 73
     4
 74
     0
 42
0.000000001
 43
0.0000000001
 40
0.125
 40
0.125
 40
0.125
 40
0.125
 40
0.1875
 40
0.1875
 40
0.1875
 40
0.1875
 10
1187.164521391627
 20
2035.180339248803
 30
0.0
 10
1187.501370891925
 20
2035.38157990151
 30
0.0
 10
1187.849694951911
 20
2035.583078652298
 30
0.0
 10
1188.209809109201
 20
2035.784014740409
 30
0.0
1001
REVIT
1002
{
1070
     3
1000
963222
1002
}
  0
SPLINE
  5
262
330
25A
100
AcDbEntity
  8
M-PIPE
100
AcDbSpline
210
0.0
220
0.0
230
1.0
 70
     8
 71
     3
 72
    10
 73
     6
 74
     0
 42
0.000000001
 43
0.0000000001
 40
0.25
 40
0.25
 40
0.25
 40
0.25
 40
0.3125
 40
0.375
 40
0.434022037578339
 40
0.434022037578339
 40
0.434022037578339
 40
0.434022037578339
 10
1189.325837410592
 20
2036.384314255942
 30
0.0
 10
1189.709847329674
 20
2036.583304236736
 30
0.0
 10
1190.50207839069
 20
2036.978517413693
 30
0.0
 10
1191.741034851873
 20
2037.546071416587
 30
0.0
 10
1192.606046031198
 20
2037.907605916374
 30
0.0
 10
1193.036979874318
 20
2038.079032228678
 30
0.0
1001
REVIT
1002
{
1070
     3
1000
963222
1002
}
  0
SPLINE
  5
263
330
25A
100
AcDbEntity
  8
M-PIPE
100
AcDbSpline
210
0.0
220
0.0
230
1.0
 70
     8
 71
     3
 72
     8
 73
     4
 74
     0
 42
0.000000001
 43
0.0000000001
 40
0.0625
 40
0.0625
 40
0.0625
 40
0.0625
 40
0.125
 40
0.125
 40
0.125
 40
0.125
 10
1206.293391780126
 20
2040.938604511546
 30
0.0
 10
1205.668610623681
 20
2040.909650447293
 30
0.0
 10
1205.051927353063
 20
2040.866742586331
 30
0.0
 10
1204.44389786054
 20
2040.81092743284
 30
0.0
1001
REVIT
1002
{
1070
     3
1000
963222
1002
}
  0
SPLINE
  5
264
330
25A
100
AcDbEntity
  8
M-PIPE
100
AcDbSpline
210
0.0
220
0.0
230
1.0
 70
     8
 71
     3
 72
     8
 73
     4
 74
     0
 42
0.000000001
 43
0.0000000001
 40
0.1875
 40
0.1875
 40
0.1875
 40
0.1875
 40
0.25
 40
0.25
 40
0.25
 40
0.25
 10
1202.646581250898
 20
2040.605879446944
 30
0.0
 10
1202.0566697885
 20
2040.525369087236
 30
0.0
 10
1201.47622271755
 20
2040.433070772229
 30
0.0
 10
1200.904196587005
 20
2040.329747148232
 30
0.0
1001
REVIT
1002
{
1070
     3
1000
963222
1002
}
  0
SPLINE
  5
265
330
25A
100
AcDbEntity
  8
M-PIPE
100
AcDbSpline
210
0.0
220
0.0
230
1.0
 70
     8
 71
     3
 72
    15
 73
    11
 74
     0
 42
0.000000001
 43
0.0000000001
 40
0.3125
 40
0.3125
 40
0.3125
 40
0.3125
 40
0.375
 40
0.4375
 40
0.5
 40
0.53125
 40
0.5625
 40
0.625
 40
0.6875
 40
0.75
 40
0.75
 40
0.75
 40
0.75
 10
1199.21400499533
 20
2039.987621899202
 30
0.0
 10
1198.659443987549
 20
2039.863169453629
 30
0.0
 10
1197.568410914963
 20
2039.594057944861
 30
0.0
 10
1195.999456625696
 20
2039.138803280435
 30
0.0
 10
1194.758002247229
 20
2038.725262897642
 30
0.0
 10
1193.80619928737
 20
2038.37856733293
 30
0.0
 10
1192.87831942944
 20
2038.021085155156
 30
0.0
 10
1191.763218790684
 20
2037.556795914143
 30
0.0
 10
1190.50683784786
 20
2036.978617776041
 30
0.0
 10
1189.699563245707
 20
2036.583071462111
 30
0.0
 10
1189.325837410592
 20
2036.384314255942
 30
0.0
1001
REVIT
1002
{
1070
     3
1000
963222
1002
}
  0
SPLINE
  5
266
330
25A
100
AcDbEntity
  8
M-PIPE
100
AcDbSpline
210
0.0
220
0.0
230
1.0
 70
     8
 71
     3
 72
     8
 73
     4
 74
     0
 42
0.000000001
 43
0.0000000001
 40
0.8125
 40
0.8125
 40
0.8125
 40
0.8125
 40
0.875
 40
0.875
 40
0.875
 40
0.875
 10
1188.20981749988
 20
2035.784017689962
 30
0.0
 10
1187.849704284746
 20
2035.583081922514
 30
0.0
 10
1187.516258678634
 20
2035.383021602478
 30
0.0
 10
1187.19428699425
 20
2035.183219173815
 30
0.0
1001
REVIT
1002
{
1070
     3
1000
963222
1002
}
  0
SPLINE
  5
267
330
25A
100
AcDbEntity
  8
M-PIPE
100
AcDbSpline
210
0.0
220
0.0
230
1.0
 70
     8
 71
     3
 72
     8
 73
     4
 74
     0
 42
0.000000001
 43
0.0000000001
 40
0.9375
 40
0.9375
 40
0.9375
 40
0.9375
 40
1.0
 40
1.0
 40
1.0
 40
1.0
 10
1186.188083769937
 20
2034.57821337127
 30
0.0
 10
1185.873866241715
 20
2034.378309169315
 30
0.0
 10
1185.570808010191
 20
2034.179483961355
 30
0.0
 10
1185.278594450333
 20
2033.982558850011
 30
0.0
1001
REVIT
1002
{
1070
     3
1000
963222
1002
}
  0
SPLINE
  5
268
330
25A
100
AcDbEntity
  8
M-PIPE
100
AcDbSpline
210
0.0
220
0.0
230
1.0
 70
     8
 71
     3
 72
     8
 73
     4
 74
     0
 42
0.000000001
 43
0.0000000001
 40
0.0
 40
0.0
 40
0.0
 40
0.0
 40
0.0666666666666667
 40
0.0666666666666667
 40
0.0666666666666667
 40
0.0666666666666667
 10
1185.278594450333
 20
2033.982558850011
 30
0.0
 10
1184.880989456837
 20
2033.714609588336
 30
0.0
 10
1184.514365112448
 20
2033.457876656104
 30
0.0
 10
1184.177152829298
 20
2033.214448159117
 30
0.0
1001
REVIT
1002
{
1070
     3
1000
963222
1002
}
  0
SPLINE
  5
269
330
25A
100
AcDbEntity
  8
M-PIPE
100
AcDbSpline
210
0.0
220
0.0
230
1.0
 70
     8
 71
     3
 72
     9
 73
     5
 74
     0
 42
0.000000001
 43
0.0000000001
 40
0.1333333333333333
 40
0.1333333333333333
 40
0.1333333333333333
 40
0.1333333333333333
 40
0.2
 40
0.2666666666666666
 40
0.2666666666666666
 40
0.2666666666666666
 40
0.2666666666666666
 10
1183.252183575697
 20
2032.526164079701
 30
0.0
 10
1182.972226827158
 20
2032.311432559011
 30
0.0
 10
1182.470804762579
 20
2031.914783205752
 30
0.0
 10
1182.063264296987
 20
2031.579942015825
 30
0.0
 10
1181.885629245624
 20
2031.431799526078
 30
0.0
1001
REVIT
1002
{
1070
     3
1000
963222
1002
}
  0
SPLINE
  5
26A
330
25A
100
AcDbEntity
  8
M-PIPE
100
AcDbSpline
210
0.0
220
0.0
230
1.0
 70
     8
 71
     3
 72
     8
 73
     4
 74
     0
 42
0.000000001
 43
0.0000000001
 40
0.4666666666666666
 40
0.4666666666666666
 40
0.4666666666666666
 40
0.4666666666666666
 40
0.5333333333333333
 40
0.5333333333333333
 40
0.5333333333333333
 40
0.5333333333333333
 10
1181.007259286368
 20
2030.67856872678
 30
0.0
 10
1180.982611958066
 20
2030.658068840217
 30
0.0
 10
1180.991292495213
 20
2030.664834219136
 30
0.0
 10
1181.025877722979
 20
2030.693530372641
 30
0.0
1001
REVIT
1002
{
1070
     3
1000
963222
1002
}
  0
SPLINE
  5
26B
330
25A
100
AcDbEntity
  8
M-PIPE
100
AcDbSpline
210
0.0
220
0.0
230
1.0
 70
     8
 71
     3
 72
     9
 73
     5
 74
     0
 42
0.000000001
 43
0.0000000001
 40
0.7333333333333333
 40
0.7333333333333333
 40
0.7333333333333333
 40
0.7333333333333333
 40
0.85
 40
0.8666666666666666
 40
0.8666666666666666
 40
0.8666666666666666
 40
0.8666666666666666
 10
1181.896448695873
 20
2031.439375597029
 30
0.0
 10
1182.200259429422
 20
2031.6930585108
 30
0.0
 10
1182.585134058629
 20
2032.027122243361
 30
0.0
 10
1183.19724995482
 20
2032.478713967171
 30
0.0
 10
1183.276489287462
 20
2032.536579729185
 30
0.0
1001
REVIT
1002
{
1070
     3
1000
963222
1002
}
  0
SPLINE
  5
26C
330
25A
100
AcDbEntity
  8
M-PIPE
100
AcDbSpline
210
0.0
220
0.0
230
1.0
 70
     8
 71
     3
 72
     8
 73
     4
 74
     0
 42
0.000000001
 43
0.0000000001
 40
0.9333333333333332
 40
0.9333333333333332
 40
0.9333333333333332
 40
0.9333333333333332
 40
1.0
 40
1.0
 40
1.0
 40
1.0
 10
1184.177385067558
 20
2033.214280739239
 30
0.0
 10
1184.514533719013
 20
2033.457828794585
 30
0.0
 10
1184.881076214339
 20
2033.714668054926
 30
0.0
 10
1185.278594450333
 20
2033.982558850011
 30
0.0
1001
REVIT
1002
{
1070
     3
1000
963222
1002
}
  0
LINE
  5
26D
330
25A
100
AcDbEntity
  8
M-PIPE
100
AcDbLine
 10
1185.292806104709
 20
2033.982558850011
 30
0.0
 11
1185.278594450333
 21
2033.982558850011
 31
0.0
1001
REVIT
1002
{
1070
     3
1000
963222
1002
}
  0
LINE
  5
26E
330
25A
100
AcDbEntity
  8
M-PIPE
100
AcDbLine
 10
1185.292440424062
 20
2033.982558850011
 30
0.0
 11
1185.278594450333
 21
2033.982558850011
 31
0.0
1001
REVIT
1002
{
1070
     3
1000
963222
1002
}
  0
LINE
  5
26F
330
25A
100
AcDbEntity
  8
M-PIPE
100
AcDbLine
 10
1208.191472925113
 20
1958.982558850011
 30
0.0
 11
1208.191472925113
 21
1966.914943340801
 31
0.0
1001
REVIT
1002
{
1070
     3
1000
963222
1002
}
  0
LINE
  5
270
330
25A
100
AcDbEntity
  8
M-PIPE
100
AcDbLine
 10
1208.191472925113
 20
2033.05017435922
 30
0.0
 11
1208.191472925113
 21
2040.982558850011
 31
0.0
1001
REVIT
1002
{
1070
     3
1000
963222
1002
}
  0
LINE
  5
271
330
25A
100
AcDbEntity
  8
M-PIPE
100
AcDbLine
 10
1223.341472925128
 20
2033.18255885006
 30
0.0
 11
1223.341472925128
 21
2060.482558850044
 31
0.0
1001
REVIT
1002
{
1070
     3
1000
923114
1002
}
  0
LINE
  5
272
330
25A
100
AcDbEntity
  8
M-PIPE
100
AcDbLine
 10
1193.041472925128
 20
2060.482558850044
 30
0.0
 11
1193.041472925128
 21
2038.073768153353
 31
0.0
1001
REVIT
1002
{
1070
     3
1000
923114
1002
}
  0
LWPOLYLINE
  5
273
330
25A
100
AcDbEntity
  8
M-PIPE
100
AcDbPolyline
 90
       41
 70
   128
 43
0.0
 10
1224.691472925116
 20
2033.18255885006
 10
1224.811440927676
 20
2033.180159170044
 10
1224.931217007023
 20
2033.172963968969
 10
1225.050609546983
 20
2033.160984757622
 10
1225.169427544958
 20
2033.144240700187
 10
1225.287480917501
 20
2033.122758583584
 10
1225.404580804397
 20
2033.096572774617
 10
1225.520539870808
 20
2033.065725164993
 10
1225.635172606964
 20
2033.030265104308
 10
1225.748295624941
 20
2032.990249321094
 10
1225.859727952042
 20
2032.945741832069
 10
1225.969291320314
 20
2032.89681383972
 10
1226.07681045174
 20
2032.843543618398
 10
1226.182113338647
 20
2032.786016389094
 10
1226.285031518879
 20
2032.724324183101
 10
1226.385400345301
 20
2032.65856569479
 10
1226.483059249203
 20
2032.588846123713
 10
1226.577851997171
 20
2032.515277006313
 10
1226.66962694103
 20
2032.437976037483
 10
1226.758237260448
 20
2032.357066882283
 10
1226.843541197814
 20
2032.272678978102
 10
1226.925402285028
 20
2032.184947327584
 10
1227.003689561813
 20
2032.094012282656
 10
1227.078277785225
 20
2032.00001931999
 10
1227.149047630019
 20
2031.903118808278
 10
1227.215885879539
 20
2031.803465767665
 10
1227.278685606846
 20
2031.701219621759
 10
1227.337346345771
 20
2031.596543942582
 10
1227.391774251646
 20
2031.48960618889
 10
1227.441882251431
 20
2031.380577438279
 10
1227.487590183018
 20
2031.26963211349
 10
1227.528824923464
 20
2031.156947703377
 10
1227.565520505983
 20
2031.042704478956
 10
1227.59761822547
 20
2030.927085205018
 10
1227.625066732422
 20
2030.810274847735
 10
1227.647822115081
 20
2030.692460278761
 10
1227.665847969691
 20
2030.573829976275
 10
1227.679115458729
 20
2030.454573723453
 10
1227.687603357043
 20
2030.334882304861
 10
1227.691298085806
 20
2030.214947201235
 10
1227.691472925116
 20
2030.18255885006
1001
REVIT
1002
{
1070
     3
1000
923114
1002
}
  0
LWPOLYLINE
  5
274
330
25A
100
AcDbEntity
  8
M-PIPE
100
AcDbPolyline
 90
        5
 70
   128
 43
0.0
 10
1224.585310877533
 20
2033.182558850061
 10
1224.618321550291
 20
2033.182558850061
 10
1224.667244500322
 20
2033.18255885006
 10
1224.689809730476
 20
2033.18255885006
 10
1224.691472925116
 20
2033.18255885006
1001
REVIT
1002
{
1070
     3
1000
923114
1002
}
  0
LWPOLYLINE
  5
275
330
25A
100
AcDbEntity
  8
M-PIPE
100
AcDbPolyline
 90
       31
 70
   128
 43
0.0
 10
1224.691472925116
 20
2033.18255885006
 10
1224.678274685022
 20
2033.18255885006
 10
1224.638701079109
 20
2033.18255885006
 10
1224.572815416705
 20
2033.18255885006
 10
1224.480723100814
 20
2033.18255885006
 10
1224.362571459497
 20
2033.18255885006
 10
1224.218549510174
 20
2033.18255885006
 10
1224.048887657244
 20
2033.18255885006
 10
1223.853857323476
 20
2033.18255885006
 10
1223.633770515802
 20
2033.18255885006
 10
1223.388979326163
 20
2033.18255885006
 10
1223.119875368245
 20
2033.18255885006
 10
1222.826889150974
 20
2033.18255885006
 10
1222.510489389797
 20
2033.18255885006
 10
1222.171182256837
 20
2033.18255885006
 10
1221.809510571126
 20
2033.18255885006
 10
1221.426052930207
 20
2033.18255885006
 10
1221.021422784506
 20
2033.18255885006
 10
1220.596267455941
 20
2033.18255885006
 10
1220.151267102341
 20
2033.18255885006
 10
1219.687133629344
 20
2033.18255885006
 10
1219.204609551497
 20
2033.18255885006
 10
1218.704466804393
 20
2033.18255885006
 10
1218.187505509733
 20
2033.18255885006
 10
1217.654552695311
 20
2033.18255885006
 10
1217.10646097194
 20
2033.18255885006
 10
1216.544107169457
 20
2033.18255885006
 10
1215.968390933983
 20
2033.18255885006
 10
1215.380233288682
 20
2033.18255885006
 10
1214.780575160319
 20
2033.18255885006
 10
1214.565131496313
 20
2033.18255885006
1001
REVIT
1002
{
1070
     3
1000
923114
1002
}
  0
LINE
  5
276
330
25A
100
AcDbEntity
  8
M-PIPE
100
AcDbLine
 10
1227.691472925116
 20
2029.182558850044
 30
0.0
 11
1227.691472925116
 21
2030.18255885006
 31
0.0
1001
REVIT
1002
{
1070
     3
1000
923114
1002
}
  0
LWPOLYLINE
  5
277
330
25A
100
AcDbEntity
  8
M-PIPE
100
AcDbPolyline
 90
       41
 70
   128
 43
0.0
 10
1193.041472925128
 20
2060.482558850044
 10
1193.044272551815
 20
2060.622521519697
 10
1193.052666953069
 20
2060.762260278936
 10
1193.06664269964
 20
2060.901551575555
 10
1193.086177433313
 20
2061.040172573194
 10
1193.111239902684
 20
2061.177901507827
 10
1193.141790013146
 20
2061.314518042539
 10
1193.17777889104
 20
2061.449803620018
 10
1193.21914896184
 20
2061.5835418122
 10
1193.265834042256
 20
2061.715518666507
 10
1193.317759446118
 20
2061.845523048124
 10
1193.374842103858
 20
2061.973346977775
 10
1193.4369906954
 20
2062.098785964439
 10
1193.504105796256
 20
2062.221639332497
 10
1193.576080036581
 20
2062.341710542767
 10
1193.652798272944
 20
2062.458807506927
 10
1193.734137772533
 20
2062.572742894812
 10
1193.8199684095
 20
2062.683334434109
 10
1193.910152873135
 20
2062.790405201944
 10
1194.004546887535
 20
2062.893783907931
 10
1194.102999442413
 20
2062.993305168192
 10
1194.205353034683
 20
2063.088809769942
 10
1194.311443920433
 20
2063.180144926191
 10
1194.421102376876
 20
2063.267164520171
 10
1194.534152973875
 20
2063.349729339098
 10
1194.65041485459
 20
2063.427707296871
 10
1194.769702024814
 20
2063.500973645396
 10
1194.89182365052
 20
2063.569411174142
 10
1195.01658436316
 20
2063.632910397661
 10
1195.143784572206
 20
2063.691369730745
 10
1195.27322078446
 20
2063.744695650929
 10
1195.404685929593
 20
2063.792802848118
 10
1195.537969691416
 20
2063.835614361056
 10
1195.672858844345
 20
2063.873061700458
 10
1195.809137594508
 20
2063.905084958568
 10
1195.946587924977
 20
2063.931632905004
 10
1196.084989944544
 20
2063.952663068715
 10
1196.224122239503
 20
2063.968141805926
 10
1196.363762227861
 20
2063.978044353959
 10
1196.503686515424
 20
2063.982354870849
 10
1196.541472925128
 20
2063.982558850044
1001
REVIT
1002
{
1070
     3
1000
923114
1002
}
  0
LINE
  5
278
330
25A
100
AcDbEntity
  8
M-PIPE
100
AcDbLine
 10
1205.826652226378
 20
2063.982558850044
 30
0.0
 11
1204.577833180825
 21
2063.982558850044
 31
0.0
1001
REVIT
1002
{
1070
     3
1000
923114
1002
}
  0
LINE
  5
279
330
25A
100
AcDbEntity
  8
M-PIPE
100
AcDbLine
 10
1210.556295958691
 20
2063.982558850044
 30
0.0
 11
1205.826652226378
 21
2063.982558850044
 31
0.0
1001
REVIT
1002
{
1070
     3
1000
923114
1002
}
  0
LINE
  5
27A
330
25A
100
AcDbEntity
  8
M-PIPE
100
AcDbLine
 10
1211.80511516235
 20
2063.982558850044
 30
0.0
 11
1210.556295958691
 21
2063.982558850044
 31
0.0
1001
REVIT
1002
{
1070
     3
1000
923114
1002
}
  0
LWPOLYLINE
  5
27B
330
25A
100
AcDbEntity
  8
M-PIPE
100
AcDbPolyline
 90
       41
 70
   128
 43
0.0
 10
1219.841472925128
 20
2063.982558850044
 10
1219.981435594781
 20
2063.979759223357
 10
1220.12117435402
 20
2063.971364822103
 10
1220.260465650639
 20
2063.957389075532
 10
1220.399086648278
 20
2063.937854341858
 10
1220.536815582911
 20
2063.912791872488
 10
1220.673432117623
 20
2063.882241762026
 10
1220.808717695103
 20
2063.846252884132
 10
1220.942455887285
 20
2063.804882813332
 10
1221.074432741591
 20
2063.758197732917
 10
1221.204437123209
 20
2063.706272329054
 10
1221.332261052859
 20
2063.649189671314
 10
1221.457700039524
 20
2063.587041079771
 10
1221.580553407581
 20
2063.519925978916
 10
1221.700624617851
 20
2063.447951738591
 10
1221.817721582011
 20
2063.371233502228
 10
1221.931656969897
 20
2063.289894002639
 10
1222.042248509193
 20
2063.204063365672
 10
1222.149319277028
 20
2063.113878902037
 10
1222.252697983015
 20
2063.019484887637
 10
1222.352219243276
 20
2062.921032332759
 10
1222.447723845026
 20
2062.818678740489
 10
1222.539059001275
 20
2062.712587854738
 10
1222.626078595255
 20
2062.602929398296
 10
1222.708643414182
 20
2062.489878801297
 10
1222.786621371956
 20
2062.373616920583
 10
1222.85988772048
 20
2062.254329750359
 10
1222.928325249226
 20
2062.132208124652
 10
1222.991824472746
 20
2062.007447412012
 10
1223.050283805829
 20
2061.880247202966
 10
1223.103609726013
 20
2061.750810990712
 10
1223.151716923202
 20
2061.61934584558
 10
1223.19452843614
 20
2061.486062083756
 10
1223.231975775542
 20
2061.351172930827
 10
1223.263999033652
 20
2061.214894180664
 10
1223.290546980088
 20
2061.077443850195
 10
1223.311577143799
 20
2060.939041830627
 10
1223.32705588101
 20
2060.799909535669
 10
1223.336958429043
 20
2060.660269547311
 10
1223.341268945933
 20
2060.520345259748
 10
1223.341472925128
 20
2060.482558850044
1001
REVIT
1002
{
1070
     3
1000
923114
1002
}
  0
LINE
  5
27C
330
25A
100
AcDbEntity
  8
M-PIPE
100
AcDbLine
 10
1227.691472925114
 20
2029.182558850043
 30
0.0
 11
1213.859114323623
 21
2029.182558850043
 31
0.0
1001
REVIT
1002
{
1070
     3
1000
923114
1002
}
  0
LINE
  5
27D
330
25A
100
AcDbEntity
  8
M-PIPE
100
AcDbLine
 10
1213.859114323623
 20
2029.182558850043
 30
0.0
 11
1210.556295958689
 21
2029.182558850043
 31
0.0
1001
REVIT
1002
{
1070
     3
1000
923114
1002
}
  0
LINE
  5
27E
330
25A
100
AcDbEntity
  8
M-PIPE
100
AcDbLine
 10
1210.556295958689
 20
2029.182558850043
 30
0.0
 11
1208.191472925113
 21
2029.182558850043
 31
0.0
1001
REVIT
1002
{
1070
     3
1000
923114
1002
}
  0
LINE
  5
27F
330
25A
100
AcDbEntity
  8
M-PIPE
100
AcDbLine
 10
1201.50169825185
 20
2060.482558850043
 30
0.0
 11
1201.50169825185
 21
2040.415062113154
 31
0.0
1001
REVIT
1002
{
1070
     3
1000
923114
1002
}
  0
SPLINE
  5
280
330
25A
100
AcDbEntity
  8
M-PIPE
100
AcDbSpline
210
0.0
220
0.0
230
1.0
 70
     8
 71
     3
 72
    13
 73
     9
 74
     0
 42
0.000000001
 43
0.0000000001
 40
0.0
 40
0.0
 40
0.0
 40
0.0
 40
0.2
 40
0.4
 40
0.55
 40
0.625
 40
0.7
 40
1.0
 40
1.0
 40
1.0
 40
1.0
 10
1213.991991100756
 20
2031.727938020327
 30
0.0
 10
1214.017696868457
 20
2031.920815442671
 30
0.0
 10
1214.075340129385
 20
2032.268854801175
 30
0.0
 10
1214.17419910476
 20
2032.648039942248
 30
0.0
 10
1214.258847617186
 20
2032.865038903162
 30
0.0
 10
1214.320727765027
 20
2032.98496305126
 30
0.0
 10
1214.416480956944
 20
2033.130269198865
 30
0.0
 10
1214.498407088514
 20
2033.183442750448
 30
0.0
 10
1214.565131496311
 20
2033.18255885006
 30
0.0
1001
REVIT
1002
{
1070
     3
1000
923114
1002
}
  0
LINE
  5
281
330
25A
100
AcDbEntity
  8
M-PIPE
100
AcDbLine
 10
1214.881250180201
 20
2033.18255885006
 30
0.0
 11
1214.881250180201
 21
2060.482558850043
 31
0.0
1001
REVIT
1002
{
1070
     3
1000
923114
1002
}
  0
SPLINE
  5
282
330
25A
100
AcDbEntity
  8
M-PIPE
100
AcDbSpline
210
0.0
220
0.0
230
1.0
 70
     8
 71
     3
 72
    13
 73
     9
 74
     0
 42
0.000000001
 43
0.0000000001
 40
-1.0
 40
-1.0
 40
-1.0
 40
-1.0
 40
-0.8333333333333332
 40
-0.6666666666666666
 40
-0.5
 40
-0.3333333333333333
 40
-0.1666666666666666
 40
0.0
 40
0.0
 40
0.0
 40
0.0
 10
1201.50169825185
 20
2060.482558850043
 30
0.0
 10
1201.501097509327
 20
2060.787991469142
 30
0.0
 10
1201.571820669613
 20
2061.398828868483
 30
0.0
 10
1201.886904049463
 20
2062.252664804009
 30
0.0
 10
1202.383443820597
 20
2062.98586501574
 30
0.0
 10
1203.029627324906
 20
2063.548470638208
 30
0.0
 10
1203.78223912148
 20
2063.902139011159
 30
0.0
 10
1204.314246067712
 20
2063.982558850043
 30
0.0
 10
1204.577833180823
 20
2063.982558850043
 30
0.0
1001
REVIT
1002
{
1070
     3
1000
923114
1002
}
  0
SPLINE
  5
283
330
25A
100
AcDbEntity
  8
M-PIPE
100
AcDbSpline
210
0.0
220
0.0
230
1.0
 70
     8
 71
     3
 72
    11
 73
     7
 74
     0
 42
0.000000001
 43
0.0000000001
 40
0.0
 40
0.0
 40
0.0
 40
0.0
 40
0.25
 40
0.5
 40
0.75
 40
1.0
 40
1.0
 40
1.0
 40
1.0
 10
1203.600378455404
 20
2062.708832621015
 30
0.0
 10
1203.734669071494
 20
2062.907180192997
 30
0.0
 10
1204.041063519923
 20
2063.267661681225
 30
0.0
 10
1204.585742684439
 20
2063.673711121971
 30
0.0
 10
1205.189892274051
 20
2063.92547341158
 30
0.0
 10
1205.61505444157
 20
2063.982558850043
 30
0.0
 10
1205.826652226376
 20
2063.982558850043
 30
0.0
1001
REVIT
1002
{
1070
     3
1000
923114
1002
}
  0
SPLINE
  5
284
330
25A
100
AcDbEntity
  8
M-PIPE
100
AcDbSpline
210
0.0
220
0.0
230
1.0
 70
     8
 71
     3
 72
    11
 73
     7
 74
     0
 42
0.000000001
 43
0.0000000001
 40
0.0
 40
0.0
 40
0.0
 40
0.0
 40
0.25
 40
0.5
 40
0.75
 40
1.0
 40
1.0
 40
1.0
 40
1.0
 10
1212.782569729661
 20
2062.708832621015
 30
0.0
 10
1212.645204848644
 20
2062.907180192997
 30
0.0
 10
1212.343168790993
 20
2063.267661681225
 30
0.0
 10
1211.797322457544
 20
2063.673711121971
 30
0.0
 10
1211.191303957495
 20
2063.92547341158
 30
0.0
 10
1210.771903663762
 20
2063.982558850043
 30
0.0
 10
1210.556295958689
 20
2063.982558850043
 30
0.0
1001
REVIT
1002
{
1070
     3
1000
923114
1002
}
  0
SPLINE
  5
285
330
25A
100
AcDbEntity
  8
M-PIPE
100
AcDbSpline
210
0.0
220
0.0
230
1.0
 70
     8
 71
     3
 72
    15
 73
    11
 74
     0
 42
0.000000001
 43
0.0000000001
 40
0.0
 40
0.0
 40
0.0
 40
0.0
 40
0.1428571428571428
 40
0.2857142857142857
 40
0.4285714285714286
 40
0.5714285714285714
 40
0.6785714285714287
 40
0.7321428571428572
 40
0.7857142857142857
 40
1.0
 40
1.0
 40
1.0
 40
1.0
 10
1214.881250180201
 20
2060.482558850043
 30
0.0
 10
1214.881383993417
 20
2060.764177077411
 30
0.0
 10
1214.820816577232
 20
2061.323192574048
 30
0.0
 10
1214.559707480739
 20
2062.105702807025
 30
0.0
 10
1214.155354017536
 20
2062.780492508073
 30
0.0
 10
1213.685763492071
 20
2063.273600385646
 30
0.0
 10
1213.279073307601
 20
2063.560091999018
 30
0.0
 10
1212.97800590268
 20
2063.718709314401
 30
0.0
 10
1212.517810296083
 20
2063.912390280099
 30
0.0
 10
1212.117746214508
 20
2063.982558850043
 30
0.0
 10
1211.805115162348
 20
2063.982558850043
 30
0.0
1001
REVIT
1002
{
1070
     3
1000
923114
1002
}
  0
SPLINE
  5
286
330
25A
100
AcDbEntity
  8
M-PIPE
100
AcDbSpline
210
0.0
220
0.0
230
1.0
 70
     8
 71
     3
 72
    10
 73
     6
 74
     0
 42
0.000000001
 43
0.0000000001
 40
-1.0
 40
-1.0
 40
-1.0
 40
-1.0
 40
-0.6666666666666666
 40
-0.3333333333333333
 40
0.0
 40
0.0
 40
0.0
 40
0.0
 10
1203.600378455404
 20
2062.708832621015
 30
0.0
 10
1203.821195486616
 20
2062.481977953089
 30
0.0
 10
1204.298233538195
 20
2062.014396927272
 30
0.0
 10
1205.051005680528
 20
2061.255293989295
 30
0.0
 10
1205.570754342592
 20
2060.742970423187
 30
0.0
 10
1205.826652226376
 20
2060.482558850043
 30
0.0
1001
REVIT
1002
{
1070
     3
1000
923114
1002
}
  0
SPLINE
  5
287
330
25A
100
AcDbEntity
  8
M-PIPE
100
AcDbSpline
210
0.0
220
0.0
230
1.0
 70
     8
 71
     3
 72
    10
 73
     6
 74
     0
 42
0.000000001
 43
0.0000000001
 40
-1.0
 40
-1.0
 40
-1.0
 40
-1.0
 40
-0.6666666666666666
 40
-0.3333333333333333
 40
0.0
 40
0.0
 40
0.0
 40
0.0
 10
1202.39095708431
 20
2060.482558850043
 30
0.0
 10
1202.439784702433
 20
2060.742970423187
 30
0.0
 10
1202.594984638758
 20
2061.255293989295
 30
0.0
 10
1202.993104898673
 20
2062.014396927272
 30
0.0
 10
1203.379561424192
 20
2062.481977953089
 30
0.0
 10
1203.600378455404
 20
2062.708832621015
 30
0.0
1001
REVIT
1002
{
1070
     3
1000
923114
1002
}
  0
LINE
  5
288
330
25A
100
AcDbEntity
  8
M-PIPE
100
AcDbLine
 10
1213.859114323623
 20
2030.182558850059
 30
0.0
 11
1213.859114323623
 21
2029.182558850043
 31
0.0
1001
REVIT
1002
{
1070
     3
1000
923114
1002
}
  0
SPLINE
  5
289
330
25A
100
AcDbEntity
  8
M-PIPE
100
AcDbSpline
210
0.0
220
0.0
230
1.0
 70
     8
 71
     3
 72
    10
 73
     6
 74
     0
 42
0.000000001
 43
0.0000000001
 40
-1.0
 40
-1.0
 40
-1.0
 40
-1.0
 40
-0.6666666666666666
 40
-0.3333333333333333
 40
0.0
 40
0.0
 40
0.0
 40
0.0
 10
1213.991991100756
 20
2031.727938020327
 30
0.0
 10
1213.971756098614
 20
2031.575190889578
 30
0.0
 10
1213.928507966808
 20
2031.256940056749
 30
0.0
 10
1213.873228127919
 20
2030.731941776963
 30
0.0
 10
1213.859631901024
 20
2030.36889953652
 30
0.0
 10
1213.859114323623
 20
2030.182558850059
 30
0.0
1001
REVIT
1002
{
1070
     3
1000
923114
1002
}
  0
SPLINE
  5
28A
330
25A
100
AcDbEntity
  8
M-PIPE
100
AcDbSpline
210
0.0
220
0.0
230
1.0
 70
     8
 71
     3
 72
    10
 73
     6
 74
     0
 42
0.000000001
 43
0.0000000001
 40
-1.0
 40
-1.0
 40
-1.0
 40
-1.0
 40
-0.6666666666666666
 40
-0.3333333333333333
 40
0.0
 40
0.0
 40
0.0
 40
0.0
 10
1212.782569729661
 20
2062.708832621015
 30
0.0
 10
1213.003386760873
 20
2062.481977953089
 30
0.0
 10
1213.389843286392
 20
2062.014396927272
 30
0.0
 10
1213.787963546307
 20
2061.255293989295
 30
0.0
 10
1213.943163482632
 20
2060.742970423187
 30
0.0
 10
1213.991991100756
 20
2060.482558850043
 30
0.0
1001
REVIT
1002
{
1070
     3
1000
923114
1002
}
  0
SPLINE
  5
28B
330
25A
100
AcDbEntity
  8
M-PIPE
100
AcDbSpline
210
0.0
220
0.0
230
1.0
 70
     8
 71
     3
 72
    10
 73
     6
 74
     0
 42
0.000000001
 43
0.0000000001
 40
-1.0
 40
-1.0
 40
-1.0
 40
-1.0
 40
-0.6666666666666666
 40
-0.3333333333333333
 40
0.0
 40
0.0
 40
0.0
 40
0.0
 10
1210.556295958689
 20
2060.482558850043
 30
0.0
 10
1210.812193842473
 20
2060.742970423187
 30
0.0
 10
1211.331942504538
 20
2061.255293989295
 30
0.0
 10
1212.08471464687
 20
2062.014396927272
 30
0.0
 10
1212.56175269845
 20
2062.481977953089
 30
0.0
 10
1212.782569729661
 20
2062.708832621015
 30
0.0
1001
REVIT
1002
{
1070
     3
1000
923114
1002
}
  0
LINE
  5
28C
330
25A
100
AcDbEntity
  8
P-SANR-FIXT
100
AcDbLine
 10
1224.691472925115
 20
2026.982558850011
 30
0.0
 11
1224.691472925115
 21
2028.268484846655
 31
0.0
  0
LINE
  5
28D
330
25A
100
AcDbEntity
  8
P-SANR-FIXT
100
AcDbLine
 10
1224.691472925116
 20
2028.268484846655
 30
0.0
 11
1224.051431417461
 21
2029.182558850044
 31
0.0
  0
LINE
  5
28E
330
25A
100
AcDbEntity
  8
P-SANR-FIXT
100
AcDbLine
 10
1224.691472925113
 20
2028.268484846654
 30
0.0
 11
1208.191472925113
 21
2028.268484846654
 31
0.0
  0
LINE
  5
28F
330
25A
100
AcDbEntity
  8
P-SANR-FIXT
100
AcDbLine
 10
1231.191472925146
 20
1990.982558850011
 30
0.0
 11
1233.191472925114
 21
1990.982558850011
 31
0.0
  0
LINE
  5
290
330
25A
100
AcDbEntity
  8
P-SANR-FIXT
100
AcDbLine
 10
1233.191472925114
 20
2008.982558850012
 30
0.0
 11
1231.191472925146
 21
2008.982558850012
 31
0.0
  0
LINE
  5
291
330
25A
100
AcDbEntity
  8
P-SANR-FIXT
100
AcDbLine
 10
1233.191472925114
 20
1990.982558849998
 30
0.0
 11
1236.69147292513
 21
1990.982558849998
 31
0.0
  0
LINE
  5
292
330
25A
100
AcDbEntity
  8
P-SANR-FIXT
100
AcDbLine
 10
1236.69147292513
 20
2008.982558850025
 30
0.0
 11
1233.191472925114
 21
2008.982558850025
 31
0.0
  0
LINE
  5
293
330
25A
100
AcDbEntity
  8
P-SANR-FIXT
100
AcDbLine
 10
1231.191472925144
 20
1999.982558850011
 30
0.0
 11
1231.191472925144
 21
1990.982558850011
 31
0.0
  0
LINE
  5
294
330
25A
100
AcDbEntity
  8
P-SANR-FIXT
100
AcDbLine
 10
1231.191472925144
 20
2008.982558850011
 30
0.0
 11
1231.191472925144
 21
1999.982558850011
 31
0.0
  0
LINE
  5
295
330
25A
100
AcDbEntity
  8
P-SANR-FIXT
100
AcDbLine
 10
1233.191472925111
 20
1990.992802806926
 30
0.0
 11
1233.191472925111
 21
1995.115908432547
 31
0.0
  0
LINE
  5
296
330
25A
100
AcDbEntity
  8
P-SANR-FIXT
100
AcDbLine
 10
1233.191472925111
 20
1995.859453224389
 30
0.0
 11
1233.191472925111
 21
1999.982558850011
 31
0.0
  0
LINE
  5
297
330
25A
100
AcDbEntity
  8
P-SANR-FIXT
100
AcDbLine
 10
1233.191472925111
 20
2004.849209267473
 30
0.0
 11
1233.191472925111
 21
2008.972314893096
 31
0.0
  0
LINE
  5
298
330
25A
100
AcDbEntity
  8
P-SANR-FIXT
100
AcDbLine
 10
1233.191472925111
 20
1999.982558850011
 30
0.0
 11
1233.191472925111
 21
2004.105664475632
 31
0.0
  0
LINE
  5
299
330
25A
100
AcDbEntity
  8
P-SANR-FIXT
100
AcDbLine
 10
1236.691472925128
 20
2004.849209267458
 30
0.0
 11
1236.691472925128
 21
2004.105664475662
 31
0.0
  0
LINE
  5
29A
330
25A
100
AcDbEntity
  8
P-SANR-FIXT
100
AcDbLine
 10
1236.691472925128
 20
2004.105664475662
 30
0.0
 11
1236.691472925128
 21
1995.859453224359
 31
0.0
  0
LINE
  5
29B
330
25A
100
AcDbEntity
  8
P-SANR-FIXT
100
AcDbLine
 10
1236.691472925128
 20
1995.859453224359
 30
0.0
 11
1236.691472925128
 21
1995.115908432562
 31
0.0
  0
LINE
  5
29C
330
25A
100
AcDbEntity
  8
P-SANR-FIXT
100
AcDbLine
 10
1236.691472925128
 20
1995.115908432562
 30
0.0
 11
1236.691472925128
 21
1990.992802806911
 31
0.0
  0
LINE
  5
29D
330
25A
100
AcDbEntity
  8
P-SANR-FIXT
100
AcDbLine
 10
1236.691472925128
 20
1990.992802806911
 30
0.0
 11
1236.691472925128
 21
1990.982558849997
 31
0.0
  0
LINE
  5
29E
330
25A
100
AcDbEntity
  8
P-SANR-FIXT
100
AcDbLine
 10
1236.691472925128
 20
2008.982558850024
 30
0.0
 11
1236.691472925128
 21
2008.972314893109
 31
0.0
  0
LINE
  5
29F
330
25A
100
AcDbEntity
  8
P-SANR-FIXT
100
AcDbLine
 10
1236.691472925128
 20
2008.972314893109
 30
0.0
 11
1236.691472925128
 21
2004.849209267458
 31
0.0
  0
LINE
  5
2A0
330
25A
100
AcDbEntity
  8
P-SANR-FIXT
100
AcDbLine
 10
1236.691472925128
 20
2004.849209267458
 30
0.0
 11
1233.191472925111
 21
2004.849209267458
 31
0.0
  0
LINE
  5
2A1
330
25A
100
AcDbEntity
  8
P-SANR-FIXT
100
AcDbLine
 10
1233.191472925111
 20
2004.105664475662
 30
0.0
 11
1236.691472925128
 21
2004.105664475662
 31
0.0
  0
LINE
  5
2A2
330
25A
100
AcDbEntity
  8
P-SANR-FIXT
100
AcDbLine
 10
1233.191472925111
 20
1995.859453224359
 30
0.0
 11
1236.691472925128
 21
1995.859453224359
 31
0.0
  0
LINE
  5
2A3
330
25A
100
AcDbEntity
  8
P-SANR-FIXT
100
AcDbLine
 10
1233.191472925111
 20
1995.115908432562
 30
0.0
 11
1236.691472925128
 21
1995.115908432562
 31
0.0
  0
LINE
  5
2A4
330
25A
100
AcDbEntity
  8
P-SANR-FIXT
100
AcDbLine
 10
1233.191472925111
 20
1990.992802806911
 30
0.0
 11
1236.691472925128
 21
1990.992802806911
 31
0.0
  0
LINE
  5
2A5
330
25A
100
AcDbEntity
  8
P-SANR-FIXT
100
AcDbLine
 10
1233.191472925111
 20
2008.972314893109
 30
0.0
 11
1236.691472925128
 21
2008.972314893109
 31
0.0
  0
LINE
  5
2A6
330
25A
100
AcDbEntity
  8
P-SANR-FIXT
100
AcDbLine
 10
1231.191472925116
 20
2008.982558850025
 30
0.0
 11
1224.798176155938
 21
2008.982558850025
 31
0.0
  0
LINE
  5
2A7
330
25A
100
AcDbEntity
  8
P-SANR-FIXT
100
AcDbLine
 10
1224.798176155952
 20
1990.982558850024
 30
0.0
 11
1231.191472925116
 21
1990.982558850024
 31
0.0
  0
LINE
  5
2A8
330
25A
100
AcDbEntity
  8
P-SANR-FIXT
100
AcDbLine
 10
1231.191472925114
 20
1990.982558850024
 30
0.0
 11
1231.191472925114
 21
2008.982558850024
 31
0.0
  0
LINE
  5
2A9
330
25A
100
AcDbEntity
  8
P-SANR-FIXT
100
AcDbLine
 10
1190.691472925115
 20
2007.335958953372
 30
0.0
 11
1190.691472925115
 21
2001.982558850011
 31
0.0
  0
LINE
  5
2AA
330
25A
100
AcDbEntity
  8
P-SANR-FIXT
100
AcDbLine
 10
1225.691472925116
 20
2008.982558850025
 30
0.0
 11
1225.691472925116
 21
2026.482558850012
 31
0.0
  0
LWPOLYLINE
  5
2AB
330
25A
100
AcDbEntity
  8
P-SANR-FIXT
100
AcDbPolyline
 90
       19
 70
   128
 43
0.0
 10
1191.13193115911
 20
2000.731020069999
 10
1191.100269685043
 20
2000.770918536725
 10
1191.053089788513
 20
2000.835518877867
 10
1191.0085309555
 20
2000.901954238275
 10
1190.966664470629
 20
2000.970118335546
 10
1190.927557311345
 20
2001.039902121664
 10
1190.891272040762
 20
2001.111193957458
 10
1190.857866707572
 20
2001.183879791199
 10
1190.827394753181
 20
2001.257843341058
 10
1190.799904926216
 20
2001.332966281134
 10
1190.775441204537
 20
2001.409128430748
 10
1190.754042724879
 20
2001.486207946707
 10
1190.735743720245
 20
2001.564081518228
 10
1190.720573465138
 20
2001.642624564211
 10
1190.708556228732
 20
2001.721711432535
 10
1190.69971123604
 20
2001.801215601083
 10
1190.694052637164
 20
2001.881009880145
 10
1190.691589484655
 20
2001.960966615895
 10
1190.691472925115
 20
2001.982558850011
  0
LINE
  5
2AC
330
25A
100
AcDbEntity
  8
P-SANR-FIXT
100
AcDbLine
 10
1223.678338498174
 20
1999.982558850011
 30
0.0
 11
1223.691462308371
 21
1999.982558850011
 31
0.0
  0
LINE
  5
2AD
330
25A
100
AcDbEntity
  8
P-SANR-FIXT
100
AcDbLine
 10
1225.691472925116
 20
2026.482558850012
 30
0.0
 11
1225.191472925115
 21
2026.982558850011
 31
0.0
  0
ARC
  5
2AE
330
25A
100
AcDbEntity
  8
P-SANR-FIXT
100
AcDbCircle
 10
1208.191472925113
 20
1999.982558850011
 30
0.0
 40
9.549999999999954
100
AcDbArc
 50
90.00000000000138
 51
269.9999999999997
  0
ARC
  5
2AF
330
25A
100
AcDbEntity
  8
P-SANR-FIXT
100
AcDbCircle
 10
1208.191472925113
 20
1999.982558850011
 30
0.0
 40
9.549999999999954
100
AcDbArc
 50
269.9999999999997
 51
90.0
  0
ARC
  5
2B0
330
25A
100
AcDbEntity
  8
P-SANR-FIXT
100
AcDbCircle
 10
1208.191472925113
 20
1999.982558850011
 30
0.0
 40
17.0
100
AcDbArc
 50
90.0
 51
269.9999999999989
  0
SPLINE
  5
2B1
330
25A
100
AcDbEntity
  8
P-SANR-FIXT
100
AcDbSpline
210
0.0
220
0.0
230
1.0
 70
    24
 71
     3
 72
     8
 73
     4
 74
     0
 42
0.000000001
 43
0.0000000001
 40
-1.0
 40
-1.0
 40
-1.0
 40
-1.0
 40
-0.540065456547247
 40
-0.540065456547247
 40
-0.540065456547247
 40
-0.540065456547247
 10
1206.843920058787
 20
2018.834457992337
 30
0.0
 10
1204.617949090242
 20
2017.54929305444
 30
0.0
 10
1202.40709431379
 20
2016.272855454116
 30
0.0
 10
1200.21135572943
 20
2015.005145191365
 30
0.0
  0
SPLINE
  5
2B2
330
25A
100
AcDbEntity
  8
P-SANR-FIXT
100
AcDbSpline
210
0.0
220
0.0
230
1.0
 70
    24
 71
     3
 72
     8
 73
     4
 74
     0
 42
0.000000001
 43
0.0000000001
 40
-0.5
 40
-0.5
 40
-0.5
 40
-0.5
 40
-0.4864887463376248
 40
-0.4864887463376248
 40
-0.4864887463376248
 40
-0.4864887463376248
 10
1199.637879488261
 20
2014.674048529153
 30
0.0
 10
1199.573453803241
 20
2014.636852342564
 30
0.0
 10
1199.509066547988
 20
2014.599678343411
 30
0.0
 10
1199.444715664615
 20
2014.562525343573
 30
0.0
  0
SPLINE
  5
2B3
330
25A
100
AcDbEntity
  8
P-SANR-FIXT
100
AcDbSpline
210
0.0
220
0.0
230
1.0
 70
    24
 71
     3
 72
     8
 73
     4
 74
     0
 42
0.000000001
 43
0.0000000001
 40
-0.4334871659775084
 40
-0.4334871659775084
 40
-0.4334871659775084
 40
-0.4334871659775084
 40
0.0
 40
0.0
 40
0.0
 40
0.0
 10
1198.687368810407
 20
2014.125270933426
 30
0.0
 10
1196.624493400207
 20
2012.934269260043
 30
0.0
 10
1194.575045727218
 20
2011.751020094352
 30
0.0
 10
1192.539025791439
 20
2010.575523436355
 30
0.0
  0
SPLINE
  5
2B4
330
25A
100
AcDbEntity
  8
P-SANR-FIXT
100
AcDbSpline
210
0.0
220
0.0
230
1.0
 70
    24
 71
     3
 72
     9
 73
     5
 74
     0
 42
0.000000001
 43
0.0000000001
 40
-1.0
 40
-1.0
 40
-1.0
 40
-1.0
 40
-0.5
 40
0.0
 40
0.0
 40
0.0
 40
0.0
 10
1191.191472925113
 20
2008.241493405993
 30
0.0
 10
1191.191472925113
 20
2005.447258973741
 30
0.0
 10
1191.191472925113
 20
1999.900046356161
 30
0.0
 10
1191.191472925113
 20
1994.435346232431
 30
0.0
 10
1191.191472925113
 20
1991.723624294028
 30
0.0
  0
SPLINE
  5
2B5
330
25A
100
AcDbEntity
  8
P-SANR-FIXT
100
AcDbSpline
210
0.0
220
0.0
230
1.0
 70
    24
 71
     3
 72
     8
 73
     4
 74
     0
 42
0.000000001
 43
0.0000000001
 40
-1.0
 40
-1.0
 40
-1.0
 40
-1.0
 40
-0.5740889526175416
 40
-0.5740889526175416
 40
-0.5740889526175416
 40
-0.5740889526175416
 10
1192.539025791439
 20
1989.389594263666
 30
0.0
 10
1194.60033134057
 20
1988.199498949994
 30
0.0
 10
1196.648674408033
 20
1987.016887528601
 30
0.0
 10
1198.684054993828
 20
1985.841759999489
 30
0.0
  0
SPLINE
  5
2B6
330
25A
100
AcDbEntity
  8
P-SANR-FIXT
100
AcDbSpline
210
0.0
220
0.0
230
1.0
 70
    24
 71
     3
 72
     8
 73
     4
 74
     0
 42
0.000000001
 43
0.0000000001
 40
-0.5599730245838112
 40
-0.5599730245838112
 40
-0.5599730245838112
 40
-0.5599730245838112
 40
-0.5
 40
-0.5
 40
-0.5
 40
-0.5
 10
1198.886387534693
 20
1985.724943252555
 30
0.0
 10
1199.172870827686
 20
1985.559542046227
 30
0.0
 10
1199.459326594174
 20
1985.394156732334
 30
0.0
 10
1199.745066361965
 20
1985.229184800482
 30
0.0
  0
SPLINE
  5
2B7
330
25A
100
AcDbEntity
  8
P-SANR-FIXT
100
AcDbSpline
210
0.0
220
0.0
230
1.0
 70
    24
 71
     3
 72
     8
 73
     4
 74
     0
 42
0.000000001
 43
0.0000000001
 40
-0.4677055758904265
 40
-0.4677055758904265
 40
-0.4677055758904265
 40
-0.4677055758904265
 40
0.0
 40
0.0
 40
0.0
 40
0.0
 10
1200.206811107502
 20
1984.962596347349
 30
0.0
 10
1202.434812070234
 20
1983.676259391761
 30
0.0
 10
1204.647181720663
 20
1982.398947178539
 30
0.0
 10
1206.843920058787
 20
1981.130659707684
 30
0.0
  0
ARC
  5
2B8
330
25A
100
AcDbEntity
  8
P-SANR-FIXT
100
AcDbCircle
 10
1208.191472925113
 20
1999.982558850011
 30
0.0
 40
17.0
100
AcDbArc
 50
269.9999999999997
 51
90.0
  0
SPLINE
  5
2B9
330
25A
100
AcDbEntity
  8
P-SANR-FIXT
100
AcDbSpline
210
0.0
220
0.0
230
1.0
 70
    24
 71
     3
 72
     9
 73
     5
 74
     0
 42
0.000000001
 43
0.0000000001
 40
-1.0
 40
-1.0
 40
-1.0
 40
-1.0
 40
-0.5
 40
-0.4374048634684444
 40
-0.4374048634684444
 40
-0.4374048634684444
 40
-0.4374048634684444
 10
1209.539025791439
 20
1981.130659707684
 30
0.0
 10
1211.958903793899
 20
1982.52777692381
 30
0.0
 10
1214.661626046317
 20
1984.088194343788
 30
0.0
 10
1217.341730918876
 20
1985.635553613416
 30
0.0
 10
1217.639643222962
 20
1985.807553362375
 30
0.0
  0
SPLINE
  5
2BA
330
25A
100
AcDbEntity
  8
P-SANR-FIXT
100
AcDbSpline
210
0.0
220
0.0
230
1.0
 70
    24
 71
     3
 72
     8
 73
     4
 74
     0
 42
0.000000001
 43
0.0000000001
 40
-0.4334871659775085
 40
-0.4334871659775085
 40
-0.4334871659775085
 40
-0.4334871659775085
 40
0.0
 40
0.0
 40
0.0
 40
0.0
 10
1217.695577039819
 20
1985.839846766595
 30
0.0
 10
1219.758452450019
 20
1987.030848439978
 30
0.0
 10
1221.807900123009
 20
1988.214097605669
 30
0.0
 10
1223.843920058787
 20
1989.389594263666
 30
0.0
  0
SPLINE
  5
2BB
330
25A
100
AcDbEntity
  8
P-SANR-FIXT
100
AcDbSpline
210
0.0
220
0.0
230
1.0
 70
    24
 71
     3
 72
     9
 73
     5
 74
     0
 42
0.000000001
 43
0.0000000001
 40
-1.0
 40
-1.0
 40
-1.0
 40
-1.0
 40
-0.5
 40
0.0
 40
0.0
 40
0.0
 40
0.0
 10
1225.191472925114
 20
1991.723624294028
 30
0.0
 10
1225.191472925113
 20
1994.51785872628
 30
0.0
 10
1225.191472925113
 20
2000.06507134386
 30
0.0
 10
1225.191472925113
 20
2005.52977146759
 30
0.0
 10
1225.191472925113
 20
2008.241493405993
 30
0.0
  0
SPLINE
  5
2BC
330
25A
100
AcDbEntity
  8
P-SANR-FIXT
100
AcDbSpline
210
0.0
220
0.0
230
1.0
 70
    24
 71
     3
 72
     8
 73
     4
 74
     0
 42
0.000000001
 43
0.0000000001
 40
-1.0
 40
-1.0
 40
-1.0
 40
-1.0
 40
-0.5740889526175346
 40
-0.5740889526175346
 40
-0.5740889526175346
 40
-0.5740889526175346
 10
1223.843920058787
 20
2010.575523436355
 30
0.0
 10
1221.782614509657
 20
2011.765618750028
 30
0.0
 10
1219.734271442193
 20
2012.94823017142
 30
0.0
 10
1217.698890856398
 20
2014.123357700532
 30
0.0
  0
SPLINE
  5
2BD
330
25A
100
AcDbEntity
  8
P-SANR-FIXT
100
AcDbSpline
210
0.0
220
0.0
230
1.0
 70
    24
 71
     3
 72
     9
 73
     5
 74
     0
 42
0.000000001
 43
0.0000000001
 40
-0.5701935709932478
 40
-0.5701935709932478
 40
-0.5701935709932478
 40
-0.5701935709932478
 40
-0.5
 40
0.0
 40
0.0
 40
0.0
 40
0.0
 10
1217.643047348478
 20
2014.155598964863
 30
0.0
 10
1217.307639312102
 20
2014.349246884953
 30
0.0
 10
1214.585926370995
 20
2015.920628584157
 30
0.0
 10
1211.887445878096
 20
2017.478597023136
 30
0.0
 10
1209.539025791439
 20
2018.834457992337
 30
0.0
  0
ARC
  5
2BE
330
25A
100
AcDbEntity
  8
P-SANR-FIXT
100
AcDbCircle
 10
1208.191472925113
 20
1999.982558850011
 30
0.0
 40
18.90000000000018
100
AcDbArc
 50
145.9113937462212
 51
154.0886062537794
  0
ARC
  5
2BF
330
25A
100
AcDbEntity
  8
P-SANR-FIXT
100
AcDbCircle
 10
1208.191472925113
 20
1999.982558850011
 30
0.0
 40
18.90000000000004
100
AcDbArc
 50
205.9113937462207
 51
214.0886062537791
  0
ARC
  5
2C0
330
25A
100
AcDbEntity
  8
P-SANR-FIXT
100
AcDbCircle
 10
1208.191472925113
 20
1999.982558850011
 30
0.0
 40
18.90000000000016
100
AcDbArc
 50
265.9113937462209
 51
269.999999999999
  0
ARC
  5
2C1
330
25A
100
AcDbEntity
  8
P-SANR-FIXT
100
AcDbCircle
 10
1208.191472925113
 20
1999.982558850011
 30
0.0
 40
18.90000000000009
100
AcDbArc
 50
90.0
 51
94.08860625377865
  0
ARC
  5
2C2
330
25A
100
AcDbEntity
  8
P-SANR-FIXT
100
AcDbCircle
 10
1208.191472925113
 20
1999.982558850011
 30
0.0
 40
18.90000000000005
100
AcDbArc
 50
325.9113937462204
 51
334.0886062537785
  0
ARC
  5
2C3
330
25A
100
AcDbEntity
  8
P-SANR-FIXT
100
AcDbCircle
 10
1208.191472925113
 20
1999.982558850011
 30
0.0
 40
18.90000000000004
100
AcDbArc
 50
25.9113937462213
 51
34.08860625377886
  0
ARC
  5
2C4
330
25A
100
AcDbEntity
  8
P-SANR-FIXT
100
AcDbCircle
 10
1208.191472925113
 20
1999.982558850011
 30
0.0
 40
18.90000000000009
100
AcDbArc
 50
269.9999999999997
 51
274.088606253779
  0
ARC
  5
2C5
330
25A
100
AcDbEntity
  8
P-SANR-FIXT
100
AcDbCircle
 10
1208.191472925113
 20
1999.982558850011
 30
0.0
 40
18.90000000000018
100
AcDbArc
 50
85.91139374622065
 51
90.0
  0
SPLINE
  5
2C6
330
25A
100
AcDbEntity
  8
P-SANR-FIXT
100
AcDbSpline
210
0.0
220
0.0
230
1.0
 70
    24
 71
     3
 72
     8
 73
     4
 74
     0
 42
0.000000001
 43
0.0000000001
 40
-0.560436520108429
 40
-0.560436520108429
 40
-0.560436520108429
 40
-0.560436520108429
 40
-0.5322944241095735
 40
-0.5322944241095735
 40
-0.5322944241095735
 40
-0.5322944241095735
 10
1200.608821376249
 20
1984.730495610471
 30
0.0
 10
1200.4748745464
 20
1984.807829848742
 30
0.0
 10
1200.340924874752
 20
1984.885165727725
 30
0.0
 10
1200.206897273925
 20
1984.962546599142
 30
0.0
  0
SPLINE
  5
2C7
330
25A
100
AcDbEntity
  8
P-SANR-FIXT
100
AcDbSpline
210
0.0
220
0.0
230
1.0
 70
    24
 71
     3
 72
     9
 73
     5
 74
     0
 42
0.000000001
 43
0.0000000001
 40
-0.5498552545539156
 40
-0.5498552545539156
 40
-0.5498552545539156
 40
-0.5498552545539156
 40
-0.5
 40
-0.4424737424647914
 40
-0.4424737424647914
 40
-0.4424737424647914
 40
-0.4424737424647914
 10
1191.191472925113
 20
1999.097787176256
 30
0.0
 10
1191.191472925113
 20
1999.371877855413
 30
0.0
 10
1191.191472925113
 20
1999.962318575662
 30
0.0
 10
1191.191472925113
 20
2000.55524198629
 30
0.0
 10
1191.191472925113
 20
2000.873435270701
 30
0.0
  0
SPLINE
  5
2C8
330
25A
100
AcDbEntity
  8
P-SANR-FIXT
100
AcDbSpline
210
0.0
220
0.0
230
1.0
 70
    24
 71
     3
 72
     8
 73
     4
 74
     0
 42
0.000000001
 43
0.0000000001
 40
-0.4599345434527531
 40
-0.4599345434527531
 40
-0.4599345434527531
 40
-0.4599345434527531
 40
-0.431952749586119
 40
-0.431952749586119
 40
-0.431952749586119
 40
-0.431952749586119
 10
1200.21135572943
 20
2015.005145191365
 30
0.0
 10
1200.344941487071
 20
2015.0822709645
 30
0.0
 10
1200.478688287373
 20
2015.159489715657
 30
0.0
 10
1200.612576949282
 20
2015.236790370652
 30
0.0
  0
SPLINE
  5
2C9
330
25A
100
AcDbEntity
  8
P-SANR-FIXT
100
AcDbSpline
210
0.0
220
0.0
230
1.0
 70
    24
 71
     3
 72
     8
 73
     4
 74
     0
 42
0.000000001
 43
0.0000000001
 40
-0.560436520108437
 40
-0.560436520108437
 40
-0.560436520108437
 40
-0.560436520108437
 40
-0.5322944241095838
 40
-0.5322944241095838
 40
-0.5322944241095838
 40
-0.5322944241095838
 10
1215.774124473977
 20
2015.23462208955
 30
0.0
 10
1215.908071303827
 20
2015.15728785128
 30
0.0
 10
1216.042020975474
 20
2015.079951972296
 30
0.0
 10
1216.176048576302
 20
2015.002571100879
 30
0.0
  0
SPLINE
  5
2CA
330
25A
100
AcDbEntity
  8
P-SANR-FIXT
100
AcDbSpline
210
0.0
220
0.0
230
1.0
 70
    24
 71
     3
 72
     9
 73
     5
 74
     0
 42
0.000000001
 43
0.0000000001
 40
-0.5498552545539161
 40
-0.5498552545539161
 40
-0.5498552545539161
 40
-0.5498552545539161
 40
-0.5
 40
-0.4424737424647926
 40
-0.4424737424647926
 40
-0.4424737424647926
 40
-0.4424737424647926
 10
1225.191472925113
 20
2000.867330523765
 30
0.0
 10
1225.191472925113
 20
2000.593239844608
 30
0.0
 10
1225.191472925113
 20
2000.002799124359
 30
0.0
 10
1225.191472925113
 20
1999.409875713731
 30
0.0
 10
1225.191472925113
 20
1999.091682429321
 30
0.0
  0
SPLINE
  5
2CB
330
25A
100
AcDbEntity
  8
P-SANR-FIXT
100
AcDbSpline
210
0.0
220
0.0
230
1.0
 70
    24
 71
     3
 72
     8
 73
     4
 74
     0
 42
0.000000001
 43
0.0000000001
 40
-0.4599345434527658
 40
-0.4599345434527658
 40
-0.4599345434527658
 40
-0.4599345434527658
 40
-0.4319527495861192
 40
-0.4319527495861192
 40
-0.4319527495861192
 40
-0.4319527495861192
 10
1216.171590120797
 20
1984.959972508656
 30
0.0
 10
1216.038004363155
 20
1984.882846735522
 30
0.0
 10
1215.904257562854
 20
1984.805627984364
 30
0.0
 10
1215.770368900945
 20
1984.72832732937
 30
0.0
  0
SPLINE
  5
2CC
330
25A
100
AcDbEntity
  8
P-SANR-FIXT
100
AcDbSpline
210
0.0
220
0.0
230
1.0
 70
    24
 71
     3
 72
     9
 73
     5
 74
     0
 42
0.000000001
 43
0.0000000001
 40
-0.5529246286741002
 40
-0.5529246286741002
 40
-0.5529246286741002
 40
-0.5529246286741002
 40
-0.5
 40
-0.4501447454460865
 40
-0.4501447454460865
 40
-0.4501447454460865
 40
-0.4501447454460865
 10
1191.191472925113
 20
2000.795569925388
 30
0.0
 10
1191.191472925113
 20
2000.503706991291
 30
0.0
 10
1191.191472925113
 20
1999.936991201728
 30
0.0
 10
1191.191472925113
 20
1999.372566277851
 30
0.0
 10
1191.191472925113
 20
1999.099215531519
 30
0.0
  0
SPLINE
  5
2CD
330
25A
100
AcDbEntity
  8
P-SANR-FIXT
100
AcDbSpline
210
0.0
220
0.0
230
1.0
 70
    24
 71
     3
 72
     8
 73
     4
 74
     0
 42
0.000000001
 43
0.0000000001
 40
-0.4677055758904163
 40
-0.4677055758904163
 40
-0.4677055758904163
 40
-0.4677055758904163
 40
-0.4395634798915631
 40
-0.4395634798915631
 40
-0.4395634798915631
 40
-0.4395634798915631
 10
1200.206811107502
 20
1984.962596347349
 30
0.0
 10
1200.340871123484
 20
1984.885196761034
 30
0.0
 10
1200.474768170738
 20
1984.807891264759
 30
0.0
 10
1200.608521451305
 20
1984.730668772218
 30
0.0
  0
SPLINE
  5
2CE
330
25A
100
AcDbEntity
  8
P-SANR-FIXT
100
AcDbSpline
210
0.0
220
0.0
230
1.0
 70
    24
 71
     3
 72
     8
 73
     4
 74
     0
 42
0.000000001
 43
0.0000000001
 40
-0.5680472504138812
 40
-0.5680472504138812
 40
-0.5680472504138812
 40
-0.5680472504138812
 40
-0.5400654565472344
 40
-0.5400654565472344
 40
-0.5400654565472344
 40
-0.5400654565472344
 10
1215.770664997347
 20
1984.728498280707
 30
0.0
 10
1215.904362655338
 20
1984.805688659539
 30
0.0
 10
1216.038057557246
 20
1984.882877447144
 30
0.0
 10
1216.171684081045
 20
1984.960026756631
 30
0.0
  0
LINE
  5
2CF
330
25A
100
AcDbEntity
  8
P-SANR-FIXT
100
AcDbLine
 10
1208.191472925113
 20
2026.982558850011
 30
0.0
 11
1225.191472925114
 21
2026.982558850011
 31
0.0
  0
LINE
  5
2D0
330
25A
100
AcDbEntity
  8
P-SANR-FIXT
100
AcDbLine
 10
1225.691472925113
 20
2026.482558850011
 30
0.0
 11
1208.191472925113
 21
2026.482558850011
 31
0.0
  0
ENDBLK
  5
2D2
330
25A
100
AcDbEntity
  8
0
100
AcDbBlockEnd
  0
ENDSEC
  0
SECTION
  2
ENTITIES
  0
INSERT
  5
1A2
330
71
100
AcDbEntity
  8
P-SANR-FIXT
100
AcDbBlockReference
  2
Automatic flow rate regulator valve_Caleffi_121 DN15 - 1_2__-859151-Est - Idraulica
 10
0.0
 20
0.0
 30
0.0
1001
REVIT
1002
{
1070
     1
1000
863131
1002
}
1002
{
1070
     5
1000
859151
1002
}
1002
{
1070
     2
1000
-2001160
1002
}
  0
INSERT
  5
259
330
71
100
AcDbEntity
  8
P-SANR-FIXT
100
AcDbBlockReference
  2
Automatic flow rate regulator valve_Caleffi_121 DN15 - 1_2__-V1-Est - Idraulica
 10
0.0
 20
0.0
 30
0.0
1001
REVIT
1002
{
1070
     1
1000
863152
1002
}
1002
{
1070
     5
1000
859151
1002
}
1002
{
1070
     2
1000
-2001160
1002
}
  0
INSERT
  5
2D3
330
71
100
AcDbEntity
  8
P-SANR-FIXT
100
AcDbBlockReference
  2
Automatic flow rate regulator valve_Caleffi_121 DN15 - 1_2__-V2-Est - Idraulica
 10
0.0
 20
0.0
 30
0.0
1001
REVIT
1002
{
1070
     1
1000
863172
1002
}
1002
{
1070
     5
1000
859151
1002
}
1002
{
1070
     2
1000
-2001160
1002
}
  0
ENDSEC
  0
SECTION
  2
OBJECTS
  0
DICTIONARY
  5
C
330
0
100
AcDbDictionary
281
     1
  3
ACAD_CIP_PREVIOUS_PRODUCT_INFO
350
7A
  3
ACAD_COLOR
350
63
  3
ACAD_DETAILVIEWSTYLE
350
6B
  3
ACAD_GROUP
350
D
  3
ACAD_IMAGE_VARS
350
7B
  3
ACAD_LAYOUT
350
62
  3
ACAD_MATERIAL
350
10
  3
ACAD_MLEADERSTYLE
350
66
  3
ACAD_MLINESTYLE
350
5F
  3
ACAD_PLOTSETTINGS
350
61
  3
ACAD_PLOTSTYLENAME
350
E
  3
ACAD_SCALELIST
350
42
  3
ACAD_SECTIONVIEWSTYLE
350
68
  3
ACAD_TABLESTYLE
350
64
  3
ACAD_VISUALSTYLE
350
29
  3
ACDB_RECOMPOSE_DATA
350
2DE
  3
AcDbVariableDictionary
350
7C
  3
REVIT_DICTIONARY
350
2D5
  0
DICTIONARY
  5
2DA
330
71
100
AcDbDictionary
280
     1
281
     1
  3
ACAD_SORTENTS
360
2DB
  0
XRECORD
  5
7A
102
{ACAD_REACTORS
330
C
102
}
330
C
100
AcDbXrecord
280
     1
300
RVT
300
2013
300
RVT2013
  0
DICTIONARY
  5
63
102
{ACAD_REACTORS
330
C
102
}
330
C
100
AcDbDictionary
281
     1
  0
DICTIONARY
  5
6B
102
{ACAD_REACTORS
330
C
102
}
330
C
100
AcDbDictionary
281
     1
  3
Imperial24
350
6C
  0
DICTIONARY
  5
D
102
{ACAD_REACTORS
330
C
102
}
330
C
100
AcDbDictionary
281
     1
  0
RASTERVARIABLES
  5
7B
102
{ACAD_REACTORS
330
C
102
}
330
C
100
AcDbRasterVariables
 90
        0
 70
     0
 71
     1
 72
     1
  0
DICTIONARY
  5
62
102
{ACAD_REACTORS
330
C
102
}
330
C
100
AcDbDictionary
281
     1
  3
Layout1
350
70
  3
Layout2
350
78
  3
Model
350
74
  0
DICTIONARY
  5
10
102
{ACAD_REACTORS
330
C
102
}
330
C
100
AcDbDictionary
281
     1
  3
ByBlock
350
19
  3
ByLayer
350
11
  3
Global
350
21
  0
DICTIONARY
  5
66
102
{ACAD_REACTORS
330
C
102
}
330
C
100
AcDbDictionary
281
     1
  3
Standard
350
67
  0
DICTIONARY
  5
5F
102
{ACAD_REACTORS
330
C
102
}
330
C
100
AcDbDictionary
281
     1
  3
Standard
350
60
  0
DICTIONARY
  5
61
102
{ACAD_REACTORS
330
C
102
}
330
C
100
AcDbDictionary
281
     1
  0
ACDBDICTIONARYWDFLT
  5
E
102
{ACAD_REACTORS
330
C
102
}
330
C
100
AcDbDictionary
281
     1
  3
Normal
350
F
100
AcDbDictionaryWithDefault
340
F
  0
DICTIONARY
  5
42
102
{ACAD_REACTORS
330
C
102
}
330
C
100
AcDbDictionary
281
     1
  3
A0
350
43
  3
A1
350
44
  3
A2
350
45
  3
A3
350
46
  3
A4
350
47
  3
A5
350
48
  3
A6
350
49
  3
A7
350
4A
  3
A8
350
4B
  3
A9
350
4C
  3
B0
350
4D
  3
B1
350
4E
  3
B2
350
4F
  3
B3
350
50
  3
B4
350
51
  3
B5
350
52
  3
B6
350
53
  0
DICTIONARY
  5
68
102
{ACAD_REACTORS
330
C
102
}
330
C
100
AcDbDictionary
281
     1
  3
Imperial24
350
6A
  0
DICTIONARY
  5
64
102
{ACAD_REACTORS
330
C
102
}
330
C
100
AcDbDictionary
281
     1
  3
Standard
350
65
  0
DICTIONARY
  5
29
102
{ACAD_REACTORS
330
C
102
}
330
C
100
AcDbDictionary
281
     1
  3
2dWireframe
350
2F
  3
Basic
350
2E
  3
Brighten
350
35
  3
ColorChange
350
39
  3
Conceptual
350
32
  3
Dim
350
34
  3
EdgeColorOff
350
41
  3
Facepattern
350
38
  3
Flat
350
2A
  3
FlatWithEdges
350
2B
  3
Gouraud
350
2C
  3
GouraudWithEdges
350
2D
  3
Hidden
350
31
  3
JitterOff
350
3F
  3
Linepattern
350
37
  3
OverhangOff
350
40
  3
Realistic
350
33
  3
Shaded
350
3E
  3
Shaded with edges
350
3D
  3
Shades of Gray
350
3A
  3
Sketchy
350
3B
  3
Thicken
350
36
  3
Wireframe
350
30
  3
X-Ray
350
3C
  0
XRECORD
  5
2DE
102
{ACAD_REACTORS
330
C
102
}
330
C
100
AcDbXrecord
280
     1
 90
        1
330
65
  0
DICTIONARY
  5
7C
102
{ACAD_REACTORS
330
C
102
}
330
C
100
AcDbDictionary
281
     1
  3
CANNOSCALE
350
81
  3
CMLEADERSTYLE
350
7E
  3
CTABLESTYLE
350
7D
  3
CVIEWDETAILSTYLE
350
7F
  3
CVIEWSECTIONSTYLE
350
80
  0
DICTIONARY
  5
2D5
102
{ACAD_REACTORS
330
C
102
}
330
C
100
AcDbDictionary
281
     1
  3
DRAWING_TOOL
350
2D9
  3
REVIT_CATEGORY_MAPPING
350
2D7
  3
REVIT_SUB_CATEGORY_MAPPING
350
2D8
  3
REVIT_TYPE_MAPPING
350
2D6
  0
SORTENTSTABLE
  5
2DB
102
{ACAD_REACTORS
330
2DA
102
}
330
2DA
100
AcDbSortentsTable
330
71
  0
ACDBDETAILVIEWSTYLE
  5
6C
102
{ACAD_REACTORS
330
6B
102
}
330
6B
100
AcDbModelDocViewStyle
 70
     0
  3
Imperial24
290
     1
100
AcDbDetailViewStyle
 70
     0
 71
     0
 90
        3
 71
     1
340
55
 62
   256
 40
0.24
340
0
 62
   256
 40
0.24
300

 40
0.36
280
     3
 71
     2
340
5D
 90
       25
 62
   256
 71
     3
340
55
 62
   256
 40
0.24
 90
        1
 40
0.75
 90
        1
300
%<\AcVar ViewType \f "%tc1">% %<\AcVar ViewDetailId>%\PSCALA %<\AcVar ViewScale \f "%sn">%
 71
     4
340
5D
 90
       25
 62
   256
340
5D
 90
       25
 62
   256
280
     0
  0
LAYOUT
  5
70
102
{ACAD_REACTORS
330
62
102
}
330
62
100
AcDbPlotSettings
  1

  2

  4

  6

 40
0.0
 41
0.0
 42
0.0
 43
0.0
 44
0.0
 45
0.0
 46
0.0
 47
0.0
 48
0.0
 49
0.0
140
0.0
141
0.0
142
1.0
143
1.0
 70
   688
 72
     0
 73
     0
 74
     5
  7

 75
    16
147
1.0
 76
     0
 77
     2
 78
   300
148
0.0
149
0.0
100
AcDbLayout
  1
Layout1
 70
     1
 71
     1
 10
0.0
 20
0.0
 11
12.0
 21
9.0
 12
0.0
 22
0.0
 32
0.0
 14
0.0
 24
0.0
 34
0.0
 15
0.0
 25
0.0
 35
0.0
146
0.0
 13
0.0
 23
0.0
 33
0.0
 16
1.0
 26
0.0
 36
0.0
 17
0.0
 27
1.0
 37
0.0
 76
     0
330
6D
  0
LAYOUT
  5
78
102
{ACAD_REACTORS
330
62
102
}
330
62
100
AcDbPlotSettings
  1

  2

  4

  6

 40
0.0
 41
0.0
 42
0.0
 43
0.0
 44
0.0
 45
0.0
 46
0.0
 47
0.0
 48
0.0
 49
0.0
140
0.0
141
0.0
142
1.0
143
1.0
 70
   688
 72
     0
 73
     0
 74
     5
  7

 75
    16
147
1.0
 76
     0
 77
     2
 78
   300
148
0.0
149
0.0
100
AcDbLayout
  1
Layout2
 70
     1
 71
     2
 10
0.0
 20
0.0
 11
12.0
 21
9.0
 12
0.0
 22
0.0
 32
0.0
 14
0.0
 24
0.0
 34
0.0
 15
0.0
 25
0.0
 35
0.0
146
0.0
 13
0.0
 23
0.0
 33
0.0
 16
1.0
 26
0.0
 36
0.0
 17
0.0
 27
1.0
 37
0.0
 76
     0
330
75
  0
LAYOUT
  5
74
102
{ACAD_REACTORS
330
62
102
}
330
62
100
AcDbPlotSettings
  1

  2

  4

  6

 40
0.0
 41
0.0
 42
0.0
 43
0.0
 44
0.0
 45
0.0
 46
0.0
 47
0.0
 48
0.0
 49
0.0
140
0.0
141
0.0
142
1.0
143
1.0
 70
  1712
 72
     0
 73
     0
 74
     0
  7

 75
     0
147
1.0
 76
     0
 77
     2
 78
   300
148
0.0
149
0.0
100
AcDbLayout
  1
Model
 70
     1
 71
     0
 10
0.0
 20
0.0
 11
12.0
 21
9.0
 12
0.0
 22
0.0
 32
0.0
 14
0.0
 24
0.0
 34
0.0
 15
0.0
 25
0.0
 35
0.0
146
0.0
 13
0.0
 23
0.0
 33
0.0
 16
1.0
 26
0.0
 36
0.0
 17
0.0
 27
1.0
 37
0.0
 76
     0
330
71
  0
MATERIAL
  5
19
102
{ACAD_XDICTIONARY
360
1A
102
}
102
{ACAD_REACTORS
330
10
102
}
330
10
100
AcDbMaterial
  1
ByBlock
 72
     0
 43
0.0208333333333333
 43
0.0
 43
0.0
 43
0.0
 43
0.0
 43
0.0208333333333333
 43
0.0
 43
0.0
 43
0.0
 43
0.0
 43
1.0
 43
0.0
 43
0.0
 43
0.0
 43
0.0
 43
1.0
 77
     0
 47
0.0208333333333333
 47
0.0
 47
0.0
 47
0.0
 47
0.0
 47
0.0208333333333333
 47
0.0
 47
0.0
 47
0.0
 47
0.0
 47
1.0
 47
0.0
 47
0.0
 47
0.0
 47
0.0
 47
1.0
171
     0
 49
0.0208333333333333
 49
0.0
 49
0.0
 49
0.0
 49
0.0
 49
0.0208333333333333
 49
0.0
 49
0.0
 49
0.0
 49
0.0
 49
1.0
 49
0.0
 49
0.0
 49
0.0
 49
0.0
 49
1.0
175
     0
142
0.0208333333333333
142
0.0
142
0.0
142
0.0
142
0.0
142
0.0208333333333333
142
0.0
142
0.0
142
0.0
142
0.0
142
1.0
142
0.0
142
0.0
142
0.0
142
0.0
142
1.0
179
     0
144
0.0208333333333333
144
0.0
144
0.0
144
0.0
144
0.0
144
0.0208333333333333
144
0.0
144
0.0
144
0.0
144
0.0
144
1.0
144
0.0
144
0.0
144
0.0
144
0.0
144
1.0
147
0.0208333333333333
147
0.0
147
0.0
147
0.0
147
0.0
147
0.0208333333333333
147
0.0
147
0.0
147
0.0
147
0.0
147
1.0
147
0.0
147
0.0
147
0.0
147
0.0
147
1.0
  0
MATERIAL
  5
11
102
{ACAD_XDICTIONARY
360
12
102
}
102
{ACAD_REACTORS
330
10
102
}
330
10
100
AcDbMaterial
  1
ByLayer
 72
     0
 43
0.0208333333333333
 43
0.0
 43
0.0
 43
0.0
 43
0.0
 43
0.0208333333333333
 43
0.0
 43
0.0
 43
0.0
 43
0.0
 43
1.0
 43
0.0
 43
0.0
 43
0.0
 43
0.0
 43
1.0
 77
     0
 47
0.0208333333333333
 47
0.0
 47
0.0
 47
0.0
 47
0.0
 47
0.0208333333333333
 47
0.0
 47
0.0
 47
0.0
 47
0.0
 47
1.0
 47
0.0
 47
0.0
 47
0.0
 47
0.0
 47
1.0
171
     0
 49
0.0208333333333333
 49
0.0
 49
0.0
 49
0.0
 49
0.0
 49
0.0208333333333333
 49
0.0
 49
0.0
 49
0.0
 49
0.0
 49
1.0
 49
0.0
 49
0.0
 49
0.0
 49
0.0
 49
1.0
175
     0
142
0.0208333333333333
142
0.0
142
0.0
142
0.0
142
0.0
142
0.0208333333333333
142
0.0
142
0.0
142
0.0
142
0.0
142
1.0
142
0.0
142
0.0
142
0.0
142
0.0
142
1.0
179
     0
144
0.0208333333333333
144
0.0
144
0.0
144
0.0
144
0.0
144
0.0208333333333333
144
0.0
144
0.0
144
0.0
144
0.0
144
1.0
144
0.0
144
0.0
144
0.0
144
0.0
144
1.0
147
0.0208333333333333
147
0.0
147
0.0
147
0.0
147
0.0
147
0.0208333333333333
147
0.0
147
0.0
147
0.0
147
0.0
147
1.0
147
0.0
147
0.0
147
0.0
147
0.0
147
1.0
  0
MATERIAL
  5
21
102
{ACAD_XDICTIONARY
360
22
102
}
102
{ACAD_REACTORS
330
10
102
}
330
10
100
AcDbMaterial
  1
Global
 72
     0
 43
0.0208333333333333
 43
0.0
 43
0.0
 43
0.0
 43
0.0
 43
0.0208333333333333
 43
0.0
 43
0.0
 43
0.0
 43
0.0
 43
1.0
 43
0.0
 43
0.0
 43
0.0
 43
0.0
 43
1.0
 77
     0
 47
0.0208333333333333
 47
0.0
 47
0.0
 47
0.0
 47
0.0
 47
0.0208333333333333
 47
0.0
 47
0.0
 47
0.0
 47
0.0
 47
1.0
 47
0.0
 47
0.0
 47
0.0
 47
0.0
 47
1.0
171
     0
 49
0.0208333333333333
 49
0.0
 49
0.0
 49
0.0
 49
0.0
 49
0.0208333333333333
 49
0.0
 49
0.0
 49
0.0
 49
0.0
 49
1.0
 49
0.0
 49
0.0
 49
0.0
 49
0.0
 49
1.0
175
     0
142
0.0208333333333333
142
0.0
142
0.0
142
0.0
142
0.0
142
0.0208333333333333
142
0.0
142
0.0
142
0.0
142
0.0
142
1.0
142
0.0
142
0.0
142
0.0
142
0.0
142
1.0
179
     0
144
0.0208333333333333
144
0.0
144
0.0
144
0.0
144
0.0
144
0.0208333333333333
144
0.0
144
0.0
144
0.0
144
0.0
144
1.0
144
0.0
144
0.0
144
0.0
144
0.0
144
1.0
147
0.0208333333333333
147
0.0
147
0.0
147
0.0
147
0.0
147
0.0208333333333333
147
0.0
147
0.0
147
0.0
147
0.0
147
1.0
147
0.0
147
0.0
147
0.0
147
0.0
147
1.0
  0
MLEADERSTYLE
  5
67
102
{ACAD_REACTORS
330
66
102
}
330
66
100
AcDbMLeaderStyle
179
     2
170
     2
171
     1
172
     0
 90
        2
 40
0.0
 41
0.0
173
     1
 91
-1056964608
340
5B
 92
       -2
290
     1
 42
0.09
291
     1
 43
0.36
  3
Standard
 44
0.18
300

342
55
174
     1
178
     6
175
     1
176
     0
 93
-1056964608
 45
0.18
292
     0
297
     0
 46
0.18
 94
-1056964608
 47
1.0
 49
1.0
140
1.0
293
     1
141
0.0
294
     1
177
     0
142
1.0
295
     1
296
     0
143
0.125
271
     0
272
     9
273
     9
298
     1
  0
MLINESTYLE
  5
60
102
{ACAD_REACTORS
330
5F
102
}
330
5F
100
AcDbMlineStyle
  2
STANDARD
 70
     0
  3

 62
   256
 51
90.0
 52
90.0
 71
     2
 49
0.5
 62
   256
  6
BYLAYER
 49
-0.5
 62
   256
  6
BYLAYER
  0
ACDBPLACEHOLDER
  5
F
102
{ACAD_REACTORS
330
E
102
}
330
E
  0
SCALE
  5
43
102
{ACAD_REACTORS
330
42
102
}
330
42
100
AcDbScale
 70
     0
300
1:1
140
1.0
141
1.0
290
     1
  0
SCALE
  5
44
102
{ACAD_REACTORS
330
42
102
}
330
42
100
AcDbScale
 70
     0
300
1/128" = 1'-0"
140
0.0078125
141
12.0
290
     0
  0
SCALE
  5
45
102
{ACAD_REACTORS
330
42
102
}
330
42
100
AcDbScale
 70
     0
300
1/64" = 1'-0"
140
0.015625
141
12.0
290
     0
  0
SCALE
  5
46
102
{ACAD_REACTORS
330
42
102
}
330
42
100
AcDbScale
 70
     0
300
1/32" = 1'-0"
140
0.03125
141
12.0
290
     0
  0
SCALE
  5
47
102
{ACAD_REACTORS
330
42
102
}
330
42
100
AcDbScale
 70
     0
300
1/16" = 1'-0"
140
0.0625
141
12.0
290
     0
  0
SCALE
  5
48
102
{ACAD_REACTORS
330
42
102
}
330
42
100
AcDbScale
 70
     0
300
3/32" = 1'-0"
140
0.09375
141
12.0
290
     0
  0
SCALE
  5
49
102
{ACAD_REACTORS
330
42
102
}
330
42
100
AcDbScale
 70
     0
300
1/8" = 1'-0"
140
0.125
141
12.0
290
     0
  0
SCALE
  5
4A
102
{ACAD_REACTORS
330
42
102
}
330
42
100
AcDbScale
 70
     0
300
3/16" = 1'-0"
140
0.1875
141
12.0
290
     0
  0
SCALE
  5
4B
102
{ACAD_REACTORS
330
42
102
}
330
42
100
AcDbScale
 70
     0
300
1/4" = 1'-0"
140
0.25
141
12.0
290
     0
  0
SCALE
  5
4C
102
{ACAD_REACTORS
330
42
102
}
330
42
100
AcDbScale
 70
     0
300
3/8" = 1'-0"
140
0.375
141
12.0
290
     0
  0
SCALE
  5
4D
102
{ACAD_REACTORS
330
42
102
}
330
42
100
AcDbScale
 70
     0
300
1/2" = 1'-0"
140
0.5
141
12.0
290
     0
  0
SCALE
  5
4E
102
{ACAD_REACTORS
330
42
102
}
330
42
100
AcDbScale
 70
     0
300
3/4" = 1'-0"
140
0.75
141
12.0
290
     0
  0
SCALE
  5
4F
102
{ACAD_REACTORS
330
42
102
}
330
42
100
AcDbScale
 70
     0
300
1" = 1'-0"
140
1.0
141
12.0
290
     0
  0
SCALE
  5
50
102
{ACAD_REACTORS
330
42
102
}
330
42
100
AcDbScale
 70
     0
300
1-1/2" = 1'-0"
140
1.5
141
12.0
290
     0
  0
SCALE
  5
51
102
{ACAD_REACTORS
330
42
102
}
330
42
100
AcDbScale
 70
     0
300
3" = 1'-0"
140
3.0
141
12.0
290
     0
  0
SCALE
  5
52
102
{ACAD_REACTORS
330
42
102
}
330
42
100
AcDbScale
 70
     0
300
6" = 1'-0"
140
6.0
141
12.0
290
     0
  0
SCALE
  5
53
102
{ACAD_REACTORS
330
42
102
}
330
42
100
AcDbScale
 70
     0
300
1'-0" = 1'-0"
140
12.0
141
12.0
290
     0
  0
ACDBSECTIONVIEWSTYLE
  5
6A
102
{ACAD_REACTORS
330
68
102
}
330
68
100
AcDbModelDocViewStyle
 70
     0
  3
Imperial24
290
     1
100
AcDbSectionViewStyle
 70
     0
 71
     0
 90
       78
 71
     1
340
55
 62
   256
 40
0.24
340
0
340
0
 62
   256
 40
0.24
300
I, O, Q, S, X, Z
 40
0.48
 90
        3
 40
0.18
 90
        1
 71
     2
340
69
 90
       25
 62
   256
340
5D
 90
       50
 62
   256
 40
0.24
 40
0.0
 40
0.24
 71
     3
340
55
 62
   256
 40
0.24
 90
        1
 40
0.75
 90
        1
300
%<\AcVar ViewType \f "%tc1">% %<\AcVar ViewSectionStartId>%-%<\AcVar ViewSectionEndId>%\PSCALA %<\AcVar ViewScale \f "%sn">%
 71
     4
 62
   256
 62
   257
300
ANSI31
 40
1.0
 90
        0
290
     0
290
     0
 90
        6
 40
0.0
 40
1.570796326794896
 40
0.2617993877991494
 40
1.308996938995747
 40
-0.2617993877991494
 40
1.832595714594046
  0
TABLESTYLE
  5
65
102
{ACAD_XDICTIONARY
360
2DC
102
}
102
{ACAD_REACTORS
330
64
102
}
330
64
100
AcDbTableStyle
280
     0
  3
Standard
 70
     0
 71
     0
 40
0.06
 41
0.06
280
     0
281
     0
  7
Standard
140
0.18
170
     2
 62
     0
 63
     7
283
     0
 90
      512
 91
        0
  1

274
    -2
284
     1
 64
     0
275
    -2
285
     1
 65
     0
276
    -2
286
     1
 66
     0
277
    -2
287
     1
 67
     0
278
    -2
288
     1
 68
     0
279
    -2
289
     1
 69
     0
  7
Standard
140
0.25
170
     5
 62
     0
 63
     7
283
     0
 90
      512
 91
        0
  1

274
    -2
284
     1
 64
     0
275
    -2
285
     1
 65
     0
276
    -2
286
     1
 66
     0
277
    -2
287
     1
 67
     0
278
    -2
288
     1
 68
     0
279
    -2
289
     1
 69
     0
  7
Standard
140
0.18
170
     5
 62
     0
 63
     7
283
     0
 90
      512
 91
        0
  1

274
    -2
284
     1
 64
     0
275
    -2
285
     1
 65
     0
276
    -2
286
     1
 66
     0
277
    -2
287
     1
 67
     0
278
    -2
288
     1
 68
     0
279
    -2
289
     1
 69
     0
  0
VISUALSTYLE
  5
2F
102
{ACAD_REACTORS
330
29
102
}
330
29
100
AcDbVisualStyle
  2
2dWireframe
 70
     4
177
     3
291
     0
 70
    58
 90
        0
176
     1
 90
        2
176
     1
 90
        0
176
     1
 90
        0
176
     1
 40
0.6
176
     1
 40
30.0
176
     1
 62
     7
420
 16777215
176
     1
 90
        1
176
     1
 90
        4
176
     1
 62
     7
176
     1
 62
   257
176
     1
 90
        1
176
     1
 90
        1
176
     1
 40
1.0
176
     1
 90
        0
176
     1
 62
   257
176
     1
 40
1.0
176
     1
 90
        1
176
     1
 90
        6
176
     1
 90
        2
176
     1
 62
     7
176
     1
 90
        5
176
     1
 90
        0
176
     1
 90
        0
176
     1
290
     0
176
     1
 90
        1
176
     1
 40
0.0
176
     1
 90
        0
176
     1
290
     1
176
     1
290
     1
176
     1
290
     0
176
     1
290
     0
176
     1
290
     0
176
     1
290
     0
176
     1
290
     0
176
     1
290
     0
176
     1
290
     0
176
     1
 90
       50
176
     1
 40
0.0
176
     1
 40
1.0
176
     1
 90
        0
176
     1
 62
    18
420
        0
176
     1
 90
       50
176
     1
 90
        3
176
     1
 62
     5
420
      255
176
     1
290
     0
176
     1
 90
       50
176
     1
 90
       50
176
     1
 90
       50
176
     1
290
     0
176
     1
 90
       50
176
     1
 62
   256
176
     0
 40
1.0
176
     0
 90
        2
176
     1
  1
strokes_ogs.tif
176
     1
290
     0
176
     1
 40
1.0
176
     1
 40
1.0
176
     1
  0
VISUALSTYLE
  5
2E
102
{ACAD_REACTORS
330
29
102
}
330
29
100
AcDbVisualStyle
  2
Basic
 70
     7
177
     3
291
     1
 70
    58
 90
        1
176
     1
 90
        0
176
     1
 90
        1
176
     1
 90
        0
176
     1
 40
0.6
176
     1
 40
30.0
176
     1
 62
     7
420
 16777215
176
     1
 90
        0
176
     1
 90
        4
176
     1
 62
     7
176
     1
 62
   257
176
     1
 90
        1
176
     1
 90
        1
176
     1
 40
1.0
176
     1
 90
        8
176
     1
 62
     7
176
     1
 40
1.0
176
     1
 90
        1
176
     1
 90
        6
176
     1
 90
        2
176
     1
 62
     7
176
     1
 90
        5
176
     1
 90
        0
176
     1
 90
        0
176
     1
290
     0
176
     1
 90
        1
176
     1
 40
0.0
176
     1
 90
        0
176
     1
290
     0
176
     1
290
     1
176
     1
290
     1
176
     1
290
     0
176
     1
290
     0
176
     1
290
     0
176
     1
290
     0
176
     1
290
     0
176
     1
290
     0
176
     1
 90
       50
176
     1
 40
0.0
176
     1
 40
1.0
176
     1
 90
        0
176
     1
 62
    18
420
        0
176
     1
 90
       50
176
     1
 90
        3
176
     1
 62
     5
420
      255
176
     1
290
     0
176
     1
 90
       50
176
     1
 90
       50
176
     1
 90
       50
176
     1
290
     0
176
     1
 90
       50
176
     1
 62
   256
176
     0
 40
1.0
176
     0
 90
        2
176
     1
  1
strokes_ogs.tif
176
     1
290
     0
176
     1
 40
1.0
176
     1
 40
1.0
176
     1
  0
VISUALSTYLE
  5
35
102
{ACAD_REACTORS
330
29
102
}
330
29
100
AcDbVisualStyle
  2
Brighten
 70
    12
177
     3
291
     1
 70
    58
 90
        2
176
     1
 90
        2
176
     1
 90
        0
176
     1
 90
        0
176
     1
 40
0.6
176
     1
 40
30.0
176
     1
 62
     7
420
 16777215
176
     1
 90
        1
176
     1
 90
        4
176
     1
 62
     7
176
     1
 62
   257
176
     1
 90
        1
176
     1
 90
        1
176
     1
 40
1.0
176
     1
 90
        8
176
     1
 62
     7
176
     1
 40
1.0
176
     1
 90
        1
176
     1
 90
        6
176
     1
 90
        2
176
     1
 62
     7
176
     1
 90
        5
176
     1
 90
        0
176
     1
 90
        0
176
     1
290
     0
176
     1
 90
        1
176
     1
 40
50.0
176
     1
 90
        0
176
     1
290
     0
176
     1
290
     1
176
     1
290
     1
176
     1
290
     0
176
     1
290
     0
176
     1
290
     0
176
     1
290
     0
176
     1
290
     0
176
     1
290
     0
176
     1
 90
       50
176
     1
 40
0.0
176
     1
 40
1.0
176
     1
 90
        0
176
     1
 62
    18
420
        0
176
     1
 90
       50
176
     1
 90
        3
176
     1
 62
     5
420
      255
176
     1
290
     0
176
     1
 90
       50
176
     1
 90
       50
176
     1
 90
       50
176
     1
290
     0
176
     1
 90
       50
176
     1
 62
   256
176
     0
 40
1.0
176
     0
 90
        2
176
     1
  1
strokes_ogs.tif
176
     1
290
     0
176
     1
 40
1.0
176
     1
 40
1.0
176
     1
  0
VISUALSTYLE
  5
39
102
{ACAD_REACTORS
330
29
102
}
330
29
100
AcDbVisualStyle
  2
ColorChange
 70
    16
177
     3
291
     1
 70
    58
 90
        2
176
     1
 90
        2
176
     1
 90
        3
176
     1
 90
        0
176
     1
 40
0.6
176
     1
 40
30.0
176
     1
 62
     8
420
  8421504
176
     1
 90
        1
176
     1
 90
        4
176
     1
 62
     7
176
     1
 62
   257
176
     1
 90
        1
176
     1
 90
        1
176
     1
 40
1.0
176
     1
 90
        8
176
     1
 62
     8
420
  8421504
176
     1
 40
1.0
176
     1
 90
        1
176
     1
 90
        6
176
     1
 90
        2
176
     1
 62
     7
176
     1
 90
        5
176
     1
 90
        0
176
     1
 90
        0
176
     1
290
     0
176
     1
 90
        1
176
     1
 40
0.0
176
     1
 90
        0
176
     1
290
     0
176
     1
290
     1
176
     1
290
     1
176
     1
290
     0
176
     1
290
     0
176
     1
290
     0
176
     1
290
     0
176
     1
290
     0
176
     1
290
     0
176
     1
 90
       50
176
     1
 40
0.0
176
     1
 40
1.0
176
     1
 90
        0
176
     1
 62
    18
420
        0
176
     1
 90
       50
176
     1
 90
        3
176
     1
 62
     5
420
      255
176
     1
290
     0
176
     1
 90
       50
176
     1
 90
       50
176
     1
 90
       50
176
     1
290
     0
176
     1
 90
       50
176
     1
 62
   256
176
     0
 40
1.0
176
     0
 90
        2
176
     1
  1
strokes_ogs.tif
176
     1
290
     0
176
     1
 40
1.0
176
     1
 40
1.0
176
     1
  0
VISUALSTYLE
  5
32
102
{ACAD_REACTORS
330
29
102
}
330
29
100
AcDbVisualStyle
  2
Conceptual
 70
     9
177
     3
291
     0
 70
    58
 90
        3
176
     1
 90
        2
176
     1
 90
        0
176
     1
 90
        0
176
     1
 40
0.6
176
     1
 40
30.0
176
     1
 62
     7
420
 16777215
176
     1
 90
        2
176
     1
 90
        2
176
     1
 62
     7
176
     1
 62
   257
176
     1
 90
        1
176
     1
 90
        1
176
     1
 40
179.0
176
     1
 90
        8
176
     1
 62
     7
176
     1
 40
1.0
176
     1
 90
        1
176
     1
 90
        6
176
     1
 90
        2
176
     1
 62
     7
176
     1
 90
        3
176
     1
 90
        0
176
     1
 90
        0
176
     1
290
     0
176
     1
 90
        1
176
     1
 40
0.0
176
     1
 90
        0
176
     1
290
     0
176
     1
290
     1
176
     1
290
     1
176
     1
290
     0
176
     1
290
     0
176
     1
290
     0
176
     1
290
     0
176
     1
290
     0
176
     1
290
     0
176
     1
 90
       50
176
     1
 40
0.0
176
     1
 40
1.0
176
     1
 90
        0
176
     1
 62
    18
420
        0
176
     1
 90
       50
176
     1
 90
        3
176
     1
 62
     5
420
      255
176
     1
290
     0
176
     1
 90
       50
176
     1
 90
       50
176
     1
 90
       50
176
     1
290
     0
176
     1
 90
       50
176
     1
 62
   256
176
     0
 40
1.0
176
     0
 90
        2
176
     1
  1
strokes_ogs.tif
176
     1
290
     0
176
     1
 40
1.0
176
     1
 40
1.0
176
     1
  0
VISUALSTYLE
  5
34
102
{ACAD_REACTORS
330
29
102
}
330
29
100
AcDbVisualStyle
  2
Dim
 70
    11
177
     3
291
     1
 70
    58
 90
        2
176
     1
 90
        2
176
     1
 90
        0
176
     1
 90
        0
176
     1
 40
0.6
176
     1
 40
30.0
176
     1
 62
     7
420
 16777215
176
     1
 90
        1
176
     1
 90
        4
176
     1
 62
     7
176
     1
 62
   257
176
     1
 90
        1
176
     1
 90
        1
176
     1
 40
1.0
176
     1
 90
        8
176
     1
 62
     7
176
     1
 40
1.0
176
     1
 90
        1
176
     1
 90
        6
176
     1
 90
        2
176
     1
 62
     7
176
     1
 90
        5
176
     1
 90
        0
176
     1
 90
        0
176
     1
290
     0
176
     1
 90
        1
176
     1
 40
-50.0
176
     1
 90
        0
176
     1
290
     0
176
     1
290
     1
176
     1
290
     1
176
     1
290
     0
176
     1
290
     0
176
     1
290
     0
176
     1
290
     0
176
     1
290
     0
176
     1
290
     0
176
     1
 90
       50
176
     1
 40
0.0
176
     1
 40
1.0
176
     1
 90
        0
176
     1
 62
    18
420
        0
176
     1
 90
       50
176
     1
 90
        3
176
     1
 62
     5
420
      255
176
     1
290
     0
176
     1
 90
       50
176
     1
 90
       50
176
     1
 90
       50
176
     1
290
     0
176
     1
 90
       50
176
     1
 62
   256
176
     0
 40
1.0
176
     0
 90
        2
176
     1
  1
strokes_ogs.tif
176
     1
290
     0
176
     1
 40
1.0
176
     1
 40
1.0
176
     1
  0
VISUALSTYLE
  5
41
102
{ACAD_REACTORS
330
29
102
}
330
29
100
AcDbVisualStyle
  2
EdgeColorOff
 70
    22
177
     3
291
     1
 70
    58
 90
        2
176
     0
 90
        2
176
     0
 90
        0
176
     0
 90
        0
176
     0
 40
0.6
176
     0
 40
30.0
176
     0
 62
     7
420
 16777215
176
     0
 90
        1
176
     0
 90
        4
176
     0
 62
     7
176
     0
 62
   257
176
     0
 90
        1
176
     0
 90
        1
176
     0
 40
1.0
176
     0
 90
        8
176
     2
 62
     7
176
     0
 40
1.0
176
     0
 90
        1
176
     0
 90
        6
176
     0
 90
        2
176
     0
 62
     7
176
     0
 90
        5
176
     0
 90
        0
176
     0
 90
        0
176
     0
290
     0
176
     0
 90
        1
176
     0
 40
0.0
176
     0
 90
        0
176
     0
290
     0
176
     0
290
     1
176
     0
290
     1
176
     0
290
     0
176
     0
290
     0
176
     0
290
     0
176
     0
290
     0
176
     0
290
     0
176
     0
290
     0
176
     0
 90
       50
176
     0
 40
0.0
176
     0
 40
1.0
176
     0
 90
        0
176
     0
 62
    18
420
        0
176
     0
 90
       50
176
     0
 90
        3
176
     0
 62
     5
420
      255
176
     0
290
     0
176
     0
 90
       50
176
     0
 90
       50
176
     0
 90
       50
176
     0
290
     0
176
     0
 90
       50
176
     0
 62
   256
176
     0
 40
1.0
176
     0
 90
        2
176
     0
  1
strokes_ogs.tif
176
     0
290
     0
176
     0
 40
1.0
176
     0
 40
1.0
176
     0
  0
VISUALSTYLE
  5
38
102
{ACAD_REACTORS
330
29
102
}
330
29
100
AcDbVisualStyle
  2
Facepattern
 70
    15
177
     3
291
     1
 70
    58
 90
        2
176
     1
 90
        2
176
     1
 90
        0
176
     1
 90
        0
176
     1
 40
0.6
176
     1
 40
30.0
176
     1
 62
     7
420
 16777215
176
     1
 90
        1
176
     1
 90
        4
176
     1
 62
     7
176
     1
 62
   257
176
     1
 90
        1
176
     1
 90
        1
176
     1
 40
1.0
176
     1
 90
        8
176
     1
 62
     7
176
     1
 40
1.0
176
     1
 90
        1
176
     1
 90
        6
176
     1
 90
        2
176
     1
 62
     7
176
     1
 90
        5
176
     1
 90
        0
176
     1
 90
        0
176
     1
290
     0
176
     1
 90
        1
176
     1
 40
0.0
176
     1
 90
        0
176
     1
290
     0
176
     1
290
     1
176
     1
290
     1
176
     1
290
     0
176
     1
290
     0
176
     1
290
     0
176
     1
290
     0
176
     1
290
     0
176
     1
290
     0
176
     1
 90
       50
176
     1
 40
0.0
176
     1
 40
1.0
176
     1
 90
        0
176
     1
 62
    18
420
        0
176
     1
 90
       50
176
     1
 90
        3
176
     1
 62
     5
420
      255
176
     1
290
     0
176
     1
 90
       50
176
     1
 90
       50
176
     1
 90
       50
176
     1
290
     0
176
     1
 90
       50
176
     1
 62
   256
176
     0
 40
1.0
176
     0
 90
        2
176
     1
  1
strokes_ogs.tif
176
     1
290
     0
176
     1
 40
1.0
176
     1
 40
1.0
176
     1
  0
VISUALSTYLE
  5
2A
102
{ACAD_REACTORS
330
29
102
}
330
29
100
AcDbVisualStyle
  2
Flat
 70
     0
177
     3
291
     1
 70
    58
 90
        2
176
     1
 90
        1
176
     1
 90
        1
176
     1
 90
        2
176
     1
 40
0.6
176
     1
 40
30.0
176
     1
 62
     7
420
 16777215
176
     1
 90
        0
176
     1
 90
        0
176
     1
 62
     7
176
     1
 62
   257
176
     1
 90
        1
176
     1
 90
        1
176
     1
 40
1.0
176
     1
 90
        8
176
     1
 62
     7
176
     1
 40
1.0
176
     1
 90
        1
176
     1
 90
        6
176
     1
 90
        2
176
     1
 62
     7
176
     1
 90
        5
176
     1
 90
        0
176
     1
 90
        0
176
     1
290
     0
176
     1
 90
       13
176
     1
 40
0.0
176
     1
 90
        0
176
     1
290
     0
176
     1
290
     1
176
     1
290
     1
176
     1
290
     0
176
     1
290
     0
176
     1
290
     0
176
     1
290
     0
176
     1
290
     0
176
     1
290
     0
176
     1
 90
       50
176
     1
 40
0.0
176
     1
 40
1.0
176
     1
 90
        0
176
     1
 62
    18
420
        0
176
     1
 90
       50
176
     1
 90
        3
176
     1
 62
     5
420
      255
176
     1
290
     0
176
     1
 90
       50
176
     1
 90
       50
176
     1
 90
       50
176
     1
290
     0
176
     1
 90
       50
176
     1
 62
   256
176
     0
 40
1.0
176
     0
 90
        2
176
     1
  1
strokes_ogs.tif
176
     1
290
     0
176
     1
 40
1.0
176
     1
 40
1.0
176
     1
  0
VISUALSTYLE
  5
2B
102
{ACAD_REACTORS
330
29
102
}
330
29
100
AcDbVisualStyle
  2
FlatWithEdges
 70
     1
177
     3
291
     1
 70
    58
 90
        2
176
     1
 90
        1
176
     1
 90
        1
176
     1
 90
        2
176
     1
 40
0.6
176
     1
 40
30.0
176
     1
 62
     7
420
 16777215
176
     1
 90
        1
176
     1
 90
        0
176
     1
 62
     7
176
     1
 62
   257
176
     1
 90
        1
176
     1
 90
        1
176
     1
 40
1.0
176
     1
 90
        0
176
     1
 62
   257
176
     1
 40
1.0
176
     1
 90
        1
176
     1
 90
        6
176
     1
 90
        2
176
     1
 62
     7
176
     1
 90
        5
176
     1
 90
        0
176
     1
 90
        0
176
     1
290
     0
176
     1
 90
       13
176
     1
 40
0.0
176
     1
 90
        0
176
     1
290
     0
176
     1
290
     1
176
     1
290
     1
176
     1
290
     0
176
     1
290
     0
176
     1
290
     0
176
     1
290
     0
176
     1
290
     0
176
     1
290
     0
176
     1
 90
       50
176
     1
 40
0.0
176
     1
 40
1.0
176
     1
 90
        0
176
     1
 62
    18
420
        0
176
     1
 90
       50
176
     1
 90
        3
176
     1
 62
     5
420
      255
176
     1
290
     0
176
     1
 90
       50
176
     1
 90
       50
176
     1
 90
       50
176
     1
290
     0
176
     1
 90
       50
176
     1
 62
   256
176
     0
 40
1.0
176
     0
 90
        2
176
     1
  1
strokes_ogs.tif
176
     1
290
     0
176
     1
 40
1.0
176
     1
 40
1.0
176
     1
  0
VISUALSTYLE
  5
2C
102
{ACAD_REACTORS
330
29
102
}
330
29
100
AcDbVisualStyle
  2
Gouraud
 70
     2
177
     3
291
     1
 70
    58
 90
        2
176
     1
 90
        2
176
     1
 90
        1
176
     1
 90
        2
176
     1
 40
0.6
176
     1
 40
30.0
176
     1
 62
     7
420
 16777215
176
     1
 90
        0
176
     1
 90
        0
176
     1
 62
     7
176
     1
 62
   257
176
     1
 90
        1
176
     1
 90
        1
176
     1
 40
1.0
176
     1
 90
        0
176
     1
 62
     7
176
     1
 40
1.0
176
     1
 90
        1
176
     1
 90
        6
176
     1
 90
        2
176
     1
 62
     7
176
     1
 90
        5
176
     1
 90
        0
176
     1
 90
        0
176
     1
290
     0
176
     1
 90
       13
176
     1
 40
0.0
176
     1
 90
        0
176
     1
290
     0
176
     1
290
     1
176
     1
290
     1
176
     1
290
     0
176
     1
290
     0
176
     1
290
     0
176
     1
290
     0
176
     1
290
     0
176
     1
290
     0
176
     1
 90
       50
176
     1
 40
0.0
176
     1
 40
1.0
176
     1
 90
        0
176
     1
 62
    18
420
        0
176
     1
 90
       50
176
     1
 90
        3
176
     1
 62
     5
420
      255
176
     1
290
     0
176
     1
 90
       50
176
     1
 90
       50
176
     1
 90
       50
176
     1
290
     0
176
     1
 90
       50
176
     1
 62
   256
176
     0
 40
1.0
176
     0
 90
        2
176
     1
  1
strokes_ogs.tif
176
     1
290
     0
176
     1
 40
1.0
176
     1
 40
1.0
176
     1
  0
VISUALSTYLE
  5
2D
102
{ACAD_REACTORS
330
29
102
}
330
29
100
AcDbVisualStyle
  2
GouraudWithEdges
 70
     3
177
     3
291
     1
 70
    58
 90
        2
176
     1
 90
        2
176
     1
 90
        1
176
     1
 90
        2
176
     1
 40
0.6
176
     1
 40
30.0
176
     1
 62
     7
420
 16777215
176
     1
 90
        1
176
     1
 90
        0
176
     1
 62
     7
176
     1
 62
   257
176
     1
 90
        1
176
     1
 90
        1
176
     1
 40
1.0
176
     1
 90
        0
176
     1
 62
   257
176
     1
 40
1.0
176
     1
 90
        1
176
     1
 90
        6
176
     1
 90
        2
176
     1
 62
     7
176
     1
 90
        5
176
     1
 90
        0
176
     1
 90
        0
176
     1
290
     0
176
     1
 90
       13
176
     1
 40
0.0
176
     1
 90
        0
176
     1
290
     0
176
     1
290
     1
176
     1
290
     1
176
     1
290
     0
176
     1
290
     0
176
     1
290
     0
176
     1
290
     0
176
     1
290
     0
176
     1
290
     0
176
     1
 90
       50
176
     1
 40
0.0
176
     1
 40
1.0
176
     1
 90
        0
176
     1
 62
    18
420
        0
176
     1
 90
       50
176
     1
 90
        3
176
     1
 62
     5
420
      255
176
     1
290
     0
176
     1
 90
       50
176
     1
 90
       50
176
     1
 90
       50
176
     1
290
     0
176
     1
 90
       50
176
     1
 62
   256
176
     0
 40
1.0
176
     0
 90
        2
176
     1
  1
strokes_ogs.tif
176
     1
290
     0
176
     1
 40
1.0
176
     1
 40
1.0
176
     1
  0
VISUALSTYLE
  5
31
102
{ACAD_REACTORS
330
29
102
}
330
29
100
AcDbVisualStyle
  2
Hidden
 70
     6
177
     3
291
     0
 70
    58
 90
        1
176
     1
 90
        2
176
     1
 90
        2
176
     1
 90
        0
176
     1
 40
0.6
176
     1
 40
30.0
176
     1
 62
     7
420
 16777215
176
     1
 90
        2
176
     1
 90
        2
176
     1
 62
     7
176
     1
 62
   257
176
     1
 90
        2
176
     1
 90
        1
176
     1
 40
40.0
176
     1
 90
        0
176
     1
 62
   257
176
     1
 40
1.0
176
     1
 90
        1
176
     1
 90
        6
176
     1
 90
        2
176
     1
 62
     7
176
     1
 90
        3
176
     1
 90
        0
176
     1
 90
        0
176
     1
290
     0
176
     1
 90
        1
176
     1
 40
0.0
176
     1
 90
        0
176
     1
290
     0
176
     1
290
     1
176
     1
290
     1
176
     1
290
     0
176
     1
290
     0
176
     1
290
     0
176
     1
290
     0
176
     1
290
     0
176
     1
290
     0
176
     1
 90
       50
176
     1
 40
0.0
176
     1
 40
1.0
176
     1
 90
        0
176
     1
 62
    18
420
        0
176
     1
 90
       50
176
     1
 90
        3
176
     1
 62
     5
420
      255
176
     1
290
     0
176
     1
 90
       50
176
     1
 90
       50
176
     1
 90
       50
176
     1
290
     0
176
     1
 90
       50
176
     1
 62
   256
176
     0
 40
1.0
176
     0
 90
        2
176
     1
  1
strokes_ogs.tif
176
     1
290
     0
176
     1
 40
1.0
176
     1
 40
1.0
176
     1
  0
VISUALSTYLE
  5
3F
102
{ACAD_REACTORS
330
29
102
}
330
29
100
AcDbVisualStyle
  2
JitterOff
 70
    20
177
     3
291
     1
 70
    58
 90
        2
176
     0
 90
        2
176
     0
 90
        0
176
     0
 90
        0
176
     0
 40
0.6
176
     0
 40
30.0
176
     0
 62
     7
420
 16777215
176
     0
 90
        1
176
     0
 90
        4
176
     0
 62
     7
176
     0
 62
   257
176
     0
 90
        1
176
     0
 90
        1
176
     0
 40
1.0
176
     0
 90
       10
176
     2
 62
     7
176
     0
 40
1.0
176
     0
 90
        1
176
     0
 90
        6
176
     0
 90
        2
176
     0
 62
     7
176
     0
 90
        5
176
     0
 90
        0
176
     0
 90
        0
176
     0
290
     0
176
     0
 90
        1
176
     0
 40
0.0
176
     0
 90
        0
176
     0
290
     0
176
     0
290
     1
176
     0
290
     1
176
     0
290
     0
176
     0
290
     0
176
     0
290
     0
176
     0
290
     0
176
     0
290
     0
176
     0
290
     0
176
     0
 90
       50
176
     0
 40
0.0
176
     0
 40
1.0
176
     0
 90
        0
176
     0
 62
    18
420
        0
176
     0
 90
       50
176
     0
 90
        3
176
     0
 62
     5
420
      255
176
     0
290
     0
176
     0
 90
       50
176
     0
 90
       50
176
     0
 90
       50
176
     0
290
     0
176
     0
 90
       50
176
     0
 62
   256
176
     0
 40
1.0
176
     0
 90
        2
176
     0
  1
strokes_ogs.tif
176
     0
290
     0
176
     0
 40
1.0
176
     0
 40
1.0
176
     0
  0
VISUALSTYLE
  5
37
102
{ACAD_REACTORS
330
29
102
}
330
29
100
AcDbVisualStyle
  2
Linepattern
 70
    14
177
     3
291
     1
 70
    58
 90
        2
176
     1
 90
        2
176
     1
 90
        0
176
     1
 90
        0
176
     1
 40
0.6
176
     1
 40
30.0
176
     1
 62
     7
420
 16777215
176
     1
 90
        1
176
     1
 90
        4
176
     1
 62
     7
176
     1
 62
   257
176
     1
 90
        7
176
     1
 90
        7
176
     1
 40
1.0
176
     1
 90
        8
176
     1
 62
     7
176
     1
 40
1.0
176
     1
 90
        1
176
     1
 90
        6
176
     1
 90
        2
176
     1
 62
     7
176
     1
 90
        5
176
     1
 90
        0
176
     1
 90
        0
176
     1
290
     0
176
     1
 90
        1
176
     1
 40
0.0
176
     1
 90
        0
176
     1
290
     0
176
     1
290
     1
176
     1
290
     1
176
     1
290
     0
176
     1
290
     0
176
     1
290
     0
176
     1
290
     0
176
     1
290
     0
176
     1
290
     0
176
     1
 90
       50
176
     1
 40
0.0
176
     1
 40
1.0
176
     1
 90
        0
176
     1
 62
    18
420
        0
176
     1
 90
       50
176
     1
 90
        3
176
     1
 62
     5
420
      255
176
     1
290
     0
176
     1
 90
       50
176
     1
 90
       50
176
     1
 90
       50
176
     1
290
     0
176
     1
 90
       50
176
     1
 62
   256
176
     0
 40
1.0
176
     0
 90
        2
176
     1
  1
strokes_ogs.tif
176
     1
290
     0
176
     1
 40
1.0
176
     1
 40
1.0
176
     1
  0
VISUALSTYLE
  5
40
102
{ACAD_REACTORS
330
29
102
}
330
29
100
AcDbVisualStyle
  2
OverhangOff
 70
    21
177
     3
291
     1
 70
    58
 90
        2
176
     0
 90
        2
176
     0
 90
        0
176
     0
 90
        0
176
     0
 40
0.6
176
     0
 40
30.0
176
     0
 62
     7
420
 16777215
176
     0
 90
        1
176
     0
 90
        4
176
     0
 62
     7
176
     0
 62
   257
176
     0
 90
        1
176
     0
 90
        1
176
     0
 40
1.0
176
     0
 90
        9
176
     2
 62
     7
176
     0
 40
1.0
176
     0
 90
        1
176
     0
 90
        6
176
     0
 90
        2
176
     0
 62
     7
176
     0
 90
        5
176
     0
 90
        0
176
     0
 90
        0
176
     0
290
     0
176
     0
 90
        1
176
     0
 40
0.0
176
     0
 90
        0
176
     0
290
     0
176
     0
290
     1
176
     0
290
     1
176
     0
290
     0
176
     0
290
     0
176
     0
290
     0
176
     0
290
     0
176
     0
290
     0
176
     0
290
     0
176
     0
 90
       50
176
     0
 40
0.0
176
     0
 40
1.0
176
     0
 90
        0
176
     0
 62
    18
420
        0
176
     0
 90
       50
176
     0
 90
        3
176
     0
 62
     5
420
      255
176
     0
290
     0
176
     0
 90
       50
176
     0
 90
       50
176
     0
 90
       50
176
     0
290
     0
176
     0
 90
       50
176
     0
 62
   256
176
     0
 40
1.0
176
     0
 90
        2
176
     0
  1
strokes_ogs.tif
176
     0
290
     0
176
     0
 40
1.0
176
     0
 40
1.0
176
     0
  0
VISUALSTYLE
  5
33
102
{ACAD_REACTORS
330
29
102
}
330
29
100
AcDbVisualStyle
  2
Realistic
 70
     8
177
     3
291
     0
 70
    58
 90
        2
176
     1
 90
        3
176
     1
 90
        0
176
     1
 90
        2
176
     1
 40
0.6
176
     1
 40
30.0
176
     1
 62
     7
420
 16777215
176
     1
 90
        0
176
     1
 90
        0
176
     1
 62
     7
176
     1
 62
   257
176
     1
 90
        1
176
     1
 90
        1
176
     1
 40
1.0
176
     1
 90
        8
176
     1
 62
   257
176
     1
 40
1.0
176
     1
 90
        1
176
     1
 90
        6
176
     1
 90
        2
176
     1
 62
     7
176
     1
 90
        3
176
     1
 90
        0
176
     1
 90
        0
176
     1
290
     0
176
     1
 90
       13
176
     1
 40
0.0
176
     1
 90
        0
176
     1
290
     0
176
     1
290
     1
176
     1
290
     1
176
     1
290
     0
176
     1
290
     0
176
     1
290
     0
176
     1
290
     0
176
     1
290
     0
176
     1
290
     0
176
     1
 90
       50
176
     1
 40
0.0
176
     1
 40
1.0
176
     1
 90
        0
176
     1
 62
    18
420
        0
176
     1
 90
       50
176
     1
 90
        3
176
     1
 62
     5
420
      255
176
     1
290
     0
176
     1
 90
       50
176
     1
 90
       50
176
     1
 90
       50
176
     1
290
     0
176
     1
 90
       50
176
     1
 62
   256
176
     0
 40
1.0
176
     0
 90
        2
176
     1
  1
strokes_ogs.tif
176
     1
290
     0
176
     1
 40
1.0
176
     1
 40
1.0
176
     1
  0
VISUALSTYLE
  5
3E
102
{ACAD_REACTORS
330
29
102
}
330
29
100
AcDbVisualStyle
  2
Shaded
 70
    27
177
     3
291
     0
 70
    58
 90
        2
176
     1
 90
        2
176
     1
 90
        1
176
     1
 90
        2
176
     1
 40
0.6
176
     1
 40
30.0
176
     1
 62
     7
420
 16777215
176
     1
 90
        0
176
     1
 90
        4
176
     1
 62
     7
176
     1
 62
   257
176
     1
 90
        1
176
     1
 90
        1
176
     1
 40
1.0
176
     1
 90
        8
176
     1
 62
   257
176
     1
 40
1.0
176
     1
 90
        1
176
     1
 90
        6
176
     1
 90
        2
176
     1
 62
     8
420
  7895160
176
     1
 90
        3
176
     1
 90
        0
176
     1
 90
        0
176
     1
290
     0
176
     1
 90
        5
176
     1
 40
0.0
176
     1
 90
        0
176
     1
290
     0
176
     1
290
     1
176
     1
290
     1
176
     1
290
     0
176
     1
290
     0
176
     1
290
     0
176
     1
290
     0
176
     1
290
     0
176
     1
290
     0
176
     1
 90
       50
176
     1
 40
0.0
176
     1
 40
1.0
176
     1
 90
        0
176
     1
 62
    18
420
        0
176
     1
 90
       50
176
     1
 90
        3
176
     1
 62
     5
420
      255
176
     1
290
     0
176
     1
 90
       50
176
     1
 90
       50
176
     1
 90
       50
176
     1
290
     0
176
     1
 90
       50
176
     1
 62
   256
176
     0
 40
1.0
176
     0
 90
        2
176
     1
  1
strokes_ogs.tif
176
     1
290
     0
176
     1
 40
1.0
176
     1
 40
1.0
176
     1
  0
VISUALSTYLE
  5
3D
102
{ACAD_REACTORS
330
29
102
}
330
29
100
AcDbVisualStyle
  2
Shaded with edges
 70
    26
177
     3
291
     0
 70
    58
 90
        2
176
     1
 90
        2
176
     1
 90
        1
176
     1
 90
        2
176
     1
 40
0.6
176
     1
 40
30.0
176
     1
 62
     7
420
 16777215
176
     1
 90
        1
176
     1
 90
       10
176
     1
 62
     7
176
     1
 62
   257
176
     1
 90
        2
176
     1
 90
        1
176
     1
 40
1.0
176
     1
 90
        8
176
     1
 62
   257
176
     1
 40
1.0
176
     1
 90
        1
176
     1
 90
        6
176
     1
 90
        2
176
     1
 62
     7
176
     1
 90
        3
176
     1
 90
        0
176
     1
 90
        0
176
     1
290
     0
176
     1
 90
        5
176
     1
 40
0.0
176
     1
 90
        0
176
     1
290
     0
176
     1
290
     1
176
     1
290
     1
176
     1
290
     0
176
     1
290
     0
176
     1
290
     0
176
     1
290
     0
176
     1
290
     0
176
     1
290
     0
176
     1
 90
       50
176
     1
 40
0.0
176
     1
 40
1.0
176
     1
 90
        0
176
     1
 62
    18
420
        0
176
     1
 90
       50
176
     1
 90
        3
176
     1
 62
     5
420
      255
176
     1
290
     0
176
     1
 90
       50
176
     1
 90
       50
176
     1
 90
       50
176
     1
290
     0
176
     1
 90
       50
176
     1
 62
   256
176
     0
 40
1.0
176
     0
 90
        2
176
     1
  1
strokes_ogs.tif
176
     1
290
     0
176
     1
 40
1.0
176
     1
 40
1.0
176
     1
  0
VISUALSTYLE
  5
3A
102
{ACAD_REACTORS
330
29
102
}
330
29
100
AcDbVisualStyle
  2
Shades of Gray
 70
    23
177
     3
291
     0
 70
    58
 90
        2
176
     1
 90
        2
176
     1
 90
        3
176
     1
 90
        0
176
     1
 40
0.6
176
     1
 40
30.0
176
     1
 62
     7
420
 16777215
176
     1
 90
        2
176
     1
 90
        2
176
     1
 62
     7
176
     1
 62
     7
176
     1
 90
        1
176
     1
 90
        1
176
     1
 40
40.0
176
     1
 90
        8
176
     1
 62
     7
176
     1
 40
1.0
176
     1
 90
        1
176
     1
 90
        6
176
     1
 90
        2
176
     1
 62
     7
176
     1
 90
        3
176
     1
 90
        0
176
     1
 90
        0
176
     1
290
     0
176
     1
 90
        1
176
     1
 40
0.0
176
     1
 90
        0
176
     1
290
     0
176
     1
290
     1
176
     1
290
     1
176
     1
290
     0
176
     1
290
     0
176
     1
290
     0
176
     1
290
     0
176
     1
290
     0
176
     1
290
     0
176
     1
 90
       50
176
     1
 40
0.0
176
     1
 40
1.0
176
     1
 90
        0
176
     1
 62
    18
420
        0
176
     1
 90
       50
176
     1
 90
        3
176
     1
 62
     5
420
      255
176
     1
290
     0
176
     1
 90
       50
176
     1
 90
       50
176
     1
 90
       50
176
     1
290
     0
176
     1
 90
       50
176
     1
 62
   256
176
     0
 40
1.0
176
     0
 90
        2
176
     1
  1
strokes_ogs.tif
176
     1
290
     0
176
     1
 40
1.0
176
     1
 40
1.0
176
     1
  0
VISUALSTYLE
  5
3B
102
{ACAD_REACTORS
330
29
102
}
330
29
100
AcDbVisualStyle
  2
Sketchy
 70
    24
177
     3
291
     0
 70
    58
 90
        1
176
     1
 90
        2
176
     1
 90
        2
176
     1
 90
        0
176
     1
 40
0.6
176
     1
 40
30.0
176
     1
 62
     7
420
 16777215
176
     1
 90
        2
176
     1
 90
        2
176
     1
 62
     7
176
     1
 62
     7
176
     1
 90
        1
176
     1
 90
        1
176
     1
 40
40.0
176
     1
 90
       11
176
     1
 62
     7
176
     1
 40
1.0
176
     1
 90
        1
176
     1
 90
        6
176
     1
 90
        2
176
     1
 62
     7
176
     1
 90
        6
176
     1
 90
        0
176
     1
 90
        0
176
     1
290
     0
176
     1
 90
        1
176
     1
 40
0.0
176
     1
 90
        0
176
     1
290
     0
176
     1
290
     1
176
     1
290
     1
176
     1
290
     0
176
     1
290
     0
176
     1
290
     0
176
     1
290
     0
176
     1
290
     0
176
     1
290
     0
176
     1
 90
       50
176
     1
 40
0.0
176
     1
 40
1.0
176
     1
 90
        0
176
     1
 62
    18
420
        0
176
     1
 90
       50
176
     1
 90
        3
176
     1
 62
     5
420
      255
176
     1
290
     0
176
     1
 90
       50
176
     1
 90
       50
176
     1
 90
       50
176
     1
290
     0
176
     1
 90
       50
176
     1
 62
   256
176
     0
 40
1.0
176
     0
 90
        2
176
     1
  1
strokes_ogs.tif
176
     1
290
     0
176
     1
 40
1.0
176
     1
 40
1.0
176
     1
  0
VISUALSTYLE
  5
36
102
{ACAD_REACTORS
330
29
102
}
330
29
100
AcDbVisualStyle
  2
Thicken
 70
    13
177
     3
291
     1
 70
    58
 90
        2
176
     1
 90
        2
176
     1
 90
        0
176
     1
 90
        0
176
     1
 40
0.6
176
     1
 40
30.0
176
     1
 62
     7
420
 16777215
176
     1
 90
        1
176
     1
 90
        4
176
     1
 62
     7
176
     1
 62
   257
176
     1
 90
        1
176
     1
 90
        1
176
     1
 40
1.0
176
     1
 90
       12
176
     1
 62
     7
176
     1
 40
1.0
176
     1
 90
        1
176
     1
 90
        6
176
     1
 90
        2
176
     1
 62
     7
176
     1
 90
        5
176
     1
 90
        0
176
     1
 90
        0
176
     1
290
     0
176
     1
 90
        1
176
     1
 40
0.0
176
     1
 90
        0
176
     1
290
     0
176
     1
290
     1
176
     1
290
     1
176
     1
290
     0
176
     1
290
     0
176
     1
290
     0
176
     1
290
     0
176
     1
290
     0
176
     1
290
     0
176
     1
 90
       50
176
     1
 40
0.0
176
     1
 40
1.0
176
     1
 90
        0
176
     1
 62
    18
420
        0
176
     1
 90
       50
176
     1
 90
        3
176
     1
 62
     5
420
      255
176
     1
290
     0
176
     1
 90
       50
176
     1
 90
       50
176
     1
 90
       50
176
     1
290
     0
176
     1
 90
       50
176
     1
 62
   256
176
     0
 40
1.0
176
     0
 90
        2
176
     1
  1
strokes_ogs.tif
176
     1
290
     0
176
     1
 40
1.0
176
     1
 40
1.0
176
     1
  0
VISUALSTYLE
  5
30
102
{ACAD_REACTORS
330
29
102
}
330
29
100
AcDbVisualStyle
  2
Wireframe
 70
     5
177
     3
291
     0
 70
    58
 90
        0
176
     1
 90
        2
176
     1
 90
        0
176
     1
 90
        0
176
     1
 40
0.6
176
     1
 40
30.0
176
     1
 62
     7
420
 16777215
176
     1
 90
        1
176
     1
 90
        4
176
     1
 62
     7
176
     1
 62
   257
176
     1
 90
        1
176
     1
 90
        1
176
     1
 40
1.0
176
     1
 90
        0
176
     1
 62
   257
176
     1
 40
1.0
176
     1
 90
        1
176
     1
 90
        6
176
     1
 90
        2
176
     1
 62
     7
176
     1
 90
        3
176
     1
 90
        0
176
     1
 90
        0
176
     1
290
     0
176
     1
 90
        1
176
     1
 40
0.0
176
     1
 90
        0
176
     1
290
     0
176
     1
290
     1
176
     1
290
     1
176
     1
290
     0
176
     1
290
     0
176
     1
290
     0
176
     1
290
     0
176
     1
290
     0
176
     1
290
     0
176
     1
 90
       50
176
     1
 40
0.0
176
     1
 40
1.0
176
     1
 90
        0
176
     1
 62
    18
420
        0
176
     1
 90
       50
176
     1
 90
        3
176
     1
 62
     5
420
      255
176
     1
290
     0
176
     1
 90
       50
176
     1
 90
       50
176
     1
 90
       50
176
     1
290
     0
176
     1
 90
       50
176
     1
 62
   256
176
     0
 40
1.0
176
     0
 90
        2
176
     1
  1
strokes_ogs.tif
176
     1
290
     0
176
     1
 40
1.0
176
     1
 40
1.0
176
     1
  0
VISUALSTYLE
  5
3C
102
{ACAD_REACTORS
330
29
102
}
330
29
100
AcDbVisualStyle
  2
X-Ray
 70
    25
177
     3
291
     0
 70
    58
 90
        2
176
     1
 90
        2
176
     1
 90
        1
176
     1
 90
        1
176
     1
 40
0.5
176
     1
 40
30.0
176
     1
 62
     7
420
 16777215
176
     1
 90
        1
176
     1
 90
        0
176
     1
 62
     7
176
     1
 62
   257
176
     1
 90
        1
176
     1
 90
        1
176
     1
 40
1.0
176
     1
 90
        8
176
     1
 62
     7
176
     1
 40
1.0
176
     1
 90
        1
176
     1
 90
        6
176
     1
 90
        2
176
     1
 62
     7
176
     1
 90
        3
176
     1
 90
        0
176
     1
 90
        0
176
     1
290
     0
176
     1
 90
       13
176
     1
 40
0.0
176
     1
 90
        0
176
     1
290
     0
176
     1
290
     1
176
     1
290
     1
176
     1
290
     0
176
     1
290
     0
176
     1
290
     0
176
     1
290
     0
176
     1
290
     0
176
     1
290
     0
176
     1
 90
       50
176
     1
 40
0.0
176
     1
 40
1.0
176
     1
 90
        0
176
     1
 62
    18
420
        0
176
     1
 90
       50
176
     1
 90
        3
176
     1
 62
     5
420
      255
176
     1
290
     0
176
     1
 90
       50
176
     1
 90
       50
176
     1
 90
       50
176
     1
290
     0
176
     1
 90
       50
176
     1
 62
   256
176
     0
 40
1.0
176
     0
 90
        2
176
     1
  1
strokes_ogs.tif
176
     1
290
     0
176
     1
 40
1.0
176
     1
 40
1.0
176
     1
  0
DICTIONARYVAR
  5
81
102
{ACAD_REACTORS
330
7C
102
}
330
7C
100
DictionaryVariables
280
     0
  1
1:1
  0
DICTIONARYVAR
  5
7E
102
{ACAD_REACTORS
330
7C
102
}
330
7C
100
DictionaryVariables
280
     0
  1
STANDARD
  0
DICTIONARYVAR
  5
7D
102
{ACAD_REACTORS
330
7C
102
}
330
7C
100
DictionaryVariables
280
     0
  1
STANDARD
  0
DICTIONARYVAR
  5
7F
102
{ACAD_REACTORS
330
7C
102
}
330
7C
100
DictionaryVariables
280
     0
  1
Imperial24
  0
DICTIONARYVAR
  5
80
102
{ACAD_REACTORS
330
7C
102
}
330
7C
100
DictionaryVariables
280
     0
  1
Imperial24
  0
XRECORD
  5
2D9
102
{ACAD_REACTORS
330
2D5
102
}
330
2D5
100
AcDbXrecord
280
     1
  1
BUILDING_ID
  1
Progetto per messa in tavola DXF, DWG
  1
FLOOR_ID
  1
694395
  0
XRECORD
  5
2D7
102
{ACAD_REACTORS
330
2D5
102
}
330
2D5
100
AcDbXrecord
280
     1
  1
-2001160
  1
Apparecchi idraulici
  0
XRECORD
  5
2D8
102
{ACAD_REACTORS
330
2D5
102
}
330
2D5
100
AcDbXrecord
280
     1
  1
923114
  1
Handle
  1
963222
  1
Insulation
  0
XRECORD
  5
2D6
102
{ACAD_REACTORS
330
2D5
102
}
330
2D5
100
AcDbXrecord
280
     1
  1
859151
  1
Automatic flow rate regulator valve_Caleffi_121 DN15 : 1/2''
  0
DICTIONARY
  5
1A
330
19
100
AcDbDictionary
280
     1
281
     1
  3
BUMPTILE
360
1C
  3
DIFFUSETILE
360
1B
  3
OPACITYTILE
360
1F
  3
REFLECTIONTILE
360
1E
  3
REFRACTIONTILE
360
20
  3
SPECULARTILE
360
1D
  0
DICTIONARY
  5
12
330
11
100
AcDbDictionary
280
     1
281
     1
  3
BUMPTILE
360
14
  3
DIFFUSETILE
360
13
  3
OPACITYTILE
360
17
  3
REFLECTIONTILE
360
16
  3
REFRACTIONTILE
360
18
  3
SPECULARTILE
360
15
  0
DICTIONARY
  5
22
330
21
100
AcDbDictionary
280
     1
281
     1
  3
BUMPTILE
360
24
  3
DIFFUSETILE
360
23
  3
OPACITYTILE
360
27
  3
REFLECTIONTILE
360
26
  3
REFRACTIONTILE
360
28
  3
SPECULARTILE
360
25
  0
DICTIONARY
  5
2DC
330
65
100
AcDbDictionary
280
     1
281
     1
  3
ACAD_ROUNDTRIP_2008_TABLESTYLE_CELLSTYLEMAP
360
2DD
  0
XRECORD
  5
1C
102
{ACAD_REACTORS
330
1A
102
}
330
1A
100
AcDbXrecord
280
     1
270
     1
271
     1
  0
XRECORD
  5
1B
102
{ACAD_REACTORS
330
1A
102
}
330
1A
100
AcDbXrecord
280
     1
270
     1
271
     1
  0
XRECORD
  5
1F
102
{ACAD_REACTORS
330
1A
102
}
330
1A
100
AcDbXrecord
280
     1
270
     1
271
     1
  0
XRECORD
  5
1E
102
{ACAD_REACTORS
330
1A
102
}
330
1A
100
AcDbXrecord
280
     1
270
     1
271
     1
  0
XRECORD
  5
20
102
{ACAD_REACTORS
330
1A
102
}
330
1A
100
AcDbXrecord
280
     1
270
     1
271
     1
  0
XRECORD
  5
1D
102
{ACAD_REACTORS
330
1A
102
}
330
1A
100
AcDbXrecord
280
     1
270
     1
271
     1
  0
XRECORD
  5
14
102
{ACAD_REACTORS
330
12
102
}
330
12
100
AcDbXrecord
280
     1
270
     1
271
     1
  0
XRECORD
  5
13
102
{ACAD_REACTORS
330
12
102
}
330
12
100
AcDbXrecord
280
     1
270
     1
271
     1
  0
XRECORD
  5
17
102
{ACAD_REACTORS
330
12
102
}
330
12
100
AcDbXrecord
280
     1
270
     1
271
     1
  0
XRECORD
  5
16
102
{ACAD_REACTORS
330
12
102
}
330
12
100
AcDbXrecord
280
     1
270
     1
271
     1
  0
XRECORD
  5
18
102
{ACAD_REACTORS
330
12
102
}
330
12
100
AcDbXrecord
280
     1
270
     1
271
     1
  0
XRECORD
  5
15
102
{ACAD_REACTORS
330
12
102
}
330
12
100
AcDbXrecord
280
     1
270
     1
271
     1
  0
XRECORD
  5
24
102
{ACAD_REACTORS
330
22
102
}
330
22
100
AcDbXrecord
280
     1
270
     1
271
     1
  0
XRECORD
  5
23
102
{ACAD_REACTORS
330
22
102
}
330
22
100
AcDbXrecord
280
     1
270
     1
271
     1
  0
XRECORD
  5
27
102
{ACAD_REACTORS
330
22
102
}
330
22
100
AcDbXrecord
280
     1
270
     1
271
     1
  0
XRECORD
  5
26
102
{ACAD_REACTORS
330
22
102
}
330
22
100
AcDbXrecord
280
     1
270
     1
271
     1
  0
XRECORD
  5
28
102
{ACAD_REACTORS
330
22
102
}
330
22
100
AcDbXrecord
280
     1
270
     1
271
     1
  0
XRECORD
  5
25
102
{ACAD_REACTORS
330
22
102
}
330
22
100
AcDbXrecord
280
     1
270
     1
271
     1
  0
CELLSTYLEMAP
  5
2DD
102
{ACAD_REACTORS
330
2DC
102
}
330
2DC
100
AcDbCellStyleMap
 90
        3
300
CELLSTYLE
  1
TABLEFORMAT_BEGIN
 90
        5
170
     1
 91
        0
 92
    32768
 62
   257
 93
        1
300
CONTENTFORMAT
  1
CONTENTFORMAT_BEGIN
 90
        0
 91
        0
 92
      512
 93
        0
300

 40
0.0
140
1.0
 94
        5
 62
     0
340
55
144
0.25
309
CONTENTFORMAT_END
171
     0
 94
        0
309
TABLEFORMAT_END
  1
CELLSTYLE_BEGIN
 90
        1
 91
        1
300
_TITLE
309
CELLSTYLE_END
300
CELLSTYLE
  1
TABLEFORMAT_BEGIN
 90
        5
170
     1
 91
        0
 92
        0
 62
   257
 93
        1
300
CONTENTFORMAT
  1
CONTENTFORMAT_BEGIN
 90
        0
 91
        0
 92
      512
 93
        0
300

 40
0.0
140
1.0
 94
        5
 62
     0
340
55
144
0.18
309
CONTENTFORMAT_END
171
     0
 94
        0
309
TABLEFORMAT_END
  1
CELLSTYLE_BEGIN
 90
        2
 91
        1
300
_HEADER
309
CELLSTYLE_END
300
CELLSTYLE
  1
TABLEFORMAT_BEGIN
 90
        5
170
     1
 91
        0
 92
        0
 62
   257
 93
        1
300
CONTENTFORMAT
  1
CONTENTFORMAT_BEGIN
 90
        0
 91
        0
 92
      512
 93
        0
300

 40
0.0
140
1.0
 94
        2
 62
     0
340
55
144
0.18
309
CONTENTFORMAT_END
171
     0
 94
        0
309
TABLEFORMAT_END
  1
CELLSTYLE_BEGIN
 90
        3
 91
        2
300
_DATA
309
CELLSTYLE_END
  0
ENDSEC
  0
EOF
