  0
SECTION
  2
HEADER
  9
$ACADVER
  1
AC1027
  9
$ACADMAINTVER
 70
    20
  9
$DWGCODEPAGE
  3
ANSI_1252
  9
$REQUIREDVERSIONS
160
                 0
  9
$INSBASE
 10
0.0
 20
0.0
 30
0.0
  9
$EXTMIN
 10
580.6664074432033
 20
1002.92247535235
 30
-0.00000001
  9
$EXTMAX
 10
1749.187757320797
 20
2239.33792627887
 30
0.00000001
  9
$LIMMIN
 10
0.0
 20
0.0
  9
$LIMMAX
 10
12.0
 20
9.0
  9
$ORTHOMODE
 70
     0
  9
$REGENMODE
 70
     1
  9
$FILLMODE
 70
     1
  9
$QTEXTMODE
 70
     0
  9
$MIRRTEXT
 70
     0
  9
$LTSCALE
 40
1.0
  9
$ATTMODE
 70
     1
  9
$TEXTSIZE
 40
0.2
  9
$TRACEWID
 40
0.05
  9
$TEXTSTYLE
  7
Standard
  9
$CLAYER
  8
0
  9
$CELTYPE
  6
ByLayer
  9
$CECOLOR
 62
   256
  9
$CELTSCALE
 40
1.0
  9
$DISPSILH
 70
     0
  9
$DIMSCALE
 40
1.0
  9
$DIMASZ
 40
0.18
  9
$DIMEXO
 40
0.0625
  9
$DIMDLI
 40
0.38
  9
$DIMRND
 40
0.0
  9
$DIMDLE
 40
0.0
  9
$DIMEXE
 40
0.18
  9
$DIMTP
 40
0.0
  9
$DIMTM
 40
0.0
  9
$DIMTXT
 40
0.18
  9
$DIMCEN
 40
0.09
  9
$DIMTSZ
 40
0.0
  9
$DIMTOL
 70
     0
  9
$DIMLIM
 70
     0
  9
$DIMTIH
 70
     1
  9
$DIMTOH
 70
     1
  9
$DIMSE1
 70
     0
  9
$DIMSE2
 70
     0
  9
$DIMTAD
 70
     0
  9
$DIMZIN
 70
     0
  9
$DIMBLK
  1

  9
$DIMASO
 70
     1
  9
$DIMSHO
 70
     1
  9
$DIMPOST
  1

  9
$DIMAPOST
  1

  9
$DIMALT
 70
     0
  9
$DIMALTD
 70
     2
  9
$DIMALTF
 40
25.4
  9
$DIMLFAC
 40
1.0
  9
$DIMTOFL
 70
     0
  9
$DIMTVP
 40
0.0
  9
$DIMTIX
 70
     0
  9
$DIMSOXD
 70
     0
  9
$DIMSAH
 70
     0
  9
$DIMBLK1
  1

  9
$DIMBLK2
  1

  9
$DIMSTYLE
  2
Standard
  9
$DIMCLRD
 70
     0
  9
$DIMCLRE
 70
     0
  9
$DIMCLRT
 70
     0
  9
$DIMTFAC
 40
1.0
  9
$DIMGAP
 40
0.09
  9
$DIMJUST
 70
     0
  9
$DIMSD1
 70
     0
  9
$DIMSD2
 70
     0
  9
$DIMTOLJ
 70
     1
  9
$DIMTZIN
 70
     0
  9
$DIMALTZ
 70
     0
  9
$DIMALTTZ
 70
     0
  9
$DIMUPT
 70
     0
  9
$DIMDEC
 70
     4
  9
$DIMTDEC
 70
     4
  9
$DIMALTU
 70
     2
  9
$DIMALTTD
 70
     2
  9
$DIMTXSTY
  7
Standard
  9
$DIMAUNIT
 70
     0
  9
$DIMADEC
 70
     0
  9
$DIMALTRND
 40
0.0
  9
$DIMAZIN
 70
     0
  9
$DIMDSEP
 70
    46
  9
$DIMATFIT
 70
     3
  9
$DIMFRAC
 70
     0
  9
$DIMLDRBLK
  1

  9
$DIMLUNIT
 70
     2
  9
$DIMLWD
 70
    -2
  9
$DIMLWE
 70
    -2
  9
$DIMTMOVE
 70
     0
  9
$DIMFXL
 40
1.0
  9
$DIMFXLON
 70
     0
  9
$DIMJOGANG
 40
0.7853981633974483
  9
$DIMTFILL
 70
     0
  9
$DIMTFILLCLR
 70
     0
  9
$DIMARCSYM
 70
     0
  9
$DIMLTYPE
  6

  9
$DIMLTEX1
  6

  9
$DIMLTEX2
  6

  9
$DIMTXTDIRECTION
 70
     0
  9
$LUNITS
 70
     2
  9
$LUPREC
 70
     4
  9
$SKETCHINC
 40
0.1
  9
$FILLETRAD
 40
0.0
  9
$AUNITS
 70
     0
  9
$AUPREC
 70
     0
  9
$MENU
  1
.
  9
$ELEVATION
 40
0.0
  9
$PELEVATION
 40
0.0
  9
$THICKNESS
 40
0.0
  9
$LIMCHECK
 70
     0
  9
$CHAMFERA
 40
0.0
  9
$CHAMFERB
 40
0.0
  9
$CHAMFERC
 40
0.0
  9
$CHAMFERD
 40
0.0
  9
$SKPOLY
 70
     0
  9
$TDCREATE
 40
2457569.617052361
  9
$TDUCREATE
 40
2457569.533719028
  9
$TDUPDATE
 40
2457569.617052361
  9
$TDUUPDATE
 40
2457569.533719028
  9
$TDINDWG
 40
0.0000711806
  9
$TDUSRTIMER
 40
0.0000711806
  9
$USRTIMER
 70
     1
  9
$ANGBASE
 50
0.0
  9
$ANGDIR
 70
     0
  9
$PDMODE
 70
     0
  9
$PDSIZE
 40
0.0
  9
$PLINEWID
 40
0.0
  9
$SPLFRAME
 70
     0
  9
$SPLINETYPE
 70
     6
  9
$SPLINESEGS
 70
     8
  9
$HANDSEED
  5
324
  9
$SURFTAB1
 70
     6
  9
$SURFTAB2
 70
     6
  9
$SURFTYPE
 70
     6
  9
$SURFU
 70
     6
  9
$SURFV
 70
     6
  9
$UCSBASE
  2

  9
$UCSNAME
  2

  9
$UCSORG
 10
0.0
 20
0.0
 30
0.0
  9
$UCSXDIR
 10
1.0
 20
0.0
 30
0.0
  9
$UCSYDIR
 10
0.0
 20
1.0
 30
0.0
  9
$UCSORTHOREF
  2

  9
$UCSORTHOVIEW
 70
     0
  9
$UCSORGTOP
 10
0.0
 20
0.0
 30
0.0
  9
$UCSORGBOTTOM
 10
0.0
 20
0.0
 30
0.0
  9
$UCSORGLEFT
 10
0.0
 20
0.0
 30
0.0
  9
$UCSORGRIGHT
 10
0.0
 20
0.0
 30
0.0
  9
$UCSORGFRONT
 10
0.0
 20
0.0
 30
0.0
  9
$UCSORGBACK
 10
0.0
 20
0.0
 30
0.0
  9
$PUCSBASE
  2

  9
$PUCSNAME
  2

  9
$PUCSORG
 10
0.0
 20
0.0
 30
0.0
  9
$PUCSXDIR
 10
1.0
 20
0.0
 30
0.0
  9
$PUCSYDIR
 10
0.0
 20
1.0
 30
0.0
  9
$PUCSORTHOREF
  2

  9
$PUCSORTHOVIEW
 70
     0
  9
$PUCSORGTOP
 10
0.0
 20
0.0
 30
0.0
  9
$PUCSORGBOTTOM
 10
0.0
 20
0.0
 30
0.0
  9
$PUCSORGLEFT
 10
0.0
 20
0.0
 30
0.0
  9
$PUCSORGRIGHT
 10
0.0
 20
0.0
 30
0.0
  9
$PUCSORGFRONT
 10
0.0
 20
0.0
 30
0.0
  9
$PUCSORGBACK
 10
0.0
 20
0.0
 30
0.0
  9
$USERI1
 70
     0
  9
$USERI2
 70
     0
  9
$USERI3
 70
     0
  9
$USERI4
 70
     0
  9
$USERI5
 70
     0
  9
$USERR1
 40
0.0
  9
$USERR2
 40
0.0
  9
$USERR3
 40
0.0
  9
$USERR4
 40
0.0
  9
$USERR5
 40
0.0
  9
$WORLDVIEW
 70
     1
  9
$SHADEDGE
 70
     3
  9
$SHADEDIF
 70
    70
  9
$TILEMODE
 70
     1
  9
$MAXACTVP
 70
    64
  9
$PINSBASE
 10
0.0
 20
0.0
 30
0.0
  9
$PLIMCHECK
 70
     0
  9
$PEXTMIN
 10
1.000000000000000E+20
 20
1.000000000000000E+20
 30
1.000000000000000E+20
  9
$PEXTMAX
 10
-1.000000000000000E+20
 20
-1.000000000000000E+20
 30
-1.000000000000000E+20
  9
$PLIMMIN
 10
0.0
 20
0.0
  9
$PLIMMAX
 10
12.0
 20
9.0
  9
$UNITMODE
 70
     0
  9
$VISRETAIN
 70
     1
  9
$PLINEGEN
 70
     0
  9
$PSLTSCALE
 70
     1
  9
$TREEDEPTH
 70
  3020
  9
$CMLSTYLE
  2
Standard
  9
$CMLJUST
 70
     0
  9
$CMLSCALE
 40
1.0
  9
$PROXYGRAPHICS
 70
     1
  9
$MEASUREMENT
 70
     1
  9
$CELWEIGHT
370
    -1
  9
$ENDCAPS
280
     0
  9
$JOINSTYLE
280
     0
  9
$LWDISPLAY
290
     0
  9
$INSUNITS
 70
     4
  9
$HYPERLINKBASE
  1

  9
$STYLESHEET
  1

  9
$XEDIT
290
     1
  9
$CEPSNTYPE
380
     0
  9
$PSTYLEMODE
290
     1
  9
$FINGERPRINTGUID
  2
{EE0C965C-AED5-44DD-A13F-84DACBDA3D44}
  9
$VERSIONGUID
  2
{E984D6DC-E96A-4C13-A270-373339BFD21F}
  9
$EXTNAMES
290
     1
  9
$PSVPSCALE
 40
0.0
  9
$OLESTARTUP
290
     0
  9
$SORTENTS
280
   127
  9
$INDEXCTL
280
     0
  9
$HIDETEXT
280
     1
  9
$XCLIPFRAME
280
     2
  9
$HALOGAP
280
     0
  9
$OBSCOLOR
 70
   257
  9
$OBSLTYPE
280
     0
  9
$INTERSECTIONDISPLAY
280
     0
  9
$INTERSECTIONCOLOR
 70
   257
  9
$DIMASSOC
280
     2
  9
$PROJECTNAME
  1

  9
$CAMERADISPLAY
290
     0
  9
$LENSLENGTH
 40
50.0
  9
$CAMERAHEIGHT
 40
0.0
  9
$STEPSPERSEC
 40
2.0
  9
$STEPSIZE
 40
6.0
  9
$3DDWFPREC
 40
2.0
  9
$PSOLWIDTH
 40
0.25
  9
$PSOLHEIGHT
 40
4.0
  9
$LOFTANG1
 40
1.570796326794896
  9
$LOFTANG2
 40
1.570796326794896
  9
$LOFTMAG1
 40
0.0
  9
$LOFTMAG2
 40
0.0
  9
$LOFTPARAM
 70
     7
  9
$LOFTNORMALS
280
     1
  9
$LATITUDE
 40
37.795
  9
$LONGITUDE
 40
-122.394
  9
$NORTHDIRECTION
 40
0.0
  9
$TIMEZONE
 70
 -8000
  9
$LIGHTGLYPHDISPLAY
280
     1
  9
$TILEMODELIGHTSYNCH
280
     1
  9
$CMATERIAL
347
11
  9
$SOLIDHIST
280
     0
  9
$SHOWHIST
280
     1
  9
$DWFFRAME
280
     2
  9
$DGNFRAME
280
     0
  9
$REALWORLDSCALE
290
     1
  9
$INTERFERECOLOR
 62
     1
  9
$INTERFEREOBJVS
345
33
  9
$INTERFEREVPVS
346
30
  9
$CSHADOW
280
     0
  9
$SHADOWPLANELOCATION
 40
0.0
  0
ENDSEC
  0
SECTION
  2
CLASSES
  0
CLASS
  1
ACDBDICTIONARYWDFLT
  2
AcDbDictionaryWithDefault
  3
ObjectDBX Classes
 90
        0
 91
        1
280
     0
281
     0
  0
CLASS
  1
MATERIAL
  2
AcDbMaterial
  3
ObjectDBX Classes
 90
     1153
 91
        3
280
     0
281
     0
  0
CLASS
  1
VISUALSTYLE
  2
AcDbVisualStyle
  3
ObjectDBX Classes
 90
     4095
 91
       24
280
     0
281
     0
  0
CLASS
  1
SCALE
  2
AcDbScale
  3
ObjectDBX Classes
 90
     1153
 91
       17
280
     0
281
     0
  0
CLASS
  1
TABLESTYLE
  2
AcDbTableStyle
  3
ObjectDBX Classes
 90
     4095
 91
        1
280
     0
281
     0
  0
CLASS
  1
MLEADERSTYLE
  2
AcDbMLeaderStyle
  3
ACDB_MLEADERSTYLE_CLASS
 90
     4095
 91
        1
280
     0
281
     0
  0
CLASS
  1
ACDBSECTIONVIEWSTYLE
  2
AcDbSectionViewStyle
  3
ObjectDBX Classes
 90
     1025
 91
        1
280
     0
281
     0
  0
CLASS
  1
ACDBDETAILVIEWSTYLE
  2
AcDbDetailViewStyle
  3
ObjectDBX Classes
 90
     1025
 91
        1
280
     0
281
     0
  0
CLASS
  1
RASTERVARIABLES
  2
AcDbRasterVariables
  3
ISM
 90
        0
 91
        1
280
     0
281
     0
  0
CLASS
  1
DICTIONARYVAR
  2
AcDbDictionaryVar
  3
ObjectDBX Classes
 90
        0
 91
        5
280
     0
281
     0
  0
CLASS
  1
CELLSTYLEMAP
  2
AcDbCellStyleMap
  3
ObjectDBX Classes
 90
     1152
 91
        2
280
     0
281
     0
  0
CLASS
  1
SORTENTSTABLE
  2
AcDbSortentsTable
  3
ObjectDBX Classes
 90
        0
 91
        1
280
     0
281
     0
  0
ENDSEC
  0
SECTION
  2
TABLES
  0
TABLE
  2
VPORT
  5
8
330
0
100
AcDbSymbolTable
 70
     1
  0
VPORT
  5
57
330
8
100
AcDbSymbolTableRecord
100
AcDbViewportTableRecord
  2
*Active
 70
     0
 10
0.0
 20
0.0
 11
1.0
 21
1.0
 12
1164.927082382
 22
1621.13020081561
 13
0.0
 23
0.0
 14
1.0
 24
1.0
 15
0.0
 25
0.0
 16
0.0
 26
0.0
 36
1.0
 17
0.0
 27
0.0
 37
0.0
 40
1236.41545092652
 41
0.9450879548633524
 42
50.0
 43
0.0
 44
0.0
 50
0.0
 51
0.0
 71
     0
 72
  1000
 73
     1
 74
     1
 75
     0
 76
     0
 77
     0
 78
     0
281
     0
 65
     1
110
0.0
120
0.0
130
0.0
111
1.0
121
0.0
131
0.0
112
0.0
122
1.0
132
0.0
 79
     0
146
0.0
 60
     3
 61
     5
292
     1
282
     1
141
0.0
142
0.0
 63
   250
421
  3355443
  0
ENDTAB
  0
TABLE
  2
LTYPE
  5
5
330
0
100
AcDbSymbolTable
 70
     3
  0
LTYPE
  5
5B
330
5
100
AcDbSymbolTableRecord
100
AcDbLinetypeTableRecord
  2
ByBlock
 70
     0
  3

 72
    65
 73
     0
 40
0.0
  0
LTYPE
  5
5C
330
5
100
AcDbSymbolTableRecord
100
AcDbLinetypeTableRecord
  2
ByLayer
 70
     0
  3

 72
    65
 73
     0
 40
0.0
  0
LTYPE
  5
5D
330
5
100
AcDbSymbolTableRecord
100
AcDbLinetypeTableRecord
  2
Continuous
 70
     0
  3
Solid line
 72
    65
 73
     0
 40
0.0
  0
LTYPE
  5
69
330
5
100
AcDbSymbolTableRecord
100
AcDbLinetypeTableRecord
  2
PHANTOM2
 70
     0
  3
___ _ _ ___ _ _ ___ _ _ ___ _ _
 72
    65
 73
     6
 40
1.25
 49
0.625
 74
     0
 49
-0.125
 74
     0
 49
0.125
 74
     0
 49
-0.125
 74
     0
 49
0.125
 74
     0
 49
-0.125
 74
     0
  0
LTYPE
  5
86
330
5
100
AcDbSymbolTableRecord
100
AcDbLinetypeTableRecord
  2
Nascosto 1_5 mm
 70
     0
  3

 72
    65
 73
     2
 40
2.2
 49
1.5
 74
     0
 49
-0.7000000000000001
 74
     0
  0
ENDTAB
  0
TABLE
  2
LAYER
  5
2
330
0
100
AcDbSymbolTable
 70
     3
  0
LAYER
  5
54
330
2
100
AcDbSymbolTableRecord
100
AcDbLayerTableRecord
  2
0
 70
     0
 62
     7
  6
Continuous
370
    -3
390
F
347
21
348
0
  0
LAYER
  5
85
330
2
100
AcDbSymbolTableRecord
100
AcDbLayerTableRecord
  2
P-SANR-FIXT
 70
     0
 62
     6
  6
Continuous
370
    18
390
F
347
21
348
0
  0
ENDTAB
  0
TABLE
  2
STYLE
  5
3
330
0
100
AcDbSymbolTable
 70
     2
  0
STYLE
  5
55
330
3
100
AcDbSymbolTableRecord
100
AcDbTextStyleTableRecord
  2
Standard
 70
     0
 40
0.0
 41
1.0
 50
0.0
 71
     0
 42
0.2
  3
txt
  4

  0
STYLE
  5
5A
330
3
100
AcDbSymbolTableRecord
100
AcDbTextStyleTableRecord
  2
Annotative
 70
     0
 40
0.0
 41
1.0
 50
0.0
 71
     0
 42
0.2
  3
txt
  4

1001
AcadAnnotative
1000
AnnotativeData
1002
{
1070
     1
1070
     1
1002
}
  0
ENDTAB
  0
TABLE
  2
VIEW
  5
6
330
0
100
AcDbSymbolTable
 70
     0
  0
ENDTAB
  0
TABLE
  2
UCS
  5
7
330
0
100
AcDbSymbolTable
 70
     0
  0
ENDTAB
  0
TABLE
  2
APPID
  5
9
330
0
100
AcDbSymbolTable
 70
     3
  0
APPID
  5
56
330
9
100
AcDbSymbolTableRecord
100
AcDbRegAppTableRecord
  2
ACAD
 70
     0
  0
APPID
  5
5E
330
9
100
AcDbSymbolTableRecord
100
AcDbRegAppTableRecord
  2
AcadAnnotative
 70
     0
  0
APPID
  5
79
330
9
100
AcDbSymbolTableRecord
100
AcDbRegAppTableRecord
  2
REVIT
 70
     0
  0
ENDTAB
  0
TABLE
  2
DIMSTYLE
  5
A
330
0
100
AcDbSymbolTable
 70
     2
100
AcDbDimStyleTable
 71
     0
  0
DIMSTYLE
105
58
330
A
100
AcDbSymbolTableRecord
100
AcDbDimStyleTableRecord
  2
Standard
 70
     0
340
55
  0
DIMSTYLE
105
59
330
A
100
AcDbSymbolTableRecord
100
AcDbDimStyleTableRecord
  2
Annotative
 70
     0
340
55
1001
AcadAnnotative
1000
AnnotativeData
1002
{
1070
     1
1070
     1
1002
}
  0
ENDTAB
  0
TABLE
  2
BLOCK_RECORD
  5
1
330
0
100
AcDbSymbolTable
 70
     4
  0
BLOCK_RECORD
  5
71
102
{ACAD_XDICTIONARY
360
31F
102
}
330
1
100
AcDbSymbolTableRecord
100
AcDbBlockTableRecord
  2
*Model_Space
340
74
 70
     0
280
     1
281
     0
  0
BLOCK_RECORD
  5
6D
330
1
100
AcDbSymbolTableRecord
100
AcDbBlockTableRecord
  2
*Paper_Space
340
70
 70
     0
280
     1
281
     0
  0
BLOCK_RECORD
  5
75
330
1
100
AcDbSymbolTableRecord
100
AcDbBlockTableRecord
  2
*Paper_Space0
340
78
 70
     0
280
     1
281
     0
  0
BLOCK_RECORD
  5
87
330
1
100
AcDbSymbolTableRecord
100
AcDbBlockTableRecord
  2
Automatic flow rate regulator valve_Caleffi_121 DN15 - 1_2__-859151-Est - Idraulica
340
0
102
{BLKREFS
331
182
102
}
 70
     0
280
     1
281
     0
  0
BLOCK_RECORD
  5
183
330
1
100
AcDbSymbolTableRecord
100
AcDbBlockTableRecord
  2
Automatic flow rate regulator valve_Caleffi_121 DN15 - 1_2__-V1-Est - Idraulica
340
0
102
{BLKREFS
331
26A
102
}
 70
     0
280
     1
281
     0
  0
BLOCK_RECORD
  5
26B
330
1
100
AcDbSymbolTableRecord
100
AcDbBlockTableRecord
  2
Automatic flow rate regulator valve_Caleffi_121 DN15 - 1_2__-V2-Est - Idraulica
340
0
102
{BLKREFS
331
319
102
}
 70
     0
280
     1
281
     0
  0
ENDTAB
  0
ENDSEC
  0
SECTION
  2
BLOCKS
  0
BLOCK
  5
72
330
71
100
AcDbEntity
  8
0
100
AcDbBlockBegin
  2
*Model_Space
 70
     0
 10
0.0
 20
0.0
 30
0.0
  3
*Model_Space
  1

  0
ENDBLK
  5
73
330
71
100
AcDbEntity
  8
0
100
AcDbBlockEnd
  0
BLOCK
  5
6E
330
6D
100
AcDbEntity
 67
     1
  8
0
100
AcDbBlockBegin
  2
*Paper_Space
 70
     0
 10
0.0
 20
0.0
 30
0.0
  3
*Paper_Space
  1

  0
ENDBLK
  5
6F
330
6D
100
AcDbEntity
 67
     1
  8
0
100
AcDbBlockEnd
  0
BLOCK
  5
76
330
75
100
AcDbEntity
 67
     1
  8
0
100
AcDbBlockBegin
  2
*Paper_Space0
 70
     0
 10
0.0
 20
0.0
 30
0.0
  3
*Paper_Space0
  1

  0
ENDBLK
  5
77
330
75
100
AcDbEntity
 67
     1
  8
0
100
AcDbBlockEnd
  0
BLOCK
  5
180
330
87
100
AcDbEntity
  8
0
100
AcDbBlockBegin
  2
Automatic flow rate regulator valve_Caleffi_121 DN15 - 1_2__-859151-Est - Idraulica
 70
     0
 10
0.0
 20
0.0
 30
0.0
  3
Automatic flow rate regulator valve_Caleffi_121 DN15 - 1_2__-859151-Est - Idraulica
  1

  0
LINE
  5
88
330
87
100
AcDbEntity
  8
P-SANR-FIXT
100
AcDbLine
 10
1036.986996184824
 20
2143.621908514787
 30
0.0
 11
1034.002895984545
 21
2143.621908514787
 31
0.0
  0
LINE
  5
89
330
87
100
AcDbEntity
  8
P-SANR-FIXT
100
AcDbLine
 10
1034.002895984545
 20
2130.501526882264
 30
0.0
 11
1036.986996184824
 21
2130.501526882264
 31
0.0
  0
LINE
  5
8A
330
87
100
AcDbEntity
  8
P-SANR-FIXT
100
AcDbLine
 10
1034.002895984545
 20
2143.621908514787
 30
0.0
 11
1031.72801403699
 21
2145.896790462342
 31
0.0
  0
LINE
  5
8B
330
87
100
AcDbEntity
  8
P-SANR-FIXT
100
AcDbLine
 10
1031.72801403699
 20
2128.226644934708
 30
0.0
 11
1034.002895984545
 21
2130.501526882264
 31
0.0
  0
LINE
  5
8C
330
87
100
AcDbEntity
  8
P-SANR-FIXT
100
AcDbLine
 10
1031.72801403699
 20
2145.896790462342
 30
0.0
 11
1019.443651520194
 21
2145.896790462342
 31
0.0
  0
LINE
  5
8D
330
87
100
AcDbEntity
  8
P-SANR-FIXT
100
AcDbLine
 10
1019.443651520194
 20
2128.226644934708
 30
0.0
 11
1031.72801403699
 21
2128.226644934708
 31
0.0
  0
LINE
  5
8E
330
87
100
AcDbEntity
  8
P-SANR-FIXT
100
AcDbLine
 10
1019.443651520194
 20
2149.132785510391
 30
0.0
 11
1012.91831581032
 21
2149.132785510391
 31
0.0
  0
LINE
  5
8F
330
87
100
AcDbEntity
  8
P-SANR-FIXT
100
AcDbLine
 10
1012.91831581032
 20
2124.990649886659
 30
0.0
 11
1019.443651520194
 21
2124.990649886659
 31
0.0
  0
LINE
  5
90
330
87
100
AcDbEntity
  8
P-SANR-FIXT
100
AcDbLine
 10
1012.91831581032
 20
2144.132785510391
 30
0.0
 11
1010.007781904387
 21
2141.222251604459
 31
0.0
  0
LINE
  5
91
330
87
100
AcDbEntity
  8
P-SANR-FIXT
100
AcDbLine
 10
1010.007781904387
 20
2132.901183792592
 30
0.0
 11
1012.91831581032
 21
2129.990649886659
 31
0.0
  0
LINE
  5
92
330
87
100
AcDbEntity
  8
P-SANR-FIXT
100
AcDbLine
 10
1010.007781904387
 20
2141.222251604458
 30
0.0
 11
995.0077819043873
 21
2141.222251604458
 31
0.0
  0
LINE
  5
93
330
87
100
AcDbEntity
  8
P-SANR-FIXT
100
AcDbLine
 10
995.0077819043873
 20
2132.901183792593
 30
0.0
 11
1010.007781904387
 21
2132.901183792592
 31
0.0
  0
LINE
  5
94
330
87
100
AcDbEntity
  8
P-SANR-FIXT
100
AcDbLine
 10
995.0077819043873
 20
2141.222251604459
 30
0.0
 11
990.8472479984544
 21
2137.061717698526
 31
0.0
  0
LINE
  5
95
330
87
100
AcDbEntity
  8
P-SANR-FIXT
100
AcDbLine
 10
990.8472479984544
 20
2137.061717698525
 30
0.0
 11
995.0077819043873
 21
2132.901183792592
 31
0.0
  0
LINE
  5
96
330
87
100
AcDbEntity
  8
P-SANR-FIXT
100
AcDbLine
 10
1038.451462278891
 20
2195.082498435392
 30
0.0
 11
1038.451462278891
 21
2190.082498435392
 31
0.0
  0
LINE
  5
97
330
87
100
AcDbEntity
  8
P-SANR-FIXT
100
AcDbLine
 10
1048.451462278891
 20
2190.082498435392
 30
0.0
 11
1048.451462278891
 21
2195.082498435392
 31
0.0
  0
LINE
  5
98
330
87
100
AcDbEntity
  8
P-SANR-FIXT
100
AcDbLine
 10
1033.451462278891
 20
2190.082498435392
 30
0.0
 11
1033.451462278891
 21
2182.786761508857
 31
0.0
  0
LINE
  5
99
330
87
100
AcDbEntity
  8
P-SANR-FIXT
100
AcDbLine
 10
1053.451462278891
 20
2182.786761508857
 30
0.0
 11
1053.451462278891
 21
2190.082498435392
 31
0.0
  0
LINE
  5
9A
330
87
100
AcDbEntity
  8
P-SANR-FIXT
100
AcDbLine
 10
1038.451462278891
 20
2182.786761508857
 30
0.0
 11
1036.93441886385
 21
2181.269718093816
 31
0.0
  0
LINE
  5
9B
330
87
100
AcDbEntity
  8
P-SANR-FIXT
100
AcDbLine
 10
1049.968505693932
 20
2181.269718093816
 30
0.0
 11
1048.451462278891
 21
2182.786761508857
 31
0.0
  0
LINE
  5
9C
330
87
100
AcDbEntity
  8
P-SANR-FIXT
100
AcDbLine
 10
1033.451462278891
 20
2181.269718093816
 30
0.0
 11
1033.451462278891
 21
2164.807315371879
 31
0.0
  0
LINE
  5
9D
330
87
100
AcDbEntity
  8
P-SANR-FIXT
100
AcDbLine
 10
1053.451462278891
 20
2164.807315371879
 30
0.0
 11
1053.451462278891
 21
2181.269718093816
 31
0.0
  0
LINE
  5
9E
330
87
100
AcDbEntity
  8
P-SANR-FIXT
100
AcDbLine
 10
1031.579577989912
 20
2164.807315371879
 30
0.0
 11
1031.579577989912
 21
2159.807315371879
 31
0.0
  0
LINE
  5
9F
330
87
100
AcDbEntity
  8
P-SANR-FIXT
100
AcDbLine
 10
1055.32334656787
 20
2159.807315371879
 30
0.0
 11
1055.32334656787
 21
2164.807315371879
 31
0.0
  0
LINE
  5
A0
330
87
100
AcDbEntity
  8
P-SANR-FIXT
100
AcDbLine
 10
1033.451462278891
 20
2159.807315371879
 30
0.0
 11
1033.451462278891
 21
2151.15802368655
 31
0.0
  0
LINE
  5
A1
330
87
100
AcDbEntity
  8
P-SANR-FIXT
100
AcDbLine
 10
1053.451462278891
 20
2151.15802368655
 30
0.0
 11
1053.451462278891
 21
2159.807315371879
 31
0.0
  0
LINE
  5
A2
330
87
100
AcDbEntity
  8
P-SANR-FIXT
100
AcDbLine
 10
1033.451462278891
 20
2151.15802368655
 30
0.0
 11
1036.986996184824
 21
2147.622489780617
 31
0.0
  0
LINE
  5
A3
330
87
100
AcDbEntity
  8
P-SANR-FIXT
100
AcDbLine
 10
1049.915928372958
 20
2147.622489780617
 30
0.0
 11
1053.451462278891
 21
2151.15802368655
 31
0.0
  0
LINE
  5
A4
330
87
100
AcDbEntity
  8
P-SANR-FIXT
100
AcDbLine
 10
1036.986996184824
 20
2147.622489780617
 30
0.0
 11
1036.986996184824
 21
2143.621908514787
 31
0.0
  0
LINE
  5
A5
330
87
100
AcDbEntity
  8
P-SANR-FIXT
100
AcDbLine
 10
1036.986996184824
 20
2130.501526882264
 30
0.0
 11
1036.986996184824
 21
2113.437500000008
 31
0.0
  0
LINE
  5
A6
330
87
100
AcDbEntity
  8
P-SANR-FIXT
100
AcDbLine
 10
1049.915928372958
 20
2113.42411343654
 30
0.0
 11
1049.915928372958
 21
2147.622489780617
 31
0.0
  0
LINE
  5
A7
330
87
100
AcDbEntity
  8
P-SANR-FIXT
100
AcDbLine
 10
925.7080015920132
 20
2151.441574399155
 30
0.0
 11
916.09538463263
 21
2148.685200840986
 31
0.0
  0
LINE
  5
A8
330
87
100
AcDbEntity
  8
P-SANR-FIXT
100
AcDbLine
 10
920.1806407452034
 20
2134.438219667207
 30
0.0
 11
929.7932577045866
 21
2137.194593225378
 31
0.0
  0
LINE
  5
A9
330
87
100
AcDbEntity
  8
P-SANR-FIXT
100
AcDbLine
 10
914.717197853545
 20
2153.491509320677
 30
0.0
 11
904.092060507871
 21
2158.446092233914
 31
0.0
  0
LINE
  5
AA
330
87
100
AcDbEntity
  8
P-SANR-FIXT
100
AcDbLine
 10
915.1737289588536
 20
2119.799721616101
 30
0.0
 11
921.5588275242883
 21
2129.631911187516
 31
0.0
  0
LINE
  5
AB
330
87
100
AcDbEntity
  8
P-SANR-FIXT
100
AcDbLine
 10
904.092060507871
 20
2158.446092233913
 30
0.0
 11
899.0920605078711
 21
2158.446092233913
 31
0.0
  0
LINE
  5
AC
330
87
100
AcDbEntity
  8
P-SANR-FIXT
100
AcDbLine
 10
910.9334884780716
 20
2117.150125294935
 30
0.0
 11
915.1737289588536
 21
2119.799721616101
 31
0.0
  0
LINE
  5
AD
330
87
100
AcDbEntity
  8
P-SANR-FIXT
100
AcDbLine
 10
899.0920605078711
 20
2158.446092233914
 30
0.0
 11
891.9148201230811
 21
2161.792894389761
 31
0.0
  0
LINE
  5
AE
330
87
100
AcDbEntity
  8
P-SANR-FIXT
100
AcDbLine
 10
906.6203783700542
 20
2110.508518154524
 30
0.0
 11
910.9334884780716
 21
2117.150125294934
 31
0.0
  0
LINE
  5
AF
330
87
100
AcDbEntity
  8
P-SANR-FIXT
100
AcDbLine
 10
891.9148201230811
 20
2161.792894389761
 30
0.0
 11
884.7876890541501
 21
2159.749222442046
 31
0.0
  0
LINE
  5
B0
330
87
100
AcDbEntity
  8
P-SANR-FIXT
100
AcDbLine
 10
899.493247301123
 20
2108.46484620681
 30
0.0
 11
906.6203783700542
 21
2110.508518154524
 31
0.0
  0
LINE
  5
B1
330
87
100
AcDbEntity
  8
P-SANR-FIXT
100
AcDbLine
 10
884.7876890541501
 20
2159.749222442046
 30
0.0
 11
881.7799465424226
 21
2153.299097810536
 31
0.0
  0
LINE
  5
B2
330
87
100
AcDbEntity
  8
P-SANR-FIXT
100
AcDbLine
 10
893.5244916913815
 20
2112.341001421716
 30
0.0
 11
899.4932473011228
 21
2108.46484620681
 31
0.0
  0
LINE
  5
B3
330
87
100
AcDbEntity
  8
P-SANR-FIXT
100
AcDbLine
 10
881.7799465424226
 20
2153.299097810536
 30
0.0
 11
868.9005682554626
 21
2149.605995515308
 31
0.0
  0
LINE
  5
B4
330
87
100
AcDbEntity
  8
P-SANR-FIXT
100
AcDbLine
 10
886.5339761499349
 20
2110.336503346131
 30
0.0
 11
893.5244916913815
 21
2112.341001421716
 31
0.0
  0
LINE
  5
B5
330
87
100
AcDbEntity
  8
P-SANR-FIXT
100
AcDbLine
 10
597.686113452609
 20
2143.002453316048
 30
0.0
 11
597.686113452609
 21
2140.658323401525
 31
0.0
  0
LINE
  5
B6
330
87
100
AcDbEntity
  8
P-SANR-FIXT
100
AcDbLine
 10
607.686113452609
 20
2140.658323401525
 30
0.0
 11
607.686113452609
 21
2143.002453316048
 31
0.0
  0
LINE
  5
B7
330
87
100
AcDbEntity
  8
P-SANR-FIXT
100
AcDbLine
 10
593.6102139185615
 20
2140.658323401525
 30
0.0
 11
593.6102139185615
 21
2128.243417400239
 31
0.0
  0
LINE
  5
B8
330
87
100
AcDbEntity
  8
P-SANR-FIXT
100
AcDbLine
 10
611.7620129866562
 20
2128.243417400239
 30
0.0
 11
611.7620129866564
 21
2140.658323401525
 31
0.0
  0
LINE
  5
B9
330
87
100
AcDbEntity
  8
P-SANR-FIXT
100
AcDbLine
 10
596.0034488103758
 20
2128.243417400239
 30
0.0
 11
596.0034488103758
 21
2113.425874746586
 31
0.0
  0
LINE
  5
BA
330
87
100
AcDbEntity
  8
P-SANR-FIXT
100
AcDbLine
 10
609.3687780948421
 20
2113.002453316048
 30
0.0
 11
609.3687780948421
 21
2128.243417400239
 31
0.0
  0
SPLINE
  5
BB
330
87
100
AcDbEntity
  8
P-SANR-FIXT
100
AcDbSpline
210
0.0
220
0.0
230
1.0
 70
     8
 71
     3
 72
    12
 73
     8
 74
     0
 42
0.000000001
 43
0.0000000001
 40
0.0
 40
0.0
 40
0.0
 40
0.0
 40
0.1666666666666666
 40
0.3333333333333333
 40
0.5
 40
0.6666666666666666
 40
1.0
 40
1.0
 40
1.0
 40
1.0
 10
1036.986996184822
 20
2130.501526882262
 30
0.0
 10
1036.990409676753
 20
2130.501526882262
 30
0.0
 10
1037.024080425946
 20
2130.532404887355
 30
0.0
 10
1037.150076165996
 20
2130.663877372182
 30
0.0
 10
1037.366686561503
 20
2130.874309303246
 30
0.0
 10
1037.745229604437
 20
2131.246320652163
 30
0.0
 10
1038.102668083129
 20
2131.606926966293
 30
0.0
 10
1038.382043733587
 20
2131.870784636745
 30
0.0
  0
LINE
  5
BC
330
87
100
AcDbEntity
  8
P-SANR-FIXT
100
AcDbLine
 10
1038.382043733587
 20
2142.252650760303
 30
0.0
 11
1038.382043733587
 21
2131.870784636745
 31
0.0
  0
SPLINE
  5
BD
330
87
100
AcDbEntity
  8
P-SANR-FIXT
100
AcDbSpline
210
0.0
220
0.0
230
1.0
 70
     8
 71
     3
 72
    12
 73
     8
 74
     0
 42
0.000000001
 43
0.0000000001
 40
0.0
 40
0.0
 40
0.0
 40
0.0
 40
0.3333333333333333
 40
0.5
 40
0.6666666666666666
 40
0.8333333333333332
 40
1.0
 40
1.0
 40
1.0
 40
1.0
 10
1038.382043733587
 20
2142.252650760303
 30
0.0
 10
1038.102668083129
 20
2142.516508430755
 30
0.0
 10
1037.745229604437
 20
2142.877114744885
 30
0.0
 10
1037.366686561503
 20
2143.249126093803
 30
0.0
 10
1037.150076165996
 20
2143.459558024867
 30
0.0
 10
1037.024080425946
 20
2143.591030509693
 30
0.0
 10
1036.990409676753
 20
2143.621908514786
 30
0.0
 10
1036.986996184822
 20
2143.621908514786
 30
0.0
  0
LINE
  5
BE
330
87
100
AcDbEntity
  8
P-SANR-FIXT
100
AcDbLine
 10
1034.002895984543
 20
2143.621908514786
 30
0.0
 11
1034.002895984543
 21
2130.501526882262
 31
0.0
  0
LINE
  5
BF
330
87
100
AcDbEntity
  8
P-SANR-FIXT
100
AcDbLine
 10
1031.728014036988
 20
2145.896790462341
 30
0.0
 11
1031.728014036988
 21
2128.226644934708
 31
0.0
  0
LINE
  5
C0
330
87
100
AcDbEntity
  8
P-SANR-FIXT
100
AcDbLine
 10
1019.443651520192
 20
2149.13278551039
 30
0.0
 11
1019.443651520192
 21
2124.990649886659
 31
0.0
  0
LINE
  5
C1
330
87
100
AcDbEntity
  8
P-SANR-FIXT
100
AcDbLine
 10
1012.918315810318
 20
2149.13278551039
 30
0.0
 11
1012.918315810318
 21
2124.990649886659
 31
0.0
  0
LINE
  5
C2
330
87
100
AcDbEntity
  8
P-SANR-FIXT
100
AcDbLine
 10
1010.007781904385
 20
2141.222251604457
 30
0.0
 11
1010.007781904385
 21
2132.901183792592
 31
0.0
  0
LINE
  5
C3
330
87
100
AcDbEntity
  8
P-SANR-FIXT
100
AcDbLine
 10
995.0077819043851
 20
2141.222251604457
 30
0.0
 11
995.0077819043851
 21
2132.901183792592
 31
0.0
  0
LINE
  5
C4
330
87
100
AcDbEntity
  8
P-SANR-FIXT
100
AcDbLine
 10
1038.451462278889
 20
2195.082498435391
 30
0.0
 11
1048.451462278889
 21
2195.082498435391
 31
0.0
  0
LINE
  5
C5
330
87
100
AcDbEntity
  8
P-SANR-FIXT
100
AcDbLine
 10
1033.451462278889
 20
2190.082498435391
 30
0.0
 11
1053.451462278889
 21
2190.082498435391
 31
0.0
  0
LINE
  5
C6
330
87
100
AcDbEntity
  8
P-SANR-FIXT
100
AcDbLine
 10
1033.451462278889
 20
2182.786761508856
 30
0.0
 11
1053.451462278889
 21
2182.786761508856
 31
0.0
  0
LINE
  5
C7
330
87
100
AcDbEntity
  8
P-SANR-FIXT
100
AcDbLine
 10
1033.451462278889
 20
2181.269718093815
 30
0.0
 11
1053.451462278889
 21
2181.269718093815
 31
0.0
  0
LINE
  5
C8
330
87
100
AcDbEntity
  8
P-SANR-FIXT
100
AcDbLine
 10
1031.57957798991
 20
2164.807315371878
 30
0.0
 11
1055.323346567868
 21
2164.807315371878
 31
0.0
  0
LINE
  5
C9
330
87
100
AcDbEntity
  8
P-SANR-FIXT
100
AcDbLine
 10
1031.57957798991
 20
2159.807315371878
 30
0.0
 11
1055.323346567868
 21
2159.807315371878
 31
0.0
  0
LINE
  5
CA
330
87
100
AcDbEntity
  8
P-SANR-FIXT
100
AcDbLine
 10
1033.451462278889
 20
2151.158023686548
 30
0.0
 11
1053.451462278889
 21
2151.158023686548
 31
0.0
  0
LINE
  5
CB
330
87
100
AcDbEntity
  8
P-SANR-FIXT
100
AcDbLine
 10
1036.986996184822
 20
2147.622489780616
 30
0.0
 11
1049.915928372956
 21
2147.622489780616
 31
0.0
  0
LINE
  5
CC
330
87
100
AcDbEntity
  8
P-SANR-FIXT
100
AcDbLine
 10
925.7080015920113
 20
2151.441574399155
 30
0.0
 11
929.7932577045846
 21
2137.194593225377
 31
0.0
  0
LINE
  5
CD
330
87
100
AcDbEntity
  8
P-SANR-FIXT
100
AcDbLine
 10
914.717197853543
 20
2153.491509320676
 30
0.0
 11
921.5588275242863
 21
2129.631911187515
 31
0.0
  0
LINE
  5
CE
330
87
100
AcDbEntity
  8
P-SANR-FIXT
100
AcDbLine
 10
904.0920605078692
 20
2158.446092233912
 30
0.0
 11
915.1737289588519
 21
2119.7997216161
 31
0.0
  0
LINE
  5
CF
330
87
100
AcDbEntity
  8
P-SANR-FIXT
100
AcDbLine
 10
899.0920605078693
 20
2158.446092233912
 30
0.0
 11
910.9334884780697
 21
2117.150125294934
 31
0.0
  0
LINE
  5
D0
330
87
100
AcDbEntity
  8
P-SANR-FIXT
100
AcDbLine
 10
891.9148201230795
 20
2161.792894389759
 30
0.0
 11
906.6203783700522
 21
2110.508518154523
 31
0.0
  0
LINE
  5
D1
330
87
100
AcDbEntity
  8
P-SANR-FIXT
100
AcDbLine
 10
884.7876890541483
 20
2159.749222442045
 30
0.0
 11
899.4932473011211
 21
2108.464846206808
 31
0.0
  0
LINE
  5
D2
330
87
100
AcDbEntity
  8
P-SANR-FIXT
100
AcDbLine
 10
881.779946542421
 20
2153.299097810535
 30
0.0
 11
893.5244916913795
 21
2112.341001421714
 31
0.0
  0
LINE
  5
D3
330
87
100
AcDbEntity
  8
P-SANR-FIXT
100
AcDbLine
 10
597.6861134526074
 20
2143.002453316046
 30
0.0
 11
607.6861134526073
 21
2143.002453316046
 31
0.0
  0
LINE
  5
D4
330
87
100
AcDbEntity
  8
P-SANR-FIXT
100
AcDbLine
 10
593.6102139185601
 20
2140.658323401524
 30
0.0
 11
611.7620129866548
 21
2140.658323401524
 31
0.0
  0
LINE
  5
D5
330
87
100
AcDbEntity
  8
P-SANR-FIXT
100
AcDbLine
 10
593.6102139185599
 20
2128.243417400238
 30
0.0
 11
611.7620129866548
 21
2128.243417400238
 31
0.0
  0
LINE
  5
D6
330
87
100
AcDbEntity
  8
P-SANR-FIXT
100
AcDbLine
 10
710.823038935537
 20
2202.95713132694
 30
0.0
 11
722.8300253842022
 21
2206.174393649391
 31
0.0
  0
LINE
  5
D7
330
87
100
AcDbEntity
  8
P-SANR-FIXT
100
AcDbLine
 10
721.4762753152765
 20
2211.189543046145
 30
0.0
 11
718.6456535327528
 21
2210.431080225439
 31
0.0
  0
LINE
  5
D8
330
87
100
AcDbEntity
  8
P-SANR-FIXT
100
AcDbLine
 10
718.6456535327528
 20
2210.431080225439
 30
0.0
 11
710.8310309629675
 21
2228.841177294488
 31
0.0
  0
LINE
  5
D9
330
87
100
AcDbEntity
  8
P-SANR-FIXT
100
AcDbLine
 10
710.8310309629675
 20
2228.841177294488
 30
0.0
 11
704.352562807974
 21
2227.105276984167
 31
0.0
  0
LINE
  5
DA
330
87
100
AcDbEntity
  8
P-SANR-FIXT
100
AcDbLine
 10
704.352562807974
 20
2227.105276984167
 30
0.0
 11
710.823038935537
 21
2202.95713132694
 31
0.0
  0
LINE
  5
DB
330
87
100
AcDbEntity
  8
P-SANR-FIXT
100
AcDbLine
 10
719.4705939913136
 20
2234.065146440722
 30
0.0
 11
724.089985406168
 21
2216.951988998033
 31
0.0
  0
LINE
  5
DC
330
87
100
AcDbEntity
  8
P-SANR-FIXT
100
AcDbLine
 10
743.3988967041855
 20
2222.164084976169
 30
0.0
 11
738.779505289331
 21
2239.277242418857
 31
0.0
  0
LINE
  5
DD
330
87
100
AcDbEntity
  8
P-SANR-FIXT
100
AcDbLine
 10
724.089985406168
 20
2216.951988998033
 30
0.0
 11
720.4951298803231
 21
2215.275680336371
 31
0.0
  0
LINE
  5
DE
330
87
100
AcDbEntity
  8
P-SANR-FIXT
100
AcDbLine
 10
720.3854374255119
 20
2215.22452990465
 30
0.0
 11
720.2318259830665
 21
2215.152899712658
 31
0.0
  0
LINE
  5
DF
330
87
100
AcDbEntity
  8
P-SANR-FIXT
100
AcDbLine
 10
747.6383042228978
 20
2222.55078936081
 30
0.0
 11
747.4695135036332
 21
2222.535392843505
 31
0.0
  0
LINE
  5
E0
330
87
100
AcDbEntity
  8
P-SANR-FIXT
100
AcDbLine
 10
747.3750003256413
 20
2222.526771671755
 30
0.0
 11
743.3988967041852
 21
2222.164084976169
 31
0.0
  0
LINE
  5
E1
330
87
100
AcDbEntity
  8
P-SANR-FIXT
100
AcDbLine
 10
720.2318259830666
 20
2215.152899712657
 30
0.0
 11
721.3134408824203
 21
2211.145911691362
 31
0.0
  0
LINE
  5
E2
330
87
100
AcDbEntity
  8
P-SANR-FIXT
100
AcDbLine
 10
722.667190951346
 20
2206.130762294609
 30
0.0
 11
723.4400165517357
 21
2203.267725806147
 31
0.0
  0
LINE
  5
E3
330
87
100
AcDbEntity
  8
P-SANR-FIXT
100
AcDbLine
 10
750.8464947915667
 20
2210.6656154543
 30
0.0
 11
747.6383042228981
 21
2222.55078936081
 31
0.0
  0
LINE
  5
E4
330
87
100
AcDbEntity
  8
P-SANR-FIXT
100
AcDbLine
 10
719.470593991312
 20
2234.065146440721
 30
0.0
 11
738.7795052893293
 21
2239.277242418856
 31
0.0
  0
LINE
  5
E5
330
87
100
AcDbEntity
  8
P-SANR-FIXT
100
AcDbLine
 10
724.0899854061662
 20
2216.951988998032
 30
0.0
 11
743.3988967041836
 21
2222.164084976168
 31
0.0
  0
LINE
  5
E6
330
87
100
AcDbEntity
  8
P-SANR-FIXT
100
AcDbLine
 10
720.231825983065
 20
2215.152899712656
 30
0.0
 11
747.6383042228962
 21
2222.550789360808
 31
0.0
  0
LINE
  5
E7
330
87
100
AcDbEntity
  8
P-SANR-FIXT
100
AcDbLine
 10
583.6664074431966
 20
2085.937499999998
 30
0.0
 11
580.6664074432059
 21
2084.205449192435
 31
0.0
  0
LINE
  5
E8
330
87
100
AcDbEntity
  8
P-SANR-FIXT
100
AcDbLine
 10
580.6664074432059
 20
1857.669550807564
 30
0.0
 11
583.6664074431966
 21
1855.937500000001
 31
0.0
  0
LINE
  5
E9
330
87
100
AcDbEntity
  8
P-SANR-FIXT
100
AcDbLine
 10
596.6080487853165
 20
2113.437500000014
 30
0.0
 11
583.6664074431967
 21
2113.437500000014
 31
0.0
  0
LINE
  5
EA
330
87
100
AcDbEntity
  8
P-SANR-FIXT
100
AcDbLine
 10
583.6664074431967
 20
1828.437499999986
 30
0.0
 11
600.6664074431966
 21
1828.437499999986
 31
0.0
  0
LINE
  5
EB
330
87
100
AcDbEntity
  8
P-SANR-FIXT
100
AcDbLine
 10
600.6664074431993
 20
1867.768387684597
 30
0.0
 11
772.1805397918384
 21
1867.768387684597
 31
0.0
  0
LINE
  5
EC
330
87
100
AcDbEntity
  8
P-SANR-FIXT
100
AcDbLine
 10
954.5117636749536
 20
1867.768387684597
 30
0.0
 11
1040.666407443182
 21
1867.768387684597
 31
0.0
  0
LINE
  5
ED
330
87
100
AcDbEntity
  8
P-SANR-FIXT
100
AcDbLine
 10
1030.380410264561
 20
2069.879509972194
 30
0.0
 11
901.8976078672432
 21
2069.879509972194
 31
0.0
  0
LINE
  5
EE
330
87
100
AcDbEntity
  8
P-SANR-FIXT
100
AcDbLine
 10
665.336308829128
 20
2069.879509972194
 30
0.0
 11
613.9438305852861
 21
2069.879509972194
 31
0.0
  0
LINE
  5
EF
330
87
100
AcDbEntity
  8
P-SANR-FIXT
100
AcDbLine
 10
901.9017908337808
 20
2069.880182797322
 30
0.0
 11
890.9825951255619
 21
2080.79937850554
 31
0.0
  0
LINE
  5
F0
330
87
100
AcDbEntity
  8
P-SANR-FIXT
100
AcDbLine
 10
613.9509583924942
 20
2069.873274396252
 30
0.0
 11
613.9509583924942
 21
2113.002453316048
 31
0.0
  0
LINE
  5
F1
330
87
100
AcDbEntity
  8
P-SANR-FIXT
100
AcDbLine
 10
772.1763568253009
 20
1867.767714859468
 30
0.0
 11
786.556592869214
 21
1853.387478815555
 31
0.0
  0
LINE
  5
F2
330
87
100
AcDbEntity
  8
P-SANR-FIXT
100
AcDbLine
 10
1030.373282457353
 20
2113.437500000008
 30
0.0
 11
1030.373282457353
 21
2069.873274396252
 31
0.0
  0
LINE
  5
F3
330
87
100
AcDbEntity
  8
P-SANR-FIXT
100
AcDbLine
 10
1060.666407443173
 20
2084.205449192435
 30
0.0
 11
1057.666407443182
 21
2085.937499999999
 31
0.0
  0
LINE
  5
F4
330
87
100
AcDbEntity
  8
P-SANR-FIXT
100
AcDbLine
 10
1057.666407443182
 20
1855.9375
 30
0.0
 11
1060.666407443173
 21
1857.669550807564
 31
0.0
  0
LINE
  5
F5
330
87
100
AcDbEntity
  8
P-SANR-FIXT
100
AcDbLine
 10
1057.666407443182
 20
2113.437500000008
 30
0.0
 11
1049.289687633399
 21
2113.437500000008
 31
0.0
  0
LINE
  5
F6
330
87
100
AcDbEntity
  8
P-SANR-FIXT
100
AcDbLine
 10
1040.666407443182
 20
1828.437499999991
 30
0.0
 11
1057.666407443182
 21
1828.437499999991
 31
0.0
  0
LINE
  5
F7
330
87
100
AcDbEntity
  8
P-SANR-FIXT
100
AcDbLine
 10
688.0133515627225
 20
2193.704929889893
 30
0.0
 11
690.432570518719
 21
2184.001972627134
 31
0.0
  0
LINE
  5
F8
330
87
100
AcDbEntity
  8
P-SANR-FIXT
100
AcDbLine
 10
796.9844862304206
 20
2212.763760527659
 30
0.0
 11
794.1925801564582
 21
2222.366117554669
 31
0.0
  0
LINE
  5
F9
330
87
100
AcDbEntity
  8
P-SANR-FIXT
100
AcDbLine
 10
690.432570518719
 20
2184.001972627134
 30
0.0
 11
684.7717206759266
 21
2176.585559917856
 31
0.0
  0
LINE
  5
FA
330
87
100
AcDbEntity
  8
P-SANR-FIXT
100
AcDbLine
 10
805.6083595373694
 20
2209.203253877942
 30
0.0
 11
796.9844862304206
 21
2212.763760527659
 31
0.0
  0
LWPOLYLINE
  5
FB
330
87
100
AcDbEntity
  8
P-SANR-FIXT
100
AcDbPolyline
 90
       22
 70
   128
 43
0.0
 10
805.6083595373692
 20
2209.203253877942
 10
806.7080891562298
 20
2208.723250986659
 10
807.7877441126634
 20
2208.199654591247
 10
808.8455971890539
 20
2207.633302334246
 10
809.8799560461424
 20
2207.02510025845
 10
810.8891659304088
 20
2206.376021357438
 10
811.8716123213253
 20
2205.687104018989
 10
812.8257235142433
 20
2204.959450363884
 10
813.7499731347874
 20
2204.194224482745
 10
814.6428825807273
 20
2203.392650573745
 10
815.5030233874267
 20
2202.556010984142
 10
816.3290195130818
 20
2201.685644158808
 10
817.1195495400947
 20
2200.782942498994
 10
817.8733487890596
 20
2199.84935013479
 10
818.58921134198
 20
2198.886360614824
 10
819.2659919714808
 20
2197.895514516899
 10
819.9026079729263
 20
2196.878396983404
 10
820.4980408965187
 20
2195.836635185418
 10
821.0513381765993
 20
2194.771895719588
 10
821.5616146555502
 20
2193.685881941928
 10
822.0280539998585
 20
2192.58033124281
 10
822.1272116528192
 20
2192.328225585747
  0
LWPOLYLINE
  5
FC
330
87
100
AcDbEntity
  8
P-SANR-FIXT
100
AcDbPolyline
 90
       22
 70
   128
 43
0.0
 10
678.988125365996
 20
2153.690383998779
 10
678.8241554227122
 20
2154.879047899106
 10
678.7078505158396
 20
2156.073318043955
 10
678.6393967084185
 20
2157.271283855858
 10
678.6189035119384
 20
2158.471028845069
 10
678.6464037111423
 20
2159.670633675538
 10
678.7218533115775
 20
2160.868179235437
 10
678.845131609978
 20
2162.061749707334
 10
679.016041387365
 20
2163.249435633087
 10
679.2343092245533
 20
2164.429336968576
 10
679.4995859395647
 20
2165.599566123363
 10
679.8114471462441
 20
2166.758250980435
 10
680.1693939331883
 20
2167.903537891194
 10
680.5728536618957
 20
2169.033594640898
 10
681.0211808828674
 20
2170.146613379812
 10
681.5136583681878
 20
2171.240813515388
 10
682.0494982589366
 20
2172.314444560822
 10
682.627843325595
 20
2173.365788935474
 10
683.2477683394302
 20
2174.393164712618
 10
683.9082815526634
 20
2175.394928310172
 10
684.6083262850558
 20
2176.369477120077
 10
684.7717206759267
 20
2176.585559917856
  0
LINE
  5
FD
330
87
100
AcDbEntity
  8
P-SANR-FIXT
100
AcDbLine
 10
678.988125365996
 20
2153.690383998779
 30
0.0
 11
682.7568618320857
 21
2129.895518427594
 31
0.0
  0
LINE
  5
FE
330
87
100
AcDbEntity
  8
P-SANR-FIXT
100
AcDbLine
 10
830.8439459441432
 20
2169.868983715281
 30
0.0
 11
822.1272116528194
 21
2192.328225585746
 31
0.0
  0
LINE
  5
FF
330
87
100
AcDbEntity
  8
P-SANR-FIXT
100
AcDbLine
 10
653.1093697787183
 20
2121.892707098245
 30
0.0
 11
655.528588734715
 21
2112.189749835485
 31
0.0
  0
LINE
  5
100
330
87
100
AcDbEntity
  8
P-SANR-FIXT
100
AcDbLine
 10
863.2833440714733
 20
2168.26943801762
 30
0.0
 11
860.4914379975108
 21
2177.87179504463
 31
0.0
  0
LINE
  5
101
330
87
100
AcDbEntity
  8
P-SANR-FIXT
100
AcDbLine
 10
655.528588734715
 20
2112.189749835485
 30
0.0
 11
655.528588734715
 21
2110.534894536961
 31
0.0
  0
LINE
  5
102
330
87
100
AcDbEntity
  8
P-SANR-FIXT
100
AcDbLine
 10
864.1160664213151
 20
2166.839361254951
 30
0.0
 11
863.2833440714733
 21
2168.26943801762
 31
0.0
  0
LINE
  5
103
330
87
100
AcDbEntity
  8
P-SANR-FIXT
100
AcDbLine
 10
655.528588734715
 20
2110.534894536961
 30
0.0
 11
665.103156479518
 21
2073.681009325888
 31
0.0
  0
LINE
  5
104
330
87
100
AcDbEntity
  8
P-SANR-FIXT
100
AcDbLine
 10
868.98021950284
 20
2149.474715765859
 30
0.0
 11
864.1160664213151
 21
2166.839361254951
 31
0.0
  0
LWPOLYLINE
  5
105
330
87
100
AcDbEntity
  8
P-SANR-FIXT
100
AcDbPolyline
 90
       11
 70
   128
 43
0.0
 10
665.341292395094
 20
2069.879509972194
 10
665.3848259234592
 20
2070.277107129769
 10
665.4124249840393
 20
2070.676127128841
 10
665.4240454242242
 20
2071.075931622531
 10
665.4196686537892
 20
2071.475881008935
 10
665.3993016746331
 20
2071.875335454353
 10
665.3629770695778
 20
2072.273655916886
 10
665.3107529502424
 20
2072.670205168762
 10
665.2427128640774
 20
2073.064348815774
 10
665.1589656607065
 20
2073.455456312162
 10
665.1031564795176
 20
2073.681009325888
  0
LINE
  5
106
330
87
100
AcDbEntity
  8
P-SANR-FIXT
100
AcDbLine
 10
890.9825951255619
 20
2080.79937850554
 30
0.0
 11
886.5348954551501
 21
2110.500882299857
 31
0.0
  0
LINE
  5
107
330
87
100
AcDbEntity
  8
P-SANR-FIXT
100
AcDbLine
 10
786.5649383123519
 20
1853.379133372417
 30
0.0
 11
786.8066493840984
 21
1852.409683214431
 31
0.0
  0
LINE
  5
108
330
87
100
AcDbEntity
  8
P-SANR-FIXT
100
AcDbLine
 10
786.8066493840984
 20
1852.409683214431
 30
0.0
 11
771.7811139588678
 21
1830.950994746655
 31
0.0
  0
LWPOLYLINE
  5
109
330
87
100
AcDbEntity
  8
P-SANR-FIXT
100
AcDbPolyline
 90
       15
 70
   128
 43
0.0
 10
760.437052004964
 20
1821.23712059536
 10
760.6229869621431
 20
1821.325485340679
 10
761.6852811518845
 20
1821.883462996756
 10
762.7244124646217
 20
1822.483474767581
 10
763.738718511924
 20
1823.124560762316
 10
764.7265766204896
 20
1823.805695380128
 10
765.6864064280766
 20
1824.525788950927
 10
766.6166724117454
 20
1825.283689478615
 10
767.5158863443686
 20
1826.078184484021
 10
768.3826096754756
 20
1826.908002944622
 10
769.2154558326284
 20
1827.771817327899
 10
770.0130924396395
 20
1828.668245715109
 10
770.7742434480912
 20
1829.59585401206
 10
771.4976911787401
 20
1830.553158243357
 10
771.7811139588681
 20
1830.950994746655
  0
LINE
  5
10A
330
87
100
AcDbEntity
  8
P-SANR-FIXT
100
AcDbLine
 10
726.5357416458735
 20
1812.086066936819
 30
0.0
 11
730.0945159180786
 21
1797.812602939101
 31
0.0
  0
LINE
  5
10B
330
87
100
AcDbEntity
  8
P-SANR-FIXT
100
AcDbLine
 10
957.0401075097153
 20
1859.072514848888
 30
0.0
 11
954.5117636749536
 21
1867.768387684597
 31
0.0
  0
LINE
  5
10C
330
87
100
AcDbEntity
  8
P-SANR-FIXT
100
AcDbLine
 10
715.6101341857285
 20
1793.902802608684
 30
0.0
 11
720.4485720977217
 21
1774.496888083164
 31
0.0
  0
LINE
  5
10D
330
87
100
AcDbEntity
  8
P-SANR-FIXT
100
AcDbLine
 10
977.1083013899907
 20
1843.777601125284
 30
0.0
 11
971.5244892420654
 21
1862.982315179304
 31
0.0
  0
LINE
  5
10E
330
87
100
AcDbEntity
  8
P-SANR-FIXT
100
AcDbLine
 10
720.4485720977217
 20
1774.496888083164
 30
0.0
 11
711.8028465703129
 21
1765.851162555756
 31
0.0
  0
LINE
  5
10F
330
87
100
AcDbEntity
  8
P-SANR-FIXT
100
AcDbLine
 10
988.9302051346163
 20
1840.65674681222
 30
0.0
 11
977.1083013899907
 21
1843.777601125284
 31
0.0
  0
LINE
  5
110
330
87
100
AcDbEntity
  8
P-SANR-FIXT
100
AcDbLine
 10
711.802846570313
 20
1765.851162555756
 30
0.0
 11
715.582636866095
 21
1750.691251704669
 31
0.0
  0
LINE
  5
111
330
87
100
AcDbEntity
  8
P-SANR-FIXT
100
AcDbLine
 10
993.2922821838809
 20
1825.654013877542
 30
0.0
 11
988.9302051346165
 21
1840.65674681222
 31
0.0
  0
LINE
  5
112
330
87
100
AcDbEntity
  8
P-SANR-FIXT
100
AcDbLine
 10
715.5826368660947
 20
1750.69125170467
 30
0.0
 11
724.4374312002974
 21
1749.129912554925
 31
0.0
  0
LINE
  5
113
330
87
100
AcDbEntity
  8
P-SANR-FIXT
100
AcDbLine
 10
986.4258971772764
 20
1819.849022957426
 30
0.0
 11
993.2922821838809
 21
1825.654013877542
 31
0.0
  0
LWPOLYLINE
  5
114
330
87
100
AcDbEntity
  8
P-SANR-FIXT
100
AcDbPolyline
 90
       29
 70
   128
 43
0.0
 10
986.4258971772764
 20
1819.849022957426
 10
986.1256781046547
 20
1819.584736793887
 10
985.8362678029843
 20
1819.308656470264
 10
985.55812926701
 20
1819.021223656183
 10
985.2917074590564
 20
1818.72289818283
 10
985.0374285971827
 20
1818.414157307324
 10
984.795699473325
 20
1818.095494949203
 10
984.5669068025143
 20
1817.767420900263
 10
984.3514166042185
 20
1817.430460008997
 10
984.1495736167852
 20
1817.08515134095
 10
983.9617007459374
 20
1816.732047316328
 10
983.7880985481906
 20
1816.371712826247
 10
983.6290447500283
 20
1816.004724329024
 10
983.4847938035979
 20
1815.631668927966
 10
983.3555764796418
 20
1815.253143432135
 10
983.2415994983133
 20
1814.869753401577
 10
983.1430451984687
 20
1814.482112178554
 10
983.060071245964
 20
1814.090839906331
 10
982.9928103814232
 20
1813.696562537077
 10
982.9413702078813
 20
1813.299910830475
 10
982.9058330186425
 20
1812.901519344641
 10
982.8862556656289
 20
1812.502025420966
 10
982.8826694684289
 20
1812.102068164507
 10
982.895080164193
 20
1811.702287421555
 10
982.9234678984555
 20
1811.303322756017
 10
982.9677872568973
 20
1810.905812426249
 10
983.0279673379992
 20
1810.510392363983
 10
983.1039118664694
 20
1810.117695156965
 10
983.1083410614414
 20
1810.097125251795
  0
LWPOLYLINE
  5
115
330
87
100
AcDbEntity
  8
P-SANR-FIXT
100
AcDbPolyline
 90
       29
 70
   128
 43
0.0
 10
732.2115145865796
 20
1742.372004968552
 10
732.0803333102815
 20
1742.749854330803
 10
731.934147020593
 20
1743.122155601968
 10
731.7731895843933
 20
1743.488313179436
 10
731.5977184992442
 20
1743.847741289189
 10
731.4080144814504
 20
1744.199864922928
 10
731.2043810169724
 20
1744.544120757953
 10
730.9871438759134
 20
1744.879958058367
 10
730.7566505913581
 20
1745.206839556129
 10
730.5132699033925
 20
1745.524242310574
 10
730.2573911691985
 20
1745.831658545006
 10
729.9894237401666
 20
1746.128596459026
 10
729.70979630702
 20
1746.414581015315
 10
729.4189562140006
 20
1746.689154699591
 10
729.1173687432152
 20
1746.951878252532
 10
728.8055163702815
 20
1747.202331372496
 10
728.4838979924714
 20
1747.440113387921
 10
728.1530281305809
 20
1747.664843898304
 10
727.8134361058075
 20
1747.876163382769
 10
727.4656651929483
 20
1748.07373377522
 10
727.1102717512765
 20
1748.257239005176
 10
726.7478243344859
 20
1748.426385503414
 10
726.3789027811251
 20
1748.58090267162
 10
726.0040972869805
 20
1748.720543315286
 10
725.6240074608886
 20
1748.845084039171
 10
725.2392413654894
 20
1748.954325604684
 10
724.8504145444567
 20
1749.048093248623
 10
724.4581490377587
 20
1749.126236962762
 10
724.4374312002975
 20
1749.129912554925
  0
LINE
  5
116
330
87
100
AcDbEntity
  8
P-SANR-FIXT
100
AcDbLine
 10
732.2115145865796
 20
1742.372004968552
 30
0.0
 11
751.6957096441556
 21
1682.405818604739
 31
0.0
  0
LINE
  5
117
330
87
100
AcDbEntity
  8
P-SANR-FIXT
100
AcDbLine
 10
996.4456334811737
 20
1748.471692231232
 30
0.0
 11
983.1083410614414
 21
1810.097125251795
 31
0.0
  0
LINE
  5
118
330
87
100
AcDbEntity
  8
P-SANR-FIXT
100
AcDbLine
 10
751.6957096441556
 20
1682.405818604739
 30
0.0
 11
753.0412229603986
 21
1682.741292752677
 31
0.0
  0
LINE
  5
119
330
87
100
AcDbEntity
  8
P-SANR-FIXT
100
AcDbLine
 10
753.2023484949792
 20
1682.781465860421
 30
0.0
 11
769.4820272367937
 21
1686.840445648046
 31
0.0
  0
LINE
  5
11A
330
87
100
AcDbEntity
  8
P-SANR-FIXT
100
AcDbLine
 10
978.8437243832332
 20
1743.353899090898
 30
0.0
 11
994.9389946303501
 21
1748.033633726737
 31
0.0
  0
LINE
  5
11B
330
87
100
AcDbEntity
  8
P-SANR-FIXT
100
AcDbLine
 10
995.1140704435058
 20
1748.084537398073
 30
0.0
 11
996.4456334811737
 21
1748.471692231232
 31
0.0
  0
LINE
  5
11C
330
87
100
AcDbEntity
  8
P-SANR-FIXT
100
AcDbLine
 10
769.4820272367938
 20
1686.840445648046
 30
0.0
 11
851.7808774109488
 21
1570.94311811331
 31
0.0
  0
LINE
  5
11D
330
87
100
AcDbEntity
  8
P-SANR-FIXT
100
AcDbLine
 10
966.0429808243996
 20
1601.786133571967
 30
0.0
 11
978.8437243832332
 21
1743.353899090897
 31
0.0
  0
LWPOLYLINE
  5
11E
330
87
100
AcDbEntity
  8
P-SANR-FIXT
100
AcDbPolyline
 90
       12
 70
   128
 43
0.0
 10
966.0429808243996
 20
1601.786133571966
 10
965.9990024270852
 20
1601.388585375676
 10
965.939161520121
 20
1600.993113842366
 10
965.8635538361929
 20
1600.600351642129
 10
965.7723003314663
 20
1600.210927110699
 10
965.6655469920824
 20
1599.825463244253
 10
965.5434646006117
 20
1599.444576702752
 10
965.4062484628372
 20
1599.068876823409
 10
965.2541180953088
 20
1598.698964645885
 10
965.0873168741609
 20
1598.335431950756
 10
964.9061116457655
 20
1597.978860312783
 10
964.7622987572228
 20
1597.71873614534
  0
LWPOLYLINE
  5
11F
330
87
100
AcDbEntity
  8
P-SANR-FIXT
100
AcDbPolyline
 90
       12
 70
   128
 43
0.0
 10
854.9343171178112
 20
1568.072632719077
 10
854.5919987916459
 20
1568.27950666953
 10
854.2582270351685
 20
1568.49990422483
 10
853.9335358119886
 20
1568.733472795906
 10
853.6184445588
 20
1568.979838722869
 10
853.3134573543913
 20
1569.238607872791
 10
853.0190621132293
 20
1569.509366270233
 10
852.735729804899
 20
1569.791680759519
 10
852.4639137006525
 20
1570.085099697689
 10
852.2040486482724
 20
1570.389153677034
 10
851.9565503764075
 20
1570.703356276051
 10
851.7808774109486
 20
1570.943118113309
  0
LINE
  5
120
330
87
100
AcDbEntity
  8
P-SANR-FIXT
100
AcDbLine
 10
854.9343171178112
 20
1568.072632719077
 30
0.0
 11
861.7046371703269
 21
1564.163786614258
 31
0.0
  0
LINE
  5
121
330
87
100
AcDbEntity
  8
P-SANR-FIXT
100
AcDbLine
 10
960.8785187825654
 20
1590.934005893288
 30
0.0
 11
964.7622987572226
 21
1597.71873614534
 31
0.0
  0
LINE
  5
122
330
87
100
AcDbEntity
  8
P-SANR-FIXT
100
AcDbLine
 10
861.7046371703269
 20
1564.163786614258
 30
0.0
 11
865.9308197877194
 21
1555.100708743922
 31
0.0
  0
LINE
  5
123
330
87
100
AcDbEntity
  8
P-SANR-FIXT
100
AcDbLine
 10
961.7869135808259
 20
1580.97535041728
 30
0.0
 11
960.8785187825654
 21
1590.934005893288
 31
0.0
  0
LINE
  5
124
330
87
100
AcDbEntity
  8
P-SANR-FIXT
100
AcDbLine
 10
902.3876211585685
 20
1530.945140486084
 30
0.0
 11
908.4683683644026
 21
1527.434419449922
 31
0.0
  0
LINE
  5
125
330
87
100
AcDbEntity
  8
P-SANR-FIXT
100
AcDbLine
 10
938.948891210019
 20
1535.662092573648
 30
0.0
 11
942.4231750304116
 21
1541.731457649489
 31
0.0
  0
LINE
  5
126
330
87
100
AcDbEntity
  8
P-SANR-FIXT
100
AcDbLine
 10
908.4683683644026
 20
1527.434419449923
 30
0.0
 11
911.7721747076908
 21
1514.183575960166
 31
0.0
  0
LINE
  5
127
330
87
100
AcDbEntity
  8
P-SANR-FIXT
100
AcDbLine
 10
942.761657712265
 20
1522.548633794847
 30
0.0
 11
938.9488912100189
 21
1535.662092573648
 31
0.0
  0
LINE
  5
128
330
87
100
AcDbEntity
  8
P-SANR-FIXT
100
AcDbLine
 10
911.7721747076908
 20
1514.183575960166
 30
0.0
 11
912.9281015827558
 21
1514.471780899359
 31
0.0
  0
LINE
  5
129
330
87
100
AcDbEntity
  8
P-SANR-FIXT
100
AcDbLine
 10
913.6017741935299
 20
1514.639746345973
 30
0.0
 11
927.3476595029704
 21
1518.066980477487
 31
0.0
  0
LINE
  5
12A
330
87
100
AcDbEntity
  8
P-SANR-FIXT
100
AcDbLine
 10
927.3476595029711
 20
1518.066980477487
 30
0.0
 11
940.9320582264262
 21
1522.016673787209
 31
0.0
  0
LINE
  5
12B
330
87
100
AcDbEntity
  8
P-SANR-FIXT
100
AcDbLine
 10
941.6177154840447
 20
1522.216030117828
 30
0.0
 11
942.7616577122654
 21
1522.548633794847
 31
0.0
  0
LINE
  5
12C
330
87
100
AcDbEntity
  8
P-SANR-FIXT
100
AcDbLine
 10
580.6664074432043
 20
1857.669550807564
 30
0.0
 11
580.6664074432043
 21
2084.205449192434
 31
0.0
  0
LINE
  5
12D
330
87
100
AcDbEntity
  8
P-SANR-FIXT
100
AcDbLine
 10
583.6664074431953
 20
1828.437499999985
 30
0.0
 11
583.6664074431953
 21
2113.437500000012
 31
0.0
  0
LINE
  5
12E
330
87
100
AcDbEntity
  8
P-SANR-FIXT
100
AcDbLine
 10
600.6664074431951
 20
1828.437499999985
 30
0.0
 11
600.6664074431951
 21
2112.816923124282
 31
0.0
  0
LINE
  5
12F
330
87
100
AcDbEntity
  8
P-SANR-FIXT
100
AcDbLine
 10
600.6664074431959
 20
2113.002453316047
 30
0.0
 11
600.6664074431959
 21
2113.29817248486
 31
0.0
  0
LINE
  5
130
330
87
100
AcDbEntity
  8
P-SANR-FIXT
100
AcDbLine
 10
904.245609409415
 20
2061.879509972193
 30
0.0
 11
951.2681572665918
 21
2014.856962115016
 31
0.0
  0
SPLINE
  5
131
330
87
100
AcDbEntity
  8
P-SANR-FIXT
100
AcDbSpline
210
0.0
220
0.0
230
1.0
 70
     8
 71
     3
 72
    11
 73
     7
 74
     0
 42
0.000000001
 43
0.0000000001
 40
0.0
 40
0.0
 40
0.0
 40
0.0
 40
0.25
 40
0.5
 40
0.75
 40
1.0
 40
1.0
 40
1.0
 40
1.0
 10
951.2681572665918
 20
2014.856962115016
 30
0.0
 10
957.5956192226172
 20
2017.913019821744
 30
0.0
 10
970.5263348677197
 20
2023.372430468259
 30
0.0
 10
990.9190982515665
 20
2029.670077370743
 30
0.0
 10
1011.800607400492
 20
2033.87631950533
 30
0.0
 10
1025.927376741138
 20
2035.367107579713
 30
0.0
 10
1033.052207827524
 20
2035.777416905019
 30
0.0
  0
LINE
  5
132
330
87
100
AcDbEntity
  8
P-SANR-FIXT
100
AcDbLine
 10
1033.052207827524
 20
2035.777416905019
 30
0.0
 11
1033.052207827524
 21
2061.879509972193
 31
0.0
  0
LINE
  5
133
330
87
100
AcDbEntity
  8
P-SANR-FIXT
100
AcDbLine
 10
611.2720330223197
 20
2061.879509972193
 30
0.0
 11
611.2720330223197
 21
2043.110401273776
 31
0.0
  0
SPLINE
  5
134
330
87
100
AcDbEntity
  8
P-SANR-FIXT
100
AcDbSpline
210
0.0
220
0.0
230
1.0
 70
     8
 71
     3
 72
    10
 73
     6
 74
     0
 42
0.000000001
 43
0.0000000001
 40
0.0
 40
0.0
 40
0.0
 40
0.0
 40
0.3333333333333333
 40
0.6666666666666666
 40
1.0
 40
1.0
 40
1.0
 40
1.0
 10
611.2720330223197
 20
2043.110401273776
 30
0.0
 10
617.8661016986356
 20
2042.168524497748
 30
0.0
 10
630.8861374853212
 20
2040.793450519548
 30
0.0
 10
649.6398147663151
 20
2039.986048910761
 30
0.0
 10
662.168825423348
 20
2040.826246136675
 30
0.0
 10
668.3946252524243
 20
2041.545822763733
 30
0.0
  0
LWPOLYLINE
  5
135
330
87
100
AcDbEntity
  8
P-SANR-FIXT
100
AcDbPolyline
 90
        3
 70
   128
 43
0.0
 10
668.3946252524243
 20
2041.545822763733
 10
665.3142839206267
 20
2049.281905169049
 10
662.2339784749214
 20
2057.018001863337
  0
LWPOLYLINE
  5
136
330
87
100
AcDbEntity
  8
P-SANR-FIXT
100
AcDbPolyline
 90
        3
 70
   128
 43
0.0
 10
662.2339784749214
 20
2057.018001863337
 10
662.8880367959904
 20
2059.448763597443
 10
663.5421521963581
 20
2061.879509972193
  0
LINE
  5
137
330
87
100
AcDbEntity
  8
P-SANR-FIXT
100
AcDbLine
 10
769.832538249663
 20
1875.768387684596
 30
0.0
 11
706.3210904680513
 21
1939.279835466208
 31
0.0
  0
SPLINE
  5
138
330
87
100
AcDbEntity
  8
P-SANR-FIXT
100
AcDbSpline
210
0.0
220
0.0
230
1.0
 70
     8
 71
     3
 72
    11
 73
     7
 74
     0
 42
0.000000001
 43
0.0000000001
 40
0.0
 40
0.0
 40
0.0
 40
0.0
 40
0.25
 40
0.5
 40
0.75
 40
1.0
 40
1.0
 40
1.0
 40
1.0
 10
706.3210904680513
 20
1939.279835466208
 30
0.0
 10
698.3399294032807
 20
1934.419768529395
 30
0.0
 10
681.9115472101072
 20
1925.772235790239
 30
0.0
 10
655.6045342786366
 20
1916.149336693027
 30
0.0
 10
628.4318600578938
 20
1909.483047782996
 30
0.0
 10
609.9899322506691
 20
1906.657318307198
 30
0.0
 10
600.6664074431978
 20
1905.678453545957
 30
0.0
  0
SPLINE
  5
139
330
87
100
AcDbEntity
  8
P-SANR-FIXT
100
AcDbSpline
210
0.0
220
0.0
230
1.0
 70
     8
 71
     3
 72
    22
 73
    18
 74
     0
 42
0.000000001
 43
0.0000000001
 40
0.0
 40
0.0
 40
0.0
 40
0.0
 40
0.2
 40
0.3
 40
0.4
 40
0.475
 40
0.55
 40
0.5875
 40
0.60625
 40
0.625
 40
0.7
 40
0.775
 40
0.79375
 40
0.8125
 40
0.85
 40
0.925
 40
1.0
 40
1.0
 40
1.0
 40
1.0
 10
1040.66640744318
 20
1907.044639734933
 30
0.0
 10
1034.32047306877
 20
1907.432940456168
 30
0.0
 10
1024.944487484567
 20
1907.173731192762
 30
0.0
 10
1012.548322818179
 20
1905.107325361023
 30
0.0
 10
1004.190679229705
 20
1902.944359497206
 30
0.0
 10
996.8654957258207
 20
1900.293214021115
 30
0.0
 10
991.4850140024876
 20
1897.911215736906
 30
0.0
 10
987.782536069689
 20
1896.124060586512
 30
0.0
 10
985.6822305903426
 20
1895.083885298955
 30
0.0
 10
982.5585960058699
 20
1893.46119095095
 30
0.0
 10
977.9643249025683
 20
1890.812118250321
 30
0.0
 10
973.4449951554854
 20
1888.013447854653
 30
0.0
 10
970.4337930289844
 20
1886.165566431609
 30
0.0
 10
968.4250689248054
 20
1884.943076538437
 30
0.0
 10
964.9242862434133
 20
1882.780067789864
 30
0.0
 10
959.9584999939873
 20
1879.638958531677
 30
0.0
 10
956.024849502338
 20
1877.068052443318
 30
0.0
 10
954.0676612848818
 20
1875.768387684596
 30
0.0
  0
SPLINE
  5
13A
330
87
100
AcDbEntity
  8
P-SANR-FIXT
100
AcDbSpline
210
0.0
220
0.0
230
1.0
 70
     8
 71
     3
 72
     9
 73
     5
 74
     0
 42
0.000000001
 43
0.0000000001
 40
0.4822900313158919
 40
0.4822900313158919
 40
0.4822900313158919
 40
0.4822900313158919
 40
0.5
 40
0.5002036994221828
 40
0.5002036994221828
 40
0.5002036994221828
 40
0.5002036994221828
 10
772.1814738530691
 20
1867.782455515324
 30
0.0
 10
772.1808088586292
 20
1867.773193998922
 30
0.0
 10
772.1805516899089
 20
1867.768441362416
 30
0.0
 10
772.1805398663912
 20
1867.768387686991
 30
0.0
 10
772.1805397639293
 20
1867.768387684186
 30
0.0
  0
SPLINE
  5
13B
330
87
100
AcDbEntity
  8
P-SANR-FIXT
100
AcDbSpline
210
0.0
220
0.0
230
1.0
 70
     8
 71
     3
 72
    31
 73
    27
 74
     0
 42
0.000000001
 43
0.0000000001
 40
0.5002045062192799
 40
0.5002045062192799
 40
0.5002045062192799
 40
0.5002045062192799
 40
0.5555555555555556
 40
0.5833333333333334
 40
0.6111111111111112
 40
0.6388888888888889
 40
0.6527777777777777
 40
0.6666666666666666
 40
0.6805555555555556
 40
0.6944444444444445
 40
0.7222222222222223
 40
0.75
 40
0.7638888888888889
 40
0.7708333333333333
 40
0.7777777777777778
 40
0.7847222222222224
 40
0.7916666666666668
 40
0.8055555555555555
 40
0.8333333333333332
 40
0.861111111111111
 40
0.875
 40
0.8888888888888889
 40
0.9027777777777776
 40
0.9166666666666666
 40
0.9444444444444444
 40
1.0
 40
1.0
 40
1.0
 40
1.0
 10
772.1805397627134
 20
1867.768387684181
 30
0.0
 10
772.1805119897144
 20
1867.768388229909
 30
0.0
 10
772.1840173066862
 20
1867.835760914336
 30
0.0
 10
772.2115863216871
 20
1868.057968404346
 30
0.0
 10
772.2446540862611
 20
1868.289823630886
 30
0.0
 10
772.2705272633979
 20
1868.535507813336
 30
0.0
 10
772.2859780792354
 20
1868.762358289927
 30
0.0
 10
772.2916392489933
 20
1868.947180723824
 30
0.0
 10
772.2976604119524
 20
1869.146775760411
 30
0.0
 10
772.3120970724829
 20
1869.432438899664
 30
0.0
 10
772.3295247399735
 20
1869.824176889673
 30
0.0
 10
772.3262691754729
 20
1870.256556768673
 30
0.0
 10
772.3017019084347
 20
1870.57681405827
 30
0.0
 10
772.2799156391833
 20
1870.764337935832
 30
0.0
 10
772.2587736944445
 20
1870.906864071076
 30
0.0
 10
772.2345975521299
 20
1871.052045991609
 30
0.0
 10
772.2008741888418
 20
1871.250055308329
 30
0.0
 10
772.1352343789519
 20
1871.606442990743
 30
0.0
 10
772.0185927982908
 20
1872.138320926476
 30
0.0
 10
771.8579089371121
 20
1872.681935593831
 30
0.0
 10
771.6954153947807
 20
1873.111990627142
 30
0.0
 10
771.5537781522958
 20
1873.428065696668
 30
0.0
 10
771.3937220086238
 20
1873.738126835314
 30
0.0
 10
771.1601764072811
 20
1874.147317953367
 30
0.0
 10
770.6957740156301
 20
1874.846859048226
 30
0.0
 10
770.2031174661536
 20
1875.411738734814
 30
0.0
 10
769.832538249663
 20
1875.768387684596
 30
0.0
  0
SPLINE
  5
13C
330
87
100
AcDbEntity
  8
P-SANR-FIXT
100
AcDbSpline
210
0.0
220
0.0
230
1.0
 70
     8
 71
     3
 72
    10
 73
     6
 74
     0
 42
0.000000001
 43
0.0000000001
 40
0.0
 40
0.0
 40
0.0
 40
0.0
 40
0.3333333333333333
 40
0.6666666666666666
 40
0.9359483795680423
 40
0.9359483795680423
 40
0.9359483795680423
 40
0.9359483795680423
 10
954.0676612848816
 20
1875.768387684596
 30
0.0
 10
953.3339625618348
 20
1875.314777493679
 30
0.0
 10
951.8787843316031
 20
1874.390693444646
 30
0.0
 10
949.8579901763967
 20
1873.105488887133
 30
0.0
 10
948.5909979351726
 20
1872.278671878942
 30
0.0
 10
948.0305057655906
 20
1871.917227684296
 30
0.0
  0
SPLINE
  5
13D
330
87
100
AcDbEntity
  8
P-SANR-FIXT
100
AcDbSpline
210
0.0
220
0.0
230
1.0
 70
     8
 71
     3
 72
    12
 73
     8
 74
     0
 42
0.000000001
 43
0.0000000001
 40
0.0
 40
0.0
 40
0.0
 40
0.0
 40
0.2
 40
0.4
 40
0.6
 40
0.8
 40
1.0
 40
1.0
 40
1.0
 40
1.0
 10
952.6979213721828
 20
1873.134510795949
 30
0.0
 10
952.8937337015582
 20
1872.526859021925
 30
0.0
 10
953.2639955596204
 20
1871.357734144859
 30
0.0
 10
953.7750688647239
 20
1869.852421758226
 30
0.0
 10
954.1825159276092
 20
1868.683991331873
 30
0.0
 10
954.4506608573847
 20
1867.9393701256
 30
0.0
 10
954.5098422810136
 20
1867.768387684596
 30
0.0
 10
954.5117636749516
 20
1867.768387684596
 30
0.0
  0
SPLINE
  5
13E
330
87
100
AcDbEntity
  8
P-SANR-FIXT
100
AcDbSpline
210
0.0
220
0.0
230
1.0
 70
     8
 71
     3
 72
     9
 73
     5
 74
     0
 42
0.000000001
 43
0.0000000001
 40
0.4822900313158921
 40
0.4822900313158921
 40
0.4822900313158921
 40
0.4822900313158921
 40
0.5
 40
0.5002036994221878
 40
0.5002036994221878
 40
0.5002036994221878
 40
0.5002036994221878
 10
901.896673806009
 20
2069.865442141464
 30
0.0
 10
901.8973388004486
 20
2069.874703657866
 30
0.0
 10
901.8975959691692
 20
2069.879456294371
 30
0.0
 10
901.8976077926867
 20
2069.879509969798
 30
0.0
 10
901.8976078951485
 20
2069.879509972603
 30
0.0
  0
SPLINE
  5
13F
330
87
100
AcDbEntity
  8
P-SANR-FIXT
100
AcDbSpline
210
0.0
220
0.0
230
1.0
 70
     8
 71
     3
 72
    31
 73
    27
 74
     0
 42
0.000000001
 43
0.0000000001
 40
0.5002045062192832
 40
0.5002045062192832
 40
0.5002045062192832
 40
0.5002045062192832
 40
0.5555555555555556
 40
0.5833333333333334
 40
0.6111111111111112
 40
0.6388888888888889
 40
0.6527777777777777
 40
0.6666666666666666
 40
0.6805555555555556
 40
0.6944444444444445
 40
0.7222222222222223
 40
0.75
 40
0.7638888888888889
 40
0.7708333333333333
 40
0.7777777777777778
 40
0.7847222222222224
 40
0.7916666666666668
 40
0.8055555555555555
 40
0.8333333333333332
 40
0.861111111111111
 40
0.875
 40
0.8888888888888889
 40
0.9027777777777776
 40
0.9166666666666666
 40
0.9444444444444444
 40
1.0
 40
1.0
 40
1.0
 40
1.0
 10
901.8976078963644
 20
2069.879509972607
 30
0.0
 10
901.8976356693636
 20
2069.87950942688
 30
0.0
 10
901.8941303523918
 20
2069.812136742453
 30
0.0
 10
901.866561337391
 20
2069.589929252441
 30
0.0
 10
901.8334935728169
 20
2069.358074025902
 30
0.0
 10
901.8076203956798
 20
2069.112389843453
 30
0.0
 10
901.7921695798428
 20
2068.885539366862
 30
0.0
 10
901.7865084100847
 20
2068.700716932965
 30
0.0
 10
901.7804872471257
 20
2068.501121896377
 30
0.0
 10
901.7660505865952
 20
2068.215458757124
 30
0.0
 10
901.7486229191048
 20
2067.823720767115
 30
0.0
 10
901.7518784836052
 20
2067.391340888116
 30
0.0
 10
901.7764457506435
 20
2067.071083598518
 30
0.0
 10
901.7982320198948
 20
2066.883559720956
 30
0.0
 10
901.8193739646335
 20
2066.741033585712
 30
0.0
 10
901.8435501069481
 20
2066.595851665179
 30
0.0
 10
901.8772734702364
 20
2066.397842348459
 30
0.0
 10
901.9429132801262
 20
2066.041454666045
 30
0.0
 10
902.0595548607875
 20
2065.509576730311
 30
0.0
 10
902.220238721966
 20
2064.965962062958
 30
0.0
 10
902.3827322642974
 20
2064.535907029647
 30
0.0
 10
902.5243695067823
 20
2064.219831960121
 30
0.0
 10
902.6844256504542
 20
2063.909770821474
 30
0.0
 10
902.917971251797
 20
2063.500579703422
 30
0.0
 10
903.3823736434481
 20
2062.801038608563
 30
0.0
 10
903.8750301929244
 20
2062.236158921974
 30
0.0
 10
904.245609409415
 20
2061.879509972193
 30
0.0
  0
SPLINE
  5
140
330
87
100
AcDbEntity
  8
P-SANR-FIXT
100
AcDbSpline
210
0.0
220
0.0
230
1.0
 70
     8
 71
     3
 72
    29
 73
    25
 74
     0
 42
0.000000001
 43
0.0000000001
 40
0.0
 40
0.0
 40
0.0
 40
0.0
 40
0.0555555555555556
 40
0.0833333333333333
 40
0.0972222222222222
 40
0.1111111111111111
 40
0.125
 40
0.1388888888888889
 40
0.1666666666666666
 40
0.1944444444444444
 40
0.2083333333333333
 40
0.2222222222222222
 40
0.2361111111111111
 40
0.25
 40
0.2777777777777778
 40
0.3055555555555556
 40
0.3194444444444444
 40
0.3333333333333333
 40
0.3472222222222222
 40
0.3611111111111111
 40
0.3888888888888888
 40
0.4166666666666666
 40
0.4444444444444445
 40
0.4999476174825281
 40
0.4999476174825281
 40
0.4999476174825281
 40
0.4999476174825281
 10
1033.052207827524
 20
2061.879509972193
 30
0.0
 10
1033.031120317538
 20
2062.360902198776
 30
0.0
 10
1032.97038895533
 20
2063.076998256825
 30
0.0
 10
1032.848935215638
 20
2063.882579934724
 30
0.0
 10
1032.764704727457
 20
2064.331829968437
 30
0.0
 10
1032.695138128581
 20
2064.66280764252
 30
0.0
 10
1032.615003257963
 20
2064.986529680055
 30
0.0
 10
1032.491820114878
 20
2065.407431214996
 30
0.0
 10
1032.315886400493
 20
2065.913719676944
 30
0.0
 10
1032.126897816401
 20
2066.393023371347
 30
0.0
 10
1031.97717211531
 20
2066.759725002917
 30
0.0
 10
1031.869946632253
 20
2067.026544075173
 30
0.0
 10
1031.762643178258
 20
2067.2836435913
 30
0.0
 10
1031.61204118535
 20
2067.611822381871
 30
0.0
 10
1031.419424141259
 20
2067.995578783854
 30
0.0
 10
1031.233724790243
 20
2068.343702591368
 30
0.0
 10
1031.097177319785
 20
2068.600249471295
 30
0.0
 10
1031.004236669017
 20
2068.781503279089
 30
0.0
 10
1030.916948991004
 20
2068.950959802807
 30
0.0
 10
1030.80214654168
 20
2069.159931562086
 30
0.0
 10
1030.669041405043
 20
2069.388095941874
 30
0.0
 10
1030.535356749281
 20
2069.605101561619
 30
0.0
 10
1030.41235448276
 20
2069.814422223615
 30
0.0
 10
1030.379901494922
 20
2069.879472836719
 30
0.0
 10
1030.380408862552
 20
2069.879509868175
 30
0.0
  0
SPLINE
  5
141
330
87
100
AcDbEntity
  8
P-SANR-FIXT
100
AcDbSpline
210
0.0
220
0.0
230
1.0
 70
     8
 71
     3
 72
     9
 73
     5
 74
     0
 42
0.000000001
 43
0.0000000001
 40
0.4999482572299424
 40
0.4999482572299424
 40
0.4999482572299424
 40
0.4999482572299424
 40
0.5
 40
0.5183109270629707
 40
0.5183109270629707
 40
0.5183109270629707
 40
0.5183109270629707
 10
1030.380408880105
 20
2069.879509869438
 30
0.0
 10
1030.380409353574
 20
2069.87950990303
 30
0.0
 10
1030.380584207163
 20
2069.87950846427
 30
0.0
 10
1030.383181488777
 20
2069.874765567073
 30
0.0
 10
1030.388175484933
 20
2069.865399856888
 30
0.0
  0
SPLINE
  5
142
330
87
100
AcDbEntity
  8
P-SANR-FIXT
100
AcDbSpline
210
0.0
220
0.0
230
1.0
 70
     8
 71
     3
 72
     9
 73
     5
 74
     0
 42
0.000000001
 43
0.0000000001
 40
0.4816890729370292
 40
0.4816890729370292
 40
0.4816890729370292
 40
0.4816890729370292
 40
0.5
 40
0.5000517427700549
 40
0.5000517427700549
 40
0.5000517427700549
 40
0.5000517427700549
 10
613.9368821502726
 20
2069.865338062365
 30
0.0
 10
613.9417114232283
 20
2069.874716456005
 30
0.0
 10
613.9439818007527
 20
2069.879484253476
 30
0.0
 10
613.9438296534093
 20
2069.879510040252
 30
0.0
 10
613.9438292054497
 20
2069.879510075264
 30
0.0
  0
SPLINE
  5
143
330
87
100
AcDbEntity
  8
P-SANR-FIXT
100
AcDbSpline
210
0.0
220
0.0
230
1.0
 70
     8
 71
     3
 72
    29
 73
    25
 74
     0
 42
0.000000001
 43
0.0000000001
 40
0.5000523825174711
 40
0.5000523825174711
 40
0.5000523825174711
 40
0.5000523825174711
 40
0.5277777777777778
 40
0.5555555555555556
 40
0.5833333333333334
 40
0.6111111111111112
 40
0.6388888888888889
 40
0.6666666666666666
 40
0.6805555555555556
 40
0.6944444444444445
 40
0.7222222222222223
 40
0.75
 40
0.7638888888888889
 40
0.7777777777777778
 40
0.7916666666666668
 40
0.8055555555555555
 40
0.8333333333333332
 40
0.861111111111111
 40
0.875
 40
0.8888888888888889
 40
0.9027777777777776
 40
0.9166666666666666
 40
0.9444444444444444
 40
1.0
 40
1.0
 40
1.0
 40
1.0
 10
613.9438291888252
 20
2069.879510076545
 30
0.0
 10
613.9435889032177
 20
2069.87952833829
 30
0.0
 10
613.9320520639214
 20
2069.857924468141
 30
0.0
 10
613.8815898572048
 20
2069.762136419154
 30
0.0
 10
613.7887263490151
 20
2069.605112326778
 30
0.0
 10
613.6554199061411
 20
2069.388082567126
 30
0.0
 10
613.494749187026
 20
2069.114341419963
 30
0.0
 10
613.3506134901264
 20
2068.84194303574
 30
0.0
 10
613.2271319364702
 20
2068.600245446905
 30
0.0
 10
613.090476528759
 20
2068.343704916991
 30
0.0
 10
612.9048304541143
 20
2067.995577975197
 30
0.0
 10
612.71219795875
 20
2067.611822482221
 30
0.0
 10
612.5615979928202
 20
2067.283643572402
 30
0.0
 10
612.4542941316534
 20
2067.026544080229
 30
0.0
 10
612.3470687570512
 20
2066.759725001592
 30
0.0
 10
612.1973430204316
 20
2066.393023372113
 30
0.0
 10
612.008354453876
 20
2065.913719676678
 30
0.0
 10
611.8324207344044
 20
2065.407431215029
 30
0.0
 10
611.7092375919873
 20
2064.986529680048
 30
0.0
 10
611.6291027212343
 20
2064.662807642522
 30
0.0
 10
611.5595361223949
 20
2064.331829968437
 30
0.0
 10
611.4753056342021
 20
2063.882579934724
 30
0.0
 10
611.3538518945177
 20
2063.076998256825
 30
0.0
 10
611.2931205323063
 20
2062.360902198776
 30
0.0
 10
611.2720330223197
 20
2061.879509972193
 30
0.0
  0
SPLINE
  5
144
330
87
100
AcDbEntity
  8
P-SANR-FIXT
100
AcDbSpline
210
0.0
220
0.0
230
1.0
 70
     8
 71
     3
 72
    10
 73
     6
 74
     0
 42
0.000000001
 43
0.0000000001
 40
0.0
 40
0.0
 40
0.0
 40
0.0
 40
0.25
 40
0.5
 40
1.0
 40
1.0
 40
1.0
 40
1.0
 10
663.5421521963581
 20
2061.879509972193
 30
0.0
 10
663.7216320149053
 20
2062.534836073748
 30
0.0
 10
664.0605351234009
 20
2063.850142411407
 30
0.0
 10
664.673863418644
 20
2066.33888911603
 30
0.0
 10
665.0081718279249
 20
2067.868092252833
 30
0.0
 10
665.1665608326164
 20
2068.600674259921
 30
0.0
  0
SPLINE
  5
145
330
87
100
AcDbEntity
  8
P-SANR-FIXT
100
AcDbSpline
210
0.0
220
0.0
230
1.0
 70
     8
 71
     3
 72
     9
 73
     5
 74
     0
 42
0.000000001
 43
0.0000000001
 40
0.0053021360170029
 40
0.0053021360170029
 40
0.0053021360170029
 40
0.0053021360170029
 40
0.3333333333333333
 40
0.6666666666666666
 40
0.6666666666666666
 40
0.6666666666666666
 40
0.6666666666666666
 10
665.1690517138111
 20
2068.613777213197
 30
0.0
 10
665.2202451229641
 20
2068.883362783416
 30
0.0
 10
665.3002542967214
 20
2069.335378462378
 30
0.0
 10
665.3259487297861
 20
2069.662050736229
 30
0.0
 10
665.3310645667415
 20
2069.733294137988
 30
0.0
  0
SPLINE
  5
146
330
87
100
AcDbEntity
  8
P-SANR-FIXT
100
AcDbSpline
210
0.0
220
0.0
230
1.0
 70
     8
 71
     3
 72
    29
 73
    25
 74
     0
 42
0.000000001
 43
0.0000000001
 40
0.0
 40
0.0
 40
0.0
 40
0.0
 40
0.0714285714285714
 40
0.1071428571428571
 40
0.1428571428571428
 40
0.1785714285714286
 40
0.2142857142857143
 40
0.25
 40
0.2678571428571428
 40
0.2857142857142857
 40
0.3035714285714286
 40
0.3214285714285714
 40
0.3571428571428571
 40
0.3928571428571428
 40
0.4285714285714286
 40
0.4642857142857144
 40
0.5
 40
0.5357142857142857
 40
0.5714285714285714
 40
0.6071428571428572
 40
0.6428571428571428
 40
0.7142857142857144
 40
0.8571428571428571
 40
1.0
 40
1.0
 40
1.0
 40
1.0
 10
890.9825951255601
 20
2080.79937850554
 30
0.0
 10
890.9947493667017
 20
2080.787224264398
 30
0.0
 10
891.007589993252
 20
2080.691015664768
 30
0.0
 10
891.0265584106799
 20
2080.417065532389
 30
0.0
 10
891.0424941182942
 20
2080.14424568897
 30
0.0
 10
891.0722495064874
 20
2079.797406279036
 30
0.0
 10
891.1171182727439
 20
2079.381158002475
 30
0.0
 10
891.158562666558
 20
2078.991123566572
 30
0.0
 10
891.19122291254
 20
2078.659964366618
 30
0.0
 10
891.2135337349631
 20
2078.404914244324
 30
0.0
 10
891.236769253058
 20
2078.141296354113
 30
0.0
 10
891.2734803215135
 20
2077.774919458971
 30
0.0
 10
891.3257989003469
 20
2077.294342040429
 30
0.0
 10
891.3947548257214
 20
2076.688955711659
 30
0.0
 10
891.4599442337783
 20
2076.065018879221
 30
0.0
 10
891.5268387803724
 20
2075.423492749956
 30
0.0
 10
891.6041518758826
 20
2074.762205725174
 30
0.0
 10
891.6853103450275
 20
2074.086733050246
 30
0.0
 10
891.7647633724069
 20
2073.400640186616
 30
0.0
 10
891.8456530040833
 20
2072.705280602694
 30
0.0
 10
891.9641063595493
 20
2071.76561937541
 30
0.0
 10
892.1749516603554
 20
2070.095824400034
 30
0.0
 10
892.5050690364175
 20
2067.661172910861
 30
0.0
 10
892.7811586551866
 20
2065.69008411771
 30
0.0
 10
892.9336707031261
 20
2064.706167304243
 30
0.0
  0
SPLINE
  5
147
330
87
100
AcDbEntity
  8
P-SANR-FIXT
100
AcDbSpline
210
0.0
220
0.0
230
1.0
 70
     8
 71
     3
 72
    10
 73
     6
 74
     0
 42
0.000000001
 43
0.0000000001
 40
0.0
 40
0.0
 40
0.0
 40
0.0
 40
0.3333333333333333
 40
0.6666666666666666
 40
1.0
 40
1.0
 40
1.0
 40
1.0
 10
945.8188241961986
 20
2011.82101381117
 30
0.0
 10
946.4755557958
 20
2012.157713169425
 30
0.0
 10
947.7778898675516
 20
2012.85436169773
 30
0.0
 10
949.6392445498701
 20
2013.893586528114
 30
0.0
 10
950.7528225815869
 20
2014.550153676369
 30
0.0
 10
951.2681572665918
 20
2014.856962115016
 30
0.0
  0
SPLINE
  5
148
330
87
100
AcDbEntity
  8
P-SANR-FIXT
100
AcDbSpline
210
0.0
220
0.0
230
1.0
 70
     8
 71
     3
 72
    10
 73
     6
 74
     0
 42
0.000000001
 43
0.0000000001
 40
0.0
 40
0.0
 40
0.0
 40
0.0
 40
0.3333333333333333
 40
0.6666666666666666
 40
1.0
 40
1.0
 40
1.0
 40
1.0
 10
895.8391048563967
 20
1977.245778484225
 30
0.0
 10
900.8130544604192
 20
1981.602981116305
 30
0.0
 10
911.1481776624549
 20
1989.977725054544
 30
0.0
 10
927.8926405391304
 20
2001.84581975515
 30
0.0
 10
939.7232556560288
 20
2008.645276542361
 30
0.0
 10
945.8188241961986
 20
2011.82101381117
 30
0.0
  0
LWPOLYLINE
  5
149
330
87
100
AcDbEntity
  8
P-SANR-FIXT
100
AcDbPolyline
 90
        3
 70
   128
 43
0.0
 10
892.9336707031261
 20
2064.706167304243
 10
897.3582920002417
 20
2035.059153478143
 10
901.7819301829716
 20
2005.411992945369
  0
LWPOLYLINE
  5
14A
330
87
100
AcDbEntity
  8
P-SANR-FIXT
100
AcDbPolyline
 90
        3
 70
   128
 43
0.0
 10
901.7819301829716
 20
2005.411992945369
 10
898.8126248065528
 20
1991.328441076029
 10
895.8391048563967
 20
1977.245778484225
  0
ARC
  5
14B
330
87
100
AcDbEntity
  8
P-SANR-FIXT
100
AcDbCircle
 10
609.0355766097206
 20
2096.650067205712
 30
0.0
 40
184.6936976020331
100
AcDbArc
 50
303.6062512325746
 51
303.9122923708723
  0
LWPOLYLINE
  5
14C
330
87
100
AcDbEntity
  8
P-SANR-FIXT
100
AcDbPolyline
 90
        3
 70
   128
 43
0.0
 10
725.0656468694465
 20
1929.02056043905
 10
718.5722610683638
 20
1936.196625606518
 10
712.0804696561297
 20
1943.374133181595
  0
LINE
  5
14D
330
87
100
AcDbEntity
  8
P-SANR-FIXT
100
AcDbLine
 10
600.6664074431955
 20
2113.002453316047
 30
0.0
 11
613.9509583924928
 21
2113.002453316047
 31
0.0
  0
LINE
  5
14E
330
87
100
AcDbEntity
  8
P-SANR-FIXT
100
AcDbLine
 10
600.6664074431955
 20
2113.002453316047
 30
0.0
 11
600.6664074431955
 21
2112.816923124282
 31
0.0
  0
SPLINE
  5
14F
330
87
100
AcDbEntity
  8
P-SANR-FIXT
100
AcDbSpline
210
0.0
220
0.0
230
1.0
 70
     8
 71
     3
 72
    10
 73
     6
 74
     0
 42
0.000000001
 43
0.0000000001
 40
0.0
 40
0.0
 40
0.0
 40
0.0
 40
0.5
 40
0.75
 40
1.0
 40
1.0
 40
1.0
 40
1.0
 10
600.6664074431975
 20
2043.9328669951
 30
0.0
 10
602.6934993899759
 20
2043.588741170566
 30
0.0
 10
605.7565647288184
 20
2043.241381798334
 30
0.0
 10
609.2244308929175
 20
2043.103033176428
 30
0.0
 10
610.6529561412705
 20
2043.095123316946
 30
0.0
 10
611.2720330223195
 20
2043.110401273776
 30
0.0
  0
SPLINE
  5
150
330
87
100
AcDbEntity
  8
P-SANR-FIXT
100
AcDbSpline
210
0.0
220
0.0
230
1.0
 70
     8
 71
     3
 72
    23
 73
    19
 74
     0
 42
0.000000001
 43
0.0000000001
 40
0.0
 40
0.0
 40
0.0
 40
0.0
 40
0.1
 40
0.15
 40
0.2
 40
0.25
 40
0.3
 40
0.35
 40
0.4
 40
0.425
 40
0.45
 40
0.5
 40
0.55
 40
0.6
 40
0.65
 40
0.7
 40
0.8
 40
1.0
 40
1.0
 40
1.0
 40
1.0
 10
786.5649383123503
 20
1853.379133372416
 30
0.0
 10
786.5547099674072
 20
1853.38936171736
 30
0.0
 10
786.5415946202705
 20
1853.475216665693
 30
0.0
 10
786.5175719658603
 20
1853.721814179054
 30
0.0
 10
786.4956479837635
 20
1853.968006704634
 30
0.0
 10
786.4592708666149
 20
1854.281611497237
 30
0.0
 10
786.4076738947491
 20
1854.65846821847
 30
0.0
 10
786.3488737998988
 20
1855.083692735707
 30
0.0
 10
786.3006765517769
 20
1855.465516065089
 30
0.0
 10
786.2609745811468
 20
1855.785138748128
 30
0.0
 10
786.2150312402016
 20
1856.11895962773
 30
0.0
 10
786.1504627035929
 20
1856.557215148361
 30
0.0
 10
786.0650668504945
 20
1857.109937006059
 30
0.0
 10
785.9807014457605
 20
1857.67975737943
 30
0.0
 10
785.892441511097
 20
1858.266050431012
 30
0.0
 10
785.7584211524007
 20
1859.072989371175
 30
0.0
 10
785.5101432568655
 20
1860.528730948703
 30
0.0
 10
785.2824044314785
 20
1861.826327573585
 30
0.0
 10
785.1025342619833
 20
1862.705971858208
 30
0.0
  0
SPLINE
  5
151
330
87
100
AcDbEntity
  8
P-SANR-FIXT
100
AcDbSpline
210
0.0
220
0.0
230
1.0
 70
     8
 71
     3
 72
     9
 73
     5
 74
     0
 42
0.000000001
 43
0.0000000001
 40
0.0
 40
0.0
 40
0.0
 40
0.0
 40
0.5
 40
1.0
 40
1.0
 40
1.0
 40
1.0
 10
785.1025342619833
 20
1862.705971858208
 30
0.0
 10
775.0875823967846
 20
1873.74048580564
 30
0.0
 10
755.0895261006872
 20
1895.850474651071
 30
0.0
 10
735.0842918487664
 20
1917.971512573209
 30
0.0
 10
725.0656468694465
 20
1929.020560439051
 30
0.0
  0
SPLINE
  5
152
330
87
100
AcDbEntity
  8
P-SANR-FIXT
100
AcDbSpline
210
0.0
220
0.0
230
1.0
 70
     8
 71
     3
 72
    10
 73
     6
 74
     0
 42
0.000000001
 43
0.0000000001
 40
0.0
 40
0.0
 40
0.0
 40
0.0
 40
0.3333333333333333
 40
0.6666666666666666
 40
1.0
 40
1.0
 40
1.0
 40
1.0
 10
711.2602915906843
 20
1942.825915717813
 30
0.0
 10
710.6584762629757
 20
1942.42758435619
 30
0.0
 10
709.4672413955926
 20
1941.610915482166
 30
0.0
 10
707.7817376895949
 20
1940.39490684851
 30
0.0
 10
706.7809591139215
 20
1939.635851911794
 30
0.0
 10
706.3210904680513
 20
1939.279835466208
 30
0.0
  0
LINE
  5
153
330
87
100
AcDbEntity
  8
P-SANR-FIXT
100
AcDbLine
 10
1030.385818102705
 20
2113.437500000006
 30
0.0
 11
1041.84247512645
 21
2113.437500000006
 31
0.0
  0
SPLINE
  5
154
330
87
100
AcDbEntity
  8
P-SANR-FIXT
100
AcDbSpline
210
0.0
220
0.0
230
1.0
 70
     8
 71
     3
 72
    10
 73
     6
 74
     0
 42
0.000000001
 43
0.0000000001
 40
0.0
 40
0.0
 40
0.0
 40
0.0
 40
0.3333333333333333
 40
0.6666666666666666
 40
1.0
 40
1.0
 40
1.0
 40
1.0
 10
1033.052207827524
 20
2035.777416905019
 30
0.0
 10
1033.67195920891
 20
2035.710453797841
 30
0.0
 10
1035.103321223
 20
2035.587196347636
 30
0.0
 10
1037.711980173418
 20
2035.408255157427
 30
0.0
 10
1039.663593265601
 20
2035.345046968712
 30
0.0
 10
1040.66640744318
 20
2035.323120807654
 30
0.0
  0
SPLINE
  5
155
330
87
100
AcDbEntity
  8
P-SANR-FIXT
100
AcDbSpline
210
0.0
220
0.0
230
1.0
 70
     8
 71
     3
 72
     9
 73
     5
 74
     0
 42
0.000000001
 43
0.0000000001
 40
0.0
 40
0.0
 40
0.0
 40
0.0
 40
0.5
 40
1.0
 40
1.0
 40
1.0
 40
1.0
 10
1040.66640744318
 20
2112.84845565661
 30
0.0
 10
1040.860648415476
 20
2112.844351518442
 30
0.0
 10
1041.251164525083
 20
2112.836927516562
 30
0.0
 10
1041.644958257232
 20
2112.831072063596
 30
0.0
 10
1041.84247512645
 20
2112.828536474342
 30
0.0
  0
LINE
  5
156
330
87
100
AcDbEntity
  8
P-SANR-FIXT
100
AcDbLine
 10
1041.84247512645
 20
2112.828536474342
 30
0.0
 11
1041.84247512645
 21
2113.437500000006
 31
0.0
  0
LINE
  5
157
330
87
100
AcDbEntity
  8
P-SANR-FIXT
100
AcDbLine
 10
1060.666407443171
 20
2084.205449192434
 30
0.0
 11
1060.666407443171
 21
1857.669550807564
 31
0.0
  0
LINE
  5
158
330
87
100
AcDbEntity
  8
P-SANR-FIXT
100
AcDbLine
 10
1057.66640744318
 20
2113.437500000006
 30
0.0
 11
1057.66640744318
 21
1828.437499999991
 31
0.0
  0
LINE
  5
159
330
87
100
AcDbEntity
  8
P-SANR-FIXT
100
AcDbLine
 10
1040.66640744318
 20
2112.84845565661
 30
0.0
 11
1040.66640744318
 21
1828.437499999991
 31
0.0
  0
LWPOLYLINE
  5
15A
330
87
100
AcDbEntity
  8
P-SANR-FIXT
100
AcDbPolyline
 90
        8
 70
   128
 43
0.0
 10
895.8391048563967
 20
1977.245778484225
 10
892.500812558714
 20
1970.323438844623
 10
887.8244264667888
 20
1960.634054505166
 10
882.4481077600191
 20
1949.632472858857
 10
876.6742981371294
 20
1939.281691173653
 10
869.5146081852081
 20
1929.029861074457
 10
861.7455258621456
 20
1918.53496537551
 10
854.3890071051729
 20
1907.16022265066
  0
SPLINE
  5
15B
330
87
100
AcDbEntity
  8
P-SANR-FIXT
100
AcDbSpline
210
0.0
220
0.0
230
1.0
 70
     8
 71
     3
 72
    16
 73
    12
 74
     0
 42
0.000000001
 43
0.0000000001
 40
-1.0
 40
-1.0
 40
-1.0
 40
-1.0
 40
-0.8333333333333332
 40
-0.6666666666666666
 40
-0.5833333333333333
 40
-0.5
 40
-0.4166666666666666
 40
-0.3333333333333333
 40
-0.25
 40
-0.1666666666666666
 40
0.0
 40
0.0
 40
0.0
 40
0.0
 10
854.3890219304849
 20
1907.16021262176
 30
0.0
 10
853.5314384736576
 20
1905.69186367749
 30
0.0
 10
851.9790137859398
 20
1902.723798043727
 30
0.0
 10
850.4865740881465
 20
1898.960732955784
 30
0.0
 10
849.5146902830828
 20
1895.880111904533
 30
0.0
 10
848.8921490554794
 20
1893.530891307614
 30
0.0
 10
848.4228398998997
 20
1891.183182780143
 30
0.0
 10
848.1452949631359
 20
1888.872901373798
 30
0.0
 10
848.0574091469147
 20
1886.603378306824
 30
0.0
 10
848.1394026842011
 20
1883.592062705779
 30
0.0
 10
848.423740791102
 20
1881.356867544591
 30
0.0
 10
848.6975676897523
 20
1879.872316083546
 30
0.0
  0
SPLINE
  5
15C
330
87
100
AcDbEntity
  8
P-SANR-FIXT
100
AcDbSpline
210
0.0
220
0.0
230
1.0
 70
     8
 71
     3
 72
     9
 73
     5
 74
     0
 42
0.000000001
 43
0.0000000001
 40
-1.0
 40
-1.0
 40
-1.0
 40
-1.0
 40
-0.5
 40
0.0
 40
0.0
 40
0.0
 40
0.0
 10
848.6975676897523
 20
1879.872316083546
 30
0.0
 10
850.3044497662907
 20
1878.454240914357
 30
0.0
 10
853.5351743952222
 20
1875.681779042096
 30
0.0
 10
856.7709733230303
 20
1873.028907462993
 30
0.0
 10
858.3815641974792
 20
1871.730053994349
 30
0.0
  0
SPLINE
  5
15D
330
87
100
AcDbEntity
  8
P-SANR-FIXT
100
AcDbSpline
210
0.0
220
0.0
230
1.0
 70
     8
 71
     3
 72
    12
 73
     8
 74
     0
 42
0.000000001
 43
0.0000000001
 40
-1.0
 40
-1.0
 40
-1.0
 40
-1.0
 40
-0.8333333333333332
 40
-0.6666666666666666
 40
-0.5
 40
-0.3333333333333333
 40
0.0
 40
0.0
 40
0.0
 40
0.0
 10
858.3815641974792
 20
1871.730053994349
 30
0.0
 10
860.4444694847936
 20
1871.332093535313
 30
0.0
 10
864.597765641923
 20
1870.532983430021
 30
0.0
 10
870.8423921305444
 20
1869.321957519132
 30
0.0
 10
877.026949261878
 20
1868.031889020651
 30
0.0
 10
885.1669082626006
 20
1866.294974167069
 30
0.0
 10
891.0841026216496
 20
1865.039188524271
 30
0.0
 10
894.8874099292389
 20
1864.181342134301
 30
0.0
  0
SPLINE
  5
15E
330
87
100
AcDbEntity
  8
P-SANR-FIXT
100
AcDbSpline
210
0.0
220
0.0
230
1.0
 70
     8
 71
     3
 72
    15
 73
    11
 74
     0
 42
0.000000001
 43
0.0000000001
 40
-1.0
 40
-1.0
 40
-1.0
 40
-1.0
 40
-0.8333333333333332
 40
-0.75
 40
-0.6666666666666666
 40
-0.5833333333333333
 40
-0.5
 40
-0.4166666666666666
 40
-0.3333333333333333
 40
-0.252061119447647
 40
-0.252061119447647
 40
-0.252061119447647
 40
-0.252061119447647
 10
894.8874099292385
 20
1864.181342134301
 30
0.0
 10
896.334380109296
 20
1863.875932167674
 30
0.0
 10
898.524862469009
 20
1863.468315679673
 30
0.0
 10
901.4832706492397
 20
1863.053644221585
 30
0.0
 10
903.7199870640332
 20
1862.811945220505
 30
0.0
 10
905.9697220988251
 20
1862.653401896477
 30
0.0
 10
908.2282783607896
 20
1862.580181372109
 30
0.0
 10
910.4969952277993
 20
1862.590539967521
 30
0.0
 10
912.7610352470775
 20
1862.68851237606
 30
0.0
 10
914.2726525033374
 20
1862.820080480297
 30
0.0
 10
915.0195429593743
 20
1862.903512249254
 30
0.0
  0
SPLINE
  5
15F
330
87
100
AcDbEntity
  8
P-SANR-FIXT
100
AcDbSpline
210
0.0
220
0.0
230
1.0
 70
     8
 71
     3
 72
     9
 73
     5
 74
     0
 42
0.000000001
 43
0.0000000001
 40
-1.0
 40
-1.0
 40
-1.0
 40
-1.0
 40
-0.5
 40
0.0
 40
0.0
 40
0.0
 40
0.0
 10
712.0804696561297
 20
1943.374133181595
 30
0.0
 10
711.8692952715482
 20
1944.193422506728
 30
0.0
 10
711.2574644621887
 20
1946.709784497459
 30
0.0
 10
709.9156361957042
 20
1950.886957974337
 30
0.0
 10
708.9933502912131
 20
1953.372156707292
 30
0.0
  0
SPLINE
  5
160
330
87
100
AcDbEntity
  8
P-SANR-FIXT
100
AcDbSpline
210
0.0
220
0.0
230
1.0
 70
     8
 71
     3
 72
    18
 73
    14
 74
     0
 42
0.000000001
 43
0.0000000001
 40
-1.0
 40
-1.0
 40
-1.0
 40
-1.0
 40
-0.9
 40
-0.85
 40
-0.8
 40
-0.7000000000000001
 40
-0.6000000000000001
 40
-0.5
 40
-0.4
 40
-0.3
 40
-0.2
 40
-0.1
 40
0.0
 40
0.0
 40
0.0
 40
0.0
 10
708.9933502912129
 20
1953.372156707293
 30
0.0
 10
708.9551144441351
 20
1956.2842036343
 30
0.0
 10
708.7826618103852
 20
1961.020750066544
 30
0.0
 10
708.0363279799702
 20
1968.1748025212
 30
0.0
 10
706.9018590288516
 20
1975.679731633064
 30
0.0
 10
704.6185087547961
 20
1985.574843122511
 30
0.0
 10
700.3207726829862
 20
1997.536843174542
 30
0.0
 10
694.6237080923195
 20
2008.843750217069
 30
0.0
 10
688.0997404362399
 20
2018.910849538393
 30
0.0
 10
681.4760779977651
 20
2027.427724656272
 30
0.0
 10
675.4789438383911
 20
2034.228489218753
 30
0.0
 10
670.7509843662737
 20
2039.202369418247
 30
0.0
 10
668.9341099610551
 20
2040.988632604864
 30
0.0
 10
668.394625252424
 20
2041.545822763734
 30
0.0
  0
LINE
  5
161
330
87
100
AcDbEntity
  8
P-SANR-FIXT
100
AcDbLine
 10
794.1925801564566
 20
2222.366117554667
 30
0.0
 11
688.0133515627207
 21
2193.704929889892
 31
0.0
  0
LINE
  5
162
330
87
100
AcDbEntity
  8
P-SANR-FIXT
100
AcDbLine
 10
690.4325705187174
 20
2184.001972627132
 30
0.0
 11
796.9844862304189
 21
2212.763760527657
 31
0.0
  0
LINE
  5
163
330
87
100
AcDbEntity
  8
P-SANR-FIXT
100
AcDbLine
 10
653.1093697787168
 20
2121.892707098243
 30
0.0
 11
860.4914379975088
 21
2177.871795044629
 31
0.0
  0
LINE
  5
164
330
87
100
AcDbEntity
  8
P-SANR-FIXT
100
AcDbLine
 10
655.5285887347134
 20
2112.189749835483
 30
0.0
 11
863.2833440714717
 21
2168.269438017619
 31
0.0
  0
LINE
  5
165
330
87
100
AcDbEntity
  8
P-SANR-FIXT
100
AcDbLine
 10
655.5285887347134
 20
2110.534894536959
 30
0.0
 11
864.1160664213131
 21
2166.839361254949
 31
0.0
  0
LINE
  5
166
330
87
100
AcDbEntity
  8
P-SANR-FIXT
100
AcDbLine
 10
662.233978474921
 20
2057.018001863337
 30
0.0
 11
884.4694518687989
 21
2117.006501432149
 31
0.0
  0
LINE
  5
167
330
87
100
AcDbEntity
  8
P-SANR-FIXT
100
AcDbLine
 10
708.9933502912129
 20
1953.372156707292
 30
0.0
 11
901.7819301829716
 21
2005.411992945369
 31
0.0
  0
LINE
  5
168
330
87
100
AcDbEntity
  8
P-SANR-FIXT
100
AcDbLine
 10
785.1025342619833
 20
1862.705971858208
 30
0.0
 11
848.697567689752
 21
1879.872316083546
 31
0.0
  0
LINE
  5
169
330
87
100
AcDbEntity
  8
P-SANR-FIXT
100
AcDbLine
 10
786.8066493840967
 20
1852.40968321443
 30
0.0
 11
858.3815641974791
 21
1871.730053994349
 31
0.0
  0
LINE
  5
16A
330
87
100
AcDbEntity
  8
P-SANR-FIXT
100
AcDbLine
 10
726.5357416458718
 20
1812.086066936819
 30
0.0
 11
952.6979213721828
 21
1873.134510795949
 31
0.0
  0
LINE
  5
16B
330
87
100
AcDbEntity
  8
P-SANR-FIXT
100
AcDbLine
 10
715.6101341857266
 20
1793.902802608684
 30
0.0
 11
971.5244892420635
 21
1862.982315179303
 31
0.0
  0
LINE
  5
16C
330
87
100
AcDbEntity
  8
P-SANR-FIXT
100
AcDbLine
 10
720.4485720977198
 20
1774.496888083164
 30
0.0
 11
977.1083013899886
 21
1843.777601125283
 31
0.0
  0
LINE
  5
16D
330
87
100
AcDbEntity
  8
P-SANR-FIXT
100
AcDbLine
 10
711.8028465703114
 20
1765.851162555755
 30
0.0
 11
988.9302051346145
 21
1840.656746812219
 31
0.0
  0
LINE
  5
16E
330
87
100
AcDbEntity
  8
P-SANR-FIXT
100
AcDbLine
 10
715.5826368660931
 20
1750.691251704668
 30
0.0
 11
993.2922821838792
 21
1825.654013877542
 31
0.0
  0
LINE
  5
16F
330
87
100
AcDbEntity
  8
P-SANR-FIXT
100
AcDbLine
 10
751.6957096441538
 20
1682.405818604738
 30
0.0
 11
996.4456334811716
 21
1748.471692231232
 31
0.0
  0
LINE
  5
170
330
87
100
AcDbEntity
  8
P-SANR-FIXT
100
AcDbLine
 10
769.4820272367921
 20
1686.840445648045
 30
0.0
 11
978.8437243832312
 21
1743.353899090896
 31
0.0
  0
LINE
  5
171
330
87
100
AcDbEntity
  8
P-SANR-FIXT
100
AcDbLine
 10
861.7046371703249
 20
1564.163786614257
 30
0.0
 11
960.8785187825635
 21
1590.934005893288
 31
0.0
  0
LINE
  5
172
330
87
100
AcDbEntity
  8
P-SANR-FIXT
100
AcDbLine
 10
942.3506156164194
 20
1544.971858318915
 30
0.0
 11
942.372052447695
 21
1544.977644808913
 31
0.0
  0
LINE
  5
173
330
87
100
AcDbEntity
  8
P-SANR-FIXT
100
AcDbLine
 10
908.4683683644007
 20
1527.434419449922
 30
0.0
 11
938.9488912100169
 21
1535.662092573648
 31
0.0
  0
LINE
  5
174
330
87
100
AcDbEntity
  8
P-SANR-FIXT
100
AcDbLine
 10
911.772174707689
 20
1514.183575960165
 30
0.0
 11
942.7616577122634
 21
1522.548633794847
 31
0.0
  0
LINE
  5
175
330
87
100
AcDbEntity
  8
P-SANR-FIXT
100
AcDbLine
 10
865.4980245966985
 20
1554.983883406664
 30
0.0
 11
868.3112098061283
 21
1544.202017250557
 31
0.0
  0
LINE
  5
176
330
87
100
AcDbEntity
  8
P-SANR-FIXT
100
AcDbLine
 10
965.2140673291672
 20
1570.359214110101
 30
0.0
 11
962.2197087719449
 21
1581.092175754565
 31
0.0
  0
LINE
  5
177
330
87
100
AcDbEntity
  8
P-SANR-FIXT
100
AcDbLine
 10
870.4400801588732
 20
1544.783062683042
 30
0.0
 11
876.3574834064558
 21
1528.618201590491
 31
0.0
  0
LINE
  5
178
330
87
100
AcDbEntity
  8
P-SANR-FIXT
100
AcDbLine
 10
966.1024850025139
 20
1552.843262996446
 30
0.0
 11
963.0841038336049
 21
1569.778168677616
 31
0.0
  0
LWPOLYLINE
  5
179
330
87
100
AcDbEntity
  8
P-SANR-FIXT
100
AcDbPolyline
 90
       39
 70
   128
 43
0.0
 10
966.1024850025139
 20
1552.843262996446
 10
966.1336320288505
 20
1552.645716724141
 10
966.1568543969881
 20
1552.447082918939
 10
966.1721149560911
 20
1552.247679352554
 10
966.1793892925201
 20
1552.047825028156
 10
966.1786657688889
 20
1551.84783967003
 10
966.1699455426809
 20
1551.648043212089
 10
966.1532425643981
 20
1551.448755286043
 10
966.1285835552419
 20
1551.250294710062
 10
966.0960079643674
 20
1551.052978978733
 10
966.0555679057708
 20
1550.857123755132
 10
966.0073280749188
 20
1550.663042365837
 10
965.9513656452501
 20
1550.47104529967
 10
965.8877701447146
 20
1550.28143971098
 10
965.8166433125462
 20
1550.09452892826
 10
965.7380989365041
 20
1549.910611968892
 10
965.6522626708344
 20
1549.729983060776
 10
965.5592718352513
 20
1549.552931171635
 10
965.459275195255
 20
1549.37973954672
 10
965.3524327241379
 20
1549.210685255687
 10
965.2389153470622
 20
1549.046038749338
 10
965.1189046676151
 20
1548.886063426961
 10
964.9925926772828
 20
1548.731015214944
 10
964.8601814483049
 20
1548.581142157354
 10
964.7218828104016
 20
1548.436684019109
 10
964.5779180118911
 20
1548.297871902415
 10
964.4285173657406
 20
1548.164927877047
 10
964.2739198811131
 20
1548.038064625087
 10
964.1143728810051
 20
1547.917485100674
 10
963.9501316065821
 20
1547.803382205325
 10
963.7814588088467
 20
1547.695938479332
 10
963.6086243282939
 20
1547.595325809737
 10
963.4319046632226
 20
1547.501705155348
 10
963.2515825273994
 20
1547.415226289241
 10
963.0679463977745
 20
1547.336027559153
 10
962.8812900529819
 20
1547.264235666158
 10
962.6919121033555
 20
1547.19996546197
 10
962.5001155132158
 20
1547.143319765206
 10
962.4830842077338
 20
1547.138690203557
  0
LWPOLYLINE
  5
17A
330
87
100
AcDbEntity
  8
P-SANR-FIXT
100
AcDbPolyline
 90
       39
 70
   128
 43
0.0
 10
882.3558001421801
 20
1525.509759987285
 10
882.1617202352973
 20
1525.461514192697
 10
881.9658662544361
 20
1525.421068115854
 10
881.7685515241864
 20
1525.388486461851
 10
881.5700917060247
 20
1525.363821354384
 10
881.3708042933246
 20
1525.347112252363
 10
881.1710081034336
 20
1525.338385886787
 10
880.9710227676347
 20
1525.33765621798
 10
880.7711682198045
 20
1525.344924413256
 10
880.5717641845852
 20
1525.360178845052
 10
880.3731296658966
 20
1525.383395109533
 10
880.1755824365951
 20
1525.414536065627
 10
879.9794385301067
 20
1525.453551894448
 10
879.7850117348401
 20
1525.500380178993
 10
879.592613092192
 20
1525.554946003996
 10
879.4025503989475
 20
1525.617162075776
 10
879.2151277148716
 20
1525.686928861892
 10
879.0306448762775
 20
1525.764134750368
 10
878.8493970163525
 20
1525.848656228252
 10
878.6716740930085
 20
1525.94035807921
 10
878.4977604250105
 20
1526.039093599843
 10
878.3279342371278
 20
1526.144704834379
 10
878.1624672150334
 20
1526.257022827374
 10
878.0016240706645
 20
1526.375867893997
 10
877.8456621187416
 20
1526.501049907495
 10
877.6948308651167
 20
1526.63236860335
 10
877.5493716076203
 20
1526.769613899662
 10
877.409517050035
 20
1526.912566233234
 10
877.2754909298191
 20
1527.060996910828
 10
877.1475076601733
 20
1527.214668475022
 10
877.0257719870281
 20
1527.373335084096
 10
876.9104786614915
 20
1527.536742905322
 10
876.8018121282899
 20
1527.704630521045
 10
876.6999462306952
 20
1527.876729346892
 10
876.6050439324134
 20
1528.052764061457
 10
876.517257056877
 20
1528.232453046748
 10
876.4367260443602
 20
1528.415508838719
 10
876.3635797273037
 20
1528.601638587153
 10
876.3574834064558
 20
1528.618201590491
  0
LWPOLYLINE
  5
17B
330
87
100
AcDbEntity
  8
P-SANR-FIXT
100
AcDbPolyline
 90
        3
 70
   128
 43
0.0
 10
962.4830842077338
 20
1547.138690203557
 10
962.4510375673349
 20
1547.130039784952
 10
962.3549489139266
 20
1547.104102367961
  0
LWPOLYLINE
  5
17C
330
87
100
AcDbEntity
  8
P-SANR-FIXT
100
AcDbPolyline
 90
        4
 70
   128
 43
0.0
 10
882.4956441713267
 20
1525.547508387007
 10
882.431769938173
 20
1525.530266677799
 10
882.3651394694028
 20
1525.51228097198
 10
882.3558001421801
 20
1525.509759987285
  0
LWPOLYLINE
  5
17D
330
87
100
AcDbEntity
  8
P-SANR-FIXT
100
AcDbPolyline
 90
       80
 70
   128
 43
0.0
 10
882.3558001421801
 20
1525.509759987285
 10
882.3878467825791
 20
1525.51841040589
 10
882.4839354359877
 20
1525.544347822881
 10
882.6439123810583
 20
1525.587530743923
 10
882.8675216888052
 20
1525.647890085555
 10
883.1544056320367
 20
1525.725329285706
 10
883.5041052576428
 20
1525.819724458176
 10
883.9160611208209
 20
1525.930924590825
 10
884.3896141800689
 20
1526.058751787161
 10
884.9240068515113
 20
1526.203001550941
 10
885.518384220872
 20
1526.363443113312
 10
886.1717954111529
 20
1526.539819802001
 10
886.8831951038371
 20
1526.731849451931
 10
887.6514452111734
 20
1526.939224856626
 10
888.4753166968749
 20
1527.161614259677
 10
889.3534915423138
 20
1527.398661885478
 10
890.2845648550719
 20
1527.649988508397
 10
891.2670471164668
 20
1527.91519205945
 10
892.2993665644655
 20
1528.19384826953
 10
893.3798717081675
 20
1528.485511348143
 10
894.5068339698384
 20
1528.789714696582
 10
895.6784504502651
 20
1529.105971654382
 10
896.8928468130112
 20
1529.433776277877
 10
898.1480802829528
 20
1529.772604149595
 10
899.442142754307
 20
1530.121913217222
 10
900.7729640031721
 20
1530.481144660765
 10
902.138414999443
 20
1530.849723786546
 10
903.5363113128061
 20
1531.227060946589
 10
904.9644166073623
 20
1531.612552481934
 10
906.4204462192867
 20
1532.005581688357
 10
907.9020708118029
 20
1532.405519802971
 10
909.406920101626
 20
1532.811727010106
 10
910.9325866509099
 20
1533.223553464885
 10
912.4766297186338
 20
1533.640340332831
 10
914.0365791652676
 20
1534.061420843866
 10
915.6099394044682
 20
1534.486121358997
 10
917.1941933954849
 20
1534.913762447999
 10
918.7868066698886
 20
1535.343659976354
 10
920.3852313861798
 20
1535.775126199723
 10
921.9869104057908
 20
1536.207470864191
 10
923.5892813839642
 20
1536.640002310523
 10
925.1897808689555
 20
1537.072028580672
 10
926.7858484030103
 20
1537.502858524768
 10
928.3749306185509
 20
1537.931802906806
 10
929.9544853230178
 20
1538.358175507277
 10
931.521985565838
 20
1538.781294220975
 10
933.0749236810055
 20
1539.200482148219
 10
934.610815298811
 20
1539.615068677748
 10
936.1272033203063
 20
1540.024390559554
 10
937.6216618481352
 20
1540.427792965943
 10
939.0918000674544
 20
1540.824630539122
 10
940.5352660707256
 20
1541.214268423625
 10
941.9497506202667
 20
1541.596083281957
 10
943.3329908425383
 20
1541.969464291794
 10
944.6827738482614
 20
1542.33381412317
 10
945.9969402725645
 20
1542.688549894078
 10
947.2733877295096
 20
1543.033104102959
 10
948.5100741754596
 20
1543.36692553658
 10
949.7050211759134
 20
1543.689480151857
 10
950.8563170705787
 20
1544.000251930214
 10
951.9621200316208
 20
1544.298743703101
 10
953.0206610101943
 20
1544.584477947355
 10
954.030246566543
 20
1544.85699754914
 10
954.9892615791438
 20
1545.115866535226
 10
955.8961718285555
 20
1545.360670770459
 10
956.7495264518431
 20
1545.591018620284
 10
957.547960263648
 20
1545.80654157728
 10
958.2901959401958
 20
1546.006894850691
 10
958.9750460627378
 20
1546.19175791802
 10
959.6014150171727
 20
1546.360835037793
 10
960.1683007467913
 20
1546.513855722689
 10
960.6747963553553
 20
1546.650575172253
 10
961.1200915579374
 20
1546.770774664531
 10
961.5034739772053
 20
1546.874261905976
 10
961.8243302830713
 20
1546.96087133908
 10
962.0821471738924
 20
1547.030464407223
 10
962.276512197641
 20
1547.082929776344
 10
962.4071144117412
 20
1547.118183513043
 10
962.4737448805113
 20
1547.136169218862
 10
962.4830842077338
 20
1547.138690203557
  0
LINE
  5
17E
330
87
100
AcDbEntity
  8
P-SANR-FIXT
100
AcDbLine
 10
962.2197087719429
 20
1581.092175754564
 30
0.0
 11
865.4980245966966
 21
1554.983883406664
 31
0.0
  0
LINE
  5
17F
330
87
100
AcDbEntity
  8
P-SANR-FIXT
100
AcDbLine
 10
868.3112098061263
 20
1544.202017250557
 30
0.0
 11
965.2140673291654
 21
1570.3592141101
 31
0.0
  0
ENDBLK
  5
181
330
87
100
AcDbEntity
  8
0
100
AcDbBlockEnd
  0
BLOCK
  5
268
330
183
100
AcDbEntity
  8
0
100
AcDbBlockBegin
  2
Automatic flow rate regulator valve_Caleffi_121 DN15 - 1_2__-V1-Est - Idraulica
 70
     0
 10
0.0
 20
0.0
 30
0.0
  3
Automatic flow rate regulator valve_Caleffi_121 DN15 - 1_2__-V1-Est - Idraulica
  1

  0
LINE
  5
184
330
183
100
AcDbEntity
  8
P-SANR-FIXT
100
AcDbLine
 10
1033.753715558646
 20
1153.556447086414
 30
0.0
 11
1031.72801403699
 21
1155.582148608071
 31
0.0
  0
LINE
  5
185
330
183
100
AcDbEntity
  8
P-SANR-FIXT
100
AcDbLine
 10
1031.72801403699
 20
1137.912003080437
 30
0.0
 11
1033.753715558646
 21
1139.937704602094
 31
0.0
  0
LINE
  5
186
330
183
100
AcDbEntity
  8
P-SANR-FIXT
100
AcDbLine
 10
1031.72801403699
 20
1155.582148608071
 30
0.0
 11
1019.443651520193
 21
1155.582148608071
 31
0.0
  0
LINE
  5
187
330
183
100
AcDbEntity
  8
P-SANR-FIXT
100
AcDbLine
 10
1019.443651520193
 20
1137.912003080438
 30
0.0
 11
1031.72801403699
 21
1137.912003080438
 31
0.0
  0
LINE
  5
188
330
183
100
AcDbEntity
  8
P-SANR-FIXT
100
AcDbLine
 10
1019.443651520193
 20
1158.81814365612
 30
0.0
 11
1012.918315810319
 21
1158.81814365612
 31
0.0
  0
LINE
  5
189
330
183
100
AcDbEntity
  8
P-SANR-FIXT
100
AcDbLine
 10
1012.918315810319
 20
1134.676008032388
 30
0.0
 11
1019.443651520193
 21
1134.676008032388
 31
0.0
  0
LINE
  5
18A
330
183
100
AcDbEntity
  8
P-SANR-FIXT
100
AcDbLine
 10
1012.918315810319
 20
1153.81814365612
 30
0.0
 11
1010.007781904386
 21
1150.907609750187
 31
0.0
  0
LINE
  5
18B
330
183
100
AcDbEntity
  8
P-SANR-FIXT
100
AcDbLine
 10
1010.007781904386
 20
1142.586541938321
 30
0.0
 11
1012.918315810319
 21
1139.676008032389
 31
0.0
  0
LINE
  5
18C
330
183
100
AcDbEntity
  8
P-SANR-FIXT
100
AcDbLine
 10
1010.007781904386
 20
1150.907609750187
 30
0.0
 11
995.0077819043862
 21
1150.907609750187
 31
0.0
  0
LINE
  5
18D
330
183
100
AcDbEntity
  8
P-SANR-FIXT
100
AcDbLine
 10
995.0077819043862
 20
1142.586541938321
 30
0.0
 11
1010.007781904386
 21
1142.586541938321
 31
0.0
  0
LINE
  5
18E
330
183
100
AcDbEntity
  8
P-SANR-FIXT
100
AcDbLine
 10
995.0077819043862
 20
1150.907609750187
 30
0.0
 11
990.8472479984535
 21
1146.747075844255
 31
0.0
  0
LINE
  5
18F
330
183
100
AcDbEntity
  8
P-SANR-FIXT
100
AcDbLine
 10
990.8472479984535
 20
1146.747075844254
 30
0.0
 11
995.0077819043862
 21
1142.586541938321
 31
0.0
  0
LINE
  5
190
330
183
100
AcDbEntity
  8
P-SANR-FIXT
100
AcDbLine
 10
927.7506296482989
 20
1154.157639083161
 30
0.0
 11
918.1380126889157
 21
1154.157639083161
 31
0.0
  0
LINE
  5
191
330
183
100
AcDbEntity
  8
P-SANR-FIXT
100
AcDbLine
 10
918.1380126889157
 20
1139.336512605349
 30
0.0
 11
927.7506296482988
 21
1139.336512605349
 31
0.0
  0
LINE
  5
192
330
183
100
AcDbEntity
  8
P-SANR-FIXT
100
AcDbLine
 10
918.990698544526
 20
1158.76590688566
 30
0.0
 11
911.0140250194865
 21
1166.214469897865
 31
0.0
  0
LINE
  5
193
330
183
100
AcDbEntity
  8
P-SANR-FIXT
100
AcDbLine
 10
911.0140250194863
 20
1127.279681790645
 30
0.0
 11
918.9906985445258
 21
1134.72824480285
 31
0.0
  0
LINE
  5
194
330
183
100
AcDbEntity
  8
P-SANR-FIXT
100
AcDbLine
 10
910.0884782818612
 20
1166.780908855163
 30
0.0
 11
905.4995928631312
 21
1168.154429043372
 31
0.0
  0
LINE
  5
195
330
183
100
AcDbEntity
  8
P-SANR-FIXT
100
AcDbLine
 10
905.499592863131
 20
1125.339722645138
 30
0.0
 11
910.088478281861
 21
1126.713242833347
 31
0.0
  0
LINE
  5
196
330
183
100
AcDbEntity
  8
P-SANR-FIXT
100
AcDbLine
 10
906.0018464419313
 20
1168.003677583584
 30
0.0
 11
901.1003820950254
 21
1172.580631363302
 31
0.0
  0
LINE
  5
197
330
183
100
AcDbEntity
  8
P-SANR-FIXT
100
AcDbLine
 10
901.1003820950254
 20
1120.913520325208
 30
0.0
 11
906.0018464419313
 21
1125.490474104926
 31
0.0
  0
LINE
  5
198
330
183
100
AcDbEntity
  8
P-SANR-FIXT
100
AcDbLine
 10
899.2675992465668
 20
1173.42262967727
 30
0.0
 11
892.1404681776357
 21
1173.42262967727
 31
0.0
  0
LINE
  5
199
330
183
100
AcDbEntity
  8
P-SANR-FIXT
100
AcDbLine
 10
892.1404681776355
 20
1120.07152201124
 30
0.0
 11
899.2675992465667
 21
1120.07152201124
 31
0.0
  0
LINE
  5
19A
330
183
100
AcDbEntity
  8
P-SANR-FIXT
100
AcDbLine
 10
889.715059627794
 20
1171.929568845399
 30
0.0
 11
889.3146466160796
 21
1171.421972818794
 31
0.0
  0
LINE
  5
19B
330
183
100
AcDbEntity
  8
P-SANR-FIXT
100
AcDbLine
 10
889.291061213831
 20
1171.392074048981
 30
0.0
 11
885.7151746511359
 21
1166.858990063911
 31
0.0
  0
LINE
  5
19C
330
183
100
AcDbEntity
  8
P-SANR-FIXT
100
AcDbLine
 10
885.7151746511359
 20
1126.635161624598
 30
0.0
 11
889.291061213831
 21
1122.102077639529
 31
0.0
  0
LINE
  5
19D
330
183
100
AcDbEntity
  8
P-SANR-FIXT
100
AcDbLine
 10
889.3146466160793
 20
1122.072178869716
 30
0.0
 11
889.7150596277938
 21
1121.56458284311
 31
0.0
  0
LINE
  5
19E
330
183
100
AcDbEntity
  8
P-SANR-FIXT
100
AcDbLine
 10
886.6603411028838
 20
1168.051418127882
 30
0.0
 11
872.2892393164979
 21
1168.051418127882
 31
0.0
  0
LINE
  5
19F
330
183
100
AcDbEntity
  8
P-SANR-FIXT
100
AcDbLine
 10
872.2892393164981
 20
1125.442733560628
 30
0.0
 11
886.6603411028837
 21
1125.442733560627
 31
0.0
  0
LINE
  5
1A0
330
183
100
AcDbEntity
  8
P-SANR-FIXT
100
AcDbLine
 10
1031.728014036988
 20
1155.582148608071
 30
0.0
 11
1031.728014036988
 21
1148.29991389439
 31
0.0
  0
LINE
  5
1A1
330
183
100
AcDbEntity
  8
P-SANR-FIXT
100
AcDbLine
 10
1031.728014036988
 20
1145.194237794118
 30
0.0
 11
1031.728014036988
 21
1137.912003080437
 31
0.0
  0
LINE
  5
1A2
330
183
100
AcDbEntity
  8
P-SANR-FIXT
100
AcDbLine
 10
1019.443651520191
 20
1158.81814365612
 30
0.0
 11
1019.443651520191
 21
1146.747075844254
 31
0.0
  0
LINE
  5
1A3
330
183
100
AcDbEntity
  8
P-SANR-FIXT
100
AcDbLine
 10
1019.443651520191
 20
1146.747075844254
 30
0.0
 11
1019.443651520191
 21
1134.676008032388
 31
0.0
  0
LINE
  5
1A4
330
183
100
AcDbEntity
  8
P-SANR-FIXT
100
AcDbLine
 10
1012.918315810317
 20
1158.81814365612
 30
0.0
 11
1012.918315810317
 21
1146.747075844254
 31
0.0
  0
LINE
  5
1A5
330
183
100
AcDbEntity
  8
P-SANR-FIXT
100
AcDbLine
 10
1012.918315810317
 20
1146.747075844254
 30
0.0
 11
1012.918315810317
 21
1134.676008032388
 31
0.0
  0
LINE
  5
1A6
330
183
100
AcDbEntity
  8
P-SANR-FIXT
100
AcDbLine
 10
1010.007781904385
 20
1150.907609750187
 30
0.0
 11
1010.007781904385
 21
1146.747075844254
 31
0.0
  0
LINE
  5
1A7
330
183
100
AcDbEntity
  8
P-SANR-FIXT
100
AcDbLine
 10
1010.007781904385
 20
1146.747075844254
 30
0.0
 11
1010.007781904385
 21
1142.586541938321
 31
0.0
  0
LINE
  5
1A8
330
183
100
AcDbEntity
  8
P-SANR-FIXT
100
AcDbLine
 10
995.0077819043848
 20
1150.907609750187
 30
0.0
 11
995.0077819043848
 21
1146.747075844254
 31
0.0
  0
LINE
  5
1A9
330
183
100
AcDbEntity
  8
P-SANR-FIXT
100
AcDbLine
 10
995.0077819043848
 20
1146.747075844254
 30
0.0
 11
995.0077819043848
 21
1142.586541938321
 31
0.0
  0
ARC
  5
1AA
330
183
100
AcDbEntity
  8
P-SANR-FIXT
100
AcDbCircle
 10
1043.451462278889
 20
1146.747075844254
 30
0.0
 40
5.0
100
AcDbArc
 50
0.0
 51
180.0
  0
ARC
  5
1AB
330
183
100
AcDbEntity
  8
P-SANR-FIXT
100
AcDbCircle
 10
1043.451462278889
 20
1146.747075844254
 30
0.0
 40
5.0
100
AcDbArc
 50
180.0
 51
0.0
  0
ARC
  5
1AC
330
183
100
AcDbEntity
  8
P-SANR-FIXT
100
AcDbCircle
 10
1043.451462278889
 20
1146.747075844254
 30
0.0
 40
10.0
100
AcDbArc
 50
0.0
 51
180.0
  0
ARC
  5
1AD
330
183
100
AcDbEntity
  8
P-SANR-FIXT
100
AcDbCircle
 10
1043.451462278889
 20
1146.747075844254
 30
0.0
 40
10.0
100
AcDbArc
 50
180.0
 51
0.0
  0
ARC
  5
1AE
330
183
100
AcDbEntity
  8
P-SANR-FIXT
100
AcDbCircle
 10
1043.451462278889
 20
1146.747075844254
 30
0.0
 40
11.87188428897861
100
AcDbArc
 50
359.9999999999991
 51
180.0000000000006
  0
ARC
  5
1AF
330
183
100
AcDbEntity
  8
P-SANR-FIXT
100
AcDbCircle
 10
1043.451462278889
 20
1146.747075844254
 30
0.0
 40
11.87188428897889
100
AcDbArc
 50
180.0
 51
359.9999999999985
  0
ELLIPSE
  5
1B0
330
183
100
AcDbEntity
  8
P-SANR-FIXT
100
AcDbEllipse
 10
927.7506296482975
 20
1146.747075844255
 30
0.0
 11
0.0
 21
7.410563238905979
 31
0.0
210
0.0
220
0.0
230
1.0
 40
0.2756373558169878
 41
4.712388980384685
 42
7.853981633974484
  0
ELLIPSE
  5
1B1
330
183
100
AcDbEntity
  8
P-SANR-FIXT
100
AcDbEllipse
 10
927.7506296482975
 20
1146.747075844255
 30
0.0
 11
0.0
 21
7.410563238905979
 31
0.0
210
0.0
220
0.0
230
1.0
 40
0.2756373558170031
 41
1.570796326794898
 42
4.712388980384685
  0
ELLIPSE
  5
1B2
330
183
100
AcDbEntity
  8
P-SANR-FIXT
100
AcDbEllipse
 10
918.1380126889143
 20
1146.747075844255
 30
0.0
 11
0.0
 21
7.410563238905979
 31
0.0
210
0.0
220
0.0
230
1.0
 40
0.2756373558169878
 41
0.0000000000000016
 42
1.570796326794898
  0
ELLIPSE
  5
1B3
330
183
100
AcDbEntity
  8
P-SANR-FIXT
100
AcDbEllipse
 10
918.1380126889143
 20
1146.747075844255
 30
0.0
 11
0.0
 21
7.410563238905979
 31
0.0
210
0.0
220
0.0
230
1.0
 40
0.2756373558169878
 41
1.570796326794898
 42
3.141592653589788
  0
ELLIPSE
  5
1B4
330
183
100
AcDbEntity
  8
P-SANR-FIXT
100
AcDbEllipse
 10
918.1380126889143
 20
1146.747075844255
 30
0.0
 11
0.0
 21
12.4105632389057
 31
0.0
210
0.0
220
0.0
230
1.0
 40
0.2756373558169981
 41
5.352873290603204
 42
7.853981633974465
  0
ELLIPSE
  5
1B5
330
183
100
AcDbEntity
  8
P-SANR-FIXT
100
AcDbEllipse
 10
918.1380126889143
 20
1146.747075844255
 30
0.0
 11
0.0
 21
12.41056323890598
 31
0.0
210
0.0
220
0.0
230
1.0
 40
0.2756373558169937
 41
1.570796326794898
 42
4.071904670166143
  0
ELLIPSE
  5
1B6
330
183
100
AcDbEntity
  8
P-SANR-FIXT
100
AcDbEllipse
 10
909.6328947333601
 20
1146.747075844255
 30
0.0
 11
0.0
 21
20.10189877590415
 31
0.0
210
0.0
220
0.0
230
1.0
 40
0.2756373558170059
 41
6.031265155363849
 42
7.853981633974484
  0
ELLIPSE
  5
1B7
330
183
100
AcDbEntity
  8
P-SANR-FIXT
100
AcDbEllipse
 10
909.6328947333601
 20
1146.747075844255
 30
0.0
 11
0.0000000000001217
 21
20.1018987759046
 31
0.0
210
0.0
220
0.0
230
0.9999999999999998
 40
0.2756373558169911
 41
1.570796326794898
 42
3.393512805405527
  0
ELLIPSE
  5
1B8
330
183
100
AcDbEntity
  8
P-SANR-FIXT
100
AcDbEllipse
 10
905.0127744929691
 20
1146.747075844255
 30
0.0
 11
0.0
 21
21.48008555498939
 31
0.0
210
0.0
220
0.0
230
1.0
 40
0.2756373558170051
 41
6.204645490839803
 42
7.853981633974484
  0
ELLIPSE
  5
1B9
330
183
100
AcDbEntity
  8
P-SANR-FIXT
100
AcDbEllipse
 10
905.0127744929691
 20
1146.747075844255
 30
0.0
 11
0.0000000000001253
 21
21.4800855549895
 31
0.0
210
0.0
220
0.0
230
1.0
 40
0.275637355816997
 41
1.570796326794898
 42
3.220132469929529
  0
ELLIPSE
  5
1BA
330
183
100
AcDbEntity
  8
P-SANR-FIXT
100
AcDbEllipse
 10
899.2675992465654
 20
1146.747075844255
 30
0.0
 11
0.0
 21
26.67555383301522
 31
0.0
210
0.0
220
0.0
230
0.9999999999999998
 40
0.2756373558170047
 41
6.031265155363848
 42
7.853981633974484
  0
ELLIPSE
  5
1BB
330
183
100
AcDbEntity
  8
P-SANR-FIXT
100
AcDbEllipse
 10
899.2675992465654
 20
1146.747075844255
 30
0.0
 11
0.0000000000001201
 21
26.67555383301555
 31
0.0
210
0.0
220
0.0
230
0.9999999999999998
 40
0.2756373558169966
 41
1.570796326794897
 42
3.393512805405495
  0
ELLIPSE
  5
1BC
330
183
100
AcDbEntity
  8
P-SANR-FIXT
100
AcDbEllipse
 10
892.1404681776344
 20
1146.747075844255
 30
0.0
 11
0.0000000000001201
 21
26.67555383301533
 31
0.0
210
0.0
220
0.0
230
1.0
 40
0.2756373558170032
 41
0.0000000000000009
 42
1.570796326794897
  0
ELLIPSE
  5
1BD
330
183
100
AcDbEntity
  8
P-SANR-FIXT
100
AcDbEllipse
 10
892.1404681776344
 20
1146.747075844255
 30
0.0
 11
0.0000000000002445
 21
26.67555383301555
 31
0.0
210
0.0
220
0.0
230
0.9999999999999998
 40
0.2756373558170009
 41
1.570796326794899
 42
3.141592653589789
  0
ELLIPSE
  5
1BE
330
183
100
AcDbEntity
  8
P-SANR-FIXT
100
AcDbEllipse
 10
887.6522191168996
 20
1146.747075844255
 30
0.0
 11
0.0
 21
21.30434228362708
 31
0.0
210
0.0
220
0.0
230
0.9999999999999998
 40
0.2756373558169974
 41
0.3361582715584699
 42
1.570796326794887
  0
ELLIPSE
  5
1BF
330
183
100
AcDbEntity
  8
P-SANR-FIXT
100
AcDbEllipse
 10
887.6522191168996
 20
1146.747075844255
 30
0.0
 11
0.0000000000001243
 21
21.30434228362742
 31
0.0
210
0.0
220
0.0
230
1.0
 40
0.2756373558169925
 41
1.570796326794898
 42
2.805434382031286
  0
ARC
  5
1C0
330
183
100
AcDbEntity
  8
P-SANR-FIXT
100
AcDbCircle
 10
602.686113452607
 20
1146.747075844256
 30
0.0
 40
5.0
100
AcDbArc
 50
0.0
 51
180.0
  0
ARC
  5
1C1
330
183
100
AcDbEntity
  8
P-SANR-FIXT
100
AcDbCircle
 10
602.686113452607
 20
1146.747075844256
 30
0.0
 40
5.000000000000113
100
AcDbArc
 50
180.0
 51
0.0
  0
ARC
  5
1C2
330
183
100
AcDbEntity
  8
P-SANR-FIXT
100
AcDbCircle
 10
602.686113452607
 20
1146.747075844256
 30
0.0
 40
9.075899534047508
100
AcDbArc
 50
359.9999999999992
 51
179.9999999999996
  0
ARC
  5
1C3
330
183
100
AcDbEntity
  8
P-SANR-FIXT
100
AcDbCircle
 10
602.686113452607
 20
1146.747075844256
 30
0.0
 40
9.075899534047518
100
AcDbArc
 50
179.9999999999996
 51
359.9999999999992
  0
LINE
  5
1C4
330
183
100
AcDbEntity
  8
P-SANR-FIXT
100
AcDbLine
 10
719.6994598467449
 20
1144.680142589181
 30
0.0
 11
718.6456535327526
 21
1144.680142589181
 31
0.0
  0
LINE
  5
1C5
330
183
100
AcDbEntity
  8
P-SANR-FIXT
100
AcDbLine
 10
718.6456535327526
 20
1144.680142589181
 30
0.0
 11
710.8310309629671
 21
1144.680142589181
 31
0.0
  0
LINE
  5
1C6
330
183
100
AcDbEntity
  8
P-SANR-FIXT
100
AcDbLine
 10
710.8310309629671
 20
1144.680142589181
 30
0.0
 11
704.3525628079736
 21
1144.680142589181
 31
0.0
  0
LINE
  5
1C7
330
183
100
AcDbEntity
  8
P-SANR-FIXT
100
AcDbLine
 10
704.3525628079736
 20
1148.81513819307
 30
0.0
 11
710.8310309629671
 21
1148.81513819307
 31
0.0
  0
LINE
  5
1C8
330
183
100
AcDbEntity
  8
P-SANR-FIXT
100
AcDbLine
 10
710.8310309629671
 20
1148.81513819307
 30
0.0
 11
718.6456535327526
 21
1148.81513819307
 31
0.0
  0
LINE
  5
1C9
330
183
100
AcDbEntity
  8
P-SANR-FIXT
100
AcDbLine
 10
718.6456535327526
 20
1148.81513819307
 30
0.0
 11
719.6996766768487
 21
1148.81513819307
 31
0.0
  0
LINE
  5
1CA
330
183
100
AcDbEntity
  8
P-SANR-FIXT
100
AcDbLine
 10
718.6456535327526
 20
1148.81513819307
 30
0.0
 11
718.6456535327526
 21
1144.680142589181
 31
0.0
  0
LINE
  5
1CB
330
183
100
AcDbEntity
  8
P-SANR-FIXT
100
AcDbLine
 10
710.8310309629671
 20
1148.81513819307
 30
0.0
 11
710.8310309629671
 21
1144.680142589181
 31
0.0
  0
LINE
  5
1CC
330
183
100
AcDbEntity
  8
P-SANR-FIXT
100
AcDbLine
 10
704.3525628079736
 20
1148.81513819307
 30
0.0
 11
704.3525628079736
 21
1144.680142589181
 31
0.0
  0
LINE
  5
1CD
330
183
100
AcDbEntity
  8
P-SANR-FIXT
100
AcDbLine
 10
733.7444410551758
 20
1156.747075844256
 30
0.0
 11
729.1250496403214
 21
1156.747075844256
 31
0.0
  0
LINE
  5
1CE
330
183
100
AcDbEntity
  8
P-SANR-FIXT
100
AcDbLine
 10
729.1250496403215
 20
1136.747075844256
 30
0.0
 11
733.7444410551759
 21
1136.747075844256
 31
0.0
  0
LINE
  5
1CF
330
183
100
AcDbEntity
  8
P-SANR-FIXT
100
AcDbLine
 10
737.9713940289932
 20
1160.9407700494
 30
0.0
 11
733.9350651029816
 21
1160.9407700494
 31
0.0
  0
LINE
  5
1D0
330
183
100
AcDbEntity
  8
P-SANR-FIXT
100
AcDbLine
 10
733.9350651029812
 20
1132.553381639112
 30
0.0
 11
737.9713940289931
 21
1132.553381639112
 31
0.0
  0
ELLIPSE
  5
1D1
330
183
100
AcDbEntity
  8
P-SANR-FIXT
100
AcDbEllipse
 10
729.1250496403202
 20
1146.747075844256
 30
0.0
 11
0.0
 21
10.0
 31
0.0
210
0.0
220
0.0
230
1.0
 40
0.9654455649008582
 41
4.712388980384685
 42
7.853981633974484
  0
ELLIPSE
  5
1D2
330
183
100
AcDbEntity
  8
P-SANR-FIXT
100
AcDbEllipse
 10
729.1250496403202
 20
1146.747075844256
 30
0.0
 11
0.0
 21
10.0
 31
0.0
210
0.0
220
0.0
230
1.0
 40
0.9654455649008582
 41
1.570796326794898
 42
4.712388980384685
  0
ELLIPSE
  5
1D3
330
183
100
AcDbEntity
  8
P-SANR-FIXT
100
AcDbEllipse
 10
733.7444410551746
 20
1146.747075844256
 30
0.0
 11
0.0
 21
10.0
 31
0.0
210
0.0
220
0.0
230
1.0
 40
0.9654455649008696
 41
4.712388980384685
 42
6.283185307179588
  0
ELLIPSE
  5
1D4
330
183
100
AcDbEntity
  8
P-SANR-FIXT
100
AcDbEllipse
 10
733.7444410551746
 20
1146.747075844256
 30
0.0
 11
0.0
 21
10.0
 31
0.0
210
0.0
220
0.0
230
1.0
 40
0.9654455649008696
 41
3.141592653589788
 42
4.712388980384685
  0
ELLIPSE
  5
1D5
330
183
100
AcDbEntity
  8
P-SANR-FIXT
100
AcDbEllipse
 10
733.9350651029802
 20
1146.747075844256
 30
0.0
 11
0.0000000000016744
 21
14.19369420514408
 31
0.0
210
0.0
220
0.0
230
0.9999999999999998
 40
0.9654455649008802
 41
4.712388980384797
 42
7.388398174796105
  0
ELLIPSE
  5
1D6
330
183
100
AcDbEntity
  8
P-SANR-FIXT
100
AcDbEllipse
 10
733.9350651029802
 20
1146.747075844256
 30
0.0
 11
0.0
 21
14.19369420514437
 31
0.0
210
0.0
220
0.0
230
1.0
 40
0.9654455649008678
 41
2.036379785973429
 42
4.712388980384685
  0
LINE
  5
1D7
330
183
100
AcDbEntity
  8
P-SANR-FIXT
100
AcDbLine
 10
583.6664074431964
 20
1261.747075844247
 30
0.0
 11
580.6664074432053
 21
1260.015025036683
 31
0.0
  0
LINE
  5
1D8
330
183
100
AcDbEntity
  8
P-SANR-FIXT
100
AcDbLine
 10
580.6664074432043
 20
1033.479126651813
 30
0.0
 11
583.6664074431952
 21
1031.747075844249
 31
0.0
  0
LINE
  5
1D9
330
183
100
AcDbEntity
  8
P-SANR-FIXT
100
AcDbLine
 10
600.6664074431967
 20
1289.247075844262
 30
0.0
 11
583.6664074431966
 21
1289.247075844262
 31
0.0
  0
LINE
  5
1DA
330
183
100
AcDbEntity
  8
P-SANR-FIXT
100
AcDbLine
 10
583.6664074431951
 20
1004.247075844234
 30
0.0
 11
600.6664074431947
 21
1004.247075844234
 31
0.0
  0
LINE
  5
1DB
330
183
100
AcDbEntity
  8
P-SANR-FIXT
100
AcDbLine
 10
1033.052207827535
 20
1154.747075844254
 30
0.0
 11
1032.563086800807
 21
1154.747075844254
 31
0.0
  0
LINE
  5
1DC
330
183
100
AcDbEntity
  8
P-SANR-FIXT
100
AcDbLine
 10
1012.918315810319
 20
1154.747075844254
 30
0.0
 11
920.7443762950781
 21
1154.747075844255
 31
0.0
  0
LINE
  5
1DD
330
183
100
AcDbEntity
  8
P-SANR-FIXT
100
AcDbLine
 10
653.4128294551577
 20
1154.747075844256
 30
0.0
 11
611.2720330223107
 21
1154.747075844256
 31
0.0
  0
LINE
  5
1DE
330
183
100
AcDbEntity
  8
P-SANR-FIXT
100
AcDbLine
 10
611.2720330223201
 20
1138.747075844257
 30
0.0
 11
653.4128294551577
 21
1138.747075844256
 31
0.0
  0
LINE
  5
1DF
330
183
100
AcDbEntity
  8
P-SANR-FIXT
100
AcDbLine
 10
920.7443762950775
 20
1138.747075844255
 30
0.0
 11
1012.918315810319
 21
1138.747075844254
 31
0.0
  0
LINE
  5
1E0
330
183
100
AcDbEntity
  8
P-SANR-FIXT
100
AcDbLine
 10
1032.563086800806
 20
1138.747075844254
 30
0.0
 11
1033.052207827526
 21
1138.747075844254
 31
0.0
  0
LINE
  5
1E1
330
183
100
AcDbEntity
  8
P-SANR-FIXT
100
AcDbLine
 10
945.8944336961847
 20
1156.747075844254
 30
0.0
 11
920.1569289082994
 21
1156.747075844255
 31
0.0
  0
LINE
  5
1E2
330
183
100
AcDbEntity
  8
P-SANR-FIXT
100
AcDbLine
 10
920.1569289082994
 20
1136.747075844255
 30
0.0
 11
945.8188241961995
 21
1136.747075844255
 31
0.0
  0
LINE
  5
1E3
330
183
100
AcDbEntity
  8
P-SANR-FIXT
100
AcDbLine
 10
1060.666407443173
 20
1260.015025036681
 30
0.0
 11
1057.666407443181
 21
1261.747075844244
 31
0.0
  0
LINE
  5
1E4
330
183
100
AcDbEntity
  8
P-SANR-FIXT
100
AcDbLine
 10
1057.66640744318
 20
1031.747075844246
 30
0.0
 11
1060.666407443171
 21
1033.47912665181
 31
0.0
  0
LINE
  5
1E5
330
183
100
AcDbEntity
  8
P-SANR-FIXT
100
AcDbLine
 10
1057.666407443181
 20
1289.247075844254
 30
0.0
 11
1040.666407443182
 21
1289.247075844254
 31
0.0
  0
LINE
  5
1E6
330
183
100
AcDbEntity
  8
P-SANR-FIXT
100
AcDbLine
 10
1040.666407443181
 20
1004.247075844237
 30
0.0
 11
1057.66640744318
 21
1004.247075844237
 31
0.0
  0
LWPOLYLINE
  5
1E7
330
183
100
AcDbEntity
  8
P-SANR-FIXT
100
AcDbPolyline
 90
        7
 70
   128
 43
0.0
 10
887.1192636068908
 20
1201.258162373685
 10
891.5080284027125
 20
1201.68854698048
 10
907.6170017865345
 20
1203.47423413574
 10
942.7070825194704
 20
1206.683712912686
 10
979.4798366831081
 20
1208.878111172967
 10
1007.366795140729
 20
1210.154822897578
 10
1040.666407443181
 20
1211.42343912931
  0
LWPOLYLINE
  5
1E8
330
183
100
AcDbEntity
  8
P-SANR-FIXT
100
AcDbPolyline
 90
        4
 70
   128
 43
0.0
 10
1040.666407443181
 20
1081.446130833604
 10
1016.22146367472
 20
1082.354628907001
 10
974.6928019027006
 20
1084.237555969088
 10
886.773496507029
 20
1091.700974684673
  0
LWPOLYLINE
  5
1E9
330
183
100
AcDbEntity
  8
P-SANR-FIXT
100
AcDbPolyline
 90
        3
 70
   128
 43
0.0
 10
600.6664267897613
 20
1076.631820634855
 10
652.6722569054514
 20
1084.452437294994
 10
670.201363647059
 20
1087.820484793978
  0
LINE
  5
1EA
330
183
100
AcDbEntity
  8
P-SANR-FIXT
100
AcDbLine
 10
696.4126449210969
 20
1093.292862160842
 30
0.0
 11
696.4366957705788
 21
1093.298382550561
 31
0.0
  0
LINE
  5
1EB
330
183
100
AcDbEntity
  8
P-SANR-FIXT
100
AcDbLine
 10
696.2126401508897
 20
1199.912985133917
 30
0.0
 11
696.1884299892439
 21
1199.918304453332
 31
0.0
  0
LWPOLYLINE
  5
1EC
330
183
100
AcDbEntity
  8
P-SANR-FIXT
100
AcDbPolyline
 90
        3
 70
   128
 43
0.0
 10
670.0821183077986
 20
1205.48881622206
 10
605.9172622302411
 20
1215.88466401544
 10
600.6664265832292
 20
1216.584651379278
  0
LINE
  5
1ED
330
183
100
AcDbEntity
  8
P-SANR-FIXT
100
AcDbLine
 10
739.8983601141615
 20
1201.788538658706
 30
0.0
 11
737.306124441956
 21
1201.596019885037
 31
0.0
  0
LINE
  5
1EE
330
183
100
AcDbEntity
  8
P-SANR-FIXT
100
AcDbLine
 10
737.3061244419552
 20
1091.898131803475
 30
0.0
 11
739.898360114161
 21
1091.705613029806
 31
0.0
  0
LWPOLYLINE
  5
1EF
330
183
100
AcDbEntity
  8
P-SANR-FIXT
100
AcDbPolyline
 90
       31
 70
   128
 43
0.0
 10
722.1946255207111
 20
1214.808387718321
 10
719.5277633518689
 20
1213.54995088378
 10
716.9152752096473
 20
1212.183970019782
 10
714.3613889687096
 20
1210.713046078619
 10
711.8701869958872
 20
1209.139948792773
 10
709.4456002893191
 20
1207.467605900643
 10
707.0914036484495
 20
1205.699092332105
 10
704.8112118327395
 20
1203.837619466038
 10
702.60847665441
 20
1201.886524561371
 10
700.4864849401895
 20
1199.849260451425
 10
698.4483572889704
 20
1197.729385578768
 10
696.4970475464219
 20
1195.530554434917
 10
694.6353429138751
 20
1193.256508456317
 10
692.8658646070281
 20
1190.911067415433
 10
691.1910689800005
 20
1188.498121333865
 10
689.6132490318016
 20
1186.021622933181
 10
688.1345362150717
 20
1183.485580628949
 10
686.7569024708235
 20
1180.894052064326
 10
685.4821624175518
 20
1178.251138171438
 10
684.3119756283227
 20
1175.560977741898
 10
683.247848935043
 20
1172.827742481889
 10
682.2911387049162
 20
1170.055632522404
 10
681.443053039923
 20
1167.248872351314
 10
680.7046538559192
 20
1164.411707130841
 10
680.0768588035378
 20
1161.548399361643
 10
679.5604429984224
 20
1158.663225852974
 10
679.1560405333983
 20
1155.760474957153
 10
678.8641457499729
 20
1152.844444025684
 10
678.6851142510689
 20
1149.919437043856
 10
678.6191636411388
 20
1146.989762400304
 10
678.6187755838492
 20
1146.747075844256
  0
LWPOLYLINE
  5
1F0
330
183
100
AcDbEntity
  8
P-SANR-FIXT
100
AcDbPolyline
 90
       31
 70
   128
 43
0.0
 10
678.6187755838492
 20
1146.747075844255
 10
678.675356295641
 20
1143.81720791457
 10
678.8450297457747
 20
1140.891650731069
 10
679.127589733248
 20
1137.974712950192
 10
679.5226921073206
 20
1135.070699005043
 10
680.0298540504721
 20
1132.183906884175
 10
680.6484530877751
 20
1129.318625779021
 10
681.3777258361957
 20
1126.479133556445
 10
682.2167665115577
 20
1123.669694013188
 10
683.1645252153942
 20
1120.894553869518
 10
684.2198060286758
 20
1118.157939460228
 10
685.3812649444489
 20
1115.464053082303
 10
686.6474076767552
 20
1112.817068960332
 10
688.0165873887638
 20
1110.221128792988
 10
689.487002388794
 20
1107.680336846986
 10
691.0566938487478
 20
1105.198754568728
 10
692.7235436052669
 20
1102.780394688648
 10
694.4852721095557
 20
1100.429214799053
 10
696.3394365970867
 20
1098.149110393093
 10
698.2834295531049
 20
1095.943907360508
 10
700.3144775537855
 20
1093.817353944812
 10
702.4296405657955
 20
1091.773112176762
 10
704.6258117886597
 20
1089.814748810027
 10
706.8997181244442
 20
1087.945725796896
 10
709.2479213576664
 20
1086.169390354398
 10
711.6668201247644
 20
1084.488964684082
 10
714.1526527467974
 20
1082.907535421627
 10
716.7015009911493
 20
1081.428042905039
 10
719.3092948178697
 20
1080.053270362041
 10
721.9718181539072
 20
1078.785833127993
 10
722.1946255207102
 20
1078.68576397019
  0
LINE
  5
1F1
330
183
100
AcDbEntity
  8
P-SANR-FIXT
100
AcDbLine
 10
727.5868752324087
 20
1217.21921956434
 30
0.0
 11
722.1946255207127
 21
1214.808387718322
 31
0.0
  0
LINE
  5
1F2
330
183
100
AcDbEntity
  8
P-SANR-FIXT
100
AcDbLine
 10
722.1946255207122
 20
1078.685763970189
 30
0.0
 11
727.5868752324079
 21
1076.274932124171
 31
0.0
  0
LINE
  5
1F3
330
183
100
AcDbEntity
  8
P-SANR-FIXT
100
AcDbLine
 10
751.9769064050077
 20
1254.066832265468
 30
0.0
 11
749.3846707328018
 21
1253.874313491798
 31
0.0
  0
LINE
  5
1F4
330
183
100
AcDbEntity
  8
P-SANR-FIXT
100
AcDbLine
 10
749.3846707328008
 20
1039.619838196713
 30
0.0
 11
751.9769064050064
 21
1039.427319423044
 31
0.0
  0
LINE
  5
1F5
330
183
100
AcDbEntity
  8
P-SANR-FIXT
100
AcDbLine
 10
766.0738780077403
 20
1255.067463687179
 30
0.0
 11
756.163407255855
 21
1254.707110275278
 31
0.0
  0
LINE
  5
1F6
330
183
100
AcDbEntity
  8
P-SANR-FIXT
100
AcDbLine
 10
756.1634072558539
 20
1038.787041413233
 30
0.0
 11
766.0738780077394
 21
1038.426688001333
 31
0.0
  0
LINE
  5
1F7
330
183
100
AcDbEntity
  8
P-SANR-FIXT
100
AcDbLine
 10
845.4720946365497
 20
1239.666885593893
 30
0.0
 11
821.5764690721478
 21
1251.386258097547
 31
0.0
  0
LINE
  5
1F8
330
183
100
AcDbEntity
  8
P-SANR-FIXT
100
AcDbLine
 10
821.5764690721467
 20
1042.107893590964
 30
0.0
 11
845.472094636549
 21
1053.827266094617
 31
0.0
  0
LINE
  5
1F9
330
183
100
AcDbEntity
  8
P-SANR-FIXT
100
AcDbLine
 10
835.5270747761544
 20
1263.985806524748
 30
0.0
 11
831.6387212678458
 21
1263.697028364244
 31
0.0
  0
LINE
  5
1FA
330
183
100
AcDbEntity
  8
P-SANR-FIXT
100
AcDbLine
 10
831.6387212678447
 20
1029.797123324266
 30
0.0
 11
835.5270747761533
 21
1029.508345163761
 31
0.0
  0
LINE
  5
1FB
330
183
100
AcDbEntity
  8
P-SANR-FIXT
100
AcDbLine
 10
839.6005937389436
 20
1279.3296469923
 30
0.0
 11
834.4161223945322
 21
1278.944609444961
 31
0.0
  0
LINE
  5
1FC
330
183
100
AcDbEntity
  8
P-SANR-FIXT
100
AcDbLine
 10
834.416122394531
 20
1014.549542243548
 30
0.0
 11
839.6005937389423
 21
1014.164504696209
 31
0.0
  0
LINE
  5
1FD
330
183
100
AcDbEntity
  8
P-SANR-FIXT
100
AcDbLine
 10
844.5068968585939
 20
1290.203390204019
 30
0.0
 11
840.4567850595373
 21
1289.902598665218
 31
0.0
  0
LINE
  5
1FE
330
183
100
AcDbEntity
  8
P-SANR-FIXT
100
AcDbLine
 10
840.4567850595359
 20
1003.591553023292
 30
0.0
 11
844.5068968585927
 21
1003.29076148449
 31
0.0
  0
LINE
  5
1FF
330
183
100
AcDbEntity
  8
P-SANR-FIXT
100
AcDbLine
 10
580.6664074432038
 20
1146.747075844246
 30
0.0
 11
580.6664074432044
 21
1260.015025036683
 31
0.0
  0
LINE
  5
200
330
183
100
AcDbEntity
  8
P-SANR-FIXT
100
AcDbLine
 10
580.6664074432033
 20
1033.479126651813
 30
0.0
 11
580.6664074432038
 21
1146.747075844246
 31
0.0
  0
LINE
  5
201
330
183
100
AcDbEntity
  8
P-SANR-FIXT
100
AcDbLine
 10
583.666407443195
 20
1146.747075844246
 30
0.0
 11
583.6664074431957
 21
1289.247075844262
 31
0.0
  0
LINE
  5
202
330
183
100
AcDbEntity
  8
P-SANR-FIXT
100
AcDbLine
 10
583.6664074431942
 20
1004.247075844234
 30
0.0
 11
583.666407443195
 21
1146.747075844245
 31
0.0
  0
LINE
  5
203
330
183
100
AcDbEntity
  8
P-SANR-FIXT
100
AcDbLine
 10
600.6664074431947
 20
1155.553092822495
 30
0.0
 11
600.6664074431947
 21
1157.873577509774
 31
0.0
  0
LINE
  5
204
330
183
100
AcDbEntity
  8
P-SANR-FIXT
100
AcDbLine
 10
600.6664074431951
 20
1160.031626793546
 30
0.0
 11
600.6664074431958
 21
1289.247075844262
 31
0.0
  0
LINE
  5
205
330
183
100
AcDbEntity
  8
P-SANR-FIXT
100
AcDbLine
 10
600.6664074431939
 20
1004.247075844234
 30
0.0
 11
600.6664074431946
 21
1133.462524894953
 31
0.0
  0
LINE
  5
206
330
183
100
AcDbEntity
  8
P-SANR-FIXT
100
AcDbLine
 10
600.6664074431954
 20
1135.62057417872
 30
0.0
 11
600.6664074431954
 21
1137.938163241901
 31
0.0
  0
SPLINE
  5
207
330
183
100
AcDbEntity
  8
P-SANR-FIXT
100
AcDbSpline
210
0.0
220
0.0
230
1.0
 70
    24
 71
     3
 72
     8
 73
     4
 74
     0
 42
0.000000001
 43
0.0000000001
 40
0.2868959007383952
 40
0.2868959007383952
 40
0.2868959007383952
 40
0.2868959007383952
 40
0.2871704159071965
 40
0.2871704159071965
 40
0.2871704159071965
 40
0.2871704159071965
 10
677.8567802845535
 20
1138.747075844255
 30
0.0
 10
677.847369268407
 20
1138.747075844255
 30
0.0
 10
677.8379578765195
 20
1138.747075844255
 30
0.0
 10
677.8285461093183
 20
1138.747075844255
 30
0.0
  0
SPLINE
  5
208
330
183
100
AcDbEntity
  8
P-SANR-FIXT
100
AcDbSpline
210
0.0
220
0.0
230
1.0
 70
    24
 71
     3
 72
     8
 73
     4
 74
     0
 42
0.000000001
 43
0.0000000001
 40
0.9044969616327616
 40
0.9044969616327616
 40
0.9044969616327616
 40
0.9044969616327616
 40
0.904635357027119
 40
0.904635357027119
 40
0.904635357027119
 40
0.904635357027119
 10
611.3077684602887
 20
1138.747075844256
 30
0.0
 10
611.3026488217975
 20
1138.747075844256
 30
0.0
 10
611.2975290939836
 20
1138.747075844256
 30
0.0
 10
611.2924092771059
 20
1138.747075844256
 30
0.0
  0
SPLINE
  5
209
330
183
100
AcDbEntity
  8
P-SANR-FIXT
100
AcDbSpline
210
0.0
220
0.0
230
1.0
 70
    24
 71
     3
 72
     8
 73
     4
 74
     0
 42
0.000000001
 43
0.0000000001
 40
0.0952645266968742
 40
0.0952645266968742
 40
0.0952645266968742
 40
0.0952645266968742
 40
0.095402776800152
 40
0.095402776800152
 40
0.095402776800152
 40
0.095402776800152
 10
611.2910946273918
 20
1154.747075844255
 30
0.0
 10
611.2962127060759
 20
1154.747075844255
 30
0.0
 10
611.3013307527393
 20
1154.747075844255
 30
0.0
 10
611.3064487673946
 20
1154.747075844255
 30
0.0
  0
SPLINE
  5
20A
330
183
100
AcDbEntity
  8
P-SANR-FIXT
100
AcDbSpline
210
0.0
220
0.0
230
1.0
 70
    24
 71
     3
 72
     8
 73
     4
 74
     0
 42
0.000000001
 43
0.0000000001
 40
0.7125656329678693
 40
0.7125656329678693
 40
0.7125656329678693
 40
0.7125656329678693
 40
0.7128402450059259
 40
0.7128402450059259
 40
0.7128402450059259
 40
0.7128402450059259
 10
677.8288466763215
 20
1154.747075844255
 30
0.0
 10
677.8382607624088
 20
1154.747075844255
 30
0.0
 10
677.8476748471883
 20
1154.747075844255
 30
0.0
 10
677.8570889233264
 20
1154.747075844255
 30
0.0
  0
SPLINE
  5
20B
330
183
100
AcDbEntity
  8
P-SANR-FIXT
100
AcDbSpline
210
0.0
220
0.0
230
1.0
 70
     8
 71
     3
 72
     9
 73
     5
 74
     0
 42
0.000000001
 43
0.0000000001
 40
0.0949747710766877
 40
0.0949747710766877
 40
0.0949747710766877
 40
0.0949747710766877
 40
0.0972222222222222
 40
0.1111111111111111
 40
0.1111111111111111
 40
0.1111111111111111
 40
0.1111111111111111
 10
611.5498681590507
 20
1154.379588388916
 30
0.0
 10
611.553388860519
 20
1154.373917812932
 30
0.0
 10
611.5788722079636
 20
1154.332756416867
 30
0.0
 10
611.6057924395457
 20
1154.288392724883
 30
0.0
 10
611.6307197538356
 20
1154.247952424971
 30
0.0
  0
SPLINE
  5
20C
330
183
100
AcDbEntity
  8
P-SANR-FIXT
100
AcDbSpline
210
0.0
220
0.0
230
1.0
 70
     8
 71
     3
 72
     8
 73
     4
 74
     0
 42
0.000000001
 43
0.0000000001
 40
0.1851851851851852
 40
0.1851851851851852
 40
0.1851851851851852
 40
0.1851851851851852
 40
0.1871723626517371
 40
0.1871723626517371
 40
0.1871723626517371
 40
0.1871723626517371
 10
612.1586822676643
 20
1153.419332598182
 30
0.0
 10
612.1640480270107
 20
1153.410355815544
 30
0.0
 10
612.1694166570474
 20
1153.401338011972
 30
0.0
 10
612.1747870296579
 20
1153.392279248174
 30
0.0
  0
SPLINE
  5
20D
330
183
100
AcDbEntity
  8
P-SANR-FIXT
100
AcDbSpline
210
0.0
220
0.0
230
1.0
 70
     8
 71
     3
 72
     8
 73
     4
 74
     0
 42
0.000000001
 43
0.0000000001
 40
0.2528220781676534
 40
0.2528220781676534
 40
0.2528220781676534
 40
0.2528220781676534
 40
0.2592592592592593
 40
0.2592592592592593
 40
0.2592592592592593
 40
0.2592592592592593
 10
612.697076508609
 20
1152.365239812372
 30
0.0
 10
612.7147234797728
 20
1152.327816973236
 30
0.0
 10
612.7324201414852
 20
1152.290039631332
 30
0.0
 10
612.7501345775999
 20
1152.25190929997
 30
0.0
  0
SPLINE
  5
20E
330
183
100
AcDbEntity
  8
P-SANR-FIXT
100
AcDbSpline
210
0.0
220
0.0
230
1.0
 70
     8
 71
     3
 72
     9
 73
     5
 74
     0
 42
0.000000001
 43
0.0000000001
 40
0.2962962962962963
 40
0.2962962962962963
 40
0.2962962962962963
 40
0.2962962962962963
 40
0.3055555555555556
 40
0.3093090651934182
 40
0.3093090651934182
 40
0.3093090651934182
 40
0.3093090651934182
 10
613.0515652282016
 20
1151.558942253954
 30
0.0
 10
613.0758094264562
 20
1151.498305925092
 30
0.0
 10
613.1093918885618
 20
1151.412074520216
 30
0.0
 10
613.1420930492947
 20
1151.324417079145
 30
0.0
 10
613.1514408675236
 20
1151.29901323029
 30
0.0
  0
SPLINE
  5
20F
330
183
100
AcDbEntity
  8
P-SANR-FIXT
100
AcDbSpline
210
0.0
220
0.0
230
1.0
 70
     8
 71
     3
 72
     9
 73
     5
 74
     0
 42
0.000000001
 43
0.0000000001
 40
0.3607327859800134
 40
0.3607327859800134
 40
0.3607327859800134
 40
0.3607327859800134
 40
0.3611111111111111
 40
0.3703703703703703
 40
0.3703703703703703
 40
0.3703703703703703
 40
0.3703703703703703
 10
613.4901249911443
 20
1150.189865104975
 30
0.0
 10
613.4908889746103
 20
1150.186999460823
 30
0.0
 10
613.5103380590325
 20
1150.113974547529
 30
0.0
 10
613.5294522138574
 20
1150.040326500341
 30
0.0
 10
613.5474491609857
 20
1149.969026856346
 30
0.0
  0
SPLINE
  5
210
330
183
100
AcDbEntity
  8
P-SANR-FIXT
100
AcDbSpline
210
0.0
220
0.0
230
1.0
 70
     8
 71
     3
 72
     8
 73
     4
 74
     0
 42
0.000000001
 43
0.0000000001
 40
0.4074074074074074
 40
0.4074074074074074
 40
0.4074074074074074
 40
0.4074074074074074
 40
0.4088582201905425
 40
0.4088582201905425
 40
0.4088582201905425
 40
0.4088582201905425
 10
613.7418143139068
 20
1149.089596734307
 30
0.0
 10
613.7440066163472
 20
1149.077836638005
 30
0.0
 10
613.746182441069
 20
1149.066067227543
 30
0.0
 10
613.7483414248767
 20
1149.054288691938
 30
0.0
  0
SPLINE
  5
211
330
183
100
AcDbEntity
  8
P-SANR-FIXT
100
AcDbSpline
210
0.0
220
0.0
230
1.0
 70
     8
 71
     3
 72
     8
 73
     4
 74
     0
 42
0.000000001
 43
0.0000000001
 40
0.4444444444444445
 40
0.4444444444444445
 40
0.4444444444444445
 40
0.4444444444444445
 40
0.4549334494200045
 40
0.4549334494200045
 40
0.4549334494200045
 40
0.4549334494200045
 10
613.8742582332485
 20
1148.1725481983
 30
0.0
 10
613.8833730695182
 20
1148.084475559403
 30
0.0
 10
613.8915417665198
 20
1147.995978504558
 30
0.0
 10
613.8987937218826
 20
1147.907131377293
 30
0.0
  0
SPLINE
  5
212
330
183
100
AcDbEntity
  8
P-SANR-FIXT
100
AcDbSpline
210
0.0
220
0.0
230
1.0
 70
     8
 71
     3
 72
     8
 73
     4
 74
     0
 42
0.000000001
 43
0.0000000001
 40
0.5451667350351892
 40
0.5451667350351892
 40
0.5451667350351892
 40
0.5451667350351892
 40
0.5555555555555556
 40
0.5555555555555556
 40
0.5555555555555556
 40
0.5555555555555556
 10
613.898452643203
 20
1145.586852086669
 30
0.0
 10
613.8914123075942
 20
1145.498916686703
 30
0.0
 10
613.8834641528412
 20
1145.411322031213
 30
0.0
 10
613.8745282636257
 20
1145.324107707788
 30
0.0
  0
SPLINE
  5
213
330
183
100
AcDbEntity
  8
P-SANR-FIXT
100
AcDbSpline
210
0.0
220
0.0
230
1.0
 70
     8
 71
     3
 72
     8
 73
     4
 74
     0
 42
0.000000001
 43
0.0000000001
 40
0.5912225452308532
 40
0.5912225452308532
 40
0.5912225452308532
 40
0.5912225452308532
 40
0.5925925925925926
 40
0.5925925925925926
 40
0.5925925925925926
 40
0.5925925925925926
 10
613.7482872323838
 20
1144.439892992267
 30
0.0
 10
613.7462478824714
 20
1144.428762521477
 30
0.0
 10
613.7441936414363
 20
1144.417640249304
 30
0.0
 10
613.7421247708115
 20
1144.406526333571
 30
0.0
  0
SPLINE
  5
214
330
183
100
AcDbEntity
  8
P-SANR-FIXT
100
AcDbSpline
210
0.0
220
0.0
230
1.0
 70
     8
 71
     3
 72
     9
 73
     5
 74
     0
 42
0.000000001
 43
0.0000000001
 40
0.6296296296296296
 40
0.6296296296296296
 40
0.6296296296296296
 40
0.6296296296296296
 40
0.6388888888888889
 40
0.6393235910347933
 40
0.6393235910347933
 40
0.6393235910347933
 40
0.6393235910347933
 10
613.5475301599804
 20
1143.526487955487
 30
0.0
 10
613.529543264076
 20
1143.455140995277
 30
0.0
 10
613.5103761978371
 20
1143.38101238007
 30
0.0
 10
613.4909596244391
 20
1143.307513073174
 30
0.0
 10
613.4900884310687
 20
1143.30421844512
 30
0.0
  0
SPLINE
  5
215
330
183
100
AcDbEntity
  8
P-SANR-FIXT
100
AcDbSpline
210
0.0
220
0.0
230
1.0
 70
     8
 71
     3
 72
     9
 73
     5
 74
     0
 42
0.000000001
 43
0.0000000001
 40
0.6907529344146212
 40
0.6907529344146212
 40
0.6907529344146212
 40
0.6907529344146212
 40
0.6944444444444445
 40
0.7037037037037035
 40
0.7037037037037035
 40
0.7037037037037035
 40
0.7037037037037035
 10
613.1514593419836
 20
1142.195090612463
 30
0.0
 10
613.1422682714594
 20
1142.170125918882
 30
0.0
 10
613.1097352887812
 20
1142.082950515967
 30
0.0
 10
613.076342871475
 20
1141.997193454894
 30
0.0
 10
613.0521240608457
 20
1141.936603813953
 30
0.0
  0
SPLINE
  5
216
330
183
100
AcDbEntity
  8
P-SANR-FIXT
100
AcDbSpline
210
0.0
220
0.0
230
1.0
 70
     8
 71
     3
 72
     8
 73
     4
 74
     0
 42
0.000000001
 43
0.0000000001
 40
0.7407407407407405
 40
0.7407407407407405
 40
0.7407407407407405
 40
0.7407407407407405
 40
0.7472923915544679
 40
0.7472923915544679
 40
0.7472923915544679
 40
0.7472923915544679
 10
612.7510189811614
 20
1141.244152031789
 30
0.0
 10
612.7330044312601
 20
1141.205365401954
 30
0.0
 10
612.7150073137179
 20
1141.166941906859
 30
0.0
 10
612.6970612950121
 20
1141.128882621914
 30
0.0
  0
SPLINE
  5
217
330
183
100
AcDbEntity
  8
P-SANR-FIXT
100
AcDbSpline
210
0.0
220
0.0
230
1.0
 70
     8
 71
     3
 72
     8
 73
     4
 74
     0
 42
0.000000001
 43
0.0000000001
 40
0.8129231976316274
 40
0.8129231976316274
 40
0.8129231976316274
 40
0.8129231976316274
 40
0.8148148148148145
 40
0.8148148148148145
 40
0.8148148148148145
 40
0.8148148148148145
 10
612.174844037724
 20
1140.101973085298
 30
0.0
 10
612.1697265870944
 20
1140.093341211278
 30
0.0
 10
612.1646106648159
 20
1140.084746357628
 30
0.0
 10
612.159497254948
 20
1140.076188598452
 30
0.0
  0
SPLINE
  5
218
330
183
100
AcDbEntity
  8
P-SANR-FIXT
100
AcDbSpline
210
0.0
220
0.0
230
1.0
 70
     8
 71
     3
 72
     9
 73
     5
 74
     0
 42
0.000000001
 43
0.0000000001
 40
0.8888888888888889
 40
0.8888888888888889
 40
0.8888888888888889
 40
0.8888888888888889
 40
0.9027777777777776
 40
0.9050441683140892
 40
0.9050441683140892
 40
0.9050441683140892
 40
0.9050441683140892
 10
611.6308640998862
 20
1139.246410263915
 30
0.0
 10
611.6059138549543
 20
1139.205937994527
 30
0.0
 10
611.5787862575299
 20
1139.161164312029
 30
0.0
 10
611.553460482928
 20
1139.120369446988
 30
0.0
 10
611.5499385794954
 20
1139.114713893374
 30
0.0
  0
SPLINE
  5
219
330
183
100
AcDbEntity
  8
P-SANR-FIXT
100
AcDbSpline
210
0.0
220
0.0
230
1.0
 70
     8
 71
     3
 72
    10
 73
     6
 74
     0
 42
0.000000001
 43
0.0000000001
 40
0.0
 40
0.0
 40
0.0
 40
0.0
 40
0.3333333333333333
 40
0.6666666666666666
 40
1.0
 40
1.0
 40
1.0
 40
1.0
 10
951.3287196339168
 20
1154.747075844254
 30
0.0
 10
950.8164380111084
 20
1155.183327677385
 30
0.0
 10
949.7079752069739
 20
1155.923627201844
 30
0.0
 10
947.8513782850951
 20
1156.598819646638
 30
0.0
 10
946.5507293954606
 20
1156.747075844254
 30
0.0
 10
945.8944336961835
 20
1156.747075844254
 30
0.0
  0
SPLINE
  5
21A
330
183
100
AcDbEntity
  8
P-SANR-FIXT
100
AcDbSpline
210
0.0
220
0.0
230
1.0
 70
     8
 71
     3
 72
    10
 73
     6
 74
     0
 42
0.000000001
 43
0.0000000001
 40
0.0
 40
0.0
 40
0.0
 40
0.0
 40
0.3333333333333333
 40
0.6666666666666666
 40
1.0
 40
1.0
 40
1.0
 40
1.0
 10
945.8188241961982
 20
1136.747075844254
 30
0.0
 10
946.4755557957996
 20
1136.747075844254
 30
0.0
 10
947.7778898675513
 20
1136.895570029302
 30
0.0
 10
949.6392445498697
 20
1137.570964181768
 30
0.0
 10
950.7528225815864
 20
1138.311068610874
 30
0.0
 10
951.2681572665917
 20
1138.747075844254
 30
0.0
  0
ARC
  5
21B
330
183
100
AcDbEntity
  8
P-SANR-FIXT
100
AcDbCircle
 10
600.6664074431962
 20
1146.74707584425
 30
0.0
 40
13.28455094929607
100
AcDbArc
 50
269.9999999999949
 51
89.99999999999582
  0
LINE
  5
21C
330
183
100
AcDbEntity
  8
P-SANR-FIXT
100
AcDbLine
 10
600.666407443197
 20
1160.031626793546
 30
0.0
 11
600.6664074431969
 21
1157.873577509774
 31
0.0
  0
LINE
  5
21D
330
183
100
AcDbEntity
  8
P-SANR-FIXT
100
AcDbLine
 10
600.6664074431954
 20
1135.620574178721
 30
0.0
 11
600.6664074431953
 21
1133.462524894954
 31
0.0
  0
SPLINE
  5
21E
330
183
100
AcDbEntity
  8
P-SANR-FIXT
100
AcDbSpline
210
0.0
220
0.0
230
1.0
 70
     8
 71
     3
 72
     8
 73
     4
 74
     0
 42
0.000000001
 43
0.0000000001
 40
0.0952512255589461
 40
0.0952512255589461
 40
0.0952512255589461
 40
0.0952512255589461
 40
0.125
 40
0.125
 40
0.125
 40
0.125
 10
601.8250097695856
 20
1133.513932050625
 30
0.0
 10
601.9454799014306
 20
1133.524607580974
 30
0.0
 10
602.0655677471512
 20
1133.537452123855
 30
0.0
 10
602.185290092207
 20
1133.552343882552
 30
0.0
  0
SPLINE
  5
21F
330
183
100
AcDbEntity
  8
P-SANR-FIXT
100
AcDbSpline
210
0.0
220
0.0
230
1.0
 70
     8
 71
     3
 72
     8
 73
     4
 74
     0
 42
0.000000001
 43
0.0000000001
 40
0.25
 40
0.25
 40
0.25
 40
0.25
 40
0.2852824752574081
 40
0.2852824752574081
 40
0.2852824752574081
 40
0.2852824752574081
 10
603.6907142480477
 20
1133.813634596104
 30
0.0
 10
603.8309235523764
 20
1133.846439790054
 30
0.0
 10
603.9701711854323
 20
1133.882249899226
 30
0.0
 10
604.1085861190506
 20
1133.920738490079
 30
0.0
  0
SPLINE
  5
220
330
183
100
AcDbEntity
  8
P-SANR-FIXT
100
AcDbSpline
210
0.0
220
0.0
230
1.0
 70
     8
 71
     3
 72
     8
 73
     4
 74
     0
 42
0.000000001
 43
0.0000000001
 40
0.375
 40
0.375
 40
0.375
 40
0.375
 40
0.379487811042942
 40
0.379487811042942
 40
0.379487811042942
 40
0.379487811042942
 10
605.1596313862489
 20
1134.247032846642
 30
0.0
 10
605.1769145538166
 20
1134.25322622245
 30
0.0
 10
605.1941760184238
 20
1134.259468696561
 30
0.0
 10
605.211416653982
 20
1134.265758817088
 30
0.0
  0
SPLINE
  5
221
330
183
100
AcDbEntity
  8
P-SANR-FIXT
100
AcDbSpline
210
0.0
220
0.0
230
1.0
 70
     8
 71
     3
 72
     8
 73
     4
 74
     0
 42
0.000000001
 43
0.0000000001
 40
0.4742130451855785
 40
0.4742130451855785
 40
0.4742130451855785
 40
0.4742130451855785
 40
0.5
 40
0.5
 40
0.5
 40
0.5
 10
606.2864030997681
 20
1134.710090389196
 30
0.0
 10
606.3821881107261
 20
1134.754713897955
 30
0.0
 10
606.4770919687863
 20
1134.800947396173
 30
0.0
 10
606.5721795236463
 20
1134.847447696353
 30
0.0
  0
SPLINE
  5
222
330
183
100
AcDbEntity
  8
P-SANR-FIXT
100
AcDbSpline
210
0.0
220
0.0
230
1.0
 70
     8
 71
     3
 72
     8
 73
     4
 74
     0
 42
0.000000001
 43
0.0000000001
 40
0.625
 40
0.625
 40
0.625
 40
0.625
 40
0.6631115139134081
 40
0.6631115139134081
 40
0.6631115139134081
 40
0.6631115139134081
 10
607.9080181183023
 20
1135.609704730921
 30
0.0
 10
608.039230951929
 20
1135.695042572566
 30
0.0
 10
608.1706764556462
 20
1135.780926626837
 30
0.0
 10
608.3006959483634
 20
1135.868931350093
 30
0.0
  0
SPLINE
  5
223
330
183
100
AcDbEntity
  8
P-SANR-FIXT
100
AcDbSpline
210
0.0
220
0.0
230
1.0
 70
     8
 71
     3
 72
     8
 73
     4
 74
     0
 42
0.000000001
 43
0.0000000001
 40
0.75
 40
0.75
 40
0.75
 40
0.75
 40
0.7563784414645828
 40
0.7563784414645828
 40
0.7563784414645828
 40
0.7563784414645828
 10
609.148078934493
 20
1136.522568881165
 30
0.0
 10
609.1682504898376
 20
1136.53930451053
 30
0.0
 10
609.1882632249752
 20
1136.556204176238
 30
0.0
 10
609.2081251791986
 20
1136.5732595856
 30
0.0
  0
SPLINE
  5
224
330
183
100
AcDbEntity
  8
P-SANR-FIXT
100
AcDbSpline
210
0.0
220
0.0
230
1.0
 70
     8
 71
     3
 72
     8
 73
     4
 74
     0
 42
0.000000001
 43
0.0000000001
 40
0.8512063275113735
 40
0.8512063275113735
 40
0.8512063275113735
 40
0.8512063275113735
 40
0.875
 40
0.875
 40
0.875
 40
0.875
 10
610.0694733168831
 20
1137.363120015913
 30
0.0
 10
610.1385425054362
 20
1137.432334382843
 30
0.0
 10
610.2054740043875
 20
1137.503492793416
 30
0.0
 10
610.2709121735411
 20
1137.576012086586
 30
0.0
  0
SPLINE
  5
225
330
183
100
AcDbEntity
  8
P-SANR-FIXT
100
AcDbSpline
210
0.0
220
0.0
230
1.0
 70
     8
 71
     3
 72
     8
 73
     4
 74
     0
 42
0.000000001
 43
0.0000000001
 40
0.125
 40
0.125
 40
0.125
 40
0.125
 40
0.1488034522526921
 40
0.1488034522526921
 40
0.1488034522526921
 40
0.1488034522526921
 10
610.2744669243723
 20
1155.921029330907
 30
0.0
 10
610.2069122611598
 20
1155.991778084346
 30
0.0
 10
610.1384263755927
 20
1156.061392541488
 30
0.0
 10
610.0691131816916
 20
1156.130077799829
 30
0.0
  0
SPLINE
  5
226
330
183
100
AcDbEntity
  8
P-SANR-FIXT
100
AcDbSpline
210
0.0
220
0.0
230
1.0
 70
     8
 71
     3
 72
     8
 73
     4
 74
     0
 42
0.000000001
 43
0.0000000001
 40
0.2436366413865595
 40
0.2436366413865595
 40
0.2436366413865595
 40
0.2436366413865595
 40
0.25
 40
0.25
 40
0.25
 40
0.25
 10
609.2084392391138
 20
1156.921200989883
 30
0.0
 10
609.188415205388
 20
1156.938015772579
 30
0.0
 10
609.1683295861753
 20
1156.954736670936
 30
0.0
 10
609.1482180455773
 20
1156.971467407066
 30
0.0
  0
SPLINE
  5
227
330
183
100
AcDbEntity
  8
P-SANR-FIXT
100
AcDbSpline
210
0.0
220
0.0
230
1.0
 70
     8
 71
     3
 72
     8
 73
     4
 74
     0
 42
0.000000001
 43
0.0000000001
 40
0.3369029962800131
 40
0.3369029962800131
 40
0.3369029962800131
 40
0.3369029962800131
 40
0.375
 40
0.375
 40
0.375
 40
0.375
 10
608.2971181978511
 20
1157.621491913405
 30
0.0
 10
608.1690089518035
 20
1157.711403261266
 30
0.0
 10
608.0399965338921
 20
1157.801494247466
 30
0.0
 10
607.9097008386508
 20
1157.889987251361
 30
0.0
  0
SPLINE
  5
228
330
183
100
AcDbEntity
  8
P-SANR-FIXT
100
AcDbSpline
210
0.0
220
0.0
230
1.0
 70
     8
 71
     3
 72
     8
 73
     4
 74
     0
 42
0.000000001
 43
0.0000000001
 40
0.5
 40
0.5
 40
0.5
 40
0.5
 40
0.525795332871464
 40
0.525795332871464
 40
0.525795332871464
 40
0.525795332871464
 10
606.5722898008196
 20
1158.646649261072
 30
0.0
 10
606.4775330507636
 20
1158.693613312635
 30
0.0
 10
606.3817777806063
 20
1158.737114817238
 30
0.0
 10
606.2851241884086
 20
1158.777504858265
 30
0.0
  0
SPLINE
  5
229
330
183
100
AcDbEntity
  8
P-SANR-FIXT
100
AcDbSpline
210
0.0
220
0.0
230
1.0
 70
     8
 71
     3
 72
     8
 73
     4
 74
     0
 42
0.000000001
 43
0.0000000001
 40
0.6205155065851037
 40
0.6205155065851037
 40
0.6205155065851037
 40
0.6205155065851037
 40
0.625
 40
0.625
 40
0.625
 40
0.625
 10
605.2114603092604
 20
1159.228418894416
 30
0.0
 10
605.1942135201541
 20
1159.234679591295
 30
0.0
 10
605.176943738315
 20
1159.240831347923
 30
0.0
 10
605.1596515037693
 20
1159.246876729064
 30
0.0
  0
SPLINE
  5
22A
330
183
100
AcDbEntity
  8
P-SANR-FIXT
100
AcDbSpline
210
0.0
220
0.0
230
1.0
 70
     8
 71
     3
 72
     8
 73
     4
 74
     0
 42
0.000000001
 43
0.0000000001
 40
0.714716099289362
 40
0.714716099289362
 40
0.714716099289362
 40
0.714716099289362
 40
0.75
 40
0.75
 40
0.75
 40
0.75
 10
604.1098688274468
 20
1159.575299423565
 30
0.0
 10
603.9706747115412
 20
1159.612626526187
 30
0.0
 10
603.8305802518094
 20
1159.643643077587
 30
0.0
 10
603.6897924752595
 20
1159.669840921208
 30
0.0
  0
SPLINE
  5
22B
330
183
100
AcDbEntity
  8
P-SANR-FIXT
100
AcDbSpline
210
0.0
220
0.0
230
1.0
 70
     8
 71
     3
 72
     8
 73
     4
 74
     0
 42
0.000000001
 43
0.0000000001
 40
0.875
 40
0.875
 40
0.875
 40
0.875
 40
0.9047460233371381
 40
0.9047460233371381
 40
0.9047460233371381
 40
0.9047460233371381
 10
602.1860558619138
 20
1159.943237904198
 30
0.0
 10
602.0658344162436
 20
1159.957212071488
 30
0.0
 10
601.9454399522317
 20
1159.967000463452
 30
0.0
 10
601.8249414185373
 20
1159.974408417665
 30
0.0
  0
ARC
  5
22C
330
183
100
AcDbEntity
  8
P-SANR-FIXT
100
AcDbCircle
 10
1043.657833406647
 20
1146.747075844248
 30
0.0
 40
13.28455094929616
100
AcDbArc
 50
97.85414843226314
 51
144.4901291300262
  0
ARC
  5
22D
330
183
100
AcDbEntity
  8
P-SANR-FIXT
100
AcDbCircle
 10
1043.657833406647
 20
1146.747075844248
 30
0.0
 40
13.28455094929609
100
AcDbArc
 50
215.5098708699327
 51
262.1458515677424
  0
LINE
  5
22E
330
183
100
AcDbEntity
  8
P-SANR-FIXT
100
AcDbLine
 10
1041.842475126449
 20
1133.587145440216
 30
0.0
 11
1041.842475126449
 21
1134.988571631199
 31
0.0
  0
LINE
  5
22F
330
183
100
AcDbEntity
  8
P-SANR-FIXT
100
AcDbLine
 10
1041.842475126448
 20
1158.50558005731
 30
0.0
 11
1041.842475126448
 21
1159.907006248279
 31
0.0
  0
SPLINE
  5
230
330
183
100
AcDbEntity
  8
P-SANR-FIXT
100
AcDbSpline
210
0.0
220
0.0
230
1.0
 70
     8
 71
     3
 72
     8
 73
     4
 74
     0
 42
0.000000001
 43
0.0000000001
 40
0.9651077412241097
 40
0.9651077412241097
 40
0.9651077412241097
 40
0.9651077412241097
 40
1.0
 40
1.0
 40
1.0
 40
1.0
 10
1040.707087272828
 20
1159.699774054409
 30
0.0
 10
1040.693522421329
 20
1159.696683860077
 30
0.0
 10
1040.67996245572
 20
1159.693572361715
 30
0.0
 10
1040.66640744318
 20
1159.69043957357
 30
0.0
  0
SPLINE
  5
231
330
183
100
AcDbEntity
  8
P-SANR-FIXT
100
AcDbSpline
210
0.0
220
0.0
230
1.0
 70
     8
 71
     3
 72
     8
 73
     4
 74
     0
 42
0.000000001
 43
0.0000000001
 40
0.1206360889022267
 40
0.1206360889022267
 40
0.1206360889022267
 40
0.1206360889022267
 40
0.1666666666666666
 40
0.1666666666666666
 40
0.1666666666666666
 40
0.1666666666666666
 10
1039.589226897459
 20
1159.393165725027
 30
0.0
 10
1039.453891963073
 20
1159.349615604496
 30
0.0
 10
1039.319789473532
 20
1159.303170214519
 30
0.0
 10
1039.186640778057
 20
1159.254325449042
 30
0.0
  0
SPLINE
  5
232
330
183
100
AcDbEntity
  8
P-SANR-FIXT
100
AcDbSpline
210
0.0
220
0.0
230
1.0
 70
     8
 71
     3
 72
     8
 73
     4
 74
     0
 42
0.000000001
 43
0.0000000001
 40
0.3333333333333333
 40
0.3333333333333333
 40
0.3333333333333333
 40
0.3333333333333333
 40
0.370116297848632
 40
0.370116297848632
 40
0.370116297848632
 40
0.370116297848632
 10
1037.764619468853
 20
1158.652928329804
 30
0.0
 10
1037.662796605691
 20
1158.602525436117
 30
0.0
 10
1037.560735780985
 20
1158.551847612217
 30
0.0
 10
1037.458762272691
 20
1158.500572012404
 30
0.0
  0
SPLINE
  5
233
330
183
100
AcDbEntity
  8
P-SANR-FIXT
100
AcDbSpline
210
0.0
220
0.0
230
1.0
 70
     8
 71
     3
 72
     8
 73
     4
 74
     0
 42
0.000000001
 43
0.0000000001
 40
0.493971273469409
 40
0.493971273469409
 40
0.493971273469409
 40
0.493971273469409
 40
0.5
 40
0.5
 40
0.5
 40
0.5
 10
1036.47032881764
 20
1157.919175932199
 30
0.0
 10
1036.454667766511
 20
1157.909100243938
 30
0.0
 10
1036.439001588171
 20
1157.899019812095
 30
0.0
 10
1036.423333175855
 20
1157.888931787049
 30
0.0
  0
SPLINE
  5
234
330
183
100
AcDbEntity
  8
P-SANR-FIXT
100
AcDbSpline
210
0.0
220
0.0
230
1.0
 70
     8
 71
     3
 72
     8
 73
     4
 74
     0
 42
0.000000001
 43
0.0000000001
 40
0.6198277091379657
 40
0.6198277091379657
 40
0.6198277091379657
 40
0.6198277091379657
 40
0.6666666666666666
 40
0.6666666666666666
 40
0.6666666666666666
 40
0.6666666666666666
 10
1035.518442706751
 20
1157.246064599979
 30
0.0
 10
1035.404106204076
 20
1157.157444955548
 30
0.0
 10
1035.289727034572
 20
1157.068383098994
 30
0.0
 10
1035.179861551056
 20
1156.974650685834
 30
0.0
  0
SPLINE
  5
235
330
183
100
AcDbEntity
  8
P-SANR-FIXT
100
AcDbSpline
210
0.0
220
0.0
230
1.0
 70
     8
 71
     3
 72
     8
 73
     4
 74
     0
 42
0.000000001
 43
0.0000000001
 40
0.8333333333333332
 40
0.8333333333333332
 40
0.8333333333333332
 40
0.8333333333333332
 40
0.866223200687193
 40
0.866223200687193
 40
0.866223200687193
 40
0.866223200687193
 10
1034.05118990739
 20
1155.922544495166
 30
0.0
 10
1033.981055832488
 20
1155.849114022835
 30
0.0
 10
1033.913203433191
 20
1155.773691875667
 30
0.0
 10
1033.846798450098
 20
1155.697002517872
 30
0.0
  0
SPLINE
  5
236
330
183
100
AcDbEntity
  8
P-SANR-FIXT
100
AcDbSpline
210
0.0
220
0.0
230
1.0
 70
     8
 71
     3
 72
     8
 73
     4
 74
     0
 42
0.000000001
 43
0.0000000001
 40
0.9918516889169065
 40
0.9918516889169065
 40
0.9918516889169065
 40
0.9918516889169065
 40
1.0
 40
1.0
 40
1.0
 40
1.0
 10
1033.097817747136
 20
1154.807183784275
 30
0.0
 10
1033.082557298531
 20
1154.787191118788
 30
0.0
 10
1033.067353899722
 20
1154.767155040581
 30
0.0
 10
1033.052207827533
 20
1154.747075844254
 30
0.0
  0
SPLINE
  5
237
330
183
100
AcDbEntity
  8
P-SANR-FIXT
100
AcDbSpline
210
0.0
220
0.0
230
1.0
 70
     8
 71
     3
 72
     8
 73
     4
 74
     0
 42
0.000000001
 43
0.0000000001
 40
0.0
 40
0.0
 40
0.0
 40
0.0
 40
0.0081468519917303
 40
0.0081468519917303
 40
0.0081468519917303
 40
0.0081468519917303
 10
1033.052207827524
 20
1138.747075844254
 30
0.0
 10
1033.067354895851
 20
1138.726995327341
 30
0.0
 10
1033.082559266856
 20
1138.706957974479
 30
0.0
 10
1033.097820663243
 20
1138.686964079628
 30
0.0
  0
SPLINE
  5
238
330
183
100
AcDbEntity
  8
P-SANR-FIXT
100
AcDbSpline
210
0.0
220
0.0
230
1.0
 70
     8
 71
     3
 72
     8
 73
     4
 74
     0
 42
0.000000001
 43
0.0000000001
 40
0.133752844310478
 40
0.133752844310478
 40
0.133752844310478
 40
0.133752844310478
 40
0.1666666666666666
 40
0.1666666666666666
 40
0.1666666666666666
 40
0.1666666666666666
 10
1033.843358744413
 20
1137.794250555018
 30
0.0
 10
1033.911853568066
 20
1137.719170083925
 30
0.0
 10
1033.981442818129
 20
1137.645282823087
 30
0.0
 10
1034.05199271994
 20
1137.572405357701
 30
0.0
  0
SPLINE
  5
239
330
183
100
AcDbEntity
  8
P-SANR-FIXT
100
AcDbSpline
210
0.0
220
0.0
230
1.0
 70
     8
 71
     3
 72
     8
 73
     4
 74
     0
 42
0.000000001
 43
0.0000000001
 40
0.3333333333333333
 40
0.3333333333333333
 40
0.3333333333333333
 40
0.3333333333333333
 40
0.3801153217219731
 40
0.3801153217219731
 40
0.3801153217219731
 40
0.3801153217219731
 10
1035.180257211213
 20
1136.519173039906
 30
0.0
 10
1035.29149780842
 20
1136.426972705774
 30
0.0
 10
1035.403322781399
 20
1136.334627789766
 30
0.0
 10
1035.516058311735
 20
1136.243008194026
 30
0.0
  0
SPLINE
  5
23A
330
183
100
AcDbEntity
  8
P-SANR-FIXT
100
AcDbSpline
210
0.0
220
0.0
230
1.0
 70
     8
 71
     3
 72
     8
 73
     4
 74
     0
 42
0.000000001
 43
0.0000000001
 40
0.5
 40
0.5
 40
0.5
 40
0.5
 40
0.5059666149917419
 40
0.5059666149917419
 40
0.5059666149917419
 40
0.5059666149917419
 10
1036.423908544399
 20
1135.604978376287
 30
0.0
 10
1036.439366862723
 20
1135.59494217634
 30
0.0
 10
1036.454831397014
 20
1135.584903313507
 30
0.0
 10
1036.470303580937
 20
1135.574865608183
 30
0.0
  0
SPLINE
  5
23B
330
183
100
AcDbEntity
  8
P-SANR-FIXT
100
AcDbSpline
210
0.0
220
0.0
230
1.0
 70
     8
 71
     3
 72
     8
 73
     4
 74
     0
 42
0.000000001
 43
0.0000000001
 40
0.6298227753886059
 40
0.6298227753886059
 40
0.6298227753886059
 40
0.6298227753886059
 40
0.6666666666666666
 40
0.6666666666666666
 40
0.6666666666666666
 40
0.6666666666666666
 10
1037.461130279729
 20
1134.996349527464
 30
0.0
 10
1037.561785340317
 20
1134.943256445577
 30
0.0
 10
1037.662680826041
 20
1134.890223133158
 30
0.0
 10
1037.765106954728
 20
1134.840982073103
 30
0.0
  0
SPLINE
  5
23C
330
183
100
AcDbEntity
  8
P-SANR-FIXT
100
AcDbSpline
210
0.0
220
0.0
230
1.0
 70
     8
 71
     3
 72
     8
 73
     4
 74
     0
 42
0.000000001
 43
0.0000000001
 40
0.8333333333333332
 40
0.8333333333333332
 40
0.8333333333333332
 40
0.8333333333333332
 40
0.8793367969280915
 40
0.8793367969280915
 40
0.8793367969280915
 40
0.8793367969280915
 10
1039.185706794155
 20
1134.23800250324
 30
0.0
 10
1039.319477058392
 20
1134.190178899703
 30
0.0
 10
1039.454885701014
 20
1134.147679599833
 30
0.0
 10
1039.591139323805
 20
1134.107893592648
 30
0.0
  0
SPLINE
  5
23D
330
183
100
AcDbEntity
  8
P-SANR-FIXT
100
AcDbSpline
210
0.0
220
0.0
230
1.0
 70
     8
 71
     3
 72
     8
 73
     4
 74
     0
 42
0.000000001
 43
0.0000000001
 40
0.0
 40
0.0
 40
0.0
 40
0.0
 40
0.0348922587771516
 40
0.0348922587771516
 40
0.0348922587771516
 40
0.0348922587771516
 10
1040.66640744318
 20
1133.803712114925
 30
0.0
 10
1040.679962455721
 20
1133.80057932678
 30
0.0
 10
1040.69352242133
 20
1133.797467828418
 30
0.0
 10
1040.70708727283
 20
1133.794377634086
 30
0.0
  0
LINE
  5
23E
330
183
100
AcDbEntity
  8
P-SANR-FIXT
100
AcDbLine
 10
1060.666407443171
 20
1260.01502503668
 30
0.0
 11
1060.666407443171
 21
1146.747075844245
 31
0.0
  0
LINE
  5
23F
330
183
100
AcDbEntity
  8
P-SANR-FIXT
100
AcDbLine
 10
1060.666407443171
 20
1146.747075844244
 30
0.0
 11
1060.66640744317
 21
1033.47912665181
 31
0.0
  0
LINE
  5
240
330
183
100
AcDbEntity
  8
P-SANR-FIXT
100
AcDbLine
 10
1057.66640744318
 20
1289.247075844253
 30
0.0
 11
1057.66640744318
 21
1146.747075844244
 31
0.0
  0
LINE
  5
241
330
183
100
AcDbEntity
  8
P-SANR-FIXT
100
AcDbLine
 10
1057.66640744318
 20
1146.747075844244
 30
0.0
 11
1057.666407443179
 21
1004.247075844237
 31
0.0
  0
LINE
  5
242
330
183
100
AcDbEntity
  8
P-SANR-FIXT
100
AcDbLine
 10
1040.66640744318
 20
1289.247075844253
 30
0.0
 11
1040.66640744318
 21
1159.699876670372
 31
0.0
  0
LINE
  5
243
330
183
100
AcDbEntity
  8
P-SANR-FIXT
100
AcDbLine
 10
1040.66640744318
 20
1133.794275018125
 30
0.0
 11
1040.666407443179
 21
1004.247075844237
 31
0.0
  0
SPLINE
  5
244
330
183
100
AcDbEntity
  8
P-SANR-FIXT
100
AcDbSpline
210
0.0
220
0.0
230
1.0
 70
     8
 71
     3
 72
     8
 73
     4
 74
     0
 42
0.000000001
 43
0.0000000001
 40
-0.4928104196849877
 40
-0.4928104196849877
 40
-0.4928104196849877
 40
-0.4928104196849877
 40
-0.4920011224076197
 40
-0.4920011224076197
 40
-0.4920011224076197
 40
-0.4920011224076197
 10
694.0444783587879
 20
1096.301233437488
 30
0.0
 10
694.0278389706898
 20
1096.309823469838
 30
0.0
 10
694.0111916191484
 20
1096.318443735649
 30
0.0
 10
693.9945363555283
 20
1096.327094187325
 30
0.0
  0
SPLINE
  5
245
330
183
100
AcDbEntity
  8
P-SANR-FIXT
100
AcDbSpline
210
0.0
220
0.0
230
1.0
 70
     8
 71
     3
 72
     8
 73
     4
 74
     0
 42
0.000000001
 43
0.0000000001
 40
-0.5110384515543338
 40
-0.5110384515543338
 40
-0.5110384515543338
 40
-0.5110384515543338
 40
-0.5095396518067954
 40
-0.5095396518067954
 40
-0.5095396518067954
 40
-0.5095396518067954
 10
693.7509126934983
 20
1196.851652363528
 30
0.0
 10
693.7817203207345
 20
1196.867915802008
 30
0.0
 10
693.8125010043348
 20
1196.88408182958
 30
0.0
 10
693.8432539290873
 20
1196.900149468621
 30
0.0
  0
ELLIPSE
  5
246
330
183
100
AcDbEntity
  8
P-SANR-FIXT
100
AcDbEllipse
 10
741.1029658595882
 20
1146.747075844256
 30
0.0
 11
0.0
 21
54.989754189113
 31
0.0
210
0.0
220
0.0
230
1.0
 40
0.9654455649008632
 41
4.71238898038468
 42
7.85398163397448
  0
ELLIPSE
  5
247
330
183
100
AcDbEntity
  8
P-SANR-FIXT
100
AcDbEllipse
 10
741.1029658595882
 20
1146.747075844256
 30
0.0
 11
0.0
 21
54.989754189113
 31
0.0
210
0.0
220
0.0
230
1.0
 40
0.9654455649008632
 41
1.570796326794898
 42
4.71238898038468
  0
ELLIPSE
  5
248
330
183
100
AcDbEntity
  8
P-SANR-FIXT
100
AcDbEllipse
 10
743.7085283745678
 20
1146.747075844256
 30
0.0
 11
0.0000000000019026
 21
55.18276720378457
 31
0.0
210
0.0
220
0.0
230
0.9999999999999998
 40
0.9654455649008648
 41
4.712388980384708
 42
6.357985132265082
  0
ELLIPSE
  5
249
330
183
100
AcDbEntity
  8
P-SANR-FIXT
100
AcDbEllipse
 10
743.7085283745678
 20
1146.747075844256
 30
0.0
 11
0.0
 21
55.18276720378483
 31
0.0
210
0.0
220
0.0
230
1.0
 40
0.9654455649008616
 41
3.066792828504308
 42
4.712388980384677
  0
ELLIPSE
  5
24A
330
183
100
AcDbEntity
  8
P-SANR-FIXT
100
AcDbEllipse
 10
756.9545789513214
 20
1146.747075844255
 30
0.0
 11
0.0000000000020158
 21
76.75693420619132
 31
0.0
210
0.0
220
0.0
230
1.0
 40
0.9654455649008685
 41
4.7123889803847
 42
6.675884388878325
  0
ELLIPSE
  5
24B
330
183
100
AcDbEntity
  8
P-SANR-FIXT
100
AcDbEllipse
 10
756.9545789513214
 20
1146.747075844255
 30
0.0
 11
0.0
 21
76.7569342061916
 31
0.0
210
0.0
220
0.0
230
0.9999999999999998
 40
0.9654455649008649
 41
2.748893571891056
 42
4.712388980384676
  0
ELLIPSE
  5
24C
330
183
100
AcDbEntity
  8
P-SANR-FIXT
100
AcDbEllipse
 10
756.9261541827998
 20
1146.747075844255
 30
0.0
 11
0.0000000000020178
 21
82.40691566629426
 31
0.0
210
0.0
220
0.0
230
1.0
 40
0.9654455649008662
 41
4.712388980384698
 42
7.853981633974495
  0
ELLIPSE
  5
24D
330
183
100
AcDbEntity
  8
P-SANR-FIXT
100
AcDbEllipse
 10
756.9261541827998
 20
1146.747075844255
 30
0.0
 11
0.0000000000051285
 21
82.40691566629449
 31
0.0
210
0.0
220
0.0
230
1.0
 40
0.9654455649008621
 41
1.570796326794953
 42
4.712388980384734
  0
ELLIPSE
  5
24E
330
183
100
AcDbEntity
  8
P-SANR-FIXT
100
AcDbEllipse
 10
756.8004038881124
 20
1146.747075844255
 30
0.0
 11
0.0000000000004597
 21
107.4022584795273
 31
0.0
210
0.0
220
0.0
230
1.0
 40
0.9654455649008667
 41
4.712388980384679
 42
7.853981633974476
  0
ELLIPSE
  5
24F
330
183
100
AcDbEntity
  8
P-SANR-FIXT
100
AcDbEllipse
 10
756.8004038881124
 20
1146.747075844255
 30
0.0
 11
0.0000000000052532
 21
107.4022584795275
 31
0.0
210
0.0
220
0.0
230
1.0
 40
0.9654455649008635
 41
1.570796326794939
 42
4.712388980384719
  0
ELLIPSE
  5
250
330
183
100
AcDbEntity
  8
P-SANR-FIXT
100
AcDbEllipse
 10
759.405966403092
 20
1146.747075844255
 30
0.0
 11
0.0000000000004605
 21
107.5952714941991
 31
0.0
210
0.0
220
0.0
230
1.0
 40
0.9654455649008655
 41
4.712388980384679
 42
6.361725123519326
  0
ELLIPSE
  5
251
330
183
100
AcDbEntity
  8
P-SANR-FIXT
100
AcDbEllipse
 10
759.405966403092
 20
1146.747075844255
 30
0.0
 11
0.0
 21
107.5952714941994
 31
0.0
210
0.0
220
0.0
230
0.9999999999999998
 40
0.9654455649008642
 41
3.063052837250035
 42
4.712388980384674
  0
ELLIPSE
  5
252
330
183
100
AcDbEntity
  8
P-SANR-FIXT
100
AcDbEllipse
 10
759.8223275780128
 20
1146.747075844255
 30
0.0
 11
0.0000000000021414
 21
108.0265347264908
 31
0.0
210
0.0
220
0.0
230
1.0
 40
0.9654455649008649
 41
4.712388980384694
 42
6.468893342017129
  0
LINE
  5
253
330
183
100
AcDbEntity
  8
P-SANR-FIXT
100
AcDbLine
 10
735.4754377658468
 20
1251.78882881709
 30
0.0
 11
735.318130419661
 21
1251.749577263935
 31
0.0
  0
LINE
  5
254
330
183
100
AcDbEntity
  8
P-SANR-FIXT
100
AcDbLine
 10
735.3181304196551
 20
1041.744574424577
 30
0.0
 11
735.4754377658452
 21
1041.705322871421
 31
0.0
  0
ELLIPSE
  5
255
330
183
100
AcDbEntity
  8
P-SANR-FIXT
100
AcDbEllipse
 10
759.8223275780128
 20
1146.747075844255
 30
0.0
 11
0.0
 21
108.026534726491
 31
0.0
210
0.0
220
0.0
230
1.0
 40
0.9654455649008621
 41
2.95588461875225
 42
4.712388980384674
  0
ELLIPSE
  5
256
330
183
100
AcDbEntity
  8
P-SANR-FIXT
100
AcDbEllipse
 10
773.7425598643745
 20
1146.747075844255
 30
0.0
 11
0.0
 21
115.7763307149461
 31
0.0
210
0.0
220
0.0
230
1.0
 40
0.9654455649008635
 41
4.897593571565261
 42
6.850872671533713
  0
ELLIPSE
  5
257
330
183
100
AcDbEntity
  8
P-SANR-FIXT
100
AcDbEllipse
 10
773.7425598643745
 20
1146.747075844255
 30
0.0
 11
0.0
 21
115.7763307149462
 31
0.0
210
0.0
220
0.0
230
0.9999999999999998
 40
0.9654455649008626
 41
2.573905289235618
 42
4.527184389204084
  0
ELLIPSE
  5
258
330
183
100
AcDbEntity
  8
P-SANR-FIXT
100
AcDbEllipse
 10
802.9954845612836
 20
1146.747075844255
 30
0.0
 11
0.0
 21
102.8096205635778
 31
0.0
210
0.0
220
0.0
230
1.0
 40
0.9654455649008626
 41
4.974980808235664
 42
5.867492322449342
  0
ELLIPSE
  5
259
330
183
100
AcDbEntity
  8
P-SANR-FIXT
100
AcDbEllipse
 10
802.9954845612836
 20
1146.747075844255
 30
0.0
 11
0.0
 21
102.8096205635773
 31
0.0
210
0.0
220
0.0
230
1.0
 40
0.9654455649008678
 41
3.558233215527213
 42
4.449796422923411
  0
ELLIPSE
  5
25A
330
183
100
AcDbEntity
  8
P-SANR-FIXT
100
AcDbEllipse
 10
839.7344181182377
 20
1146.747075844254
 30
0.0
 11
0.0
 21
117.2501905728785
 31
0.0
210
0.0
220
0.0
230
1.0
 40
0.9654455649008605
 41
5.245041878144933
 42
6.601257320154344
  0
ELLIPSE
  5
25B
330
183
100
AcDbEntity
  8
P-SANR-FIXT
100
AcDbEllipse
 10
839.7344181182377
 20
1146.747075844254
 30
0.0
 11
0.0
 21
117.2501905728779
 31
0.0
210
0.0
220
0.0
230
0.9999999999999998
 40
0.9654455649008665
 41
2.823520640614997
 42
4.173711597870335
  0
ELLIPSE
  5
25C
330
183
100
AcDbEntity
  8
P-SANR-FIXT
100
AcDbEllipse
 10
843.6427618907071
 20
1146.747075844254
 30
0.0
 11
0.0
 21
117.5397100948859
 31
0.0
210
0.0
220
0.0
230
0.9999999999999998
 40
0.9654455649008609
 41
5.246659668575539
 42
6.361725123519323
  0
ELLIPSE
  5
25D
330
183
100
AcDbEntity
  8
P-SANR-FIXT
100
AcDbEllipse
 10
843.6427618907071
 20
1146.747075844254
 30
0.0
 11
0.0
 21
117.5397100948857
 31
0.0
210
0.0
220
0.0
230
1.0
 40
0.9654455649008653
 41
3.063052837250037
 42
4.172255527426954
  0
ELLIPSE
  5
25E
330
183
100
AcDbEntity
  8
P-SANR-FIXT
100
AcDbEllipse
 10
843.5673117138948
 20
1146.747075844254
 30
0.0
 11
0.0
 21
132.5369157828258
 31
0.0
210
0.0
220
0.0
230
1.0
 40
0.9654455649008626
 41
5.18996906250704
 42
6.795741928366746
  0
ELLIPSE
  5
25F
330
183
100
AcDbEntity
  8
P-SANR-FIXT
100
AcDbEllipse
 10
843.5673117138948
 20
1146.747075844254
 30
0.0
 11
0.0
 21
132.5369157828257
 31
0.0
210
0.0
220
0.0
230
1.0
 40
0.9654455649008632
 41
2.629036032402598
 42
4.22985041736983
  0
ELLIPSE
  5
260
330
183
100
AcDbEntity
  8
P-SANR-FIXT
100
AcDbEllipse
 10
848.7784367438539
 20
1146.747075844254
 30
0.0
 11
0.0
 21
132.9229418121693
 31
0.0
210
0.0
220
0.0
230
1.0
 40
0.9654455649008609
 41
5.191151901434219
 42
6.354585140215709
  0
ELLIPSE
  5
261
330
183
100
AcDbEntity
  8
P-SANR-FIXT
100
AcDbEllipse
 10
848.7784367438539
 20
1146.747075844254
 30
0.0
 11
0.0
 21
132.9229418121692
 31
0.0
210
0.0
220
0.0
230
1.0
 40
0.9654455649008639
 41
3.070192820553649
 42
4.228462661783252
  0
ELLIPSE
  5
262
330
183
100
AcDbEntity
  8
P-SANR-FIXT
100
AcDbEllipse
 10
850.3665258524625
 20
1146.747075844254
 30
0.0
 11
0.0
 21
143.5230367404298
 31
0.0
210
0.0
220
0.0
230
1.0
 40
0.9654455649008621
 41
5.158577687713749
 42
6.917000814951572
  0
ELLIPSE
  5
263
330
183
100
AcDbEntity
  8
P-SANR-FIXT
100
AcDbEllipse
 10
850.3665258524625
 20
1146.747075844254
 30
0.0
 11
0.0
 21
143.5230367404293
 31
0.0
210
0.0
220
0.0
230
0.9999999999999998
 40
0.9654455649008657
 41
2.507777145817763
 42
4.261478890628647
  0
ELLIPSE
  5
264
330
183
100
AcDbEntity
  8
P-SANR-FIXT
100
AcDbEllipse
 10
854.4374595249857
 20
1146.747075844254
 30
0.0
 11
0.0
 21
143.8246004819042
 31
0.0
210
0.0
220
0.0
230
1.0
 40
0.9654455649008625
 41
5.15926422698863
 42
6.354585140215708
  0
ELLIPSE
  5
265
330
183
100
AcDbEntity
  8
P-SANR-FIXT
100
AcDbEllipse
 10
854.4374595249857
 20
1146.747075844254
 30
0.0
 11
0.0
 21
143.824600481904
 31
0.0
210
0.0
220
0.0
230
1.0
 40
0.9654455649008648
 41
3.070192820553649
 42
4.260773076098805
  0
ELLIPSE
  5
266
330
183
100
AcDbEntity
  8
P-SANR-FIXT
100
AcDbEllipse
 10
874.0706715626624
 20
1146.747075844254
 30
0.0
 11
0.0
 21
126.7549060946534
 31
0.0
210
0.0
220
0.0
230
1.0
 40
0.9654455649008646
 41
5.225487644805532
 42
5.335618108009349
  0
ELLIPSE
  5
267
330
183
100
AcDbEntity
  8
P-SANR-FIXT
100
AcDbEllipse
 10
874.0706715626624
 20
1146.747075844254
 30
0.0
 11
0.0
 21
126.7549060946536
 31
0.0
210
0.0
220
0.0
230
1.0
 40
0.9654455649008651
 41
4.089159852760017
 42
4.193784772626687
  0
ENDBLK
  5
269
330
183
100
AcDbEntity
  8
0
100
AcDbBlockEnd
  0
BLOCK
  5
317
330
26B
100
AcDbEntity
  8
0
100
AcDbBlockBegin
  2
Automatic flow rate regulator valve_Caleffi_121 DN15 - 1_2__-V2-Est - Idraulica
 70
     0
 10
0.0
 20
0.0
 30
0.0
  3
Automatic flow rate regulator valve_Caleffi_121 DN15 - 1_2__-V2-Est - Idraulica
  1

  0
LINE
  5
26C
330
26B
100
AcDbEntity
  8
P-SANR-FIXT
100
AcDbLine
 10
1600.363156828893
 20
2143.063137166062
 30
0.0
 11
1600.363156828893
 21
2140.719007251539
 31
0.0
  0
LINE
  5
26D
330
26B
100
AcDbEntity
  8
P-SANR-FIXT
100
AcDbLine
 10
1610.363156828893
 20
2140.719007251539
 30
0.0
 11
1610.363156828893
 21
2143.063137166062
 31
0.0
  0
LINE
  5
26E
330
26B
100
AcDbEntity
  8
P-SANR-FIXT
100
AcDbLine
 10
1596.287257294846
 20
2140.719007251539
 30
0.0
 11
1596.287257294846
 21
2128.304101250253
 31
0.0
  0
LINE
  5
26F
330
26B
100
AcDbEntity
  8
P-SANR-FIXT
100
AcDbLine
 10
1614.439056362941
 20
2128.304101250253
 30
0.0
 11
1614.439056362941
 21
2140.719007251539
 31
0.0
  0
LINE
  5
270
330
26B
100
AcDbEntity
  8
P-SANR-FIXT
100
AcDbLine
 10
1598.68049218666
 20
2128.304101250253
 30
0.0
 11
1598.68049218666
 21
2113.259511877023
 31
0.0
  0
LINE
  5
271
330
26B
100
AcDbEntity
  8
P-SANR-FIXT
100
AcDbLine
 10
1612.045821471127
 20
2113.259511877023
 30
0.0
 11
1612.045821471127
 21
2128.304101250253
 31
0.0
  0
LINE
  5
272
330
26B
100
AcDbEntity
  8
P-SANR-FIXT
100
AcDbLine
 10
1600.363156828892
 20
2143.063137166061
 30
0.0
 11
1605.363156828891
 21
2143.063137166061
 31
0.0
  0
LINE
  5
273
330
26B
100
AcDbEntity
  8
P-SANR-FIXT
100
AcDbLine
 10
1605.363156828891
 20
2143.063137166061
 30
0.0
 11
1610.363156828891
 21
2143.063137166061
 31
0.0
  0
LINE
  5
274
330
26B
100
AcDbEntity
  8
P-SANR-FIXT
100
AcDbLine
 10
1596.287257294844
 20
2140.719007251538
 30
0.0
 11
1605.363156828891
 21
2140.719007251538
 31
0.0
  0
LINE
  5
275
330
26B
100
AcDbEntity
  8
P-SANR-FIXT
100
AcDbLine
 10
1605.363156828891
 20
2140.719007251538
 30
0.0
 11
1614.439056362939
 21
2140.719007251538
 31
0.0
  0
LINE
  5
276
330
26B
100
AcDbEntity
  8
P-SANR-FIXT
100
AcDbLine
 10
1596.287257294844
 20
2128.304101250252
 30
0.0
 11
1605.363156828891
 21
2128.304101250252
 31
0.0
  0
LINE
  5
277
330
26B
100
AcDbEntity
  8
P-SANR-FIXT
100
AcDbLine
 10
1605.363156828891
 20
2128.304101250252
 30
0.0
 11
1614.439056362939
 21
2128.304101250252
 31
0.0
  0
LINE
  5
278
330
26B
100
AcDbEntity
  8
P-SANR-FIXT
100
AcDbLine
 10
1607.430090083967
 20
2228.901861144501
 30
0.0
 11
1607.430090083967
 21
2227.165960834181
 31
0.0
  0
LINE
  5
279
330
26B
100
AcDbEntity
  8
P-SANR-FIXT
100
AcDbLine
 10
1607.430090083967
 20
2227.165960834181
 30
0.0
 11
1607.430090083967
 21
2203.017815176954
 31
0.0
  0
LINE
  5
27A
330
26B
100
AcDbEntity
  8
P-SANR-FIXT
100
AcDbLine
 10
1603.295094480078
 20
2203.017815176954
 30
0.0
 11
1603.295094480078
 21
2227.165960834181
 31
0.0
  0
LINE
  5
27B
330
26B
100
AcDbEntity
  8
P-SANR-FIXT
100
AcDbLine
 10
1603.295094480078
 20
2227.165960834181
 30
0.0
 11
1603.295094480078
 21
2228.901861144501
 31
0.0
  0
LINE
  5
27C
330
26B
100
AcDbEntity
  8
P-SANR-FIXT
100
AcDbLine
 10
1607.430090083967
 20
2203.017815176954
 30
0.0
 11
1603.295094480078
 21
2203.017815176954
 31
0.0
  0
LINE
  5
27D
330
26B
100
AcDbEntity
  8
P-SANR-FIXT
100
AcDbLine
 10
1603.295094480078
 20
2228.901861144501
 30
0.0
 11
1607.430090083967
 21
2228.901861144501
 31
0.0
  0
LINE
  5
27E
330
26B
100
AcDbEntity
  8
P-SANR-FIXT
100
AcDbLine
 10
1603.295094480078
 20
2227.165960834181
 30
0.0
 11
1607.430090083967
 21
2227.165960834181
 31
0.0
  0
LINE
  5
27F
330
26B
100
AcDbEntity
  8
P-SANR-FIXT
100
AcDbLine
 10
1595.363156828894
 20
2236.731878279804
 30
0.0
 11
1595.363156828895
 21
2219.618720837114
 31
0.0
  0
LINE
  5
280
330
26B
100
AcDbEntity
  8
P-SANR-FIXT
100
AcDbLine
 10
1615.363156828895
 20
2219.618720837114
 30
0.0
 11
1615.363156828894
 21
2236.731878279804
 31
0.0
  0
LINE
  5
281
330
26B
100
AcDbEntity
  8
P-SANR-FIXT
100
AcDbLine
 10
1591.16946262375
 20
2218.912528386748
 30
0.0
 11
1591.16946262375
 21
2206.803813307717
 31
0.0
  0
LINE
  5
282
330
26B
100
AcDbEntity
  8
P-SANR-FIXT
100
AcDbLine
 10
1619.556851034039
 20
2206.803813307717
 30
0.0
 11
1619.556851034039
 21
2218.912528386748
 31
0.0
  0
ELLIPSE
  5
283
330
26B
100
AcDbEntity
  8
P-SANR-FIXT
100
AcDbEllipse
 10
1605.363156828892
 20
2236.731878279803
 30
0.0
 11
9.99999999999977
 21
0.0
 31
0.0
210
0.0
220
0.0
230
0.9999999999999998
 40
0.2606047989068034
 41
1.570796326794873
 42
4.712388980384683
  0
ELLIPSE
  5
284
330
26B
100
AcDbEntity
  8
P-SANR-FIXT
100
AcDbEllipse
 10
1605.363156828892
 20
2236.731878279803
 30
0.0
 11
10.0
 21
0.0
 31
0.0
210
0.0
220
0.0
230
1.0
 40
0.2606047989067974
 41
4.712388980384683
 42
7.853981633974459
  0
ELLIPSE
  5
285
330
26B
100
AcDbEntity
  8
P-SANR-FIXT
100
AcDbEllipse
 10
1605.363156828892
 20
2219.618720837114
 30
0.0
 11
9.99999999999977
 21
0.0
 31
0.0
210
0.0
220
0.0
230
0.9999999999999998
 40
0.2606047989068034
 41
3.141592653589793
 42
4.503659274830682
  0
ELLIPSE
  5
286
330
26B
100
AcDbEntity
  8
P-SANR-FIXT
100
AcDbEllipse
 10
1605.363156828892
 20
2219.618720837114
 30
0.0
 11
10.00000000000015
 21
0.0
 31
0.0
210
0.0
220
0.0
230
0.9999999999999998
 40
0.2606047989067868
 41
4.921003482307583
 42
6.283185307179586
  0
ELLIPSE
  5
287
330
26B
100
AcDbEntity
  8
P-SANR-FIXT
100
AcDbEllipse
 10
1605.363156828892
 20
2218.912528386747
 30
0.0
 11
14.1936942051442
 21
0.0
 31
0.0
210
0.0
220
0.0
230
1.0
 40
0.2606047989067818
 41
2.352726519807948
 42
4.565987315347229
  0
ELLIPSE
  5
288
330
26B
100
AcDbEntity
  8
P-SANR-FIXT
100
AcDbEllipse
 10
1605.363156828892
 20
2218.912528386747
 30
0.0
 11
14.19369420514439
 21
0.0
 31
0.0
210
0.0
220
0.0
230
0.9999999999999998
 40
0.2606047989067842
 41
4.858710193729642
 42
7.072051440961426
  0
LINE
  5
289
330
26B
100
AcDbEntity
  8
P-SANR-FIXT
100
AcDbLine
 10
1550.374149258674
 20
2208.170884477127
 30
0.0
 11
1550.181138864621
 21
2198.518489446789
 31
0.0
  0
LINE
  5
28A
330
26B
100
AcDbEntity
  8
P-SANR-FIXT
100
AcDbLine
 10
1660.545174793168
 20
2198.518489446789
 30
0.0
 11
1660.352164399115
 21
2208.170884477127
 31
0.0
  0
LINE
  5
28B
330
26B
100
AcDbEntity
  8
P-SANR-FIXT
100
AcDbLine
 10
1550.233292508751
 20
2201.089244546207
 30
0.0
 11
1546.770496584118
 21
2198.683964199395
 31
0.0
  0
LINE
  5
28C
330
26B
100
AcDbEntity
  8
P-SANR-FIXT
100
AcDbLine
 10
1663.955817073672
 20
2198.683964199395
 30
0.0
 11
1660.493021149038
 21
2201.089244546207
 31
0.0
  0
LWPOLYLINE
  5
28D
330
26B
100
AcDbEntity
  8
P-SANR-FIXT
100
AcDbPolyline
 90
       10
 70
   128
 43
0.0
 10
1531.262967459903
 20
2173.627837661775
 10
1532.16590244496
 20
2178.461158944617
 10
1533.659355968307
 20
2182.847948081102
 10
1535.550859047855
 20
2186.66649537854
 10
1537.659739891008
 20
2189.900754098156
 10
1539.850967318187
 20
2192.602470691858
 10
1542.039864541762
 20
2194.852359054569
 10
1544.181858198595
 20
2196.734378262415
 10
1546.259137292613
 20
2198.323236235566
 10
1546.770496584118
 20
2198.683964199395
  0
LWPOLYLINE
  5
28E
330
26B
100
AcDbEntity
  8
P-SANR-FIXT
100
AcDbPolyline
 90
       10
 70
   128
 43
0.0
 10
1679.463346197886
 20
2173.627837661777
 10
1678.560411212828
 20
2178.461158944619
 10
1677.066957689482
 20
2182.847948081103
 10
1675.175454609933
 20
2186.666495378541
 10
1673.06657376678
 20
2189.900754098156
 10
1670.875346339602
 20
2192.602470691858
 10
1668.686449116027
 20
2194.85235905457
 10
1666.544455459193
 20
2196.734378262415
 10
1664.467176365175
 20
2198.323236235566
 10
1663.955817073671
 20
2198.683964199395
  0
LINE
  5
28F
330
26B
100
AcDbEntity
  8
P-SANR-FIXT
100
AcDbLine
 10
1531.262967459903
 20
2173.627837661775
 30
0.0
 11
1528.638229684391
 21
2149.949381494814
 31
0.0
  0
LINE
  5
290
330
26B
100
AcDbEntity
  8
P-SANR-FIXT
100
AcDbLine
 10
1682.088083973398
 20
2149.949381494814
 30
0.0
 11
1679.463346197886
 21
2173.627837661775
 31
0.0
  0
LINE
  5
291
330
26B
100
AcDbEntity
  8
P-SANR-FIXT
100
AcDbLine
 10
1497.962356594753
 20
2150.088788787385
 30
0.0
 11
1497.769346200699
 21
2140.436393757048
 31
0.0
  0
LINE
  5
292
330
26B
100
AcDbEntity
  8
P-SANR-FIXT
100
AcDbLine
 10
1712.95696745709
 20
2140.436393757048
 30
0.0
 11
1712.763957063036
 21
2150.088788787386
 31
0.0
  0
LINE
  5
293
330
26B
100
AcDbEntity
  8
P-SANR-FIXT
100
AcDbLine
 10
1497.789910010987
 20
2141.391740542309
 30
0.0
 11
1497.623763951763
 21
2140.799078247126
 31
0.0
  0
LINE
  5
294
330
26B
100
AcDbEntity
  8
P-SANR-FIXT
100
AcDbLine
 10
1713.102549706027
 20
2140.799078247127
 30
0.0
 11
1712.936403646803
 21
2141.39174054231
 31
0.0
  0
LINE
  5
295
330
26B
100
AcDbEntity
  8
P-SANR-FIXT
100
AcDbLine
 10
1497.336975049048
 20
2138.81977599589
 30
0.0
 11
1496.976400847826
 21
2102.060098664242
 31
0.0
  0
LINE
  5
296
330
26B
100
AcDbEntity
  8
P-SANR-FIXT
100
AcDbLine
 10
1713.749912809964
 20
2102.060098664244
 30
0.0
 11
1713.389338608741
 21
2138.819775995891
 31
0.0
  0
LWPOLYLINE
  5
297
330
26B
100
AcDbEntity
  8
P-SANR-FIXT
100
AcDbPolyline
 90
        4
 70
   128
 43
0.0
 10
1496.976400847825
 20
2102.060098664242
 10
1496.952802613473
 20
2101.779290558113
 10
1496.910809580255
 20
2101.5972506062
 10
1496.899055040634
 20
2101.563597150319
  0
LWPOLYLINE
  5
298
330
26B
100
AcDbEntity
  8
P-SANR-FIXT
100
AcDbPolyline
 90
        4
 70
   128
 43
0.0
 10
1713.749912809964
 20
2102.060098664244
 10
1713.773511044316
 20
2101.779290558114
 10
1713.815504077534
 20
2101.597250606201
 10
1713.827258617155
 20
2101.563597150319
  0
LINE
  5
299
330
26B
100
AcDbEntity
  8
P-SANR-FIXT
100
AcDbLine
 10
1496.85963555832
 20
2101.514787200506
 30
0.0
 11
1491.013640761821
 21
2091.900686099379
 31
0.0
  0
LINE
  5
29A
330
26B
100
AcDbEntity
  8
P-SANR-FIXT
100
AcDbLine
 10
1719.712672895969
 20
2091.90068609938
 30
0.0
 11
1713.874103665039
 21
2101.502575397279
 31
0.0
  0
LINE
  5
29B
330
26B
100
AcDbEntity
  8
P-SANR-FIXT
100
AcDbLine
 10
1489.643123789036
 20
2086.237631810761
 30
0.0
 11
1492.965967524476
 21
2058.479926626113
 31
0.0
  0
LINE
  5
29C
330
26B
100
AcDbEntity
  8
P-SANR-FIXT
100
AcDbLine
 10
1717.760346133315
 20
2058.479926626127
 30
0.0
 11
1721.083189868753
 21
2086.237631810762
 31
0.0
  0
LINE
  5
29D
330
26B
100
AcDbEntity
  8
P-SANR-FIXT
100
AcDbLine
 10
1488.114558210896
 20
1842.861940627186
 30
0.0
 11
1487.825042619816
 21
1828.383348081679
 31
0.0
  0
LINE
  5
29E
330
26B
100
AcDbEntity
  8
P-SANR-FIXT
100
AcDbLine
 10
1722.901271037975
 20
1828.38334808168
 30
0.0
 11
1722.611755446895
 21
1842.861940627187
 31
0.0
  0
LINE
  5
29F
330
26B
100
AcDbEntity
  8
P-SANR-FIXT
100
AcDbLine
 10
1472.82804055521
 20
1828.683229848745
 30
0.0
 11
1472.442019767104
 21
1809.378439788069
 31
0.0
  0
LINE
  5
2A0
330
26B
100
AcDbEntity
  8
P-SANR-FIXT
100
AcDbLine
 10
1738.284293890687
 20
1809.37843978807
 30
0.0
 11
1737.89827310258
 21
1828.683229848745
 31
0.0
  0
LINE
  5
2A1
330
26B
100
AcDbEntity
  8
P-SANR-FIXT
100
AcDbLine
 10
1461.842068760766
 20
1803.509544954551
 30
0.0
 11
1461.540509113748
 21
1788.428632589719
 31
0.0
  0
LINE
  5
2A2
330
26B
100
AcDbEntity
  8
P-SANR-FIXT
100
AcDbLine
 10
1749.185804544042
 20
1788.42863258972
 30
0.0
 11
1748.884244897025
 21
1803.509544954552
 31
0.0
  0
LINE
  5
2A3
330
26B
100
AcDbEntity
  8
P-SANR-FIXT
100
AcDbLine
 10
1487.802664994141
 20
1766.64075593654
 30
0.0
 11
1494.457779811679
 21
1764.179948587011
 31
0.0
  0
LINE
  5
2A4
330
26B
100
AcDbEntity
  8
P-SANR-FIXT
100
AcDbLine
 10
1716.268533846112
 20
1764.179948587011
 30
0.0
 11
1722.923648663651
 21
1766.640755936542
 31
0.0
  0
LINE
  5
2A5
330
26B
100
AcDbEntity
  8
P-SANR-FIXT
100
AcDbLine
 10
1475.632822874448
 20
1772.091801077383
 30
0.0
 11
1478.620053114938
 21
1715.048669796818
 31
0.0
  0
LINE
  5
2A6
330
26B
100
AcDbEntity
  8
P-SANR-FIXT
100
AcDbLine
 10
1732.106260542854
 20
1715.048669796819
 30
0.0
 11
1735.093490783343
 21
1772.091801077383
 31
0.0
  0
LINE
  5
2A7
330
26B
100
AcDbEntity
  8
P-SANR-FIXT
100
AcDbLine
 10
1503.859593262064
 20
1695.738273465533
 30
0.0
 11
1546.482185425476
 21
1584.88771539941
 31
0.0
  0
LINE
  5
2A8
330
26B
100
AcDbEntity
  8
P-SANR-FIXT
100
AcDbLine
 10
1664.244128232316
 20
1584.88771539941
 30
0.0
 11
1706.866720395727
 21
1695.738273465534
 31
0.0
  0
LWPOLYLINE
  5
2A9
330
26B
100
AcDbEntity
  8
P-SANR-FIXT
100
AcDbPolyline
 90
        6
 70
   128
 43
0.0
 10
1546.482185425476
 20
1584.887715399409
 10
1547.255997222679
 20
1583.208150736307
 10
1548.170217345665
 20
1581.726663956482
 10
1549.17563454311
 20
1580.430436455879
 10
1550.239995999095
 20
1579.294384550111
 10
1550.57927338337
 20
1578.969920903652
  0
LWPOLYLINE
  5
2AA
330
26B
100
AcDbEntity
  8
P-SANR-FIXT
100
AcDbPolyline
 90
        6
 70
   128
 43
0.0
 10
1664.244128232316
 20
1584.88771539941
 10
1663.470316435113
 20
1583.208150736308
 10
1662.556096312126
 20
1581.726663956482
 10
1661.550679114682
 20
1580.430436455879
 10
1660.486317658697
 20
1579.294384550112
 10
1660.147040274421
 20
1578.969920903652
  0
LINE
  5
2AB
330
26B
100
AcDbEntity
  8
P-SANR-FIXT
100
AcDbLine
 10
1550.57927338337
 20
1578.969920903652
 30
0.0
 11
1555.893702050756
 21
1574.009846643567
 31
0.0
  0
LINE
  5
2AC
330
26B
100
AcDbEntity
  8
P-SANR-FIXT
100
AcDbLine
 10
1654.832611607035
 20
1574.009846643567
 30
0.0
 11
1660.147040274421
 21
1578.969920903652
 31
0.0
  0
LINE
  5
2AD
330
26B
100
AcDbEntity
  8
P-SANR-FIXT
100
AcDbLine
 10
1554.327753818156
 20
1575.490120510531
 30
0.0
 11
1555.774761382538
 21
1567.489600969181
 31
0.0
  0
LINE
  5
2AE
330
26B
100
AcDbEntity
  8
P-SANR-FIXT
100
AcDbLine
 10
1654.951552275253
 20
1567.489600969181
 30
0.0
 11
1656.398559839635
 21
1575.490120510531
 31
0.0
  0
LINE
  5
2AF
330
26B
100
AcDbEntity
  8
P-SANR-FIXT
100
AcDbLine
 10
1557.548665553388
 20
1564.619406353119
 30
0.0
 11
1558.058464718989
 21
1564.14359947389
 31
0.0
  0
LINE
  5
2B0
330
26B
100
AcDbEntity
  8
P-SANR-FIXT
100
AcDbLine
 10
1652.667848938803
 20
1564.143599473891
 30
0.0
 11
1653.177648104404
 21
1564.61940635312
 31
0.0
  0
LINE
  5
2B1
330
26B
100
AcDbEntity
  8
P-SANR-FIXT
100
AcDbLine
 10
1589.469377604427
 20
1526.216064920184
 30
0.0
 11
1589.314058167086
 21
1518.448583938352
 31
0.0
  0
LINE
  5
2B2
330
26B
100
AcDbEntity
  8
P-SANR-FIXT
100
AcDbLine
 10
1621.412255490706
 20
1518.448583938352
 30
0.0
 11
1621.25687625202
 21
1526.219055568448
 31
0.0
  0
ARC
  5
2B3
330
26B
100
AcDbEntity
  8
P-SANR-FIXT
100
AcDbCircle
 10
1605.363156828899
 20
1970.998183850013
 30
0.0
 40
113.2679491924347
100
AcDbArc
 50
89.99999999999904
 51
269.9999999999985
  0
ARC
  5
2B4
330
26B
100
AcDbEntity
  8
P-SANR-FIXT
100
AcDbCircle
 10
1605.363156828891
 20
1970.998183850011
 30
0.0
 40
76.20000000000516
100
AcDbArc
 50
89.99999999999308
 51
270.0000000000041
  0
ARC
  5
2B5
330
26B
100
AcDbEntity
  8
P-SANR-FIXT
100
AcDbCircle
 10
1605.363156828899
 20
1970.998183850013
 30
0.0
 40
113.2679491924347
100
AcDbArc
 50
269.9999999999987
 51
89.9999999999988
  0
ARC
  5
2B6
330
26B
100
AcDbEntity
  8
P-SANR-FIXT
100
AcDbCircle
 10
1605.363156828891
 20
1970.998183850011
 30
0.0
 40
76.20000000000519
100
AcDbArc
 50
270.0000000000049
 51
89.99999999999266
  0
ARC
  5
2B7
330
26B
100
AcDbEntity
  8
P-SANR-FIXT
100
AcDbCircle
 10
1605.363156828899
 20
1970.998183850013
 30
0.0
 40
114.9999999999988
100
AcDbArc
 50
89.99999999999905
 51
269.9999999999986
  0
ARC
  5
2B8
330
26B
100
AcDbEntity
  8
P-SANR-FIXT
100
AcDbCircle
 10
1605.363156828899
 20
1970.998183850013
 30
0.0
 40
114.9999999999988
100
AcDbArc
 50
269.9999999999987
 51
89.99999999999882
  0
ARC
  5
2B9
330
26B
100
AcDbEntity
  8
P-SANR-FIXT
100
AcDbCircle
 10
1605.363156828899
 20
1970.998183850013
 30
0.0
 40
142.5000000000134
100
AcDbArc
 50
89.99999999999912
 51
269.9999999999988
  0
ARC
  5
2BA
330
26B
100
AcDbEntity
  8
P-SANR-FIXT
100
AcDbCircle
 10
1605.363156828899
 20
1970.998183850013
 30
0.0
 40
142.5000000000134
100
AcDbArc
 50
269.9999999999986
 51
89.99999999999882
  0
LINE
  5
2BB
330
26B
100
AcDbEntity
  8
P-SANR-FIXT
100
AcDbLine
 10
1616.499809443583
 20
2113.063137166061
 30
0.0
 11
1616.200945736318
 21
2113.063137166061
 31
0.0
  0
LINE
  5
2BC
330
26B
100
AcDbEntity
  8
P-SANR-FIXT
100
AcDbLine
 10
1594.525367921482
 20
2113.063137166061
 30
0.0
 11
1594.226504214217
 21
2113.063137166061
 31
0.0
  0
LINE
  5
2BD
330
26B
100
AcDbEntity
  8
P-SANR-FIXT
100
AcDbLine
 10
1592.078605879602
 20
2113.063137166061
 30
0.0
 11
1594.236655163374
 21
2113.063137166061
 31
0.0
  0
LINE
  5
2BE
330
26B
100
AcDbEntity
  8
P-SANR-FIXT
100
AcDbLine
 10
1616.489658494426
 20
2113.063137166061
 30
0.0
 11
1618.647707778194
 21
2113.063137166061
 31
0.0
  0
LINE
  5
2BF
330
26B
100
AcDbEntity
  8
P-SANR-FIXT
100
AcDbLine
 10
1618.647707778194
 20
2113.063137166061
 30
0.0
 11
1618.647707778194
 21
2112.877606974296
 31
0.0
  0
LINE
  5
2C0
330
26B
100
AcDbEntity
  8
P-SANR-FIXT
100
AcDbLine
 10
1618.647707778194
 20
2045.995101118609
 30
0.0
 11
1618.647707778194
 21
2046.02888239996
 31
0.0
  0
LINE
  5
2C1
330
26B
100
AcDbEntity
  8
P-SANR-FIXT
100
AcDbLine
 10
1618.647707778194
 20
2112.799813362847
 30
0.0
 11
1618.647707778194
 21
2112.877606974296
 31
0.0
  0
LINE
  5
2C2
330
26B
100
AcDbEntity
  8
P-SANR-FIXT
100
AcDbLine
 10
1592.078605879602
 20
2112.877606974296
 30
0.0
 11
1592.078605879602
 21
2112.799813362846
 31
0.0
  0
LINE
  5
2C3
330
26B
100
AcDbEntity
  8
P-SANR-FIXT
100
AcDbLine
 10
1592.078605879602
 20
2046.028882399963
 30
0.0
 11
1592.078605879602
 21
2045.995101118611
 31
0.0
  0
ARC
  5
2C4
330
26B
100
AcDbEntity
  8
P-SANR-FIXT
100
AcDbCircle
 10
1605.363156828903
 20
1970.998183850013
 30
0.0
 40
142.5000000000078
100
AcDbArc
 50
226.6975885465055
 51
228.2250972927266
  0
ARC
  5
2C5
330
26B
100
AcDbEntity
  8
P-SANR-FIXT
100
AcDbCircle
 10
1605.363156828903
 20
1970.998183850013
 30
0.0
 40
142.5000000000079
100
AcDbArc
 50
221.7529865691587
 51
223.2689304248992
  0
ARC
  5
2C6
330
26B
100
AcDbEntity
  8
P-SANR-FIXT
100
AcDbCircle
 10
1605.363156828903
 20
1970.998183850013
 30
0.0
 40
142.5000000000081
100
AcDbArc
 50
216.8324714199623
 51
217.0337557555292
  0
ARC
  5
2C7
330
26B
100
AcDbEntity
  8
P-SANR-FIXT
100
AcDbCircle
 10
1605.363156828903
 20
1970.998183850013
 30
0.0
 40
142.5000000000079
100
AcDbArc
 50
210.7728969430415
 51
212.1552319023707
  0
ARC
  5
2C8
330
26B
100
AcDbEntity
  8
P-SANR-FIXT
100
AcDbCircle
 10
1605.363156828903
 20
1970.998183850013
 30
0.0
 40
142.500000000008
100
AcDbArc
 50
205.6995108426686
 51
207.2761695627394
  0
ARC
  5
2C9
330
26B
100
AcDbEntity
  8
P-SANR-FIXT
100
AcDbCircle
 10
1605.363156828903
 20
1970.998183850013
 30
0.0
 40
142.500000000008
100
AcDbArc
 50
200.854609860985
 51
202.04800599976
  0
ARC
  5
2CA
330
26B
100
AcDbEntity
  8
P-SANR-FIXT
100
AcDbCircle
 10
1605.363156828903
 20
1970.998183850013
 30
0.0
 40
142.500000000008
100
AcDbArc
 50
195.0167303966386
 51
196.0723818547042
  0
ARC
  5
2CB
330
26B
100
AcDbEntity
  8
P-SANR-FIXT
100
AcDbCircle
 10
1605.363156828903
 20
1970.998183850013
 30
0.0
 40
142.5000000000079
100
AcDbArc
 50
189.675319961225
 51
191.2407301184772
  0
ARC
  5
2CC
330
26B
100
AcDbEntity
  8
P-SANR-FIXT
100
AcDbCircle
 10
1605.363156828903
 20
1970.998183850013
 30
0.0
 40
142.500000000008
100
AcDbArc
 50
184.7752686905426
 51
186.2188646881294
  0
LINE
  5
2CD
330
26B
100
AcDbEntity
  8
P-SANR-FIXT
100
AcDbLine
 10
1462.863159151422
 20
1970.972456044666
 30
0.0
 11
1462.86319624457
 21
1971.104171895112
 31
0.0
  0
ARC
  5
2CE
330
26B
100
AcDbEntity
  8
P-SANR-FIXT
100
AcDbCircle
 10
1605.363156828903
 20
1970.998183850013
 30
0.0
 40
142.5000000000077
100
AcDbArc
 50
173.7029277400625
 51
175.1800907411026
  0
ARC
  5
2CF
330
26B
100
AcDbEntity
  8
P-SANR-FIXT
100
AcDbCircle
 10
1605.363156828903
 20
1970.998183850013
 30
0.0
 40
142.5000000000079
100
AcDbArc
 50
168.7103506984958
 51
170.2635755104805
  0
ARC
  5
2D0
330
26B
100
AcDbEntity
  8
P-SANR-FIXT
100
AcDbCircle
 10
1605.363156828903
 20
1970.998183850013
 30
0.0
 40
142.5000000000078
100
AcDbArc
 50
163.6412525678126
 51
164.8217122389312
  0
ARC
  5
2D1
330
26B
100
AcDbEntity
  8
P-SANR-FIXT
100
AcDbCircle
 10
1605.363156828903
 20
1970.998183850013
 30
0.0
 40
142.5000000000079
100
AcDbArc
 50
157.8355957279445
 51
159.1032921768091
  0
ARC
  5
2D2
330
26B
100
AcDbEntity
  8
P-SANR-FIXT
100
AcDbCircle
 10
1605.363156828903
 20
1970.998183850013
 30
0.0
 40
142.5000000000078
100
AcDbArc
 50
152.6678607343457
 51
154.2481976471828
  0
ARC
  5
2D3
330
26B
100
AcDbEntity
  8
P-SANR-FIXT
100
AcDbCircle
 10
1605.363156828903
 20
1970.998183850013
 30
0.0
 40
142.5000000000076
100
AcDbArc
 50
147.8011189645709
 51
149.132666519212
  0
ARC
  5
2D4
330
26B
100
AcDbEntity
  8
P-SANR-FIXT
100
AcDbCircle
 10
1605.363156828903
 20
1970.998183850013
 30
0.0
 40
142.5000000000076
100
AcDbArc
 50
142.8810138132717
 51
143.1830013694302
  0
ARC
  5
2D5
330
26B
100
AcDbEntity
  8
P-SANR-FIXT
100
AcDbCircle
 10
1605.363156828903
 20
1970.998183850013
 30
0.0
 40
142.5000000000078
100
AcDbArc
 50
36.81699863056876
 51
37.11898618672959
  0
ARC
  5
2D6
330
26B
100
AcDbEntity
  8
P-SANR-FIXT
100
AcDbCircle
 10
1605.363156828903
 20
1970.998183850013
 30
0.0
 40
142.5000000000078
100
AcDbArc
 50
30.86733348069502
 51
32.19888103546515
  0
ARC
  5
2D7
330
26B
100
AcDbEntity
  8
P-SANR-FIXT
100
AcDbCircle
 10
1605.363156828903
 20
1970.998183850013
 30
0.0
 40
142.5000000000078
100
AcDbArc
 50
25.75180235276145
 51
27.33213926571258
  0
ARC
  5
2D8
330
26B
100
AcDbEntity
  8
P-SANR-FIXT
100
AcDbCircle
 10
1605.363156828903
 20
1970.998183850013
 30
0.0
 40
142.5000000000078
100
AcDbArc
 50
20.89670782315139
 51
22.16440427216829
  0
ARC
  5
2D9
330
26B
100
AcDbEntity
  8
P-SANR-FIXT
100
AcDbCircle
 10
1605.363156828903
 20
1970.998183850013
 30
0.0
 40
142.5000000000078
100
AcDbArc
 50
15.17828776091599
 51
16.35874743218642
  0
ARC
  5
2DA
330
26B
100
AcDbEntity
  8
P-SANR-FIXT
100
AcDbCircle
 10
1605.363156828903
 20
1970.998183850013
 30
0.0
 40
142.5000000000077
100
AcDbArc
 50
9.736424489450982
 51
11.28964930155516
  0
ARC
  5
2DB
330
26B
100
AcDbEntity
  8
P-SANR-FIXT
100
AcDbCircle
 10
1605.363156828903
 20
1970.998183850013
 30
0.0
 40
142.500000000008
100
AcDbArc
 50
4.819909258847393
 51
6.297072260020243
  0
LINE
  5
2DC
330
26B
100
AcDbEntity
  8
P-SANR-FIXT
100
AcDbLine
 10
1747.863117413237
 20
1971.104171895113
 30
0.0
 11
1747.863154506385
 21
1970.972456044664
 31
0.0
  0
ARC
  5
2DD
330
26B
100
AcDbEntity
  8
P-SANR-FIXT
100
AcDbCircle
 10
1605.363156828903
 20
1970.998183850013
 30
0.0
 40
142.5000000000076
100
AcDbArc
 50
353.781135311775
 51
355.2247313094998
  0
ARC
  5
2DE
330
26B
100
AcDbEntity
  8
P-SANR-FIXT
100
AcDbCircle
 10
1605.363156828903
 20
1970.998183850013
 30
0.0
 40
142.5000000000078
100
AcDbArc
 50
348.7592698814708
 51
350.324680038843
  0
ARC
  5
2DF
330
26B
100
AcDbEntity
  8
P-SANR-FIXT
100
AcDbCircle
 10
1605.363156828903
 20
1970.998183850013
 30
0.0
 40
142.5000000000078
100
AcDbArc
 50
343.9276181452556
 51
344.9832696034951
  0
ARC
  5
2E0
330
26B
100
AcDbEntity
  8
P-SANR-FIXT
100
AcDbCircle
 10
1605.363156828903
 20
1970.998183850013
 30
0.0
 40
142.5000000000079
100
AcDbArc
 50
337.951994000129
 51
339.1453901390526
  0
ARC
  5
2E1
330
26B
100
AcDbEntity
  8
P-SANR-FIXT
100
AcDbCircle
 10
1605.363156828903
 20
1970.998183850013
 30
0.0
 40
142.5000000000078
100
AcDbArc
 50
332.7238304372031
 51
334.3004891573812
  0
ARC
  5
2E2
330
26B
100
AcDbEntity
  8
P-SANR-FIXT
100
AcDbCircle
 10
1605.363156828903
 20
1970.998183850013
 30
0.0
 40
142.5000000000078
100
AcDbArc
 50
327.8447680975913
 51
329.2271030570432
  0
ARC
  5
2E3
330
26B
100
AcDbEntity
  8
P-SANR-FIXT
100
AcDbCircle
 10
1605.363156828903
 20
1970.998183850013
 30
0.0
 40
142.5000000000077
100
AcDbArc
 50
322.9662442444701
 51
323.167528580036
  0
ARC
  5
2E4
330
26B
100
AcDbEntity
  8
P-SANR-FIXT
100
AcDbCircle
 10
1605.363156828903
 20
1970.998183850013
 30
0.0
 40
142.5000000000076
100
AcDbArc
 50
316.7310695750406
 51
318.2470134308734
  0
ARC
  5
2E5
330
26B
100
AcDbEntity
  8
P-SANR-FIXT
100
AcDbCircle
 10
1605.363156828903
 20
1970.998183850013
 30
0.0
 40
142.5000000000078
100
AcDbArc
 50
311.7749027072342
 51
313.3024114535501
  0
LINE
  5
2E6
330
26B
100
AcDbEntity
  8
P-SANR-FIXT
100
AcDbLine
 10
1592.078605879602
 20
2112.877606974296
 30
0.0
 11
1592.078605879602
 21
2113.063137166061
 31
0.0
  0
ARC
  5
2E7
330
26B
100
AcDbEntity
  8
P-SANR-FIXT
100
AcDbCircle
 10
1605.3631568289
 20
1970.998183850013
 30
0.0
 40
142.5000000000139
100
AcDbArc
 50
94.47825357830607
 51
95.34916172444301
  0
ARC
  5
2E8
330
26B
100
AcDbEntity
  8
P-SANR-FIXT
100
AcDbCircle
 10
1605.3631568289
 20
1970.998183850013
 30
0.0
 40
142.5000000000138
100
AcDbArc
 50
84.65083827555863
 51
85.52174642169356
  0
ELLIPSE
  5
2E9
330
26B
100
AcDbEntity
  8
P-SANR-FIXT
100
AcDbEllipse
 10
1605.363156828892
 20
2208.096207572294
 30
0.0
 11
54.989754189113
 21
0.0
 31
0.0
210
0.0
220
0.0
230
1.0
 40
0.2606047989067949
 41
1.753795694283883
 42
4.712388980384675
  0
ELLIPSE
  5
2EA
330
26B
100
AcDbEntity
  8
P-SANR-FIXT
100
AcDbEllipse
 10
1605.363156828892
 20
2208.096207572294
 30
0.0
 11
54.98975418911302
 21
0.0
 31
0.0
210
0.0
220
0.0
230
1.0
 40
0.2606047989067937
 41
4.712388980384679
 42
7.670982266485505
  0
ELLIPSE
  5
2EB
330
26B
100
AcDbEntity
  8
P-SANR-FIXT
100
AcDbEllipse
 10
1605.363156828892
 20
2198.443550427409
 30
0.0
 11
55.18276720378434
 21
0.0
 31
0.0
210
0.0
220
0.0
230
1.0
 40
0.2606047989067975
 41
3.136381617419188
 42
4.712388980384671
  0
ELLIPSE
  5
2EC
330
26B
100
AcDbEntity
  8
P-SANR-FIXT
100
AcDbEllipse
 10
1605.363156828892
 20
2198.443550427409
 30
0.0
 11
55.1827672037848
 21
0.0
 31
0.0
210
0.0
220
0.0
230
1.0
 40
0.2606047989067949
 41
4.712388980384671
 42
6.288396343350223
  0
ELLIPSE
  5
2ED
330
26B
100
AcDbEntity
  8
P-SANR-FIXT
100
AcDbEllipse
 10
1605.363156828892
 20
2149.371772641945
 30
0.0
 11
76.75693420619158
 21
0.0
 31
0.0
210
0.0
220
0.0
230
1.0
 40
0.260604798906791
 41
3.089939173956291
 42
4.593835039980673
  0
ELLIPSE
  5
2EE
330
26B
100
AcDbEntity
  8
P-SANR-FIXT
100
AcDbEllipse
 10
1605.363156828892
 20
2149.371772641945
 30
0.0
 11
76.75693420619193
 21
0.0
 31
0.0
210
0.0
220
0.0
230
1.0
 40
0.2606047989067856
 41
4.830942920788646
 42
6.334838786813247
  0
ELLIPSE
  5
2EF
330
26B
100
AcDbEntity
  8
P-SANR-FIXT
100
AcDbEllipse
 10
1605.363156828892
 20
2149.477076023993
 30
0.0
 11
82.40691566629422
 21
0.0
 31
0.0
210
0.0
220
0.0
230
1.0
 40
0.2606047989067925
 41
2.739488838828279
 42
4.631186705943437
  0
ELLIPSE
  5
2F0
330
26B
100
AcDbEntity
  8
P-SANR-FIXT
100
AcDbEllipse
 10
1605.363156828892
 20
2149.477076023993
 30
0.0
 11
82.4069156662942
 21
0.0
 31
0.0
210
0.0
220
0.0
230
1.0
 40
0.2606047989067914
 41
4.793607924532169
 42
6.685289121941098
  0
ELLIPSE
  5
2F1
330
26B
100
AcDbEntity
  8
P-SANR-FIXT
100
AcDbEllipse
 10
1605.363156828892
 20
2149.94293492145
 30
0.0
 11
107.4022584795272
 21
0.0
 31
0.0
210
0.0
220
0.0
230
1.0
 40
0.260604798906793
 41
2.337376024948556
 42
4.650104071075894
  0
ELLIPSE
  5
2F2
330
26B
100
AcDbEntity
  8
P-SANR-FIXT
100
AcDbEllipse
 10
1605.363156828892
 20
2149.94293492145
 30
0.0
 11
107.4022584795275
 21
0.0
 31
0.0
210
0.0
220
0.0
230
1.0
 40
0.2606047989067883
 41
4.774673889693439
 42
7.087401935820826
  0
ELLIPSE
  5
2F3
330
26B
100
AcDbEntity
  8
P-SANR-FIXT
100
AcDbEllipse
 10
1605.363156828892
 20
2140.290277776565
 30
0.0
 11
107.5952714941991
 21
0.0
 31
0.0
210
0.0
220
0.0
230
1.0
 40
0.2606047989067915
 41
3.136381617419162
 42
4.567297998132802
  0
ELLIPSE
  5
2F4
330
26B
100
AcDbEntity
  8
P-SANR-FIXT
100
AcDbEllipse
 10
1605.363156828892
 20
2140.290277776565
 30
0.0
 11
107.5952714941995
 21
0.0
 31
0.0
210
0.0
220
0.0
230
1.0
 40
0.2606047989067946
 41
4.857479962636647
 42
6.288396343350233
  0
ELLIPSE
  5
2F5
330
26B
100
AcDbEntity
  8
P-SANR-FIXT
100
AcDbEllipse
 10
1605.363156828892
 20
2138.747811745969
 30
0.0
 11
108.0265347264905
 21
0.0
 31
0.0
210
0.0
220
0.0
230
0.9999999999999998
 40
0.2606047989067905
 41
3.063052837250044
 42
4.485577037043618
  0
ELLIPSE
  5
2F6
330
26B
100
AcDbEntity
  8
P-SANR-FIXT
100
AcDbEllipse
 10
1605.363156828892
 20
2138.747811745969
 30
0.0
 11
108.0265347264911
 21
0.0
 31
0.0
210
0.0
220
0.0
230
1.0
 40
0.2606047989067889
 41
4.93920092372584
 42
6.361725123519334
  0
ELLIPSE
  5
2F7
330
26B
100
AcDbEntity
  8
P-SANR-FIXT
100
AcDbEllipse
 10
1605.363156828893
 20
2087.178437046678
 30
0.0
 11
115.7763307149463
 21
0.0
 31
0.0
210
0.0
220
0.0
230
1.0
 40
0.2606047989067897
 41
2.953393784939704
 42
3.663026997702173
  0
ELLIPSE
  5
2F8
330
26B
100
AcDbEntity
  8
P-SANR-FIXT
100
AcDbEllipse
 10
1605.363156828893
 20
2087.178437046678
 30
0.0
 11
115.7763307149459
 21
0.0
 31
0.0
210
0.0
220
0.0
230
0.9999999999999998
 40
0.2606047989067943
 41
5.76175096306735
 42
6.471384175829672
  0
ELLIPSE
  5
2F9
330
26B
100
AcDbEntity
  8
P-SANR-FIXT
100
AcDbEllipse
 10
1605.363156828893
 20
1842.702713122861
 30
0.0
 11
117.2501905728781
 21
0.0
 31
0.0
210
0.0
220
0.0
230
1.0
 40
0.2606047989067931
 41
2.466021277286929
 42
4.712388980384668
  0
ELLIPSE
  5
2FA
330
26B
100
AcDbEntity
  8
P-SANR-FIXT
100
AcDbEllipse
 10
1605.363156828893
 20
1842.702713122861
 30
0.0
 11
117.2501905728779
 21
0.0
 31
0.0
210
0.0
220
0.0
230
1.0
 40
0.2606047989067925
 41
4.712388980384671
 42
6.95875668348232
  0
ELLIPSE
  5
2FB
330
26B
100
AcDbEntity
  8
P-SANR-FIXT
100
AcDbEllipse
 10
1605.363156828893
 20
1828.223727405533
 30
0.0
 11
117.5397100948858
 21
0.0
 31
0.0
210
0.0
220
0.0
230
0.9999999999999998
 40
0.2606047989067922
 41
3.136381617419162
 42
4.71238898038467
  0
ELLIPSE
  5
2FC
330
26B
100
AcDbEntity
  8
P-SANR-FIXT
100
AcDbEllipse
 10
1605.363156828893
 20
1828.223727405533
 30
0.0
 11
117.5397100948857
 21
0.0
 31
0.0
210
0.0
220
0.0
230
1.0
 40
0.2606047989067942
 41
4.712388980384673
 42
6.288396343350232
  0
ELLIPSE
  5
2FD
330
26B
100
AcDbEntity
  8
P-SANR-FIXT
100
AcDbEllipse
 10
1605.363156828893
 20
1828.503242744007
 30
0.0
 11
132.5369157828254
 21
0.0
 31
0.0
210
0.0
220
0.0
230
1.0
 40
0.2606047989067926
 41
2.651747773658405
 42
4.71238898038467
  0
ELLIPSE
  5
2FE
330
26B
100
AcDbEntity
  8
P-SANR-FIXT
100
AcDbEllipse
 10
1605.363156828893
 20
1828.503242744007
 30
0.0
 11
132.5369157828254
 21
0.0
 31
0.0
210
0.0
220
0.0
230
1.0
 40
0.2606047989067928
 41
4.712388980384674
 42
6.773030187110962
  0
ELLIPSE
  5
2FF
330
26B
100
AcDbEntity
  8
P-SANR-FIXT
100
AcDbEllipse
 10
1605.363156828893
 20
1809.197928454237
 30
0.0
 11
132.9229418121691
 21
0.0
 31
0.0
210
0.0
220
0.0
230
1.0
 40
0.2606047989067922
 41
3.136381617419158
 42
4.71238898038467
  0
ELLIPSE
  5
300
330
26B
100
AcDbEntity
  8
P-SANR-FIXT
100
AcDbEllipse
 10
1605.363156828893
 20
1809.197928454237
 30
0.0
 11
132.922941812169
 21
0.0
 31
0.0
210
0.0
220
0.0
230
1.0
 40
0.2606047989067928
 41
4.712388980384674
 42
6.288396343350227
  0
ELLIPSE
  5
301
330
26B
100
AcDbEntity
  8
P-SANR-FIXT
100
AcDbEllipse
 10
1605.363156828893
 20
1803.314638534001
 30
0.0
 11
143.5230367404295
 21
0.0
 31
0.0
210
0.0
220
0.0
230
1.0
 40
0.2606047989067918
 41
2.753339204049789
 42
4.712388980384671
  0
ELLIPSE
  5
302
330
26B
100
AcDbEntity
  8
P-SANR-FIXT
100
AcDbEllipse
 10
1605.363156828893
 20
1803.314638534001
 30
0.0
 11
143.5230367404297
 21
0.0
 31
0.0
210
0.0
220
0.0
230
1.0
 40
0.2606047989067935
 41
4.712388980384675
 42
6.671438756719584
  0
ELLIPSE
  5
303
330
26B
100
AcDbEntity
  8
P-SANR-FIXT
100
AcDbEllipse
 10
1605.363156828893
 20
1788.233316641119
 30
0.0
 11
143.824600481904
 21
0.0
 31
0.0
210
0.0
220
0.0
230
1.0
 40
0.2606047989067911
 41
3.136381617419161
 42
4.712388980384671
  0
ELLIPSE
  5
304
330
26B
100
AcDbEntity
  8
P-SANR-FIXT
100
AcDbEllipse
 10
1605.363156828893
 20
1788.233316641119
 30
0.0
 11
143.8246004819041
 21
0.0
 31
0.0
210
0.0
220
0.0
230
1.0
 40
0.2606047989067925
 41
4.712388980384675
 42
6.288396343350235
  0
ELLIPSE
  5
305
330
26B
100
AcDbEntity
  8
P-SANR-FIXT
100
AcDbEllipse
 10
1605.363156828893
 20
1715.499439267999
 30
0.0
 11
126.7549060946537
 21
0.0
 31
0.0
210
0.0
220
0.0
230
1.0
 40
0.2606047989067905
 41
3.141592653589779
 42
4.712388980384669
  0
ELLIPSE
  5
306
330
26B
100
AcDbEntity
  8
P-SANR-FIXT
100
AcDbEllipse
 10
1605.363156828893
 20
1715.499439267999
 30
0.0
 11
126.7549060946537
 21
0.0
 31
0.0
210
0.0
220
0.0
230
1.0
 40
0.2606047989067905
 41
4.712388980384672
 42
6.283185307179586
  0
ELLIPSE
  5
307
330
26B
100
AcDbEntity
  8
P-SANR-FIXT
100
AcDbEllipse
 10
1605.363156828894
 20
1577.609580103787
 30
0.0
 11
51.36171588422087
 21
0.0
 31
0.0
210
0.0
220
0.0
230
1.0
 40
0.2606047989067917
 41
3.413880474931584
 42
4.71238898038467
  0
ELLIPSE
  5
308
330
26B
100
AcDbEntity
  8
P-SANR-FIXT
100
AcDbEllipse
 10
1605.363156828894
 20
1577.609580103787
 30
0.0
 11
51.36171588422076
 21
0.0
 31
0.0
210
0.0
220
0.0
230
1.0
 40
0.2606047989067961
 41
4.71238898038467
 42
6.010897485837785
  0
ELLIPSE
  5
309
330
26B
100
AcDbEntity
  8
P-SANR-FIXT
100
AcDbEllipse
 10
1605.363156828894
 20
1568.098713430583
 30
0.0
 11
49.64344820566715
 21
0.0
 31
0.0
210
0.0
220
0.0
230
0.9999999999999998
 40
0.2606047989067933
 41
3.172364414501672
 42
4.71238898038467
  0
ELLIPSE
  5
30A
330
26B
100
AcDbEntity
  8
P-SANR-FIXT
100
AcDbEllipse
 10
1605.363156828894
 20
1568.098713430583
 30
0.0
 11
49.64344820566771
 21
0.0
 31
0.0
210
0.0
220
0.0
230
1.0
 40
0.2606047989067884
 41
4.712388980384673
 42
6.252413546266902
  0
ELLIPSE
  5
30B
330
26B
100
AcDbEntity
  8
P-SANR-FIXT
100
AcDbEllipse
 10
1605.363156828894
 20
1518.42678872752
 30
0.0
 11
16.04931657009403
 21
0.0
 31
0.0
210
0.0
220
0.0
230
1.0
 40
0.2606047989067905
 41
3.136381617419185
 42
4.712388980384683
  0
ELLIPSE
  5
30C
330
26B
100
AcDbEntity
  8
P-SANR-FIXT
100
AcDbEllipse
 10
1605.363156828894
 20
1518.42678872752
 30
0.0
 11
16.0493165700941
 21
0.0
 31
0.0
210
0.0
220
0.0
230
1.0
 40
0.2606047989068008
 41
4.712388980384683
 42
6.288396343350248
  0
LINE
  5
30D
330
26B
100
AcDbEntity
  8
P-SANR-FIXT
100
AcDbLine
 10
1655.548589703904
 20
1557.371027979723
 30
0.0
 11
1655.454761068538
 21
1568.128386298544
 31
0.0
  0
LINE
  5
30E
330
26B
100
AcDbEntity
  8
P-SANR-FIXT
100
AcDbLine
 10
1651.8287346271
 20
1540.505366579457
 30
0.0
 11
1652.98268381597
 21
1553.235752091793
 31
0.0
  0
LINE
  5
30F
330
26B
100
AcDbEntity
  8
P-SANR-FIXT
100
AcDbLine
 10
1555.271552589253
 20
1568.128386298544
 30
0.0
 11
1555.177723953888
 21
1557.371027979722
 31
0.0
  0
LINE
  5
310
330
26B
100
AcDbEntity
  8
P-SANR-FIXT
100
AcDbLine
 10
1557.743629841822
 20
1553.235752091792
 30
0.0
 11
1558.897579030691
 21
1540.505366579457
 31
0.0
  0
LWPOLYLINE
  5
311
330
26B
100
AcDbEntity
  8
P-SANR-FIXT
100
AcDbPolyline
 90
       40
 70
   128
 43
0.0
 10
1558.897579030691
 20
1540.505366579457
 10
1559.092545804457
 20
1539.33732498169
 10
1559.444238759713
 20
1538.240472926242
 10
1559.920850626633
 20
1537.238237885899
 10
1560.491296170047
 20
1536.335868256957
 10
1561.13158578464
 20
1535.52638396113
 10
1561.826129803399
 20
1534.797226162252
 10
1562.566222840725
 20
1534.134865450558
 10
1563.347815889972
 20
1533.527133794026
 10
1564.169611879208
 20
1532.96402467114
 10
1565.03174117202
 20
1532.437707177705
 10
1565.934940804152
 20
1531.942228346613
 10
1566.880085593117
 20
1531.473143783301
 10
1567.867939875511
 20
1531.02717698599
 10
1568.899038742222
 20
1530.601938457446
 10
1569.97364160314
 20
1530.195706106713
 10
1571.091724223221
 20
1529.807258070148
 10
1572.252989933988
 20
1529.435747022836
 10
1573.456889369517
 20
1529.080606100281
 10
1574.702643048917
 20
1528.741478446281
 10
1575.989263923028
 20
1528.418164266454
 10
1577.315578541397
 20
1528.110580819639
 10
1578.680246320862
 20
1527.818731983644
 10
1580.081776823185
 20
1527.542684932786
 10
1581.518545155488
 20
1527.282552126406
 10
1582.988805694691
 20
1527.038477289172
 10
1584.490704362206
 20
1526.810624413417
 10
1586.022289669186
 20
1526.599169067361
 10
1587.581522732628
 20
1526.404291477549
 10
1589.166286437694
 20
1526.226170988639
 10
1590.774393896361
 20
1526.064981602682
 10
1592.403596329182
 20
1525.920888373138
 10
1594.051590476354
 20
1525.794044483277
 10
1595.716025626741
 20
1525.684588879357
 10
1597.394510338797
 20
1525.592644359754
 10
1599.084618915229
 20
1525.518316044689
 10
1600.783897683484
 20
1525.461690169322
 10
1602.489871126292
 20
1525.422833157177
 10
1604.200047900505
 20
1525.401790942161
 10
1605.363156828896
 20
1525.397671661803
  0
LWPOLYLINE
  5
312
330
26B
100
AcDbEntity
  8
P-SANR-FIXT
100
AcDbPolyline
 90
       40
 70
   128
 43
0.0
 10
1651.8287346271
 20
1540.505366579457
 10
1651.633767853335
 20
1539.33732498169
 10
1651.282074898078
 20
1538.240472926243
 10
1650.805463031159
 20
1537.238237885899
 10
1650.235017487744
 20
1536.335868256958
 10
1649.594727873152
 20
1535.52638396113
 10
1648.900183854393
 20
1534.797226162252
 10
1648.160090817067
 20
1534.134865450559
 10
1647.378497767819
 20
1533.527133794026
 10
1646.556701778585
 20
1532.96402467114
 10
1645.694572485772
 20
1532.437707177706
 10
1644.791372853641
 20
1531.942228346613
 10
1643.846228064675
 20
1531.473143783302
 10
1642.858373782281
 20
1531.02717698599
 10
1641.82727491557
 20
1530.601938457446
 10
1640.752672054652
 20
1530.195706106713
 10
1639.634589434572
 20
1529.807258070149
 10
1638.473323723804
 20
1529.435747022836
 10
1637.269424288276
 20
1529.080606100282
 10
1636.023670608874
 20
1528.741478446281
 10
1634.737049734764
 20
1528.418164266454
 10
1633.410735116395
 20
1528.110580819639
 10
1632.046067336929
 20
1527.818731983644
 10
1630.644536834607
 20
1527.542684932786
 10
1629.207768502304
 20
1527.282552126407
 10
1627.737507963102
 20
1527.038477289172
 10
1626.235609295586
 20
1526.810624413417
 10
1624.704023988606
 20
1526.599169067361
 10
1623.144790925164
 20
1526.404291477549
 10
1621.560027220098
 20
1526.226170988639
 10
1619.951919761431
 20
1526.064981602682
 10
1618.32271732861
 20
1525.920888373138
 10
1616.674723181438
 20
1525.794044483277
 10
1615.010288031051
 20
1525.684588879357
 10
1613.331803318996
 20
1525.592644359754
 10
1611.641694742562
 20
1525.518316044689
 10
1609.942415974307
 20
1525.461690169322
 10
1608.2364425315
 20
1525.422833157177
 10
1606.526265757287
 20
1525.401790942161
 10
1605.363156828896
 20
1525.397671661803
  0
ELLIPSE
  5
313
330
26B
100
AcDbEntity
  8
P-SANR-FIXT
100
AcDbEllipse
 10
1605.363156828894
 20
1568.098713430628
 30
0.0
 11
50.09173364692905
 21
0.0
 31
0.0
210
0.0
220
0.0
230
0.9999999999999998
 40
0.2606047989067867
 41
4.712388980384679
 42
6.370040908502045
  0
ELLIPSE
  5
314
330
26B
100
AcDbEntity
  8
P-SANR-FIXT
100
AcDbEllipse
 10
1605.363156828894
 20
1568.098713430628
 30
0.0
 11
50.09173364692878
 21
0.0
 31
0.0
210
0.0
220
0.0
230
0.9999999999999998
 40
0.2606047989067894
 41
3.054737052267282
 42
4.71238898038467
  0
ELLIPSE
  5
315
330
26B
100
AcDbEntity
  8
P-SANR-FIXT
100
AcDbEllipse
 10
1605.363156828894
 20
1557.341299530343
 30
0.0
 11
50.18556252469238
 21
0.0
 31
0.0
210
0.0
220
0.0
230
0.9999999999999998
 40
0.260604798906789
 41
3.141592653589793
 42
4.712388980384674
  0
ELLIPSE
  5
316
330
26B
100
AcDbEntity
  8
P-SANR-FIXT
100
AcDbEllipse
 10
1605.363156828894
 20
1557.341299530343
 30
0.0
 11
50.1855625246926
 21
0.0
 31
0.0
210
0.0
220
0.0
230
0.9999999999999998
 40
0.2606047989067878
 41
4.712388980384679
 42
6.283185307179586
  0
ENDBLK
  5
318
330
26B
100
AcDbEntity
  8
0
100
AcDbBlockEnd
  0
ENDSEC
  0
SECTION
  2
ENTITIES
  0
INSERT
  5
182
330
71
100
AcDbEntity
  8
P-SANR-FIXT
100
AcDbBlockReference
  2
Automatic flow rate regulator valve_Caleffi_121 DN15 - 1_2__-859151-Est - Idraulica
 10
0.0
 20
0.0
 30
0.0
1001
REVIT
1002
{
1070
     1
1000
863131
1002
}
1002
{
1070
     5
1000
859151
1002
}
1002
{
1070
     2
1000
-2001160
1002
}
  0
INSERT
  5
26A
330
71
100
AcDbEntity
  8
P-SANR-FIXT
100
AcDbBlockReference
  2
Automatic flow rate regulator valve_Caleffi_121 DN15 - 1_2__-V1-Est - Idraulica
 10
0.0
 20
0.0
 30
0.0
1001
REVIT
1002
{
1070
     1
1000
863152
1002
}
1002
{
1070
     5
1000
859151
1002
}
1002
{
1070
     2
1000
-2001160
1002
}
  0
INSERT
  5
319
330
71
100
AcDbEntity
  8
P-SANR-FIXT
100
AcDbBlockReference
  2
Automatic flow rate regulator valve_Caleffi_121 DN15 - 1_2__-V2-Est - Idraulica
 10
0.0
 20
0.0
 30
0.0
1001
REVIT
1002
{
1070
     1
1000
863172
1002
}
1002
{
1070
     5
1000
859151
1002
}
1002
{
1070
     2
1000
-2001160
1002
}
  0
ENDSEC
  0
SECTION
  2
OBJECTS
  0
DICTIONARY
  5
C
330
0
100
AcDbDictionary
281
     1
  3
ACAD_CIP_PREVIOUS_PRODUCT_INFO
350
7A
  3
ACAD_COLOR
350
63
  3
ACAD_DETAILVIEWSTYLE
350
6B
  3
ACAD_GROUP
350
D
  3
ACAD_IMAGE_VARS
350
7B
  3
ACAD_LAYOUT
350
62
  3
ACAD_MATERIAL
350
10
  3
ACAD_MLEADERSTYLE
350
66
  3
ACAD_MLINESTYLE
350
5F
  3
ACAD_PLOTSETTINGS
350
61
  3
ACAD_PLOTSTYLENAME
350
E
  3
ACAD_SCALELIST
350
42
  3
ACAD_SECTIONVIEWSTYLE
350
68
  3
ACAD_TABLESTYLE
350
64
  3
ACAD_VISUALSTYLE
350
29
  3
ACDB_RECOMPOSE_DATA
350
323
  3
AcDbVariableDictionary
350
7C
  3
REVIT_DICTIONARY
350
31B
  0
DICTIONARY
  5
31F
330
71
100
AcDbDictionary
280
     1
281
     1
  3
ACAD_SORTENTS
360
320
  0
XRECORD
  5
7A
102
{ACAD_REACTORS
330
C
102
}
330
C
100
AcDbXrecord
280
     1
300
RVT
300
2013
300
RVT2013
  0
DICTIONARY
  5
63
102
{ACAD_REACTORS
330
C
102
}
330
C
100
AcDbDictionary
281
     1
  0
DICTIONARY
  5
6B
102
{ACAD_REACTORS
330
C
102
}
330
C
100
AcDbDictionary
281
     1
  3
Imperial24
350
6C
  0
DICTIONARY
  5
D
102
{ACAD_REACTORS
330
C
102
}
330
C
100
AcDbDictionary
281
     1
  0
RASTERVARIABLES
  5
7B
102
{ACAD_REACTORS
330
C
102
}
330
C
100
AcDbRasterVariables
 90
        0
 70
     0
 71
     1
 72
     1
  0
DICTIONARY
  5
62
102
{ACAD_REACTORS
330
C
102
}
330
C
100
AcDbDictionary
281
     1
  3
Layout1
350
70
  3
Layout2
350
78
  3
Model
350
74
  0
DICTIONARY
  5
10
102
{ACAD_REACTORS
330
C
102
}
330
C
100
AcDbDictionary
281
     1
  3
ByBlock
350
19
  3
ByLayer
350
11
  3
Global
350
21
  0
DICTIONARY
  5
66
102
{ACAD_REACTORS
330
C
102
}
330
C
100
AcDbDictionary
281
     1
  3
Standard
350
67
  0
DICTIONARY
  5
5F
102
{ACAD_REACTORS
330
C
102
}
330
C
100
AcDbDictionary
281
     1
  3
Standard
350
60
  0
DICTIONARY
  5
61
102
{ACAD_REACTORS
330
C
102
}
330
C
100
AcDbDictionary
281
     1
  0
ACDBDICTIONARYWDFLT
  5
E
102
{ACAD_REACTORS
330
C
102
}
330
C
100
AcDbDictionary
281
     1
  3
Normal
350
F
100
AcDbDictionaryWithDefault
340
F
  0
DICTIONARY
  5
42
102
{ACAD_REACTORS
330
C
102
}
330
C
100
AcDbDictionary
281
     1
  3
A0
350
43
  3
A1
350
44
  3
A2
350
45
  3
A3
350
46
  3
A4
350
47
  3
A5
350
48
  3
A6
350
49
  3
A7
350
4A
  3
A8
350
4B
  3
A9
350
4C
  3
B0
350
4D
  3
B1
350
4E
  3
B2
350
4F
  3
B3
350
50
  3
B4
350
51
  3
B5
350
52
  3
B6
350
53
  0
DICTIONARY
  5
68
102
{ACAD_REACTORS
330
C
102
}
330
C
100
AcDbDictionary
281
     1
  3
Imperial24
350
6A
  0
DICTIONARY
  5
64
102
{ACAD_REACTORS
330
C
102
}
330
C
100
AcDbDictionary
281
     1
  3
Standard
350
65
  0
DICTIONARY
  5
29
102
{ACAD_REACTORS
330
C
102
}
330
C
100
AcDbDictionary
281
     1
  3
2dWireframe
350
2F
  3
Basic
350
2E
  3
Brighten
350
35
  3
ColorChange
350
39
  3
Conceptual
350
32
  3
Dim
350
34
  3
EdgeColorOff
350
41
  3
Facepattern
350
38
  3
Flat
350
2A
  3
FlatWithEdges
350
2B
  3
Gouraud
350
2C
  3
GouraudWithEdges
350
2D
  3
Hidden
350
31
  3
JitterOff
350
3F
  3
Linepattern
350
37
  3
OverhangOff
350
40
  3
Realistic
350
33
  3
Shaded
350
3E
  3
Shaded with edges
350
3D
  3
Shades of Gray
350
3A
  3
Sketchy
350
3B
  3
Thicken
350
36
  3
Wireframe
350
30
  3
X-Ray
350
3C
  0
XRECORD
  5
323
102
{ACAD_REACTORS
330
C
102
}
330
C
100
AcDbXrecord
280
     1
 90
        1
330
65
  0
DICTIONARY
  5
7C
102
{ACAD_REACTORS
330
C
102
}
330
C
100
AcDbDictionary
281
     1
  3
CANNOSCALE
350
81
  3
CMLEADERSTYLE
350
7E
  3
CTABLESTYLE
350
7D
  3
CVIEWDETAILSTYLE
350
7F
  3
CVIEWSECTIONSTYLE
350
80
  0
DICTIONARY
  5
31B
102
{ACAD_REACTORS
330
C
102
}
330
C
100
AcDbDictionary
281
     1
  3
DRAWING_TOOL
350
31E
  3
REVIT_CATEGORY_MAPPING
350
31D
  3
REVIT_TYPE_MAPPING
350
31C
  0
SORTENTSTABLE
  5
320
102
{ACAD_REACTORS
330
31F
102
}
330
31F
100
AcDbSortentsTable
330
71
  0
ACDBDETAILVIEWSTYLE
  5
6C
102
{ACAD_REACTORS
330
6B
102
}
330
6B
100
AcDbModelDocViewStyle
 70
     0
  3
Imperial24
290
     1
100
AcDbDetailViewStyle
 70
     0
 71
     0
 90
        3
 71
     1
340
55
 62
   256
 40
0.24
340
0
 62
   256
 40
0.24
300

 40
0.36
280
     3
 71
     2
340
5D
 90
       25
 62
   256
 71
     3
340
55
 62
   256
 40
0.24
 90
        1
 40
0.75
 90
        1
300
%<\AcVar ViewType \f "%tc1">% %<\AcVar ViewDetailId>%\PSCALA %<\AcVar ViewScale \f "%sn">%
 71
     4
340
5D
 90
       25
 62
   256
340
5D
 90
       25
 62
   256
280
     0
  0
LAYOUT
  5
70
102
{ACAD_REACTORS
330
62
102
}
330
62
100
AcDbPlotSettings
  1

  2

  4

  6

 40
0.0
 41
0.0
 42
0.0
 43
0.0
 44
0.0
 45
0.0
 46
0.0
 47
0.0
 48
0.0
 49
0.0
140
0.0
141
0.0
142
1.0
143
1.0
 70
   688
 72
     0
 73
     0
 74
     5
  7

 75
    16
147
1.0
 76
     0
 77
     2
 78
   300
148
0.0
149
0.0
100
AcDbLayout
  1
Layout1
 70
     1
 71
     1
 10
0.0
 20
0.0
 11
12.0
 21
9.0
 12
0.0
 22
0.0
 32
0.0
 14
0.0
 24
0.0
 34
0.0
 15
0.0
 25
0.0
 35
0.0
146
0.0
 13
0.0
 23
0.0
 33
0.0
 16
1.0
 26
0.0
 36
0.0
 17
0.0
 27
1.0
 37
0.0
 76
     0
330
6D
  0
LAYOUT
  5
78
102
{ACAD_REACTORS
330
62
102
}
330
62
100
AcDbPlotSettings
  1

  2

  4

  6

 40
0.0
 41
0.0
 42
0.0
 43
0.0
 44
0.0
 45
0.0
 46
0.0
 47
0.0
 48
0.0
 49
0.0
140
0.0
141
0.0
142
1.0
143
1.0
 70
   688
 72
     0
 73
     0
 74
     5
  7

 75
    16
147
1.0
 76
     0
 77
     2
 78
   300
148
0.0
149
0.0
100
AcDbLayout
  1
Layout2
 70
     1
 71
     2
 10
0.0
 20
0.0
 11
12.0
 21
9.0
 12
0.0
 22
0.0
 32
0.0
 14
0.0
 24
0.0
 34
0.0
 15
0.0
 25
0.0
 35
0.0
146
0.0
 13
0.0
 23
0.0
 33
0.0
 16
1.0
 26
0.0
 36
0.0
 17
0.0
 27
1.0
 37
0.0
 76
     0
330
75
  0
LAYOUT
  5
74
102
{ACAD_REACTORS
330
62
102
}
330
62
100
AcDbPlotSettings
  1

  2

  4

  6

 40
0.0
 41
0.0
 42
0.0
 43
0.0
 44
0.0
 45
0.0
 46
0.0
 47
0.0
 48
0.0
 49
0.0
140
0.0
141
0.0
142
1.0
143
1.0
 70
  1712
 72
     0
 73
     0
 74
     0
  7

 75
     0
147
1.0
 76
     0
 77
     2
 78
   300
148
0.0
149
0.0
100
AcDbLayout
  1
Model
 70
     1
 71
     0
 10
0.0
 20
0.0
 11
12.0
 21
9.0
 12
0.0
 22
0.0
 32
0.0
 14
0.0
 24
0.0
 34
0.0
 15
0.0
 25
0.0
 35
0.0
146
0.0
 13
0.0
 23
0.0
 33
0.0
 16
1.0
 26
0.0
 36
0.0
 17
0.0
 27
1.0
 37
0.0
 76
     0
330
71
  0
MATERIAL
  5
19
102
{ACAD_XDICTIONARY
360
1A
102
}
102
{ACAD_REACTORS
330
10
102
}
330
10
100
AcDbMaterial
  1
ByBlock
 72
     0
 43
0.0208333333333333
 43
0.0
 43
0.0
 43
0.0
 43
0.0
 43
0.0208333333333333
 43
0.0
 43
0.0
 43
0.0
 43
0.0
 43
1.0
 43
0.0
 43
0.0
 43
0.0
 43
0.0
 43
1.0
 77
     0
 47
0.0208333333333333
 47
0.0
 47
0.0
 47
0.0
 47
0.0
 47
0.0208333333333333
 47
0.0
 47
0.0
 47
0.0
 47
0.0
 47
1.0
 47
0.0
 47
0.0
 47
0.0
 47
0.0
 47
1.0
171
     0
 49
0.0208333333333333
 49
0.0
 49
0.0
 49
0.0
 49
0.0
 49
0.0208333333333333
 49
0.0
 49
0.0
 49
0.0
 49
0.0
 49
1.0
 49
0.0
 49
0.0
 49
0.0
 49
0.0
 49
1.0
175
     0
142
0.0208333333333333
142
0.0
142
0.0
142
0.0
142
0.0
142
0.0208333333333333
142
0.0
142
0.0
142
0.0
142
0.0
142
1.0
142
0.0
142
0.0
142
0.0
142
0.0
142
1.0
179
     0
144
0.0208333333333333
144
0.0
144
0.0
144
0.0
144
0.0
144
0.0208333333333333
144
0.0
144
0.0
144
0.0
144
0.0
144
1.0
144
0.0
144
0.0
144
0.0
144
0.0
144
1.0
147
0.0208333333333333
147
0.0
147
0.0
147
0.0
147
0.0
147
0.0208333333333333
147
0.0
147
0.0
147
0.0
147
0.0
147
1.0
147
0.0
147
0.0
147
0.0
147
0.0
147
1.0
  0
MATERIAL
  5
11
102
{ACAD_XDICTIONARY
360
12
102
}
102
{ACAD_REACTORS
330
10
102
}
330
10
100
AcDbMaterial
  1
ByLayer
 72
     0
 43
0.0208333333333333
 43
0.0
 43
0.0
 43
0.0
 43
0.0
 43
0.0208333333333333
 43
0.0
 43
0.0
 43
0.0
 43
0.0
 43
1.0
 43
0.0
 43
0.0
 43
0.0
 43
0.0
 43
1.0
 77
     0
 47
0.0208333333333333
 47
0.0
 47
0.0
 47
0.0
 47
0.0
 47
0.0208333333333333
 47
0.0
 47
0.0
 47
0.0
 47
0.0
 47
1.0
 47
0.0
 47
0.0
 47
0.0
 47
0.0
 47
1.0
171
     0
 49
0.0208333333333333
 49
0.0
 49
0.0
 49
0.0
 49
0.0
 49
0.0208333333333333
 49
0.0
 49
0.0
 49
0.0
 49
0.0
 49
1.0
 49
0.0
 49
0.0
 49
0.0
 49
0.0
 49
1.0
175
     0
142
0.0208333333333333
142
0.0
142
0.0
142
0.0
142
0.0
142
0.0208333333333333
142
0.0
142
0.0
142
0.0
142
0.0
142
1.0
142
0.0
142
0.0
142
0.0
142
0.0
142
1.0
179
     0
144
0.0208333333333333
144
0.0
144
0.0
144
0.0
144
0.0
144
0.0208333333333333
144
0.0
144
0.0
144
0.0
144
0.0
144
1.0
144
0.0
144
0.0
144
0.0
144
0.0
144
1.0
147
0.0208333333333333
147
0.0
147
0.0
147
0.0
147
0.0
147
0.0208333333333333
147
0.0
147
0.0
147
0.0
147
0.0
147
1.0
147
0.0
147
0.0
147
0.0
147
0.0
147
1.0
  0
MATERIAL
  5
21
102
{ACAD_XDICTIONARY
360
22
102
}
102
{ACAD_REACTORS
330
10
102
}
330
10
100
AcDbMaterial
  1
Global
 72
     0
 43
0.0208333333333333
 43
0.0
 43
0.0
 43
0.0
 43
0.0
 43
0.0208333333333333
 43
0.0
 43
0.0
 43
0.0
 43
0.0
 43
1.0
 43
0.0
 43
0.0
 43
0.0
 43
0.0
 43
1.0
 77
     0
 47
0.0208333333333333
 47
0.0
 47
0.0
 47
0.0
 47
0.0
 47
0.0208333333333333
 47
0.0
 47
0.0
 47
0.0
 47
0.0
 47
1.0
 47
0.0
 47
0.0
 47
0.0
 47
0.0
 47
1.0
171
     0
 49
0.0208333333333333
 49
0.0
 49
0.0
 49
0.0
 49
0.0
 49
0.0208333333333333
 49
0.0
 49
0.0
 49
0.0
 49
0.0
 49
1.0
 49
0.0
 49
0.0
 49
0.0
 49
0.0
 49
1.0
175
     0
142
0.0208333333333333
142
0.0
142
0.0
142
0.0
142
0.0
142
0.0208333333333333
142
0.0
142
0.0
142
0.0
142
0.0
142
1.0
142
0.0
142
0.0
142
0.0
142
0.0
142
1.0
179
     0
144
0.0208333333333333
144
0.0
144
0.0
144
0.0
144
0.0
144
0.0208333333333333
144
0.0
144
0.0
144
0.0
144
0.0
144
1.0
144
0.0
144
0.0
144
0.0
144
0.0
144
1.0
147
0.0208333333333333
147
0.0
147
0.0
147
0.0
147
0.0
147
0.0208333333333333
147
0.0
147
0.0
147
0.0
147
0.0
147
1.0
147
0.0
147
0.0
147
0.0
147
0.0
147
1.0
  0
MLEADERSTYLE
  5
67
102
{ACAD_REACTORS
330
66
102
}
330
66
100
AcDbMLeaderStyle
179
     2
170
     2
171
     1
172
     0
 90
        2
 40
0.0
 41
0.0
173
     1
 91
-1056964608
340
5B
 92
       -2
290
     1
 42
0.09
291
     1
 43
0.36
  3
Standard
 44
0.18
300

342
55
174
     1
178
     6
175
     1
176
     0
 93
-1056964608
 45
0.18
292
     0
297
     0
 46
0.18
 94
-1056964608
 47
1.0
 49
1.0
140
1.0
293
     1
141
0.0
294
     1
177
     0
142
1.0
295
     1
296
     0
143
0.125
271
     0
272
     9
273
     9
298
     1
  0
MLINESTYLE
  5
60
102
{ACAD_REACTORS
330
5F
102
}
330
5F
100
AcDbMlineStyle
  2
STANDARD
 70
     0
  3

 62
   256
 51
90.0
 52
90.0
 71
     2
 49
0.5
 62
   256
  6
BYLAYER
 49
-0.5
 62
   256
  6
BYLAYER
  0
ACDBPLACEHOLDER
  5
F
102
{ACAD_REACTORS
330
E
102
}
330
E
  0
SCALE
  5
43
102
{ACAD_REACTORS
330
42
102
}
330
42
100
AcDbScale
 70
     0
300
1:1
140
1.0
141
1.0
290
     1
  0
SCALE
  5
44
102
{ACAD_REACTORS
330
42
102
}
330
42
100
AcDbScale
 70
     0
300
1/128" = 1'-0"
140
0.0078125
141
12.0
290
     0
  0
SCALE
  5
45
102
{ACAD_REACTORS
330
42
102
}
330
42
100
AcDbScale
 70
     0
300
1/64" = 1'-0"
140
0.015625
141
12.0
290
     0
  0
SCALE
  5
46
102
{ACAD_REACTORS
330
42
102
}
330
42
100
AcDbScale
 70
     0
300
1/32" = 1'-0"
140
0.03125
141
12.0
290
     0
  0
SCALE
  5
47
102
{ACAD_REACTORS
330
42
102
}
330
42
100
AcDbScale
 70
     0
300
1/16" = 1'-0"
140
0.0625
141
12.0
290
     0
  0
SCALE
  5
48
102
{ACAD_REACTORS
330
42
102
}
330
42
100
AcDbScale
 70
     0
300
3/32" = 1'-0"
140
0.09375
141
12.0
290
     0
  0
SCALE
  5
49
102
{ACAD_REACTORS
330
42
102
}
330
42
100
AcDbScale
 70
     0
300
1/8" = 1'-0"
140
0.125
141
12.0
290
     0
  0
SCALE
  5
4A
102
{ACAD_REACTORS
330
42
102
}
330
42
100
AcDbScale
 70
     0
300
3/16" = 1'-0"
140
0.1875
141
12.0
290
     0
  0
SCALE
  5
4B
102
{ACAD_REACTORS
330
42
102
}
330
42
100
AcDbScale
 70
     0
300
1/4" = 1'-0"
140
0.25
141
12.0
290
     0
  0
SCALE
  5
4C
102
{ACAD_REACTORS
330
42
102
}
330
42
100
AcDbScale
 70
     0
300
3/8" = 1'-0"
140
0.375
141
12.0
290
     0
  0
SCALE
  5
4D
102
{ACAD_REACTORS
330
42
102
}
330
42
100
AcDbScale
 70
     0
300
1/2" = 1'-0"
140
0.5
141
12.0
290
     0
  0
SCALE
  5
4E
102
{ACAD_REACTORS
330
42
102
}
330
42
100
AcDbScale
 70
     0
300
3/4" = 1'-0"
140
0.75
141
12.0
290
     0
  0
SCALE
  5
4F
102
{ACAD_REACTORS
330
42
102
}
330
42
100
AcDbScale
 70
     0
300
1" = 1'-0"
140
1.0
141
12.0
290
     0
  0
SCALE
  5
50
102
{ACAD_REACTORS
330
42
102
}
330
42
100
AcDbScale
 70
     0
300
1-1/2" = 1'-0"
140
1.5
141
12.0
290
     0
  0
SCALE
  5
51
102
{ACAD_REACTORS
330
42
102
}
330
42
100
AcDbScale
 70
     0
300
3" = 1'-0"
140
3.0
141
12.0
290
     0
  0
SCALE
  5
52
102
{ACAD_REACTORS
330
42
102
}
330
42
100
AcDbScale
 70
     0
300
6" = 1'-0"
140
6.0
141
12.0
290
     0
  0
SCALE
  5
53
102
{ACAD_REACTORS
330
42
102
}
330
42
100
AcDbScale
 70
     0
300
1'-0" = 1'-0"
140
12.0
141
12.0
290
     0
  0
ACDBSECTIONVIEWSTYLE
  5
6A
102
{ACAD_REACTORS
330
68
102
}
330
68
100
AcDbModelDocViewStyle
 70
     0
  3
Imperial24
290
     1
100
AcDbSectionViewStyle
 70
     0
 71
     0
 90
       78
 71
     1
340
55
 62
   256
 40
0.24
340
0
340
0
 62
   256
 40
0.24
300
I, O, Q, S, X, Z
 40
0.48
 90
        3
 40
0.18
 90
        1
 71
     2
340
69
 90
       25
 62
   256
340
5D
 90
       50
 62
   256
 40
0.24
 40
0.0
 40
0.24
 71
     3
340
55
 62
   256
 40
0.24
 90
        1
 40
0.75
 90
        1
300
%<\AcVar ViewType \f "%tc1">% %<\AcVar ViewSectionStartId>%-%<\AcVar ViewSectionEndId>%\PSCALA %<\AcVar ViewScale \f "%sn">%
 71
     4
 62
   256
 62
   257
300
ANSI31
 40
1.0
 90
        0
290
     0
290
     0
 90
        6
 40
0.0
 40
1.570796326794896
 40
0.2617993877991494
 40
1.308996938995747
 40
-0.2617993877991494
 40
1.832595714594046
  0
TABLESTYLE
  5
65
102
{ACAD_XDICTIONARY
360
321
102
}
102
{ACAD_REACTORS
330
64
102
}
330
64
100
AcDbTableStyle
280
     0
  3
Standard
 70
     0
 71
     0
 40
0.06
 41
0.06
280
     0
281
     0
  7
Standard
140
0.18
170
     2
 62
     0
 63
     7
283
     0
 90
      512
 91
        0
  1

274
    -2
284
     1
 64
     0
275
    -2
285
     1
 65
     0
276
    -2
286
     1
 66
     0
277
    -2
287
     1
 67
     0
278
    -2
288
     1
 68
     0
279
    -2
289
     1
 69
     0
  7
Standard
140
0.25
170
     5
 62
     0
 63
     7
283
     0
 90
      512
 91
        0
  1

274
    -2
284
     1
 64
     0
275
    -2
285
     1
 65
     0
276
    -2
286
     1
 66
     0
277
    -2
287
     1
 67
     0
278
    -2
288
     1
 68
     0
279
    -2
289
     1
 69
     0
  7
Standard
140
0.18
170
     5
 62
     0
 63
     7
283
     0
 90
      512
 91
        0
  1

274
    -2
284
     1
 64
     0
275
    -2
285
     1
 65
     0
276
    -2
286
     1
 66
     0
277
    -2
287
     1
 67
     0
278
    -2
288
     1
 68
     0
279
    -2
289
     1
 69
     0
  0
VISUALSTYLE
  5
2F
102
{ACAD_REACTORS
330
29
102
}
330
29
100
AcDbVisualStyle
  2
2dWireframe
 70
     4
177
     3
291
     0
 70
    58
 90
        0
176
     1
 90
        2
176
     1
 90
        0
176
     1
 90
        0
176
     1
 40
0.6
176
     1
 40
30.0
176
     1
 62
     7
420
 16777215
176
     1
 90
        1
176
     1
 90
        4
176
     1
 62
     7
176
     1
 62
   257
176
     1
 90
        1
176
     1
 90
        1
176
     1
 40
1.0
176
     1
 90
        0
176
     1
 62
   257
176
     1
 40
1.0
176
     1
 90
        1
176
     1
 90
        6
176
     1
 90
        2
176
     1
 62
     7
176
     1
 90
        5
176
     1
 90
        0
176
     1
 90
        0
176
     1
290
     0
176
     1
 90
        1
176
     1
 40
0.0
176
     1
 90
        0
176
     1
290
     1
176
     1
290
     1
176
     1
290
     0
176
     1
290
     0
176
     1
290
     0
176
     1
290
     0
176
     1
290
     0
176
     1
290
     0
176
     1
290
     0
176
     1
 90
       50
176
     1
 40
0.0
176
     1
 40
1.0
176
     1
 90
        0
176
     1
 62
    18
420
        0
176
     1
 90
       50
176
     1
 90
        3
176
     1
 62
     5
420
      255
176
     1
290
     0
176
     1
 90
       50
176
     1
 90
       50
176
     1
 90
       50
176
     1
290
     0
176
     1
 90
       50
176
     1
 62
   256
176
     0
 40
1.0
176
     0
 90
        2
176
     1
  1
strokes_ogs.tif
176
     1
290
     0
176
     1
 40
1.0
176
     1
 40
1.0
176
     1
  0
VISUALSTYLE
  5
2E
102
{ACAD_REACTORS
330
29
102
}
330
29
100
AcDbVisualStyle
  2
Basic
 70
     7
177
     3
291
     1
 70
    58
 90
        1
176
     1
 90
        0
176
     1
 90
        1
176
     1
 90
        0
176
     1
 40
0.6
176
     1
 40
30.0
176
     1
 62
     7
420
 16777215
176
     1
 90
        0
176
     1
 90
        4
176
     1
 62
     7
176
     1
 62
   257
176
     1
 90
        1
176
     1
 90
        1
176
     1
 40
1.0
176
     1
 90
        8
176
     1
 62
     7
176
     1
 40
1.0
176
     1
 90
        1
176
     1
 90
        6
176
     1
 90
        2
176
     1
 62
     7
176
     1
 90
        5
176
     1
 90
        0
176
     1
 90
        0
176
     1
290
     0
176
     1
 90
        1
176
     1
 40
0.0
176
     1
 90
        0
176
     1
290
     0
176
     1
290
     1
176
     1
290
     1
176
     1
290
     0
176
     1
290
     0
176
     1
290
     0
176
     1
290
     0
176
     1
290
     0
176
     1
290
     0
176
     1
 90
       50
176
     1
 40
0.0
176
     1
 40
1.0
176
     1
 90
        0
176
     1
 62
    18
420
        0
176
     1
 90
       50
176
     1
 90
        3
176
     1
 62
     5
420
      255
176
     1
290
     0
176
     1
 90
       50
176
     1
 90
       50
176
     1
 90
       50
176
     1
290
     0
176
     1
 90
       50
176
     1
 62
   256
176
     0
 40
1.0
176
     0
 90
        2
176
     1
  1
strokes_ogs.tif
176
     1
290
     0
176
     1
 40
1.0
176
     1
 40
1.0
176
     1
  0
VISUALSTYLE
  5
35
102
{ACAD_REACTORS
330
29
102
}
330
29
100
AcDbVisualStyle
  2
Brighten
 70
    12
177
     3
291
     1
 70
    58
 90
        2
176
     1
 90
        2
176
     1
 90
        0
176
     1
 90
        0
176
     1
 40
0.6
176
     1
 40
30.0
176
     1
 62
     7
420
 16777215
176
     1
 90
        1
176
     1
 90
        4
176
     1
 62
     7
176
     1
 62
   257
176
     1
 90
        1
176
     1
 90
        1
176
     1
 40
1.0
176
     1
 90
        8
176
     1
 62
     7
176
     1
 40
1.0
176
     1
 90
        1
176
     1
 90
        6
176
     1
 90
        2
176
     1
 62
     7
176
     1
 90
        5
176
     1
 90
        0
176
     1
 90
        0
176
     1
290
     0
176
     1
 90
        1
176
     1
 40
50.0
176
     1
 90
        0
176
     1
290
     0
176
     1
290
     1
176
     1
290
     1
176
     1
290
     0
176
     1
290
     0
176
     1
290
     0
176
     1
290
     0
176
     1
290
     0
176
     1
290
     0
176
     1
 90
       50
176
     1
 40
0.0
176
     1
 40
1.0
176
     1
 90
        0
176
     1
 62
    18
420
        0
176
     1
 90
       50
176
     1
 90
        3
176
     1
 62
     5
420
      255
176
     1
290
     0
176
     1
 90
       50
176
     1
 90
       50
176
     1
 90
       50
176
     1
290
     0
176
     1
 90
       50
176
     1
 62
   256
176
     0
 40
1.0
176
     0
 90
        2
176
     1
  1
strokes_ogs.tif
176
     1
290
     0
176
     1
 40
1.0
176
     1
 40
1.0
176
     1
  0
VISUALSTYLE
  5
39
102
{ACAD_REACTORS
330
29
102
}
330
29
100
AcDbVisualStyle
  2
ColorChange
 70
    16
177
     3
291
     1
 70
    58
 90
        2
176
     1
 90
        2
176
     1
 90
        3
176
     1
 90
        0
176
     1
 40
0.6
176
     1
 40
30.0
176
     1
 62
     8
420
  8421504
176
     1
 90
        1
176
     1
 90
        4
176
     1
 62
     7
176
     1
 62
   257
176
     1
 90
        1
176
     1
 90
        1
176
     1
 40
1.0
176
     1
 90
        8
176
     1
 62
     8
420
  8421504
176
     1
 40
1.0
176
     1
 90
        1
176
     1
 90
        6
176
     1
 90
        2
176
     1
 62
     7
176
     1
 90
        5
176
     1
 90
        0
176
     1
 90
        0
176
     1
290
     0
176
     1
 90
        1
176
     1
 40
0.0
176
     1
 90
        0
176
     1
290
     0
176
     1
290
     1
176
     1
290
     1
176
     1
290
     0
176
     1
290
     0
176
     1
290
     0
176
     1
290
     0
176
     1
290
     0
176
     1
290
     0
176
     1
 90
       50
176
     1
 40
0.0
176
     1
 40
1.0
176
     1
 90
        0
176
     1
 62
    18
420
        0
176
     1
 90
       50
176
     1
 90
        3
176
     1
 62
     5
420
      255
176
     1
290
     0
176
     1
 90
       50
176
     1
 90
       50
176
     1
 90
       50
176
     1
290
     0
176
     1
 90
       50
176
     1
 62
   256
176
     0
 40
1.0
176
     0
 90
        2
176
     1
  1
strokes_ogs.tif
176
     1
290
     0
176
     1
 40
1.0
176
     1
 40
1.0
176
     1
  0
VISUALSTYLE
  5
32
102
{ACAD_REACTORS
330
29
102
}
330
29
100
AcDbVisualStyle
  2
Conceptual
 70
     9
177
     3
291
     0
 70
    58
 90
        3
176
     1
 90
        2
176
     1
 90
        0
176
     1
 90
        0
176
     1
 40
0.6
176
     1
 40
30.0
176
     1
 62
     7
420
 16777215
176
     1
 90
        2
176
     1
 90
        2
176
     1
 62
     7
176
     1
 62
   257
176
     1
 90
        1
176
     1
 90
        1
176
     1
 40
179.0
176
     1
 90
        8
176
     1
 62
     7
176
     1
 40
1.0
176
     1
 90
        1
176
     1
 90
        6
176
     1
 90
        2
176
     1
 62
     7
176
     1
 90
        3
176
     1
 90
        0
176
     1
 90
        0
176
     1
290
     0
176
     1
 90
        1
176
     1
 40
0.0
176
     1
 90
        0
176
     1
290
     0
176
     1
290
     1
176
     1
290
     1
176
     1
290
     0
176
     1
290
     0
176
     1
290
     0
176
     1
290
     0
176
     1
290
     0
176
     1
290
     0
176
     1
 90
       50
176
     1
 40
0.0
176
     1
 40
1.0
176
     1
 90
        0
176
     1
 62
    18
420
        0
176
     1
 90
       50
176
     1
 90
        3
176
     1
 62
     5
420
      255
176
     1
290
     0
176
     1
 90
       50
176
     1
 90
       50
176
     1
 90
       50
176
     1
290
     0
176
     1
 90
       50
176
     1
 62
   256
176
     0
 40
1.0
176
     0
 90
        2
176
     1
  1
strokes_ogs.tif
176
     1
290
     0
176
     1
 40
1.0
176
     1
 40
1.0
176
     1
  0
VISUALSTYLE
  5
34
102
{ACAD_REACTORS
330
29
102
}
330
29
100
AcDbVisualStyle
  2
Dim
 70
    11
177
     3
291
     1
 70
    58
 90
        2
176
     1
 90
        2
176
     1
 90
        0
176
     1
 90
        0
176
     1
 40
0.6
176
     1
 40
30.0
176
     1
 62
     7
420
 16777215
176
     1
 90
        1
176
     1
 90
        4
176
     1
 62
     7
176
     1
 62
   257
176
     1
 90
        1
176
     1
 90
        1
176
     1
 40
1.0
176
     1
 90
        8
176
     1
 62
     7
176
     1
 40
1.0
176
     1
 90
        1
176
     1
 90
        6
176
     1
 90
        2
176
     1
 62
     7
176
     1
 90
        5
176
     1
 90
        0
176
     1
 90
        0
176
     1
290
     0
176
     1
 90
        1
176
     1
 40
-50.0
176
     1
 90
        0
176
     1
290
     0
176
     1
290
     1
176
     1
290
     1
176
     1
290
     0
176
     1
290
     0
176
     1
290
     0
176
     1
290
     0
176
     1
290
     0
176
     1
290
     0
176
     1
 90
       50
176
     1
 40
0.0
176
     1
 40
1.0
176
     1
 90
        0
176
     1
 62
    18
420
        0
176
     1
 90
       50
176
     1
 90
        3
176
     1
 62
     5
420
      255
176
     1
290
     0
176
     1
 90
       50
176
     1
 90
       50
176
     1
 90
       50
176
     1
290
     0
176
     1
 90
       50
176
     1
 62
   256
176
     0
 40
1.0
176
     0
 90
        2
176
     1
  1
strokes_ogs.tif
176
     1
290
     0
176
     1
 40
1.0
176
     1
 40
1.0
176
     1
  0
VISUALSTYLE
  5
41
102
{ACAD_REACTORS
330
29
102
}
330
29
100
AcDbVisualStyle
  2
EdgeColorOff
 70
    22
177
     3
291
     1
 70
    58
 90
        2
176
     0
 90
        2
176
     0
 90
        0
176
     0
 90
        0
176
     0
 40
0.6
176
     0
 40
30.0
176
     0
 62
     7
420
 16777215
176
     0
 90
        1
176
     0
 90
        4
176
     0
 62
     7
176
     0
 62
   257
176
     0
 90
        1
176
     0
 90
        1
176
     0
 40
1.0
176
     0
 90
        8
176
     2
 62
     7
176
     0
 40
1.0
176
     0
 90
        1
176
     0
 90
        6
176
     0
 90
        2
176
     0
 62
     7
176
     0
 90
        5
176
     0
 90
        0
176
     0
 90
        0
176
     0
290
     0
176
     0
 90
        1
176
     0
 40
0.0
176
     0
 90
        0
176
     0
290
     0
176
     0
290
     1
176
     0
290
     1
176
     0
290
     0
176
     0
290
     0
176
     0
290
     0
176
     0
290
     0
176
     0
290
     0
176
     0
290
     0
176
     0
 90
       50
176
     0
 40
0.0
176
     0
 40
1.0
176
     0
 90
        0
176
     0
 62
    18
420
        0
176
     0
 90
       50
176
     0
 90
        3
176
     0
 62
     5
420
      255
176
     0
290
     0
176
     0
 90
       50
176
     0
 90
       50
176
     0
 90
       50
176
     0
290
     0
176
     0
 90
       50
176
     0
 62
   256
176
     0
 40
1.0
176
     0
 90
        2
176
     0
  1
strokes_ogs.tif
176
     0
290
     0
176
     0
 40
1.0
176
     0
 40
1.0
176
     0
  0
VISUALSTYLE
  5
38
102
{ACAD_REACTORS
330
29
102
}
330
29
100
AcDbVisualStyle
  2
Facepattern
 70
    15
177
     3
291
     1
 70
    58
 90
        2
176
     1
 90
        2
176
     1
 90
        0
176
     1
 90
        0
176
     1
 40
0.6
176
     1
 40
30.0
176
     1
 62
     7
420
 16777215
176
     1
 90
        1
176
     1
 90
        4
176
     1
 62
     7
176
     1
 62
   257
176
     1
 90
        1
176
     1
 90
        1
176
     1
 40
1.0
176
     1
 90
        8
176
     1
 62
     7
176
     1
 40
1.0
176
     1
 90
        1
176
     1
 90
        6
176
     1
 90
        2
176
     1
 62
     7
176
     1
 90
        5
176
     1
 90
        0
176
     1
 90
        0
176
     1
290
     0
176
     1
 90
        1
176
     1
 40
0.0
176
     1
 90
        0
176
     1
290
     0
176
     1
290
     1
176
     1
290
     1
176
     1
290
     0
176
     1
290
     0
176
     1
290
     0
176
     1
290
     0
176
     1
290
     0
176
     1
290
     0
176
     1
 90
       50
176
     1
 40
0.0
176
     1
 40
1.0
176
     1
 90
        0
176
     1
 62
    18
420
        0
176
     1
 90
       50
176
     1
 90
        3
176
     1
 62
     5
420
      255
176
     1
290
     0
176
     1
 90
       50
176
     1
 90
       50
176
     1
 90
       50
176
     1
290
     0
176
     1
 90
       50
176
     1
 62
   256
176
     0
 40
1.0
176
     0
 90
        2
176
     1
  1
strokes_ogs.tif
176
     1
290
     0
176
     1
 40
1.0
176
     1
 40
1.0
176
     1
  0
VISUALSTYLE
  5
2A
102
{ACAD_REACTORS
330
29
102
}
330
29
100
AcDbVisualStyle
  2
Flat
 70
     0
177
     3
291
     1
 70
    58
 90
        2
176
     1
 90
        1
176
     1
 90
        1
176
     1
 90
        2
176
     1
 40
0.6
176
     1
 40
30.0
176
     1
 62
     7
420
 16777215
176
     1
 90
        0
176
     1
 90
        0
176
     1
 62
     7
176
     1
 62
   257
176
     1
 90
        1
176
     1
 90
        1
176
     1
 40
1.0
176
     1
 90
        8
176
     1
 62
     7
176
     1
 40
1.0
176
     1
 90
        1
176
     1
 90
        6
176
     1
 90
        2
176
     1
 62
     7
176
     1
 90
        5
176
     1
 90
        0
176
     1
 90
        0
176
     1
290
     0
176
     1
 90
       13
176
     1
 40
0.0
176
     1
 90
        0
176
     1
290
     0
176
     1
290
     1
176
     1
290
     1
176
     1
290
     0
176
     1
290
     0
176
     1
290
     0
176
     1
290
     0
176
     1
290
     0
176
     1
290
     0
176
     1
 90
       50
176
     1
 40
0.0
176
     1
 40
1.0
176
     1
 90
        0
176
     1
 62
    18
420
        0
176
     1
 90
       50
176
     1
 90
        3
176
     1
 62
     5
420
      255
176
     1
290
     0
176
     1
 90
       50
176
     1
 90
       50
176
     1
 90
       50
176
     1
290
     0
176
     1
 90
       50
176
     1
 62
   256
176
     0
 40
1.0
176
     0
 90
        2
176
     1
  1
strokes_ogs.tif
176
     1
290
     0
176
     1
 40
1.0
176
     1
 40
1.0
176
     1
  0
VISUALSTYLE
  5
2B
102
{ACAD_REACTORS
330
29
102
}
330
29
100
AcDbVisualStyle
  2
FlatWithEdges
 70
     1
177
     3
291
     1
 70
    58
 90
        2
176
     1
 90
        1
176
     1
 90
        1
176
     1
 90
        2
176
     1
 40
0.6
176
     1
 40
30.0
176
     1
 62
     7
420
 16777215
176
     1
 90
        1
176
     1
 90
        0
176
     1
 62
     7
176
     1
 62
   257
176
     1
 90
        1
176
     1
 90
        1
176
     1
 40
1.0
176
     1
 90
        0
176
     1
 62
   257
176
     1
 40
1.0
176
     1
 90
        1
176
     1
 90
        6
176
     1
 90
        2
176
     1
 62
     7
176
     1
 90
        5
176
     1
 90
        0
176
     1
 90
        0
176
     1
290
     0
176
     1
 90
       13
176
     1
 40
0.0
176
     1
 90
        0
176
     1
290
     0
176
     1
290
     1
176
     1
290
     1
176
     1
290
     0
176
     1
290
     0
176
     1
290
     0
176
     1
290
     0
176
     1
290
     0
176
     1
290
     0
176
     1
 90
       50
176
     1
 40
0.0
176
     1
 40
1.0
176
     1
 90
        0
176
     1
 62
    18
420
        0
176
     1
 90
       50
176
     1
 90
        3
176
     1
 62
     5
420
      255
176
     1
290
     0
176
     1
 90
       50
176
     1
 90
       50
176
     1
 90
       50
176
     1
290
     0
176
     1
 90
       50
176
     1
 62
   256
176
     0
 40
1.0
176
     0
 90
        2
176
     1
  1
strokes_ogs.tif
176
     1
290
     0
176
     1
 40
1.0
176
     1
 40
1.0
176
     1
  0
VISUALSTYLE
  5
2C
102
{ACAD_REACTORS
330
29
102
}
330
29
100
AcDbVisualStyle
  2
Gouraud
 70
     2
177
     3
291
     1
 70
    58
 90
        2
176
     1
 90
        2
176
     1
 90
        1
176
     1
 90
        2
176
     1
 40
0.6
176
     1
 40
30.0
176
     1
 62
     7
420
 16777215
176
     1
 90
        0
176
     1
 90
        0
176
     1
 62
     7
176
     1
 62
   257
176
     1
 90
        1
176
     1
 90
        1
176
     1
 40
1.0
176
     1
 90
        0
176
     1
 62
     7
176
     1
 40
1.0
176
     1
 90
        1
176
     1
 90
        6
176
     1
 90
        2
176
     1
 62
     7
176
     1
 90
        5
176
     1
 90
        0
176
     1
 90
        0
176
     1
290
     0
176
     1
 90
       13
176
     1
 40
0.0
176
     1
 90
        0
176
     1
290
     0
176
     1
290
     1
176
     1
290
     1
176
     1
290
     0
176
     1
290
     0
176
     1
290
     0
176
     1
290
     0
176
     1
290
     0
176
     1
290
     0
176
     1
 90
       50
176
     1
 40
0.0
176
     1
 40
1.0
176
     1
 90
        0
176
     1
 62
    18
420
        0
176
     1
 90
       50
176
     1
 90
        3
176
     1
 62
     5
420
      255
176
     1
290
     0
176
     1
 90
       50
176
     1
 90
       50
176
     1
 90
       50
176
     1
290
     0
176
     1
 90
       50
176
     1
 62
   256
176
     0
 40
1.0
176
     0
 90
        2
176
     1
  1
strokes_ogs.tif
176
     1
290
     0
176
     1
 40
1.0
176
     1
 40
1.0
176
     1
  0
VISUALSTYLE
  5
2D
102
{ACAD_REACTORS
330
29
102
}
330
29
100
AcDbVisualStyle
  2
GouraudWithEdges
 70
     3
177
     3
291
     1
 70
    58
 90
        2
176
     1
 90
        2
176
     1
 90
        1
176
     1
 90
        2
176
     1
 40
0.6
176
     1
 40
30.0
176
     1
 62
     7
420
 16777215
176
     1
 90
        1
176
     1
 90
        0
176
     1
 62
     7
176
     1
 62
   257
176
     1
 90
        1
176
     1
 90
        1
176
     1
 40
1.0
176
     1
 90
        0
176
     1
 62
   257
176
     1
 40
1.0
176
     1
 90
        1
176
     1
 90
        6
176
     1
 90
        2
176
     1
 62
     7
176
     1
 90
        5
176
     1
 90
        0
176
     1
 90
        0
176
     1
290
     0
176
     1
 90
       13
176
     1
 40
0.0
176
     1
 90
        0
176
     1
290
     0
176
     1
290
     1
176
     1
290
     1
176
     1
290
     0
176
     1
290
     0
176
     1
290
     0
176
     1
290
     0
176
     1
290
     0
176
     1
290
     0
176
     1
 90
       50
176
     1
 40
0.0
176
     1
 40
1.0
176
     1
 90
        0
176
     1
 62
    18
420
        0
176
     1
 90
       50
176
     1
 90
        3
176
     1
 62
     5
420
      255
176
     1
290
     0
176
     1
 90
       50
176
     1
 90
       50
176
     1
 90
       50
176
     1
290
     0
176
     1
 90
       50
176
     1
 62
   256
176
     0
 40
1.0
176
     0
 90
        2
176
     1
  1
strokes_ogs.tif
176
     1
290
     0
176
     1
 40
1.0
176
     1
 40
1.0
176
     1
  0
VISUALSTYLE
  5
31
102
{ACAD_REACTORS
330
29
102
}
330
29
100
AcDbVisualStyle
  2
Hidden
 70
     6
177
     3
291
     0
 70
    58
 90
        1
176
     1
 90
        2
176
     1
 90
        2
176
     1
 90
        0
176
     1
 40
0.6
176
     1
 40
30.0
176
     1
 62
     7
420
 16777215
176
     1
 90
        2
176
     1
 90
        2
176
     1
 62
     7
176
     1
 62
   257
176
     1
 90
        2
176
     1
 90
        1
176
     1
 40
40.0
176
     1
 90
        0
176
     1
 62
   257
176
     1
 40
1.0
176
     1
 90
        1
176
     1
 90
        6
176
     1
 90
        2
176
     1
 62
     7
176
     1
 90
        3
176
     1
 90
        0
176
     1
 90
        0
176
     1
290
     0
176
     1
 90
        1
176
     1
 40
0.0
176
     1
 90
        0
176
     1
290
     0
176
     1
290
     1
176
     1
290
     1
176
     1
290
     0
176
     1
290
     0
176
     1
290
     0
176
     1
290
     0
176
     1
290
     0
176
     1
290
     0
176
     1
 90
       50
176
     1
 40
0.0
176
     1
 40
1.0
176
     1
 90
        0
176
     1
 62
    18
420
        0
176
     1
 90
       50
176
     1
 90
        3
176
     1
 62
     5
420
      255
176
     1
290
     0
176
     1
 90
       50
176
     1
 90
       50
176
     1
 90
       50
176
     1
290
     0
176
     1
 90
       50
176
     1
 62
   256
176
     0
 40
1.0
176
     0
 90
        2
176
     1
  1
strokes_ogs.tif
176
     1
290
     0
176
     1
 40
1.0
176
     1
 40
1.0
176
     1
  0
VISUALSTYLE
  5
3F
102
{ACAD_REACTORS
330
29
102
}
330
29
100
AcDbVisualStyle
  2
JitterOff
 70
    20
177
     3
291
     1
 70
    58
 90
        2
176
     0
 90
        2
176
     0
 90
        0
176
     0
 90
        0
176
     0
 40
0.6
176
     0
 40
30.0
176
     0
 62
     7
420
 16777215
176
     0
 90
        1
176
     0
 90
        4
176
     0
 62
     7
176
     0
 62
   257
176
     0
 90
        1
176
     0
 90
        1
176
     0
 40
1.0
176
     0
 90
       10
176
     2
 62
     7
176
     0
 40
1.0
176
     0
 90
        1
176
     0
 90
        6
176
     0
 90
        2
176
     0
 62
     7
176
     0
 90
        5
176
     0
 90
        0
176
     0
 90
        0
176
     0
290
     0
176
     0
 90
        1
176
     0
 40
0.0
176
     0
 90
        0
176
     0
290
     0
176
     0
290
     1
176
     0
290
     1
176
     0
290
     0
176
     0
290
     0
176
     0
290
     0
176
     0
290
     0
176
     0
290
     0
176
     0
290
     0
176
     0
 90
       50
176
     0
 40
0.0
176
     0
 40
1.0
176
     0
 90
        0
176
     0
 62
    18
420
        0
176
     0
 90
       50
176
     0
 90
        3
176
     0
 62
     5
420
      255
176
     0
290
     0
176
     0
 90
       50
176
     0
 90
       50
176
     0
 90
       50
176
     0
290
     0
176
     0
 90
       50
176
     0
 62
   256
176
     0
 40
1.0
176
     0
 90
        2
176
     0
  1
strokes_ogs.tif
176
     0
290
     0
176
     0
 40
1.0
176
     0
 40
1.0
176
     0
  0
VISUALSTYLE
  5
37
102
{ACAD_REACTORS
330
29
102
}
330
29
100
AcDbVisualStyle
  2
Linepattern
 70
    14
177
     3
291
     1
 70
    58
 90
        2
176
     1
 90
        2
176
     1
 90
        0
176
     1
 90
        0
176
     1
 40
0.6
176
     1
 40
30.0
176
     1
 62
     7
420
 16777215
176
     1
 90
        1
176
     1
 90
        4
176
     1
 62
     7
176
     1
 62
   257
176
     1
 90
        7
176
     1
 90
        7
176
     1
 40
1.0
176
     1
 90
        8
176
     1
 62
     7
176
     1
 40
1.0
176
     1
 90
        1
176
     1
 90
        6
176
     1
 90
        2
176
     1
 62
     7
176
     1
 90
        5
176
     1
 90
        0
176
     1
 90
        0
176
     1
290
     0
176
     1
 90
        1
176
     1
 40
0.0
176
     1
 90
        0
176
     1
290
     0
176
     1
290
     1
176
     1
290
     1
176
     1
290
     0
176
     1
290
     0
176
     1
290
     0
176
     1
290
     0
176
     1
290
     0
176
     1
290
     0
176
     1
 90
       50
176
     1
 40
0.0
176
     1
 40
1.0
176
     1
 90
        0
176
     1
 62
    18
420
        0
176
     1
 90
       50
176
     1
 90
        3
176
     1
 62
     5
420
      255
176
     1
290
     0
176
     1
 90
       50
176
     1
 90
       50
176
     1
 90
       50
176
     1
290
     0
176
     1
 90
       50
176
     1
 62
   256
176
     0
 40
1.0
176
     0
 90
        2
176
     1
  1
strokes_ogs.tif
176
     1
290
     0
176
     1
 40
1.0
176
     1
 40
1.0
176
     1
  0
VISUALSTYLE
  5
40
102
{ACAD_REACTORS
330
29
102
}
330
29
100
AcDbVisualStyle
  2
OverhangOff
 70
    21
177
     3
291
     1
 70
    58
 90
        2
176
     0
 90
        2
176
     0
 90
        0
176
     0
 90
        0
176
     0
 40
0.6
176
     0
 40
30.0
176
     0
 62
     7
420
 16777215
176
     0
 90
        1
176
     0
 90
        4
176
     0
 62
     7
176
     0
 62
   257
176
     0
 90
        1
176
     0
 90
        1
176
     0
 40
1.0
176
     0
 90
        9
176
     2
 62
     7
176
     0
 40
1.0
176
     0
 90
        1
176
     0
 90
        6
176
     0
 90
        2
176
     0
 62
     7
176
     0
 90
        5
176
     0
 90
        0
176
     0
 90
        0
176
     0
290
     0
176
     0
 90
        1
176
     0
 40
0.0
176
     0
 90
        0
176
     0
290
     0
176
     0
290
     1
176
     0
290
     1
176
     0
290
     0
176
     0
290
     0
176
     0
290
     0
176
     0
290
     0
176
     0
290
     0
176
     0
290
     0
176
     0
 90
       50
176
     0
 40
0.0
176
     0
 40
1.0
176
     0
 90
        0
176
     0
 62
    18
420
        0
176
     0
 90
       50
176
     0
 90
        3
176
     0
 62
     5
420
      255
176
     0
290
     0
176
     0
 90
       50
176
     0
 90
       50
176
     0
 90
       50
176
     0
290
     0
176
     0
 90
       50
176
     0
 62
   256
176
     0
 40
1.0
176
     0
 90
        2
176
     0
  1
strokes_ogs.tif
176
     0
290
     0
176
     0
 40
1.0
176
     0
 40
1.0
176
     0
  0
VISUALSTYLE
  5
33
102
{ACAD_REACTORS
330
29
102
}
330
29
100
AcDbVisualStyle
  2
Realistic
 70
     8
177
     3
291
     0
 70
    58
 90
        2
176
     1
 90
        3
176
     1
 90
        0
176
     1
 90
        2
176
     1
 40
0.6
176
     1
 40
30.0
176
     1
 62
     7
420
 16777215
176
     1
 90
        0
176
     1
 90
        0
176
     1
 62
     7
176
     1
 62
   257
176
     1
 90
        1
176
     1
 90
        1
176
     1
 40
1.0
176
     1
 90
        8
176
     1
 62
   257
176
     1
 40
1.0
176
     1
 90
        1
176
     1
 90
        6
176
     1
 90
        2
176
     1
 62
     7
176
     1
 90
        3
176
     1
 90
        0
176
     1
 90
        0
176
     1
290
     0
176
     1
 90
       13
176
     1
 40
0.0
176
     1
 90
        0
176
     1
290
     0
176
     1
290
     1
176
     1
290
     1
176
     1
290
     0
176
     1
290
     0
176
     1
290
     0
176
     1
290
     0
176
     1
290
     0
176
     1
290
     0
176
     1
 90
       50
176
     1
 40
0.0
176
     1
 40
1.0
176
     1
 90
        0
176
     1
 62
    18
420
        0
176
     1
 90
       50
176
     1
 90
        3
176
     1
 62
     5
420
      255
176
     1
290
     0
176
     1
 90
       50
176
     1
 90
       50
176
     1
 90
       50
176
     1
290
     0
176
     1
 90
       50
176
     1
 62
   256
176
     0
 40
1.0
176
     0
 90
        2
176
     1
  1
strokes_ogs.tif
176
     1
290
     0
176
     1
 40
1.0
176
     1
 40
1.0
176
     1
  0
VISUALSTYLE
  5
3E
102
{ACAD_REACTORS
330
29
102
}
330
29
100
AcDbVisualStyle
  2
Shaded
 70
    27
177
     3
291
     0
 70
    58
 90
        2
176
     1
 90
        2
176
     1
 90
        1
176
     1
 90
        2
176
     1
 40
0.6
176
     1
 40
30.0
176
     1
 62
     7
420
 16777215
176
     1
 90
        0
176
     1
 90
        4
176
     1
 62
     7
176
     1
 62
   257
176
     1
 90
        1
176
     1
 90
        1
176
     1
 40
1.0
176
     1
 90
        8
176
     1
 62
   257
176
     1
 40
1.0
176
     1
 90
        1
176
     1
 90
        6
176
     1
 90
        2
176
     1
 62
     8
420
  7895160
176
     1
 90
        3
176
     1
 90
        0
176
     1
 90
        0
176
     1
290
     0
176
     1
 90
        5
176
     1
 40
0.0
176
     1
 90
        0
176
     1
290
     0
176
     1
290
     1
176
     1
290
     1
176
     1
290
     0
176
     1
290
     0
176
     1
290
     0
176
     1
290
     0
176
     1
290
     0
176
     1
290
     0
176
     1
 90
       50
176
     1
 40
0.0
176
     1
 40
1.0
176
     1
 90
        0
176
     1
 62
    18
420
        0
176
     1
 90
       50
176
     1
 90
        3
176
     1
 62
     5
420
      255
176
     1
290
     0
176
     1
 90
       50
176
     1
 90
       50
176
     1
 90
       50
176
     1
290
     0
176
     1
 90
       50
176
     1
 62
   256
176
     0
 40
1.0
176
     0
 90
        2
176
     1
  1
strokes_ogs.tif
176
     1
290
     0
176
     1
 40
1.0
176
     1
 40
1.0
176
     1
  0
VISUALSTYLE
  5
3D
102
{ACAD_REACTORS
330
29
102
}
330
29
100
AcDbVisualStyle
  2
Shaded with edges
 70
    26
177
     3
291
     0
 70
    58
 90
        2
176
     1
 90
        2
176
     1
 90
        1
176
     1
 90
        2
176
     1
 40
0.6
176
     1
 40
30.0
176
     1
 62
     7
420
 16777215
176
     1
 90
        1
176
     1
 90
       10
176
     1
 62
     7
176
     1
 62
   257
176
     1
 90
        2
176
     1
 90
        1
176
     1
 40
1.0
176
     1
 90
        8
176
     1
 62
   257
176
     1
 40
1.0
176
     1
 90
        1
176
     1
 90
        6
176
     1
 90
        2
176
     1
 62
     7
176
     1
 90
        3
176
     1
 90
        0
176
     1
 90
        0
176
     1
290
     0
176
     1
 90
        5
176
     1
 40
0.0
176
     1
 90
        0
176
     1
290
     0
176
     1
290
     1
176
     1
290
     1
176
     1
290
     0
176
     1
290
     0
176
     1
290
     0
176
     1
290
     0
176
     1
290
     0
176
     1
290
     0
176
     1
 90
       50
176
     1
 40
0.0
176
     1
 40
1.0
176
     1
 90
        0
176
     1
 62
    18
420
        0
176
     1
 90
       50
176
     1
 90
        3
176
     1
 62
     5
420
      255
176
     1
290
     0
176
     1
 90
       50
176
     1
 90
       50
176
     1
 90
       50
176
     1
290
     0
176
     1
 90
       50
176
     1
 62
   256
176
     0
 40
1.0
176
     0
 90
        2
176
     1
  1
strokes_ogs.tif
176
     1
290
     0
176
     1
 40
1.0
176
     1
 40
1.0
176
     1
  0
VISUALSTYLE
  5
3A
102
{ACAD_REACTORS
330
29
102
}
330
29
100
AcDbVisualStyle
  2
Shades of Gray
 70
    23
177
     3
291
     0
 70
    58
 90
        2
176
     1
 90
        2
176
     1
 90
        3
176
     1
 90
        0
176
     1
 40
0.6
176
     1
 40
30.0
176
     1
 62
     7
420
 16777215
176
     1
 90
        2
176
     1
 90
        2
176
     1
 62
     7
176
     1
 62
     7
176
     1
 90
        1
176
     1
 90
        1
176
     1
 40
40.0
176
     1
 90
        8
176
     1
 62
     7
176
     1
 40
1.0
176
     1
 90
        1
176
     1
 90
        6
176
     1
 90
        2
176
     1
 62
     7
176
     1
 90
        3
176
     1
 90
        0
176
     1
 90
        0
176
     1
290
     0
176
     1
 90
        1
176
     1
 40
0.0
176
     1
 90
        0
176
     1
290
     0
176
     1
290
     1
176
     1
290
     1
176
     1
290
     0
176
     1
290
     0
176
     1
290
     0
176
     1
290
     0
176
     1
290
     0
176
     1
290
     0
176
     1
 90
       50
176
     1
 40
0.0
176
     1
 40
1.0
176
     1
 90
        0
176
     1
 62
    18
420
        0
176
     1
 90
       50
176
     1
 90
        3
176
     1
 62
     5
420
      255
176
     1
290
     0
176
     1
 90
       50
176
     1
 90
       50
176
     1
 90
       50
176
     1
290
     0
176
     1
 90
       50
176
     1
 62
   256
176
     0
 40
1.0
176
     0
 90
        2
176
     1
  1
strokes_ogs.tif
176
     1
290
     0
176
     1
 40
1.0
176
     1
 40
1.0
176
     1
  0
VISUALSTYLE
  5
3B
102
{ACAD_REACTORS
330
29
102
}
330
29
100
AcDbVisualStyle
  2
Sketchy
 70
    24
177
     3
291
     0
 70
    58
 90
        1
176
     1
 90
        2
176
     1
 90
        2
176
     1
 90
        0
176
     1
 40
0.6
176
     1
 40
30.0
176
     1
 62
     7
420
 16777215
176
     1
 90
        2
176
     1
 90
        2
176
     1
 62
     7
176
     1
 62
     7
176
     1
 90
        1
176
     1
 90
        1
176
     1
 40
40.0
176
     1
 90
       11
176
     1
 62
     7
176
     1
 40
1.0
176
     1
 90
        1
176
     1
 90
        6
176
     1
 90
        2
176
     1
 62
     7
176
     1
 90
        6
176
     1
 90
        0
176
     1
 90
        0
176
     1
290
     0
176
     1
 90
        1
176
     1
 40
0.0
176
     1
 90
        0
176
     1
290
     0
176
     1
290
     1
176
     1
290
     1
176
     1
290
     0
176
     1
290
     0
176
     1
290
     0
176
     1
290
     0
176
     1
290
     0
176
     1
290
     0
176
     1
 90
       50
176
     1
 40
0.0
176
     1
 40
1.0
176
     1
 90
        0
176
     1
 62
    18
420
        0
176
     1
 90
       50
176
     1
 90
        3
176
     1
 62
     5
420
      255
176
     1
290
     0
176
     1
 90
       50
176
     1
 90
       50
176
     1
 90
       50
176
     1
290
     0
176
     1
 90
       50
176
     1
 62
   256
176
     0
 40
1.0
176
     0
 90
        2
176
     1
  1
strokes_ogs.tif
176
     1
290
     0
176
     1
 40
1.0
176
     1
 40
1.0
176
     1
  0
VISUALSTYLE
  5
36
102
{ACAD_REACTORS
330
29
102
}
330
29
100
AcDbVisualStyle
  2
Thicken
 70
    13
177
     3
291
     1
 70
    58
 90
        2
176
     1
 90
        2
176
     1
 90
        0
176
     1
 90
        0
176
     1
 40
0.6
176
     1
 40
30.0
176
     1
 62
     7
420
 16777215
176
     1
 90
        1
176
     1
 90
        4
176
     1
 62
     7
176
     1
 62
   257
176
     1
 90
        1
176
     1
 90
        1
176
     1
 40
1.0
176
     1
 90
       12
176
     1
 62
     7
176
     1
 40
1.0
176
     1
 90
        1
176
     1
 90
        6
176
     1
 90
        2
176
     1
 62
     7
176
     1
 90
        5
176
     1
 90
        0
176
     1
 90
        0
176
     1
290
     0
176
     1
 90
        1
176
     1
 40
0.0
176
     1
 90
        0
176
     1
290
     0
176
     1
290
     1
176
     1
290
     1
176
     1
290
     0
176
     1
290
     0
176
     1
290
     0
176
     1
290
     0
176
     1
290
     0
176
     1
290
     0
176
     1
 90
       50
176
     1
 40
0.0
176
     1
 40
1.0
176
     1
 90
        0
176
     1
 62
    18
420
        0
176
     1
 90
       50
176
     1
 90
        3
176
     1
 62
     5
420
      255
176
     1
290
     0
176
     1
 90
       50
176
     1
 90
       50
176
     1
 90
       50
176
     1
290
     0
176
     1
 90
       50
176
     1
 62
   256
176
     0
 40
1.0
176
     0
 90
        2
176
     1
  1
strokes_ogs.tif
176
     1
290
     0
176
     1
 40
1.0
176
     1
 40
1.0
176
     1
  0
VISUALSTYLE
  5
30
102
{ACAD_REACTORS
330
29
102
}
330
29
100
AcDbVisualStyle
  2
Wireframe
 70
     5
177
     3
291
     0
 70
    58
 90
        0
176
     1
 90
        2
176
     1
 90
        0
176
     1
 90
        0
176
     1
 40
0.6
176
     1
 40
30.0
176
     1
 62
     7
420
 16777215
176
     1
 90
        1
176
     1
 90
        4
176
     1
 62
     7
176
     1
 62
   257
176
     1
 90
        1
176
     1
 90
        1
176
     1
 40
1.0
176
     1
 90
        0
176
     1
 62
   257
176
     1
 40
1.0
176
     1
 90
        1
176
     1
 90
        6
176
     1
 90
        2
176
     1
 62
     7
176
     1
 90
        3
176
     1
 90
        0
176
     1
 90
        0
176
     1
290
     0
176
     1
 90
        1
176
     1
 40
0.0
176
     1
 90
        0
176
     1
290
     0
176
     1
290
     1
176
     1
290
     1
176
     1
290
     0
176
     1
290
     0
176
     1
290
     0
176
     1
290
     0
176
     1
290
     0
176
     1
290
     0
176
     1
 90
       50
176
     1
 40
0.0
176
     1
 40
1.0
176
     1
 90
        0
176
     1
 62
    18
420
        0
176
     1
 90
       50
176
     1
 90
        3
176
     1
 62
     5
420
      255
176
     1
290
     0
176
     1
 90
       50
176
     1
 90
       50
176
     1
 90
       50
176
     1
290
     0
176
     1
 90
       50
176
     1
 62
   256
176
     0
 40
1.0
176
     0
 90
        2
176
     1
  1
strokes_ogs.tif
176
     1
290
     0
176
     1
 40
1.0
176
     1
 40
1.0
176
     1
  0
VISUALSTYLE
  5
3C
102
{ACAD_REACTORS
330
29
102
}
330
29
100
AcDbVisualStyle
  2
X-Ray
 70
    25
177
     3
291
     0
 70
    58
 90
        2
176
     1
 90
        2
176
     1
 90
        1
176
     1
 90
        1
176
     1
 40
0.5
176
     1
 40
30.0
176
     1
 62
     7
420
 16777215
176
     1
 90
        1
176
     1
 90
        0
176
     1
 62
     7
176
     1
 62
   257
176
     1
 90
        1
176
     1
 90
        1
176
     1
 40
1.0
176
     1
 90
        8
176
     1
 62
     7
176
     1
 40
1.0
176
     1
 90
        1
176
     1
 90
        6
176
     1
 90
        2
176
     1
 62
     7
176
     1
 90
        3
176
     1
 90
        0
176
     1
 90
        0
176
     1
290
     0
176
     1
 90
       13
176
     1
 40
0.0
176
     1
 90
        0
176
     1
290
     0
176
     1
290
     1
176
     1
290
     1
176
     1
290
     0
176
     1
290
     0
176
     1
290
     0
176
     1
290
     0
176
     1
290
     0
176
     1
290
     0
176
     1
 90
       50
176
     1
 40
0.0
176
     1
 40
1.0
176
     1
 90
        0
176
     1
 62
    18
420
        0
176
     1
 90
       50
176
     1
 90
        3
176
     1
 62
     5
420
      255
176
     1
290
     0
176
     1
 90
       50
176
     1
 90
       50
176
     1
 90
       50
176
     1
290
     0
176
     1
 90
       50
176
     1
 62
   256
176
     0
 40
1.0
176
     0
 90
        2
176
     1
  1
strokes_ogs.tif
176
     1
290
     0
176
     1
 40
1.0
176
     1
 40
1.0
176
     1
  0
DICTIONARYVAR
  5
81
102
{ACAD_REACTORS
330
7C
102
}
330
7C
100
DictionaryVariables
280
     0
  1
1:1
  0
DICTIONARYVAR
  5
7E
102
{ACAD_REACTORS
330
7C
102
}
330
7C
100
DictionaryVariables
280
     0
  1
STANDARD
  0
DICTIONARYVAR
  5
7D
102
{ACAD_REACTORS
330
7C
102
}
330
7C
100
DictionaryVariables
280
     0
  1
STANDARD
  0
DICTIONARYVAR
  5
7F
102
{ACAD_REACTORS
330
7C
102
}
330
7C
100
DictionaryVariables
280
     0
  1
Imperial24
  0
DICTIONARYVAR
  5
80
102
{ACAD_REACTORS
330
7C
102
}
330
7C
100
DictionaryVariables
280
     0
  1
Imperial24
  0
XRECORD
  5
31E
102
{ACAD_REACTORS
330
31B
102
}
330
31B
100
AcDbXrecord
280
     1
  1
BUILDING_ID
  1
Progetto per messa in tavola DXF, DWG
  1
FLOOR_ID
  1
694395
  0
XRECORD
  5
31D
102
{ACAD_REACTORS
330
31B
102
}
330
31B
100
AcDbXrecord
280
     1
  1
-2001160
  1
Apparecchi idraulici
  0
XRECORD
  5
31C
102
{ACAD_REACTORS
330
31B
102
}
330
31B
100
AcDbXrecord
280
     1
  1
859151
  1
Automatic flow rate regulator valve_Caleffi_121 DN15 : 1/2''
  0
DICTIONARY
  5
1A
330
19
100
AcDbDictionary
280
     1
281
     1
  3
BUMPTILE
360
1C
  3
DIFFUSETILE
360
1B
  3
OPACITYTILE
360
1F
  3
REFLECTIONTILE
360
1E
  3
REFRACTIONTILE
360
20
  3
SPECULARTILE
360
1D
  0
DICTIONARY
  5
12
330
11
100
AcDbDictionary
280
     1
281
     1
  3
BUMPTILE
360
14
  3
DIFFUSETILE
360
13
  3
OPACITYTILE
360
17
  3
REFLECTIONTILE
360
16
  3
REFRACTIONTILE
360
18
  3
SPECULARTILE
360
15
  0
DICTIONARY
  5
22
330
21
100
AcDbDictionary
280
     1
281
     1
  3
BUMPTILE
360
24
  3
DIFFUSETILE
360
23
  3
OPACITYTILE
360
27
  3
REFLECTIONTILE
360
26
  3
REFRACTIONTILE
360
28
  3
SPECULARTILE
360
25
  0
DICTIONARY
  5
321
330
65
100
AcDbDictionary
280
     1
281
     1
  3
ACAD_ROUNDTRIP_2008_TABLESTYLE_CELLSTYLEMAP
360
322
  0
XRECORD
  5
1C
102
{ACAD_REACTORS
330
1A
102
}
330
1A
100
AcDbXrecord
280
     1
270
     1
271
     1
  0
XRECORD
  5
1B
102
{ACAD_REACTORS
330
1A
102
}
330
1A
100
AcDbXrecord
280
     1
270
     1
271
     1
  0
XRECORD
  5
1F
102
{ACAD_REACTORS
330
1A
102
}
330
1A
100
AcDbXrecord
280
     1
270
     1
271
     1
  0
XRECORD
  5
1E
102
{ACAD_REACTORS
330
1A
102
}
330
1A
100
AcDbXrecord
280
     1
270
     1
271
     1
  0
XRECORD
  5
20
102
{ACAD_REACTORS
330
1A
102
}
330
1A
100
AcDbXrecord
280
     1
270
     1
271
     1
  0
XRECORD
  5
1D
102
{ACAD_REACTORS
330
1A
102
}
330
1A
100
AcDbXrecord
280
     1
270
     1
271
     1
  0
XRECORD
  5
14
102
{ACAD_REACTORS
330
12
102
}
330
12
100
AcDbXrecord
280
     1
270
     1
271
     1
  0
XRECORD
  5
13
102
{ACAD_REACTORS
330
12
102
}
330
12
100
AcDbXrecord
280
     1
270
     1
271
     1
  0
XRECORD
  5
17
102
{ACAD_REACTORS
330
12
102
}
330
12
100
AcDbXrecord
280
     1
270
     1
271
     1
  0
XRECORD
  5
16
102
{ACAD_REACTORS
330
12
102
}
330
12
100
AcDbXrecord
280
     1
270
     1
271
     1
  0
XRECORD
  5
18
102
{ACAD_REACTORS
330
12
102
}
330
12
100
AcDbXrecord
280
     1
270
     1
271
     1
  0
XRECORD
  5
15
102
{ACAD_REACTORS
330
12
102
}
330
12
100
AcDbXrecord
280
     1
270
     1
271
     1
  0
XRECORD
  5
24
102
{ACAD_REACTORS
330
22
102
}
330
22
100
AcDbXrecord
280
     1
270
     1
271
     1
  0
XRECORD
  5
23
102
{ACAD_REACTORS
330
22
102
}
330
22
100
AcDbXrecord
280
     1
270
     1
271
     1
  0
XRECORD
  5
27
102
{ACAD_REACTORS
330
22
102
}
330
22
100
AcDbXrecord
280
     1
270
     1
271
     1
  0
XRECORD
  5
26
102
{ACAD_REACTORS
330
22
102
}
330
22
100
AcDbXrecord
280
     1
270
     1
271
     1
  0
XRECORD
  5
28
102
{ACAD_REACTORS
330
22
102
}
330
22
100
AcDbXrecord
280
     1
270
     1
271
     1
  0
XRECORD
  5
25
102
{ACAD_REACTORS
330
22
102
}
330
22
100
AcDbXrecord
280
     1
270
     1
271
     1
  0
CELLSTYLEMAP
  5
322
102
{ACAD_REACTORS
330
321
102
}
330
321
100
AcDbCellStyleMap
 90
        3
300
CELLSTYLE
  1
TABLEFORMAT_BEGIN
 90
        5
170
     1
 91
        0
 92
    32768
 62
   257
 93
        1
300
CONTENTFORMAT
  1
CONTENTFORMAT_BEGIN
 90
        0
 91
        0
 92
      512
 93
        0
300

 40
0.0
140
1.0
 94
        5
 62
     0
340
55
144
0.25
309
CONTENTFORMAT_END
171
     0
 94
        0
309
TABLEFORMAT_END
  1
CELLSTYLE_BEGIN
 90
        1
 91
        1
300
_TITLE
309
CELLSTYLE_END
300
CELLSTYLE
  1
TABLEFORMAT_BEGIN
 90
        5
170
     1
 91
        0
 92
        0
 62
   257
 93
        1
300
CONTENTFORMAT
  1
CONTENTFORMAT_BEGIN
 90
        0
 91
        0
 92
      512
 93
        0
300

 40
0.0
140
1.0
 94
        5
 62
     0
340
55
144
0.18
309
CONTENTFORMAT_END
171
     0
 94
        0
309
TABLEFORMAT_END
  1
CELLSTYLE_BEGIN
 90
        2
 91
        1
300
_HEADER
309
CELLSTYLE_END
300
CELLSTYLE
  1
TABLEFORMAT_BEGIN
 90
        5
170
     1
 91
        0
 92
        0
 62
   257
 93
        1
300
CONTENTFORMAT
  1
CONTENTFORMAT_BEGIN
 90
        0
 91
        0
 92
      512
 93
        0
300

 40
0.0
140
1.0
 94
        2
 62
     0
340
55
144
0.18
309
CONTENTFORMAT_END
171
     0
 94
        0
309
TABLEFORMAT_END
  1
CELLSTYLE_BEGIN
 90
        3
 91
        2
300
_DATA
309
CELLSTYLE_END
  0
ENDSEC
  0
EOF
