  0
SECTION
  2
HEADER
  9
$ACADVER
  1
AC1027
  9
$ACADMAINTVER
 70
    20
  9
$DWGCODEPAGE
  3
ANSI_1252
  9
$REQUIREDVERSIONS
160
                 0
  9
$INSBASE
 10
0.0
 20
0.0
 30
0.0
  9
$EXTMIN
 10
660.6664074432003
 20
1106.747075844238
 30
-0.00000001
  9
$EXTMAX
 10
1605.363156838907
 20
2212.88479525372
 30
0.00000001
  9
$LIMMIN
 10
0.0
 20
0.0
  9
$LIMMAX
 10
12.0
 20
9.0
  9
$ORTHOMODE
 70
     0
  9
$REGENMODE
 70
     1
  9
$FILLMODE
 70
     1
  9
$QTEXTMODE
 70
     0
  9
$MIRRTEXT
 70
     0
  9
$LTSCALE
 40
1.0
  9
$ATTMODE
 70
     1
  9
$TEXTSIZE
 40
0.2
  9
$TRACEWID
 40
0.05
  9
$TEXTSTYLE
  7
Standard
  9
$CLAYER
  8
0
  9
$CELTYPE
  6
ByLayer
  9
$CECOLOR
 62
   256
  9
$CELTSCALE
 40
1.0
  9
$DISPSILH
 70
     0
  9
$DIMSCALE
 40
1.0
  9
$DIMASZ
 40
0.18
  9
$DIMEXO
 40
0.0625
  9
$DIMDLI
 40
0.38
  9
$DIMRND
 40
0.0
  9
$DIMDLE
 40
0.0
  9
$DIMEXE
 40
0.18
  9
$DIMTP
 40
0.0
  9
$DIMTM
 40
0.0
  9
$DIMTXT
 40
0.18
  9
$DIMCEN
 40
0.09
  9
$DIMTSZ
 40
0.0
  9
$DIMTOL
 70
     0
  9
$DIMLIM
 70
     0
  9
$DIMTIH
 70
     1
  9
$DIMTOH
 70
     1
  9
$DIMSE1
 70
     0
  9
$DIMSE2
 70
     0
  9
$DIMTAD
 70
     0
  9
$DIMZIN
 70
     0
  9
$DIMBLK
  1

  9
$DIMASO
 70
     1
  9
$DIMSHO
 70
     1
  9
$DIMPOST
  1

  9
$DIMAPOST
  1

  9
$DIMALT
 70
     0
  9
$DIMALTD
 70
     2
  9
$DIMALTF
 40
25.4
  9
$DIMLFAC
 40
1.0
  9
$DIMTOFL
 70
     0
  9
$DIMTVP
 40
0.0
  9
$DIMTIX
 70
     0
  9
$DIMSOXD
 70
     0
  9
$DIMSAH
 70
     0
  9
$DIMBLK1
  1

  9
$DIMBLK2
  1

  9
$DIMSTYLE
  2
Standard
  9
$DIMCLRD
 70
     0
  9
$DIMCLRE
 70
     0
  9
$DIMCLRT
 70
     0
  9
$DIMTFAC
 40
1.0
  9
$DIMGAP
 40
0.09
  9
$DIMJUST
 70
     0
  9
$DIMSD1
 70
     0
  9
$DIMSD2
 70
     0
  9
$DIMTOLJ
 70
     1
  9
$DIMTZIN
 70
     0
  9
$DIMALTZ
 70
     0
  9
$DIMALTTZ
 70
     0
  9
$DIMUPT
 70
     0
  9
$DIMDEC
 70
     4
  9
$DIMTDEC
 70
     4
  9
$DIMALTU
 70
     2
  9
$DIMALTTD
 70
     2
  9
$DIMTXSTY
  7
Standard
  9
$DIMAUNIT
 70
     0
  9
$DIMADEC
 70
     0
  9
$DIMALTRND
 40
0.0
  9
$DIMAZIN
 70
     0
  9
$DIMDSEP
 70
    46
  9
$DIMATFIT
 70
     3
  9
$DIMFRAC
 70
     0
  9
$DIMLDRBLK
  1

  9
$DIMLUNIT
 70
     2
  9
$DIMLWD
 70
    -2
  9
$DIMLWE
 70
    -2
  9
$DIMTMOVE
 70
     0
  9
$DIMFXL
 40
1.0
  9
$DIMFXLON
 70
     0
  9
$DIMJOGANG
 40
0.7853981633974483
  9
$DIMTFILL
 70
     0
  9
$DIMTFILLCLR
 70
     0
  9
$DIMARCSYM
 70
     0
  9
$DIMLTYPE
  6

  9
$DIMLTEX1
  6

  9
$DIMLTEX2
  6

  9
$DIMTXTDIRECTION
 70
     0
  9
$LUNITS
 70
     2
  9
$LUPREC
 70
     4
  9
$SKETCHINC
 40
0.1
  9
$FILLETRAD
 40
0.0
  9
$AUNITS
 70
     0
  9
$AUPREC
 70
     0
  9
$MENU
  1
.
  9
$ELEVATION
 40
0.0
  9
$PELEVATION
 40
0.0
  9
$THICKNESS
 40
0.0
  9
$LIMCHECK
 70
     0
  9
$CHAMFERA
 40
0.0
  9
$CHAMFERB
 40
0.0
  9
$CHAMFERC
 40
0.0
  9
$CHAMFERD
 40
0.0
  9
$SKPOLY
 70
     0
  9
$TDCREATE
 40
2457569.615358148
  9
$TDUCREATE
 40
2457569.532024815
  9
$TDUPDATE
 40
2457569.615358148
  9
$TDUUPDATE
 40
2457569.532024815
  9
$TDINDWG
 40
0.0001080787
  9
$TDUSRTIMER
 40
0.0001080787
  9
$USRTIMER
 70
     1
  9
$ANGBASE
 50
0.0
  9
$ANGDIR
 70
     0
  9
$PDMODE
 70
     0
  9
$PDSIZE
 40
0.0
  9
$PLINEWID
 40
0.0
  9
$SPLFRAME
 70
     0
  9
$SPLINETYPE
 70
     6
  9
$SPLINESEGS
 70
     8
  9
$HANDSEED
  5
38C
  9
$SURFTAB1
 70
     6
  9
$SURFTAB2
 70
     6
  9
$SURFTYPE
 70
     6
  9
$SURFU
 70
     6
  9
$SURFV
 70
     6
  9
$UCSBASE
  2

  9
$UCSNAME
  2

  9
$UCSORG
 10
0.0
 20
0.0
 30
0.0
  9
$UCSXDIR
 10
1.0
 20
0.0
 30
0.0
  9
$UCSYDIR
 10
0.0
 20
1.0
 30
0.0
  9
$UCSORTHOREF
  2

  9
$UCSORTHOVIEW
 70
     0
  9
$UCSORGTOP
 10
0.0
 20
0.0
 30
0.0
  9
$UCSORGBOTTOM
 10
0.0
 20
0.0
 30
0.0
  9
$UCSORGLEFT
 10
0.0
 20
0.0
 30
0.0
  9
$UCSORGRIGHT
 10
0.0
 20
0.0
 30
0.0
  9
$UCSORGFRONT
 10
0.0
 20
0.0
 30
0.0
  9
$UCSORGBACK
 10
0.0
 20
0.0
 30
0.0
  9
$PUCSBASE
  2

  9
$PUCSNAME
  2

  9
$PUCSORG
 10
0.0
 20
0.0
 30
0.0
  9
$PUCSXDIR
 10
1.0
 20
0.0
 30
0.0
  9
$PUCSYDIR
 10
0.0
 20
1.0
 30
0.0
  9
$PUCSORTHOREF
  2

  9
$PUCSORTHOVIEW
 70
     0
  9
$PUCSORGTOP
 10
0.0
 20
0.0
 30
0.0
  9
$PUCSORGBOTTOM
 10
0.0
 20
0.0
 30
0.0
  9
$PUCSORGLEFT
 10
0.0
 20
0.0
 30
0.0
  9
$PUCSORGRIGHT
 10
0.0
 20
0.0
 30
0.0
  9
$PUCSORGFRONT
 10
0.0
 20
0.0
 30
0.0
  9
$PUCSORGBACK
 10
0.0
 20
0.0
 30
0.0
  9
$USERI1
 70
     0
  9
$USERI2
 70
     0
  9
$USERI3
 70
     0
  9
$USERI4
 70
     0
  9
$USERI5
 70
     0
  9
$USERR1
 40
0.0
  9
$USERR2
 40
0.0
  9
$USERR3
 40
0.0
  9
$USERR4
 40
0.0
  9
$USERR5
 40
0.0
  9
$WORLDVIEW
 70
     1
  9
$SHADEDGE
 70
     3
  9
$SHADEDIF
 70
    70
  9
$TILEMODE
 70
     1
  9
$MAXACTVP
 70
    64
  9
$PINSBASE
 10
0.0
 20
0.0
 30
0.0
  9
$PLIMCHECK
 70
     0
  9
$PEXTMIN
 10
1.000000000000000E+20
 20
1.000000000000000E+20
 30
1.000000000000000E+20
  9
$PEXTMAX
 10
-1.000000000000000E+20
 20
-1.000000000000000E+20
 30
-1.000000000000000E+20
  9
$PLIMMIN
 10
0.0
 20
0.0
  9
$PLIMMAX
 10
12.0
 20
9.0
  9
$UNITMODE
 70
     0
  9
$VISRETAIN
 70
     1
  9
$PLINEGEN
 70
     0
  9
$PSLTSCALE
 70
     1
  9
$TREEDEPTH
 70
  3020
  9
$CMLSTYLE
  2
Standard
  9
$CMLJUST
 70
     0
  9
$CMLSCALE
 40
1.0
  9
$PROXYGRAPHICS
 70
     1
  9
$MEASUREMENT
 70
     1
  9
$CELWEIGHT
370
    -1
  9
$ENDCAPS
280
     0
  9
$JOINSTYLE
280
     0
  9
$LWDISPLAY
290
     0
  9
$INSUNITS
 70
     4
  9
$HYPERLINKBASE
  1

  9
$STYLESHEET
  1

  9
$XEDIT
290
     1
  9
$CEPSNTYPE
380
     0
  9
$PSTYLEMODE
290
     1
  9
$FINGERPRINTGUID
  2
{B766F38A-192B-44C9-B92A-4C2692B7377B}
  9
$VERSIONGUID
  2
{A8D4A026-360A-4A9C-AEB8-4095E4B9F654}
  9
$EXTNAMES
290
     1
  9
$PSVPSCALE
 40
0.0
  9
$OLESTARTUP
290
     0
  9
$SORTENTS
280
   127
  9
$INDEXCTL
280
     0
  9
$HIDETEXT
280
     1
  9
$XCLIPFRAME
280
     2
  9
$HALOGAP
280
     0
  9
$OBSCOLOR
 70
   257
  9
$OBSLTYPE
280
     0
  9
$INTERSECTIONDISPLAY
280
     0
  9
$INTERSECTIONCOLOR
 70
   257
  9
$DIMASSOC
280
     2
  9
$PROJECTNAME
  1

  9
$CAMERADISPLAY
290
     0
  9
$LENSLENGTH
 40
50.0
  9
$CAMERAHEIGHT
 40
0.0
  9
$STEPSPERSEC
 40
2.0
  9
$STEPSIZE
 40
6.0
  9
$3DDWFPREC
 40
2.0
  9
$PSOLWIDTH
 40
0.25
  9
$PSOLHEIGHT
 40
4.0
  9
$LOFTANG1
 40
1.570796326794896
  9
$LOFTANG2
 40
1.570796326794896
  9
$LOFTMAG1
 40
0.0
  9
$LOFTMAG2
 40
0.0
  9
$LOFTPARAM
 70
     7
  9
$LOFTNORMALS
280
     1
  9
$LATITUDE
 40
37.795
  9
$LONGITUDE
 40
-122.394
  9
$NORTHDIRECTION
 40
0.0
  9
$TIMEZONE
 70
 -8000
  9
$LIGHTGLYPHDISPLAY
280
     1
  9
$TILEMODELIGHTSYNCH
280
     1
  9
$CMATERIAL
347
11
  9
$SOLIDHIST
280
     0
  9
$SHOWHIST
280
     1
  9
$DWFFRAME
280
     2
  9
$DGNFRAME
280
     0
  9
$REALWORLDSCALE
290
     1
  9
$INTERFERECOLOR
 62
     1
  9
$INTERFEREOBJVS
345
33
  9
$INTERFEREVPVS
346
30
  9
$CSHADOW
280
     0
  9
$SHADOWPLANELOCATION
 40
0.0
  0
ENDSEC
  0
SECTION
  2
CLASSES
  0
CLASS
  1
ACDBDICTIONARYWDFLT
  2
AcDbDictionaryWithDefault
  3
ObjectDBX Classes
 90
        0
 91
        1
280
     0
281
     0
  0
CLASS
  1
MATERIAL
  2
AcDbMaterial
  3
ObjectDBX Classes
 90
     1153
 91
        3
280
     0
281
     0
  0
CLASS
  1
VISUALSTYLE
  2
AcDbVisualStyle
  3
ObjectDBX Classes
 90
     4095
 91
       24
280
     0
281
     0
  0
CLASS
  1
SCALE
  2
AcDbScale
  3
ObjectDBX Classes
 90
     1153
 91
       17
280
     0
281
     0
  0
CLASS
  1
TABLESTYLE
  2
AcDbTableStyle
  3
ObjectDBX Classes
 90
     4095
 91
        1
280
     0
281
     0
  0
CLASS
  1
MLEADERSTYLE
  2
AcDbMLeaderStyle
  3
ACDB_MLEADERSTYLE_CLASS
 90
     4095
 91
        1
280
     0
281
     0
  0
CLASS
  1
ACDBSECTIONVIEWSTYLE
  2
AcDbSectionViewStyle
  3
ObjectDBX Classes
 90
     1025
 91
        1
280
     0
281
     0
  0
CLASS
  1
ACDBDETAILVIEWSTYLE
  2
AcDbDetailViewStyle
  3
ObjectDBX Classes
 90
     1025
 91
        1
280
     0
281
     0
  0
CLASS
  1
RASTERVARIABLES
  2
AcDbRasterVariables
  3
ISM
 90
        0
 91
        1
280
     0
281
     0
  0
CLASS
  1
DICTIONARYVAR
  2
AcDbDictionaryVar
  3
ObjectDBX Classes
 90
        0
 91
        5
280
     0
281
     0
  0
CLASS
  1
CELLSTYLEMAP
  2
AcDbCellStyleMap
  3
ObjectDBX Classes
 90
     1152
 91
        2
280
     0
281
     0
  0
CLASS
  1
SORTENTSTABLE
  2
AcDbSortentsTable
  3
ObjectDBX Classes
 90
        0
 91
        1
280
     0
281
     0
  0
ENDSEC
  0
SECTION
  2
TABLES
  0
TABLE
  2
VPORT
  5
8
330
0
100
AcDbSymbolTable
 70
     1
  0
VPORT
  5
57
330
8
100
AcDbSymbolTableRecord
100
AcDbViewportTableRecord
  2
*Active
 70
     0
 10
0.0
 20
0.0
 11
1.0
 21
1.0
 12
1133.014782141053
 22
1659.815935548979
 13
0.0
 23
0.0
 14
1.0
 24
1.0
 15
0.0
 25
0.0
 16
0.0
 26
0.0
 36
1.0
 17
0.0
 27
0.0
 37
0.0
 40
1106.137719409482
 41
0.8540498464332612
 42
50.0
 43
0.0
 44
0.0
 50
0.0
 51
0.0
 71
     0
 72
  1000
 73
     1
 74
     1
 75
     0
 76
     0
 77
     0
 78
     0
281
     0
 65
     1
110
0.0
120
0.0
130
0.0
111
1.0
121
0.0
131
0.0
112
0.0
122
1.0
132
0.0
 79
     0
146
0.0
 60
     3
 61
     5
292
     1
282
     1
141
0.0
142
0.0
 63
   250
421
  3355443
  0
ENDTAB
  0
TABLE
  2
LTYPE
  5
5
330
0
100
AcDbSymbolTable
 70
     3
  0
LTYPE
  5
5B
330
5
100
AcDbSymbolTableRecord
100
AcDbLinetypeTableRecord
  2
ByBlock
 70
     0
  3

 72
    65
 73
     0
 40
0.0
  0
LTYPE
  5
5C
330
5
100
AcDbSymbolTableRecord
100
AcDbLinetypeTableRecord
  2
ByLayer
 70
     0
  3

 72
    65
 73
     0
 40
0.0
  0
LTYPE
  5
5D
330
5
100
AcDbSymbolTableRecord
100
AcDbLinetypeTableRecord
  2
Continuous
 70
     0
  3
Solid line
 72
    65
 73
     0
 40
0.0
  0
LTYPE
  5
69
330
5
100
AcDbSymbolTableRecord
100
AcDbLinetypeTableRecord
  2
PHANTOM2
 70
     0
  3
___ _ _ ___ _ _ ___ _ _ ___ _ _
 72
    65
 73
     6
 40
1.25
 49
0.625
 74
     0
 49
-0.125
 74
     0
 49
0.125
 74
     0
 49
-0.125
 74
     0
 49
0.125
 74
     0
 49
-0.125
 74
     0
  0
LTYPE
  5
86
330
5
100
AcDbSymbolTableRecord
100
AcDbLinetypeTableRecord
  2
Nascosto 1_5 mm
 70
     0
  3

 72
    65
 73
     2
 40
2.2
 49
1.5
 74
     0
 49
-0.7000000000000001
 74
     0
  0
ENDTAB
  0
TABLE
  2
LAYER
  5
2
330
0
100
AcDbSymbolTable
 70
     3
  0
LAYER
  5
54
330
2
100
AcDbSymbolTableRecord
100
AcDbLayerTableRecord
  2
0
 70
     0
 62
     7
  6
Continuous
370
    -3
390
F
347
21
348
0
  0
LAYER
  5
85
330
2
100
AcDbSymbolTableRecord
100
AcDbLayerTableRecord
  2
P-SANR-FIXT
 70
     0
 62
     6
  6
Continuous
370
    18
390
F
347
21
348
0
  0
ENDTAB
  0
TABLE
  2
STYLE
  5
3
330
0
100
AcDbSymbolTable
 70
     2
  0
STYLE
  5
55
330
3
100
AcDbSymbolTableRecord
100
AcDbTextStyleTableRecord
  2
Standard
 70
     0
 40
0.0
 41
1.0
 50
0.0
 71
     0
 42
0.2
  3
txt
  4

  0
STYLE
  5
5A
330
3
100
AcDbSymbolTableRecord
100
AcDbTextStyleTableRecord
  2
Annotative
 70
     0
 40
0.0
 41
1.0
 50
0.0
 71
     0
 42
0.2
  3
txt
  4

1001
AcadAnnotative
1000
AnnotativeData
1002
{
1070
     1
1070
     1
1002
}
  0
ENDTAB
  0
TABLE
  2
VIEW
  5
6
330
0
100
AcDbSymbolTable
 70
     0
  0
ENDTAB
  0
TABLE
  2
UCS
  5
7
330
0
100
AcDbSymbolTable
 70
     0
  0
ENDTAB
  0
TABLE
  2
APPID
  5
9
330
0
100
AcDbSymbolTable
 70
     3
  0
APPID
  5
56
330
9
100
AcDbSymbolTableRecord
100
AcDbRegAppTableRecord
  2
ACAD
 70
     0
  0
APPID
  5
5E
330
9
100
AcDbSymbolTableRecord
100
AcDbRegAppTableRecord
  2
AcadAnnotative
 70
     0
  0
APPID
  5
79
330
9
100
AcDbSymbolTableRecord
100
AcDbRegAppTableRecord
  2
REVIT
 70
     0
  0
ENDTAB
  0
TABLE
  2
DIMSTYLE
  5
A
330
0
100
AcDbSymbolTable
 70
     2
100
AcDbDimStyleTable
 71
     0
  0
DIMSTYLE
105
58
330
A
100
AcDbSymbolTableRecord
100
AcDbDimStyleTableRecord
  2
Standard
 70
     0
340
55
  0
DIMSTYLE
105
59
330
A
100
AcDbSymbolTableRecord
100
AcDbDimStyleTableRecord
  2
Annotative
 70
     0
340
55
1001
AcadAnnotative
1000
AnnotativeData
1002
{
1070
     1
1070
     1
1002
}
  0
ENDTAB
  0
TABLE
  2
BLOCK_RECORD
  5
1
330
0
100
AcDbSymbolTable
 70
     4
  0
BLOCK_RECORD
  5
71
102
{ACAD_XDICTIONARY
360
387
102
}
330
1
100
AcDbSymbolTableRecord
100
AcDbBlockTableRecord
  2
*Model_Space
340
74
 70
     0
280
     1
281
     0
  0
BLOCK_RECORD
  5
6D
330
1
100
AcDbSymbolTableRecord
100
AcDbBlockTableRecord
  2
*Paper_Space
340
70
 70
     0
280
     1
281
     0
  0
BLOCK_RECORD
  5
75
330
1
100
AcDbSymbolTableRecord
100
AcDbBlockTableRecord
  2
*Paper_Space0
340
78
 70
     0
280
     1
281
     0
  0
BLOCK_RECORD
  5
87
330
1
100
AcDbSymbolTableRecord
100
AcDbBlockTableRecord
  2
Automatic flow rate regulator valve_Caleffi_121 DN15 - 1_2__-859151-Est - Idraulica
340
0
102
{BLKREFS
331
1DE
102
}
 70
     0
280
     1
281
     0
  0
BLOCK_RECORD
  5
1DF
330
1
100
AcDbSymbolTableRecord
100
AcDbBlockTableRecord
  2
Automatic flow rate regulator valve_Caleffi_121 DN15 - 1_2__-V1-Est - Idraulica
340
0
102
{BLKREFS
331
2AA
102
}
 70
     0
280
     1
281
     0
  0
BLOCK_RECORD
  5
2AB
330
1
100
AcDbSymbolTableRecord
100
AcDbBlockTableRecord
  2
Automatic flow rate regulator valve_Caleffi_121 DN15 - 1_2__-V2-Est - Idraulica
340
0
102
{BLKREFS
331
381
102
}
 70
     0
280
     1
281
     0
  0
ENDTAB
  0
ENDSEC
  0
SECTION
  2
BLOCKS
  0
BLOCK
  5
72
330
71
100
AcDbEntity
  8
0
100
AcDbBlockBegin
  2
*Model_Space
 70
     0
 10
0.0
 20
0.0
 30
0.0
  3
*Model_Space
  1

  0
ENDBLK
  5
73
330
71
100
AcDbEntity
  8
0
100
AcDbBlockEnd
  0
BLOCK
  5
6E
330
6D
100
AcDbEntity
 67
     1
  8
0
100
AcDbBlockBegin
  2
*Paper_Space
 70
     0
 10
0.0
 20
0.0
 30
0.0
  3
*Paper_Space
  1

  0
ENDBLK
  5
6F
330
6D
100
AcDbEntity
 67
     1
  8
0
100
AcDbBlockEnd
  0
BLOCK
  5
76
330
75
100
AcDbEntity
 67
     1
  8
0
100
AcDbBlockBegin
  2
*Paper_Space0
 70
     0
 10
0.0
 20
0.0
 30
0.0
  3
*Paper_Space0
  1

  0
ENDBLK
  5
77
330
75
100
AcDbEntity
 67
     1
  8
0
100
AcDbBlockEnd
  0
BLOCK
  5
1DC
330
87
100
AcDbEntity
  8
0
100
AcDbBlockBegin
  2
Automatic flow rate regulator valve_Caleffi_121 DN15 - 1_2__-859151-Est - Idraulica
 70
     0
 10
0.0
 20
0.0
 30
0.0
  3
Automatic flow rate regulator valve_Caleffi_121 DN15 - 1_2__-859151-Est - Idraulica
  1

  0
LWPOLYLINE
  5
88
330
87
100
AcDbEntity
  8
P-SANR-FIXT
100
AcDbPolyline
 90
        3
 70
   128
 43
0.0
 10
914.4466958187875
 20
1867.194972588235
 10
939.0416099593407
 20
1879.213871445152
 10
951.5225212639963
 20
1886.958175816878
  0
LINE
  5
89
330
87
100
AcDbEntity
  8
P-SANR-FIXT
100
AcDbLine
 10
821.0800851672553
 20
1900.345979329005
 30
0.0
 11
823.9408170461576
 21
1904.431527859683
 31
0.0
  0
LINE
  5
8A
330
87
100
AcDbEntity
  8
P-SANR-FIXT
100
AcDbLine
 10
1057.66640744318
 20
2095.937500000006
 30
0.0
 11
1043.184588000673
 21
2095.937500000006
 31
0.0
  0
LINE
  5
8B
330
87
100
AcDbEntity
  8
P-SANR-FIXT
100
AcDbLine
 10
1035.592475126451
 20
1845.937499999992
 30
0.0
 11
1057.66640744318
 21
1845.937499999992
 31
0.0
  0
LINE
  5
8C
330
87
100
AcDbEntity
  8
P-SANR-FIXT
100
AcDbLine
 10
1060.666407443174
 20
2069.20544919244
 30
0.0
 11
1057.66640744318
 21
2070.937500000006
 31
0.0
  0
LINE
  5
8D
330
87
100
AcDbEntity
  8
P-SANR-FIXT
100
AcDbLine
 10
1057.66640744318
 20
1870.937499999993
 30
0.0
 11
1060.666407443174
 21
1872.669550807558
 31
0.0
  0
LINE
  5
8E
330
87
100
AcDbEntity
  8
P-SANR-FIXT
100
AcDbLine
 10
663.6664074431958
 20
2070.937499999998
 30
0.0
 11
660.6664074432027
 21
2069.205449192433
 31
0.0
  0
LINE
  5
8F
330
87
100
AcDbEntity
  8
P-SANR-FIXT
100
AcDbLine
 10
660.6664074432027
 20
1872.669550807566
 30
0.0
 11
663.6664074431958
 21
1870.937500000001
 31
0.0
  0
LINE
  5
90
330
87
100
AcDbEntity
  8
P-SANR-FIXT
100
AcDbLine
 10
676.0921078501706
 20
2095.937500000005
 30
0.0
 11
663.6664074431962
 21
2095.937500000005
 31
0.0
  0
LINE
  5
91
330
87
100
AcDbEntity
  8
P-SANR-FIXT
100
AcDbLine
 10
663.6664074431962
 20
1845.937499999994
 30
0.0
 11
680.6664074431961
 21
1845.937499999994
 31
0.0
  0
LINE
  5
92
330
87
100
AcDbEntity
  8
P-SANR-FIXT
100
AcDbLine
 10
1035.592475126449
 20
1845.937499999992
 30
0.0
 11
1035.592475126449
 21
2095.241789280286
 31
0.0
  0
LINE
  5
93
330
87
100
AcDbEntity
  8
P-SANR-FIXT
100
AcDbLine
 10
1057.666407443178
 20
1845.937499999992
 30
0.0
 11
1057.666407443178
 21
2095.937500000005
 31
0.0
  0
LINE
  5
94
330
87
100
AcDbEntity
  8
P-SANR-FIXT
100
AcDbLine
 10
1060.666407443172
 20
1872.669550807558
 30
0.0
 11
1060.666407443172
 21
2069.205449192439
 31
0.0
  0
LINE
  5
95
330
87
100
AcDbEntity
  8
P-SANR-FIXT
100
AcDbLine
 10
660.6664074432013
 20
1872.669550807565
 30
0.0
 11
660.6664074432013
 21
2069.205449192432
 31
0.0
  0
LINE
  5
96
330
87
100
AcDbEntity
  8
P-SANR-FIXT
100
AcDbLine
 10
663.6664074431948
 20
1845.937499999993
 30
0.0
 11
663.6664074431949
 21
2095.937500000004
 31
0.0
  0
LINE
  5
97
330
87
100
AcDbEntity
  8
P-SANR-FIXT
100
AcDbLine
 10
680.6664074431948
 20
1845.937499999993
 30
0.0
 11
680.6664074431948
 21
2095.228501743003
 31
0.0
  0
LINE
  5
98
330
87
100
AcDbEntity
  8
P-SANR-FIXT
100
AcDbLine
 10
680.6664074431961
 20
1885.937499999998
 30
0.0
 11
787.7614274764376
 21
1885.937499999998
 31
0.0
  0
LINE
  5
99
330
87
100
AcDbEntity
  8
P-SANR-FIXT
100
AcDbLine
 10
949.8691262727067
 20
1885.937499999998
 30
0.0
 11
1035.59247512645
 21
1885.937499999998
 31
0.0
  0
LINE
  5
9A
330
87
100
AcDbEntity
  8
P-SANR-FIXT
100
AcDbLine
 10
1024.141654723333
 20
2056.893623006678
 30
0.0
 11
948.6334948327584
 21
2056.893623006678
 31
0.0
  0
LINE
  5
9B
330
87
100
AcDbEntity
  8
P-SANR-FIXT
100
AcDbLine
 10
741.9652627222202
 20
2056.893623006678
 30
0.0
 11
693.9228416172769
 21
2056.893623006678
 31
0.0
  0
LINE
  5
9C
330
87
100
AcDbEntity
  8
P-SANR-FIXT
100
AcDbLine
 10
735.9582521685878
 20
2079.312091594438
 30
0.0
 11
741.9652627222202
 21
2056.893623006678
 31
0.0
  0
LINE
  5
9D
330
87
100
AcDbEntity
  8
P-SANR-FIXT
100
AcDbLine
 10
887.4692369869475
 20
2118.062736644155
 30
0.0
 11
887.0075867427463
 21
2119.785638810841
 31
0.0
  0
LINE
  5
9E
330
87
100
AcDbEntity
  8
P-SANR-FIXT
100
AcDbLine
 10
948.637677799296
 20
2056.894295831807
 30
0.0
 11
918.4920580902636
 21
2087.039915540839
 31
0.0
  0
LINE
  5
9F
330
87
100
AcDbEntity
  8
P-SANR-FIXT
100
AcDbLine
 10
889.3068744639798
 20
2116.225099167123
 30
0.0
 11
887.4692369869469
 21
2118.062736644156
 31
0.0
  0
LINE
  5
A0
330
87
100
AcDbEntity
  8
P-SANR-FIXT
100
AcDbLine
 10
787.7572445099
 20
1885.936827174869
 30
0.0
 11
835.7887474547549
 21
1837.905324230014
 31
0.0
  0
LWPOLYLINE
  5
A1
330
87
100
AcDbEntity
  8
P-SANR-FIXT
100
AcDbPolyline
 90
       41
 70
   128
 43
0.0
 10
829.7064059214976
 20
2193.830063684908
 10
829.7452396797948
 20
2193.839641048562
 10
829.7844253676233
 20
2193.847657815208
 10
829.8239002962414
 20
2193.854101159731
 10
829.8636013141845
 20
2193.858960774152
 10
829.9034649082932
 20
2193.862228884126
 10
829.9434273053199
 20
2193.863900261374
 10
829.983424573955
 20
2193.863972232048
 10
830.0233927271008
 20
2193.862444681013
 10
830.0632678242379
 20
2193.859320052021
 10
830.1029860737179
 20
2193.854603343815
 10
830.1424839348136
 20
2193.848302102121
 10
830.1816982193738
 20
2193.840426407581
 10
830.2205661929075
 20
2193.830988859625
 10
830.2590256749496
 20
2193.82000455632
 10
830.2970151385322
 20
2193.807491070205
 10
830.3344738086178
 20
2193.793468420189
 10
830.3713417593252
 20
2193.777959039522
 10
830.4075600097977
 20
2193.760987739903
 10
830.4430706185609
 20
2193.742581671792
 10
830.4778167762162
 20
2193.722770280971
 10
830.511742896323
 20
2193.70158526144
 10
830.5447947043264
 20
2193.67906050471
 10
830.5769193243845
 20
2193.655232045587
 10
830.6080653639579
 20
2193.630138004523
 10
830.6381829960276
 20
2193.60381852663
 10
830.6672240388069
 20
2193.576315717458
 10
830.6951420328225
 20
2193.547673575635
 10
830.7218923152396
 20
2193.517937922479
 10
830.7474320913124
 20
2193.48715632869
 10
830.7717205028477
 20
2193.455378038252
 10
830.7947186935683
 20
2193.422653889651
 10
830.8163898712749
 20
2193.389036234545
 10
830.836699366706
 20
2193.35457885401
 10
830.8556146890019
 20
2193.319336872503
 10
830.8731055776814
 20
2193.283366669679
 10
830.889144051054
 20
2193.246725790187
 10
830.9037044509841
 20
2193.20947285162
 10
830.916763483937
 20
2193.171667450731
 10
830.9283002582464
 20
2193.133370068097
 10
830.9311507928892
 20
2193.122956903721
  0
LWPOLYLINE
  5
A2
330
87
100
AcDbEntity
  8
P-SANR-FIXT
100
AcDbPolyline
 90
       41
 70
   128
 43
0.0
 10
747.8532112084153
 20
2170.86229008322
 10
747.8436338447611
 20
2170.901123841517
 10
747.8356170781146
 20
2170.940309529346
 10
747.8291737335925
 20
2170.979784457964
 10
747.8243141191711
 20
2171.019485475907
 10
747.821046009197
 20
2171.059349070015
 10
747.819374631949
 20
2171.099311467042
 10
747.8193026612743
 20
2171.139308735678
 10
747.8208302123102
 20
2171.179276888823
 10
747.8239548413014
 20
2171.21915198596
 10
747.8286715495076
 20
2171.25887023544
 10
747.8349727912021
 20
2171.298368096536
 10
747.8428484857423
 20
2171.337582381096
 10
747.8522860336974
 20
2171.37645035463
 10
747.8632703370033
 20
2171.414909836672
 10
747.8757838231183
 20
2171.452899300254
 10
747.8898064731337
 20
2171.49035797034
 10
747.9053158538012
 20
2171.527225921048
 10
747.9222871534199
 20
2171.563444171519
 10
747.940693221531
 20
2171.598954780284
 10
747.9605046123517
 20
2171.633700937938
 10
747.9816896318831
 20
2171.667627058045
 10
748.004214388613
 20
2171.700678866049
 10
748.0280428477359
 20
2171.732803486106
 10
748.0531368888001
 20
2171.76394952568
 10
748.0794563666931
 20
2171.79406715775
 10
748.1069591758648
 20
2171.823108200529
 10
748.1356013176874
 20
2171.851026194544
 10
748.1653369708441
 20
2171.877776476962
 10
748.1961185646333
 20
2171.903316253034
 10
748.2278968550708
 20
2171.92760466457
 10
748.2606210036713
 20
2171.950602855291
 10
748.2942386587776
 20
2171.972274032997
 10
748.3286960393131
 20
2171.992583528429
 10
748.3639380208194
 20
2172.011498850724
 10
748.3999082236441
 20
2172.028989739404
 10
748.4365491031358
 20
2172.045028212776
 10
748.4738020417035
 20
2172.059588612706
 10
748.5116074425924
 20
2172.072647645659
 10
748.5499048252259
 20
2172.084184419968
 10
748.5603179896017
 20
2172.087034954612
  0
LWPOLYLINE
  5
A3
330
87
100
AcDbEntity
  8
P-SANR-FIXT
100
AcDbPolyline
 90
        3
 70
   128
 43
0.0
 10
748.5603179896017
 20
2172.087034954612
 10
748.5927720972139
 20
2172.095731006537
 10
748.6390022610927
 20
2172.108118341615
  0
LWPOLYLINE
  5
A4
330
87
100
AcDbEntity
  8
P-SANR-FIXT
100
AcDbPolyline
 90
        3
 70
   128
 43
0.0
 10
829.6294701833446
 20
2193.809448816001
 10
829.6969478464255
 20
2193.82752940133
 10
829.7064059214976
 20
2193.830063684908
  0
LWPOLYLINE
  5
A5
330
87
100
AcDbEntity
  8
P-SANR-FIXT
100
AcDbPolyline
 90
       80
 70
   128
 43
0.0
 10
829.7064059214976
 20
2193.830063684908
 10
829.6739518138856
 20
2193.821367632982
 10
829.576641410698
 20
2193.795293389033
 10
829.4146303878218
 20
2193.751882666288
 10
829.1881779283327
 20
2193.691204912644
 10
828.8976463078588
 20
2193.613357199563
 10
828.543500315016
 20
2193.518464066777
 10
828.126306507846
 20
2193.406677323058
 10
827.6467323074438
 20
2193.27817580335
 10
827.1055449302258
 20
2193.133165082671
 10
826.5036101605486
 20
2192.97187714724
 10
825.8418909656379
 20
2192.794570023347
 10
825.1214459550464
 20
2192.601527364568
 10
824.3434276871038
 20
2192.393057997976
 10
823.5090808250712
 20
2192.169495430087
 10
822.6197401459428
 20
2191.931197313319
 10
821.6768284050896
 20
2191.678544873823
 10
820.6818540601528
 20
2191.411942301607
 10
819.6364088578349
 20
2191.131816103915
 10
818.5421652874428
 20
2190.838614422906
 10
817.4008739052633
 20
2190.532806318722
 10
816.2143605340451
 20
2190.214881019095
 10
814.984523342073
 20
2189.885347136685
 10
813.7133298065023
 20
2189.544731855405
 10
812.4028135658173
 20
2189.193580087046
 10
811.0550711664409
 20
2188.832453599528
 10
809.6722587087089
 20
2188.461930118194
 10
808.2565883975695
 20
2188.082602401576
 10
806.8103250035266
 20
2187.6950772931
 10
805.3357822394914
 20
2187.299974750271
 10
803.835319059334
 20
2186.897926852875
 10
802.3113358840607
 20
2186.489576791782
 10
800.766270761653
 20
2186.07557783998
 10
799.2025954667106
 20
2185.656592307475
 10
797.6228115461386
 20
2185.233290481741
 10
796.0294463172078
 20
2184.806349555402
 10
794.4250488243847
 20
2184.376452542862
 10
792.8121857614041
 20
2183.944287187634
 10
791.1934373651082
 20
2183.510544862098
 10
789.5713932876163
 20
2183.075919461446
 10
787.948648453435
 20
2182.641106293605
 10
786.3277989081313
 20
2182.206800966889
 10
784.7114376652156
 20
2181.773698277173
 10
783.1021505578706
 20
2181.34249109637
 10
781.5025121021725
 20
2180.913869263983
 10
779.9150813784117
 20
2180.488518483512
 10
778.3423979371128
 20
2180.067119225466
 10
776.7869777362936
 20
2179.650345638765
 10
775.2513091164707
 20
2179.238864472242
 10
773.7378488198435
 20
2178.833334007984
 10
772.2490180600324
 20
2178.434403008226
 10
770.7871986486529
 20
2178.042709677467
 10
769.3547291849251
 20
2177.658880641478
 10
767.9539013144135
 20
2177.28352994484
 10
766.5869560628839
 20
2176.917258068595
 10
765.2560802511392
 20
2176.560650969612
 10
763.963402996573
 20
2176.214279143177
 10
762.7109923070362
 20
2175.878696710324
 10
761.5008517724655
 20
2175.554440531357
 10
760.3349173595667
 20
2175.242029346993
 10
759.2150543146809
 20
2174.941962948483
 10
758.1430541797886
 20
2174.654721378052
 10
757.1206319264245
 20
2174.38076416094
 10
756.1494232120887
 20
2174.120529570252
 10
755.2309817635443
 20
2173.874433925819
 10
754.366776891185
 20
2173.642870928175
 10
753.5581911384529
 20
2173.426211028719
 10
752.806518070063
 20
2173.224800837072
 10
752.1129602025763
 20
2173.038962566574
 10
751.47862708063
 20
2172.868993518817
 10
750.9045335019019
 20
2172.715165608017
 10
750.3915978936511
 20
2172.577724926017
 10
749.9406408434306
 20
2172.456891348589
 10
749.5523837863213
 20
2172.352858183681
 10
749.2274478507913
 20
2172.265791862164
 10
748.9663528650212
 20
2172.195831671579
 10
748.7695165252911
 20
2172.143089533307
 10
748.6372537277548
 20
2172.107649823519
 10
748.5697760646741
 20
2172.089569238189
 10
748.5603179896017
 20
2172.087034954612
  0
LINE
  5
A6
330
87
100
AcDbEntity
  8
P-SANR-FIXT
100
AcDbLine
 10
747.8532112084153
 20
2170.86229008322
 30
0.0
 11
748.3995187547144
 21
2168.823442563873
 31
0.0
  0
LINE
  5
A7
330
87
100
AcDbEntity
  8
P-SANR-FIXT
100
AcDbLine
 10
831.4774583391885
 20
2191.084109384374
 30
0.0
 11
830.9311507928891
 21
2193.122956903721
 31
0.0
  0
LWPOLYLINE
  5
A8
330
87
100
AcDbEntity
  8
P-SANR-FIXT
100
AcDbPolyline
 90
        5
 70
   128
 43
0.0
 10
741.8038163369829
 20
2112.301169690169
 10
738.3657611571067
 20
2126.423502573233
 10
737.0186206585381
 20
2134.981940515003
 10
736.6216344768728
 20
2141.871331325387
 10
736.7971553047131
 20
2143.83236155262
  0
LWPOLYLINE
  5
A9
330
87
100
AcDbEntity
  8
P-SANR-FIXT
100
AcDbPolyline
 90
        3
 70
   128
 43
0.0
 10
737.1009929728066
 20
2147.227029060941
 10
737.2202951689712
 20
2148.559949009717
 10
737.6674477366964
 20
2149.695740287516
  0
LWPOLYLINE
  5
AA
330
87
100
AcDbEntity
  8
P-SANR-FIXT
100
AcDbPolyline
 90
        5
 70
   128
 43
0.0
 10
739.3180066479678
 20
2153.88824761103
 10
739.6799233479035
 20
2154.807535256336
 10
743.5072330098566
 20
2160.441008132308
 10
745.8448410950818
 20
2165.456815691152
 10
746.0822758593021
 20
2165.769713975884
  0
LWPOLYLINE
  5
AB
330
87
100
AcDbEntity
  8
P-SANR-FIXT
100
AcDbPolyline
 90
        5
 70
   128
 43
0.0
 10
835.0033752545513
 20
2189.601378558537
 10
835.3731875272716
 20
2189.445863817351
 10
839.9055192925906
 20
2186.270851093511
 10
846.0368031259777
 20
2183.305775302364
 10
847.0327223808887
 20
2182.513278531629
  0
LWPOLYLINE
  5
AC
330
87
100
AcDbEntity
  8
P-SANR-FIXT
100
AcDbPolyline
 90
        3
 70
   128
 43
0.0
 10
850.4285318625644
 20
2179.811083514325
 10
851.2906967361063
 20
2179.125020989924
 10
852.8411196312509
 20
2176.920186464929
  0
LWPOLYLINE
  5
AD
330
87
100
AcDbEntity
  8
P-SANR-FIXT
100
AcDbPolyline
 90
        5
 70
   128
 43
0.0
 10
852.9901421106682
 20
2176.708263699438
 10
855.1534609458753
 20
2173.631838505142
 10
858.2543562327941
 20
2167.466957955917
 10
861.3669173094516
 20
2159.381563032348
 10
865.4506406255984
 20
2145.432236404976
  0
LWPOLYLINE
  5
AE
330
87
100
AcDbEntity
  8
P-SANR-FIXT
100
AcDbPolyline
 90
        9
 70
   128
 43
0.0
 10
865.4506406255984
 20
2145.432236404976
 10
861.3669173094516
 20
2159.381563032348
 10
858.2543562327941
 20
2167.466957955918
 10
855.1534609458753
 20
2173.631838505142
 10
851.2906967361063
 20
2179.125020989924
 10
846.0368031259777
 20
2183.305775302364
 10
839.9055192925906
 20
2186.270851093511
 10
835.3731875272716
 20
2189.445863817351
 10
831.4774583391885
 20
2191.084109384374
  0
LWPOLYLINE
  5
AF
330
87
100
AcDbEntity
  8
P-SANR-FIXT
100
AcDbPolyline
 90
        9
 70
   128
 43
0.0
 10
748.3995187547143
 20
2168.823442563873
 10
745.8448410950818
 20
2165.456815691152
 10
743.5072330098564
 20
2160.441008132308
 10
739.6799233479035
 20
2154.807535256336
 10
737.2202951689712
 20
2148.559949009717
 10
736.6216344768728
 20
2141.871331325387
 10
737.0186206585381
 20
2134.981940515003
 10
738.3657611571067
 20
2126.423502573233
 10
741.8038163369828
 20
2112.301169690169
  0
LINE
  5
B0
330
87
100
AcDbEntity
  8
P-SANR-FIXT
100
AcDbLine
 10
950.9814963749306
 20
2048.893623006677
 30
0.0
 11
982.6600897140101
 21
2017.215029667598
 31
0.0
  0
SPLINE
  5
B1
330
87
100
AcDbEntity
  8
P-SANR-FIXT
100
AcDbSpline
210
0.0
220
0.0
230
1.0
 70
     8
 71
     3
 72
     8
 73
     4
 74
     0
 42
0.000000001
 43
0.0000000001
 40
0.9453381783346143
 40
0.9453381783346143
 40
0.9453381783346143
 40
0.9453381783346143
 40
1.0
 40
1.0
 40
1.0
 40
1.0
 10
744.383406927371
 20
2030.803052908215
 30
0.0
 10
744.4971208489566
 20
2030.917905976673
 30
0.0
 10
744.6146436259233
 20
2031.029837090857
 30
0.0
 10
744.7359116747628
 20
2031.138777808601
 30
0.0
  0
SPLINE
  5
B2
330
87
100
AcDbEntity
  8
P-SANR-FIXT
100
AcDbSpline
210
0.0
220
0.0
230
1.0
 70
     8
 71
     3
 72
    10
 73
     6
 74
     0
 42
0.000000001
 43
0.0000000001
 40
0.0
 40
0.0
 40
0.0
 40
0.0
 40
0.4
 40
0.7
 40
1.0
 40
1.0
 40
1.0
 40
1.0
 10
744.7359116747628
 20
2031.138777808601
 30
0.0
 10
745.6252169373517
 20
2031.938140611039
 30
0.0
 10
746.837674144386
 20
2033.630296685411
 30
0.0
 10
747.5380461139313
 20
2036.545240837322
 30
0.0
 10
747.369200655688
 20
2038.302519762832
 30
0.0
 10
747.1397395078938
 20
2039.167652737789
 30
0.0
  0
LINE
  5
B3
330
87
100
AcDbEntity
  8
P-SANR-FIXT
100
AcDbLine
 10
747.1397395078938
 20
2039.167652737789
 30
0.0
 11
744.5336736287361
 21
2048.893623006677
 31
0.0
  0
LINE
  5
B4
330
87
100
AcDbEntity
  8
P-SANR-FIXT
100
AcDbLine
 10
785.4134259342623
 20
1893.937499999997
 30
0.0
 11
748.2815930785842
 21
1931.069332855675
 31
0.0
  0
SPLINE
  5
B5
330
87
100
AcDbEntity
  8
P-SANR-FIXT
100
AcDbSpline
210
0.0
220
0.0
230
1.0
 70
     8
 71
     3
 72
     9
 73
     5
 74
     0
 42
0.000000001
 43
0.0000000001
 40
0.482290031315899
 40
0.482290031315899
 40
0.482290031315899
 40
0.482290031315899
 40
0.5
 40
0.5002036994221823
 40
0.5002036994221823
 40
0.5002036994221823
 40
0.5002036994221823
 10
787.7623615376683
 20
1885.951567830725
 30
0.0
 10
787.7616965432285
 20
1885.942306314323
 30
0.0
 10
787.7614393745083
 20
1885.937553677818
 30
0.0
 10
787.7614275509905
 20
1885.937500002391
 30
0.0
 10
787.7614274485287
 20
1885.937499999587
 30
0.0
  0
SPLINE
  5
B6
330
87
100
AcDbEntity
  8
P-SANR-FIXT
100
AcDbSpline
210
0.0
220
0.0
230
1.0
 70
     8
 71
     3
 72
    31
 73
    27
 74
     0
 42
0.000000001
 43
0.0000000001
 40
0.5002045062192791
 40
0.5002045062192791
 40
0.5002045062192791
 40
0.5002045062192791
 40
0.5555555555555556
 40
0.5833333333333334
 40
0.6111111111111112
 40
0.6388888888888889
 40
0.6527777777777777
 40
0.6666666666666666
 40
0.6805555555555556
 40
0.6944444444444445
 40
0.7222222222222223
 40
0.75
 40
0.7638888888888889
 40
0.7708333333333333
 40
0.7777777777777778
 40
0.7847222222222224
 40
0.7916666666666668
 40
0.8055555555555555
 40
0.8333333333333332
 40
0.861111111111111
 40
0.875
 40
0.8888888888888889
 40
0.9027777777777776
 40
0.9166666666666666
 40
0.9444444444444444
 40
1.0
 40
1.0
 40
1.0
 40
1.0
 10
787.7614274473127
 20
1885.937499999582
 30
0.0
 10
787.7613996743137
 20
1885.93750054531
 30
0.0
 10
787.7649049912855
 20
1886.004873229737
 30
0.0
 10
787.7924740062864
 20
1886.227080719747
 30
0.0
 10
787.8255417708604
 20
1886.458935946287
 30
0.0
 10
787.8514149479973
 20
1886.704620128737
 30
0.0
 10
787.8668657638347
 20
1886.931470605327
 30
0.0
 10
787.8725269335925
 20
1887.116293039225
 30
0.0
 10
787.8785480965515
 20
1887.315888075813
 30
0.0
 10
787.8929847570822
 20
1887.601551215066
 30
0.0
 10
787.9104124245726
 20
1887.993289205075
 30
0.0
 10
787.9071568600721
 20
1888.425669084074
 30
0.0
 10
787.882589593034
 20
1888.745926373671
 30
0.0
 10
787.8608033237825
 20
1888.933450251234
 30
0.0
 10
787.8396613790438
 20
1889.075976386477
 30
0.0
 10
787.815485236729
 20
1889.221158307011
 30
0.0
 10
787.781761873441
 20
1889.41916762373
 30
0.0
 10
787.716122063551
 20
1889.775555306144
 30
0.0
 10
787.59948048289
 20
1890.307433241878
 30
0.0
 10
787.4387966217114
 20
1890.851047909232
 30
0.0
 10
787.27630307938
 20
1891.281102942543
 30
0.0
 10
787.1346658368951
 20
1891.597178012069
 30
0.0
 10
786.9746096932231
 20
1891.907239150715
 30
0.0
 10
786.7410640918805
 20
1892.316430268768
 30
0.0
 10
786.2766617002293
 20
1893.015971363627
 30
0.0
 10
785.7840051507529
 20
1893.580851050215
 30
0.0
 10
785.4134259342623
 20
1893.937499999997
 30
0.0
  0
SPLINE
  5
B7
330
87
100
AcDbEntity
  8
P-SANR-FIXT
100
AcDbSpline
210
0.0
220
0.0
230
1.0
 70
     8
 71
     3
 72
     9
 73
     5
 74
     0
 42
0.000000001
 43
0.0000000001
 40
0.4822900313158478
 40
0.4822900313158478
 40
0.4822900313158478
 40
0.4822900313158478
 40
0.5
 40
0.5002036994221936
 40
0.5002036994221936
 40
0.5002036994221936
 40
0.5002036994221936
 10
948.6325607715244
 20
2056.87955517595
 30
0.0
 10
948.6332257659643
 20
2056.888816692351
 30
0.0
 10
948.6334829346843
 20
2056.893569328856
 30
0.0
 10
948.6334947582022
 20
2056.893623004283
 30
0.0
 10
948.6334948606641
 20
2056.893623007087
 30
0.0
  0
SPLINE
  5
B8
330
87
100
AcDbEntity
  8
P-SANR-FIXT
100
AcDbSpline
210
0.0
220
0.0
230
1.0
 70
     8
 71
     3
 72
    31
 73
    27
 74
     0
 42
0.000000001
 43
0.0000000001
 40
0.5002045062192853
 40
0.5002045062192853
 40
0.5002045062192853
 40
0.5002045062192853
 40
0.5555555555555556
 40
0.5833333333333334
 40
0.6111111111111112
 40
0.6388888888888889
 40
0.6527777777777777
 40
0.6666666666666666
 40
0.6805555555555556
 40
0.6944444444444445
 40
0.7222222222222223
 40
0.75
 40
0.7638888888888889
 40
0.7708333333333333
 40
0.7777777777777778
 40
0.7847222222222224
 40
0.7916666666666668
 40
0.8055555555555555
 40
0.8333333333333332
 40
0.861111111111111
 40
0.875
 40
0.8888888888888889
 40
0.9027777777777776
 40
0.9166666666666666
 40
0.9444444444444444
 40
1.0
 40
1.0
 40
1.0
 40
1.0
 10
948.63349486188
 20
2056.893623007092
 30
0.0
 10
948.6335226348792
 20
2056.893622461364
 30
0.0
 10
948.6300173179074
 20
2056.826249776938
 30
0.0
 10
948.6024483029066
 20
2056.604042286926
 30
0.0
 10
948.5693805383325
 20
2056.372187060387
 30
0.0
 10
948.5435073611956
 20
2056.126502877937
 30
0.0
 10
948.5280565453582
 20
2055.899652401347
 30
0.0
 10
948.5223953756003
 20
2055.714829967449
 30
0.0
 10
948.5163742126415
 20
2055.515234930862
 30
0.0
 10
948.5019375521108
 20
2055.229571791609
 30
0.0
 10
948.4845098846202
 20
2054.8378338016
 30
0.0
 10
948.4877654491208
 20
2054.4054539226
 30
0.0
 10
948.5123327161591
 20
2054.085196633003
 30
0.0
 10
948.5341189854104
 20
2053.897672755441
 30
0.0
 10
948.5552609301491
 20
2053.755146620197
 30
0.0
 10
948.5794370724638
 20
2053.609964699664
 30
0.0
 10
948.613160435752
 20
2053.411955382944
 30
0.0
 10
948.6788002456419
 20
2053.055567700531
 30
0.0
 10
948.7954418263029
 20
2052.523689764797
 30
0.0
 10
948.9561256874816
 20
2051.980075097442
 30
0.0
 10
949.1186192298131
 20
2051.550020064132
 30
0.0
 10
949.2602564722981
 20
2051.233944994606
 30
0.0
 10
949.42031261597
 20
2050.92388385596
 30
0.0
 10
949.6538582173126
 20
2050.514692737907
 30
0.0
 10
950.1182606089638
 20
2049.815151643048
 30
0.0
 10
950.61091715844
 20
2049.250271956459
 30
0.0
 10
950.9814963749306
 20
2048.893623006677
 30
0.0
  0
SPLINE
  5
B9
330
87
100
AcDbEntity
  8
P-SANR-FIXT
100
AcDbSpline
210
0.0
220
0.0
230
1.0
 70
     8
 71
     3
 72
    14
 73
    10
 74
     0
 42
0.000000001
 43
0.0000000001
 40
0.0
 40
0.0
 40
0.0
 40
0.0
 40
0.1428571428571428
 40
0.2857142857142857
 40
0.4285714285714286
 40
0.5714285714285714
 40
0.7142857142857144
 40
0.8571428571428572
 40
1.0
 40
1.0
 40
1.0
 40
1.0
 10
744.5336736287361
 20
2048.893623006677
 30
0.0
 10
744.3719558280569
 20
2049.485132150983
 30
0.0
 10
744.0457419554567
 20
2050.667113946849
 30
0.0
 10
743.5342989838764
 20
2052.347101343499
 30
0.0
 10
743.0420958964812
 20
2053.864050568777
 30
0.0
 10
742.6007839155659
 20
2055.147657425925
 30
0.0
 10
742.2482332973337
 20
2056.130823249236
 30
0.0
 10
742.0177320635245
 20
2056.751878472758
 30
0.0
 10
741.9668153970064
 20
2056.893623006676
 30
0.0
 10
741.9652627222188
 20
2056.893623006677
 30
0.0
  0
SPLINE
  5
BA
330
87
100
AcDbEntity
  8
P-SANR-FIXT
100
AcDbSpline
210
0.0
220
0.0
230
1.0
 70
     8
 71
     3
 72
    15
 73
    11
 74
     0
 42
0.000000001
 43
0.0000000001
 40
-0.2862149976159482
 40
-0.2862149976159482
 40
-0.2862149976159482
 40
-0.2862149976159482
 40
-0.25
 40
-0.2083333333333333
 40
-0.1875
 40
-0.1666666666666666
 40
-0.1458333333333333
 40
-0.125
 40
-0.0833333333333333
 40
0.0
 40
0.0
 40
0.0
 40
0.0
 10
888.088948648952
 20
2114.972231538864
 30
0.0
 10
888.0417814793885
 20
2115.190830833163
 30
0.0
 10
887.9405657086007
 20
2115.650216000022
 30
0.0
 10
887.825873558309
 20
2116.18481601353
 30
0.0
 10
887.7480104416386
 20
2116.588522772524
 30
0.0
 10
887.702794425966
 20
2116.862208200933
 30
0.0
 10
887.6673406702144
 20
2117.107743150977
 30
0.0
 10
887.6241019703186
 20
2117.403004137054
 30
0.0
 10
887.5601940165779
 20
2117.827332868417
 30
0.0
 10
887.5109941981447
 20
2118.020979432955
 30
0.0
 10
887.469236986946
 20
2118.062736644154
 30
0.0
  0
LINE
  5
BB
330
87
100
AcDbEntity
  8
P-SANR-FIXT
100
AcDbLine
 10
897.1724798995362
 20
2079.368804363957
 30
0.0
 11
895.901083506396
 21
2084.113720299717
 31
0.0
  0
SPLINE
  5
BC
330
87
100
AcDbEntity
  8
P-SANR-FIXT
100
AcDbSpline
210
0.0
220
0.0
230
1.0
 70
     8
 71
     3
 72
    10
 73
     6
 74
     0
 42
0.000000001
 43
0.0000000001
 40
0.0
 40
0.0
 40
0.0
 40
0.0
 40
0.4
 40
0.7
 40
1.0
 40
1.0
 40
1.0
 40
1.0
 10
897.1724798995362
 20
2079.368804363957
 30
0.0
 10
897.4846788229307
 20
2078.215729610811
 30
0.0
 10
898.4546423596398
 20
2076.372303643363
 30
0.0
 10
900.7526964342325
 20
2074.443494990404
 30
0.0
 10
902.4023644064627
 20
2073.805543024628
 30
0.0
 10
903.2807128428984
 20
2073.620729245755
 30
0.0
  0
SPLINE
  5
BD
330
87
100
AcDbEntity
  8
P-SANR-FIXT
100
AcDbSpline
210
0.0
220
0.0
230
1.0
 70
     8
 71
     3
 72
    10
 73
     6
 74
     0
 42
0.000000001
 43
0.0000000001
 40
0.0
 40
0.0
 40
0.0
 40
0.0
 40
0.4
 40
0.7
 40
1.0
 40
1.0
 40
1.0
 40
1.0
 10
903.2807128428984
 20
2073.620729245755
 30
0.0
 10
904.4490186820096
 20
2073.375259986799
 30
0.0
 10
906.3469716552635
 20
2072.519275958943
 30
0.0
 10
908.4160526984145
 20
2070.346935180469
 30
0.0
 10
909.1507606232402
 20
2068.738241435875
 30
0.0
 10
909.3855730449954
 20
2067.871750404256
 30
0.0
  0
LINE
  5
BE
330
87
100
AcDbEntity
  8
P-SANR-FIXT
100
AcDbLine
 10
923.0446796361144
 20
2016.895270620199
 30
0.0
 11
909.3855730449954
 21
2067.871750404256
 31
0.0
  0
SPLINE
  5
BF
330
87
100
AcDbEntity
  8
P-SANR-FIXT
100
AcDbSpline
210
0.0
220
0.0
230
1.0
 70
     8
 71
     3
 72
    11
 73
     7
 74
     0
 42
0.000000001
 43
0.0000000001
 40
0.0
 40
0.0
 40
0.0
 40
0.0
 40
0.3333333333333333
 40
0.5
 40
0.6666666666666666
 40
1.0
 40
1.0
 40
1.0
 40
1.0
 10
923.0446796361142
 20
2016.895270620199
 30
0.0
 10
923.3389951267723
 20
2015.785485632671
 30
0.0
 10
923.4194218182869
 20
2014.073780488156
 30
0.0
 10
922.81156068046
 20
2011.880288438435
 30
0.0
 10
921.7538382388966
 20
2009.865434486157
 30
0.0
 10
920.528128176347
 20
2008.669489740459
 30
0.0
 10
919.5589783940718
 20
2008.055810670648
 30
0.0
  0
SPLINE
  5
C0
330
87
100
AcDbEntity
  8
P-SANR-FIXT
100
AcDbSpline
210
0.0
220
0.0
230
1.0
 70
     8
 71
     3
 72
    10
 73
     6
 74
     0
 42
0.000000001
 43
0.0000000001
 40
0.0
 40
0.0
 40
0.0
 40
0.0
 40
0.4
 40
0.7
 40
1.0
 40
1.0
 40
1.0
 40
1.0
 10
919.5589783940718
 20
2008.055810670648
 30
0.0
 10
918.5403708854579
 20
2007.410732963407
 30
0.0
 10
917.0485313541044
 20
2005.928610665378
 30
0.0
 10
915.8658453316096
 20
2003.13820479584
 30
0.0
 10
915.7487919273945
 20
2001.355926829208
 30
0.0
 10
915.8390928505701
 20
2000.453552930796
 30
0.0
  0
SPLINE
  5
C1
330
87
100
AcDbEntity
  8
P-SANR-FIXT
100
AcDbSpline
210
0.0
220
0.0
230
1.0
 70
     8
 71
     3
 72
     8
 73
     4
 74
     0
 42
0.000000001
 43
0.0000000001
 40
0.0
 40
0.0
 40
0.0
 40
0.0
 40
0.172802112502776
 40
0.172802112502776
 40
0.172802112502776
 40
0.172802112502776
 10
915.8390928505701
 20
2000.453552930796
 30
0.0
 10
916.4368705926845
 20
1994.654999166379
 30
0.0
 10
916.8294850387502
 20
1988.858688331371
 30
0.0
 10
917.0170919937959
 20
1983.058216077303
 30
0.0
  0
LINE
  5
C2
330
87
100
AcDbEntity
  8
P-SANR-FIXT
100
AcDbLine
 10
865.450640625597
 20
2145.432236404975
 30
0.0
 11
741.8038163369815
 21
2112.301169690167
 31
0.0
  0
LINE
  5
C3
330
87
100
AcDbEntity
  8
P-SANR-FIXT
100
AcDbLine
 10
748.399518754713
 20
2168.823442563871
 30
0.0
 11
831.4774583391871
 21
2191.084109384373
 31
0.0
  0
LINE
  5
C4
330
87
100
AcDbEntity
  8
P-SANR-FIXT
100
AcDbLine
 10
910.5238926395898
 20
1572.259832375239
 30
0.0
 11
913.2874495286028
 21
1561.587423521447
 31
0.0
  0
LINE
  5
C5
330
87
100
AcDbEntity
  8
P-SANR-FIXT
100
AcDbLine
 10
997.388254501666
 20
1584.122166296786
 30
0.0
 11
994.4453605454583
 21
1594.746521928251
 31
0.0
  0
LINE
  5
C6
330
87
100
AcDbEntity
  8
P-SANR-FIXT
100
AcDbLine
 10
915.419510380493
 20
1562.158707504925
 30
0.0
 11
920.6833982759484
 21
1547.696294373621
 31
0.0
  0
LINE
  5
C7
330
87
100
AcDbEntity
  8
P-SANR-FIXT
100
AcDbLine
 10
997.9287395752896
 20
1568.394121193846
 30
0.0
 11
995.2561936497756
 21
1583.550882313308
 31
0.0
  0
LWPOLYLINE
  5
C8
330
87
100
AcDbEntity
  8
P-SANR-FIXT
100
AcDbPolyline
 90
       39
 70
   128
 43
0.0
 10
997.9287395752896
 20
1568.394121193846
 10
997.9595212445186
 20
1568.196517662019
 10
997.9823762580247
 20
1567.997841253483
 10
997.9972680526616
 20
1567.79840980811
 10
998.004172804735
 20
1567.598542373669
 10
998.0030794681139
 20
1567.398558695419
 10
997.9939897919045
 20
1567.198778704586
 10
997.9769183176493
 20
1566.999522006536
 10
997.9518923560652
 20
1566.80110736948
 10
997.9189519433525
 20
1566.603852214512
 10
997.8781497771443
 20
1566.408072107801
 10
997.8295511322031
 20
1566.214080255753
 10
997.7732337559929
 20
1566.022187003949
 10
997.7092877443022
 20
1565.832699340657
 10
997.637815397109
 20
1565.645920405716
 10
997.5589310549214
 20
1565.462149005577
 10
997.4727609158598
 20
1565.28167913528
 10
997.3794428337647
 20
1565.104799508117
 10
997.2791260976602
 20
1564.931793093761
 10
997.1719711929246
 20
1564.762936665568
 10
997.0581495445472
 20
1564.598500357802
 10
996.9378432428841
 20
1564.438747233478
 10
996.8112447523548
 20
1564.283932863515
 10
996.6785566035373
 20
1564.134304917882
 10
996.5399910691646
 20
1563.990102769371
 10
996.3957698245328
 20
1563.851557110659
 10
996.2461235928675
 20
1563.718889585245
 10
996.0912917762167
 20
1563.592312432869
 10
995.9315220724576
 20
1563.472028149973
 10
995.7670700790345
 20
1563.358229165749
 10
995.5981988840552
 20
1563.251097534298
 10
995.4251786454078
 20
1563.150804643376
 10
995.2482861585652
 20
1563.057510940214
 10
995.0678044137715
 20
1562.971365674834
 10
994.8840221433171
 20
1562.892506661286
 10
994.6972333596306
 20
1562.821060057168
 10
994.5077368849192
 20
1562.757140161807
 10
994.315835873119
 20
1562.700849233397
 10
994.2987960357411
 20
1562.696251174066
  0
LWPOLYLINE
  5
C9
330
87
100
AcDbEntity
  8
P-SANR-FIXT
100
AcDbPolyline
 90
       39
 70
   128
 43
0.0
 10
926.6759566053904
 20
1544.576765958804
 10
926.4817878139046
 20
1544.528879140534
 10
926.285859374763
 20
1544.488795307302
 10
926.0884847316717
 20
1544.456578584691
 10
925.8899796419562
 20
1544.432280512584
 10
925.6906616714141
 20
1544.415939962714
 10
925.4908496862794
 20
1544.407583076474
 10
925.290863343104
 20
1544.4072232231
 10
925.0910225773758
 20
1544.41486097828
 10
924.8916470916888
 20
1544.430484123235
 10
924.6930558442899
 20
1544.454067664267
 10
924.4955665388104
 20
1544.485573872739
 10
924.2994951160106
 20
1544.524952345441
 10
924.1051552483401
 20
1544.572140085216
 10
923.9128578381309
 20
1544.627061601746
 10
923.7229105202178
 20
1544.68962903232
 10
923.5356171697896
 20
1544.759742282398
 10
923.351277416253
 20
1544.837289185735
 10
923.1701861638901
 20
1544.922145683829
 10
922.992633120074
 20
1545.014176024384
 10
922.8189023317986
 20
1545.113232978487
 10
922.6492717312645
 20
1545.219158076145
 10
922.4840126912472
 20
1545.331781859794
 10
922.3233895909567
 20
1545.450924155408
 10
922.1676593930894
 20
1545.576394360729
 10
922.017071232741
 20
1545.707991750194
 10
921.8718660188445
 20
1545.845505796053
 10
921.7322760487666
 20
1545.988716505166
 10
921.5985246366818
 20
1546.13739477095
 10
921.4708257563172
 20
1546.291302739895
 10
921.3493836986407
 20
1546.450194192082
 10
921.2343927450378
 20
1546.613814935085
 10
921.1260368565048
 20
1546.781903210617
 10
921.0244893793483
 20
1546.954190113295
 10
920.9299127678697
 20
1547.130400020826
 10
920.8424583244719
 20
1547.310251034949
 10
920.7622659576083
 20
1547.493455432407
 10
920.6894639579592
 20
1547.679720125246
 10
920.6833982759484
 20
1547.696294373621
  0
LWPOLYLINE
  5
CA
330
87
100
AcDbEntity
  8
P-SANR-FIXT
100
AcDbPolyline
 90
        4
 70
   128
 43
0.0
 10
994.2987960357411
 20
1562.696251174066
 10
994.2717505063283
 20
1562.689004346301
 10
994.1906571851667
 20
1562.667275456384
 10
994.1703586860192
 20
1562.66183648993
  0
LWPOLYLINE
  5
CB
330
87
100
AcDbEntity
  8
P-SANR-FIXT
100
AcDbPolyline
 90
        4
 70
   128
 43
0.0
 10
926.8115051792523
 20
1544.613086089706
 10
926.7400707629573
 20
1544.593945295548
 10
926.6838384627693
 20
1544.578877896124
 10
926.6759566053904
 20
1544.576765958804
  0
LWPOLYLINE
  5
CC
330
87
100
AcDbEntity
  8
P-SANR-FIXT
100
AcDbPolyline
 90
       80
 70
   128
 43
0.0
 10
926.6759566053904
 20
1544.576765958804
 10
926.7030021348036
 20
1544.584012786569
 10
926.7840954559652
 20
1544.605741676486
 10
926.9191068368602
 20
1544.641917866966
 10
927.1078202880802
 20
1544.692483483821
 10
927.3499339083601
 20
1544.757357632852
 10
927.6450603675554
 20
1544.836436529258
 10
927.9927275262886
 20
1544.929593663676
 10
928.3923791912705
 20
1545.036680004561
 10
928.8433760050919
 20
1545.157524236614
 10
929.3449964690578
 20
1545.29193303484
 10
929.8964380974329
 20
1545.439691373836
 10
930.4968187012461
 20
1545.600562871779
 10
931.1451777996058
 20
1545.77429016859
 10
931.8404781562639
 20
1545.960595337654
 10
932.5816074389724
 20
1546.159180330443
 10
933.3673799989783
 20
1546.36972745333
 10
934.1965387678083
 20
1546.591899875836
 10
935.0677572683096
 20
1546.825342169476
 10
935.9796417367318
 20
1547.06968087638
 10
936.9307333524503
 20
1547.32452510674
 10
937.9195105717686
 20
1547.589467164151
 10
938.9443915620635
 20
1547.864083197838
 10
940.0037367323806
 20
1548.147933880731
 10
941.0958513564285
 20
1548.440565112287
 10
942.2189882837811
 20
1548.74150874496
 10
943.3713507349443
 20
1549.050283333138
 10
944.5510951758206
 20
1549.366394903345
 10
945.7563342669699
 20
1549.689337744505
 10
946.9851398829499
 20
1550.018595216962
 10
948.2355461969065
 20
1550.353640578997
 10
949.505552825477
 20
1550.693937829505
 10
950.7931280289753
 20
1551.038942565476
 10
952.0962119617443
 20
1551.388102852932
 10
953.4127199674678
 20
1551.740860109895
 10
954.7405459141767
 20
1552.096650000005
 10
956.0775655636106
 20
1552.454903335335
 10
957.4216399695464
 20
1552.815046986973
 10
958.7706188996548
 20
1553.176504801902
 10
960.1223442754147
 20
1553.538698524725
 10
961.4746536245775
 20
1553.901048722751
 10
962.8253835406619
 20
1554.262975712958
 10
964.1723731439423
 20
1554.62390048937
 10
965.5134675383958
 20
1554.983245649338
 10
966.8465212590765
 20
1555.340436317262
 10
968.169401704401
 20
1555.694901064269
 10
969.4799925478561
 20
1556.046072822381
 10
970.7761971236697
 20
1556.393389791695
 10
972.0559417810299
 20
1556.736296339153
 10
973.3171792014823
 20
1557.074243887427
 10
974.5578916742038
 20
1557.406691792532
 10
975.7760943239096
 20
1557.733108208738
 10
976.9698382862289
 20
1558.052970939411
 10
978.1372138254747
 20
1558.365768272416
 10
979.2763533898101
 20
1558.670999798746
 10
980.3854345989361
 20
1558.968177213072
 10
981.4626831595095
 20
1559.256825094925
 10
982.5063757036341
 20
1559.53648166927
 10
983.5148425458816
 20
1559.806699545243
 10
984.4864703544329
 20
1560.067046431888
 10
985.4197047320637
 20
1560.317105829723
 10
986.3130527028491
 20
1560.556477697055
 10
987.1650851006066
 20
1560.78477908996
 10
987.9744388552571
 20
1561.001644774909
 10
988.7398191734463
 20
1561.206727813071
 10
989.4600016099369
 20
1561.399700115331
 10
990.1338340264619
 20
1561.580252967173
 10
990.7602384348976
 20
1561.748097522549
 10
991.3382127218165
 20
1561.902965265975
 10
991.8668322516543
 20
1562.044608442098
 10
992.3452513459292
 20
1562.172800452053
 10
992.7727046361477
 20
1562.287336215969
 10
993.1485082882304
 20
1562.388032501057
 10
993.4720610965017
 20
1562.474728214742
 10
993.742845445489
 20
1562.547284662376
 10
993.9604281379981
 20
1562.605585769121
 10
994.124461088136
 20
1562.649538265643
 10
994.2346818781748
 20
1562.679071837323
 10
994.2909141783623
 20
1562.694139236747
 10
994.2987960357411
 20
1562.696251174066
  0
LINE
  5
CD
330
87
100
AcDbEntity
  8
P-SANR-FIXT
100
AcDbLine
 10
913.2874495286012
 20
1561.587423521447
 30
0.0
 11
997.3882545016641
 21
1584.122166296786
 31
0.0
  0
LINE
  5
CE
330
87
100
AcDbEntity
  8
P-SANR-FIXT
100
AcDbLine
 10
946.7426561063861
 20
1549.953621884854
 30
0.0
 11
947.284750933541
 21
1547.930496447391
 31
0.0
  0
LINE
  5
CF
330
87
100
AcDbEntity
  8
P-SANR-FIXT
100
AcDbLine
 10
974.7741913619009
 20
1555.296269810553
 30
0.0
 11
974.2320965347458
 21
1557.319395248016
 31
0.0
  0
LINE
  5
D0
330
87
100
AcDbEntity
  8
P-SANR-FIXT
100
AcDbLine
 10
951.3702128848297
 20
1549.025192677947
 30
0.0
 11
954.2172223809574
 21
1538.400008588767
 31
0.0
  0
LINE
  5
D1
330
87
100
AcDbEntity
  8
P-SANR-FIXT
100
AcDbLine
 10
973.5357389067397
 20
1543.576389490818
 30
0.0
 11
970.688729410612
 21
1554.201573579998
 31
0.0
  0
LINE
  5
D2
330
87
100
AcDbEntity
  8
P-SANR-FIXT
100
AcDbLine
 10
973.5357389067379
 20
1543.576389490818
 30
0.0
 11
954.2172223809558
 21
1538.400008588767
 31
0.0
  0
LINE
  5
D3
330
87
100
AcDbEntity
  8
P-SANR-FIXT
100
AcDbLine
 10
947.2847509335393
 20
1547.930496447391
 30
0.0
 11
974.7741913618991
 21
1555.296269810553
 31
0.0
  0
LINE
  5
D4
330
87
100
AcDbEntity
  8
P-SANR-FIXT
100
AcDbLine
 10
951.3926682044802
 20
2120.400667151263
 30
0.0
 11
943.6045048593562
 21
2118.313835072415
 31
0.0
  0
LINE
  5
D5
330
87
100
AcDbEntity
  8
P-SANR-FIXT
100
AcDbLine
 10
946.6257022067953
 20
2107.038573072081
 30
0.0
 11
954.4138655519191
 21
2109.125405150928
 31
0.0
  0
LINE
  5
D6
330
87
100
AcDbEntity
  8
P-SANR-FIXT
100
AcDbLine
 10
951.3926682044786
 20
2120.400667151262
 30
0.0
 11
954.4138655519175
 21
2109.125405150928
 31
0.0
  0
LINE
  5
D7
330
87
100
AcDbEntity
  8
P-SANR-FIXT
100
AcDbLine
 10
942.3104096338438
 20
2123.14346420386
 30
0.0
 11
933.6501555959994
 21
2128.143464203861
 31
0.0
  0
LINE
  5
D8
330
87
100
AcDbEntity
  8
P-SANR-FIXT
100
AcDbLine
 10
942.9197974323079
 20
2093.548689902791
 30
0.0
 11
947.919797432308
 21
2102.208943940635
 31
0.0
  0
LINE
  5
D9
330
87
100
AcDbEntity
  8
P-SANR-FIXT
100
AcDbLine
 10
933.6501555959994
 20
2128.143464203861
 30
0.0
 11
928.820526464554
 21
2126.849368978348
 31
0.0
  0
LINE
  5
DA
330
87
100
AcDbEntity
  8
P-SANR-FIXT
100
AcDbLine
 10
938.0901683008627
 20
2092.254594677278
 30
0.0
 11
942.9197974323079
 21
2093.548689902791
 31
0.0
  0
LINE
  5
DB
330
87
100
AcDbEntity
  8
P-SANR-FIXT
100
AcDbLine
 10
928.820526464554
 20
2126.849368978348
 30
0.0
 11
925.3281340218666
 21
2130.341761421036
 31
0.0
  0
LINE
  5
DC
330
87
100
AcDbEntity
  8
P-SANR-FIXT
100
AcDbLine
 10
925.3105070079785
 20
2130.359388434923
 30
0.0
 11
925.2618339916018
 21
2130.4080614513
 31
0.0
  0
LINE
  5
DD
330
87
100
AcDbEntity
  8
P-SANR-FIXT
100
AcDbLine
 10
936.7875964515057
 20
2087.393330354969
 30
0.0
 11
938.0901683008627
 21
2092.254594677278
 31
0.0
  0
LINE
  5
DE
330
87
100
AcDbEntity
  8
P-SANR-FIXT
100
AcDbLine
 10
925.2618339916018
 20
2130.4080614513
 30
0.0
 11
918.3502386082507
 21
2128.55610504992
 31
0.0
  0
LINE
  5
DF
330
87
100
AcDbEntity
  8
P-SANR-FIXT
100
AcDbLine
 10
929.8760010681546
 20
2085.54137395359
 30
0.0
 11
936.7875964515055
 21
2087.39333035497
 31
0.0
  0
LINE
  5
E0
330
87
100
AcDbEntity
  8
P-SANR-FIXT
100
AcDbLine
 10
918.3502386082507
 20
2128.55610504992
 30
0.0
 11
914.4610420399281
 21
2123.001756723042
 31
0.0
  0
LINE
  5
E1
330
87
100
AcDbEntity
  8
P-SANR-FIXT
100
AcDbLine
 10
923.7306838762364
 20
2088.406982421972
 30
0.0
 11
929.8760010681546
 21
2085.541373953589
 31
0.0
  0
LINE
  5
E2
330
87
100
AcDbEntity
  8
P-SANR-FIXT
100
AcDbLine
 10
914.4610420399281
 20
2123.001756723042
 30
0.0
 11
889.2256868177105
 21
2116.239963670536
 31
0.0
  0
LINE
  5
E3
330
87
100
AcDbEntity
  8
P-SANR-FIXT
100
AcDbLine
 10
918.4622576534819
 20
2086.995311870202
 30
0.0
 11
923.7306838762364
 21
2088.406982421972
 31
0.0
  0
LINE
  5
E4
330
87
100
AcDbEntity
  8
P-SANR-FIXT
100
AcDbLine
 10
942.3104096338422
 20
2123.14346420386
 30
0.0
 11
947.9197974323064
 21
2102.208943940634
 31
0.0
  0
LINE
  5
E5
330
87
100
AcDbEntity
  8
P-SANR-FIXT
100
AcDbLine
 10
933.6501555959976
 20
2128.143464203859
 30
0.0
 11
942.9197974323063
 21
2093.54868990279
 31
0.0
  0
LINE
  5
E6
330
87
100
AcDbEntity
  8
P-SANR-FIXT
100
AcDbLine
 10
928.8205264645524
 20
2126.849368978347
 30
0.0
 11
938.0901683008611
 21
2092.254594677277
 31
0.0
  0
LINE
  5
E7
330
87
100
AcDbEntity
  8
P-SANR-FIXT
100
AcDbLine
 10
925.2618339916002
 20
2130.408061451299
 30
0.0
 11
936.787596451504
 21
2087.393330354968
 31
0.0
  0
LINE
  5
E8
330
87
100
AcDbEntity
  8
P-SANR-FIXT
100
AcDbLine
 10
918.3502386082492
 20
2128.55610504992
 30
0.0
 11
929.876001068153
 21
2085.541373953589
 31
0.0
  0
LINE
  5
E9
330
87
100
AcDbEntity
  8
P-SANR-FIXT
100
AcDbLine
 10
914.4610420399263
 20
2123.001756723041
 30
0.0
 11
923.7306838762348
 21
2088.406982421972
 31
0.0
  0
LINE
  5
EA
330
87
100
AcDbEntity
  8
P-SANR-FIXT
100
AcDbLine
 10
1024.123282457353
 20
2095.937500000005
 30
0.0
 11
1024.123282457353
 21
2056.832273064782
 31
0.0
  0
LINE
  5
EB
330
87
100
AcDbEntity
  8
P-SANR-FIXT
100
AcDbLine
 10
1024.135818102705
 20
2095.937500000004
 30
0.0
 11
1035.59247512645
 21
2095.937500000004
 31
0.0
  0
LINE
  5
EC
330
87
100
AcDbEntity
  8
P-SANR-FIXT
100
AcDbLine
 10
1035.59247512645
 20
2095.155367052119
 30
0.0
 11
1035.59247512645
 21
2095.937500000004
 31
0.0
  0
LINE
  5
ED
330
87
100
AcDbEntity
  8
P-SANR-FIXT
100
AcDbLine
 10
767.7637776229472
 20
2178.576190931003
 30
0.0
 11
775.2235709721408
 21
2180.575036534623
 31
0.0
  0
LINE
  5
EE
330
87
100
AcDbEntity
  8
P-SANR-FIXT
100
AcDbLine
 10
767.7610195793404
 20
2178.586484089867
 30
0.0
 11
767.7473483151268
 21
2178.637505942516
 31
0.0
  0
LINE
  5
EF
330
87
100
AcDbEntity
  8
P-SANR-FIXT
100
AcDbLine
 10
767.7260103423094
 20
2178.7171403412
 30
0.0
 11
767.6889252250016
 21
2178.855543883198
 31
0.0
  0
LINE
  5
F0
330
87
100
AcDbEntity
  8
P-SANR-FIXT
100
AcDbLine
 10
767.6449586797134
 20
2179.019629264047
 30
0.0
 11
767.5581513432627
 21
2179.343598654151
 31
0.0
  0
LINE
  5
F1
330
87
100
AcDbEntity
  8
P-SANR-FIXT
100
AcDbLine
 10
767.5546522658968
 20
2179.35665738866
 30
0.0
 11
767.4412160499664
 21
2179.78000710993
 31
0.0
  0
LINE
  5
F2
330
87
100
AcDbEntity
  8
P-SANR-FIXT
100
AcDbLine
 10
767.4045714705008
 20
2179.916766542318
 30
0.0
 11
767.2131477050953
 21
2180.631169760587
 31
0.0
  0
LINE
  5
F3
330
87
100
AcDbEntity
  8
P-SANR-FIXT
100
AcDbLine
 10
767.1530804597447
 20
2180.855343772106
 30
0.0
 11
766.9895983365862
 21
2181.465467361864
 31
0.0
  0
LINE
  5
F4
330
87
100
AcDbEntity
  8
P-SANR-FIXT
100
AcDbLine
 10
766.9833111652882
 20
2181.488931404583
 30
0.0
 11
766.8001878733551
 21
2182.172356834127
 31
0.0
  0
LINE
  5
F5
330
87
100
AcDbEntity
  8
P-SANR-FIXT
100
AcDbLine
 10
766.7449315939648
 20
2182.378576076249
 30
0.0
 11
766.2129228533575
 21
2184.364059726266
 31
0.0
  0
LINE
  5
F6
330
87
100
AcDbEntity
  8
P-SANR-FIXT
100
AcDbLine
 10
766.2028447076309
 20
2184.401671878164
 30
0.0
 11
761.3252772671526
 21
2202.605001383373
 31
0.0
  0
LINE
  5
F7
330
87
100
AcDbEntity
  8
P-SANR-FIXT
100
AcDbLine
 10
768.7850706163462
 20
2204.603846986992
 30
0.0
 11
773.6626380568245
 21
2186.400517481783
 31
0.0
  0
LINE
  5
F8
330
87
100
AcDbEntity
  8
P-SANR-FIXT
100
AcDbLine
 10
773.6727162025512
 20
2186.362905329885
 30
0.0
 11
774.2047249431582
 21
2184.377421679869
 31
0.0
  0
LINE
  5
F9
330
87
100
AcDbEntity
  8
P-SANR-FIXT
100
AcDbLine
 10
774.2599812225488
 20
2184.171202437746
 30
0.0
 11
774.4483981499187
 21
2183.468020891795
 31
0.0
  0
LINE
  5
FA
330
87
100
AcDbEntity
  8
P-SANR-FIXT
100
AcDbLine
 10
774.4493916857797
 20
2183.464312965483
 30
0.0
 11
774.6207920357671
 21
2182.824638150895
 31
0.0
  0
LINE
  5
FB
330
87
100
AcDbEntity
  8
P-SANR-FIXT
100
AcDbLine
 10
774.672941054289
 20
2182.630015364207
 30
0.0
 11
774.8643648196944
 21
2181.915612145937
 31
0.0
  0
LINE
  5
FC
330
87
100
AcDbEntity
  8
P-SANR-FIXT
100
AcDbLine
 10
774.90100939916
 20
2181.77885271355
 30
0.0
 11
775.0144456150905
 21
2181.355502992279
 31
0.0
  0
LINE
  5
FD
330
87
100
AcDbEntity
  8
P-SANR-FIXT
100
AcDbLine
 10
775.0179446924562
 20
2181.34244425777
 30
0.0
 11
775.104752028907
 21
2181.018474867666
 31
0.0
  0
LINE
  5
FE
330
87
100
AcDbEntity
  8
P-SANR-FIXT
100
AcDbLine
 10
775.1523825689758
 20
2180.840715272138
 30
0.0
 11
775.185803691503
 21
2180.71598594482
 31
0.0
  0
LINE
  5
FF
330
87
100
AcDbEntity
  8
P-SANR-FIXT
100
AcDbLine
 10
775.2071416643205
 20
2180.636351546135
 30
0.0
 11
775.2208129285341
 21
2180.585329693486
 31
0.0
  0
LINE
  5
100
330
87
100
AcDbEntity
  8
P-SANR-FIXT
100
AcDbLine
 10
761.3252772671526
 20
2202.605001383373
 30
0.0
 11
768.7850706163462
 21
2204.603846986992
 31
0.0
  0
LINE
  5
101
330
87
100
AcDbEntity
  8
P-SANR-FIXT
100
AcDbLine
 10
778.3716367757711
 20
2193.833749131565
 30
0.0
 11
775.1885714027134
 21
2192.980849335398
 31
0.0
  0
LINE
  5
102
330
87
100
AcDbEntity
  8
P-SANR-FIXT
100
AcDbLine
 10
778.2943999439435
 20
2181.389739419929
 30
0.0
 11
783.3245462617662
 21
2182.7375630636
 31
0.0
  0
LINE
  5
103
330
87
100
AcDbEntity
  8
P-SANR-FIXT
100
AcDbLine
 10
775.7645741793825
 20
2190.831177707568
 30
0.0
 11
774.8952409357223
 21
2190.598240566976
 31
0.0
  0
LINE
  5
104
330
87
100
AcDbEntity
  8
P-SANR-FIXT
100
AcDbLine
 10
776.849063923614
 20
2183.306473907167
 30
0.0
 11
777.718397167274
 21
2183.53941104776
 31
0.0
  0
LINE
  5
105
330
87
100
AcDbEntity
  8
P-SANR-FIXT
100
AcDbLine
 10
774.319238159053
 20
2192.747912194806
 30
0.0
 11
772.119773245356
 21
2192.1585673474
 31
0.0
  0
LINE
  5
106
330
87
100
AcDbEntity
  8
P-SANR-FIXT
100
AcDbLine
 10
767.7658084373925
 20
2178.568611828312
 30
0.0
 11
777.4250667002831
 21
2181.156802279337
 31
0.0
  0
LINE
  5
107
330
87
100
AcDbEntity
  8
P-SANR-FIXT
100
AcDbLine
 10
788.8880490270276
 20
2191.996659095581
 30
0.0
 11
788.8912185117026
 21
2191.98483041774
 31
0.0
  0
LINE
  5
108
330
87
100
AcDbEntity
  8
P-SANR-FIXT
100
AcDbLine
 10
775.1885714027118
 20
2192.980849335397
 30
0.0
 11
778.294399943942
 21
2181.389739419929
 31
0.0
  0
LINE
  5
109
330
87
100
AcDbEntity
  8
P-SANR-FIXT
100
AcDbLine
 10
774.3192381590516
 20
2192.747912194805
 30
0.0
 11
777.4250667002818
 21
2181.156802279336
 31
0.0
  0
LINE
  5
10A
330
87
100
AcDbEntity
  8
P-SANR-FIXT
100
AcDbLine
 10
766.2027935762739
 20
2184.401862702986
 30
0.0
 11
766.212894166776
 21
2184.364166786045
 31
0.0
  0
LINE
  5
10B
330
87
100
AcDbEntity
  8
P-SANR-FIXT
100
AcDbLine
 10
766.4070646769975
 20
2183.639512576567
 30
0.0
 11
766.4825548999413
 21
2183.357779229066
 31
0.0
  0
LINE
  5
10C
330
87
100
AcDbEntity
  8
P-SANR-FIXT
100
AcDbLine
 10
766.6083614294039
 20
2182.888262869187
 30
0.0
 11
766.7440221281843
 21
2182.38197024875
 31
0.0
  0
LINE
  5
10D
330
87
100
AcDbEntity
  8
P-SANR-FIXT
100
AcDbLine
 10
766.8018913181208
 20
2182.165999491713
 30
0.0
 11
766.9835651463878
 21
2181.487983534216
 31
0.0
  0
LINE
  5
10E
330
87
100
AcDbEntity
  8
P-SANR-FIXT
100
AcDbLine
 10
766.9893513020834
 20
2181.466389307178
 30
0.0
 11
767.2110882188328
 21
2180.638855867956
 31
0.0
  0
LINE
  5
10F
330
87
100
AcDbEntity
  8
P-SANR-FIXT
100
AcDbLine
 10
767.3107691948752
 20
2180.266841400818
 30
0.0
 11
767.4024955144208
 21
2179.924514115882
 31
0.0
  0
LINE
  5
110
330
87
100
AcDbEntity
  8
P-SANR-FIXT
100
AcDbLine
 10
767.4448030026581
 20
2179.766620420241
 30
0.0
 11
767.5550389529311
 21
2179.355214253001
 31
0.0
  0
LINE
  5
111
330
87
100
AcDbEntity
  8
P-SANR-FIXT
100
AcDbLine
 10
767.5577573750281
 20
2179.345068963618
 30
0.0
 11
767.648867862069
 21
2179.00503999688
 31
0.0
  0
LINE
  5
112
330
87
100
AcDbEntity
  8
P-SANR-FIXT
100
AcDbLine
 10
767.6575855397283
 20
2178.972505180931
 30
0.0
 11
767.6895442175235
 21
2178.853233771656
 31
0.0
  0
LINE
  5
113
330
87
100
AcDbEntity
  8
P-SANR-FIXT
100
AcDbLine
 10
767.7277141200025
 20
2178.710781756285
 30
0.0
 11
767.7492768999615
 21
2178.630308365926
 31
0.0
  0
LINE
  5
114
330
87
100
AcDbEntity
  8
P-SANR-FIXT
100
AcDbLine
 10
767.7630238020194
 20
2178.579004228998
 30
0.0
 11
767.7658084373911
 21
2178.568611828311
 31
0.0
  0
LINE
  5
115
330
87
100
AcDbEntity
  8
P-SANR-FIXT
100
AcDbLine
 10
1041.67734495642
 20
2097.989478783778
 30
0.0
 11
1041.67734495642
 21
2113.989478783778
 31
0.0
  0
LINE
  5
116
330
87
100
AcDbEntity
  8
P-SANR-FIXT
100
AcDbLine
 10
1031.67734495642
 20
2103.832122240286
 30
0.0
 11
1031.67734495642
 21
2097.989478783778
 31
0.0
  0
LINE
  5
117
330
87
100
AcDbEntity
  8
P-SANR-FIXT
100
AcDbLine
 10
1043.866368351051
 20
2116.178502178408
 30
0.0
 11
1043.866368351051
 21
2125.489478783777
 31
0.0
  0
LINE
  5
118
330
87
100
AcDbEntity
  8
P-SANR-FIXT
100
AcDbLine
 10
1029.48832156179
 20
2125.489478783777
 30
0.0
 11
1029.48832156179
 21
2116.178502178408
 31
0.0
  0
LINE
  5
119
330
87
100
AcDbEntity
  8
P-SANR-FIXT
100
AcDbLine
 10
1042.677344956421
 20
2126.989478783777
 30
0.0
 11
1042.677344956421
 21
2131.989478783777
 31
0.0
  0
LINE
  5
11A
330
87
100
AcDbEntity
  8
P-SANR-FIXT
100
AcDbLine
 10
1030.677344956421
 20
2131.989478783777
 30
0.0
 11
1030.677344956421
 21
2126.989478783777
 31
0.0
  0
LINE
  5
11B
330
87
100
AcDbEntity
  8
P-SANR-FIXT
100
AcDbLine
 10
1044.477344956421
 20
2131.989478783777
 30
0.0
 11
1044.477344956421
 21
2140.989478783778
 31
0.0
  0
LINE
  5
11C
330
87
100
AcDbEntity
  8
P-SANR-FIXT
100
AcDbLine
 10
1028.877344956421
 20
2140.989478783778
 30
0.0
 11
1028.877344956421
 21
2131.989478783777
 31
0.0
  0
LINE
  5
11D
330
87
100
AcDbEntity
  8
P-SANR-FIXT
100
AcDbLine
 10
1043.47734495642
 20
2140.989478783778
 30
0.0
 11
1043.47734495642
 21
2143.489478783777
 31
0.0
  0
LINE
  5
11E
330
87
100
AcDbEntity
  8
P-SANR-FIXT
100
AcDbLine
 10
1029.877344956421
 20
2143.489478783777
 30
0.0
 11
1029.877344956421
 21
2140.989478783778
 31
0.0
  0
LINE
  5
11F
330
87
100
AcDbEntity
  8
P-SANR-FIXT
100
AcDbLine
 10
1041.477344956421
 20
2143.489478783777
 30
0.0
 11
1041.477344956421
 21
2146.989478783777
 31
0.0
  0
LINE
  5
120
330
87
100
AcDbEntity
  8
P-SANR-FIXT
100
AcDbLine
 10
1031.877344956421
 20
2146.989478783777
 30
0.0
 11
1031.877344956421
 21
2143.489478783777
 31
0.0
  0
LINE
  5
121
330
87
100
AcDbEntity
  8
P-SANR-FIXT
100
AcDbLine
 10
1042.47734495642
 20
2146.989478783777
 30
0.0
 11
1042.477344956421
 21
2154.989478783778
 31
0.0
  0
LINE
  5
122
330
87
100
AcDbEntity
  8
P-SANR-FIXT
100
AcDbLine
 10
1030.877344956421
 20
2154.989478783778
 30
0.0
 11
1030.877344956421
 21
2146.989478783777
 31
0.0
  0
LINE
  5
123
330
87
100
AcDbEntity
  8
P-SANR-FIXT
100
AcDbLine
 10
1038.677344956421
 20
2154.989478783778
 30
0.0
 11
1038.677344956421
 21
2157.989478783778
 31
0.0
  0
LINE
  5
124
330
87
100
AcDbEntity
  8
P-SANR-FIXT
100
AcDbLine
 10
1034.677344956421
 20
2157.989478783778
 30
0.0
 11
1034.677344956421
 21
2154.989478783778
 31
0.0
  0
LINE
  5
125
330
87
100
AcDbEntity
  8
P-SANR-FIXT
100
AcDbLine
 10
1026.981347678393
 20
2117.153686126439
 30
0.0
 11
1014.005597738004
 21
2117.153686126439
 31
0.0
  0
LINE
  5
126
330
87
100
AcDbEntity
  8
P-SANR-FIXT
100
AcDbLine
 10
1014.005597738004
 20
2101.153686126439
 30
0.0
 11
1026.981347678393
 21
2101.153686126439
 31
0.0
  0
LINE
  5
127
330
87
100
AcDbEntity
  8
P-SANR-FIXT
100
AcDbLine
 10
1014.005597738004
 20
2118.153686126439
 30
0.0
 11
1006.005597738004
 21
2118.153686126439
 31
0.0
  0
LINE
  5
128
330
87
100
AcDbEntity
  8
P-SANR-FIXT
100
AcDbLine
 10
1006.005597738004
 20
2100.153686126439
 30
0.0
 11
1014.005597738004
 21
2100.153686126438
 31
0.0
  0
LINE
  5
129
330
87
100
AcDbEntity
  8
P-SANR-FIXT
100
AcDbLine
 10
1006.005597738004
 20
2116.153686126439
 30
0.0
 11
1002.005597738004
 21
2116.153686126439
 31
0.0
  0
LINE
  5
12A
330
87
100
AcDbEntity
  8
P-SANR-FIXT
100
AcDbLine
 10
1002.005597738004
 20
2102.153686126439
 30
0.0
 11
1006.005597738004
 21
2102.153686126439
 31
0.0
  0
LINE
  5
12B
330
87
100
AcDbEntity
  8
P-SANR-FIXT
100
AcDbLine
 10
1002.005597738004
 20
2111.71057114224
 30
0.0
 11
999.0055977380038
 21
2111.71057114224
 31
0.0
  0
LINE
  5
12C
330
87
100
AcDbEntity
  8
P-SANR-FIXT
100
AcDbLine
 10
999.0055977380038
 20
2106.596801110637
 30
0.0
 11
1002.005597738004
 21
2106.596801110637
 31
0.0
  0
LINE
  5
12D
330
87
100
AcDbEntity
  8
P-SANR-FIXT
100
AcDbLine
 10
999.0055977380038
 20
2113.21057114224
 30
0.0
 11
990.0055977380038
 21
2113.21057114224
 31
0.0
  0
LINE
  5
12E
330
87
100
AcDbEntity
  8
P-SANR-FIXT
100
AcDbLine
 10
990.0055977380038
 20
2105.096801110637
 30
0.0
 11
999.0055977380038
 21
2105.096801110637
 31
0.0
  0
LINE
  5
12F
330
87
100
AcDbEntity
  8
P-SANR-FIXT
100
AcDbLine
 10
1041.677344956421
 20
2113.989478783778
 30
0.0
 11
1043.866368351051
 21
2116.178502178408
 31
0.0
  0
LINE
  5
130
330
87
100
AcDbEntity
  8
P-SANR-FIXT
100
AcDbLine
 10
1029.48832156179
 20
2116.178502178408
 30
0.0
 11
1031.191573727606
 21
2114.475250012592
 31
0.0
  0
LINE
  5
131
330
87
100
AcDbEntity
  8
P-SANR-FIXT
100
AcDbLine
 10
1043.67734495642
 20
2095.913832107063
 30
0.0
 11
1043.67734495642
 21
2097.989478783778
 31
0.0
  0
LINE
  5
132
330
87
100
AcDbEntity
  8
P-SANR-FIXT
100
AcDbLine
 10
1029.677344956421
 20
2097.989478783778
 30
0.0
 11
1029.677344956421
 21
2095.937500000005
 31
0.0
  0
LINE
  5
133
330
87
100
AcDbEntity
  8
P-SANR-FIXT
100
AcDbLine
 10
1044.67734495642
 20
2125.489478783777
 30
0.0
 11
1044.67734495642
 21
2126.989478783777
 31
0.0
  0
LINE
  5
134
330
87
100
AcDbEntity
  8
P-SANR-FIXT
100
AcDbLine
 10
1028.677344956421
 20
2126.989478783777
 30
0.0
 11
1028.677344956421
 21
2125.489478783777
 31
0.0
  0
LINE
  5
135
330
87
100
AcDbEntity
  8
P-SANR-FIXT
100
AcDbLine
 10
1031.191573727606
 20
2114.475250012592
 30
0.0
 11
1028.765766593321
 21
2114.475250012592
 31
0.0
  0
LINE
  5
136
330
87
100
AcDbEntity
  8
P-SANR-FIXT
100
AcDbLine
 10
1028.765766593321
 20
2103.832122240286
 30
0.0
 11
1031.67734495642
 21
2103.832122240286
 31
0.0
  0
LINE
  5
137
330
87
100
AcDbEntity
  8
P-SANR-FIXT
100
AcDbLine
 10
1028.765766593321
 20
2114.475250012592
 30
0.0
 11
1027.026944289358
 21
2117.085245017429
 31
0.0
  0
LINE
  5
138
330
87
100
AcDbEntity
  8
P-SANR-FIXT
100
AcDbLine
 10
1027.018965880536
 20
2117.097220713349
 30
0.0
 11
1026.981347678393
 21
2117.153686126439
 31
0.0
  0
LINE
  5
139
330
87
100
AcDbEntity
  8
P-SANR-FIXT
100
AcDbLine
 10
1026.981347678393
 20
2101.153686126439
 30
0.0
 11
1027.018965880536
 21
2101.210151539528
 31
0.0
  0
LINE
  5
13A
330
87
100
AcDbEntity
  8
P-SANR-FIXT
100
AcDbLine
 10
1027.026944289357
 20
2101.222127235448
 30
0.0
 11
1028.765766593321
 21
2103.832122240286
 31
0.0
  0
SPLINE
  5
13B
330
87
100
AcDbEntity
  8
P-SANR-FIXT
100
AcDbSpline
210
0.0
220
0.0
230
1.0
 70
     8
 71
     3
 72
     9
 73
     5
 74
     0
 42
0.000000001
 43
0.0000000001
 40
0.0
 40
0.0
 40
0.0
 40
0.0
 40
0.5
 40
1.0
 40
1.0
 40
1.0
 40
1.0
 10
1032.197852972905
 20
2113.989478783777
 30
0.0
 10
1032.241537236009
 20
2113.948864163659
 30
0.0
 10
1032.333385565283
 20
2113.864099130648
 30
0.0
 10
1032.433378897559
 20
2113.772262512086
 30
0.0
 10
1032.485210077503
 20
2113.724576306417
 30
0.0
  0
SPLINE
  5
13C
330
87
100
AcDbEntity
  8
P-SANR-FIXT
100
AcDbSpline
210
0.0
220
0.0
230
1.0
 70
     8
 71
     3
 72
    10
 73
     6
 74
     0
 42
0.000000001
 43
0.0000000001
 40
0.0
 40
0.0
 40
0.0
 40
0.0
 40
0.3333333333333333
 40
0.6666666666666666
 40
1.0
 40
1.0
 40
1.0
 40
1.0
 10
1032.485210077503
 20
2104.582795946459
 30
0.0
 10
1032.322714830966
 20
2104.429274865875
 30
0.0
 10
1032.033923011573
 20
2104.168694880783
 30
0.0
 10
1031.745739056281
 20
2103.894551579172
 30
0.0
 10
1031.677344956419
 20
2103.834926866531
 30
0.0
 10
1031.677344956419
 20
2103.832122240285
 30
0.0
  0
LINE
  5
13D
330
87
100
AcDbEntity
  8
P-SANR-FIXT
100
AcDbLine
 10
1029.488321561788
 20
2116.178502178407
 30
0.0
 11
1043.866368351049
 21
2116.178502178407
 31
0.0
  0
LINE
  5
13E
330
87
100
AcDbEntity
  8
P-SANR-FIXT
100
AcDbLine
 10
1028.677344956419
 20
2126.989478783777
 30
0.0
 11
1044.677344956419
 21
2126.989478783777
 31
0.0
  0
LINE
  5
13F
330
87
100
AcDbEntity
  8
P-SANR-FIXT
100
AcDbLine
 10
1044.477344956419
 20
2131.989478783776
 30
0.0
 11
1028.877344956419
 21
2131.989478783776
 31
0.0
  0
LINE
  5
140
330
87
100
AcDbEntity
  8
P-SANR-FIXT
100
AcDbLine
 10
1044.477344956419
 20
2140.989478783777
 30
0.0
 11
1028.877344956419
 21
2140.989478783777
 31
0.0
  0
LINE
  5
141
330
87
100
AcDbEntity
  8
P-SANR-FIXT
100
AcDbLine
 10
1043.477344956419
 20
2143.489478783777
 30
0.0
 11
1029.877344956419
 21
2143.489478783777
 31
0.0
  0
LINE
  5
142
330
87
100
AcDbEntity
  8
P-SANR-FIXT
100
AcDbLine
 10
1042.477344956419
 20
2146.989478783777
 30
0.0
 11
1030.877344956419
 21
2146.989478783777
 31
0.0
  0
LINE
  5
143
330
87
100
AcDbEntity
  8
P-SANR-FIXT
100
AcDbLine
 10
1042.477344956419
 20
2154.989478783776
 30
0.0
 11
1030.877344956419
 21
2154.989478783777
 31
0.0
  0
LINE
  5
144
330
87
100
AcDbEntity
  8
P-SANR-FIXT
100
AcDbLine
 10
1038.677344956419
 20
2157.989478783777
 30
0.0
 11
1034.677344956419
 21
2157.989478783777
 31
0.0
  0
LINE
  5
145
330
87
100
AcDbEntity
  8
P-SANR-FIXT
100
AcDbLine
 10
1026.981347678391
 20
2101.153686126437
 30
0.0
 11
1026.981347678391
 21
2117.153686126437
 31
0.0
  0
LINE
  5
146
330
87
100
AcDbEntity
  8
P-SANR-FIXT
100
AcDbLine
 10
1014.005597738002
 20
2118.153686126438
 30
0.0
 11
1014.005597738002
 21
2100.153686126438
 31
0.0
  0
LINE
  5
147
330
87
100
AcDbEntity
  8
P-SANR-FIXT
100
AcDbLine
 10
1006.005597738002
 20
2118.153686126438
 30
0.0
 11
1006.005597738002
 21
2100.153686126438
 31
0.0
  0
LINE
  5
148
330
87
100
AcDbEntity
  8
P-SANR-FIXT
100
AcDbLine
 10
1002.005597738002
 20
2116.153686126438
 30
0.0
 11
1002.005597738002
 21
2102.153686126438
 31
0.0
  0
LINE
  5
149
330
87
100
AcDbEntity
  8
P-SANR-FIXT
100
AcDbLine
 10
999.005597738002
 20
2113.210571142239
 30
0.0
 11
999.005597738002
 21
2105.096801110637
 31
0.0
  0
LINE
  5
14A
330
87
100
AcDbEntity
  8
P-SANR-FIXT
100
AcDbLine
 10
990.0055977380022
 20
2113.210571142239
 30
0.0
 11
990.0055977380022
 21
2105.096801110637
 31
0.0
  0
SPLINE
  5
14B
330
87
100
AcDbEntity
  8
P-SANR-FIXT
100
AcDbSpline
210
0.0
220
0.0
230
1.0
 70
     8
 71
     3
 72
     9
 73
     5
 74
     0
 42
0.000000001
 43
0.0000000001
 40
-1.0
 40
-1.0
 40
-1.0
 40
-1.0
 40
-0.5
 40
0.0
 40
0.0
 40
0.0
 40
0.0
 10
1031.191573727605
 20
2114.475250012591
 30
0.0
 10
1031.215468311648
 20
2114.475250012591
 30
0.0
 10
1031.407076103242
 20
2114.363675973098
 30
0.0
 10
1031.886321141848
 20
2114.122454456306
 30
0.0
 10
1032.197852972905
 20
2113.989478783777
 30
0.0
  0
LINE
  5
14C
330
87
100
AcDbEntity
  8
P-SANR-FIXT
100
AcDbLine
 10
1041.677344956419
 20
2113.989478783777
 30
0.0
 11
1032.197852972905
 21
2113.989478783777
 31
0.0
  0
LINE
  5
14D
330
87
100
AcDbEntity
  8
P-SANR-FIXT
100
AcDbLine
 10
1043.677344956419
 20
2097.989478783777
 30
0.0
 11
1029.677344956419
 21
2097.989478783777
 31
0.0
  0
LINE
  5
14E
330
87
100
AcDbEntity
  8
P-SANR-FIXT
100
AcDbLine
 10
1044.677344956419
 20
2125.489478783777
 30
0.0
 11
1028.677344956419
 21
2125.489478783777
 31
0.0
  0
LINE
  5
14F
330
87
100
AcDbEntity
  8
P-SANR-FIXT
100
AcDbLine
 10
1032.485210077503
 20
2113.724576306417
 30
0.0
 11
1032.485210077503
 21
2104.582795946459
 31
0.0
  0
LINE
  5
150
330
87
100
AcDbEntity
  8
P-SANR-FIXT
100
AcDbLine
 10
1028.765766593319
 20
2114.475250012591
 30
0.0
 11
1028.765766593319
 21
2103.832122240285
 31
0.0
  0
LINE
  5
151
330
87
100
AcDbEntity
  8
P-SANR-FIXT
100
AcDbLine
 10
842.2948066228986
 20
1667.355024829398
 30
0.0
 11
839.9654352169759
 21
1676.048357266
 31
0.0
  0
LINE
  5
152
330
87
100
AcDbEntity
  8
P-SANR-FIXT
100
AcDbLine
 10
828.3743253015082
 20
1672.94252872477
 30
0.0
 11
830.7036967074308
 21
1664.249196288168
 31
0.0
  0
LINE
  5
153
330
87
100
AcDbEntity
  8
P-SANR-FIXT
100
AcDbLine
 10
838.999509390687
 20
1675.789538220897
 30
0.0
 11
838.0936427328281
 21
1679.170278612909
 31
0.0
  0
LINE
  5
154
330
87
100
AcDbEntity
  8
P-SANR-FIXT
100
AcDbLine
 10
828.4343844699384
 20
1676.582088161884
 30
0.0
 11
829.3402511277971
 21
1673.201347769872
 31
0.0
  0
LINE
  5
155
330
87
100
AcDbEntity
  8
P-SANR-FIXT
100
AcDbLine
 10
841.4743831248399
 20
1680.076145270768
 30
0.0
 11
840.3096974218787
 21
1684.422811489068
 31
0.0
  0
LINE
  5
156
330
87
100
AcDbEntity
  8
P-SANR-FIXT
100
AcDbLine
 10
823.8889583749655
 20
1680.022887722326
 30
0.0
 11
825.0536440779267
 21
1675.676221504025
 31
0.0
  0
LINE
  5
157
330
87
100
AcDbEntity
  8
P-SANR-FIXT
100
AcDbLine
 10
838.3778457693004
 20
1683.905173398863
 30
0.0
 11
837.9896172016469
 21
1685.354062138297
 31
0.0
  0
LINE
  5
158
330
87
100
AcDbEntity
  8
P-SANR-FIXT
100
AcDbLine
 10
825.4325814598898
 20
1681.989414551965
 30
0.0
 11
825.8208100275433
 21
1680.540525812531
 31
0.0
  0
LINE
  5
159
330
87
100
AcDbEntity
  8
P-SANR-FIXT
100
AcDbLine
 10
841.3703575936585
 20
1686.259928796156
 30
0.0
 11
840.2886069533469
 21
1690.297077146919
 31
0.0
  0
LINE
  5
15A
330
87
100
AcDbEntity
  8
P-SANR-FIXT
100
AcDbLine
 10
820.498926797263
 20
1686.87910285184
 30
0.0
 11
822.051841067878
 21
1681.083547894106
 31
0.0
  0
LINE
  5
15B
330
87
100
AcDbEntity
  8
P-SANR-FIXT
100
AcDbLine
 10
816.372110639344
 20
1795.009469750443
 30
0.0
 11
815.2110516669237
 21
1799.342600826099
 31
0.0
  0
LINE
  5
15C
330
87
100
AcDbEntity
  8
P-SANR-FIXT
100
AcDbLine
 10
788.1651285308294
 20
1792.095667563228
 30
0.0
 11
794.8421271413486
 21
1767.176769506703
 31
0.0
  0
LINE
  5
15D
330
87
100
AcDbEntity
  8
P-SANR-FIXT
100
AcDbLine
 10
808.6592404958752
 20
1715.61060045367
 30
0.0
 11
816.6352234921058
 21
1685.84382667143
 31
0.0
  0
LINE
  5
15E
330
87
100
AcDbEntity
  8
P-SANR-FIXT
100
AcDbLine
 10
809.4154967091894
 20
1797.789686555483
 30
0.0
 11
807.8625824385744
 21
1803.585241513218
 31
0.0
  0
LINE
  5
15F
330
87
100
AcDbEntity
  8
P-SANR-FIXT
100
AcDbLine
 10
792.4077692179491
 20
1799.444136791578
 30
0.0
 11
793.960683488564
 21
1793.648581833843
 31
0.0
  0
LINE
  5
160
330
87
100
AcDbEntity
  8
P-SANR-FIXT
100
AcDbLine
 10
792.4077692179475
 20
1799.444136791577
 30
0.0
 11
807.8625824385728
 21
1803.585241513217
 31
0.0
  0
LINE
  5
161
330
87
100
AcDbEntity
  8
P-SANR-FIXT
100
AcDbLine
 10
842.294806622897
 20
1667.355024829397
 30
0.0
 11
830.7036967074292
 21
1664.249196288167
 31
0.0
  0
LINE
  5
162
330
87
100
AcDbEntity
  8
P-SANR-FIXT
100
AcDbLine
 10
839.9654352169745
 20
1676.048357265999
 30
0.0
 11
828.3743253015066
 21
1672.942528724769
 31
0.0
  0
LINE
  5
163
330
87
100
AcDbEntity
  8
P-SANR-FIXT
100
AcDbLine
 10
841.4743831248383
 20
1680.076145270767
 30
0.0
 11
825.0536440779253
 21
1675.676221504025
 31
0.0
  0
LINE
  5
164
330
87
100
AcDbEntity
  8
P-SANR-FIXT
100
AcDbLine
 10
840.3096974218771
 20
1684.422811489068
 30
0.0
 11
823.8889583749639
 21
1680.022887722326
 31
0.0
  0
LINE
  5
165
330
87
100
AcDbEntity
  8
P-SANR-FIXT
100
AcDbLine
 10
841.3703575936569
 20
1686.259928796156
 30
0.0
 11
822.0518410678764
 21
1681.083547894105
 31
0.0
  0
LINE
  5
166
330
87
100
AcDbEntity
  8
P-SANR-FIXT
100
AcDbLine
 10
838.6381687240625
 20
1691.739498077439
 30
0.0
 11
816.6352234921046
 21
1685.84382667143
 31
0.0
  0
LINE
  5
167
330
87
100
AcDbEntity
  8
P-SANR-FIXT
100
AcDbLine
 10
815.2110516669225
 20
1799.342600826098
 30
0.0
 11
788.1651285308281
 21
1792.095667563227
 31
0.0
  0
LINE
  5
168
330
87
100
AcDbEntity
  8
P-SANR-FIXT
100
AcDbLine
 10
796.3663124583331
 20
2184.896612565874
 30
0.0
 11
796.7561319643778
 21
2185.286432071919
 31
0.0
  0
LINE
  5
169
330
87
100
AcDbEntity
  8
P-SANR-FIXT
100
AcDbLine
 10
783.5399445213295
 20
2181.745165319536
 30
0.0
 11
784.0724478694771
 21
2181.602481477433
 31
0.0
  0
LINE
  5
16A
330
87
100
AcDbEntity
  8
P-SANR-FIXT
100
AcDbLine
 10
796.7561319643778
 20
2185.286432071919
 30
0.0
 11
794.5561700810063
 21
2193.496801595375
 31
0.0
  0
LINE
  5
16B
330
87
100
AcDbEntity
  8
P-SANR-FIXT
100
AcDbLine
 10
783.2639314274112
 20
2182.775260209592
 30
0.0
 11
783.5399445213295
 21
2181.745165319535
 31
0.0
  0
LINE
  5
16C
330
87
100
AcDbEntity
  8
P-SANR-FIXT
100
AcDbLine
 10
795.5220959072954
 20
2193.755620640478
 30
0.0
 11
794.357410204334
 21
2198.102286858779
 31
0.0
  0
LINE
  5
16D
330
87
100
AcDbEntity
  8
P-SANR-FIXT
100
AcDbLine
 10
779.2093711087078
 20
2194.043382016191
 30
0.0
 11
779.2200984300284
 21
2194.003347107993
 31
0.0
  0
LINE
  5
16E
330
87
100
AcDbEntity
  8
P-SANR-FIXT
100
AcDbLine
 10
795.226743447994
 20
2198.335223999372
 30
0.0
 11
791.3444577714563
 21
2212.824111393707
 31
0.0
  0
LINE
  5
16F
330
87
100
AcDbEntity
  8
P-SANR-FIXT
100
AcDbLine
 10
774.45775218851
 20
2208.299332269935
 30
0.0
 11
778.3400378650477
 21
2193.810444875599
 31
0.0
  0
LINE
  5
170
330
87
100
AcDbEntity
  8
P-SANR-FIXT
100
AcDbLine
 10
796.7561319643764
 20
2185.286432071917
 30
0.0
 11
783.5399445213282
 21
2181.745165319535
 31
0.0
  0
LINE
  5
171
330
87
100
AcDbEntity
  8
P-SANR-FIXT
100
AcDbLine
 10
795.5220959072939
 20
2193.755620640477
 30
0.0
 11
782.8527372932833
 21
2190.360876231233
 31
0.0
  0
LINE
  5
172
330
87
100
AcDbEntity
  8
P-SANR-FIXT
100
AcDbLine
 10
795.2267434479925
 20
2198.33522399937
 30
0.0
 11
778.3400378650464
 21
2193.810444875598
 31
0.0
  0
LINE
  5
173
330
87
100
AcDbEntity
  8
P-SANR-FIXT
100
AcDbLine
 10
791.3444577714549
 20
2212.824111393706
 30
0.0
 11
774.4577521885087
 21
2208.299332269934
 31
0.0
  0
LINE
  5
174
330
87
100
AcDbEntity
  8
P-SANR-FIXT
100
AcDbLine
 10
689.6835076408426
 20
2103.95233611706
 30
0.0
 11
689.6835076408426
 21
2111.719994509891
 31
0.0
  0
LINE
  5
175
330
87
100
AcDbEntity
  8
P-SANR-FIXT
100
AcDbLine
 10
674.6835076408428
 20
2111.719994509891
 30
0.0
 11
674.6835076408428
 21
2103.95233611706
 31
0.0
  0
LINE
  5
176
330
87
100
AcDbEntity
  8
P-SANR-FIXT
100
AcDbLine
 10
687.1835076408428
 20
2111.719994509891
 30
0.0
 11
687.1835076408428
 21
2113.219994509891
 31
0.0
  0
LINE
  5
177
330
87
100
AcDbEntity
  8
P-SANR-FIXT
100
AcDbLine
 10
677.1835076408429
 20
2113.219994509891
 30
0.0
 11
677.1835076408429
 21
2111.719994509891
 31
0.0
  0
LINE
  5
178
330
87
100
AcDbEntity
  8
P-SANR-FIXT
100
AcDbLine
 10
689.6835076408426
 20
2113.219994509891
 30
0.0
 11
689.6835076408426
 21
2118.242925554367
 31
0.0
  0
LINE
  5
179
330
87
100
AcDbEntity
  8
P-SANR-FIXT
100
AcDbLine
 10
674.6835076408428
 20
2118.242925554367
 30
0.0
 11
674.6835076408428
 21
2113.219994509891
 31
0.0
  0
LINE
  5
17A
330
87
100
AcDbEntity
  8
P-SANR-FIXT
100
AcDbLine
 10
686.1835076408428
 20
2119.219994509891
 30
0.0
 11
686.1835076408428
 21
2120.719994509891
 31
0.0
  0
LINE
  5
17B
330
87
100
AcDbEntity
  8
P-SANR-FIXT
100
AcDbLine
 10
678.1835076408428
 20
2120.719994509891
 30
0.0
 11
678.1835076408428
 21
2119.219994509891
 31
0.0
  0
LINE
  5
17C
330
87
100
AcDbEntity
  8
P-SANR-FIXT
100
AcDbLine
 10
687.1835076408428
 20
2120.719994509891
 30
0.0
 11
687.1835076408428
 21
2122.719994509891
 31
0.0
  0
LINE
  5
17D
330
87
100
AcDbEntity
  8
P-SANR-FIXT
100
AcDbLine
 10
677.1835076408429
 20
2122.719994509891
 30
0.0
 11
677.1835076408429
 21
2120.719994509891
 31
0.0
  0
LINE
  5
17E
330
87
100
AcDbEntity
  8
P-SANR-FIXT
100
AcDbLine
 10
689.6835076408426
 20
2118.242925554367
 30
0.0
 11
689.6350690917152
 21
2118.291364103495
 31
0.0
  0
LINE
  5
17F
330
87
100
AcDbEntity
  8
P-SANR-FIXT
100
AcDbLine
 10
689.6193441011463
 20
2118.307089094064
 30
0.0
 11
688.7064386853194
 21
2119.219994509891
 31
0.0
  0
LINE
  5
180
330
87
100
AcDbEntity
  8
P-SANR-FIXT
100
AcDbLine
 10
675.6605765963661
 20
2119.219994509891
 30
0.0
 11
674.7476711805394
 21
2118.307089094065
 31
0.0
  0
LINE
  5
181
330
87
100
AcDbEntity
  8
P-SANR-FIXT
100
AcDbLine
 10
674.7319461899699
 20
2118.291364103495
 30
0.0
 11
674.6835076408428
 21
2118.242925554367
 31
0.0
  0
LINE
  5
182
330
87
100
AcDbEntity
  8
P-SANR-FIXT
100
AcDbLine
 10
688.8051860340035
 20
2095.937500000005
 30
0.0
 11
688.8051860340035
 21
2103.95233611706
 31
0.0
  0
LINE
  5
183
330
87
100
AcDbEntity
  8
P-SANR-FIXT
100
AcDbLine
 10
675.5618292476819
 20
2103.95233611706
 30
0.0
 11
675.5618292476819
 21
2095.914480566281
 31
0.0
  0
LINE
  5
184
330
87
100
AcDbEntity
  8
P-SANR-FIXT
100
AcDbLine
 10
674.6835076408415
 20
2103.95233611706
 30
0.0
 11
689.6835076408413
 21
2103.95233611706
 31
0.0
  0
LINE
  5
185
330
87
100
AcDbEntity
  8
P-SANR-FIXT
100
AcDbLine
 10
689.6835076408413
 20
2111.71999450989
 30
0.0
 11
674.6835076408415
 21
2111.71999450989
 31
0.0
  0
LINE
  5
186
330
87
100
AcDbEntity
  8
P-SANR-FIXT
100
AcDbLine
 10
689.6835076408413
 20
2113.21999450989
 30
0.0
 11
674.6835076408415
 21
2113.21999450989
 31
0.0
  0
LINE
  5
187
330
87
100
AcDbEntity
  8
P-SANR-FIXT
100
AcDbLine
 10
675.6605765963648
 20
2119.21999450989
 30
0.0
 11
688.7064386853181
 21
2119.21999450989
 31
0.0
  0
LINE
  5
188
330
87
100
AcDbEntity
  8
P-SANR-FIXT
100
AcDbLine
 10
687.1835076408415
 20
2120.71999450989
 30
0.0
 11
677.1835076408414
 21
2120.71999450989
 31
0.0
  0
LINE
  5
189
330
87
100
AcDbEntity
  8
P-SANR-FIXT
100
AcDbLine
 10
687.1835076408415
 20
2122.71999450989
 30
0.0
 11
677.1835076408414
 21
2122.71999450989
 31
0.0
  0
LINE
  5
18A
330
87
100
AcDbEntity
  8
P-SANR-FIXT
100
AcDbLine
 10
689.6835076408413
 20
2118.242925554367
 30
0.0
 11
674.6835076408415
 21
2118.242925554367
 31
0.0
  0
LINE
  5
18B
330
87
100
AcDbEntity
  8
P-SANR-FIXT
100
AcDbLine
 10
693.9509583924936
 20
2056.840822765366
 30
0.0
 11
693.9509583924936
 21
2095.937500000005
 31
0.0
  0
LINE
  5
18C
330
87
100
AcDbEntity
  8
P-SANR-FIXT
100
AcDbLine
 10
680.6664074431952
 20
2095.937500000004
 30
0.0
 11
693.9509583924925
 21
2095.937500000004
 31
0.0
  0
LINE
  5
18D
330
87
100
AcDbEntity
  8
P-SANR-FIXT
100
AcDbLine
 10
680.6664074431953
 20
2095.937500000004
 30
0.0
 11
680.6664074431953
 21
2095.14061723859
 31
0.0
  0
LINE
  5
18E
330
87
100
AcDbEntity
  8
P-SANR-FIXT
100
AcDbLine
 10
839.8048321138626
 20
1817.623155405192
 30
0.0
 11
825.6626964901309
 21
1803.48101978146
 31
0.0
  0
LINE
  5
18F
330
87
100
AcDbEntity
  8
P-SANR-FIXT
100
AcDbLine
 10
952.3267185033144
 20
1837.42054218997
 30
0.0
 11
933.0082019775323
 21
1842.596923092021
 31
0.0
  0
LINE
  5
190
330
87
100
AcDbEntity
  8
P-SANR-FIXT
100
AcDbLine
 10
855.6706238691173
 20
1673.807118222871
 30
0.0
 11
899.3413460743443
 21
1591.439190047783
 31
0.0
  0
LINE
  5
191
330
87
100
AcDbEntity
  8
P-SANR-FIXT
100
AcDbLine
 10
994.5400511136915
 20
1616.947606183565
 30
0.0
 11
991.1760418574873
 21
1710.115685542897
 31
0.0
  0
LINE
  5
192
330
87
100
AcDbEntity
  8
P-SANR-FIXT
100
AcDbLine
 10
835.6811651441871
 20
1838.202738004374
 30
0.0
 11
840.2197232810134
 21
1821.264608444634
 31
0.0
  0
LINE
  5
193
330
87
100
AcDbEntity
  8
P-SANR-FIXT
100
AcDbLine
 10
930.8281691672528
 20
1845.54306834729
 30
0.0
 11
925.2502410993061
 21
1866.360179297832
 31
0.0
  0
LWPOLYLINE
  5
194
330
87
100
AcDbEntity
  8
P-SANR-FIXT
100
AcDbPolyline
 90
       12
 70
   128
 43
0.0
 10
991.9469481639833
 20
1822.814683777965
 10
992.3468415058495
 20
1822.806684844574
 10
992.7460951036747
 20
1822.782700840991
 10
993.1440702368723
 20
1822.742770136503
 10
993.5401302301256
 20
1822.686956611721
 10
993.9336414719337
 20
1822.615349556377
 10
994.3239744282543
 20
1822.528063526485
 10
994.7105046496242
 20
1822.425238161072
 10
995.0926137701443
 20
1822.307037958789
 10
995.469690496734
 20
1822.173652014744
 10
995.8411315870696
 20
1822.025293717993
 10
996.1731307813902
 20
1821.877761648331
  0
LINE
  5
195
330
87
100
AcDbEntity
  8
P-SANR-FIXT
100
AcDbLine
 10
795.0686858645053
 20
1767.53568880743
 30
0.0
 11
791.126591414517
 21
1761.90579447629
 31
0.0
  0
LINE
  5
196
330
87
100
AcDbEntity
  8
P-SANR-FIXT
100
AcDbLine
 10
1003.02347549915
 20
1818.683393445438
 30
0.0
 11
996.1731307813904
 21
1821.877761648331
 31
0.0
  0
LWPOLYLINE
  5
197
330
87
100
AcDbEntity
  8
P-SANR-FIXT
100
AcDbPolyline
 90
       13
 70
   128
 43
0.0
 10
1003.02347549915
 20
1818.683393445438
 10
1003.389282444192
 20
1818.521640712036
 10
1003.761265166808
 20
1818.374645739742
 10
1004.138828573992
 20
1818.242643689153
 10
1004.521368644837
 20
1818.125845735391
 10
1004.908273396831
 20
1818.024438730268
 10
1005.298923864909
 20
1817.938584903358
 10
1005.692695091656
 20
1817.868421602471
 10
1006.088957127107
 20
1817.81406107392
 10
1006.487076036538
 20
1817.775590282955
 10
1006.886414914622
 20
1817.753070774635
 10
1007.286334904342
 20
1817.746538575369
 10
1007.372822837143
 20
1817.747229821991
  0
LWPOLYLINE
  5
198
330
87
100
AcDbEntity
  8
P-SANR-FIXT
100
AcDbPolyline
 90
       13
 70
   128
 43
0.0
 10
787.8280279416566
 20
1758.92037932729
 10
788.1728682599956
 20
1759.123021432125
 10
788.5093292200104
 20
1759.339291379622
 10
788.8368725559392
 20
1759.568843184
 10
789.1549742683174
 20
1759.811309611339
 10
789.4631254622626
 20
1760.06630276708
 10
789.7608331616002
 20
1760.333414716568
 10
790.0476210975187
 20
1760.612218137666
 10
790.3230304704988
 20
1760.902267004375
 10
790.5866206842948
 20
1761.203097300381
 10
790.8379700507943
 20
1761.514227761386
 10
791.0766764646287
 20
1761.835160645021
 10
791.1265914145173
 20
1761.90579447629
  0
LINE
  5
199
330
87
100
AcDbEntity
  8
P-SANR-FIXT
100
AcDbLine
 10
787.8280279416566
 20
1758.92037932729
 30
0.0
 11
778.6179461902268
 21
1752.860433402893
 31
0.0
  0
LINE
  5
19A
330
87
100
AcDbEntity
  8
P-SANR-FIXT
100
AcDbLine
 10
1018.378960567011
 20
1817.104203581619
 30
0.0
 11
1007.372822837142
 21
1817.747229821991
 31
0.0
  0
LINE
  5
19B
330
87
100
AcDbEntity
  8
P-SANR-FIXT
100
AcDbLine
 10
780.326957022573
 20
1746.482318145892
 30
0.0
 11
780.9062789244392
 21
1744.32025937419
 31
0.0
  0
LINE
  5
19C
330
87
100
AcDbEntity
  8
P-SANR-FIXT
100
AcDbLine
 10
1020.667293301222
 20
1808.564029552915
 30
0.0
 11
1020.087971399356
 21
1810.726088324617
 31
0.0
  0
LINE
  5
19D
330
87
100
AcDbEntity
  8
P-SANR-FIXT
100
AcDbLine
 10
780.9062789244388
 20
1744.320259374189
 30
0.0
 11
791.7270600918344
 21
1742.412263702036
 31
0.0
  0
LINE
  5
19E
330
87
100
AcDbEntity
  8
P-SANR-FIXT
100
AcDbLine
 10
1012.250219757543
 20
1801.501266246822
 30
0.0
 11
1020.667293301223
 21
1808.564029552915
 31
0.0
  0
LINE
  5
19F
330
87
100
AcDbEntity
  8
P-SANR-FIXT
100
AcDbLine
 10
799.10372049795
 20
1736.681301613135
 30
0.0
 11
809.2499559024512
 21
1714.222838356203
 31
0.0
  0
LINE
  5
1A0
330
87
100
AcDbEntity
  8
P-SANR-FIXT
100
AcDbLine
 10
1012.54060035952
 20
1754.561868538185
 30
0.0
 11
1008.727325495206
 21
1792.84977728665
 31
0.0
  0
LWPOLYLINE
  5
1A1
330
87
100
AcDbEntity
  8
P-SANR-FIXT
100
AcDbPolyline
 90
       17
 70
   128
 43
0.0
 10
994.5400511136915
 20
1616.947606183565
 10
994.5432690018181
 20
1616.747645407043
 10
994.5384880176611
 20
1616.547715896611
 10
994.5257158097748
 20
1616.348137496836
 10
994.5049728109674
 20
1616.149229490583
 10
994.4762922056124
 20
1615.95131008823
 10
994.4397198765598
 20
1615.754695918601
 10
994.3953143317344
 20
1615.559701522426
 10
994.3431466105355
 20
1615.366638849141
 10
994.2833001701883
 20
1615.175816757839
 10
994.2158707522306
 20
1614.987540523159
 10
994.1409662293475
 20
1614.802111346915
 10
994.0587064327964
 20
1614.619825876231
 10
993.969222960704
 20
1614.440975728976
 10
993.8726589675368
 20
1614.265847027231
 10
993.7691689350852
 20
1614.094719939561
 10
993.7676753446419
 20
1614.092359648416
  0
LWPOLYLINE
  5
1A2
330
87
100
AcDbEntity
  8
P-SANR-FIXT
100
AcDbPolyline
 90
       17
 70
   128
 43
0.0
 10
901.4378663791831
 20
1589.352661898802
 10
901.2626239823259
 20
1589.449019406526
 10
901.0913750332724
 20
1589.552307665293
 10
900.9243934938099
 20
1589.662361435923
 10
900.761946498781
 20
1589.77900465586
 10
900.6042939287238
 20
1589.902050720834
 10
900.4516879941199
 20
1590.031302783389
 10
900.3043728319106
 20
1590.166554067798
 10
900.1625841149296
 20
1590.307588200858
 10
900.0265486748773
 20
1590.454179558042
 10
899.8964841394389
 20
1590.606093624449
 10
899.7725985841251
 20
1590.763087369979
 10
899.6550901993972
 20
1590.924909638131
 10
899.5441469736034
 20
1591.091301547794
 10
899.4399463922386
 20
1591.26199690741
 10
899.3426551540041
 20
1591.436722640815
 10
899.3413460743443
 20
1591.439190047783
  0
LWPOLYLINE
  5
1A3
330
87
100
AcDbEntity
  8
P-SANR-FIXT
100
AcDbPolyline
 90
       18
 70
   128
 43
0.0
 10
993.7676753446421
 20
1614.092359648417
 10
993.6199442347877
 20
1613.720668665225
 10
993.4871949690055
 20
1613.343367326454
 10
993.3696399178018
 20
1612.961059233758
 10
993.2674671441814
 20
1612.574355998531
 10
993.1808401027867
 20
1612.183876263457
 10
993.1098973784045
 20
1611.790244712814
 10
993.05475246426
 20
1611.394091073113
 10
993.0154935804521
 20
1610.996049105669
 10
992.9921835328206
 20
1610.596755592719
 10
992.9848596124687
 20
1610.196849318705
 10
992.9935335361065
 20
1609.796970048359
 10
993.018191427307
 20
1609.397757503208
 10
993.0587938387041
 20
1608.999850338164
 10
993.1152758151009
 20
1608.603885119809
 10
993.1875469973842
 20
1608.210495308025
 10
993.275491767079
 20
1607.820310242591
 10
993.3255871036211
 20
1607.625538409607
  0
LWPOLYLINE
  5
1A4
330
87
100
AcDbEntity
  8
P-SANR-FIXT
100
AcDbPolyline
 90
       18
 70
   128
 43
0.0
 10
905.0541366460263
 20
1583.973274544771
 10
904.9429102567971
 20
1584.357471575138
 10
904.8164090533751
 20
1584.736913419612
 10
904.6748354106998
 20
1585.110993052182
 10
904.5184158163992
 20
1585.479112025237
 10
904.3474005084563
 20
1585.840681426948
 10
904.1620630748822
 20
1586.195122823403
 10
903.9627000160344
 20
1586.541869183976
 10
903.7496302702784
 20
1586.880365788461
 10
903.523194703755
 20
1587.2100711145
 10
903.2837555650669
 20
1587.530457703902
 10
903.0316959057584
 20
1587.841013006471
 10
902.7674189675147
 20
1588.141240199971
 10
902.4913475370608
 20
1588.430658984937
 10
902.2039232697933
 20
1588.708806353054
 10
901.9056059832255
 20
1588.975237327866
 10
901.5968729213792
 20
1589.22952567665
 10
901.4378663791829
 20
1589.352661898802
  0
LINE
  5
1A5
330
87
100
AcDbEntity
  8
P-SANR-FIXT
100
AcDbLine
 10
905.0541366460263
 20
1583.973274544771
 30
0.0
 11
909.2087374793813
 21
1571.90743761214
 31
0.0
  0
LINE
  5
1A6
330
87
100
AcDbEntity
  8
P-SANR-FIXT
100
AcDbLine
 10
995.7605157056667
 20
1595.098916691351
 30
0.0
 11
993.3255871036207
 21
1607.625538409607
 31
0.0
  0
LINE
  5
1A7
330
87
100
AcDbEntity
  8
P-SANR-FIXT
100
AcDbLine
 10
855.2264629631851
 20
1674.644855996616
 30
0.0
 11
855.6706238691173
 21
1673.807118222871
 31
0.0
  0
LINE
  5
1A8
330
87
100
AcDbEntity
  8
P-SANR-FIXT
100
AcDbLine
 10
991.1760418574873
 20
1710.115685542897
 30
0.0
 11
991.1418275985207
 21
1711.063268189635
 31
0.0
  0
LWPOLYLINE
  5
1A9
330
87
100
AcDbEntity
  8
P-SANR-FIXT
100
AcDbPolyline
 90
       28
 70
   128
 43
0.0
 10
1012.54060035952
 20
1754.561868538185
 10
1012.572272015455
 20
1754.163151126959
 10
1012.58797389364
 20
1753.763486118701
 10
1012.587680874418
 20
1753.363512892167
 10
1012.57139342656
 20
1752.963871319196
 10
1012.539137606506
 20
1752.565200741052
 10
1012.490965016688
 20
1752.168138945617
 10
1012.426952722973
 20
1751.77332114706
 10
1012.347203131376
 20
1751.381378969634
 10
1012.251843824232
 20
1750.992939437216
 10
1012.141027356089
 20
1750.608623970194
 10
1012.014931009657
 20
1750.229047391331
 10
1011.873756512191
 20
1749.854816942183
 10
1011.717729712771
 20
1749.486531311637
 10
1011.547100220993
 20
1749.124779678137
 10
1011.362141007644
 20
1748.770140767128
 10
1011.16314796801
 20
1748.423181925215
 10
1010.950439448504
 20
1748.084458212531
 10
1010.724355737383
 20
1747.754511514759
 10
1010.485258520356
 20
1747.433869676232
 10
1010.233530301964
 20
1747.12304565549
 10
1009.96957379366
 20
1746.822536704662
 10
1009.693811269547
 20
1746.532823573963
 10
1009.406683890839
 20
1746.254369742601
 10
1009.10865100009
 20
1745.987620677304
 10
1008.80018938635
 20
1745.733003119675
 10
1008.481792522397
 20
1745.49092440349
 10
1008.295019784405
 20
1745.357979829046
  0
LWPOLYLINE
  5
1AA
330
87
100
AcDbEntity
  8
P-SANR-FIXT
100
AcDbPolyline
 90
       26
 70
   128
 43
0.0
 10
1008.295019784405
 20
1745.357979829046
 10
1006.999569275458
 20
1744.419115268133
 10
1005.742699557425
 20
1743.429197495405
 10
1004.526421353739
 20
1742.389810168125
 10
1003.352680450067
 20
1741.302616084294
 10
1002.223354581469
 20
1740.169354522524
 10
1001.140250428426
 20
1738.991838459563
 10
1000.105100726532
 20
1737.771951669922
 10
999.1195614944903
 20
1736.511645712237
 10
998.1852093848347
 20
1735.212936807189
 10
997.3035391616233
 20
1733.877902611981
 10
996.4759613091333
 20
1732.508678896536
 10
995.7037997753884
 20
1731.107456126711
 10
994.9882898541231
 20
1729.676475960027
 10
994.3305762085781
 20
1728.218027659492
 10
993.731711040281
 20
1726.734444431266
 10
993.1926524057502
 20
1725.228099692036
 10
992.714262683808
 20
1723.701403272046
 10
992.2973071959583
 20
1722.156797559891
 10
991.9424529820359
 20
1720.596753595211
 10
991.6502677330852
 20
1719.02376711556
 10
991.4212188831744
 20
1717.440354563751
 10
991.2556728616024
 20
1715.849049062091
 10
991.1538945066896
 20
1714.252396359923
 10
991.116046642092
 20
1712.652950760968
 10
991.1418275985207
 20
1711.063268189635
  0
LWPOLYLINE
  5
1AB
330
87
100
AcDbEntity
  8
P-SANR-FIXT
100
AcDbPolyline
 90
       17
 70
   128
 43
0.0
 10
855.2264629631855
 20
1674.644855996616
 10
854.4489140400129
 20
1676.043096446947
 10
853.6160723684034
 20
1677.409124790321
 10
852.7292703173678
 20
1678.740755672792
 10
851.7899265810134
 20
1680.035858769013
 10
850.7995439089357
 20
1681.292362190306
 10
849.75970670214
 20
1682.508255799234
 10
848.6720784783368
 20
1683.681594425402
 10
847.5383992106692
 20
1684.810500977306
 10
846.3604825441269
 20
1685.893169445283
 10
845.1402128941007
 20
1686.927867790742
 10
843.8795424317206
 20
1687.912940717054
 10
842.5804879607975
 20
1688.846812317675
 10
841.2451276913682
 20
1689.727988597258
 10
839.8755979150017
 20
1690.55505986173
 10
838.47408958719
 20
1691.326702973502
 10
838.0537464060576
 20
1691.536686047648
  0
LWPOLYLINE
  5
1AC
330
87
100
AcDbEntity
  8
P-SANR-FIXT
100
AcDbPolyline
 90
       26
 70
   128
 43
0.0
 10
1012.250219757543
 20
1801.501266246822
 10
1011.94902530044
 20
1801.238092223
 10
1011.658595920765
 20
1800.963084144526
 10
1011.37939624357
 20
1800.676681965661
 10
1011.11187292878
 20
1800.379343868794
 10
1010.856453956629
 20
1800.071545531453
 10
1010.613547942986
 20
1799.753779365317
 10
1010.383543485657
 20
1799.426553728465
 10
1010.166808542708
 20
1799.090392112112
 10
1009.963689843813
 20
1798.745832303134
 10
1009.774512335561
 20
1798.393425523721
 10
1009.599578661609
 20
1798.033735549546
 10
1009.439168678518
 20
1797.667337807837
 10
1009.293539008043
 20
1797.29481845682
 10
1009.16292262659
 20
1796.916773447992
 10
1009.047528492506
 20
1796.533807572718
 10
1008.94754121179
 20
1796.146533494707
 10
1008.863120742761
 20
1795.755570769869
 10
1008.794402140161
 20
1795.361544855161
 10
1008.741495339095
 20
1794.965086107994
 10
1008.704484979159
 20
1794.566828777789
 10
1008.683430269032
 20
1794.167409991318
 10
1008.678364891761
 20
1793.767468733435
 10
1008.689296950867
 20
1793.367644824835
 10
1008.71620895739
 20
1792.968577898481
 10
1008.727325495206
 20
1792.84977728665
  0
LWPOLYLINE
  5
1AD
330
87
100
AcDbEntity
  8
P-SANR-FIXT
100
AcDbPolyline
 90
       26
 70
   128
 43
0.0
 10
799.1037204979501
 20
1736.681301613135
 10
798.9317902509567
 20
1737.042436848156
 10
798.7455559722226
 20
1737.396407837404
 10
798.5453155968665
 20
1737.742648302805
 10
798.3313894667725
 20
1738.080604333477
 10
798.1041198181145
 20
1738.409735271863
 10
797.8638702338481
 20
1738.729514578674
 10
797.6110250620578
 20
1739.039430675234
 10
797.3459888010811
 20
1739.3389877619
 10
797.0691854523977
 20
1739.627706611236
 10
796.7810578423169
 20
1739.905125334674
 10
796.4820669135511
 20
1740.170800121434
 10
796.1726909878048
 20
1740.424305948533
 10
795.8534250005627
 20
1740.665237260725
 10
795.524779709298
 20
1740.893208619307
 10
795.1872808763692
 20
1741.107855318737
 10
794.8414684279132
 20
1741.308833970084
 10
794.4878955900783
 20
1741.49582305038
 10
794.1271280039799
 20
1741.668523416984
 10
793.7597428207964
 20
1741.826658786151
 10
793.3863277784492
 20
1741.969976175024
 10
793.007480261349
 20
1742.098246306354
 10
792.6238063447063
 20
1742.211263975293
 10
792.2359198249414
 20
1742.30884837768
 10
791.8444412377417
 20
1742.390843399288
 10
791.7270600918345
 20
1742.412263702036
  0
LINE
  5
1AE
330
87
100
AcDbEntity
  8
P-SANR-FIXT
100
AcDbLine
 10
778.6179461902277
 20
1752.860433402894
 30
0.0
 11
779.5504998872664
 21
1749.380095624759
 31
0.0
  0
LINE
  5
1AF
330
87
100
AcDbEntity
  8
P-SANR-FIXT
100
AcDbLine
 10
1019.311514264048
 20
1813.623865803483
 30
0.0
 11
1018.37896056701
 21
1817.104203581618
 31
0.0
  0
LINE
  5
1B0
330
87
100
AcDbEntity
  8
P-SANR-FIXT
100
AcDbLine
 10
782.4482773661338
 20
1750.156552760066
 30
0.0
 11
783.2247345014411
 21
1747.258775281199
 31
0.0
  0
LINE
  5
1B1
330
87
100
AcDbEntity
  8
P-SANR-FIXT
100
AcDbLine
 10
1017.190193920488
 20
1809.949631189309
 30
0.0
 11
1016.413736785181
 21
1812.847408668176
 31
0.0
  0
LWPOLYLINE
  5
1B2
330
87
100
AcDbEntity
  8
P-SANR-FIXT
100
AcDbPolyline
 90
       20
 70
   128
 43
0.0
 10
930.8281691672528
 20
1845.54306834729
 10
930.8837823618674
 20
1845.350969832107
 10
930.9470329635784
 20
1845.16124890987
 10
931.0178197849159
 20
1844.974209093584
 10
931.0960295820663
 20
1844.790149607057
 10
931.181537236038
 20
1844.609364906202
 10
931.2742059528249
 20
1844.432144207974
 10
931.3738874822488
 20
1844.258771027687
 10
931.4804223551266
 20
1844.089522725445
 10
931.5936401383885
 20
1843.924670062426
 10
931.7133597077328
 20
1843.764476767725
 10
931.8393895373869
 20
1843.609199116441
 10
931.9715280065087
 20
1843.45908551969
 10
932.1095637217357
 20
1843.314376127207
 10
932.2532758553695
 20
1843.175302443149
 10
932.4024344986533
 20
1843.042086955743
 10
932.5568010295764
 20
1842.914942781351
 10
932.7161284946194
 20
1842.794073323529
 10
932.8801620038262
 20
1842.679671947627
 10
933.0082019775321
 20
1842.596923092021
  0
LWPOLYLINE
  5
1B3
330
87
100
AcDbEntity
  8
P-SANR-FIXT
100
AcDbPolyline
 90
       20
 70
   128
 43
0.0
 10
839.8048321138626
 20
1817.623155405192
 10
839.8951700704483
 20
1817.801575472872
 10
839.978300866592
 20
1817.983465378264
 10
840.0540915107539
 20
1818.16853413632
 10
840.1224207540709
 20
1818.356485676508
 10
840.1831792843298
 20
1818.547019316456
 10
840.2362699008435
 20
1818.739830242986
 10
840.2816076699506
 20
1818.934609999746
 10
840.3191200608926
 20
1819.131046980676
 10
840.3487470618459
 20
1819.328826928511
 10
840.3704412759291
 20
1819.527633437525
 10
840.3841679970275
 20
1819.727148459714
 10
840.3899052653155
 20
1819.927052813603
 10
840.3876439023878
 20
1820.127026694869
 10
840.3773875259426
 20
1820.326750187962
 10
840.3591525439944
 20
1820.525903777898
 10
840.3329681286246
 20
1820.724168861418
 10
840.2988761693114
 20
1820.921228256681
 10
840.256931205918
 20
1821.116766710692
 10
840.2197232810133
 20
1821.264608444634
  0
LINE
  5
1B4
330
87
100
AcDbEntity
  8
P-SANR-FIXT
100
AcDbLine
 10
925.2502410993061
 20
1866.360179297832
 30
0.0
 11
915.087889576438
 21
1865.649558453989
 31
0.0
  0
LINE
  5
1B5
330
87
100
AcDbEntity
  8
P-SANR-FIXT
100
AcDbLine
 10
823.9340327137256
 20
1801.782211471805
 30
0.0
 11
825.6626964901318
 21
1803.481019781461
 31
0.0
  0
LINE
  5
1B6
330
87
100
AcDbEntity
  8
P-SANR-FIXT
100
AcDbLine
 10
952.3267185033137
 20
1837.42054218997
 30
0.0
 11
954.2499456293059
 21
1836.923128536532
 31
0.0
  0
LWPOLYLINE
  5
1B7
330
87
100
AcDbEntity
  8
P-SANR-FIXT
100
AcDbPolyline
 90
        3
 70
   128
 43
0.0
 10
971.5777941251152
 20
1832.441542191353
 10
972.7184006407426
 20
1832.146541540413
 10
974.7823469287387
 20
1831.169118700526
  0
LWPOLYLINE
  5
1B8
330
87
100
AcDbEntity
  8
P-SANR-FIXT
100
AcDbPolyline
 90
        3
 70
   128
 43
0.0
 10
982.2104395493765
 20
1827.651397611355
 10
985.0376190454802
 20
1826.312530496439
 10
991.9469481639833
 20
1822.814683777965
  0
LWPOLYLINE
  5
1B9
330
87
100
AcDbEntity
  8
P-SANR-FIXT
100
AcDbPolyline
 90
        4
 70
   128
 43
0.0
 10
991.9469481639834
 20
1822.814683777965
 10
985.0376190454804
 20
1826.312530496439
 10
972.7184006407426
 20
1832.146541540413
 10
952.3267185033137
 20
1837.42054218997
  0
LINE
  5
1BA
330
87
100
AcDbEntity
  8
P-SANR-FIXT
100
AcDbLine
 10
825.6626964901318
 20
1803.481019781461
 30
0.0
 11
815.2701157626552
 21
1793.26792760034
 31
0.0
  0
LINE
  5
1BB
330
87
100
AcDbEntity
  8
P-SANR-FIXT
100
AcDbLine
 10
915.0878895764376
 20
1865.649558453989
 30
0.0
 11
914.6539323781205
 21
1867.269108766419
 31
0.0
  0
LINE
  5
1BC
330
87
100
AcDbEntity
  8
P-SANR-FIXT
100
AcDbLine
 10
933.0082019775307
 20
1842.59692309202
 30
0.0
 11
839.804832113861
 21
1817.623155405191
 31
0.0
  0
LINE
  5
1BD
330
87
100
AcDbEntity
  8
P-SANR-FIXT
100
AcDbLine
 10
925.2502410993045
 20
1866.360179297832
 30
0.0
 11
835.1086351288421
 21
1842.206808773602
 31
0.0
  0
LINE
  5
1BE
330
87
100
AcDbEntity
  8
P-SANR-FIXT
100
AcDbLine
 10
899.9546936146385
 20
2123.254805641483
 30
0.0
 11
895.412529243006
 21
2122.037736366215
 31
0.0
  0
LINE
  5
1BF
330
87
100
AcDbEntity
  8
P-SANR-FIXT
100
AcDbLine
 10
895.412529243006
 20
2122.037736366215
 30
0.0
 11
867.9853012539034
 21
2114.688632775911
 31
0.0
  0
LINE
  5
1C0
330
87
100
AcDbEntity
  8
P-SANR-FIXT
100
AcDbLine
 10
867.9853012539034
 20
2114.688632775911
 30
0.0
 11
811.1752638878154
 21
2099.466429141686
 31
0.0
  0
LINE
  5
1C1
330
87
100
AcDbEntity
  8
P-SANR-FIXT
100
AcDbLine
 10
811.1752638878154
 20
2099.466429141686
 30
0.0
 11
756.3455495166334
 21
2084.774851454699
 31
0.0
  0
LINE
  5
1C2
330
87
100
AcDbEntity
  8
P-SANR-FIXT
100
AcDbLine
 10
756.3455495166334
 20
2084.774851454699
 30
0.0
 11
727.1839941640071
 21
2076.961036247927
 31
0.0
  0
LINE
  5
1C3
330
87
100
AcDbEntity
  8
P-SANR-FIXT
100
AcDbLine
 10
727.1839941640069
 20
2076.961036247927
 30
0.0
 11
722.0255252453632
 21
2075.578828666995
 31
0.0
  0
LINE
  5
1C4
330
87
100
AcDbEntity
  8
P-SANR-FIXT
100
AcDbLine
 10
888.0032025995488
 20
2149.689719849471
 30
0.0
 11
895.412529243006
 21
2122.037736366215
 31
0.0
  0
LINE
  5
1C5
330
87
100
AcDbEntity
  8
P-SANR-FIXT
100
AcDbLine
 10
719.7746675205499
 20
2104.613019731183
 30
0.0
 11
727.1839941640071
 21
2076.961036247927
 31
0.0
  0
LINE
  5
1C6
330
87
100
AcDbEntity
  8
P-SANR-FIXT
100
AcDbLine
 10
860.575974610446
 20
2142.340616259167
 30
0.0
 11
867.985301253903
 21
2114.68863277591
 31
0.0
  0
LINE
  5
1C7
330
87
100
AcDbEntity
  8
P-SANR-FIXT
100
AcDbLine
 10
899.9546936146385
 20
2123.254805641483
 30
0.0
 11
892.5453669711812
 21
2150.90678912474
 31
0.0
  0
LINE
  5
1C8
330
87
100
AcDbEntity
  8
P-SANR-FIXT
100
AcDbLine
 10
722.0255252453632
 20
2075.578828666995
 30
0.0
 11
714.616198601906
 21
2103.230812150252
 31
0.0
  0
LINE
  5
1C9
330
87
100
AcDbEntity
  8
P-SANR-FIXT
100
AcDbLine
 10
756.3455495166334
 20
2084.774851454699
 30
0.0
 11
748.9362228731761
 21
2112.426834937955
 31
0.0
  0
LINE
  5
1CA
330
87
100
AcDbEntity
  8
P-SANR-FIXT
100
AcDbLine
 10
811.1752638878154
 20
2099.466429141686
 30
0.0
 11
803.7659372443583
 21
2127.118412624942
 31
0.0
  0
LINE
  5
1CB
330
87
100
AcDbEntity
  8
P-SANR-FIXT
100
AcDbLine
 10
991.9469481639815
 20
1822.814683777964
 30
0.0
 11
799.2402433846124
 21
1771.179077856269
 31
0.0
  0
LINE
  5
1CC
330
87
100
AcDbEntity
  8
P-SANR-FIXT
100
AcDbLine
 10
787.828027941655
 20
1758.920379327289
 30
0.0
 11
1007.372822837141
 21
1817.747229821991
 31
0.0
  0
LINE
  5
1CD
330
87
100
AcDbEntity
  8
P-SANR-FIXT
100
AcDbLine
 10
1020.087971399355
 20
1810.726088324616
 30
0.0
 11
780.3269570225716
 21
1746.482318145891
 31
0.0
  0
LINE
  5
1CE
330
87
100
AcDbEntity
  8
P-SANR-FIXT
100
AcDbLine
 10
780.9062789244373
 20
1744.320259374189
 30
0.0
 11
1020.667293301221
 21
1808.564029552915
 31
0.0
  0
LINE
  5
1CF
330
87
100
AcDbEntity
  8
P-SANR-FIXT
100
AcDbLine
 10
901.4378663791811
 20
1589.352661898802
 30
0.0
 11
993.7676753446405
 21
1614.092359648416
 31
0.0
  0
LINE
  5
1D0
330
87
100
AcDbEntity
  8
P-SANR-FIXT
100
AcDbLine
 10
905.0541366460249
 20
1583.97327454477
 30
0.0
 11
993.3255871036193
 21
1607.625538409606
 31
0.0
  0
LINE
  5
1D1
330
87
100
AcDbEntity
  8
P-SANR-FIXT
100
AcDbLine
 10
909.2087374793797
 20
1571.90743761214
 30
0.0
 11
995.7605157056651
 21
1595.09891669135
 31
0.0
  0
LINE
  5
1D2
330
87
100
AcDbEntity
  8
P-SANR-FIXT
100
AcDbLine
 10
778.6179461902263
 20
1752.860433402893
 30
0.0
 11
1018.378960567008
 21
1817.104203581618
 31
0.0
  0
LINE
  5
1D3
330
87
100
AcDbEntity
  8
P-SANR-FIXT
100
AcDbLine
 10
779.5504998872648
 20
1749.380095624758
 30
0.0
 11
1019.311514264046
 21
1813.623865803483
 31
0.0
  0
LINE
  5
1D4
330
87
100
AcDbEntity
  8
P-SANR-FIXT
100
AcDbLine
 10
915.0878895764362
 20
1865.649558453988
 30
0.0
 11
845.1330573056569
 21
1846.905217640378
 31
0.0
  0
LINE
  5
1D5
330
87
100
AcDbEntity
  8
P-SANR-FIXT
100
AcDbLine
 10
719.7746675205499
 20
2104.613019731183
 30
0.0
 11
714.616198601906
 21
2103.230812150252
 31
0.0
  0
LINE
  5
1D6
330
87
100
AcDbEntity
  8
P-SANR-FIXT
100
AcDbLine
 10
748.9362228731761
 20
2112.426834937955
 30
0.0
 11
719.7746675205499
 21
2104.613019731183
 31
0.0
  0
LINE
  5
1D7
330
87
100
AcDbEntity
  8
P-SANR-FIXT
100
AcDbLine
 10
803.7659372443583
 20
2127.118412624942
 30
0.0
 11
748.9362228731761
 21
2112.426834937955
 31
0.0
  0
LINE
  5
1D8
330
87
100
AcDbEntity
  8
P-SANR-FIXT
100
AcDbLine
 10
860.5759746104462
 20
2142.340616259167
 30
0.0
 11
803.7659372443583
 21
2127.118412624942
 31
0.0
  0
LINE
  5
1D9
330
87
100
AcDbEntity
  8
P-SANR-FIXT
100
AcDbLine
 10
888.0032025995488
 20
2149.689719849471
 30
0.0
 11
860.5759746104462
 21
2142.340616259167
 31
0.0
  0
LINE
  5
1DA
330
87
100
AcDbEntity
  8
P-SANR-FIXT
100
AcDbLine
 10
892.5453669711812
 20
2150.90678912474
 30
0.0
 11
888.0032025995488
 21
2149.689719849471
 31
0.0
  0
LINE
  5
1DB
330
87
100
AcDbEntity
  8
P-SANR-FIXT
100
AcDbLine
 10
825.66269649013
 20
1803.48101978146
 30
0.0
 11
952.3267185033121
 21
1837.42054218997
 31
0.0
  0
ENDBLK
  5
1DD
330
87
100
AcDbEntity
  8
0
100
AcDbBlockEnd
  0
BLOCK
  5
2A8
330
1DF
100
AcDbEntity
  8
0
100
AcDbBlockBegin
  2
Automatic flow rate regulator valve_Caleffi_121 DN15 - 1_2__-V1-Est - Idraulica
 70
     0
 10
0.0
 20
0.0
 30
0.0
  3
Automatic flow rate regulator valve_Caleffi_121 DN15 - 1_2__-V1-Est - Idraulica
  1

  0
LINE
  5
1E0
330
1DF
100
AcDbEntity
  8
P-SANR-FIXT
100
AcDbLine
 10
719.2262354790129
 20
1177.195306765441
 30
0.0
 11
680.6664074431954
 21
1171.608235993463
 31
0.0
  0
LINE
  5
1E1
330
1DF
100
AcDbEntity
  8
P-SANR-FIXT
100
AcDbLine
 10
719.1674594219079
 20
1286.029681493664
 30
0.0
 11
680.6664074431958
 21
1291.608235993463
 31
0.0
  0
LWPOLYLINE
  5
1E2
330
1DF
100
AcDbEntity
  8
P-SANR-FIXT
100
AcDbPolyline
 90
        5
 70
   128
 43
0.0
 10
909.9340428333029
 20
1183.961798718181
 10
940.9403885914457
 20
1181.141641174766
 10
977.5851331624032
 20
1178.962755837567
 10
1005.3176322421
 20
1177.696290468428
 10
1035.59247512645
 20
1176.545029634671
  0
LWPOLYLINE
  5
1E3
330
1DF
100
AcDbEntity
  8
P-SANR-FIXT
100
AcDbPolyline
 90
        5
 70
   128
 43
0.0
 10
910.3129881332177
 20
1278.942237913411
 10
940.9403885913917
 20
1281.727928788147
 10
977.5851331623536
 20
1283.906814125347
 10
1005.317632242068
 20
1285.173279494486
 10
1035.592475126451
 20
1286.324540328245
  0
LINE
  5
1E4
330
1DF
100
AcDbEntity
  8
P-SANR-FIXT
100
AcDbLine
 10
1057.66640744318
 20
1356.747075844251
 30
0.0
 11
1035.592475126451
 21
1356.747075844251
 31
0.0
  0
LINE
  5
1E5
330
1DF
100
AcDbEntity
  8
P-SANR-FIXT
100
AcDbLine
 10
1035.59247512645
 20
1106.747075844238
 30
0.0
 11
1057.666407443179
 21
1106.747075844238
 31
0.0
  0
LINE
  5
1E6
330
1DF
100
AcDbEntity
  8
P-SANR-FIXT
100
AcDbLine
 10
1060.666407443174
 20
1330.015025036685
 30
0.0
 11
1057.66640744318
 21
1331.747075844251
 31
0.0
  0
LINE
  5
1E7
330
1DF
100
AcDbEntity
  8
P-SANR-FIXT
100
AcDbLine
 10
1057.666407443179
 20
1131.747075844238
 30
0.0
 11
1060.666407443173
 21
1133.479126651804
 31
0.0
  0
LINE
  5
1E8
330
1DF
100
AcDbEntity
  8
P-SANR-FIXT
100
AcDbLine
 10
663.6664074431963
 20
1331.747075844246
 30
0.0
 11
660.6664074432028
 21
1330.01502503668
 31
0.0
  0
LINE
  5
1E9
330
1DF
100
AcDbEntity
  8
P-SANR-FIXT
100
AcDbLine
 10
660.6664074432017
 20
1133.479126651813
 30
0.0
 11
663.666407443195
 21
1131.747075844248
 31
0.0
  0
LINE
  5
1EA
330
1DF
100
AcDbEntity
  8
P-SANR-FIXT
100
AcDbLine
 10
680.6664074431964
 20
1356.747075844251
 30
0.0
 11
663.6664074431963
 21
1356.747075844252
 31
0.0
  0
LINE
  5
1EB
330
1DF
100
AcDbEntity
  8
P-SANR-FIXT
100
AcDbLine
 10
663.666407443195
 20
1106.747075844241
 30
0.0
 11
680.666407443195
 21
1106.747075844241
 31
0.0
  0
LINE
  5
1EC
330
1DF
100
AcDbEntity
  8
P-SANR-FIXT
100
AcDbLine
 10
1035.592475126449
 20
1244.916877153471
 30
0.0
 11
1035.592475126449
 21
1356.747075844251
 31
0.0
  0
LINE
  5
1ED
330
1DF
100
AcDbEntity
  8
P-SANR-FIXT
100
AcDbLine
 10
1035.592475126448
 20
1106.747075844238
 30
0.0
 11
1035.592475126449
 21
1218.577274535022
 31
0.0
  0
LINE
  5
1EE
330
1DF
100
AcDbEntity
  8
P-SANR-FIXT
100
AcDbLine
 10
1057.666407443178
 20
1231.747075844243
 30
0.0
 11
1057.666407443178
 21
1356.747075844251
 31
0.0
  0
LINE
  5
1EF
330
1DF
100
AcDbEntity
  8
P-SANR-FIXT
100
AcDbLine
 10
1057.666407443177
 20
1106.747075844238
 30
0.0
 11
1057.666407443178
 21
1231.747075844243
 31
0.0
  0
LINE
  5
1F0
330
1DF
100
AcDbEntity
  8
P-SANR-FIXT
100
AcDbLine
 10
1060.666407443172
 20
1231.747075844243
 30
0.0
 11
1060.666407443172
 21
1330.015025036685
 31
0.0
  0
LINE
  5
1F1
330
1DF
100
AcDbEntity
  8
P-SANR-FIXT
100
AcDbLine
 10
1060.666407443171
 20
1133.479126651804
 30
0.0
 11
1060.666407443172
 21
1231.747075844243
 31
0.0
  0
LINE
  5
1F2
330
1DF
100
AcDbEntity
  8
P-SANR-FIXT
100
AcDbLine
 10
660.6664074432009
 20
1231.747075844245
 30
0.0
 11
660.6664074432013
 21
1330.01502503668
 31
0.0
  0
LINE
  5
1F3
330
1DF
100
AcDbEntity
  8
P-SANR-FIXT
100
AcDbLine
 10
660.6664074432003
 20
1133.479126651813
 30
0.0
 11
660.6664074432009
 21
1231.747075844245
 31
0.0
  0
LINE
  5
1F4
330
1DF
100
AcDbEntity
  8
P-SANR-FIXT
100
AcDbLine
 10
663.6664074431944
 20
1231.747075844245
 30
0.0
 11
663.666407443195
 21
1356.747075844251
 31
0.0
  0
LINE
  5
1F5
330
1DF
100
AcDbEntity
  8
P-SANR-FIXT
100
AcDbLine
 10
663.6664074431938
 20
1106.747075844241
 30
0.0
 11
663.6664074431944
 21
1231.747075844245
 31
0.0
  0
LINE
  5
1F6
330
1DF
100
AcDbEntity
  8
P-SANR-FIXT
100
AcDbLine
 10
680.6664074431944
 20
1245.041694519555
 30
0.0
 11
680.666407443195
 21
1356.747075844251
 31
0.0
  0
LINE
  5
1F7
330
1DF
100
AcDbEntity
  8
P-SANR-FIXT
100
AcDbLine
 10
680.6664074431937
 20
1106.747075844241
 30
0.0
 11
680.6664074431944
 21
1218.452457168942
 31
0.0
  0
LINE
  5
1F8
330
1DF
100
AcDbEntity
  8
P-SANR-FIXT
100
AcDbLine
 10
691.2566641946944
 20
1223.747075844255
 30
0.0
 11
715.2922590787646
 21
1223.747075844255
 31
0.0
  0
LINE
  5
1F9
330
1DF
100
AcDbEntity
  8
P-SANR-FIXT
100
AcDbLine
 10
950.981496374932
 20
1223.747075844253
 30
0.0
 11
1006.005597738003
 21
1223.747075844253
 31
0.0
  0
LINE
  5
1FA
330
1DF
100
AcDbEntity
  8
P-SANR-FIXT
100
AcDbLine
 10
1006.005597738003
 20
1239.747075844253
 30
0.0
 11
950.9814963749317
 21
1239.747075844253
 31
0.0
  0
LINE
  5
1FB
330
1DF
100
AcDbEntity
  8
P-SANR-FIXT
100
AcDbLine
 10
715.2869491328442
 20
1239.747075844255
 30
0.0
 11
691.2566641946847
 21
1239.747075844255
 31
0.0
  0
LINE
  5
1FC
330
1DF
100
AcDbEntity
  8
P-SANR-FIXT
100
AcDbLine
 10
946.188413421167
 20
1221.747075844254
 30
0.0
 11
977.2446739747969
 21
1221.747075844253
 31
0.0
  0
LINE
  5
1FD
330
1DF
100
AcDbEntity
  8
P-SANR-FIXT
100
AcDbLine
 10
977.3318504894504
 20
1241.747075844253
 30
0.0
 11
946.1884134211668
 21
1241.747075844253
 31
0.0
  0
LWPOLYLINE
  5
1FE
330
1DF
100
AcDbEntity
  8
P-SANR-FIXT
100
AcDbPolyline
 90
       17
 70
   128
 43
0.0
 10
921.4916167277388
 20
1252.258051000668
 10
920.7134805376322
 20
1255.340476724429
 10
919.7371578715115
 20
1258.659298483127
 10
918.6331837238638
 20
1261.9357489042
 10
917.4032406787389
 20
1265.164643471616
 10
916.049206437567
 20
1268.340863930518
 10
914.5731519500154
 20
1271.459365756627
 10
912.9773393211715
 20
1274.515185629079
 10
911.264219486587
 20
1277.503448905494
 10
909.4364296455992
 20
1280.419377097254
 10
907.4967904421978
 20
1283.258295341918
 10
905.4483028816056
 20
1286.015639868395
 10
903.2941449697309
 20
1288.686965448972
 10
901.0376680617676
 20
1291.267952830409
 10
898.6823929055256
 20
1293.754416134266
 10
896.2320053646553
 20
1296.142310214231
 10
894.3714273566111
 20
1297.815322093229
  0
LWPOLYLINE
  5
1FF
330
1DF
100
AcDbEntity
  8
P-SANR-FIXT
100
AcDbPolyline
 90
       19
 70
   128
 43
0.0
 10
892.3369094241461
 20
1163.932796908917
 10
892.7036071707735
 20
1164.227431510249
 10
895.2788275143882
 20
1166.473020580637
 10
897.7642811988758
 20
1168.822513433936
 10
900.1560622769792
 20
1171.272070977461
 10
902.4504234660978
 20
1173.81770333786
 10
904.6437808910599
 20
1176.455277134246
 10
906.7327184861923
 20
1179.180522815481
 10
908.7139920716031
 20
1181.989042045779
 10
910.5845331186026
 20
1184.87631512542
 10
912.3414522188738
 20
1187.837708435853
 10
913.9820422714075
 20
1190.868481900684
 10
915.5037814003923
 20
1193.963796455935
 10
916.9043356162937
 20
1197.118721524661
 10
918.1815612312702
 20
1200.328242492391
 10
919.3335070389535
 20
1203.587268180988
 10
920.3584162674783
 20
1206.890638319459
 10
921.2547283135158
 20
1210.233131010898
 10
921.4839365695755
 20
1211.242960523108
  0
LWPOLYLINE
  5
200
330
1DF
100
AcDbEntity
  8
P-SANR-FIXT
100
AcDbPolyline
 90
       41
 70
   128
 43
0.0
 10
789.392181000649
 20
1274.75138182892
 10
787.7282943578085
 20
1274.716925615083
 10
786.067083790603
 20
1274.613612979979
 10
784.4112208649104
 20
1274.44161183801
 10
782.7633681386564
 20
1274.201201697597
 10
781.1261746866136
 20
1273.892773139561
 10
779.5022716593663
 20
1273.516827090284
 10
777.8942678872383
 20
1273.073973893019
 10
776.3047455395017
 20
1272.564932181519
 10
774.7362558486072
 20
1271.990527560911
 10
773.1913149085439
 20
1271.351691101379
 10
771.6723995557364
 20
1270.649457650758
 10
770.1819433401641
 20
1269.88496397257
 10
768.722332593655
 20
1269.059446716346
 10
767.2959026015718
 20
1268.174240227291
 10
765.9049338834047
 20
1267.230774202481
 10
764.5516485871191
 20
1266.230571200767
 10
763.2382070014829
 20
1265.175244013578
 10
761.9667041900386
 20
1264.066492903629
 10
760.7391667498894
 20
1262.906102718467
 10
759.5575496980236
 20
1261.695939885516
 10
758.4237334875468
 20
1260.437949295132
 10
757.3395211558659
 20
1259.134151077922
 10
756.3066356066359
 20
1257.78663728237
 10
755.3267170270679
 20
1256.397568458599
 10
754.4013204420517
 20
1254.969170153918
 10
753.531913406424
 20
1253.503729325599
 10
752.7198738366333
 20
1252.00359067621
 10
751.9664879829779
 20
1250.471152916697
 10
751.2729485435537
 20
1248.908864962318
 10
750.6403529209994
 20
1247.319222066451
 10
750.0697016230956
 20
1245.70476189728
 10
749.5618968082243
 20
1244.068060562317
 10
749.1177409766639
 20
1242.411728585721
 10
748.7379358086218
 20
1240.738406843412
 10
748.4230811498622
 20
1239.050762460946
 10
748.1736741456914
 20
1237.351484679205
 10
747.9901085239909
 20
1235.643280692956
 10
747.8726740278763
 20
1233.928871467364
 10
747.8215559984597
 20
1232.210987537603
 10
747.8191370347039
 20
1231.747075844243
  0
LWPOLYLINE
  5
201
330
1DF
100
AcDbEntity
  8
P-SANR-FIXT
100
AcDbPolyline
 90
       41
 70
   128
 43
0.0
 10
747.8191370347039
 20
1231.747075844243
 10
747.8523375129348
 20
1230.028722815215
 10
747.9518865524434
 20
1228.3131064025
 10
748.1176270430738
 20
1226.602959002789
 10
748.3492973858233
 20
1224.901004578717
 10
748.6465318695021
 20
1223.209954454783
 10
749.0088611976002
 20
1221.532503128804
 10
749.435713164924
 20
1219.871324104014
 10
749.9264134834434
 20
1218.229065746937
 10
750.480186756695
 20
1216.608347176072
 10
751.0961576019917
 20
1215.011754186465
 10
751.7733519196101
 20
1213.441835215147
 10
752.5106983080625
 20
1211.901097352423
 10
753.3070296244954
 20
1210.392002403992
 10
754.1610846892197
 20
1208.916963008845
 10
755.0715101333274
 20
1207.478338817941
 10
756.0368623883135
 20
1206.07843273866
 10
757.0556098165837
 20
1204.71948725013
 10
758.1261349816822
 20
1203.403680794586
 10
759.2467370570093
 20
1202.133124250042
 10
760.4156343717238
 20
1200.909857489695
 10
761.630967092412
 20
1199.735846033652
 10
762.8908000389677
 20
1198.612977798753
 10
764.1931256329366
 20
1197.543059952481
 10
765.535866976348
 20
1196.527815877151
 10
766.9168810587564
 20
1195.568882250814
 10
768.3339620898749
 20
1194.667806251521
 10
769.7848449547531
 20
1193.826042891772
 10
771.2672087879775
 20
1193.044952490188
 10
772.7786806628272
 20
1192.325798287501
 10
774.3168393907069
 20
1191.669744214095
 10
775.8792194255297
 20
1191.07785281626
 10
777.4633148670241
 20
1190.551083348272
 10
779.0665835562106
 20
1190.090290037224
 10
780.6864512555644
 20
1189.696220527201
 10
782.320315905645
 20
1189.36951450906
 10
783.9655519492724
 20
1189.110702541519
 10
785.6195147136734
 20
1188.920205068669
 10
787.2795448404245
 20
1188.798331638285
 10
788.9429727525201
 20
1188.745280324536
 10
789.3921810006523
 20
1188.742769859566
  0
LINE
  5
202
330
1DF
100
AcDbEntity
  8
P-SANR-FIXT
100
AcDbLine
 10
789.9384885469493
 20
1274.75138182892
 30
0.0
 11
789.3921810006498
 21
1274.75138182892
 31
0.0
  0
LINE
  5
203
330
1DF
100
AcDbEntity
  8
P-SANR-FIXT
100
AcDbLine
 10
789.3921810006536
 20
1188.742769859566
 30
0.0
 11
789.9384885469526
 21
1188.742769859566
 31
0.0
  0
LWPOLYLINE
  5
204
330
1DF
100
AcDbEntity
  8
P-SANR-FIXT
100
AcDbPolyline
 90
       13
 70
   128
 43
0.0
 10
736.6208175591659
 20
1231.747075844244
 10
737.4236325931554
 20
1241.807742943644
 10
739.8115523091274
 20
1251.609704280316
 10
743.7228835381032
 20
1260.901407903255
 10
749.059050632147
 20
1269.453692805581
 10
755.6849398984654
 20
1277.069324543004
 10
763.5055037885551
 20
1283.616809053828
 10
772.2017168670122
 20
1288.805711071732
 10
781.6177373190064
 20
1292.571574642167
 10
791.5043779977564
 20
1294.85858835419
 10
796.3556090637073
 20
1295.44413823258
 10
802.2565357152908
 20
1295.741143452822
 10
803.6272284812875
 20
1295.751381828921
  0
LWPOLYLINE
  5
205
330
1DF
100
AcDbEntity
  8
P-SANR-FIXT
100
AcDbPolyline
 90
       12
 70
   128
 43
0.0
 10
803.627228481293
 20
1167.742769859567
 10
800.3346867070748
 20
1167.803180680512
 10
793.8778490461419
 20
1168.308193207924
 10
788.2870099290868
 20
1169.210910945592
 10
777.8746408854641
 20
1172.216698616406
 10
768.6025450170664
 20
1176.611294542
 10
760.245996219383
 20
1182.351429691354
 10
752.9100449380565
 20
1189.325910722162
 10
746.6605293724717
 20
1197.515619438142
 10
741.9017582307844
 20
1206.414032400206
 10
738.6212767576981
 20
1215.94287773566
 10
736.6208175591658
 20
1231.747075844243
  0
SPLINE
  5
206
330
1DF
100
AcDbEntity
  8
P-SANR-FIXT
100
AcDbSpline
210
0.0
220
0.0
230
1.0
 70
     8
 71
     3
 72
    22
 73
    18
 74
     0
 42
0.000000001
 43
0.0000000001
 40
0.0
 40
0.0
 40
0.0
 40
0.0
 40
0.0555555555555556
 40
0.0833333333333333
 40
0.0972222222222222
 40
0.1111111111111111
 40
0.125
 40
0.1388888888888889
 40
0.1666666666666666
 40
0.1944444444444444
 40
0.2083333333333333
 40
0.2152777777777778
 40
0.2222222222222222
 40
0.2291666666666666
 40
0.2361111111111111
 40
0.25
 40
0.2527629435061451
 40
0.2527629435061451
 40
0.2527629435061451
 40
0.2527629435061451
 10
950.9814963749303
 20
1239.747075844253
 30
0.0
 10
950.6113927327302
 20
1239.747075844253
 30
0.0
 10
950.1193020945542
 20
1239.711368004768
 30
0.0
 10
949.655303198147
 20
1239.586385224635
 30
0.0
 10
949.4219133234786
 20
1239.488085988448
 30
0.0
 10
949.2619406493464
 20
1239.400464197457
 30
0.0
 10
949.1203367964025
 20
1239.297150396751
 30
0.0
 10
948.9578119192792
 20
1239.13630629081
 30
0.0
 10
948.7969819415575
 20
1238.891912277685
 30
0.0
 10
948.6801150376498
 20
1238.591899762905
 30
0.0
 10
948.6143117605928
 20
1238.356933830548
 30
0.0
 10
948.5804974743668
 20
1238.216380149499
 30
0.0
 10
948.5562579111077
 20
1238.108238142112
 30
0.0
 10
948.5350492399213
 20
1237.99693491351
 30
0.0
 10
948.5131592001392
 20
1237.843462663479
 30
0.0
 10
948.5011334790776
 20
1237.707048680286
 30
0.0
 10
948.4956937401445
 20
1237.607493566339
 30
0.0
 10
948.4948707674071
 20
1237.590885548625
 30
0.0
  0
SPLINE
  5
207
330
1DF
100
AcDbEntity
  8
P-SANR-FIXT
100
AcDbSpline
210
0.0
220
0.0
230
1.0
 70
     8
 71
     3
 72
    22
 73
    18
 74
     0
 42
0.000000001
 43
0.0000000001
 40
0.7476988745272378
 40
0.7476988745272378
 40
0.7476988745272378
 40
0.7476988745272378
 40
0.75
 40
0.7638888888888889
 40
0.7708333333333333
 40
0.7777777777777778
 40
0.7847222222222224
 40
0.7916666666666668
 40
0.8055555555555555
 40
0.8333333333333332
 40
0.861111111111111
 40
0.875
 40
0.8888888888888889
 40
0.9027777777777776
 40
0.9166666666666666
 40
0.9444444444444444
 40
1.0
 40
1.0
 40
1.0
 40
1.0
 10
948.4946459208183
 20
1225.902947982277
 30
0.0
 10
948.4953431189438
 20
1225.889121447631
 30
0.0
 10
948.5006409359407
 20
1225.792275176985
 30
0.0
 10
948.5123327161579
 20
1225.658285569952
 30
0.0
 10
948.5341189854102
 20
1225.504443485984
 30
0.0
 10
948.5552609301487
 20
1225.392825665378
 30
0.0
 10
948.5794370724635
 20
1225.284325722738
 30
0.0
 10
948.6131604357517
 20
1225.143243502582
 30
0.0
 10
948.6788002456414
 20
1224.907257889668
 30
0.0
 10
948.7954418263026
 20
1224.605705413053
 30
0.0
 10
948.9561256874813
 20
1224.360040214446
 30
0.0
 10
949.1186192298126
 20
1224.198448478624
 30
0.0
 10
949.2602564722977
 20
1224.094723683179
 30
0.0
 10
949.4203126159696
 20
1224.006797972752
 30
0.0
 10
949.6538582173121
 20
1223.908172922856
 30
0.0
 10
950.1182606089633
 20
1223.782833470788
 30
0.0
 10
950.6109171584396
 20
1223.747075844254
 30
0.0
 10
950.9814963749303
 20
1223.747075844253
 30
0.0
  0
ELLIPSE
  5
208
330
1DF
100
AcDbEntity
  8
P-SANR-FIXT
100
AcDbEllipse
 10
803.6272284812888
 20
1231.747075844244
 30
0.0
 11
0.0
 21
64.00430598467735
 31
0.0
210
0.0
220
0.0
230
1.0
 40
0.9659258262890675
 41
4.712388980384685
 42
6.217735460229795
  0
ELLIPSE
  5
209
330
1DF
100
AcDbEntity
  8
P-SANR-FIXT
100
AcDbEllipse
 10
803.6272284812888
 20
1231.747075844244
 30
0.0
 11
0.0
 21
64.00430598467733
 31
0.0
210
0.0
220
0.0
230
1.0
 40
0.9659258262890679
 41
3.207042500539581
 42
4.712388980384685
  0
ELLIPSE
  5
20A
330
1DF
100
AcDbEntity
  8
P-SANR-FIXT
100
AcDbEllipse
 10
789.9384885469495
 20
1231.747075844243
 30
0.0
 11
0.0000000000067919
 21
43.0043059846771
 31
0.0
210
0.0
220
0.0
230
1.0
 40
0.9659258262890679
 41
4.712388980384836
 42
6.195918844580021
  0
ELLIPSE
  5
20B
330
1DF
100
AcDbEntity
  8
P-SANR-FIXT
100
AcDbEllipse
 10
789.9384885469495
 20
1231.747075844243
 30
0.0
 11
0.0
 21
43.00430598467692
 31
0.0
210
0.0
220
0.0
230
0.9999999999999998
 40
0.9659258262890732
 41
3.228859116189502
 42
4.712388980384685
  0
LINE
  5
20C
330
1DF
100
AcDbEntity
  8
P-SANR-FIXT
100
AcDbLine
 10
945.1151035330754
 20
1225.910570755839
 30
0.0
 11
952.9032668781992
 21
1225.910570755839
 31
0.0
  0
LINE
  5
20D
330
1DF
100
AcDbEntity
  8
P-SANR-FIXT
100
AcDbLine
 10
952.9032668781992
 20
1237.583580932668
 30
0.0
 11
945.1151035330754
 21
1237.583580932669
 31
0.0
  0
ELLIPSE
  5
20E
330
1DF
100
AcDbEntity
  8
P-SANR-FIXT
100
AcDbEllipse
 10
945.1151035330738
 20
1231.747075844254
 30
0.0
 11
0.0
 21
5.836505088414696
 31
0.0
210
0.0
220
0.0
230
1.0
 40
0.2588190451025263
 41
0.0000000000000016
 42
1.570796326794898
  0
ELLIPSE
  5
20F
330
1DF
100
AcDbEntity
  8
P-SANR-FIXT
100
AcDbEllipse
 10
952.9032668781976
 20
1231.747075844254
 30
0.0
 11
0.0
 21
5.836505088414696
 31
0.0
210
0.0
220
0.0
230
1.0
 40
0.2588190451025069
 41
1.570796326794898
 42
4.712388980384685
  0
ELLIPSE
  5
210
330
1DF
100
AcDbEntity
  8
P-SANR-FIXT
100
AcDbEllipse
 10
945.1151035330738
 20
1231.747075844254
 30
0.0
 11
0.0
 21
5.836505088414696
 31
0.0
210
0.0
220
0.0
230
1.0
 40
0.2588190451025263
 41
1.570796326794898
 42
3.141592653589788
  0
ELLIPSE
  5
211
330
1DF
100
AcDbEntity
  8
P-SANR-FIXT
100
AcDbEllipse
 10
952.9032668781976
 20
1231.747075844254
 30
0.0
 11
0.0
 21
5.836505088414468
 31
0.0
210
0.0
220
0.0
230
0.9999999999999998
 40
0.258819045102517
 41
4.712388980384685
 42
7.853981633974484
  0
LINE
  5
212
330
1DF
100
AcDbEntity
  8
P-SANR-FIXT
100
AcDbLine
 10
945.8666189983912
 20
1242.187322927931
 30
0.0
 11
939.5268730362356
 21
1248.999823314264
 31
0.0
  0
LINE
  5
213
330
1DF
100
AcDbEntity
  8
P-SANR-FIXT
100
AcDbLine
 10
939.5268730362355
 20
1214.494328374244
 30
0.0
 11
945.8666189983912
 21
1221.306828760576
 31
0.0
  0
LINE
  5
214
330
1DF
100
AcDbEntity
  8
P-SANR-FIXT
100
AcDbLine
 10
938.2849765141532
 20
1249.654648744534
 30
0.0
 11
933.455347382708
 21
1249.654648744534
 31
0.0
  0
LINE
  5
215
330
1DF
100
AcDbEntity
  8
P-SANR-FIXT
100
AcDbLine
 10
933.4553473827076
 20
1213.839502943974
 30
0.0
 11
938.2849765141532
 21
1213.839502943974
 31
0.0
  0
LINE
  5
216
330
1DF
100
AcDbEntity
  8
P-SANR-FIXT
100
AcDbLine
 10
934.5960030433682
 20
1249.654648744534
 30
0.0
 11
933.6992777082214
 21
1251.469953123857
 31
0.0
  0
LINE
  5
217
330
1DF
100
AcDbEntity
  8
P-SANR-FIXT
100
AcDbLine
 10
933.699277708221
 20
1212.024198564651
 30
0.0
 11
934.5960030433678
 21
1213.839502943974
 31
0.0
  0
LINE
  5
218
330
1DF
100
AcDbEntity
  8
P-SANR-FIXT
100
AcDbLine
 10
931.0247152215534
 20
1254.013139099642
 30
0.0
 11
924.1131198382024
 21
1254.013139099642
 31
0.0
  0
LINE
  5
219
330
1DF
100
AcDbEntity
  8
P-SANR-FIXT
100
AcDbLine
 10
924.1131198382023
 20
1209.481012588865
 30
0.0
 11
931.0247152215533
 21
1209.481012588866
 31
0.0
  0
LINE
  5
21A
330
1DF
100
AcDbEntity
  8
P-SANR-FIXT
100
AcDbLine
 10
922.8174162789787
 20
1253.44305226927
 30
0.0
 11
918.0537880444422
 21
1249.196154067802
 31
0.0
  0
LINE
  5
21B
330
1DF
100
AcDbEntity
  8
P-SANR-FIXT
100
AcDbLine
 10
918.0537880444422
 20
1214.297997620706
 30
0.0
 11
922.8174162789782
 21
1210.051099419238
 31
0.0
  0
LINE
  5
21C
330
1DF
100
AcDbEntity
  8
P-SANR-FIXT
100
AcDbLine
 10
918.5768905997591
 20
1249.654648744534
 30
0.0
 11
898.441368330349
 21
1249.654648744534
 31
0.0
  0
LINE
  5
21D
330
1DF
100
AcDbEntity
  8
P-SANR-FIXT
100
AcDbLine
 10
898.4413683303486
 20
1213.839502943974
 30
0.0
 11
918.5768905997589
 21
1213.839502943974
 31
0.0
  0
ELLIPSE
  5
21E
330
1DF
100
AcDbEntity
  8
P-SANR-FIXT
100
AcDbEllipse
 10
945.1151035330738
 20
1231.747075844254
 30
0.0
 11
0.0
 21
10.83650508841446
 31
0.0
210
0.0
220
0.0
230
1.0
 40
0.2588190451025156
 41
5.282440682335334
 42
7.853981633974484
  0
ELLIPSE
  5
21F
330
1DF
100
AcDbEntity
  8
P-SANR-FIXT
100
AcDbEllipse
 10
945.1151035330738
 20
1231.747075844254
 30
0.0
 11
0.0
 21
10.83650508841469
 31
0.0
210
0.0
220
0.0
230
1.0
 40
0.2588190451025227
 41
1.570796326794898
 42
4.142337278434027
  0
ELLIPSE
  5
220
330
1DF
100
AcDbEntity
  8
P-SANR-FIXT
100
AcDbEllipse
 10
938.2849765141516
 20
1231.747075844254
 30
0.0
 11
0.0
 21
17.90757290028005
 31
0.0
210
0.0
220
0.0
230
1.0
 40
0.2588190451025216
 41
6.01192155345355
 42
7.853981633974484
  0
ELLIPSE
  5
221
330
1DF
100
AcDbEntity
  8
P-SANR-FIXT
100
AcDbEllipse
 10
938.2849765141516
 20
1231.747075844254
 30
0.0
 11
0.0000000000002436
 21
17.90757290028023
 31
0.0
210
0.0
220
0.0
230
1.0
 40
0.2588190451025222
 41
1.5707963267949
 42
3.412856407315815
  0
ELLIPSE
  5
222
330
1DF
100
AcDbEntity
  8
P-SANR-FIXT
100
AcDbEllipse
 10
933.4553473827064
 20
1231.747075844254
 30
0.0
 11
0.0000000000001204
 21
17.90757290028023
 31
0.0
210
0.0
220
0.0
230
1.0
 40
0.2588190451025222
 41
0.0000000000000014
 42
1.570796326794898
  0
ELLIPSE
  5
223
330
1DF
100
AcDbEntity
  8
P-SANR-FIXT
100
AcDbEllipse
 10
933.4553473827064
 20
1231.747075844254
 30
0.0
 11
0.0000000000001204
 21
17.90757290028023
 31
0.0
210
0.0
220
0.0
230
1.0
 40
0.2588190451025222
 41
1.570796326794898
 42
3.141592653589788
  0
ELLIPSE
  5
224
330
1DF
100
AcDbEntity
  8
P-SANR-FIXT
100
AcDbEllipse
 10
931.0247152215517
 20
1231.747075844254
 30
0.0
 11
0.0
 21
22.26606325538797
 31
0.0
210
0.0
220
0.0
230
1.0
 40
0.2588190451025251
 41
5.811946409141092
 42
7.853981633974473
  0
ELLIPSE
  5
225
330
1DF
100
AcDbEntity
  8
P-SANR-FIXT
100
AcDbEllipse
 10
931.0247152215517
 20
1231.747075844254
 30
0.0
 11
0.00000000000012
 21
22.26606325538819
 31
0.0
210
0.0
220
0.0
230
1.0
 40
0.258819045102519
 41
1.570796326794898
 42
3.612831551628262
  0
ELLIPSE
  5
226
330
1DF
100
AcDbEntity
  8
P-SANR-FIXT
100
AcDbEllipse
 10
924.1131198382007
 20
1231.747075844254
 30
0.0
 11
0.0000000000000607
 21
22.26606325538819
 31
0.0
210
0.0
220
0.0
230
1.0
 40
0.2588190451025242
 41
0.0
 42
1.570796326794886
  0
ELLIPSE
  5
227
330
1DF
100
AcDbEntity
  8
P-SANR-FIXT
100
AcDbEllipse
 10
924.1131198382007
 20
1231.747075844254
 30
0.0
 11
0.0000000000002436
 21
22.26606325538819
 31
0.0
210
0.0
220
0.0
230
1.0
 40
0.2588190451025242
 41
1.570796326794899
 42
3.141592653589789
  0
ELLIPSE
  5
228
330
1DF
100
AcDbEntity
  8
P-SANR-FIXT
100
AcDbEllipse
 10
919.0958629580803
 20
1231.747075844254
 30
0.0
 11
0.0
 21
17.90757290028003
 31
0.0
210
0.0
220
0.0
230
1.0
 40
0.2588190451025211
 41
0.2267747939669455
 42
1.570796326794898
  0
ELLIPSE
  5
229
330
1DF
100
AcDbEntity
  8
P-SANR-FIXT
100
AcDbEllipse
 10
919.0958629580803
 20
1231.747075844254
 30
0.0
 11
0.0000000000001204
 21
17.90757290028023
 31
0.0
210
0.0
220
0.0
230
1.0
 40
0.2588190451025222
 41
1.570796326794898
 42
2.914817859622827
  0
LINE
  5
22A
330
1DF
100
AcDbEntity
  8
P-SANR-FIXT
100
AcDbLine
 10
1035.59247512645
 20
1218.587145440215
 30
0.0
 11
1035.592475126449
 21
1223.815516953263
 31
0.0
  0
LINE
  5
22B
330
1DF
100
AcDbEntity
  8
P-SANR-FIXT
100
AcDbLine
 10
1035.592475126448
 20
1239.678634735244
 30
0.0
 11
1035.592475126448
 21
1244.907006248278
 31
0.0
  0
ARC
  5
22C
330
1DF
100
AcDbEntity
  8
P-SANR-FIXT
100
AcDbCircle
 10
1037.407833406647
 20
1231.747075844247
 30
0.0
 40
13.28455094929619
100
AcDbArc
 50
97.85414843226407
 51
142.9631555047707
  0
ARC
  5
22D
330
1DF
100
AcDbEntity
  8
P-SANR-FIXT
100
AcDbCircle
 10
1037.407833406647
 20
1231.747075844247
 30
0.0
 40
13.28455094929632
100
AcDbArc
 50
217.0319584103556
 51
262.1458515677416
  0
LINE
  5
22E
330
1DF
100
AcDbEntity
  8
P-SANR-FIXT
100
AcDbLine
 10
761.3252772671521
 20
1225.716094180225
 30
0.0
 11
761.3252772671521
 21
1237.778057508284
 31
0.0
  0
LINE
  5
22F
330
1DF
100
AcDbEntity
  8
P-SANR-FIXT
100
AcDbLine
 10
773.6626380568241
 20
1237.778057508284
 30
0.0
 11
768.7850706163458
 21
1237.778057508284
 31
0.0
  0
LINE
  5
230
330
1DF
100
AcDbEntity
  8
P-SANR-FIXT
100
AcDbLine
 10
768.7850706163458
 20
1237.778057508284
 30
0.0
 11
768.7850706163458
 21
1225.716094180225
 31
0.0
  0
LINE
  5
231
330
1DF
100
AcDbEntity
  8
P-SANR-FIXT
100
AcDbLine
 10
768.7850706163458
 20
1225.716094180225
 30
0.0
 11
773.6626380568241
 21
1225.716094180225
 31
0.0
  0
ELLIPSE
  5
232
330
1DF
100
AcDbEntity
  8
P-SANR-FIXT
100
AcDbEllipse
 10
773.6626380568241
 20
1231.747075844255
 30
0.0
 11
0.0
 21
6.030981664029241
 31
0.0
210
0.0
220
0.0
230
1.0
 40
0.2588190451025239
 41
3.141592653589788
 42
3.220193697099114
  0
ELLIPSE
  5
233
330
1DF
100
AcDbEntity
  8
P-SANR-FIXT
100
AcDbEllipse
 10
773.6626380568241
 20
1231.747075844255
 30
0.0
 11
0.0
 21
6.030981664029461
 31
0.0
210
0.0
220
0.0
230
0.9999999999999998
 40
0.2588190451025205
 41
6.204584263670256
 42
6.283185307179588
  0
LINE
  5
234
330
1DF
100
AcDbEntity
  8
P-SANR-FIXT
100
AcDbLine
 10
761.3252772671521
 20
1237.778057508284
 30
0.0
 11
768.7850706163458
 21
1237.778057508284
 31
0.0
  0
LINE
  5
235
330
1DF
100
AcDbEntity
  8
P-SANR-FIXT
100
AcDbLine
 10
761.3252772671521
 20
1225.716094180225
 30
0.0
 11
768.7850706163458
 21
1225.716094180225
 31
0.0
  0
LINE
  5
236
330
1DF
100
AcDbEntity
  8
P-SANR-FIXT
100
AcDbLine
 10
776.7774600603339
 20
1237.747075844255
 30
0.0
 11
776.741485673328
 21
1237.747075844255
 31
0.0
  0
LINE
  5
237
330
1DF
100
AcDbEntity
  8
P-SANR-FIXT
100
AcDbLine
 10
776.7414856733279
 20
1225.747075844255
 30
0.0
 11
776.7774600603338
 21
1225.747075844255
 31
0.0
  0
LINE
  5
238
330
1DF
100
AcDbEntity
  8
P-SANR-FIXT
100
AcDbLine
 10
775.8721524296677
 20
1237.747075844255
 30
0.0
 11
773.5283433471391
 21
1237.747075844255
 31
0.0
  0
LINE
  5
239
330
1DF
100
AcDbEntity
  8
P-SANR-FIXT
100
AcDbLine
 10
773.5283433471391
 20
1225.747075844255
 30
0.0
 11
775.8721524296677
 21
1225.747075844255
 31
0.0
  0
ELLIPSE
  5
23A
330
1DF
100
AcDbEntity
  8
P-SANR-FIXT
100
AcDbEllipse
 10
776.7414856733266
 20
1231.747075844255
 30
0.0
 11
0.0
 21
6.0
 31
0.0
210
0.0
220
0.0
230
1.0
 40
0.2588190451025222
 41
0.0000000000000016
 42
0.6889558788110833
  0
ELLIPSE
  5
23B
330
1DF
100
AcDbEntity
  8
P-SANR-FIXT
100
AcDbEllipse
 10
776.7414856733266
 20
1231.747075844255
 30
0.0
 11
0.0
 21
5.999999999999961
 31
0.0
210
0.0
220
0.0
230
1.0
 40
0.2588190451025072
 41
2.452636774778468
 42
3.141592653589788
  0
ELLIPSE
  5
23C
330
1DF
100
AcDbEntity
  8
P-SANR-FIXT
100
AcDbEllipse
 10
775.8721524296663
 20
1231.747075844255
 30
0.0
 11
0.0
 21
5.999999999999975
 31
0.0
210
0.0
220
0.0
230
1.0
 40
0.2588190451025238
 41
5.998508710754866
 42
7.853981633974484
  0
ELLIPSE
  5
23D
330
1DF
100
AcDbEntity
  8
P-SANR-FIXT
100
AcDbEllipse
 10
775.8721524296663
 20
1231.747075844255
 30
0.0
 11
0.0
 21
5.999999999999772
 31
0.0
210
0.0
220
0.0
230
1.0
 40
0.258819045102551
 41
1.570796326794898
 42
3.426269250014486
  0
LINE
  5
23E
330
1DF
100
AcDbEntity
  8
P-SANR-FIXT
100
AcDbLine
 10
1026.981347678393
 20
1239.747075844254
 30
0.0
 11
1014.005597738003
 21
1239.747075844254
 31
0.0
  0
LINE
  5
23F
330
1DF
100
AcDbEntity
  8
P-SANR-FIXT
100
AcDbLine
 10
1014.005597738003
 20
1223.747075844253
 30
0.0
 11
1026.981347678393
 21
1223.747075844253
 31
0.0
  0
LINE
  5
240
330
1DF
100
AcDbEntity
  8
P-SANR-FIXT
100
AcDbLine
 10
1014.005597738003
 20
1240.747075844254
 30
0.0
 11
1006.005597738003
 21
1240.747075844254
 31
0.0
  0
LINE
  5
241
330
1DF
100
AcDbEntity
  8
P-SANR-FIXT
100
AcDbLine
 10
1006.005597738003
 20
1222.747075844253
 30
0.0
 11
1014.005597738003
 21
1222.747075844253
 31
0.0
  0
LINE
  5
242
330
1DF
100
AcDbEntity
  8
P-SANR-FIXT
100
AcDbLine
 10
1006.005597738003
 20
1238.747075844254
 30
0.0
 11
1002.005597738003
 21
1238.747075844254
 31
0.0
  0
LINE
  5
243
330
1DF
100
AcDbEntity
  8
P-SANR-FIXT
100
AcDbLine
 10
1002.005597738003
 20
1224.747075844254
 30
0.0
 11
1006.005597738003
 21
1224.747075844253
 31
0.0
  0
LINE
  5
244
330
1DF
100
AcDbEntity
  8
P-SANR-FIXT
100
AcDbLine
 10
1002.005597738003
 20
1234.303960860055
 30
0.0
 11
999.0055977380034
 21
1234.303960860055
 31
0.0
  0
LINE
  5
245
330
1DF
100
AcDbEntity
  8
P-SANR-FIXT
100
AcDbLine
 10
999.0055977380034
 20
1229.190190828452
 30
0.0
 11
1002.005597738003
 21
1229.190190828452
 31
0.0
  0
LINE
  5
246
330
1DF
100
AcDbEntity
  8
P-SANR-FIXT
100
AcDbLine
 10
999.0055977380032
 20
1235.803960860055
 30
0.0
 11
990.0055977380032
 21
1235.803960860055
 31
0.0
  0
LINE
  5
247
330
1DF
100
AcDbEntity
  8
P-SANR-FIXT
100
AcDbLine
 10
990.0055977380034
 20
1227.690190828452
 30
0.0
 11
999.0055977380034
 21
1227.690190828452
 31
0.0
  0
LINE
  5
248
330
1DF
100
AcDbEntity
  8
P-SANR-FIXT
100
AcDbLine
 10
1030.726448950011
 20
1237.068639730406
 30
0.0
 11
1028.765766593321
 21
1237.068639730406
 31
0.0
  0
LINE
  5
249
330
1DF
100
AcDbEntity
  8
P-SANR-FIXT
100
AcDbLine
 10
1028.765766593321
 20
1226.425511958101
 30
0.0
 11
1030.726448950011
 21
1226.425511958101
 31
0.0
  0
LINE
  5
24A
330
1DF
100
AcDbEntity
  8
P-SANR-FIXT
100
AcDbLine
 10
1028.765766593321
 20
1237.068639730406
 30
0.0
 11
1027.026944289357
 21
1239.678634735244
 31
0.0
  0
LINE
  5
24B
330
1DF
100
AcDbEntity
  8
P-SANR-FIXT
100
AcDbLine
 10
1027.018965880535
 20
1239.690610431164
 30
0.0
 11
1026.981347678393
 21
1239.747075844254
 31
0.0
  0
LINE
  5
24C
330
1DF
100
AcDbEntity
  8
P-SANR-FIXT
100
AcDbLine
 10
1026.981347678393
 20
1223.747075844253
 30
0.0
 11
1027.018965880535
 21
1223.803541257343
 31
0.0
  0
LINE
  5
24D
330
1DF
100
AcDbEntity
  8
P-SANR-FIXT
100
AcDbLine
 10
1027.026944289357
 20
1223.815516953263
 30
0.0
 11
1028.765766593321
 21
1226.425511958101
 31
0.0
  0
ARC
  5
24E
330
1DF
100
AcDbEntity
  8
P-SANR-FIXT
100
AcDbCircle
 10
1036.677344956419
 20
1231.747075844253
 30
0.0
 40
8.0
100
AcDbArc
 50
0.0
 51
180.0
  0
ARC
  5
24F
330
1DF
100
AcDbEntity
  8
P-SANR-FIXT
100
AcDbCircle
 10
1036.677344956419
 20
1231.747075844253
 30
0.0
 40
8.0
100
AcDbArc
 50
180.0
 51
0.0
  0
ARC
  5
250
330
1DF
100
AcDbEntity
  8
P-SANR-FIXT
100
AcDbCircle
 10
1036.677344956419
 20
1231.747075844253
 30
0.0
 40
7.799999999999907
100
AcDbArc
 50
0.0000000000008397
 51
180.0000000000008
  0
ARC
  5
251
330
1DF
100
AcDbEntity
  8
P-SANR-FIXT
100
AcDbCircle
 10
1036.677344956419
 20
1231.747075844253
 30
0.0
 40
7.799999999999727
100
AcDbArc
 50
180.0
 51
0.0
  0
ARC
  5
252
330
1DF
100
AcDbEntity
  8
P-SANR-FIXT
100
AcDbCircle
 10
1036.677344956419
 20
1231.747075844253
 30
0.0
 40
6.799999999999908
100
AcDbArc
 50
0.0000000000009542
 51
180.0000000000009
  0
ARC
  5
253
330
1DF
100
AcDbEntity
  8
P-SANR-FIXT
100
AcDbCircle
 10
1036.677344956419
 20
1231.747075844253
 30
0.0
 40
6.799999999999954
100
AcDbArc
 50
180.0
 51
0.0
  0
ARC
  5
254
330
1DF
100
AcDbEntity
  8
P-SANR-FIXT
100
AcDbCircle
 10
1036.677344956419
 20
1231.747075844253
 30
0.0
 40
5.800000000000181
100
AcDbArc
 50
0.0
 51
180.0
  0
ARC
  5
255
330
1DF
100
AcDbEntity
  8
P-SANR-FIXT
100
AcDbCircle
 10
1036.677344956419
 20
1231.747075844253
 30
0.0
 40
5.799999999999954
100
AcDbArc
 50
180.0
 51
0.0
  0
ARC
  5
256
330
1DF
100
AcDbEntity
  8
P-SANR-FIXT
100
AcDbCircle
 10
1036.677344956419
 20
1231.747075844253
 30
0.0
 40
2.000000000000227
100
AcDbArc
 50
0.0
 51
180.0
  0
ARC
  5
257
330
1DF
100
AcDbEntity
  8
P-SANR-FIXT
100
AcDbCircle
 10
1036.677344956419
 20
1231.747075844253
 30
0.0
 40
1.999999999999772
100
AcDbArc
 50
180.0
 51
0.0
  0
LINE
  5
258
330
1DF
100
AcDbEntity
  8
P-SANR-FIXT
100
AcDbLine
 10
1026.981347678391
 20
1231.747075844253
 30
0.0
 11
1026.981347678391
 21
1239.747075844253
 31
0.0
  0
LINE
  5
259
330
1DF
100
AcDbEntity
  8
P-SANR-FIXT
100
AcDbLine
 10
1026.981347678391
 20
1223.747075844253
 30
0.0
 11
1026.981347678391
 21
1231.747075844253
 31
0.0
  0
LINE
  5
25A
330
1DF
100
AcDbEntity
  8
P-SANR-FIXT
100
AcDbLine
 10
1014.005597738002
 20
1240.747075844253
 30
0.0
 11
1014.005597738002
 21
1231.747075844253
 31
0.0
  0
LINE
  5
25B
330
1DF
100
AcDbEntity
  8
P-SANR-FIXT
100
AcDbLine
 10
1014.005597738002
 20
1231.747075844253
 30
0.0
 11
1014.005597738002
 21
1222.747075844253
 31
0.0
  0
LINE
  5
25C
330
1DF
100
AcDbEntity
  8
P-SANR-FIXT
100
AcDbLine
 10
1006.005597738001
 20
1240.747075844253
 30
0.0
 11
1006.005597738002
 21
1231.747075844253
 31
0.0
  0
LINE
  5
25D
330
1DF
100
AcDbEntity
  8
P-SANR-FIXT
100
AcDbLine
 10
1006.005597738002
 20
1231.747075844253
 30
0.0
 11
1006.005597738001
 21
1222.747075844253
 31
0.0
  0
LINE
  5
25E
330
1DF
100
AcDbEntity
  8
P-SANR-FIXT
100
AcDbLine
 10
1002.005597738002
 20
1238.747075844254
 30
0.0
 11
1002.005597738002
 21
1231.747075844254
 31
0.0
  0
LINE
  5
25F
330
1DF
100
AcDbEntity
  8
P-SANR-FIXT
100
AcDbLine
 10
1002.005597738002
 20
1231.747075844254
 30
0.0
 11
1002.005597738002
 21
1224.747075844254
 31
0.0
  0
LINE
  5
260
330
1DF
100
AcDbEntity
  8
P-SANR-FIXT
100
AcDbLine
 10
999.0055977380016
 20
1235.803960860055
 30
0.0
 11
999.0055977380016
 21
1231.747075844254
 31
0.0
  0
LINE
  5
261
330
1DF
100
AcDbEntity
  8
P-SANR-FIXT
100
AcDbLine
 10
999.0055977380016
 20
1231.747075844254
 30
0.0
 11
999.0055977380016
 21
1227.690190828452
 31
0.0
  0
LINE
  5
262
330
1DF
100
AcDbEntity
  8
P-SANR-FIXT
100
AcDbLine
 10
990.0055977380016
 20
1235.803960860055
 30
0.0
 11
990.0055977380016
 21
1231.747075844254
 31
0.0
  0
LINE
  5
263
330
1DF
100
AcDbEntity
  8
P-SANR-FIXT
100
AcDbLine
 10
990.0055977380016
 20
1231.747075844254
 30
0.0
 11
990.0055977380016
 21
1227.690190828452
 31
0.0
  0
LINE
  5
264
330
1DF
100
AcDbEntity
  8
P-SANR-FIXT
100
AcDbLine
 10
1028.765766593319
 20
1237.068639730406
 30
0.0
 11
1028.765766593319
 21
1232.793525092295
 31
0.0
  0
LINE
  5
265
330
1DF
100
AcDbEntity
  8
P-SANR-FIXT
100
AcDbLine
 10
1028.765766593319
 20
1230.700626596211
 30
0.0
 11
1028.765766593319
 21
1226.4255119581
 31
0.0
  0
LINE
  5
266
330
1DF
100
AcDbEntity
  8
P-SANR-FIXT
100
AcDbLine
 10
786.7833906565205
 20
1240.488277872066
 30
0.0
 11
782.9011049799828
 21
1240.488277872066
 31
0.0
  0
LINE
  5
267
330
1DF
100
AcDbEntity
  8
P-SANR-FIXT
100
AcDbLine
 10
782.9011049799825
 20
1223.005873816443
 30
0.0
 11
786.7833906565205
 21
1223.005873816443
 31
0.0
  0
ELLIPSE
  5
268
330
1DF
100
AcDbEntity
  8
P-SANR-FIXT
100
AcDbEllipse
 10
790.1480382428518
 20
1231.747075844254
 30
0.0
 11
0.0
 21
6.841202027811553
 31
0.0
210
0.0
220
0.0
230
1.0
 40
0.9659258262890389
 41
4.712388980384685
 42
5.908121230763084
  0
ELLIPSE
  5
269
330
1DF
100
AcDbEntity
  8
P-SANR-FIXT
100
AcDbEllipse
 10
790.1480382428518
 20
1231.747075844254
 30
0.0
 11
0.0
 21
6.841202027811277
 31
0.0
210
0.0
220
0.0
230
1.0
 40
0.9659258262890805
 41
3.516656730006298
 42
4.712388980384685
  0
ELLIPSE
  5
26A
330
1DF
100
AcDbEntity
  8
P-SANR-FIXT
100
AcDbEllipse
 10
787.9480763594804
 20
1231.747075844255
 30
0.0
 11
0.0
 21
7.84120202781121
 31
0.0
210
0.0
220
0.0
230
1.0
 40
0.9659258262890839
 41
4.712388980384655
 42
5.459889342100353
  0
ELLIPSE
  5
26B
330
1DF
100
AcDbEntity
  8
P-SANR-FIXT
100
AcDbEllipse
 10
787.9480763594804
 20
1231.747075844255
 30
0.0
 11
0.0
 21
7.84120202781105
 31
0.0
210
0.0
220
0.0
230
1.0
 40
0.9659258262891103
 41
3.964888618668959
 42
4.712388980384655
  0
ELLIPSE
  5
26C
330
1DF
100
AcDbEntity
  8
P-SANR-FIXT
100
AcDbEllipse
 10
786.783390656519
 20
1231.747075844255
 30
0.0
 11
0.0
 21
8.741202027811141
 31
0.0
210
0.0
220
0.0
230
1.0
 40
0.9659258262890752
 41
4.712388980384659
 42
6.283185307179588
  0
ELLIPSE
  5
26D
330
1DF
100
AcDbEntity
  8
P-SANR-FIXT
100
AcDbEllipse
 10
786.783390656519
 20
1231.747075844255
 30
0.0
 11
0.0
 21
8.741202027810913
 31
0.0
210
0.0
220
0.0
230
1.0
 40
0.9659258262891004
 41
3.141592653589788
 42
4.712388980384659
  0
ELLIPSE
  5
26E
330
1DF
100
AcDbEntity
  8
P-SANR-FIXT
100
AcDbEllipse
 10
782.9011049799812
 20
1231.747075844255
 30
0.0
 11
0.0
 21
8.741202027811141
 31
0.0
210
0.0
220
0.0
230
1.0
 40
0.9659258262890622
 41
4.712388980384659
 42
7.853981633974484
  0
ELLIPSE
  5
26F
330
1DF
100
AcDbEntity
  8
P-SANR-FIXT
100
AcDbEllipse
 10
782.9011049799812
 20
1231.747075844255
 30
0.0
 11
0.0
 21
8.741202027810913
 31
0.0
210
0.0
220
0.0
230
1.0
 40
0.9659258262891004
 41
1.570796326794898
 42
4.712388980384659
  0
ARC
  5
270
330
1DF
100
AcDbEntity
  8
P-SANR-FIXT
100
AcDbCircle
 10
682.1835076408412
 20
1231.747075844255
 30
0.0
 40
6.522931044476536
100
AcDbArc
 50
0.0
 51
179.999999999998
  0
ARC
  5
271
330
1DF
100
AcDbEntity
  8
P-SANR-FIXT
100
AcDbCircle
 10
682.1835076408412
 20
1231.747075844255
 30
0.0
 40
6.522931044476512
100
AcDbArc
 50
179.9999999999985
 51
0.0000000000005089
  0
ARC
  5
272
330
1DF
100
AcDbEntity
  8
P-SANR-FIXT
100
AcDbCircle
 10
682.1835076408412
 20
1231.747075844255
 30
0.0
 40
4.999999999999701
100
AcDbArc
 50
0.0000000000019592
 51
179.9999999999994
  0
ARC
  5
273
330
1DF
100
AcDbEntity
  8
P-SANR-FIXT
100
AcDbCircle
 10
682.1835076408412
 20
1231.747075844255
 30
0.0
 40
4.999999999999886
100
AcDbArc
 50
179.9999999999974
 51
0.0
  0
ARC
  5
274
330
1DF
100
AcDbEntity
  8
P-SANR-FIXT
100
AcDbCircle
 10
682.1835076408412
 20
1231.747075844255
 30
0.0
 40
7.499999999999682
100
AcDbArc
 50
0.0000000000012977
 51
179.9999999999996
  0
ARC
  5
275
330
1DF
100
AcDbEntity
  8
P-SANR-FIXT
100
AcDbCircle
 10
682.1835076408412
 20
1231.747075844255
 30
0.0
 40
7.499999999999886
100
AcDbArc
 50
179.9999999999982
 51
0.0
  0
ARC
  5
276
330
1DF
100
AcDbEntity
  8
P-SANR-FIXT
100
AcDbCircle
 10
680.6664074431957
 20
1231.747075844248
 30
0.0
 40
13.28455094929623
100
AcDbArc
 50
269.9999999999964
 51
89.99999999999632
  0
LINE
  5
277
330
1DF
100
AcDbEntity
  8
P-SANR-FIXT
100
AcDbLine
 10
680.6664074431965
 20
1245.031626793545
 30
0.0
 11
680.6664074431964
 21
1239.075866866939
 31
0.0
  0
LINE
  5
278
330
1DF
100
AcDbEntity
  8
P-SANR-FIXT
100
AcDbLine
 10
680.6664074431953
 20
1224.418284821571
 30
0.0
 11
680.666407443195
 21
1218.462524894952
 31
0.0
  0
LINE
  5
279
330
1DF
100
AcDbEntity
  8
P-SANR-FIXT
100
AcDbLine
 10
900.7867861128252
 20
1355.856509431869
 30
0.0
 11
900.2074642109592
 21
1355.856509431869
 31
0.0
  0
LINE
  5
27A
330
1DF
100
AcDbEntity
  8
P-SANR-FIXT
100
AcDbLine
 10
900.2074642109697
 20
1107.637642256626
 30
0.0
 11
900.7867861128357
 21
1107.637642256626
 31
0.0
  0
LINE
  5
27B
330
1DF
100
AcDbEntity
  8
P-SANR-FIXT
100
AcDbLine
 10
899.4310070756517
 20
1355.856509431868
 30
0.0
 11
898.4984533786128
 21
1355.856509431868
 31
0.0
  0
LINE
  5
27C
330
1DF
100
AcDbEntity
  8
P-SANR-FIXT
100
AcDbLine
 10
898.4984533786235
 20
1107.637642256626
 30
0.0
 11
899.431007075662
 21
1107.637642256626
 31
0.0
  0
LINE
  5
27D
330
1DF
100
AcDbEntity
  8
P-SANR-FIXT
100
AcDbLine
 10
900.207464210959
 20
1352.856509431869
 30
0.0
 11
899.4310070756515
 21
1352.856509431868
 31
0.0
  0
LINE
  5
27E
330
1DF
100
AcDbEntity
  8
P-SANR-FIXT
100
AcDbLine
 10
899.431007075662
 20
1110.637642256627
 30
0.0
 11
900.2074642109697
 21
1110.637642256627
 31
0.0
  0
LINE
  5
27F
330
1DF
100
AcDbEntity
  8
P-SANR-FIXT
100
AcDbLine
 10
899.954693614638
 20
1231.747075844254
 30
0.0
 11
895.4125292430056
 21
1177.998459829963
 31
0.0
  0
ELLIPSE
  5
280
330
1DF
100
AcDbEntity
  8
P-SANR-FIXT
100
AcDbEllipse
 10
857.6415949627332
 20
1179.363978851809
 30
0.0
 11
0.0
 21
39.12718379538755
 31
0.0
210
0.0
220
0.0
230
1.0
 40
0.9659258262890697
 41
3.418816734207125
 42
4.677482395344779
  0
LINE
  5
281
330
1DF
100
AcDbEntity
  8
P-SANR-FIXT
100
AcDbLine
 10
867.9853012539028
 20
1141.730714931732
 30
0.0
 11
811.1752638878147
 21
1135.549106188837
 31
0.0
  0
LINE
  5
282
330
1DF
100
AcDbEntity
  8
P-SANR-FIXT
100
AcDbLine
 10
811.1752638878154
 20
1327.945045499671
 30
0.0
 11
866.0049782589966
 21
1322.978847991243
 31
0.0
  0
ELLIPSE
  5
283
330
1DF
100
AcDbEntity
  8
P-SANR-FIXT
100
AcDbEllipse
 10
864.9497861874053
 20
1291.696169133483
 30
0.0
 11
0.0
 21
31.30174703631001
 31
0.0
210
0.0
220
0.0
230
1.0
 40
0.9659258262890698
 41
4.964593561909076
 42
6.248278722139709
  0
LINE
  5
284
330
1DF
100
AcDbEntity
  8
P-SANR-FIXT
100
AcDbLine
 10
894.2284518643955
 20
1299.507188393464
 30
0.0
 11
899.954693614638
 21
1231.747075844254
 31
0.0
  0
LINE
  5
285
330
1DF
100
AcDbEntity
  8
P-SANR-FIXT
100
AcDbLine
 10
888.0032025995483
 20
1177.998459829963
 30
0.0
 11
895.4125292430056
 21
1177.998459829963
 31
0.0
  0
LINE
  5
286
330
1DF
100
AcDbEntity
  8
P-SANR-FIXT
100
AcDbLine
 10
886.8191252209381
 20
1299.507188393464
 30
0.0
 11
894.2284518643955
 21
1299.507188393464
 31
0.0
  0
LINE
  5
287
330
1DF
100
AcDbEntity
  8
P-SANR-FIXT
100
AcDbLine
 10
860.5759746104453
 20
1141.730714931732
 30
0.0
 11
867.9853012539025
 21
1141.730714931732
 31
0.0
  0
LINE
  5
288
330
1DF
100
AcDbEntity
  8
P-SANR-FIXT
100
AcDbLine
 10
866.0049782589966
 20
1322.978847991243
 30
0.0
 11
858.5956516155395
 21
1322.978847991243
 31
0.0
  0
LINE
  5
289
330
1DF
100
AcDbEntity
  8
P-SANR-FIXT
100
AcDbLine
 10
811.1752638878154
 20
1327.945045499671
 30
0.0
 11
803.7659372443583
 21
1327.945045499671
 31
0.0
  0
LINE
  5
28A
330
1DF
100
AcDbEntity
  8
P-SANR-FIXT
100
AcDbLine
 10
899.954693614638
 20
1231.747075844254
 30
0.0
 11
892.5453669711808
 21
1231.747075844254
 31
0.0
  0
LINE
  5
28B
330
1DF
100
AcDbEntity
  8
P-SANR-FIXT
100
AcDbLine
 10
811.1752638878147
 20
1135.549106188837
 30
0.0
 11
803.7659372443576
 21
1135.549106188837
 31
0.0
  0
ELLIPSE
  5
28C
330
1DF
100
AcDbEntity
  8
P-SANR-FIXT
100
AcDbEllipse
 10
895.3002242351001
 20
1231.747075844248
 30
0.0
 11
0.0
 21
100.0560511982391
 31
0.0
210
0.0
220
0.0
230
1.0
 40
0.9659258262890727
 41
5.261194458044382
 42
6.685087167766839
  0
ELLIPSE
  5
28D
330
1DF
100
AcDbEntity
  8
P-SANR-FIXT
100
AcDbEllipse
 10
895.3002242351001
 20
1231.747075844248
 30
0.0
 11
0.0
 21
100.0560511982402
 31
0.0
210
0.0
220
0.0
230
1.0
 40
0.9659258262890631
 41
2.722075802872019
 42
4.156399577106567
  0
ELLIPSE
  5
28E
330
1DF
100
AcDbEntity
  8
P-SANR-FIXT
100
AcDbEllipse
 10
897.6004253893975
 20
1231.747075844247
 30
0.0
 11
0.0
 21
113.644748344157
 31
0.0
210
0.0
220
0.0
230
1.0
 40
0.965925826289067
 41
5.197431775379531
 42
6.879654389930007
  0
ELLIPSE
  5
28F
330
1DF
100
AcDbEntity
  8
P-SANR-FIXT
100
AcDbEllipse
 10
897.6004253893975
 20
1231.747075844247
 30
0.0
 11
0.0
 21
113.6447483441563
 31
0.0
210
0.0
220
0.0
230
1.0
 40
0.9659258262890729
 41
2.538930071393934
 42
4.221195060031186
  0
ELLIPSE
  5
290
330
1DF
100
AcDbEntity
  8
P-SANR-FIXT
100
AcDbEllipse
 10
900.2074642109629
 20
1231.747075844248
 30
0.0
 11
0.0
 21
124.1094335876215
 31
0.0
210
0.0
220
0.0
230
1.0
 40
0.9659258262890688
 41
0.0000000000000462
 42
0.0064835892955719
  0
ELLIPSE
  5
291
330
1DF
100
AcDbEntity
  8
P-SANR-FIXT
100
AcDbEllipse
 10
900.2074642109629
 20
1231.747075844248
 30
0.0
 11
0.0
 21
124.1094335876215
 31
0.0
210
0.0
220
0.0
230
1.0
 40
0.9659258262890681
 41
5.158781341199031
 42
6.211129080135409
  0
ELLIPSE
  5
292
330
1DF
100
AcDbEntity
  8
P-SANR-FIXT
100
AcDbEllipse
 10
900.2074642109629
 20
1231.747075844248
 30
0.0
 11
0.0
 21
124.1094335876217
 31
0.0
210
0.0
220
0.0
230
1.0
 40
0.9659258262890656
 41
3.213648880633964
 42
4.26055274831316
  0
ELLIPSE
  5
293
330
1DF
100
AcDbEntity
  8
P-SANR-FIXT
100
AcDbEllipse
 10
900.2074642109629
 20
1231.747075844248
 30
0.0
 11
0.0
 21
124.1094335876216
 31
0.0
210
0.0
220
0.0
230
1.0
 40
0.9659258262890691
 41
3.13510906429422
 42
3.141592653589789
  0
ELLIPSE
  5
294
330
1DF
100
AcDbEntity
  8
P-SANR-FIXT
100
AcDbEllipse
 10
900.7867861128287
 20
1231.747075844248
 30
0.0
 11
0.0
 21
124.1094335876216
 31
0.0
210
0.0
220
0.0
230
1.0
 40
0.9659258262890688
 41
5.158967514246283
 42
6.20464549083983
  0
ELLIPSE
  5
295
330
1DF
100
AcDbEntity
  8
P-SANR-FIXT
100
AcDbEllipse
 10
900.7867861128287
 20
1231.747075844248
 30
0.0
 11
0.0
 21
124.1094335876218
 31
0.0
210
0.0
220
0.0
230
1.0
 40
0.9659258262890691
 41
3.220132469929528
 42
4.260346349774549
  0
ELLIPSE
  5
296
330
1DF
100
AcDbEntity
  8
P-SANR-FIXT
100
AcDbEllipse
 10
898.4984533786168
 20
1231.747075844247
 30
0.0
 11
0.0
 21
124.1094335876211
 31
0.0
210
0.0
220
0.0
230
1.0
 40
0.9659258262890634
 41
5.158172461512073
 42
6.978713279598907
  0
ELLIPSE
  5
297
330
1DF
100
AcDbEntity
  8
P-SANR-FIXT
100
AcDbEllipse
 10
898.4984533786168
 20
1231.747075844247
 30
0.0
 11
0.0
 21
124.1094335876201
 31
0.0
210
0.0
220
0.0
230
1.0
 40
0.9659258262890716
 41
2.443858102241539
 42
4.261161628000111
  0
ELLIPSE
  5
298
330
1DF
100
AcDbEntity
  8
P-SANR-FIXT
100
AcDbEllipse
 10
899.4310070756553
 20
1231.747075844248
 30
0.0
 11
0.0
 21
124.1094335876204
 31
0.0
210
0.0
220
0.0
230
0.9999999999999998
 40
0.965925826289069
 41
5.158504708091424
 42
6.20464549083983
  0
ELLIPSE
  5
299
330
1DF
100
AcDbEntity
  8
P-SANR-FIXT
100
AcDbEllipse
 10
899.4310070756553
 20
1231.747075844248
 30
0.0
 11
0.0
 21
124.1094335876208
 31
0.0
210
0.0
220
0.0
230
1.0
 40
0.9659258262890661
 41
3.220132469929528
 42
4.260829381420757
  0
LINE
  5
29A
330
1DF
100
AcDbEntity
  8
P-SANR-FIXT
100
AcDbLine
 10
886.8191252209381
 20
1299.507188393464
 30
0.0
 11
892.5453669711808
 21
1231.747075844254
 31
0.0
  0
ELLIPSE
  5
29B
330
1DF
100
AcDbEntity
  8
P-SANR-FIXT
100
AcDbEllipse
 10
857.5404595439481
 20
1291.696169133483
 30
0.0
 11
0.0
 21
31.30174703631001
 31
0.0
210
0.0
220
0.0
230
1.0
 40
0.9659258262890661
 41
4.964593561909074
 42
6.248278722139709
  0
LINE
  5
29C
330
1DF
100
AcDbEntity
  8
P-SANR-FIXT
100
AcDbLine
 10
803.7659372443583
 20
1327.945045499671
 30
0.0
 11
858.5956516155395
 21
1322.978847991243
 31
0.0
  0
LINE
  5
29D
330
1DF
100
AcDbEntity
  8
P-SANR-FIXT
100
AcDbLine
 10
748.9362228731766
 20
1322.978847991244
 30
0.0
 11
803.7659372443583
 21
1327.945045499671
 31
0.0
  0
ELLIPSE
  5
29E
330
1DF
100
AcDbEntity
  8
P-SANR-FIXT
100
AcDbEllipse
 10
749.9914149447675
 20
1291.696169133484
 30
0.0
 11
0.0
 21
31.30174703631015
 31
0.0
210
0.0
220
0.0
230
0.9999999999999998
 40
0.965925826289064
 41
0.0349065850398771
 42
1.484211842610113
  0
LINE
  5
29F
330
1DF
100
AcDbEntity
  8
P-SANR-FIXT
100
AcDbLine
 10
714.6161986019055
 20
1231.747075844255
 30
0.0
 11
719.8695128853737
 21
1294.403029629355
 31
0.0
  0
LINE
  5
2A0
330
1DF
100
AcDbEntity
  8
P-SANR-FIXT
100
AcDbLine
 10
719.7746675205493
 20
1170.705567337549
 30
0.0
 11
714.6161986019055
 21
1231.747075844255
 31
0.0
  0
ELLIPSE
  5
2A1
330
1DF
100
AcDbEntity
  8
P-SANR-FIXT
100
AcDbEllipse
 10
749.991414944767
 20
1171.797982555025
 30
0.0
 11
0.0
 21
31.30174703631003
 31
0.0
210
0.0
220
0.0
230
1.0
 40
0.9659258262890659
 41
1.605702911834769
 42
3.106686068549905
  0
LINE
  5
2A2
330
1DF
100
AcDbEntity
  8
P-SANR-FIXT
100
AcDbLine
 10
803.7659372443576
 20
1135.549106188837
 30
0.0
 11
748.9362228731756
 21
1140.515303697265
 31
0.0
  0
LINE
  5
2A3
330
1DF
100
AcDbEntity
  8
P-SANR-FIXT
100
AcDbLine
 10
860.5759746104455
 20
1141.730714931732
 30
0.0
 11
803.7659372443576
 21
1135.549106188837
 31
0.0
  0
ELLIPSE
  5
2A4
330
1DF
100
AcDbEntity
  8
P-SANR-FIXT
100
AcDbEllipse
 10
850.2322683192762
 20
1179.363978851809
 30
0.0
 11
0.0
 21
39.12718379538755
 31
0.0
210
0.0
220
0.0
230
1.0
 40
0.9659258262890697
 41
3.418816734207125
 42
4.677482395344779
  0
LINE
  5
2A5
330
1DF
100
AcDbEntity
  8
P-SANR-FIXT
100
AcDbLine
 10
892.5453669711808
 20
1231.747075844254
 30
0.0
 11
888.0032025995483
 21
1177.998459829963
 31
0.0
  0
ELLIPSE
  5
2A6
330
1DF
100
AcDbEntity
  8
P-SANR-FIXT
100
AcDbEllipse
 10
888.9947074967206
 20
1231.747075844247
 30
0.0
 11
0.0
 21
65.56612245259292
 31
0.0
210
0.0
220
0.0
230
1.0
 40
0.965925826289065
 41
5.560955585508511
 42
6.18441976420461
  0
ELLIPSE
  5
2A7
330
1DF
100
AcDbEntity
  8
P-SANR-FIXT
100
AcDbEllipse
 10
888.9947074967206
 20
1231.747075844247
 30
0.0
 11
0.0
 21
65.56612245259284
 31
0.0
210
0.0
220
0.0
230
1.0
 40
0.9659258262890698
 41
3.240358196559682
 42
3.850315204530013
  0
ENDBLK
  5
2A9
330
1DF
100
AcDbEntity
  8
0
100
AcDbBlockEnd
  0
BLOCK
  5
37F
330
2AB
100
AcDbEntity
  8
0
100
AcDbBlockBegin
  2
Automatic flow rate regulator valve_Caleffi_121 DN15 - 1_2__-V2-Est - Idraulica
 70
     0
 10
0.0
 20
0.0
 30
0.0
  3
Automatic flow rate regulator valve_Caleffi_121 DN15 - 1_2__-V2-Est - Idraulica
  1

  0
ARC
  5
2AC
330
2AB
100
AcDbEntity
  8
P-SANR-FIXT
100
AcDbCircle
 10
1480.363156828901
 20
1970.998183850013
 30
0.0
 40
98.26794919243353
100
AcDbArc
 50
89.99999999999905
 51
269.9999999999986
  0
ARC
  5
2AD
330
2AB
100
AcDbEntity
  8
P-SANR-FIXT
100
AcDbCircle
 10
1480.363156828893
 20
1970.998183850011
 30
0.0
 40
63.50000000000136
100
AcDbArc
 50
89.99999999999181
 51
270.0000000000054
  0
ARC
  5
2AE
330
2AB
100
AcDbEntity
  8
P-SANR-FIXT
100
AcDbCircle
 10
1480.363156828901
 20
1970.998183850013
 30
0.0
 40
98.26794919243354
100
AcDbArc
 50
269.9999999999987
 51
89.99999999999884
  0
ARC
  5
2AF
330
2AB
100
AcDbEntity
  8
P-SANR-FIXT
100
AcDbCircle
 10
1480.363156828893
 20
1970.998183850011
 30
0.0
 40
63.5000000000015
100
AcDbArc
 50
270.0000000000064
 51
89.99999999999138
  0
ARC
  5
2B0
330
2AB
100
AcDbEntity
  8
P-SANR-FIXT
100
AcDbCircle
 10
1480.363156828902
 20
1970.998183850013
 30
0.0
 40
99.99999999999895
100
AcDbArc
 50
89.99999999999909
 51
269.9999999999986
  0
ARC
  5
2B1
330
2AB
100
AcDbEntity
  8
P-SANR-FIXT
100
AcDbCircle
 10
1480.363156828902
 20
1970.998183850013
 30
0.0
 40
99.99999999999882
100
AcDbArc
 50
269.9999999999987
 51
89.99999999999888
  0
ARC
  5
2B2
330
2AB
100
AcDbEntity
  8
P-SANR-FIXT
100
AcDbCircle
 10
1480.363156828902
 20
1970.998183850013
 30
0.0
 40
125.0000000000051
100
AcDbArc
 50
89.99999999999918
 51
269.9999999999985
  0
ARC
  5
2B3
330
2AB
100
AcDbEntity
  8
P-SANR-FIXT
100
AcDbCircle
 10
1480.363156828902
 20
1970.998183850013
 30
0.0
 40
125.0000000000047
100
AcDbArc
 50
269.9999999999986
 51
89.99999999999907
  0
LINE
  5
2B4
330
2AB
100
AcDbEntity
  8
P-SANR-FIXT
100
AcDbLine
 10
1431.579499135779
 20
1930.348402275183
 30
0.0
 11
1431.59514547745
 21
1930.329632501018
 31
0.0
  0
LINE
  5
2B5
330
2AB
100
AcDbEntity
  8
P-SANR-FIXT
100
AcDbLine
 10
1402.174267753196
 20
2078.541629266026
 30
0.0
 11
1402.174267753196
 21
2068.407724370517
 31
0.0
  0
LINE
  5
2B6
330
2AB
100
AcDbEntity
  8
P-SANR-FIXT
100
AcDbLine
 10
1558.552045904616
 20
2068.407724370513
 30
0.0
 11
1558.552045904616
 21
2078.535754245828
 31
0.0
  0
LINE
  5
2B7
330
2AB
100
AcDbEntity
  8
P-SANR-FIXT
100
AcDbLine
 10
1470.363156828897
 20
1846.406314388257
 30
0.0
 11
1470.363156828897
 21
1845.279438565844
 31
0.0
  0
LINE
  5
2B8
330
2AB
100
AcDbEntity
  8
P-SANR-FIXT
100
AcDbLine
 10
1490.363156828897
 20
1845.279438565845
 30
0.0
 11
1490.363156828897
 21
1846.406314388255
 31
0.0
  0
LWPOLYLINE
  5
2B9
330
2AB
100
AcDbEntity
  8
P-SANR-FIXT
100
AcDbPolyline
 90
       36
 70
   128
 43
0.0
 10
1437.358850844231
 20
2182.053307343485
 10
1437.404194911839
 20
2182.640866422756
 10
1437.537970098266
 20
2183.217988398271
 10
1437.754463859225
 20
2183.777062217587
 10
1438.046798579064
 20
2184.314434495139
 10
1438.408865768561
 20
2184.829746326517
 10
1438.836153771669
 20
2185.324528568225
 10
1439.325696620529
 20
2185.800979992036
 10
1439.875654403882
 20
2186.261237655841
 10
1440.484868895971
 20
2186.70706064295
 10
1441.152524955108
 20
2187.139756243015
 10
1441.877929934146
 20
2187.560216903237
 10
1442.660383506817
 20
2187.968993760263
 10
1443.499106902205
 20
2188.366372535202
 10
1444.393208025154
 20
2188.752439117536
 10
1445.341667082675
 20
2189.127132058312
 10
1446.343333401537
 20
2189.49028306056
 10
1447.396928052877
 20
2189.841647676066
 10
1448.501049276516
 20
2190.180928432687
 10
1449.654179078614
 20
2190.507792266697
 10
1450.854690157574
 20
2190.821883724578
 10
1452.100852745546
 20
2191.122835036189
 10
1453.39084118679
 20
2191.41027387281
 10
1454.722740196629
 20
2191.683829385228
 10
1456.09455080576
 20
2191.943136955957
 10
1457.504196022204
 20
2192.187841982284
 10
1458.949526253038
 20
2192.417602921886
 10
1460.428324528877
 20
2192.632093771221
 10
1461.938311570613
 20
2192.831006102337
 10
1463.477150732841
 20
2193.014050751322
 10
1465.042452852817
 20
2193.180959227948
 10
1466.631781028608
 20
2193.331484898653
 10
1468.242655345338
 20
2193.465403982156
 10
1469.872557564432
 20
2193.582516387413
 10
1471.518935787264
 20
2193.68264641648
 10
1472.521954801085
 20
2193.732787258394
  0
LWPOLYLINE
  5
2BA
330
2AB
100
AcDbEntity
  8
P-SANR-FIXT
100
AcDbPolyline
 90
       36
 70
   128
 43
0.0
 10
1523.367462813585
 20
2182.053307343484
 10
1523.322118745976
 20
2182.640866422755
 10
1523.188343559548
 20
2183.21798839827
 10
1522.971849798589
 20
2183.777062217586
 10
1522.679515078751
 20
2184.314434495138
 10
1522.317447889254
 20
2184.829746326516
 10
1521.890159886146
 20
2185.324528568224
 10
1521.400617037287
 20
2185.800979992036
 10
1520.850659253933
 20
2186.261237655839
 10
1520.241444761844
 20
2186.70706064295
 10
1519.573788702707
 20
2187.139756243013
 10
1518.848383723669
 20
2187.560216903236
 10
1518.065930150999
 20
2187.968993760263
 10
1517.22720675561
 20
2188.366372535201
 10
1516.333105632662
 20
2188.752439117536
 10
1515.384646575141
 20
2189.127132058312
 10
1514.382980256278
 20
2189.490283060559
 10
1513.329385604938
 20
2189.841647676065
 10
1512.2252643813
 20
2190.180928432686
 10
1511.072134579201
 20
2190.507792266696
 10
1509.871623500242
 20
2190.821883724577
 10
1508.625460912269
 20
2191.122835036188
 10
1507.335472471025
 20
2191.410273872808
 10
1506.003573461186
 20
2191.683829385228
 10
1504.631762852055
 20
2191.943136955957
 10
1503.222117635611
 20
2192.187841982284
 10
1501.776787404776
 20
2192.417602921885
 10
1500.297989128938
 20
2192.632093771221
 10
1498.788002087202
 20
2192.831006102337
 10
1497.249162924974
 20
2193.014050751322
 10
1495.683860804998
 20
2193.180959227948
 10
1494.094532629208
 20
2193.331484898653
 10
1492.483658312477
 20
2193.465403982156
 10
1490.853756093383
 20
2193.582516387412
 10
1489.207377870551
 20
2193.68264641648
 10
1488.204358856707
 20
2193.732787258396
  0
LINE
  5
2BB
330
2AB
100
AcDbEntity
  8
P-SANR-FIXT
100
AcDbLine
 10
1437.358850844231
 20
2182.053307343485
 30
0.0
 11
1437.358850844231
 21
2180.014459824138
 31
0.0
  0
LINE
  5
2BC
330
2AB
100
AcDbEntity
  8
P-SANR-FIXT
100
AcDbLine
 10
1523.367462813584
 20
2180.014459824137
 30
0.0
 11
1523.367462813584
 21
2182.053307343484
 31
0.0
  0
LWPOLYLINE
  5
2BD
330
2AB
100
AcDbEntity
  8
P-SANR-FIXT
100
AcDbPolyline
 90
        8
 70
   128
 43
0.0
 10
1416.35885084423
 20
2128.927386897586
 10
1418.672900842724
 20
2156.998858389256
 10
1420.079077168564
 20
2161.892968960438
 10
1421.510279194478
 20
2165.292548842675
 10
1423.122604665477
 20
2168.095497459108
 10
1427.09987956303
 20
2172.732433019504
 10
1428.515741652359
 20
2173.978115094034
 10
1437.358850844231
 20
2181.634483303264
  0
LWPOLYLINE
  5
2BE
330
2AB
100
AcDbEntity
  8
P-SANR-FIXT
100
AcDbPolyline
 90
       27
 70
   128
 43
0.0
 10
1523.30633127808
 20
2182.546321370247
 10
1525.774527506115
 20
2180.046836930658
 10
1525.933547294726
 20
2179.769777792766
 10
1526.021517660833
 20
2179.611477044412
 10
1526.07128026131
 20
2179.52071794363
 10
1526.128117438293
 20
2179.416293873608
 10
1526.165268279523
 20
2179.347760660468
 10
1526.2210477188
 20
2179.244741808707
 10
1526.269332238754
 20
2179.155754317029
 10
1526.325697169542
 20
2179.052559985411
 10
1526.403775949097
 20
2178.911912079353
 10
1526.509962723235
 20
2178.728085460428
 10
1528.433571061393
 20
2176.927140767592
 10
1528.991181012783
 20
2176.501716660477
 10
1529.45153908246
 20
2176.152769010998
 10
1529.938158952131
 20
2175.782827595042
 10
1530.672441973974
 20
2175.217298130891
 10
1531.734049425792
 20
2174.372188061198
 10
1533.374262275817
 20
2172.963928267189
 10
1535.832293568208
 20
2170.446728611675
 10
1537.760971576845
 20
2167.855334929088
 10
1539.356690379865
 20
2165.005033676581
 10
1540.675249670723
 20
2161.813755124734
 10
1541.778667197332
 20
2158.126786937271
 10
1543.510486130162
 20
2148.927071367336
 10
1544.344581261891
 20
2133.307005784368
 10
1544.367462813584
 20
2128.927386897585
  0
ELLIPSE
  5
2BF
330
2AB
100
AcDbEntity
  8
P-SANR-FIXT
100
AcDbEllipse
 10
1480.363156828905
 20
2128.927386897585
 30
0.0
 11
64.00430598467711
 21
0.0
 31
0.0
210
0.0
220
0.0
230
1.0
 40
0.2588190451025168
 41
3.141592653589738
 42
4.634158707364295
  0
ELLIPSE
  5
2C0
330
2AB
100
AcDbEntity
  8
P-SANR-FIXT
100
AcDbEllipse
 10
1480.363156828905
 20
2128.927386897585
 30
0.0
 11
-64.00430598467711
 21
0.0000000000004871
 31
0.0
210
0.0
220
0.0
230
1.0
 40
0.2588190451025201
 41
1.649026599814919
 42
3.14159265358979
  0
ELLIPSE
  5
2C1
330
2AB
100
AcDbEntity
  8
P-SANR-FIXT
100
AcDbEllipse
 10
1480.363156828905
 20
2180.014459824136
 30
0.0
 11
-43.0043059846771
 21
0.0000000000007856
 31
0.0
210
0.0
220
0.0
230
1.0
 40
0.258819045102523
 41
0.0
 42
1.570796326794886
  0
ELLIPSE
  5
2C2
330
2AB
100
AcDbEntity
  8
P-SANR-FIXT
100
AcDbEllipse
 10
1480.363156828905
 20
2180.014459824136
 30
0.0
 11
-43.00430598467687
 21
0.0000000000003655
 31
0.0
210
0.0
220
0.0
230
1.0
 40
0.2588190451025243
 41
1.570796326794889
 42
3.14159265358978
  0
LINE
  5
2C3
330
2AB
100
AcDbEntity
  8
P-SANR-FIXT
100
AcDbLine
 10
1523.896826080737
 20
1572.940902034235
 30
0.0
 11
1523.828452301517
 21
1580.783786597769
 31
0.0
  0
LINE
  5
2C4
330
2AB
100
AcDbEntity
  8
P-SANR-FIXT
100
AcDbLine
 10
1520.337299320272
 20
1557.863287057904
 30
0.0
 11
1521.358339832544
 21
1569.133071348232
 31
0.0
  0
LINE
  5
2C5
330
2AB
100
AcDbEntity
  8
P-SANR-FIXT
100
AcDbLine
 10
1436.897861356278
 20
1580.783786597776
 30
0.0
 11
1436.829487577058
 21
1572.940902034235
 31
0.0
  0
LINE
  5
2C6
330
2AB
100
AcDbEntity
  8
P-SANR-FIXT
100
AcDbLine
 10
1439.36797382525
 20
1569.133071348232
 30
0.0
 11
1440.389014337523
 21
1557.863287057904
 31
0.0
  0
LWPOLYLINE
  5
2C7
330
2AB
100
AcDbEntity
  8
P-SANR-FIXT
100
AcDbPolyline
 90
       40
 70
   128
 43
0.0
 10
1440.389014337523
 20
1557.863287057904
 10
1440.57357112744
 20
1556.760492873417
 10
1440.905515547524
 20
1555.729911943054
 10
1441.352376214588
 20
1554.795134275814
 10
1441.882566447365
 20
1553.961119668584
 10
1442.471884421601
 20
1553.220403795921
 10
1443.104765991749
 20
1552.559949435158
 10
1443.772667758253
 20
1551.965839979756
 10
1444.471760881697
 20
1551.425619235734
 10
1445.200984337573
 20
1550.929069639589
 10
1445.960703561989
 20
1550.468201026744
 10
1446.751886109992
 20
1550.036933237856
 10
1447.575634637625
 20
1549.630713658317
 10
1448.432942022602
 20
1549.246168566451
 10
1449.324575848572
 20
1548.880817679277
 10
1450.251034556248
 20
1548.532852083842
 10
1451.21254134377
 20
1548.200965818639
 10
1452.209056622932
 20
1547.884229644399
 10
1453.24029851612
 20
1547.581996809851
 10
1454.305765838252
 20
1547.293832647321
 10
1455.404760778211
 20
1547.019461775265
 10
1456.53641000805
 20
1546.758728283199
 10
1457.699683753413
 20
1546.511565504694
 10
1458.89341276986
 20
1546.277972899775
 10
1460.116303365162
 20
1546.057998237904
 10
1461.366950687448
 20
1545.851723758846
 10
1462.643850518752
 20
1545.659255340515
 10
1463.945409803855
 20
1545.480713957669
 10
1465.269956121692
 20
1545.316228900406
 10
1466.615746279882
 20
1545.165932356405
 10
1467.98097418643
 20
1545.029955059876
 10
1469.363778128464
 20
1544.908422783259
 10
1470.762247566667
 20
1544.801453502014
 10
1472.174429536101
 20
1544.709155103457
 10
1473.598334729108
 20
1544.631623541324
 10
1475.031943323702
 20
1544.568941361075
 10
1476.473210610894
 20
1544.521176539033
 10
1477.920072466521
 20
1544.488381592547
 10
1479.370450707029
 20
1544.470592929621
 10
1480.363156828897
 20
1544.467078940264
  0
LWPOLYLINE
  5
2C8
330
2AB
100
AcDbEntity
  8
P-SANR-FIXT
100
AcDbPolyline
 90
       40
 70
   128
 43
0.0
 10
1520.337299320272
 20
1557.863287057904
 10
1520.152742530355
 20
1556.760492873418
 10
1519.820798110271
 20
1555.729911943054
 10
1519.373937443207
 20
1554.795134275814
 10
1518.84374721043
 20
1553.961119668584
 10
1518.254429236194
 20
1553.220403795922
 10
1517.621547666047
 20
1552.559949435158
 10
1516.953645899543
 20
1551.965839979757
 10
1516.254552776098
 20
1551.425619235734
 10
1515.525329320222
 20
1550.929069639589
 10
1514.765610095807
 20
1550.468201026744
 10
1513.974427547804
 20
1550.036933237856
 10
1513.150679020171
 20
1549.630713658318
 10
1512.293371635194
 20
1549.246168566451
 10
1511.401737809224
 20
1548.880817679278
 10
1510.475279101547
 20
1548.532852083842
 10
1509.513772314026
 20
1548.200965818639
 10
1508.517257034864
 20
1547.884229644399
 10
1507.486015141675
 20
1547.581996809851
 10
1506.420547819543
 20
1547.293832647321
 10
1505.321552879584
 20
1547.019461775265
 10
1504.189903649745
 20
1546.758728283199
 10
1503.026629904382
 20
1546.511565504694
 10
1501.832900887936
 20
1546.277972899775
 10
1500.610010292633
 20
1546.057998237904
 10
1499.359362970347
 20
1545.851723758846
 10
1498.082463139043
 20
1545.659255340515
 10
1496.78090385394
 20
1545.480713957669
 10
1495.456357536103
 20
1545.316228900406
 10
1494.110567377913
 20
1545.165932356405
 10
1492.745339471366
 20
1545.029955059876
 10
1491.362535529332
 20
1544.908422783259
 10
1489.964066091128
 20
1544.801453502014
 10
1488.551884121694
 20
1544.709155103457
 10
1487.127978928687
 20
1544.631623541324
 10
1485.694370334093
 20
1544.568941361075
 10
1484.253103046902
 20
1544.521176539033
 10
1482.806241191275
 20
1544.488381592547
 10
1481.355862950766
 20
1544.470592929621
 10
1480.363156828897
 20
1544.467078940264
  0
ELLIPSE
  5
2C9
330
2AB
100
AcDbEntity
  8
P-SANR-FIXT
100
AcDbEllipse
 10
1480.363156828896
 20
1572.91547875913
 30
0.0
 11
43.53378007096307
 21
0.0
 31
0.0
210
0.0
220
0.0
230
1.0
 40
0.2588190451025194
 41
3.141592653589793
 42
4.712388980384667
  0
ELLIPSE
  5
2CA
330
2AB
100
AcDbEntity
  8
P-SANR-FIXT
100
AcDbEllipse
 10
1480.363156828896
 20
1572.91547875913
 30
0.0
 11
43.53378007096284
 21
0.0
 31
0.0
210
0.0
220
0.0
230
0.9999999999999998
 40
0.2588190451025208
 41
4.712388980384672
 42
6.283185307179586
  0
LINE
  5
2CB
330
2AB
100
AcDbEntity
  8
P-SANR-FIXT
100
AcDbLine
 10
1470.363156828897
 20
1544.839865811512
 30
0.0
 11
1470.363156828897
 21
1541.048882889807
 31
0.0
  0
LINE
  5
2CC
330
2AB
100
AcDbEntity
  8
P-SANR-FIXT
100
AcDbLine
 10
1490.363156828898
 20
1541.048882889807
 30
0.0
 11
1490.363156828898
 21
1544.851762325873
 31
0.0
  0
ELLIPSE
  5
2CD
330
2AB
100
AcDbEntity
  8
P-SANR-FIXT
100
AcDbEllipse
 10
1480.363156828896
 20
1541.048882889806
 30
0.0
 11
10.00000000000023
 21
0.0
 31
0.0
210
0.0
220
0.0
230
1.0
 40
0.2588190451024898
 41
4.712388980384683
 42
6.283185307179586
  0
ELLIPSE
  5
2CE
330
2AB
100
AcDbEntity
  8
P-SANR-FIXT
100
AcDbEllipse
 10
1480.363156828896
 20
1541.048882889806
 30
0.0
 11
10.00000000000045
 21
0.0
 31
0.0
210
0.0
220
0.0
230
1.0
 40
0.2588190451024839
 41
3.141592653589793
 42
4.712388980384683
  0
ELLIPSE
  5
2CF
330
2AB
100
AcDbEntity
  8
P-SANR-FIXT
100
AcDbEllipse
 10
1480.363156828894
 20
2184.462355728178
 30
0.0
 11
6.030981664029467
 21
0.0
 31
0.0
210
0.0
220
0.0
230
0.9999999999999998
 40
0.9659258262890626
 41
3.141592653589793
 42
6.283185307179501
  0
LINE
  5
2D0
330
2AB
100
AcDbEntity
  8
P-SANR-FIXT
100
AcDbLine
 10
1486.394138492923
 20
2184.462355728178
 30
0.0
 11
1486.394138492923
 21
2202.665685233387
 31
0.0
  0
LINE
  5
2D1
330
2AB
100
AcDbEntity
  8
P-SANR-FIXT
100
AcDbLine
 10
1486.394138492923
 20
2202.665685233387
 30
0.0
 11
1474.332175164864
 21
2202.665685233387
 31
0.0
  0
LINE
  5
2D2
330
2AB
100
AcDbEntity
  8
P-SANR-FIXT
100
AcDbLine
 10
1474.332175164864
 20
2202.665685233387
 30
0.0
 11
1474.332175164865
 21
2184.462355728178
 31
0.0
  0
LINE
  5
2D3
330
2AB
100
AcDbEntity
  8
P-SANR-FIXT
100
AcDbLine
 10
1474.332175164865
 20
2204.664530837006
 30
0.0
 11
1486.394138492923
 21
2204.664530837006
 31
0.0
  0
LINE
  5
2D4
330
2AB
100
AcDbEntity
  8
P-SANR-FIXT
100
AcDbLine
 10
1474.332175164864
 20
2202.665685233387
 30
0.0
 11
1474.332175164865
 21
2204.664530837006
 31
0.0
  0
LINE
  5
2D5
330
2AB
100
AcDbEntity
  8
P-SANR-FIXT
100
AcDbLine
 10
1486.394138492923
 20
2202.665685233387
 30
0.0
 11
1486.394138492923
 21
2204.664530837006
 31
0.0
  0
LINE
  5
2D6
330
2AB
100
AcDbEntity
  8
P-SANR-FIXT
100
AcDbLine
 10
1474.363156828896
 20
2184.963550416186
 30
0.0
 11
1474.363156828896
 21
2184.424850636061
 31
0.0
  0
LINE
  5
2D7
330
2AB
100
AcDbEntity
  8
P-SANR-FIXT
100
AcDbLine
 10
1486.363156828896
 20
2184.42485063606
 30
0.0
 11
1486.363156828896
 21
2184.963550416186
 31
0.0
  0
ELLIPSE
  5
2D8
330
2AB
100
AcDbEntity
  8
P-SANR-FIXT
100
AcDbEllipse
 10
1480.363156828894
 20
2184.424850636059
 30
0.0
 11
6.0
 21
0.0
 31
0.0
210
0.0
220
0.0
230
1.0
 40
0.9659258262890185
 41
1.570796326794896
 42
4.712388980384683
  0
ELLIPSE
  5
2D9
330
2AB
100
AcDbEntity
  8
P-SANR-FIXT
100
AcDbEllipse
 10
1480.363156828894
 20
2184.424850636059
 30
0.0
 11
6.0
 21
0.0
 31
0.0
210
0.0
220
0.0
230
1.0
 40
0.9659258262890944
 41
4.712388980384683
 42
7.853981633974482
  0
LINE
  5
2DA
330
2AB
100
AcDbEntity
  8
P-SANR-FIXT
100
AcDbLine
 10
1474.363156828897
 20
1674.556126845399
 30
0.0
 11
1474.363156828897
 21
1665.862794408797
 31
0.0
  0
LINE
  5
2DB
330
2AB
100
AcDbEntity
  8
P-SANR-FIXT
100
AcDbLine
 10
1486.363156828896
 20
1665.862794408797
 30
0.0
 11
1486.363156828896
 21
1674.556126845399
 31
0.0
  0
LINE
  5
2DC
330
2AB
100
AcDbEntity
  8
P-SANR-FIXT
100
AcDbLine
 10
1475.363156828897
 20
1676.161347376821
 30
0.0
 11
1475.363156828897
 21
1674.556126845399
 31
0.0
  0
LINE
  5
2DD
330
2AB
100
AcDbEntity
  8
P-SANR-FIXT
100
AcDbLine
 10
1485.363156828896
 20
1674.556126845399
 30
0.0
 11
1485.363156828896
 21
1676.161347376822
 31
0.0
  0
LINE
  5
2DE
330
2AB
100
AcDbEntity
  8
P-SANR-FIXT
100
AcDbLine
 10
1471.863156828897
 20
1682.283533455711
 30
0.0
 11
1471.863156828897
 21
1677.93686723741
 31
0.0
  0
LINE
  5
2DF
330
2AB
100
AcDbEntity
  8
P-SANR-FIXT
100
AcDbLine
 10
1488.863156828896
 20
1677.93686723741
 30
0.0
 11
1488.863156828896
 21
1682.283533455711
 31
0.0
  0
LINE
  5
2E0
330
2AB
100
AcDbEntity
  8
P-SANR-FIXT
100
AcDbLine
 10
1470.363156828897
 20
1686.994499834784
 30
0.0
 11
1470.363156828897
 21
1683.732422195145
 31
0.0
  0
LINE
  5
2E1
330
2AB
100
AcDbEntity
  8
P-SANR-FIXT
100
AcDbLine
 10
1490.363156828896
 20
1683.732422195145
 30
0.0
 11
1490.363156828896
 21
1686.994499834784
 31
0.0
  0
LINE
  5
2E2
330
2AB
100
AcDbEntity
  8
P-SANR-FIXT
100
AcDbLine
 10
1466.363156828896
 20
1795.779818044677
 30
0.0
 11
1466.363156828896
 21
1779.729339160725
 31
0.0
  0
LINE
  5
2E3
330
2AB
100
AcDbEntity
  8
P-SANR-FIXT
100
AcDbLine
 10
1466.363156828896
 20
1695.639880351639
 30
0.0
 11
1466.363156828896
 21
1689.52797715288
 31
0.0
  0
LINE
  5
2E4
330
2AB
100
AcDbEntity
  8
P-SANR-FIXT
100
AcDbLine
 10
1494.363156828897
 20
1689.52797715288
 30
0.0
 11
1494.363156828897
 21
1695.640869717032
 31
0.0
  0
LINE
  5
2E5
330
2AB
100
AcDbEntity
  8
P-SANR-FIXT
100
AcDbLine
 10
1494.363156828897
 20
1779.793239896336
 30
0.0
 11
1494.363156828897
 21
1795.779818044677
 31
0.0
  0
LINE
  5
2E6
330
2AB
100
AcDbEntity
  8
P-SANR-FIXT
100
AcDbLine
 10
1472.363156828896
 20
1801.575373002412
 30
0.0
 11
1472.363156828896
 21
1795.779818044677
 31
0.0
  0
LINE
  5
2E7
330
2AB
100
AcDbEntity
  8
P-SANR-FIXT
100
AcDbLine
 10
1488.363156828897
 20
1795.779818044677
 30
0.0
 11
1488.363156828897
 21
1801.575373002412
 31
0.0
  0
ELLIPSE
  5
2E8
330
2AB
100
AcDbEntity
  8
P-SANR-FIXT
100
AcDbEllipse
 10
1480.363156828894
 20
1801.575373002411
 30
0.0
 11
8.000000000000227
 21
0.0
 31
0.0
210
0.0
220
0.0
230
1.0
 40
0.2588190451025054
 41
1.570796326794896
 42
4.712388980384655
  0
ELLIPSE
  5
2E9
330
2AB
100
AcDbEntity
  8
P-SANR-FIXT
100
AcDbEllipse
 10
1480.363156828894
 20
1801.575373002411
 30
0.0
 11
8.0
 21
0.0
 31
0.0
210
0.0
220
0.0
230
1.0
 40
0.2588190451025412
 41
4.712388980384655
 42
7.853981633974482
  0
ELLIPSE
  5
2EA
330
2AB
100
AcDbEntity
  8
P-SANR-FIXT
100
AcDbEllipse
 10
1480.363156828895
 20
1665.862794408797
 30
0.0
 11
5.999999999999544
 21
0.0
 31
0.0
210
0.0
220
0.0
230
0.9999999999999998
 40
0.2588190451025229
 41
3.141592653589793
 42
4.712388980384645
  0
ELLIPSE
  5
2EB
330
2AB
100
AcDbEntity
  8
P-SANR-FIXT
100
AcDbEllipse
 10
1480.363156828895
 20
1665.862794408797
 30
0.0
 11
5.999999999999544
 21
0.0
 31
0.0
210
0.0
220
0.0
230
0.9999999999999998
 40
0.2588190451025229
 41
4.712388980384645
 42
6.283185307179586
  0
ELLIPSE
  5
2EC
330
2AB
100
AcDbEntity
  8
P-SANR-FIXT
100
AcDbEllipse
 10
1480.363156828895
 20
1674.556126845399
 30
0.0
 11
5.999999999999544
 21
0.0
 31
0.0
210
0.0
220
0.0
230
0.9999999999999998
 40
0.2588190451025229
 41
2.560924585511494
 42
4.712388980384645
  0
ELLIPSE
  5
2ED
330
2AB
100
AcDbEntity
  8
P-SANR-FIXT
100
AcDbEllipse
 10
1480.363156828895
 20
1674.556126845399
 30
0.0
 11
5.999999999999359
 21
0.0
 31
0.0
210
0.0
220
0.0
230
0.9999999999999998
 40
0.2588190451025007
 41
4.712388980384645
 42
6.863853375257924
  0
ELLIPSE
  5
2EE
330
2AB
100
AcDbEntity
  8
P-SANR-FIXT
100
AcDbEllipse
 10
1480.363156828895
 20
1674.556126845399
 30
0.0
 11
4.999999999999317
 21
0.0
 31
0.0
210
0.0
220
0.0
230
1.0
 40
0.2588190451025083
 41
3.141592653589793
 42
4.712388980384638
  0
ELLIPSE
  5
2EF
330
2AB
100
AcDbEntity
  8
P-SANR-FIXT
100
AcDbEllipse
 10
1480.363156828895
 20
1674.556126845399
 30
0.0
 11
4.999999999999317
 21
0.0
 31
0.0
210
0.0
220
0.0
230
1.0
 40
0.2588190451025083
 41
4.712388980384638
 42
6.283185307179586
  0
ELLIPSE
  5
2F0
330
2AB
100
AcDbEntity
  8
P-SANR-FIXT
100
AcDbEllipse
 10
1480.363156828895
 20
1677.93686723741
 30
0.0
 11
8.499999999999317
 21
0.0
 31
0.0
210
0.0
220
0.0
230
1.0
 40
0.2588190451025285
 41
3.141592653589793
 42
4.712388980384656
  0
ELLIPSE
  5
2F1
330
2AB
100
AcDbEntity
  8
P-SANR-FIXT
100
AcDbEllipse
 10
1480.363156828895
 20
1677.93686723741
 30
0.0
 11
8.499999999999317
 21
0.0
 31
0.0
210
0.0
220
0.0
230
1.0
 40
0.2588190451025285
 41
4.712388980384656
 42
6.283185307179586
  0
ELLIPSE
  5
2F2
330
2AB
100
AcDbEntity
  8
P-SANR-FIXT
100
AcDbEllipse
 10
1480.363156828894
 20
1682.283533455711
 30
0.0
 11
8.499999999999545
 21
0.0
 31
0.0
210
0.0
220
0.0
230
1.0
 40
0.2588190451025216
 41
3.103101936561622
 42
4.712388980384683
  0
ELLIPSE
  5
2F3
330
2AB
100
AcDbEntity
  8
P-SANR-FIXT
100
AcDbEllipse
 10
1480.363156828894
 20
1682.283533455711
 30
0.0
 11
8.49999999999936
 21
0.0
 31
0.0
210
0.0
220
0.0
230
1.0
 40
0.2588190451025174
 41
4.712388980384683
 42
6.321676024207758
  0
ELLIPSE
  5
2F4
330
2AB
100
AcDbEntity
  8
P-SANR-FIXT
100
AcDbEllipse
 10
1480.363156828894
 20
1682.283533455711
 30
0.0
 11
6.499999999999544
 21
0.0
 31
0.0
210
0.0
220
0.0
230
0.9999999999999998
 40
0.2588190451025155
 41
3.498089703836967
 42
4.712388980384683
  0
ELLIPSE
  5
2F5
330
2AB
100
AcDbEntity
  8
P-SANR-FIXT
100
AcDbEllipse
 10
1480.363156828894
 20
1682.283533455711
 30
0.0
 11
6.499999999999584
 21
0.0
 31
0.0
210
0.0
220
0.0
230
1.0
 40
0.2588190451025054
 41
4.712388980384683
 42
5.926688256932386
  0
ELLIPSE
  5
2F6
330
2AB
100
AcDbEntity
  8
P-SANR-FIXT
100
AcDbEllipse
 10
1480.363156828894
 20
1683.732422195144
 30
0.0
 11
9.999999999999317
 21
0.0
 31
0.0
210
0.0
220
0.0
230
1.0
 40
0.2588190451024906
 41
3.141592653589793
 42
4.712388980384683
  0
ELLIPSE
  5
2F7
330
2AB
100
AcDbEntity
  8
P-SANR-FIXT
100
AcDbEllipse
 10
1480.363156828894
 20
1683.732422195144
 30
0.0
 11
9.999999999999317
 21
0.0
 31
0.0
210
0.0
220
0.0
230
1.0
 40
0.2588190451024906
 41
4.712388980384683
 42
6.283185307179586
  0
ELLIPSE
  5
2F8
330
2AB
100
AcDbEntity
  8
P-SANR-FIXT
100
AcDbEllipse
 10
1480.363156828894
 20
1689.527977152879
 30
0.0
 11
14.00000000000023
 21
0.0
 31
0.0
210
0.0
220
0.0
230
1.0
 40
0.2588190451025045
 41
3.141592653589793
 42
4.712388980384683
  0
ELLIPSE
  5
2F9
330
2AB
100
AcDbEntity
  8
P-SANR-FIXT
100
AcDbEllipse
 10
1480.363156828894
 20
1689.527977152879
 30
0.0
 11
14.0
 21
0.0
 31
0.0
210
0.0
220
0.0
230
1.0
 40
0.2588190451025087
 41
4.712388980384683
 42
6.283185307179586
  0
ELLIPSE
  5
2FA
330
2AB
100
AcDbEntity
  8
P-SANR-FIXT
100
AcDbEllipse
 10
1480.363156828894
 20
1795.779818044677
 30
0.0
 11
14.00000000000023
 21
0.0
 31
0.0
210
0.0
220
0.0
230
1.0
 40
0.2588190451025045
 41
2.179596642661349
 42
4.712388980384667
  0
ELLIPSE
  5
2FB
330
2AB
100
AcDbEntity
  8
P-SANR-FIXT
100
AcDbEllipse
 10
1480.363156828894
 20
1795.779818044677
 30
0.0
 11
14.00000000000004
 21
0.0
 31
0.0
210
0.0
220
0.0
230
1.0
 40
0.2588190451025168
 41
4.712388980384667
 42
7.245181318108021
  0
ELLIPSE
  5
2FC
330
2AB
100
AcDbEntity
  8
P-SANR-FIXT
100
AcDbEllipse
 10
1480.363156828894
 20
1795.779818044677
 30
0.0
 11
8.000000000000227
 21
0.0
 31
0.0
210
0.0
220
0.0
230
1.0
 40
0.2588190451024769
 41
3.141592653589793
 42
4.712388980384655
  0
ELLIPSE
  5
2FD
330
2AB
100
AcDbEntity
  8
P-SANR-FIXT
100
AcDbEllipse
 10
1480.363156828894
 20
1795.779818044677
 30
0.0
 11
8.0
 21
0.0
 31
0.0
210
0.0
220
0.0
230
1.0
 40
0.2588190451024843
 41
4.712388980384655
 42
6.283185307179586
  0
LINE
  5
2FE
330
2AB
100
AcDbEntity
  8
P-SANR-FIXT
100
AcDbLine
 10
1474.303343448691
 20
2182.754728736034
 30
0.0
 11
1474.671901368997
 21
2182.572668235121
 31
0.0
  0
LINE
  5
2FF
330
2AB
100
AcDbEntity
  8
P-SANR-FIXT
100
AcDbLine
 10
1486.061066806427
 20
2182.575955438426
 30
0.0
 11
1486.422970209101
 21
2182.754728736034
 31
0.0
  0
LINE
  5
300
330
2AB
100
AcDbEntity
  8
P-SANR-FIXT
100
AcDbLine
 10
1473.521954801085
 20
2190.798641411345
 30
0.0
 11
1473.521954801085
 21
2183.576482545741
 31
0.0
  0
LINE
  5
301
330
2AB
100
AcDbEntity
  8
P-SANR-FIXT
100
AcDbLine
 10
1487.204358856707
 20
2183.576482545741
 30
0.0
 11
1487.204358856707
 21
2190.798641411345
 31
0.0
  0
LINE
  5
302
330
2AB
100
AcDbEntity
  8
P-SANR-FIXT
100
AcDbLine
 10
1472.521954801085
 20
2195.144605242814
 30
0.0
 11
1472.521954801085
 21
2191.786852069198
 31
0.0
  0
LINE
  5
303
330
2AB
100
AcDbEntity
  8
P-SANR-FIXT
100
AcDbLine
 10
1488.204358856707
 20
2191.786852069198
 30
0.0
 11
1488.204358856707
 21
2195.144605242814
 31
0.0
  0
LINE
  5
304
330
2AB
100
AcDbEntity
  8
P-SANR-FIXT
100
AcDbLine
 10
1471.621954801085
 20
2210.622405681835
 30
0.0
 11
1471.621954801085
 21
2196.133518287499
 31
0.0
  0
LINE
  5
305
330
2AB
100
AcDbEntity
  8
P-SANR-FIXT
100
AcDbLine
 10
1489.104358856707
 20
2196.133518287499
 30
0.0
 11
1489.104358856707
 21
2210.622405681835
 31
0.0
  0
ELLIPSE
  5
306
330
2AB
100
AcDbEntity
  8
P-SANR-FIXT
100
AcDbEllipse
 10
1480.363156828894
 20
2183.57648254574
 30
0.0
 11
6.841202027811569
 21
0.0
 31
0.0
210
0.0
220
0.0
230
1.0
 40
0.2588190451025291
 41
3.141592653589793
 42
3.721426423029318
  0
ELLIPSE
  5
307
330
2AB
100
AcDbEntity
  8
P-SANR-FIXT
100
AcDbEllipse
 10
1480.363156828894
 20
2183.57648254574
 30
0.0
 11
6.841202027811277
 21
0.0
 31
0.0
210
0.0
220
0.0
230
1.0
 40
0.2588190451025369
 41
5.703351537740044
 42
6.283185307179586
  0
ELLIPSE
  5
308
330
2AB
100
AcDbEntity
  8
P-SANR-FIXT
100
AcDbEllipse
 10
1480.363156828894
 20
2191.786852069197
 30
0.0
 11
7.841202027811507
 21
0.0
 31
0.0
210
0.0
220
0.0
230
1.0
 40
0.2588190451024952
 41
3.141592653589793
 42
3.832840723364568
  0
ELLIPSE
  5
309
330
2AB
100
AcDbEntity
  8
P-SANR-FIXT
100
AcDbEllipse
 10
1480.363156828894
 20
2191.786852069197
 30
0.0
 11
7.84120202781105
 21
0.0
 31
0.0
210
0.0
220
0.0
230
1.0
 40
0.2588190451024724
 41
5.591937237404736
 42
6.283185307179586
  0
ELLIPSE
  5
30A
330
2AB
100
AcDbEntity
  8
P-SANR-FIXT
100
AcDbEllipse
 10
1480.363156828894
 20
2196.133518287498
 30
0.0
 11
8.741202027811386
 21
0.0
 31
0.0
210
0.0
220
0.0
230
1.0
 40
0.2588190451025057
 41
3.141592653589793
 42
3.949828472403872
  0
ELLIPSE
  5
30B
330
2AB
100
AcDbEntity
  8
P-SANR-FIXT
100
AcDbEllipse
 10
1480.363156828894
 20
2196.133518287498
 30
0.0
 11
8.741202027810913
 21
0.0
 31
0.0
210
0.0
220
0.0
230
1.0
 40
0.2588190451025239
 41
5.474949488365491
 42
6.283185307179586
  0
ELLIPSE
  5
30C
330
2AB
100
AcDbEntity
  8
P-SANR-FIXT
100
AcDbEllipse
 10
1480.363156828894
 20
2210.622405681834
 30
0.0
 11
8.741202027811141
 21
0.0
 31
0.0
210
0.0
220
0.0
230
1.0
 40
0.2588190451025171
 41
1.570796326794896
 42
4.712388980384683
  0
ELLIPSE
  5
30D
330
2AB
100
AcDbEntity
  8
P-SANR-FIXT
100
AcDbEllipse
 10
1480.363156828894
 20
2210.622405681834
 30
0.0
 11
8.741202027810913
 21
0.0
 31
0.0
210
0.0
220
0.0
230
1.0
 40
0.2588190451024718
 41
4.712388980384683
 42
7.853981633974482
  0
LINE
  5
30E
330
2AB
100
AcDbEntity
  8
P-SANR-FIXT
100
AcDbLine
 10
1472.863156828895
 20
2111.780678359905
 30
0.0
 11
1472.863156828895
 21
2104.013019967075
 31
0.0
  0
LINE
  5
30F
330
2AB
100
AcDbEntity
  8
P-SANR-FIXT
100
AcDbLine
 10
1487.863156828895
 20
2104.013019967075
 30
0.0
 11
1487.863156828895
 21
2111.780678359905
 31
0.0
  0
LINE
  5
310
330
2AB
100
AcDbEntity
  8
P-SANR-FIXT
100
AcDbLine
 10
1475.363156828895
 20
2113.280678359905
 30
0.0
 11
1475.363156828895
 21
2111.780678359905
 31
0.0
  0
LINE
  5
311
330
2AB
100
AcDbEntity
  8
P-SANR-FIXT
100
AcDbLine
 10
1485.363156828895
 20
2111.780678359905
 30
0.0
 11
1485.363156828895
 21
2113.280678359905
 31
0.0
  0
LINE
  5
312
330
2AB
100
AcDbEntity
  8
P-SANR-FIXT
100
AcDbLine
 10
1472.863156828895
 20
2118.303609404382
 30
0.0
 11
1472.863156828895
 21
2113.280678359905
 31
0.0
  0
LINE
  5
313
330
2AB
100
AcDbEntity
  8
P-SANR-FIXT
100
AcDbLine
 10
1487.863156828895
 20
2113.280678359905
 30
0.0
 11
1487.863156828895
 21
2118.303609404382
 31
0.0
  0
LINE
  5
314
330
2AB
100
AcDbEntity
  8
P-SANR-FIXT
100
AcDbLine
 10
1476.363156828895
 20
2120.780678359905
 30
0.0
 11
1476.363156828895
 21
2119.280678359905
 31
0.0
  0
LINE
  5
315
330
2AB
100
AcDbEntity
  8
P-SANR-FIXT
100
AcDbLine
 10
1484.363156828895
 20
2119.280678359905
 30
0.0
 11
1484.363156828895
 21
2120.780678359905
 31
0.0
  0
LINE
  5
316
330
2AB
100
AcDbEntity
  8
P-SANR-FIXT
100
AcDbLine
 10
1475.363156828895
 20
2122.780678359905
 30
0.0
 11
1475.363156828895
 21
2120.780678359905
 31
0.0
  0
LINE
  5
317
330
2AB
100
AcDbEntity
  8
P-SANR-FIXT
100
AcDbLine
 10
1485.363156828895
 20
2120.780678359905
 30
0.0
 11
1485.363156828895
 21
2122.780678359905
 31
0.0
  0
LINE
  5
318
330
2AB
100
AcDbEntity
  8
P-SANR-FIXT
100
AcDbLine
 10
1473.840225784418
 20
2119.280678359905
 30
0.0
 11
1472.927320368592
 21
2118.367772944079
 31
0.0
  0
LINE
  5
319
330
2AB
100
AcDbEntity
  8
P-SANR-FIXT
100
AcDbLine
 10
1472.911595378022
 20
2118.352047953509
 30
0.0
 11
1472.863156828895
 21
2118.303609404382
 31
0.0
  0
LINE
  5
31A
330
2AB
100
AcDbEntity
  8
P-SANR-FIXT
100
AcDbLine
 10
1487.863156828895
 20
2118.303609404382
 30
0.0
 11
1486.886087873372
 21
2119.280678359905
 31
0.0
  0
LINE
  5
31B
330
2AB
100
AcDbEntity
  8
P-SANR-FIXT
100
AcDbLine
 10
1473.741478435735
 20
2104.013019967075
 30
0.0
 11
1473.741478435735
 21
2095.998183850019
 31
0.0
  0
LINE
  5
31C
330
2AB
100
AcDbEntity
  8
P-SANR-FIXT
100
AcDbLine
 10
1486.984835222056
 20
2095.998183850019
 30
0.0
 11
1486.984835222056
 21
2104.013019967075
 31
0.0
  0
LINE
  5
31D
330
2AB
100
AcDbEntity
  8
P-SANR-FIXT
100
AcDbLine
 10
1472.863156828893
 20
2104.013019967073
 30
0.0
 11
1480.363156828893
 21
2104.013019967073
 31
0.0
  0
LINE
  5
31E
330
2AB
100
AcDbEntity
  8
P-SANR-FIXT
100
AcDbLine
 10
1480.363156828893
 20
2104.013019967073
 30
0.0
 11
1487.863156828893
 21
2104.013019967073
 31
0.0
  0
LINE
  5
31F
330
2AB
100
AcDbEntity
  8
P-SANR-FIXT
100
AcDbLine
 10
1480.363156828893
 20
2111.780678359904
 30
0.0
 11
1472.863156828893
 21
2111.780678359904
 31
0.0
  0
LINE
  5
320
330
2AB
100
AcDbEntity
  8
P-SANR-FIXT
100
AcDbLine
 10
1487.863156828893
 20
2111.780678359904
 30
0.0
 11
1480.363156828893
 21
2111.780678359904
 31
0.0
  0
LINE
  5
321
330
2AB
100
AcDbEntity
  8
P-SANR-FIXT
100
AcDbLine
 10
1480.363156828893
 20
2113.280678359904
 30
0.0
 11
1472.863156828893
 21
2113.280678359904
 31
0.0
  0
LINE
  5
322
330
2AB
100
AcDbEntity
  8
P-SANR-FIXT
100
AcDbLine
 10
1487.863156828893
 20
2113.280678359904
 30
0.0
 11
1480.363156828893
 21
2113.280678359904
 31
0.0
  0
LINE
  5
323
330
2AB
100
AcDbEntity
  8
P-SANR-FIXT
100
AcDbLine
 10
1473.840225784417
 20
2119.280678359904
 30
0.0
 11
1480.363156828893
 21
2119.280678359904
 31
0.0
  0
LINE
  5
324
330
2AB
100
AcDbEntity
  8
P-SANR-FIXT
100
AcDbLine
 10
1480.363156828893
 20
2119.280678359904
 30
0.0
 11
1486.88608787337
 21
2119.280678359904
 31
0.0
  0
LINE
  5
325
330
2AB
100
AcDbEntity
  8
P-SANR-FIXT
100
AcDbLine
 10
1480.363156828893
 20
2120.780678359904
 30
0.0
 11
1475.363156828893
 21
2120.780678359904
 31
0.0
  0
LINE
  5
326
330
2AB
100
AcDbEntity
  8
P-SANR-FIXT
100
AcDbLine
 10
1485.363156828893
 20
2120.780678359904
 30
0.0
 11
1480.363156828893
 21
2120.780678359904
 31
0.0
  0
LINE
  5
327
330
2AB
100
AcDbEntity
  8
P-SANR-FIXT
100
AcDbLine
 10
1480.363156828893
 20
2122.780678359904
 30
0.0
 11
1475.363156828893
 21
2122.780678359904
 31
0.0
  0
LINE
  5
328
330
2AB
100
AcDbEntity
  8
P-SANR-FIXT
100
AcDbLine
 10
1485.363156828893
 20
2122.780678359904
 30
0.0
 11
1480.363156828893
 21
2122.780678359904
 31
0.0
  0
LINE
  5
329
330
2AB
100
AcDbEntity
  8
P-SANR-FIXT
100
AcDbLine
 10
1480.363156828893
 20
2118.303609404381
 30
0.0
 11
1472.863156828893
 21
2118.303609404381
 31
0.0
  0
LINE
  5
32A
330
2AB
100
AcDbEntity
  8
P-SANR-FIXT
100
AcDbLine
 10
1487.863156828893
 20
2118.303609404381
 30
0.0
 11
1480.363156828893
 21
2118.303609404381
 31
0.0
  0
LINE
  5
32B
330
2AB
100
AcDbEntity
  8
P-SANR-FIXT
100
AcDbLine
 10
1467.078605879603
 20
2095.998183850018
 30
0.0
 11
1473.940483043381
 21
2095.998183850018
 31
0.0
  0
LINE
  5
32C
330
2AB
100
AcDbEntity
  8
P-SANR-FIXT
100
AcDbLine
 10
1486.785830614405
 20
2095.998183850018
 30
0.0
 11
1493.647707778196
 21
2095.998183850018
 31
0.0
  0
LINE
  5
32D
330
2AB
100
AcDbEntity
  8
P-SANR-FIXT
100
AcDbLine
 10
1493.647707778196
 20
2095.998183850018
 30
0.0
 11
1493.647707778196
 21
2095.201301088604
 31
0.0
  0
LINE
  5
32E
330
2AB
100
AcDbEntity
  8
P-SANR-FIXT
100
AcDbLine
 10
1467.078605879603
 20
2095.201301088603
 30
0.0
 11
1467.078605879603
 21
2095.998183850018
 31
0.0
  0
LINE
  5
32F
330
2AB
100
AcDbEntity
  8
P-SANR-FIXT
100
AcDbLine
 10
1433.460773943904
 20
1833.907346325126
 30
0.0
 11
1422.285867997032
 21
1828.387158419127
 31
0.0
  0
LINE
  5
330
330
2AB
100
AcDbEntity
  8
P-SANR-FIXT
100
AcDbLine
 10
1538.440445660775
 20
1828.387158419125
 30
0.0
 11
1527.265539713904
 21
1833.907346325125
 31
0.0
  0
LINE
  5
331
330
2AB
100
AcDbEntity
  8
P-SANR-FIXT
100
AcDbLine
 10
1410.353280871614
 20
1690.905112577797
 30
0.0
 11
1431.178042092964
 21
1603.469357638735
 31
0.0
  0
LINE
  5
332
330
2AB
100
AcDbEntity
  8
P-SANR-FIXT
100
AcDbLine
 10
1529.548271564838
 20
1603.469357638734
 30
0.0
 11
1550.373032786189
 21
1690.905112577795
 31
0.0
  0
LINE
  5
333
330
2AB
100
AcDbEntity
  8
P-SANR-FIXT
100
AcDbLine
 10
1433.460773943904
 20
1854.281633196519
 30
0.0
 11
1433.460773943903
 21
1833.464522245976
 31
0.0
  0
LINE
  5
334
330
2AB
100
AcDbEntity
  8
P-SANR-FIXT
100
AcDbLine
 10
1527.265539713903
 20
1833.464522245975
 30
0.0
 11
1527.265539713904
 21
1854.281633196517
 31
0.0
  0
LWPOLYLINE
  5
335
330
2AB
100
AcDbEntity
  8
P-SANR-FIXT
100
AcDbPolyline
 90
        5
 70
   128
 43
0.0
 10
1381.907008456491
 20
1803.635080403012
 10
1383.709200854113
 20
1804.933674558736
 10
1385.612854303699
 20
1806.150007633878
 10
1387.618841364898
 20
1807.297483744403
 10
1388.966699471937
 20
1807.992970946685
  0
LWPOLYLINE
  5
336
330
2AB
100
AcDbEntity
  8
P-SANR-FIXT
100
AcDbPolyline
 90
        5
 70
   128
 43
0.0
 10
1578.819305201315
 20
1803.635080403009
 10
1577.017112803693
 20
1804.933674558734
 10
1575.113459354107
 20
1806.150007633877
 10
1573.107472292908
 20
1807.2974837444
 10
1571.768267826508
 20
1807.988505716785
  0
LINE
  5
337
330
2AB
100
AcDbEntity
  8
P-SANR-FIXT
100
AcDbLine
 10
1381.907008456491
 20
1803.635080403012
 30
0.0
 11
1376.41999789796
 21
1799.420656477902
 31
0.0
  0
LINE
  5
338
330
2AB
100
AcDbEntity
  8
P-SANR-FIXT
100
AcDbLine
 10
1584.306315759846
 20
1799.420656477899
 30
0.0
 11
1578.819305201315
 21
1803.635080403009
 31
0.0
  0
LINE
  5
339
330
2AB
100
AcDbEntity
  8
P-SANR-FIXT
100
AcDbLine
 10
1356.253723241281
 20
1778.66488708527
 30
0.0
 11
1356.253723241281
 21
1776.502828313568
 31
0.0
  0
LINE
  5
33A
330
2AB
100
AcDbEntity
  8
P-SANR-FIXT
100
AcDbLine
 10
1604.472590416525
 20
1776.502828313565
 30
0.0
 11
1604.472590416525
 21
1778.664887085267
 31
0.0
  0
LINE
  5
33B
330
2AB
100
AcDbEntity
  8
P-SANR-FIXT
100
AcDbLine
 10
1378.789375723472
 20
1758.044986117463
 30
0.0
 11
1386.939414829872
 21
1755.040620075716
 31
0.0
  0
LINE
  5
33C
330
2AB
100
AcDbEntity
  8
P-SANR-FIXT
100
AcDbLine
 10
1573.786898827934
 20
1755.040620075714
 30
0.0
 11
1581.936937934333
 21
1758.044986117461
 31
0.0
  0
LINE
  5
33D
330
2AB
100
AcDbEntity
  8
P-SANR-FIXT
100
AcDbLine
 10
1372.452819637533
 20
1760.684930636945
 30
0.0
 11
1378.179071786163
 21
1726.986642366612
 31
0.0
  0
LINE
  5
33E
330
2AB
100
AcDbEntity
  8
P-SANR-FIXT
100
AcDbLine
 10
1582.547241871642
 20
1726.98664236661
 30
0.0
 11
1588.273494020272
 21
1760.684930636942
 31
0.0
  0
LWPOLYLINE
  5
33F
330
2AB
100
AcDbEntity
  8
P-SANR-FIXT
100
AcDbPolyline
 90
        7
 70
   128
 43
0.0
 10
1431.178042092964
 20
1603.469357638735
 10
1431.534392416714
 20
1602.337698391656
 10
1432.022201527304
 20
1601.301579427741
 10
1432.609576097918
 20
1600.366875904951
 10
1433.271809181855
 20
1599.526696523491
 10
1433.992834237081
 20
1598.768292949079
 10
1434.635136300338
 20
1598.186078169702
  0
LWPOLYLINE
  5
340
330
2AB
100
AcDbEntity
  8
P-SANR-FIXT
100
AcDbPolyline
 90
        7
 70
   128
 43
0.0
 10
1529.548271564838
 20
1603.469357638734
 10
1529.191921241088
 20
1602.337698391655
 10
1528.704112130498
 20
1601.30157942774
 10
1528.116737559883
 20
1600.36687590495
 10
1527.454504475947
 20
1599.52669652349
 10
1526.73347942072
 20
1598.768292949078
 10
1526.091177357464
 20
1598.186078169701
  0
LWPOLYLINE
  5
341
330
2AB
100
AcDbEntity
  8
P-SANR-FIXT
100
AcDbPolyline
 90
        7
 70
   128
 43
0.0
 10
1434.670491794403
 20
1595.860090327203
 10
1434.597588955782
 20
1596.811815754416
 10
1434.40084182455
 20
1597.66704727829
 10
1434.1355504794
 20
1598.357538906878
 10
1433.867452048065
 20
1598.854596133686
 10
1433.653383591153
 20
1599.162431539213
 10
1433.615075248937
 20
1599.210209998272
  0
LWPOLYLINE
  5
342
330
2AB
100
AcDbEntity
  8
P-SANR-FIXT
100
AcDbPolyline
 90
        7
 70
   128
 43
0.0
 10
1526.055821863399
 20
1595.860090327202
 10
1526.128724702019
 20
1596.811815754414
 10
1526.325471833251
 20
1597.667047278288
 10
1526.590763178402
 20
1598.357538906877
 10
1526.858861609737
 20
1598.854596133685
 10
1527.072930066648
 20
1599.162431539211
 10
1527.111238408864
 20
1599.21020999827
  0
LINE
  5
343
330
2AB
100
AcDbEntity
  8
P-SANR-FIXT
100
AcDbLine
 10
1434.678513135369
 20
1595.638506070639
 30
0.0
 11
1435.56852471612
 21
1583.346593568935
 31
0.0
  0
LINE
  5
344
330
2AB
100
AcDbEntity
  8
P-SANR-FIXT
100
AcDbLine
 10
1525.15778894168
 20
1583.346593568934
 30
0.0
 11
1526.047800522432
 21
1595.638506070637
 31
0.0
  0
LINE
  5
345
330
2AB
100
AcDbEntity
  8
P-SANR-FIXT
100
AcDbLine
 10
1410.141478905839
 20
1691.794393591793
 30
0.0
 11
1410.353280871614
 21
1690.905112577797
 31
0.0
  0
LINE
  5
346
330
2AB
100
AcDbEntity
  8
P-SANR-FIXT
100
AcDbLine
 10
1550.373032786189
 20
1690.905112577795
 30
0.0
 11
1550.584834751964
 21
1691.794393591791
 31
0.0
  0
LWPOLYLINE
  5
347
330
2AB
100
AcDbEntity
  8
P-SANR-FIXT
100
AcDbPolyline
 90
       21
 70
   128
 43
0.0
 10
1378.179071786163
 20
1726.986642366612
 10
1378.763999112089
 20
1724.615192531603
 10
1379.647159017498
 20
1722.418225517499
 10
1380.762012178323
 20
1720.423112537837
 10
1382.05187196603
 20
1718.625558419013
 10
1383.477104116654
 20
1717.003791073807
 10
1385.014026714218
 20
1715.530348632828
 10
1386.650568847123
 20
1714.178907637515
 10
1388.38189187086
 20
1712.927139834766
 10
1390.207115564271
 20
1711.757300631534
 10
1392.127204778832
 20
1710.655806763446
 10
1394.143726749828
 20
1709.612496192663
 10
1396.258174134623
 20
1708.61988390842
 10
1398.471627143482
 20
1707.672526504405
 10
1400.784608022419
 20
1706.766517513791
 10
1403.197039519265
 20
1705.899100646289
 10
1405.708256457622
 20
1705.068378487893
 10
1408.31704210517
 20
1704.273094666002
 10
1411.021674092141
 20
1703.512471129552
 10
1413.819972013763
 20
1702.786086276744
 10
1416.438317412425
 20
1702.156393887806
  0
LWPOLYLINE
  5
348
330
2AB
100
AcDbEntity
  8
P-SANR-FIXT
100
AcDbPolyline
 90
       21
 70
   128
 43
0.0
 10
1582.547241871642
 20
1726.98664236661
 10
1581.962314545716
 20
1724.615192531601
 10
1581.079154640306
 20
1722.418225517497
 10
1579.964301479481
 20
1720.423112537835
 10
1578.674441691774
 20
1718.62555841901
 10
1577.249209541151
 20
1717.003791073804
 10
1575.712286943586
 20
1715.530348632826
 10
1574.075744810682
 20
1714.178907637512
 10
1572.344421786944
 20
1712.927139834764
 10
1570.519198093534
 20
1711.757300631532
 10
1568.599108878973
 20
1710.655806763443
 10
1566.582586907977
 20
1709.61249619266
 10
1564.468139523181
 20
1708.619883908417
 10
1562.254686514322
 20
1707.672526504403
 10
1559.941705635386
 20
1706.76651751379
 10
1557.529274138539
 20
1705.899100646288
 10
1555.018057200182
 20
1705.068378487891
 10
1552.409271552634
 20
1704.273094666
 10
1549.704639565663
 20
1703.51247112955
 10
1546.906341644041
 20
1702.786086276743
 10
1544.287996245379
 20
1702.156393887805
  0
LWPOLYLINE
  5
349
330
2AB
100
AcDbEntity
  8
P-SANR-FIXT
100
AcDbPolyline
 90
        7
 70
   128
 43
0.0
 10
1410.141478905839
 20
1691.794393591792
 10
1408.804653854829
 20
1696.0542628328
 10
1407.155561703351
 20
1699.569313690494
 10
1405.445744137452
 20
1702.300182124172
 10
1403.868074682019
 20
1704.309592335205
 10
1402.545134154551
 20
1705.707069232421
 10
1401.681780322826
 20
1706.484183467729
  0
LWPOLYLINE
  5
34A
330
2AB
100
AcDbEntity
  8
P-SANR-FIXT
100
AcDbPolyline
 90
        7
 70
   128
 43
0.0
 10
1550.584834751965
 20
1691.79439359179
 10
1551.921659802975
 20
1696.054262832798
 10
1553.570751954453
 20
1699.569313690492
 10
1555.280569520351
 20
1702.30018212417
 10
1556.858238975785
 20
1704.309592335203
 10
1558.181179503252
 20
1705.707069232419
 10
1559.04453333492
 20
1706.484183467676
  0
LINE
  5
34B
330
2AB
100
AcDbEntity
  8
P-SANR-FIXT
100
AcDbLine
 10
1356.253723241282
 20
1785.043002342271
 30
0.0
 11
1356.253723241282
 21
1781.562664564137
 31
0.0
  0
LINE
  5
34C
330
2AB
100
AcDbEntity
  8
P-SANR-FIXT
100
AcDbLine
 10
1604.472590416524
 20
1781.562664564134
 30
0.0
 11
1604.472590416524
 21
1785.043002342268
 31
0.0
  0
LWPOLYLINE
  5
34D
330
2AB
100
AcDbEntity
  8
P-SANR-FIXT
100
AcDbPolyline
 90
        5
 70
   128
 43
0.0
 10
1433.460773943903
 20
1833.464522245976
 10
1433.443564799046
 20
1833.237639684672
 10
1433.402887273252
 20
1833.058605759906
 10
1433.366299104515
 20
1832.961145789741
 10
1433.359852926047
 20
1832.948070585526
  0
LWPOLYLINE
  5
34E
330
2AB
100
AcDbEntity
  8
P-SANR-FIXT
100
AcDbPolyline
 90
        5
 70
   128
 43
0.0
 10
1527.265539713904
 20
1833.464522245975
 10
1527.282748858762
 20
1833.237639684671
 10
1527.323426384554
 20
1833.058605759905
 10
1527.360014553292
 20
1832.96114578974
 10
1527.36646073176
 20
1832.948070585525
  0
LWPOLYLINE
  5
34F
330
2AB
100
AcDbEntity
  8
P-SANR-FIXT
100
AcDbPolyline
 90
       14
 70
   128
 43
0.0
 10
1386.802186334024
 20
1806.046838381996
 10
1386.855422124729
 20
1806.091558890851
 10
1387.118711411851
 20
1806.320638045137
 10
1387.287305154278
 20
1806.470651465477
 10
1387.477716101151
 20
1806.641869796617
 10
1387.924834345022
 20
1807.048323794056
 10
1388.413365236641
 20
1807.495636468387
 10
1388.936155060886
 20
1807.974655962917
 10
1390.05959000794
 20
1808.995860347562
 10
1392.520091060198
 20
1811.155194797936
 10
1402.664607370648
 20
1818.685491597555
 10
1413.586986571043
 20
1824.799987927369
 10
1424.141998649667
 20
1829.333276765904
 10
1424.449899191455
 20
1829.444363579864
  0
LWPOLYLINE
  5
350
330
2AB
100
AcDbEntity
  8
P-SANR-FIXT
100
AcDbPolyline
 90
       14
 70
   128
 43
0.0
 10
1573.924127323782
 20
1806.046838381994
 10
1573.870891533078
 20
1806.091558890848
 10
1573.607602245956
 20
1806.320638045135
 10
1573.439008503529
 20
1806.470651465474
 10
1573.248597556656
 20
1806.641869796615
 10
1572.801479312786
 20
1807.048323794053
 10
1572.312948421165
 20
1807.495636468385
 10
1571.790158596921
 20
1807.974655962914
 10
1570.666723649867
 20
1808.995860347559
 10
1568.206222597609
 20
1811.155194797933
 10
1558.061706287158
 20
1818.685491597553
 10
1547.139327086763
 20
1824.799987927367
 10
1536.58431500814
 20
1829.333276765902
 10
1536.276414466351
 20
1829.444363579863
  0
ELLIPSE
  5
351
330
2AB
100
AcDbEntity
  8
P-SANR-FIXT
100
AcDbEllipse
 10
1480.363156828901
 20
1830.170723098619
 30
0.0
 11
-48.24561437690431
 21
0.0000000000006671
 31
0.0
210
0.0
220
0.0
230
1.0
 40
0.2588190451025186
 41
6.133585657008631
 42
7.853981633974483
  0
ELLIPSE
  5
352
330
2AB
100
AcDbEntity
  8
P-SANR-FIXT
100
AcDbEllipse
 10
1480.363156828901
 20
1830.170723098619
 30
0.0
 11
48.2456143769039
 21
0.0
 31
0.0
210
0.0
220
0.0
230
0.9999999999999998
 40
0.2588190451025148
 41
4.712388980384683
 42
6.432784957350483
  0
ELLIPSE
  5
353
330
2AB
100
AcDbEntity
  8
P-SANR-FIXT
100
AcDbEllipse
 10
1480.363156828902
 20
1854.281633196517
 30
0.0
 11
46.90238288499984
 21
0.0
 31
0.0
210
0.0
220
0.0
230
1.0
 40
0.2588190451025195
 41
3.072128264975645
 42
4.569887850916679
  0
ELLIPSE
  5
354
330
2AB
100
AcDbEntity
  8
P-SANR-FIXT
100
AcDbEllipse
 10
1480.363156828902
 20
1854.281633196517
 30
0.0
 11
46.90238288499972
 21
0.0
 31
0.0
210
0.0
220
0.0
230
1.0
 40
0.2588190451025217
 41
4.854888019632071
 42
6.352649695793734
  0
LINE
  5
355
330
2AB
100
AcDbEntity
  8
P-SANR-FIXT
100
AcDbLine
 10
1576.561126484311
 20
2099.5271129917
 30
0.0
 11
1571.594928975883
 21
2084.835535304712
 31
0.0
  0
ELLIPSE
  5
356
330
2AB
100
AcDbEntity
  8
P-SANR-FIXT
100
AcDbEllipse
 10
1540.312250118123
 20
2085.118273168155
 30
0.0
 11
31.30174703631025
 21
0.0
 31
0.0
210
0.0
220
0.0
230
1.0
 40
0.2588190451025139
 41
4.904547672613169
 42
6.24827872213972
  0
ELLIPSE
  5
357
330
2AB
100
AcDbEntity
  8
P-SANR-FIXT
100
AcDbEllipse
 10
1420.414063539665
 20
2085.118273168155
 30
0.0
 11
31.30174703631023
 21
0.0
 31
0.0
210
0.0
220
0.0
230
1.0
 40
0.2588190451025252
 41
3.176499238629701
 42
4.520277109292942
  0
LINE
  5
358
330
2AB
100
AcDbEntity
  8
P-SANR-FIXT
100
AcDbLine
 10
1389.131384681904
 20
2084.835535304713
 30
0.0
 11
1384.165187173477
 21
2099.5271129917
 31
0.0
  0
LINE
  5
359
330
2AB
100
AcDbEntity
  8
P-SANR-FIXT
100
AcDbLine
 10
1389.131384681904
 20
2112.487518787969
 30
0.0
 11
1389.131384681904
 21
2084.835535304713
 31
0.0
  0
LINE
  5
35A
330
2AB
100
AcDbEntity
  8
P-SANR-FIXT
100
AcDbLine
 10
1541.404665335599
 20
2104.673703581197
 30
0.0
 11
1541.404665335599
 21
2079.969974081683
 31
0.0
  0
LINE
  5
35B
330
2AB
100
AcDbEntity
  8
P-SANR-FIXT
100
AcDbLine
 10
1384.165187173477
 20
2099.5271129917
 30
0.0
 11
1384.165187173477
 21
2127.179096474955
 31
0.0
  0
LINE
  5
35C
330
2AB
100
AcDbEntity
  8
P-SANR-FIXT
100
AcDbLine
 10
1571.594928975883
 20
2084.835535304712
 30
0.0
 11
1571.594928975883
 21
2112.487518787969
 31
0.0
  0
LINE
  5
35D
330
2AB
100
AcDbEntity
  8
P-SANR-FIXT
100
AcDbLine
 10
1576.561126484311
 20
2099.5271129917
 30
0.0
 11
1576.561126484311
 21
2127.179096474956
 31
0.0
  0
ELLIPSE
  5
35E
330
2AB
100
AcDbEntity
  8
P-SANR-FIXT
100
AcDbEllipse
 10
1480.363156828901
 20
1796.978956000121
 30
0.0
 11
100.0560511982393
 21
0.0
 31
0.0
210
0.0
220
0.0
230
0.9999999999999998
 40
0.258819045102519
 41
2.792526803190878
 42
4.602142336177646
  0
ELLIPSE
  5
35F
330
2AB
100
AcDbEntity
  8
P-SANR-FIXT
100
AcDbEllipse
 10
1480.363156828901
 20
1796.978956000121
 30
0.0
 11
100.0560511982399
 21
0.0
 31
0.0
210
0.0
220
0.0
230
1.0
 40
0.2588190451025158
 41
4.822635624591572
 42
6.63225115757841
  0
ELLIPSE
  5
360
330
2AB
100
AcDbEntity
  8
P-SANR-FIXT
100
AcDbEllipse
 10
1480.363156828901
 20
1788.394488424654
 30
0.0
 11
113.6447483441567
 21
0.0
 31
0.0
210
0.0
220
0.0
230
1.0
 40
0.2588190451025185
 41
2.653771228836971
 42
4.712388980384669
  0
ELLIPSE
  5
361
330
2AB
100
AcDbEntity
  8
P-SANR-FIXT
100
AcDbEllipse
 10
1480.363156828901
 20
1788.394488424654
 30
0.0
 11
-113.6447483441568
 21
0.0000000000014453
 31
0.0
210
0.0
220
0.0
230
1.0
 40
0.2588190451025185
 41
1.570796326794893
 42
3.629414078342569
  0
ELLIPSE
  5
362
330
2AB
100
AcDbEntity
  8
P-SANR-FIXT
100
AcDbEllipse
 10
1480.3631568289
 20
1778.664887085267
 30
0.0
 11
-124.1094335876214
 21
0.0000000000012753
 31
0.0
210
0.0
220
0.0
230
0.9999999999999998
 40
0.2588190451025188
 41
6.238032932494322
 42
7.853981633974481
  0
ELLIPSE
  5
363
330
2AB
100
AcDbEntity
  8
P-SANR-FIXT
100
AcDbEllipse
 10
1480.3631568289
 20
1778.664887085267
 30
0.0
 11
124.1094335876219
 21
0.0
 31
0.0
210
0.0
220
0.0
230
1.0
 40
0.2588190451025181
 41
4.712388980384681
 42
6.328337681864778
  0
ELLIPSE
  5
364
330
2AB
100
AcDbEntity
  8
P-SANR-FIXT
100
AcDbEllipse
 10
1480.3631568289
 20
1776.502828313566
 30
0.0
 11
-124.1094335876216
 21
0.0000000000015784
 31
0.0
210
0.0
220
0.0
230
1.0
 40
0.2588190451025201
 41
0.0
 42
1.570796326794888
  0
ELLIPSE
  5
365
330
2AB
100
AcDbEntity
  8
P-SANR-FIXT
100
AcDbEllipse
 10
1480.3631568289
 20
1776.502828313566
 30
0.0
 11
-124.1094335876218
 21
0.0000000000016335
 31
0.0
210
0.0
220
0.0
230
0.9999999999999998
 40
0.2588190451025197
 41
1.570796326794892
 42
3.141592653589782
  0
ELLIPSE
  5
366
330
2AB
100
AcDbEntity
  8
P-SANR-FIXT
100
AcDbEllipse
 10
1480.363156828899
 20
1601.783194623623
 30
0.0
 11
47.79342598187683
 21
0.0
 31
0.0
210
0.0
220
0.0
230
0.9999999999999998
 40
0.258819045102511
 41
3.436652511861653
 42
4.712388980384669
  0
ELLIPSE
  5
367
330
2AB
100
AcDbEntity
  8
P-SANR-FIXT
100
AcDbEllipse
 10
1480.363156828899
 20
1601.783194623623
 30
0.0
 11
-47.79342598187645
 21
0.0000000000003001
 31
0.0
210
0.0
220
0.0
230
1.0
 40
0.2588190451025167
 41
1.570796326794885
 42
2.917193178333358
  0
ELLIPSE
  5
368
330
2AB
100
AcDbEntity
  8
P-SANR-FIXT
100
AcDbEllipse
 10
1480.363156828899
 20
1595.860090327202
 30
0.0
 11
-45.6926650344983
 21
0.0000000000005405
 31
0.0
210
0.0
220
0.0
230
1.0
 40
0.2588190451025137
 41
0.0
 42
1.570796326794881
  0
ELLIPSE
  5
369
330
2AB
100
AcDbEntity
  8
P-SANR-FIXT
100
AcDbEllipse
 10
1480.363156828899
 20
1595.860090327202
 30
0.0
 11
-45.69266503449784
 21
0.0000000000004289
 31
0.0
210
0.0
220
0.0
230
1.0
 40
0.2588190451025162
 41
1.570796326794895
 42
3.141592653589786
  0
ELLIPSE
  5
36A
330
2AB
100
AcDbEntity
  8
P-SANR-FIXT
100
AcDbEllipse
 10
1480.363156828899
 20
1583.563861001759
 30
0.0
 11
-44.80249718490472
 21
0.0000000000003012
 31
0.0
210
0.0
220
0.0
230
0.9999999999999998
 40
0.2588190451025192
 41
0.0
 42
1.570796326794884
  0
ELLIPSE
  5
36B
330
2AB
100
AcDbEntity
  8
P-SANR-FIXT
100
AcDbEllipse
 10
1480.363156828899
 20
1583.563861001759
 30
0.0
 11
-44.80249718490472
 21
0.0000000000006096
 31
0.0
210
0.0
220
0.0
230
0.9999999999999998
 40
0.2588190451025192
 41
1.570796326794891
 42
3.141592653589782
  0
ELLIPSE
  5
36C
330
2AB
100
AcDbEntity
  8
P-SANR-FIXT
100
AcDbEllipse
 10
1480.363156828901
 20
1785.043002342269
 30
0.0
 11
124.1094335876203
 21
0.0
 31
0.0
210
0.0
220
0.0
230
1.0
 40
0.2588190451025193
 41
2.454331129549974
 42
4.71238898038467
  0
ELLIPSE
  5
36D
330
2AB
100
AcDbEntity
  8
P-SANR-FIXT
100
AcDbEllipse
 10
1480.363156828901
 20
1785.043002342269
 30
0.0
 11
-124.1094335876205
 21
0.0000000000016886
 31
0.0
210
0.0
220
0.0
230
0.9999999999999998
 40
0.2588190451025207
 41
1.570796326794894
 42
3.828854177675133
  0
ELLIPSE
  5
36E
330
2AB
100
AcDbEntity
  8
P-SANR-FIXT
100
AcDbEllipse
 10
1480.3631568289
 20
1781.562664564135
 30
0.0
 11
-124.1094335876203
 21
0.0000000000016335
 31
0.0
210
0.0
220
0.0
230
1.0
 40
0.2588190451025194
 41
0.0
 42
1.570796326794888
  0
ELLIPSE
  5
36F
330
2AB
100
AcDbEntity
  8
P-SANR-FIXT
100
AcDbEllipse
 10
1480.3631568289
 20
1781.562664564135
 30
0.0
 11
-124.1094335876207
 21
0.0000000000017713
 31
0.0
210
0.0
220
0.0
230
1.0
 40
0.2588190451025183
 41
1.570796326794896
 42
3.141592653589794
  0
ELLIPSE
  5
370
330
2AB
100
AcDbEntity
  8
P-SANR-FIXT
100
AcDbEllipse
 10
1480.3631568289
 20
1778.664887085267
 30
0.0
 11
121.1094335876203
 21
0.0
 31
0.0
210
0.0
220
0.0
230
1.0
 40
0.2588190451025216
 41
3.367808760008883
 42
4.71238898038467
  0
ELLIPSE
  5
371
330
2AB
100
AcDbEntity
  8
P-SANR-FIXT
100
AcDbEllipse
 10
1480.3631568289
 20
1778.664887085267
 30
0.0
 11
-121.1094335876205
 21
0.0000000000016209
 31
0.0
210
0.0
220
0.0
230
1.0
 40
0.2588190451025211
 41
1.570796326794892
 42
2.915376547170641
  0
LINE
  5
372
330
2AB
100
AcDbEntity
  8
P-SANR-FIXT
100
AcDbLine
 10
1412.603044279685
 20
2149.43313112211
 30
0.0
 11
1417.300793173996
 21
2149.539505690726
 31
0.0
  0
ELLIPSE
  5
373
330
2AB
100
AcDbEntity
  8
P-SANR-FIXT
100
AcDbEllipse
 10
1420.414063539666
 20
2141.5879362985
 30
0.0
 11
31.30174703631001
 21
0.0
 31
0.0
210
0.0
220
0.0
230
1.0
 40
0.2588190451025309
 41
1.823000908319292
 42
3.106686068549879
  0
LINE
  5
374
330
2AB
100
AcDbEntity
  8
P-SANR-FIXT
100
AcDbLine
 10
1384.165187173477
 20
2127.179096474955
 30
0.0
 11
1389.131384681905
 21
2141.870674161943
 31
0.0
  0
LINE
  5
375
330
2AB
100
AcDbEntity
  8
P-SANR-FIXT
100
AcDbLine
 10
1389.131384681904
 20
2112.487518787969
 30
0.0
 11
1384.165187173477
 21
2127.179096474955
 31
0.0
  0
ELLIPSE
  5
376
330
2AB
100
AcDbEntity
  8
P-SANR-FIXT
100
AcDbEllipse
 10
1420.414063539665
 20
2112.770256651411
 30
0.0
 11
31.30174703631015
 21
0.0
 31
0.0
210
0.0
220
0.0
230
0.9999999999999998
 40
0.2588190451025076
 41
3.176499238629647
 42
4.625804496199898
  0
LINE
  5
377
330
2AB
100
AcDbEntity
  8
P-SANR-FIXT
100
AcDbLine
 10
1473.741478435732
 20
2103.440257851555
 30
0.0
 11
1417.707203043793
 21
2104.699117320108
 31
0.0
  0
LINE
  5
378
330
2AB
100
AcDbEntity
  8
P-SANR-FIXT
100
AcDbLine
 10
1541.404665335599
 20
2104.673703581197
 30
0.0
 11
1486.984835222054
 21
2103.441435513515
 31
0.0
  0
ELLIPSE
  5
379
330
2AB
100
AcDbEntity
  8
P-SANR-FIXT
100
AcDbEllipse
 10
1540.312250118123
 20
2112.770256651411
 30
0.0
 11
31.30174703631025
 21
0.0
 31
0.0
210
0.0
220
0.0
230
1.0
 40
0.2588190451025139
 41
4.74729556542456
 42
6.24827872213972
  0
LINE
  5
37A
330
2AB
100
AcDbEntity
  8
P-SANR-FIXT
100
AcDbLine
 10
1576.561126484311
 20
2127.179096474956
 30
0.0
 11
1571.594928975883
 21
2112.487518787969
 31
0.0
  0
LINE
  5
37B
330
2AB
100
AcDbEntity
  8
P-SANR-FIXT
100
AcDbLine
 10
1570.379517741416
 20
2142.401300109181
 30
0.0
 11
1576.561126484311
 21
2127.179096474956
 31
0.0
  0
ELLIPSE
  5
37C
330
2AB
100
AcDbEntity
  8
P-SANR-FIXT
100
AcDbEllipse
 10
1532.746253821339
 20
2139.629712361717
 30
0.0
 11
39.12718379538754
 21
0.0
 31
0.0
210
0.0
220
0.0
230
1.0
 40
0.2588190451025202
 41
0.2772240806173208
 42
1.293796939575579
  0
ELLIPSE
  5
37D
330
2AB
100
AcDbEntity
  8
P-SANR-FIXT
100
AcDbEllipse
 10
1480.363156828901
 20
1820.511464835729
 30
0.0
 11
65.56612245259278
 21
0.0
 31
0.0
210
0.0
220
0.0
230
1.0
 40
0.258819045102521
 41
2.658972540159032
 42
4.680786816229734
  0
ELLIPSE
  5
37E
330
2AB
100
AcDbEntity
  8
P-SANR-FIXT
100
AcDbEllipse
 10
1480.363156828901
 20
1820.511464835729
 30
0.0
 11
65.56612245259289
 21
0.0
 31
0.0
210
0.0
220
0.0
230
1.0
 40
0.2588190451025196
 41
4.743991144539409
 42
6.765805420610262
  0
ENDBLK
  5
380
330
2AB
100
AcDbEntity
  8
0
100
AcDbBlockEnd
  0
ENDSEC
  0
SECTION
  2
ENTITIES
  0
INSERT
  5
1DE
330
71
100
AcDbEntity
  8
P-SANR-FIXT
100
AcDbBlockReference
  2
Automatic flow rate regulator valve_Caleffi_121 DN15 - 1_2__-859151-Est - Idraulica
 10
0.0
 20
0.0
 30
0.0
1001
REVIT
1002
{
1070
     1
1000
863131
1002
}
1002
{
1070
     5
1000
859151
1002
}
1002
{
1070
     2
1000
-2001160
1002
}
  0
INSERT
  5
2AA
330
71
100
AcDbEntity
  8
P-SANR-FIXT
100
AcDbBlockReference
  2
Automatic flow rate regulator valve_Caleffi_121 DN15 - 1_2__-V1-Est - Idraulica
 10
0.0
 20
0.0
 30
0.0
1001
REVIT
1002
{
1070
     1
1000
863152
1002
}
1002
{
1070
     5
1000
859151
1002
}
1002
{
1070
     2
1000
-2001160
1002
}
  0
INSERT
  5
381
330
71
100
AcDbEntity
  8
P-SANR-FIXT
100
AcDbBlockReference
  2
Automatic flow rate regulator valve_Caleffi_121 DN15 - 1_2__-V2-Est - Idraulica
 10
0.0
 20
0.0
 30
0.0
1001
REVIT
1002
{
1070
     1
1000
863172
1002
}
1002
{
1070
     5
1000
859151
1002
}
1002
{
1070
     2
1000
-2001160
1002
}
  0
ENDSEC
  0
SECTION
  2
OBJECTS
  0
DICTIONARY
  5
C
330
0
100
AcDbDictionary
281
     1
  3
ACAD_CIP_PREVIOUS_PRODUCT_INFO
350
7A
  3
ACAD_COLOR
350
63
  3
ACAD_DETAILVIEWSTYLE
350
6B
  3
ACAD_GROUP
350
D
  3
ACAD_IMAGE_VARS
350
7B
  3
ACAD_LAYOUT
350
62
  3
ACAD_MATERIAL
350
10
  3
ACAD_MLEADERSTYLE
350
66
  3
ACAD_MLINESTYLE
350
5F
  3
ACAD_PLOTSETTINGS
350
61
  3
ACAD_PLOTSTYLENAME
350
E
  3
ACAD_SCALELIST
350
42
  3
ACAD_SECTIONVIEWSTYLE
350
68
  3
ACAD_TABLESTYLE
350
64
  3
ACAD_VISUALSTYLE
350
29
  3
ACDB_RECOMPOSE_DATA
350
38B
  3
AcDbVariableDictionary
350
7C
  3
REVIT_DICTIONARY
350
383
  0
DICTIONARY
  5
387
330
71
100
AcDbDictionary
280
     1
281
     1
  3
ACAD_SORTENTS
360
388
  0
XRECORD
  5
7A
102
{ACAD_REACTORS
330
C
102
}
330
C
100
AcDbXrecord
280
     1
300
RVT
300
2013
300
RVT2013
  0
DICTIONARY
  5
63
102
{ACAD_REACTORS
330
C
102
}
330
C
100
AcDbDictionary
281
     1
  0
DICTIONARY
  5
6B
102
{ACAD_REACTORS
330
C
102
}
330
C
100
AcDbDictionary
281
     1
  3
Imperial24
350
6C
  0
DICTIONARY
  5
D
102
{ACAD_REACTORS
330
C
102
}
330
C
100
AcDbDictionary
281
     1
  0
RASTERVARIABLES
  5
7B
102
{ACAD_REACTORS
330
C
102
}
330
C
100
AcDbRasterVariables
 90
        0
 70
     0
 71
     1
 72
     1
  0
DICTIONARY
  5
62
102
{ACAD_REACTORS
330
C
102
}
330
C
100
AcDbDictionary
281
     1
  3
Layout1
350
70
  3
Layout2
350
78
  3
Model
350
74
  0
DICTIONARY
  5
10
102
{ACAD_REACTORS
330
C
102
}
330
C
100
AcDbDictionary
281
     1
  3
ByBlock
350
19
  3
ByLayer
350
11
  3
Global
350
21
  0
DICTIONARY
  5
66
102
{ACAD_REACTORS
330
C
102
}
330
C
100
AcDbDictionary
281
     1
  3
Standard
350
67
  0
DICTIONARY
  5
5F
102
{ACAD_REACTORS
330
C
102
}
330
C
100
AcDbDictionary
281
     1
  3
Standard
350
60
  0
DICTIONARY
  5
61
102
{ACAD_REACTORS
330
C
102
}
330
C
100
AcDbDictionary
281
     1
  0
ACDBDICTIONARYWDFLT
  5
E
102
{ACAD_REACTORS
330
C
102
}
330
C
100
AcDbDictionary
281
     1
  3
Normal
350
F
100
AcDbDictionaryWithDefault
340
F
  0
DICTIONARY
  5
42
102
{ACAD_REACTORS
330
C
102
}
330
C
100
AcDbDictionary
281
     1
  3
A0
350
43
  3
A1
350
44
  3
A2
350
45
  3
A3
350
46
  3
A4
350
47
  3
A5
350
48
  3
A6
350
49
  3
A7
350
4A
  3
A8
350
4B
  3
A9
350
4C
  3
B0
350
4D
  3
B1
350
4E
  3
B2
350
4F
  3
B3
350
50
  3
B4
350
51
  3
B5
350
52
  3
B6
350
53
  0
DICTIONARY
  5
68
102
{ACAD_REACTORS
330
C
102
}
330
C
100
AcDbDictionary
281
     1
  3
Imperial24
350
6A
  0
DICTIONARY
  5
64
102
{ACAD_REACTORS
330
C
102
}
330
C
100
AcDbDictionary
281
     1
  3
Standard
350
65
  0
DICTIONARY
  5
29
102
{ACAD_REACTORS
330
C
102
}
330
C
100
AcDbDictionary
281
     1
  3
2dWireframe
350
2F
  3
Basic
350
2E
  3
Brighten
350
35
  3
ColorChange
350
39
  3
Conceptual
350
32
  3
Dim
350
34
  3
EdgeColorOff
350
41
  3
Facepattern
350
38
  3
Flat
350
2A
  3
FlatWithEdges
350
2B
  3
Gouraud
350
2C
  3
GouraudWithEdges
350
2D
  3
Hidden
350
31
  3
JitterOff
350
3F
  3
Linepattern
350
37
  3
OverhangOff
350
40
  3
Realistic
350
33
  3
Shaded
350
3E
  3
Shaded with edges
350
3D
  3
Shades of Gray
350
3A
  3
Sketchy
350
3B
  3
Thicken
350
36
  3
Wireframe
350
30
  3
X-Ray
350
3C
  0
XRECORD
  5
38B
102
{ACAD_REACTORS
330
C
102
}
330
C
100
AcDbXrecord
280
     1
 90
        1
330
65
  0
DICTIONARY
  5
7C
102
{ACAD_REACTORS
330
C
102
}
330
C
100
AcDbDictionary
281
     1
  3
CANNOSCALE
350
81
  3
CMLEADERSTYLE
350
7E
  3
CTABLESTYLE
350
7D
  3
CVIEWDETAILSTYLE
350
7F
  3
CVIEWSECTIONSTYLE
350
80
  0
DICTIONARY
  5
383
102
{ACAD_REACTORS
330
C
102
}
330
C
100
AcDbDictionary
281
     1
  3
DRAWING_TOOL
350
386
  3
REVIT_CATEGORY_MAPPING
350
385
  3
REVIT_TYPE_MAPPING
350
384
  0
SORTENTSTABLE
  5
388
102
{ACAD_REACTORS
330
387
102
}
330
387
100
AcDbSortentsTable
330
71
  0
ACDBDETAILVIEWSTYLE
  5
6C
102
{ACAD_REACTORS
330
6B
102
}
330
6B
100
AcDbModelDocViewStyle
 70
     0
  3
Imperial24
290
     1
100
AcDbDetailViewStyle
 70
     0
 71
     0
 90
        3
 71
     1
340
55
 62
   256
 40
0.24
340
0
 62
   256
 40
0.24
300

 40
0.36
280
     3
 71
     2
340
5D
 90
       25
 62
   256
 71
     3
340
55
 62
   256
 40
0.24
 90
        1
 40
0.75
 90
        1
300
%<\AcVar ViewType \f "%tc1">% %<\AcVar ViewDetailId>%\PSCALA %<\AcVar ViewScale \f "%sn">%
 71
     4
340
5D
 90
       25
 62
   256
340
5D
 90
       25
 62
   256
280
     0
  0
LAYOUT
  5
70
102
{ACAD_REACTORS
330
62
102
}
330
62
100
AcDbPlotSettings
  1

  2

  4

  6

 40
0.0
 41
0.0
 42
0.0
 43
0.0
 44
0.0
 45
0.0
 46
0.0
 47
0.0
 48
0.0
 49
0.0
140
0.0
141
0.0
142
1.0
143
1.0
 70
   688
 72
     0
 73
     0
 74
     5
  7

 75
    16
147
1.0
 76
     0
 77
     2
 78
   300
148
0.0
149
0.0
100
AcDbLayout
  1
Layout1
 70
     1
 71
     1
 10
0.0
 20
0.0
 11
12.0
 21
9.0
 12
0.0
 22
0.0
 32
0.0
 14
0.0
 24
0.0
 34
0.0
 15
0.0
 25
0.0
 35
0.0
146
0.0
 13
0.0
 23
0.0
 33
0.0
 16
1.0
 26
0.0
 36
0.0
 17
0.0
 27
1.0
 37
0.0
 76
     0
330
6D
  0
LAYOUT
  5
78
102
{ACAD_REACTORS
330
62
102
}
330
62
100
AcDbPlotSettings
  1

  2

  4

  6

 40
0.0
 41
0.0
 42
0.0
 43
0.0
 44
0.0
 45
0.0
 46
0.0
 47
0.0
 48
0.0
 49
0.0
140
0.0
141
0.0
142
1.0
143
1.0
 70
   688
 72
     0
 73
     0
 74
     5
  7

 75
    16
147
1.0
 76
     0
 77
     2
 78
   300
148
0.0
149
0.0
100
AcDbLayout
  1
Layout2
 70
     1
 71
     2
 10
0.0
 20
0.0
 11
12.0
 21
9.0
 12
0.0
 22
0.0
 32
0.0
 14
0.0
 24
0.0
 34
0.0
 15
0.0
 25
0.0
 35
0.0
146
0.0
 13
0.0
 23
0.0
 33
0.0
 16
1.0
 26
0.0
 36
0.0
 17
0.0
 27
1.0
 37
0.0
 76
     0
330
75
  0
LAYOUT
  5
74
102
{ACAD_REACTORS
330
62
102
}
330
62
100
AcDbPlotSettings
  1

  2

  4

  6

 40
0.0
 41
0.0
 42
0.0
 43
0.0
 44
0.0
 45
0.0
 46
0.0
 47
0.0
 48
0.0
 49
0.0
140
0.0
141
0.0
142
1.0
143
1.0
 70
  1712
 72
     0
 73
     0
 74
     0
  7

 75
     0
147
1.0
 76
     0
 77
     2
 78
   300
148
0.0
149
0.0
100
AcDbLayout
  1
Model
 70
     1
 71
     0
 10
0.0
 20
0.0
 11
12.0
 21
9.0
 12
0.0
 22
0.0
 32
0.0
 14
0.0
 24
0.0
 34
0.0
 15
0.0
 25
0.0
 35
0.0
146
0.0
 13
0.0
 23
0.0
 33
0.0
 16
1.0
 26
0.0
 36
0.0
 17
0.0
 27
1.0
 37
0.0
 76
     0
330
71
  0
MATERIAL
  5
19
102
{ACAD_XDICTIONARY
360
1A
102
}
102
{ACAD_REACTORS
330
10
102
}
330
10
100
AcDbMaterial
  1
ByBlock
 72
     0
 43
0.0208333333333333
 43
0.0
 43
0.0
 43
0.0
 43
0.0
 43
0.0208333333333333
 43
0.0
 43
0.0
 43
0.0
 43
0.0
 43
1.0
 43
0.0
 43
0.0
 43
0.0
 43
0.0
 43
1.0
 77
     0
 47
0.0208333333333333
 47
0.0
 47
0.0
 47
0.0
 47
0.0
 47
0.0208333333333333
 47
0.0
 47
0.0
 47
0.0
 47
0.0
 47
1.0
 47
0.0
 47
0.0
 47
0.0
 47
0.0
 47
1.0
171
     0
 49
0.0208333333333333
 49
0.0
 49
0.0
 49
0.0
 49
0.0
 49
0.0208333333333333
 49
0.0
 49
0.0
 49
0.0
 49
0.0
 49
1.0
 49
0.0
 49
0.0
 49
0.0
 49
0.0
 49
1.0
175
     0
142
0.0208333333333333
142
0.0
142
0.0
142
0.0
142
0.0
142
0.0208333333333333
142
0.0
142
0.0
142
0.0
142
0.0
142
1.0
142
0.0
142
0.0
142
0.0
142
0.0
142
1.0
179
     0
144
0.0208333333333333
144
0.0
144
0.0
144
0.0
144
0.0
144
0.0208333333333333
144
0.0
144
0.0
144
0.0
144
0.0
144
1.0
144
0.0
144
0.0
144
0.0
144
0.0
144
1.0
147
0.0208333333333333
147
0.0
147
0.0
147
0.0
147
0.0
147
0.0208333333333333
147
0.0
147
0.0
147
0.0
147
0.0
147
1.0
147
0.0
147
0.0
147
0.0
147
0.0
147
1.0
  0
MATERIAL
  5
11
102
{ACAD_XDICTIONARY
360
12
102
}
102
{ACAD_REACTORS
330
10
102
}
330
10
100
AcDbMaterial
  1
ByLayer
 72
     0
 43
0.0208333333333333
 43
0.0
 43
0.0
 43
0.0
 43
0.0
 43
0.0208333333333333
 43
0.0
 43
0.0
 43
0.0
 43
0.0
 43
1.0
 43
0.0
 43
0.0
 43
0.0
 43
0.0
 43
1.0
 77
     0
 47
0.0208333333333333
 47
0.0
 47
0.0
 47
0.0
 47
0.0
 47
0.0208333333333333
 47
0.0
 47
0.0
 47
0.0
 47
0.0
 47
1.0
 47
0.0
 47
0.0
 47
0.0
 47
0.0
 47
1.0
171
     0
 49
0.0208333333333333
 49
0.0
 49
0.0
 49
0.0
 49
0.0
 49
0.0208333333333333
 49
0.0
 49
0.0
 49
0.0
 49
0.0
 49
1.0
 49
0.0
 49
0.0
 49
0.0
 49
0.0
 49
1.0
175
     0
142
0.0208333333333333
142
0.0
142
0.0
142
0.0
142
0.0
142
0.0208333333333333
142
0.0
142
0.0
142
0.0
142
0.0
142
1.0
142
0.0
142
0.0
142
0.0
142
0.0
142
1.0
179
     0
144
0.0208333333333333
144
0.0
144
0.0
144
0.0
144
0.0
144
0.0208333333333333
144
0.0
144
0.0
144
0.0
144
0.0
144
1.0
144
0.0
144
0.0
144
0.0
144
0.0
144
1.0
147
0.0208333333333333
147
0.0
147
0.0
147
0.0
147
0.0
147
0.0208333333333333
147
0.0
147
0.0
147
0.0
147
0.0
147
1.0
147
0.0
147
0.0
147
0.0
147
0.0
147
1.0
  0
MATERIAL
  5
21
102
{ACAD_XDICTIONARY
360
22
102
}
102
{ACAD_REACTORS
330
10
102
}
330
10
100
AcDbMaterial
  1
Global
 72
     0
 43
0.0208333333333333
 43
0.0
 43
0.0
 43
0.0
 43
0.0
 43
0.0208333333333333
 43
0.0
 43
0.0
 43
0.0
 43
0.0
 43
1.0
 43
0.0
 43
0.0
 43
0.0
 43
0.0
 43
1.0
 77
     0
 47
0.0208333333333333
 47
0.0
 47
0.0
 47
0.0
 47
0.0
 47
0.0208333333333333
 47
0.0
 47
0.0
 47
0.0
 47
0.0
 47
1.0
 47
0.0
 47
0.0
 47
0.0
 47
0.0
 47
1.0
171
     0
 49
0.0208333333333333
 49
0.0
 49
0.0
 49
0.0
 49
0.0
 49
0.0208333333333333
 49
0.0
 49
0.0
 49
0.0
 49
0.0
 49
1.0
 49
0.0
 49
0.0
 49
0.0
 49
0.0
 49
1.0
175
     0
142
0.0208333333333333
142
0.0
142
0.0
142
0.0
142
0.0
142
0.0208333333333333
142
0.0
142
0.0
142
0.0
142
0.0
142
1.0
142
0.0
142
0.0
142
0.0
142
0.0
142
1.0
179
     0
144
0.0208333333333333
144
0.0
144
0.0
144
0.0
144
0.0
144
0.0208333333333333
144
0.0
144
0.0
144
0.0
144
0.0
144
1.0
144
0.0
144
0.0
144
0.0
144
0.0
144
1.0
147
0.0208333333333333
147
0.0
147
0.0
147
0.0
147
0.0
147
0.0208333333333333
147
0.0
147
0.0
147
0.0
147
0.0
147
1.0
147
0.0
147
0.0
147
0.0
147
0.0
147
1.0
  0
MLEADERSTYLE
  5
67
102
{ACAD_REACTORS
330
66
102
}
330
66
100
AcDbMLeaderStyle
179
     2
170
     2
171
     1
172
     0
 90
        2
 40
0.0
 41
0.0
173
     1
 91
-1056964608
340
5B
 92
       -2
290
     1
 42
0.09
291
     1
 43
0.36
  3
Standard
 44
0.18
300

342
55
174
     1
178
     6
175
     1
176
     0
 93
-1056964608
 45
0.18
292
     0
297
     0
 46
0.18
 94
-1056964608
 47
1.0
 49
1.0
140
1.0
293
     1
141
0.0
294
     1
177
     0
142
1.0
295
     1
296
     0
143
0.125
271
     0
272
     9
273
     9
298
     1
  0
MLINESTYLE
  5
60
102
{ACAD_REACTORS
330
5F
102
}
330
5F
100
AcDbMlineStyle
  2
STANDARD
 70
     0
  3

 62
   256
 51
90.0
 52
90.0
 71
     2
 49
0.5
 62
   256
  6
BYLAYER
 49
-0.5
 62
   256
  6
BYLAYER
  0
ACDBPLACEHOLDER
  5
F
102
{ACAD_REACTORS
330
E
102
}
330
E
  0
SCALE
  5
43
102
{ACAD_REACTORS
330
42
102
}
330
42
100
AcDbScale
 70
     0
300
1:1
140
1.0
141
1.0
290
     1
  0
SCALE
  5
44
102
{ACAD_REACTORS
330
42
102
}
330
42
100
AcDbScale
 70
     0
300
1/128" = 1'-0"
140
0.0078125
141
12.0
290
     0
  0
SCALE
  5
45
102
{ACAD_REACTORS
330
42
102
}
330
42
100
AcDbScale
 70
     0
300
1/64" = 1'-0"
140
0.015625
141
12.0
290
     0
  0
SCALE
  5
46
102
{ACAD_REACTORS
330
42
102
}
330
42
100
AcDbScale
 70
     0
300
1/32" = 1'-0"
140
0.03125
141
12.0
290
     0
  0
SCALE
  5
47
102
{ACAD_REACTORS
330
42
102
}
330
42
100
AcDbScale
 70
     0
300
1/16" = 1'-0"
140
0.0625
141
12.0
290
     0
  0
SCALE
  5
48
102
{ACAD_REACTORS
330
42
102
}
330
42
100
AcDbScale
 70
     0
300
3/32" = 1'-0"
140
0.09375
141
12.0
290
     0
  0
SCALE
  5
49
102
{ACAD_REACTORS
330
42
102
}
330
42
100
AcDbScale
 70
     0
300
1/8" = 1'-0"
140
0.125
141
12.0
290
     0
  0
SCALE
  5
4A
102
{ACAD_REACTORS
330
42
102
}
330
42
100
AcDbScale
 70
     0
300
3/16" = 1'-0"
140
0.1875
141
12.0
290
     0
  0
SCALE
  5
4B
102
{ACAD_REACTORS
330
42
102
}
330
42
100
AcDbScale
 70
     0
300
1/4" = 1'-0"
140
0.25
141
12.0
290
     0
  0
SCALE
  5
4C
102
{ACAD_REACTORS
330
42
102
}
330
42
100
AcDbScale
 70
     0
300
3/8" = 1'-0"
140
0.375
141
12.0
290
     0
  0
SCALE
  5
4D
102
{ACAD_REACTORS
330
42
102
}
330
42
100
AcDbScale
 70
     0
300
1/2" = 1'-0"
140
0.5
141
12.0
290
     0
  0
SCALE
  5
4E
102
{ACAD_REACTORS
330
42
102
}
330
42
100
AcDbScale
 70
     0
300
3/4" = 1'-0"
140
0.75
141
12.0
290
     0
  0
SCALE
  5
4F
102
{ACAD_REACTORS
330
42
102
}
330
42
100
AcDbScale
 70
     0
300
1" = 1'-0"
140
1.0
141
12.0
290
     0
  0
SCALE
  5
50
102
{ACAD_REACTORS
330
42
102
}
330
42
100
AcDbScale
 70
     0
300
1-1/2" = 1'-0"
140
1.5
141
12.0
290
     0
  0
SCALE
  5
51
102
{ACAD_REACTORS
330
42
102
}
330
42
100
AcDbScale
 70
     0
300
3" = 1'-0"
140
3.0
141
12.0
290
     0
  0
SCALE
  5
52
102
{ACAD_REACTORS
330
42
102
}
330
42
100
AcDbScale
 70
     0
300
6" = 1'-0"
140
6.0
141
12.0
290
     0
  0
SCALE
  5
53
102
{ACAD_REACTORS
330
42
102
}
330
42
100
AcDbScale
 70
     0
300
1'-0" = 1'-0"
140
12.0
141
12.0
290
     0
  0
ACDBSECTIONVIEWSTYLE
  5
6A
102
{ACAD_REACTORS
330
68
102
}
330
68
100
AcDbModelDocViewStyle
 70
     0
  3
Imperial24
290
     1
100
AcDbSectionViewStyle
 70
     0
 71
     0
 90
       78
 71
     1
340
55
 62
   256
 40
0.24
340
0
340
0
 62
   256
 40
0.24
300
I, O, Q, S, X, Z
 40
0.48
 90
        3
 40
0.18
 90
        1
 71
     2
340
69
 90
       25
 62
   256
340
5D
 90
       50
 62
   256
 40
0.24
 40
0.0
 40
0.24
 71
     3
340
55
 62
   256
 40
0.24
 90
        1
 40
0.75
 90
        1
300
%<\AcVar ViewType \f "%tc1">% %<\AcVar ViewSectionStartId>%-%<\AcVar ViewSectionEndId>%\PSCALA %<\AcVar ViewScale \f "%sn">%
 71
     4
 62
   256
 62
   257
300
ANSI31
 40
1.0
 90
        0
290
     0
290
     0
 90
        6
 40
0.0
 40
1.570796326794896
 40
0.2617993877991494
 40
1.308996938995747
 40
-0.2617993877991494
 40
1.832595714594046
  0
TABLESTYLE
  5
65
102
{ACAD_XDICTIONARY
360
389
102
}
102
{ACAD_REACTORS
330
64
102
}
330
64
100
AcDbTableStyle
280
     0
  3
Standard
 70
     0
 71
     0
 40
0.06
 41
0.06
280
     0
281
     0
  7
Standard
140
0.18
170
     2
 62
     0
 63
     7
283
     0
 90
      512
 91
        0
  1

274
    -2
284
     1
 64
     0
275
    -2
285
     1
 65
     0
276
    -2
286
     1
 66
     0
277
    -2
287
     1
 67
     0
278
    -2
288
     1
 68
     0
279
    -2
289
     1
 69
     0
  7
Standard
140
0.25
170
     5
 62
     0
 63
     7
283
     0
 90
      512
 91
        0
  1

274
    -2
284
     1
 64
     0
275
    -2
285
     1
 65
     0
276
    -2
286
     1
 66
     0
277
    -2
287
     1
 67
     0
278
    -2
288
     1
 68
     0
279
    -2
289
     1
 69
     0
  7
Standard
140
0.18
170
     5
 62
     0
 63
     7
283
     0
 90
      512
 91
        0
  1

274
    -2
284
     1
 64
     0
275
    -2
285
     1
 65
     0
276
    -2
286
     1
 66
     0
277
    -2
287
     1
 67
     0
278
    -2
288
     1
 68
     0
279
    -2
289
     1
 69
     0
  0
VISUALSTYLE
  5
2F
102
{ACAD_REACTORS
330
29
102
}
330
29
100
AcDbVisualStyle
  2
2dWireframe
 70
     4
177
     3
291
     0
 70
    58
 90
        0
176
     1
 90
        2
176
     1
 90
        0
176
     1
 90
        0
176
     1
 40
0.6
176
     1
 40
30.0
176
     1
 62
     7
420
 16777215
176
     1
 90
        1
176
     1
 90
        4
176
     1
 62
     7
176
     1
 62
   257
176
     1
 90
        1
176
     1
 90
        1
176
     1
 40
1.0
176
     1
 90
        0
176
     1
 62
   257
176
     1
 40
1.0
176
     1
 90
        1
176
     1
 90
        6
176
     1
 90
        2
176
     1
 62
     7
176
     1
 90
        5
176
     1
 90
        0
176
     1
 90
        0
176
     1
290
     0
176
     1
 90
        1
176
     1
 40
0.0
176
     1
 90
        0
176
     1
290
     1
176
     1
290
     1
176
     1
290
     0
176
     1
290
     0
176
     1
290
     0
176
     1
290
     0
176
     1
290
     0
176
     1
290
     0
176
     1
290
     0
176
     1
 90
       50
176
     1
 40
0.0
176
     1
 40
1.0
176
     1
 90
        0
176
     1
 62
    18
420
        0
176
     1
 90
       50
176
     1
 90
        3
176
     1
 62
     5
420
      255
176
     1
290
     0
176
     1
 90
       50
176
     1
 90
       50
176
     1
 90
       50
176
     1
290
     0
176
     1
 90
       50
176
     1
 62
   256
176
     0
 40
1.0
176
     0
 90
        2
176
     1
  1
strokes_ogs.tif
176
     1
290
     0
176
     1
 40
1.0
176
     1
 40
1.0
176
     1
  0
VISUALSTYLE
  5
2E
102
{ACAD_REACTORS
330
29
102
}
330
29
100
AcDbVisualStyle
  2
Basic
 70
     7
177
     3
291
     1
 70
    58
 90
        1
176
     1
 90
        0
176
     1
 90
        1
176
     1
 90
        0
176
     1
 40
0.6
176
     1
 40
30.0
176
     1
 62
     7
420
 16777215
176
     1
 90
        0
176
     1
 90
        4
176
     1
 62
     7
176
     1
 62
   257
176
     1
 90
        1
176
     1
 90
        1
176
     1
 40
1.0
176
     1
 90
        8
176
     1
 62
     7
176
     1
 40
1.0
176
     1
 90
        1
176
     1
 90
        6
176
     1
 90
        2
176
     1
 62
     7
176
     1
 90
        5
176
     1
 90
        0
176
     1
 90
        0
176
     1
290
     0
176
     1
 90
        1
176
     1
 40
0.0
176
     1
 90
        0
176
     1
290
     0
176
     1
290
     1
176
     1
290
     1
176
     1
290
     0
176
     1
290
     0
176
     1
290
     0
176
     1
290
     0
176
     1
290
     0
176
     1
290
     0
176
     1
 90
       50
176
     1
 40
0.0
176
     1
 40
1.0
176
     1
 90
        0
176
     1
 62
    18
420
        0
176
     1
 90
       50
176
     1
 90
        3
176
     1
 62
     5
420
      255
176
     1
290
     0
176
     1
 90
       50
176
     1
 90
       50
176
     1
 90
       50
176
     1
290
     0
176
     1
 90
       50
176
     1
 62
   256
176
     0
 40
1.0
176
     0
 90
        2
176
     1
  1
strokes_ogs.tif
176
     1
290
     0
176
     1
 40
1.0
176
     1
 40
1.0
176
     1
  0
VISUALSTYLE
  5
35
102
{ACAD_REACTORS
330
29
102
}
330
29
100
AcDbVisualStyle
  2
Brighten
 70
    12
177
     3
291
     1
 70
    58
 90
        2
176
     1
 90
        2
176
     1
 90
        0
176
     1
 90
        0
176
     1
 40
0.6
176
     1
 40
30.0
176
     1
 62
     7
420
 16777215
176
     1
 90
        1
176
     1
 90
        4
176
     1
 62
     7
176
     1
 62
   257
176
     1
 90
        1
176
     1
 90
        1
176
     1
 40
1.0
176
     1
 90
        8
176
     1
 62
     7
176
     1
 40
1.0
176
     1
 90
        1
176
     1
 90
        6
176
     1
 90
        2
176
     1
 62
     7
176
     1
 90
        5
176
     1
 90
        0
176
     1
 90
        0
176
     1
290
     0
176
     1
 90
        1
176
     1
 40
50.0
176
     1
 90
        0
176
     1
290
     0
176
     1
290
     1
176
     1
290
     1
176
     1
290
     0
176
     1
290
     0
176
     1
290
     0
176
     1
290
     0
176
     1
290
     0
176
     1
290
     0
176
     1
 90
       50
176
     1
 40
0.0
176
     1
 40
1.0
176
     1
 90
        0
176
     1
 62
    18
420
        0
176
     1
 90
       50
176
     1
 90
        3
176
     1
 62
     5
420
      255
176
     1
290
     0
176
     1
 90
       50
176
     1
 90
       50
176
     1
 90
       50
176
     1
290
     0
176
     1
 90
       50
176
     1
 62
   256
176
     0
 40
1.0
176
     0
 90
        2
176
     1
  1
strokes_ogs.tif
176
     1
290
     0
176
     1
 40
1.0
176
     1
 40
1.0
176
     1
  0
VISUALSTYLE
  5
39
102
{ACAD_REACTORS
330
29
102
}
330
29
100
AcDbVisualStyle
  2
ColorChange
 70
    16
177
     3
291
     1
 70
    58
 90
        2
176
     1
 90
        2
176
     1
 90
        3
176
     1
 90
        0
176
     1
 40
0.6
176
     1
 40
30.0
176
     1
 62
     8
420
  8421504
176
     1
 90
        1
176
     1
 90
        4
176
     1
 62
     7
176
     1
 62
   257
176
     1
 90
        1
176
     1
 90
        1
176
     1
 40
1.0
176
     1
 90
        8
176
     1
 62
     8
420
  8421504
176
     1
 40
1.0
176
     1
 90
        1
176
     1
 90
        6
176
     1
 90
        2
176
     1
 62
     7
176
     1
 90
        5
176
     1
 90
        0
176
     1
 90
        0
176
     1
290
     0
176
     1
 90
        1
176
     1
 40
0.0
176
     1
 90
        0
176
     1
290
     0
176
     1
290
     1
176
     1
290
     1
176
     1
290
     0
176
     1
290
     0
176
     1
290
     0
176
     1
290
     0
176
     1
290
     0
176
     1
290
     0
176
     1
 90
       50
176
     1
 40
0.0
176
     1
 40
1.0
176
     1
 90
        0
176
     1
 62
    18
420
        0
176
     1
 90
       50
176
     1
 90
        3
176
     1
 62
     5
420
      255
176
     1
290
     0
176
     1
 90
       50
176
     1
 90
       50
176
     1
 90
       50
176
     1
290
     0
176
     1
 90
       50
176
     1
 62
   256
176
     0
 40
1.0
176
     0
 90
        2
176
     1
  1
strokes_ogs.tif
176
     1
290
     0
176
     1
 40
1.0
176
     1
 40
1.0
176
     1
  0
VISUALSTYLE
  5
32
102
{ACAD_REACTORS
330
29
102
}
330
29
100
AcDbVisualStyle
  2
Conceptual
 70
     9
177
     3
291
     0
 70
    58
 90
        3
176
     1
 90
        2
176
     1
 90
        0
176
     1
 90
        0
176
     1
 40
0.6
176
     1
 40
30.0
176
     1
 62
     7
420
 16777215
176
     1
 90
        2
176
     1
 90
        2
176
     1
 62
     7
176
     1
 62
   257
176
     1
 90
        1
176
     1
 90
        1
176
     1
 40
179.0
176
     1
 90
        8
176
     1
 62
     7
176
     1
 40
1.0
176
     1
 90
        1
176
     1
 90
        6
176
     1
 90
        2
176
     1
 62
     7
176
     1
 90
        3
176
     1
 90
        0
176
     1
 90
        0
176
     1
290
     0
176
     1
 90
        1
176
     1
 40
0.0
176
     1
 90
        0
176
     1
290
     0
176
     1
290
     1
176
     1
290
     1
176
     1
290
     0
176
     1
290
     0
176
     1
290
     0
176
     1
290
     0
176
     1
290
     0
176
     1
290
     0
176
     1
 90
       50
176
     1
 40
0.0
176
     1
 40
1.0
176
     1
 90
        0
176
     1
 62
    18
420
        0
176
     1
 90
       50
176
     1
 90
        3
176
     1
 62
     5
420
      255
176
     1
290
     0
176
     1
 90
       50
176
     1
 90
       50
176
     1
 90
       50
176
     1
290
     0
176
     1
 90
       50
176
     1
 62
   256
176
     0
 40
1.0
176
     0
 90
        2
176
     1
  1
strokes_ogs.tif
176
     1
290
     0
176
     1
 40
1.0
176
     1
 40
1.0
176
     1
  0
VISUALSTYLE
  5
34
102
{ACAD_REACTORS
330
29
102
}
330
29
100
AcDbVisualStyle
  2
Dim
 70
    11
177
     3
291
     1
 70
    58
 90
        2
176
     1
 90
        2
176
     1
 90
        0
176
     1
 90
        0
176
     1
 40
0.6
176
     1
 40
30.0
176
     1
 62
     7
420
 16777215
176
     1
 90
        1
176
     1
 90
        4
176
     1
 62
     7
176
     1
 62
   257
176
     1
 90
        1
176
     1
 90
        1
176
     1
 40
1.0
176
     1
 90
        8
176
     1
 62
     7
176
     1
 40
1.0
176
     1
 90
        1
176
     1
 90
        6
176
     1
 90
        2
176
     1
 62
     7
176
     1
 90
        5
176
     1
 90
        0
176
     1
 90
        0
176
     1
290
     0
176
     1
 90
        1
176
     1
 40
-50.0
176
     1
 90
        0
176
     1
290
     0
176
     1
290
     1
176
     1
290
     1
176
     1
290
     0
176
     1
290
     0
176
     1
290
     0
176
     1
290
     0
176
     1
290
     0
176
     1
290
     0
176
     1
 90
       50
176
     1
 40
0.0
176
     1
 40
1.0
176
     1
 90
        0
176
     1
 62
    18
420
        0
176
     1
 90
       50
176
     1
 90
        3
176
     1
 62
     5
420
      255
176
     1
290
     0
176
     1
 90
       50
176
     1
 90
       50
176
     1
 90
       50
176
     1
290
     0
176
     1
 90
       50
176
     1
 62
   256
176
     0
 40
1.0
176
     0
 90
        2
176
     1
  1
strokes_ogs.tif
176
     1
290
     0
176
     1
 40
1.0
176
     1
 40
1.0
176
     1
  0
VISUALSTYLE
  5
41
102
{ACAD_REACTORS
330
29
102
}
330
29
100
AcDbVisualStyle
  2
EdgeColorOff
 70
    22
177
     3
291
     1
 70
    58
 90
        2
176
     0
 90
        2
176
     0
 90
        0
176
     0
 90
        0
176
     0
 40
0.6
176
     0
 40
30.0
176
     0
 62
     7
420
 16777215
176
     0
 90
        1
176
     0
 90
        4
176
     0
 62
     7
176
     0
 62
   257
176
     0
 90
        1
176
     0
 90
        1
176
     0
 40
1.0
176
     0
 90
        8
176
     2
 62
     7
176
     0
 40
1.0
176
     0
 90
        1
176
     0
 90
        6
176
     0
 90
        2
176
     0
 62
     7
176
     0
 90
        5
176
     0
 90
        0
176
     0
 90
        0
176
     0
290
     0
176
     0
 90
        1
176
     0
 40
0.0
176
     0
 90
        0
176
     0
290
     0
176
     0
290
     1
176
     0
290
     1
176
     0
290
     0
176
     0
290
     0
176
     0
290
     0
176
     0
290
     0
176
     0
290
     0
176
     0
290
     0
176
     0
 90
       50
176
     0
 40
0.0
176
     0
 40
1.0
176
     0
 90
        0
176
     0
 62
    18
420
        0
176
     0
 90
       50
176
     0
 90
        3
176
     0
 62
     5
420
      255
176
     0
290
     0
176
     0
 90
       50
176
     0
 90
       50
176
     0
 90
       50
176
     0
290
     0
176
     0
 90
       50
176
     0
 62
   256
176
     0
 40
1.0
176
     0
 90
        2
176
     0
  1
strokes_ogs.tif
176
     0
290
     0
176
     0
 40
1.0
176
     0
 40
1.0
176
     0
  0
VISUALSTYLE
  5
38
102
{ACAD_REACTORS
330
29
102
}
330
29
100
AcDbVisualStyle
  2
Facepattern
 70
    15
177
     3
291
     1
 70
    58
 90
        2
176
     1
 90
        2
176
     1
 90
        0
176
     1
 90
        0
176
     1
 40
0.6
176
     1
 40
30.0
176
     1
 62
     7
420
 16777215
176
     1
 90
        1
176
     1
 90
        4
176
     1
 62
     7
176
     1
 62
   257
176
     1
 90
        1
176
     1
 90
        1
176
     1
 40
1.0
176
     1
 90
        8
176
     1
 62
     7
176
     1
 40
1.0
176
     1
 90
        1
176
     1
 90
        6
176
     1
 90
        2
176
     1
 62
     7
176
     1
 90
        5
176
     1
 90
        0
176
     1
 90
        0
176
     1
290
     0
176
     1
 90
        1
176
     1
 40
0.0
176
     1
 90
        0
176
     1
290
     0
176
     1
290
     1
176
     1
290
     1
176
     1
290
     0
176
     1
290
     0
176
     1
290
     0
176
     1
290
     0
176
     1
290
     0
176
     1
290
     0
176
     1
 90
       50
176
     1
 40
0.0
176
     1
 40
1.0
176
     1
 90
        0
176
     1
 62
    18
420
        0
176
     1
 90
       50
176
     1
 90
        3
176
     1
 62
     5
420
      255
176
     1
290
     0
176
     1
 90
       50
176
     1
 90
       50
176
     1
 90
       50
176
     1
290
     0
176
     1
 90
       50
176
     1
 62
   256
176
     0
 40
1.0
176
     0
 90
        2
176
     1
  1
strokes_ogs.tif
176
     1
290
     0
176
     1
 40
1.0
176
     1
 40
1.0
176
     1
  0
VISUALSTYLE
  5
2A
102
{ACAD_REACTORS
330
29
102
}
330
29
100
AcDbVisualStyle
  2
Flat
 70
     0
177
     3
291
     1
 70
    58
 90
        2
176
     1
 90
        1
176
     1
 90
        1
176
     1
 90
        2
176
     1
 40
0.6
176
     1
 40
30.0
176
     1
 62
     7
420
 16777215
176
     1
 90
        0
176
     1
 90
        0
176
     1
 62
     7
176
     1
 62
   257
176
     1
 90
        1
176
     1
 90
        1
176
     1
 40
1.0
176
     1
 90
        8
176
     1
 62
     7
176
     1
 40
1.0
176
     1
 90
        1
176
     1
 90
        6
176
     1
 90
        2
176
     1
 62
     7
176
     1
 90
        5
176
     1
 90
        0
176
     1
 90
        0
176
     1
290
     0
176
     1
 90
       13
176
     1
 40
0.0
176
     1
 90
        0
176
     1
290
     0
176
     1
290
     1
176
     1
290
     1
176
     1
290
     0
176
     1
290
     0
176
     1
290
     0
176
     1
290
     0
176
     1
290
     0
176
     1
290
     0
176
     1
 90
       50
176
     1
 40
0.0
176
     1
 40
1.0
176
     1
 90
        0
176
     1
 62
    18
420
        0
176
     1
 90
       50
176
     1
 90
        3
176
     1
 62
     5
420
      255
176
     1
290
     0
176
     1
 90
       50
176
     1
 90
       50
176
     1
 90
       50
176
     1
290
     0
176
     1
 90
       50
176
     1
 62
   256
176
     0
 40
1.0
176
     0
 90
        2
176
     1
  1
strokes_ogs.tif
176
     1
290
     0
176
     1
 40
1.0
176
     1
 40
1.0
176
     1
  0
VISUALSTYLE
  5
2B
102
{ACAD_REACTORS
330
29
102
}
330
29
100
AcDbVisualStyle
  2
FlatWithEdges
 70
     1
177
     3
291
     1
 70
    58
 90
        2
176
     1
 90
        1
176
     1
 90
        1
176
     1
 90
        2
176
     1
 40
0.6
176
     1
 40
30.0
176
     1
 62
     7
420
 16777215
176
     1
 90
        1
176
     1
 90
        0
176
     1
 62
     7
176
     1
 62
   257
176
     1
 90
        1
176
     1
 90
        1
176
     1
 40
1.0
176
     1
 90
        0
176
     1
 62
   257
176
     1
 40
1.0
176
     1
 90
        1
176
     1
 90
        6
176
     1
 90
        2
176
     1
 62
     7
176
     1
 90
        5
176
     1
 90
        0
176
     1
 90
        0
176
     1
290
     0
176
     1
 90
       13
176
     1
 40
0.0
176
     1
 90
        0
176
     1
290
     0
176
     1
290
     1
176
     1
290
     1
176
     1
290
     0
176
     1
290
     0
176
     1
290
     0
176
     1
290
     0
176
     1
290
     0
176
     1
290
     0
176
     1
 90
       50
176
     1
 40
0.0
176
     1
 40
1.0
176
     1
 90
        0
176
     1
 62
    18
420
        0
176
     1
 90
       50
176
     1
 90
        3
176
     1
 62
     5
420
      255
176
     1
290
     0
176
     1
 90
       50
176
     1
 90
       50
176
     1
 90
       50
176
     1
290
     0
176
     1
 90
       50
176
     1
 62
   256
176
     0
 40
1.0
176
     0
 90
        2
176
     1
  1
strokes_ogs.tif
176
     1
290
     0
176
     1
 40
1.0
176
     1
 40
1.0
176
     1
  0
VISUALSTYLE
  5
2C
102
{ACAD_REACTORS
330
29
102
}
330
29
100
AcDbVisualStyle
  2
Gouraud
 70
     2
177
     3
291
     1
 70
    58
 90
        2
176
     1
 90
        2
176
     1
 90
        1
176
     1
 90
        2
176
     1
 40
0.6
176
     1
 40
30.0
176
     1
 62
     7
420
 16777215
176
     1
 90
        0
176
     1
 90
        0
176
     1
 62
     7
176
     1
 62
   257
176
     1
 90
        1
176
     1
 90
        1
176
     1
 40
1.0
176
     1
 90
        0
176
     1
 62
     7
176
     1
 40
1.0
176
     1
 90
        1
176
     1
 90
        6
176
     1
 90
        2
176
     1
 62
     7
176
     1
 90
        5
176
     1
 90
        0
176
     1
 90
        0
176
     1
290
     0
176
     1
 90
       13
176
     1
 40
0.0
176
     1
 90
        0
176
     1
290
     0
176
     1
290
     1
176
     1
290
     1
176
     1
290
     0
176
     1
290
     0
176
     1
290
     0
176
     1
290
     0
176
     1
290
     0
176
     1
290
     0
176
     1
 90
       50
176
     1
 40
0.0
176
     1
 40
1.0
176
     1
 90
        0
176
     1
 62
    18
420
        0
176
     1
 90
       50
176
     1
 90
        3
176
     1
 62
     5
420
      255
176
     1
290
     0
176
     1
 90
       50
176
     1
 90
       50
176
     1
 90
       50
176
     1
290
     0
176
     1
 90
       50
176
     1
 62
   256
176
     0
 40
1.0
176
     0
 90
        2
176
     1
  1
strokes_ogs.tif
176
     1
290
     0
176
     1
 40
1.0
176
     1
 40
1.0
176
     1
  0
VISUALSTYLE
  5
2D
102
{ACAD_REACTORS
330
29
102
}
330
29
100
AcDbVisualStyle
  2
GouraudWithEdges
 70
     3
177
     3
291
     1
 70
    58
 90
        2
176
     1
 90
        2
176
     1
 90
        1
176
     1
 90
        2
176
     1
 40
0.6
176
     1
 40
30.0
176
     1
 62
     7
420
 16777215
176
     1
 90
        1
176
     1
 90
        0
176
     1
 62
     7
176
     1
 62
   257
176
     1
 90
        1
176
     1
 90
        1
176
     1
 40
1.0
176
     1
 90
        0
176
     1
 62
   257
176
     1
 40
1.0
176
     1
 90
        1
176
     1
 90
        6
176
     1
 90
        2
176
     1
 62
     7
176
     1
 90
        5
176
     1
 90
        0
176
     1
 90
        0
176
     1
290
     0
176
     1
 90
       13
176
     1
 40
0.0
176
     1
 90
        0
176
     1
290
     0
176
     1
290
     1
176
     1
290
     1
176
     1
290
     0
176
     1
290
     0
176
     1
290
     0
176
     1
290
     0
176
     1
290
     0
176
     1
290
     0
176
     1
 90
       50
176
     1
 40
0.0
176
     1
 40
1.0
176
     1
 90
        0
176
     1
 62
    18
420
        0
176
     1
 90
       50
176
     1
 90
        3
176
     1
 62
     5
420
      255
176
     1
290
     0
176
     1
 90
       50
176
     1
 90
       50
176
     1
 90
       50
176
     1
290
     0
176
     1
 90
       50
176
     1
 62
   256
176
     0
 40
1.0
176
     0
 90
        2
176
     1
  1
strokes_ogs.tif
176
     1
290
     0
176
     1
 40
1.0
176
     1
 40
1.0
176
     1
  0
VISUALSTYLE
  5
31
102
{ACAD_REACTORS
330
29
102
}
330
29
100
AcDbVisualStyle
  2
Hidden
 70
     6
177
     3
291
     0
 70
    58
 90
        1
176
     1
 90
        2
176
     1
 90
        2
176
     1
 90
        0
176
     1
 40
0.6
176
     1
 40
30.0
176
     1
 62
     7
420
 16777215
176
     1
 90
        2
176
     1
 90
        2
176
     1
 62
     7
176
     1
 62
   257
176
     1
 90
        2
176
     1
 90
        1
176
     1
 40
40.0
176
     1
 90
        0
176
     1
 62
   257
176
     1
 40
1.0
176
     1
 90
        1
176
     1
 90
        6
176
     1
 90
        2
176
     1
 62
     7
176
     1
 90
        3
176
     1
 90
        0
176
     1
 90
        0
176
     1
290
     0
176
     1
 90
        1
176
     1
 40
0.0
176
     1
 90
        0
176
     1
290
     0
176
     1
290
     1
176
     1
290
     1
176
     1
290
     0
176
     1
290
     0
176
     1
290
     0
176
     1
290
     0
176
     1
290
     0
176
     1
290
     0
176
     1
 90
       50
176
     1
 40
0.0
176
     1
 40
1.0
176
     1
 90
        0
176
     1
 62
    18
420
        0
176
     1
 90
       50
176
     1
 90
        3
176
     1
 62
     5
420
      255
176
     1
290
     0
176
     1
 90
       50
176
     1
 90
       50
176
     1
 90
       50
176
     1
290
     0
176
     1
 90
       50
176
     1
 62
   256
176
     0
 40
1.0
176
     0
 90
        2
176
     1
  1
strokes_ogs.tif
176
     1
290
     0
176
     1
 40
1.0
176
     1
 40
1.0
176
     1
  0
VISUALSTYLE
  5
3F
102
{ACAD_REACTORS
330
29
102
}
330
29
100
AcDbVisualStyle
  2
JitterOff
 70
    20
177
     3
291
     1
 70
    58
 90
        2
176
     0
 90
        2
176
     0
 90
        0
176
     0
 90
        0
176
     0
 40
0.6
176
     0
 40
30.0
176
     0
 62
     7
420
 16777215
176
     0
 90
        1
176
     0
 90
        4
176
     0
 62
     7
176
     0
 62
   257
176
     0
 90
        1
176
     0
 90
        1
176
     0
 40
1.0
176
     0
 90
       10
176
     2
 62
     7
176
     0
 40
1.0
176
     0
 90
        1
176
     0
 90
        6
176
     0
 90
        2
176
     0
 62
     7
176
     0
 90
        5
176
     0
 90
        0
176
     0
 90
        0
176
     0
290
     0
176
     0
 90
        1
176
     0
 40
0.0
176
     0
 90
        0
176
     0
290
     0
176
     0
290
     1
176
     0
290
     1
176
     0
290
     0
176
     0
290
     0
176
     0
290
     0
176
     0
290
     0
176
     0
290
     0
176
     0
290
     0
176
     0
 90
       50
176
     0
 40
0.0
176
     0
 40
1.0
176
     0
 90
        0
176
     0
 62
    18
420
        0
176
     0
 90
       50
176
     0
 90
        3
176
     0
 62
     5
420
      255
176
     0
290
     0
176
     0
 90
       50
176
     0
 90
       50
176
     0
 90
       50
176
     0
290
     0
176
     0
 90
       50
176
     0
 62
   256
176
     0
 40
1.0
176
     0
 90
        2
176
     0
  1
strokes_ogs.tif
176
     0
290
     0
176
     0
 40
1.0
176
     0
 40
1.0
176
     0
  0
VISUALSTYLE
  5
37
102
{ACAD_REACTORS
330
29
102
}
330
29
100
AcDbVisualStyle
  2
Linepattern
 70
    14
177
     3
291
     1
 70
    58
 90
        2
176
     1
 90
        2
176
     1
 90
        0
176
     1
 90
        0
176
     1
 40
0.6
176
     1
 40
30.0
176
     1
 62
     7
420
 16777215
176
     1
 90
        1
176
     1
 90
        4
176
     1
 62
     7
176
     1
 62
   257
176
     1
 90
        7
176
     1
 90
        7
176
     1
 40
1.0
176
     1
 90
        8
176
     1
 62
     7
176
     1
 40
1.0
176
     1
 90
        1
176
     1
 90
        6
176
     1
 90
        2
176
     1
 62
     7
176
     1
 90
        5
176
     1
 90
        0
176
     1
 90
        0
176
     1
290
     0
176
     1
 90
        1
176
     1
 40
0.0
176
     1
 90
        0
176
     1
290
     0
176
     1
290
     1
176
     1
290
     1
176
     1
290
     0
176
     1
290
     0
176
     1
290
     0
176
     1
290
     0
176
     1
290
     0
176
     1
290
     0
176
     1
 90
       50
176
     1
 40
0.0
176
     1
 40
1.0
176
     1
 90
        0
176
     1
 62
    18
420
        0
176
     1
 90
       50
176
     1
 90
        3
176
     1
 62
     5
420
      255
176
     1
290
     0
176
     1
 90
       50
176
     1
 90
       50
176
     1
 90
       50
176
     1
290
     0
176
     1
 90
       50
176
     1
 62
   256
176
     0
 40
1.0
176
     0
 90
        2
176
     1
  1
strokes_ogs.tif
176
     1
290
     0
176
     1
 40
1.0
176
     1
 40
1.0
176
     1
  0
VISUALSTYLE
  5
40
102
{ACAD_REACTORS
330
29
102
}
330
29
100
AcDbVisualStyle
  2
OverhangOff
 70
    21
177
     3
291
     1
 70
    58
 90
        2
176
     0
 90
        2
176
     0
 90
        0
176
     0
 90
        0
176
     0
 40
0.6
176
     0
 40
30.0
176
     0
 62
     7
420
 16777215
176
     0
 90
        1
176
     0
 90
        4
176
     0
 62
     7
176
     0
 62
   257
176
     0
 90
        1
176
     0
 90
        1
176
     0
 40
1.0
176
     0
 90
        9
176
     2
 62
     7
176
     0
 40
1.0
176
     0
 90
        1
176
     0
 90
        6
176
     0
 90
        2
176
     0
 62
     7
176
     0
 90
        5
176
     0
 90
        0
176
     0
 90
        0
176
     0
290
     0
176
     0
 90
        1
176
     0
 40
0.0
176
     0
 90
        0
176
     0
290
     0
176
     0
290
     1
176
     0
290
     1
176
     0
290
     0
176
     0
290
     0
176
     0
290
     0
176
     0
290
     0
176
     0
290
     0
176
     0
290
     0
176
     0
 90
       50
176
     0
 40
0.0
176
     0
 40
1.0
176
     0
 90
        0
176
     0
 62
    18
420
        0
176
     0
 90
       50
176
     0
 90
        3
176
     0
 62
     5
420
      255
176
     0
290
     0
176
     0
 90
       50
176
     0
 90
       50
176
     0
 90
       50
176
     0
290
     0
176
     0
 90
       50
176
     0
 62
   256
176
     0
 40
1.0
176
     0
 90
        2
176
     0
  1
strokes_ogs.tif
176
     0
290
     0
176
     0
 40
1.0
176
     0
 40
1.0
176
     0
  0
VISUALSTYLE
  5
33
102
{ACAD_REACTORS
330
29
102
}
330
29
100
AcDbVisualStyle
  2
Realistic
 70
     8
177
     3
291
     0
 70
    58
 90
        2
176
     1
 90
        3
176
     1
 90
        0
176
     1
 90
        2
176
     1
 40
0.6
176
     1
 40
30.0
176
     1
 62
     7
420
 16777215
176
     1
 90
        0
176
     1
 90
        0
176
     1
 62
     7
176
     1
 62
   257
176
     1
 90
        1
176
     1
 90
        1
176
     1
 40
1.0
176
     1
 90
        8
176
     1
 62
   257
176
     1
 40
1.0
176
     1
 90
        1
176
     1
 90
        6
176
     1
 90
        2
176
     1
 62
     7
176
     1
 90
        3
176
     1
 90
        0
176
     1
 90
        0
176
     1
290
     0
176
     1
 90
       13
176
     1
 40
0.0
176
     1
 90
        0
176
     1
290
     0
176
     1
290
     1
176
     1
290
     1
176
     1
290
     0
176
     1
290
     0
176
     1
290
     0
176
     1
290
     0
176
     1
290
     0
176
     1
290
     0
176
     1
 90
       50
176
     1
 40
0.0
176
     1
 40
1.0
176
     1
 90
        0
176
     1
 62
    18
420
        0
176
     1
 90
       50
176
     1
 90
        3
176
     1
 62
     5
420
      255
176
     1
290
     0
176
     1
 90
       50
176
     1
 90
       50
176
     1
 90
       50
176
     1
290
     0
176
     1
 90
       50
176
     1
 62
   256
176
     0
 40
1.0
176
     0
 90
        2
176
     1
  1
strokes_ogs.tif
176
     1
290
     0
176
     1
 40
1.0
176
     1
 40
1.0
176
     1
  0
VISUALSTYLE
  5
3E
102
{ACAD_REACTORS
330
29
102
}
330
29
100
AcDbVisualStyle
  2
Shaded
 70
    27
177
     3
291
     0
 70
    58
 90
        2
176
     1
 90
        2
176
     1
 90
        1
176
     1
 90
        2
176
     1
 40
0.6
176
     1
 40
30.0
176
     1
 62
     7
420
 16777215
176
     1
 90
        0
176
     1
 90
        4
176
     1
 62
     7
176
     1
 62
   257
176
     1
 90
        1
176
     1
 90
        1
176
     1
 40
1.0
176
     1
 90
        8
176
     1
 62
   257
176
     1
 40
1.0
176
     1
 90
        1
176
     1
 90
        6
176
     1
 90
        2
176
     1
 62
     8
420
  7895160
176
     1
 90
        3
176
     1
 90
        0
176
     1
 90
        0
176
     1
290
     0
176
     1
 90
        5
176
     1
 40
0.0
176
     1
 90
        0
176
     1
290
     0
176
     1
290
     1
176
     1
290
     1
176
     1
290
     0
176
     1
290
     0
176
     1
290
     0
176
     1
290
     0
176
     1
290
     0
176
     1
290
     0
176
     1
 90
       50
176
     1
 40
0.0
176
     1
 40
1.0
176
     1
 90
        0
176
     1
 62
    18
420
        0
176
     1
 90
       50
176
     1
 90
        3
176
     1
 62
     5
420
      255
176
     1
290
     0
176
     1
 90
       50
176
     1
 90
       50
176
     1
 90
       50
176
     1
290
     0
176
     1
 90
       50
176
     1
 62
   256
176
     0
 40
1.0
176
     0
 90
        2
176
     1
  1
strokes_ogs.tif
176
     1
290
     0
176
     1
 40
1.0
176
     1
 40
1.0
176
     1
  0
VISUALSTYLE
  5
3D
102
{ACAD_REACTORS
330
29
102
}
330
29
100
AcDbVisualStyle
  2
Shaded with edges
 70
    26
177
     3
291
     0
 70
    58
 90
        2
176
     1
 90
        2
176
     1
 90
        1
176
     1
 90
        2
176
     1
 40
0.6
176
     1
 40
30.0
176
     1
 62
     7
420
 16777215
176
     1
 90
        1
176
     1
 90
       10
176
     1
 62
     7
176
     1
 62
   257
176
     1
 90
        2
176
     1
 90
        1
176
     1
 40
1.0
176
     1
 90
        8
176
     1
 62
   257
176
     1
 40
1.0
176
     1
 90
        1
176
     1
 90
        6
176
     1
 90
        2
176
     1
 62
     7
176
     1
 90
        3
176
     1
 90
        0
176
     1
 90
        0
176
     1
290
     0
176
     1
 90
        5
176
     1
 40
0.0
176
     1
 90
        0
176
     1
290
     0
176
     1
290
     1
176
     1
290
     1
176
     1
290
     0
176
     1
290
     0
176
     1
290
     0
176
     1
290
     0
176
     1
290
     0
176
     1
290
     0
176
     1
 90
       50
176
     1
 40
0.0
176
     1
 40
1.0
176
     1
 90
        0
176
     1
 62
    18
420
        0
176
     1
 90
       50
176
     1
 90
        3
176
     1
 62
     5
420
      255
176
     1
290
     0
176
     1
 90
       50
176
     1
 90
       50
176
     1
 90
       50
176
     1
290
     0
176
     1
 90
       50
176
     1
 62
   256
176
     0
 40
1.0
176
     0
 90
        2
176
     1
  1
strokes_ogs.tif
176
     1
290
     0
176
     1
 40
1.0
176
     1
 40
1.0
176
     1
  0
VISUALSTYLE
  5
3A
102
{ACAD_REACTORS
330
29
102
}
330
29
100
AcDbVisualStyle
  2
Shades of Gray
 70
    23
177
     3
291
     0
 70
    58
 90
        2
176
     1
 90
        2
176
     1
 90
        3
176
     1
 90
        0
176
     1
 40
0.6
176
     1
 40
30.0
176
     1
 62
     7
420
 16777215
176
     1
 90
        2
176
     1
 90
        2
176
     1
 62
     7
176
     1
 62
     7
176
     1
 90
        1
176
     1
 90
        1
176
     1
 40
40.0
176
     1
 90
        8
176
     1
 62
     7
176
     1
 40
1.0
176
     1
 90
        1
176
     1
 90
        6
176
     1
 90
        2
176
     1
 62
     7
176
     1
 90
        3
176
     1
 90
        0
176
     1
 90
        0
176
     1
290
     0
176
     1
 90
        1
176
     1
 40
0.0
176
     1
 90
        0
176
     1
290
     0
176
     1
290
     1
176
     1
290
     1
176
     1
290
     0
176
     1
290
     0
176
     1
290
     0
176
     1
290
     0
176
     1
290
     0
176
     1
290
     0
176
     1
 90
       50
176
     1
 40
0.0
176
     1
 40
1.0
176
     1
 90
        0
176
     1
 62
    18
420
        0
176
     1
 90
       50
176
     1
 90
        3
176
     1
 62
     5
420
      255
176
     1
290
     0
176
     1
 90
       50
176
     1
 90
       50
176
     1
 90
       50
176
     1
290
     0
176
     1
 90
       50
176
     1
 62
   256
176
     0
 40
1.0
176
     0
 90
        2
176
     1
  1
strokes_ogs.tif
176
     1
290
     0
176
     1
 40
1.0
176
     1
 40
1.0
176
     1
  0
VISUALSTYLE
  5
3B
102
{ACAD_REACTORS
330
29
102
}
330
29
100
AcDbVisualStyle
  2
Sketchy
 70
    24
177
     3
291
     0
 70
    58
 90
        1
176
     1
 90
        2
176
     1
 90
        2
176
     1
 90
        0
176
     1
 40
0.6
176
     1
 40
30.0
176
     1
 62
     7
420
 16777215
176
     1
 90
        2
176
     1
 90
        2
176
     1
 62
     7
176
     1
 62
     7
176
     1
 90
        1
176
     1
 90
        1
176
     1
 40
40.0
176
     1
 90
       11
176
     1
 62
     7
176
     1
 40
1.0
176
     1
 90
        1
176
     1
 90
        6
176
     1
 90
        2
176
     1
 62
     7
176
     1
 90
        6
176
     1
 90
        0
176
     1
 90
        0
176
     1
290
     0
176
     1
 90
        1
176
     1
 40
0.0
176
     1
 90
        0
176
     1
290
     0
176
     1
290
     1
176
     1
290
     1
176
     1
290
     0
176
     1
290
     0
176
     1
290
     0
176
     1
290
     0
176
     1
290
     0
176
     1
290
     0
176
     1
 90
       50
176
     1
 40
0.0
176
     1
 40
1.0
176
     1
 90
        0
176
     1
 62
    18
420
        0
176
     1
 90
       50
176
     1
 90
        3
176
     1
 62
     5
420
      255
176
     1
290
     0
176
     1
 90
       50
176
     1
 90
       50
176
     1
 90
       50
176
     1
290
     0
176
     1
 90
       50
176
     1
 62
   256
176
     0
 40
1.0
176
     0
 90
        2
176
     1
  1
strokes_ogs.tif
176
     1
290
     0
176
     1
 40
1.0
176
     1
 40
1.0
176
     1
  0
VISUALSTYLE
  5
36
102
{ACAD_REACTORS
330
29
102
}
330
29
100
AcDbVisualStyle
  2
Thicken
 70
    13
177
     3
291
     1
 70
    58
 90
        2
176
     1
 90
        2
176
     1
 90
        0
176
     1
 90
        0
176
     1
 40
0.6
176
     1
 40
30.0
176
     1
 62
     7
420
 16777215
176
     1
 90
        1
176
     1
 90
        4
176
     1
 62
     7
176
     1
 62
   257
176
     1
 90
        1
176
     1
 90
        1
176
     1
 40
1.0
176
     1
 90
       12
176
     1
 62
     7
176
     1
 40
1.0
176
     1
 90
        1
176
     1
 90
        6
176
     1
 90
        2
176
     1
 62
     7
176
     1
 90
        5
176
     1
 90
        0
176
     1
 90
        0
176
     1
290
     0
176
     1
 90
        1
176
     1
 40
0.0
176
     1
 90
        0
176
     1
290
     0
176
     1
290
     1
176
     1
290
     1
176
     1
290
     0
176
     1
290
     0
176
     1
290
     0
176
     1
290
     0
176
     1
290
     0
176
     1
290
     0
176
     1
 90
       50
176
     1
 40
0.0
176
     1
 40
1.0
176
     1
 90
        0
176
     1
 62
    18
420
        0
176
     1
 90
       50
176
     1
 90
        3
176
     1
 62
     5
420
      255
176
     1
290
     0
176
     1
 90
       50
176
     1
 90
       50
176
     1
 90
       50
176
     1
290
     0
176
     1
 90
       50
176
     1
 62
   256
176
     0
 40
1.0
176
     0
 90
        2
176
     1
  1
strokes_ogs.tif
176
     1
290
     0
176
     1
 40
1.0
176
     1
 40
1.0
176
     1
  0
VISUALSTYLE
  5
30
102
{ACAD_REACTORS
330
29
102
}
330
29
100
AcDbVisualStyle
  2
Wireframe
 70
     5
177
     3
291
     0
 70
    58
 90
        0
176
     1
 90
        2
176
     1
 90
        0
176
     1
 90
        0
176
     1
 40
0.6
176
     1
 40
30.0
176
     1
 62
     7
420
 16777215
176
     1
 90
        1
176
     1
 90
        4
176
     1
 62
     7
176
     1
 62
   257
176
     1
 90
        1
176
     1
 90
        1
176
     1
 40
1.0
176
     1
 90
        0
176
     1
 62
   257
176
     1
 40
1.0
176
     1
 90
        1
176
     1
 90
        6
176
     1
 90
        2
176
     1
 62
     7
176
     1
 90
        3
176
     1
 90
        0
176
     1
 90
        0
176
     1
290
     0
176
     1
 90
        1
176
     1
 40
0.0
176
     1
 90
        0
176
     1
290
     0
176
     1
290
     1
176
     1
290
     1
176
     1
290
     0
176
     1
290
     0
176
     1
290
     0
176
     1
290
     0
176
     1
290
     0
176
     1
290
     0
176
     1
 90
       50
176
     1
 40
0.0
176
     1
 40
1.0
176
     1
 90
        0
176
     1
 62
    18
420
        0
176
     1
 90
       50
176
     1
 90
        3
176
     1
 62
     5
420
      255
176
     1
290
     0
176
     1
 90
       50
176
     1
 90
       50
176
     1
 90
       50
176
     1
290
     0
176
     1
 90
       50
176
     1
 62
   256
176
     0
 40
1.0
176
     0
 90
        2
176
     1
  1
strokes_ogs.tif
176
     1
290
     0
176
     1
 40
1.0
176
     1
 40
1.0
176
     1
  0
VISUALSTYLE
  5
3C
102
{ACAD_REACTORS
330
29
102
}
330
29
100
AcDbVisualStyle
  2
X-Ray
 70
    25
177
     3
291
     0
 70
    58
 90
        2
176
     1
 90
        2
176
     1
 90
        1
176
     1
 90
        1
176
     1
 40
0.5
176
     1
 40
30.0
176
     1
 62
     7
420
 16777215
176
     1
 90
        1
176
     1
 90
        0
176
     1
 62
     7
176
     1
 62
   257
176
     1
 90
        1
176
     1
 90
        1
176
     1
 40
1.0
176
     1
 90
        8
176
     1
 62
     7
176
     1
 40
1.0
176
     1
 90
        1
176
     1
 90
        6
176
     1
 90
        2
176
     1
 62
     7
176
     1
 90
        3
176
     1
 90
        0
176
     1
 90
        0
176
     1
290
     0
176
     1
 90
       13
176
     1
 40
0.0
176
     1
 90
        0
176
     1
290
     0
176
     1
290
     1
176
     1
290
     1
176
     1
290
     0
176
     1
290
     0
176
     1
290
     0
176
     1
290
     0
176
     1
290
     0
176
     1
290
     0
176
     1
 90
       50
176
     1
 40
0.0
176
     1
 40
1.0
176
     1
 90
        0
176
     1
 62
    18
420
        0
176
     1
 90
       50
176
     1
 90
        3
176
     1
 62
     5
420
      255
176
     1
290
     0
176
     1
 90
       50
176
     1
 90
       50
176
     1
 90
       50
176
     1
290
     0
176
     1
 90
       50
176
     1
 62
   256
176
     0
 40
1.0
176
     0
 90
        2
176
     1
  1
strokes_ogs.tif
176
     1
290
     0
176
     1
 40
1.0
176
     1
 40
1.0
176
     1
  0
DICTIONARYVAR
  5
81
102
{ACAD_REACTORS
330
7C
102
}
330
7C
100
DictionaryVariables
280
     0
  1
1:1
  0
DICTIONARYVAR
  5
7E
102
{ACAD_REACTORS
330
7C
102
}
330
7C
100
DictionaryVariables
280
     0
  1
STANDARD
  0
DICTIONARYVAR
  5
7D
102
{ACAD_REACTORS
330
7C
102
}
330
7C
100
DictionaryVariables
280
     0
  1
STANDARD
  0
DICTIONARYVAR
  5
7F
102
{ACAD_REACTORS
330
7C
102
}
330
7C
100
DictionaryVariables
280
     0
  1
Imperial24
  0
DICTIONARYVAR
  5
80
102
{ACAD_REACTORS
330
7C
102
}
330
7C
100
DictionaryVariables
280
     0
  1
Imperial24
  0
XRECORD
  5
386
102
{ACAD_REACTORS
330
383
102
}
330
383
100
AcDbXrecord
280
     1
  1
BUILDING_ID
  1
Progetto per messa in tavola DXF, DWG
  1
FLOOR_ID
  1
694395
  0
XRECORD
  5
385
102
{ACAD_REACTORS
330
383
102
}
330
383
100
AcDbXrecord
280
     1
  1
-2001160
  1
Apparecchi idraulici
  0
XRECORD
  5
384
102
{ACAD_REACTORS
330
383
102
}
330
383
100
AcDbXrecord
280
     1
  1
859151
  1
Automatic flow rate regulator valve_Caleffi_121 DN15 : 1/2''
  0
DICTIONARY
  5
1A
330
19
100
AcDbDictionary
280
     1
281
     1
  3
BUMPTILE
360
1C
  3
DIFFUSETILE
360
1B
  3
OPACITYTILE
360
1F
  3
REFLECTIONTILE
360
1E
  3
REFRACTIONTILE
360
20
  3
SPECULARTILE
360
1D
  0
DICTIONARY
  5
12
330
11
100
AcDbDictionary
280
     1
281
     1
  3
BUMPTILE
360
14
  3
DIFFUSETILE
360
13
  3
OPACITYTILE
360
17
  3
REFLECTIONTILE
360
16
  3
REFRACTIONTILE
360
18
  3
SPECULARTILE
360
15
  0
DICTIONARY
  5
22
330
21
100
AcDbDictionary
280
     1
281
     1
  3
BUMPTILE
360
24
  3
DIFFUSETILE
360
23
  3
OPACITYTILE
360
27
  3
REFLECTIONTILE
360
26
  3
REFRACTIONTILE
360
28
  3
SPECULARTILE
360
25
  0
DICTIONARY
  5
389
330
65
100
AcDbDictionary
280
     1
281
     1
  3
ACAD_ROUNDTRIP_2008_TABLESTYLE_CELLSTYLEMAP
360
38A
  0
XRECORD
  5
1C
102
{ACAD_REACTORS
330
1A
102
}
330
1A
100
AcDbXrecord
280
     1
270
     1
271
     1
  0
XRECORD
  5
1B
102
{ACAD_REACTORS
330
1A
102
}
330
1A
100
AcDbXrecord
280
     1
270
     1
271
     1
  0
XRECORD
  5
1F
102
{ACAD_REACTORS
330
1A
102
}
330
1A
100
AcDbXrecord
280
     1
270
     1
271
     1
  0
XRECORD
  5
1E
102
{ACAD_REACTORS
330
1A
102
}
330
1A
100
AcDbXrecord
280
     1
270
     1
271
     1
  0
XRECORD
  5
20
102
{ACAD_REACTORS
330
1A
102
}
330
1A
100
AcDbXrecord
280
     1
270
     1
271
     1
  0
XRECORD
  5
1D
102
{ACAD_REACTORS
330
1A
102
}
330
1A
100
AcDbXrecord
280
     1
270
     1
271
     1
  0
XRECORD
  5
14
102
{ACAD_REACTORS
330
12
102
}
330
12
100
AcDbXrecord
280
     1
270
     1
271
     1
  0
XRECORD
  5
13
102
{ACAD_REACTORS
330
12
102
}
330
12
100
AcDbXrecord
280
     1
270
     1
271
     1
  0
XRECORD
  5
17
102
{ACAD_REACTORS
330
12
102
}
330
12
100
AcDbXrecord
280
     1
270
     1
271
     1
  0
XRECORD
  5
16
102
{ACAD_REACTORS
330
12
102
}
330
12
100
AcDbXrecord
280
     1
270
     1
271
     1
  0
XRECORD
  5
18
102
{ACAD_REACTORS
330
12
102
}
330
12
100
AcDbXrecord
280
     1
270
     1
271
     1
  0
XRECORD
  5
15
102
{ACAD_REACTORS
330
12
102
}
330
12
100
AcDbXrecord
280
     1
270
     1
271
     1
  0
XRECORD
  5
24
102
{ACAD_REACTORS
330
22
102
}
330
22
100
AcDbXrecord
280
     1
270
     1
271
     1
  0
XRECORD
  5
23
102
{ACAD_REACTORS
330
22
102
}
330
22
100
AcDbXrecord
280
     1
270
     1
271
     1
  0
XRECORD
  5
27
102
{ACAD_REACTORS
330
22
102
}
330
22
100
AcDbXrecord
280
     1
270
     1
271
     1
  0
XRECORD
  5
26
102
{ACAD_REACTORS
330
22
102
}
330
22
100
AcDbXrecord
280
     1
270
     1
271
     1
  0
XRECORD
  5
28
102
{ACAD_REACTORS
330
22
102
}
330
22
100
AcDbXrecord
280
     1
270
     1
271
     1
  0
XRECORD
  5
25
102
{ACAD_REACTORS
330
22
102
}
330
22
100
AcDbXrecord
280
     1
270
     1
271
     1
  0
CELLSTYLEMAP
  5
38A
102
{ACAD_REACTORS
330
389
102
}
330
389
100
AcDbCellStyleMap
 90
        3
300
CELLSTYLE
  1
TABLEFORMAT_BEGIN
 90
        5
170
     1
 91
        0
 92
    32768
 62
   257
 93
        1
300
CONTENTFORMAT
  1
CONTENTFORMAT_BEGIN
 90
        0
 91
        0
 92
      512
 93
        0
300

 40
0.0
140
1.0
 94
        5
 62
     0
340
55
144
0.25
309
CONTENTFORMAT_END
171
     0
 94
        0
309
TABLEFORMAT_END
  1
CELLSTYLE_BEGIN
 90
        1
 91
        1
300
_TITLE
309
CELLSTYLE_END
300
CELLSTYLE
  1
TABLEFORMAT_BEGIN
 90
        5
170
     1
 91
        0
 92
        0
 62
   257
 93
        1
300
CONTENTFORMAT
  1
CONTENTFORMAT_BEGIN
 90
        0
 91
        0
 92
      512
 93
        0
300

 40
0.0
140
1.0
 94
        5
 62
     0
340
55
144
0.18
309
CONTENTFORMAT_END
171
     0
 94
        0
309
TABLEFORMAT_END
  1
CELLSTYLE_BEGIN
 90
        2
 91
        1
300
_HEADER
309
CELLSTYLE_END
300
CELLSTYLE
  1
TABLEFORMAT_BEGIN
 90
        5
170
     1
 91
        0
 92
        0
 62
   257
 93
        1
300
CONTENTFORMAT
  1
CONTENTFORMAT_BEGIN
 90
        0
 91
        0
 92
      512
 93
        0
300

 40
0.0
140
1.0
 94
        2
 62
     0
340
55
144
0.18
309
CONTENTFORMAT_END
171
     0
 94
        0
309
TABLEFORMAT_END
  1
CELLSTYLE_BEGIN
 90
        3
 91
        2
300
_DATA
309
CELLSTYLE_END
  0
ENDSEC
  0
EOF
