  0
SECTION
  2
HEADER
  9
$ACADVER
  1
AC1027
  9
$ACADMAINTVER
 70
    20
  9
$DWGCODEPAGE
  3
ANSI_1252
  9
$REQUIREDVERSIONS
160
                 0
  9
$INSBASE
 10
0.0
 20
0.0
 30
0.0
  9
$EXTMIN
 10
685.666407443198
 20
1174.795115150993
 30
-0.00000001
  9
$EXTMAX
 10
1602.315117522155
 20
2163.996394985546
 30
0.00000001
  9
$LIMMIN
 10
0.0
 20
0.0
  9
$LIMMAX
 10
12.0
 20
9.0
  9
$ORTHOMODE
 70
     0
  9
$REGENMODE
 70
     1
  9
$FILLMODE
 70
     1
  9
$QTEXTMODE
 70
     0
  9
$MIRRTEXT
 70
     0
  9
$LTSCALE
 40
1.0
  9
$ATTMODE
 70
     1
  9
$TEXTSIZE
 40
0.2
  9
$TRACEWID
 40
0.05
  9
$TEXTSTYLE
  7
Standard
  9
$CLAYER
  8
0
  9
$CELTYPE
  6
ByLayer
  9
$CECOLOR
 62
   256
  9
$CELTSCALE
 40
1.0
  9
$DISPSILH
 70
     0
  9
$DIMSCALE
 40
1.0
  9
$DIMASZ
 40
0.18
  9
$DIMEXO
 40
0.0625
  9
$DIMDLI
 40
0.38
  9
$DIMRND
 40
0.0
  9
$DIMDLE
 40
0.0
  9
$DIMEXE
 40
0.18
  9
$DIMTP
 40
0.0
  9
$DIMTM
 40
0.0
  9
$DIMTXT
 40
0.18
  9
$DIMCEN
 40
0.09
  9
$DIMTSZ
 40
0.0
  9
$DIMTOL
 70
     0
  9
$DIMLIM
 70
     0
  9
$DIMTIH
 70
     1
  9
$DIMTOH
 70
     1
  9
$DIMSE1
 70
     0
  9
$DIMSE2
 70
     0
  9
$DIMTAD
 70
     0
  9
$DIMZIN
 70
     0
  9
$DIMBLK
  1

  9
$DIMASO
 70
     1
  9
$DIMSHO
 70
     1
  9
$DIMPOST
  1

  9
$DIMAPOST
  1

  9
$DIMALT
 70
     0
  9
$DIMALTD
 70
     2
  9
$DIMALTF
 40
25.4
  9
$DIMLFAC
 40
1.0
  9
$DIMTOFL
 70
     0
  9
$DIMTVP
 40
0.0
  9
$DIMTIX
 70
     0
  9
$DIMSOXD
 70
     0
  9
$DIMSAH
 70
     0
  9
$DIMBLK1
  1

  9
$DIMBLK2
  1

  9
$DIMSTYLE
  2
Standard
  9
$DIMCLRD
 70
     0
  9
$DIMCLRE
 70
     0
  9
$DIMCLRT
 70
     0
  9
$DIMTFAC
 40
1.0
  9
$DIMGAP
 40
0.09
  9
$DIMJUST
 70
     0
  9
$DIMSD1
 70
     0
  9
$DIMSD2
 70
     0
  9
$DIMTOLJ
 70
     1
  9
$DIMTZIN
 70
     0
  9
$DIMALTZ
 70
     0
  9
$DIMALTTZ
 70
     0
  9
$DIMUPT
 70
     0
  9
$DIMDEC
 70
     4
  9
$DIMTDEC
 70
     4
  9
$DIMALTU
 70
     2
  9
$DIMALTTD
 70
     2
  9
$DIMTXSTY
  7
Standard
  9
$DIMAUNIT
 70
     0
  9
$DIMADEC
 70
     0
  9
$DIMALTRND
 40
0.0
  9
$DIMAZIN
 70
     0
  9
$DIMDSEP
 70
    46
  9
$DIMATFIT
 70
     3
  9
$DIMFRAC
 70
     0
  9
$DIMLDRBLK
  1

  9
$DIMLUNIT
 70
     2
  9
$DIMLWD
 70
    -2
  9
$DIMLWE
 70
    -2
  9
$DIMTMOVE
 70
     0
  9
$DIMFXL
 40
1.0
  9
$DIMFXLON
 70
     0
  9
$DIMJOGANG
 40
0.7853981633974483
  9
$DIMTFILL
 70
     0
  9
$DIMTFILLCLR
 70
     0
  9
$DIMARCSYM
 70
     0
  9
$DIMLTYPE
  6

  9
$DIMLTEX1
  6

  9
$DIMLTEX2
  6

  9
$DIMTXTDIRECTION
 70
     0
  9
$LUNITS
 70
     2
  9
$LUPREC
 70
     4
  9
$SKETCHINC
 40
0.1
  9
$FILLETRAD
 40
0.0
  9
$AUNITS
 70
     0
  9
$AUPREC
 70
     0
  9
$MENU
  1
.
  9
$ELEVATION
 40
0.0
  9
$PELEVATION
 40
0.0
  9
$THICKNESS
 40
0.0
  9
$LIMCHECK
 70
     0
  9
$CHAMFERA
 40
0.0
  9
$CHAMFERB
 40
0.0
  9
$CHAMFERC
 40
0.0
  9
$CHAMFERD
 40
0.0
  9
$SKPOLY
 70
     0
  9
$TDCREATE
 40
2457569.612243160
  9
$TDUCREATE
 40
2457569.528909826
  9
$TDUPDATE
 40
2457569.612243160
  9
$TDUUPDATE
 40
2457569.528909826
  9
$TDINDWG
 40
0.0000646759
  9
$TDUSRTIMER
 40
0.0000646759
  9
$USRTIMER
 70
     1
  9
$ANGBASE
 50
0.0
  9
$ANGDIR
 70
     0
  9
$PDMODE
 70
     0
  9
$PDSIZE
 40
0.0
  9
$PLINEWID
 40
0.0
  9
$SPLFRAME
 70
     0
  9
$SPLINETYPE
 70
     6
  9
$SPLINESEGS
 70
     8
  9
$HANDSEED
  5
3B6
  9
$SURFTAB1
 70
     6
  9
$SURFTAB2
 70
     6
  9
$SURFTYPE
 70
     6
  9
$SURFU
 70
     6
  9
$SURFV
 70
     6
  9
$UCSBASE
  2

  9
$UCSNAME
  2

  9
$UCSORG
 10
0.0
 20
0.0
 30
0.0
  9
$UCSXDIR
 10
1.0
 20
0.0
 30
0.0
  9
$UCSYDIR
 10
0.0
 20
1.0
 30
0.0
  9
$UCSORTHOREF
  2

  9
$UCSORTHOVIEW
 70
     0
  9
$UCSORGTOP
 10
0.0
 20
0.0
 30
0.0
  9
$UCSORGBOTTOM
 10
0.0
 20
0.0
 30
0.0
  9
$UCSORGLEFT
 10
0.0
 20
0.0
 30
0.0
  9
$UCSORGRIGHT
 10
0.0
 20
0.0
 30
0.0
  9
$UCSORGFRONT
 10
0.0
 20
0.0
 30
0.0
  9
$UCSORGBACK
 10
0.0
 20
0.0
 30
0.0
  9
$PUCSBASE
  2

  9
$PUCSNAME
  2

  9
$PUCSORG
 10
0.0
 20
0.0
 30
0.0
  9
$PUCSXDIR
 10
1.0
 20
0.0
 30
0.0
  9
$PUCSYDIR
 10
0.0
 20
1.0
 30
0.0
  9
$PUCSORTHOREF
  2

  9
$PUCSORTHOVIEW
 70
     0
  9
$PUCSORGTOP
 10
0.0
 20
0.0
 30
0.0
  9
$PUCSORGBOTTOM
 10
0.0
 20
0.0
 30
0.0
  9
$PUCSORGLEFT
 10
0.0
 20
0.0
 30
0.0
  9
$PUCSORGRIGHT
 10
0.0
 20
0.0
 30
0.0
  9
$PUCSORGFRONT
 10
0.0
 20
0.0
 30
0.0
  9
$PUCSORGBACK
 10
0.0
 20
0.0
 30
0.0
  9
$USERI1
 70
     0
  9
$USERI2
 70
     0
  9
$USERI3
 70
     0
  9
$USERI4
 70
     0
  9
$USERI5
 70
     0
  9
$USERR1
 40
0.0
  9
$USERR2
 40
0.0
  9
$USERR3
 40
0.0
  9
$USERR4
 40
0.0
  9
$USERR5
 40
0.0
  9
$WORLDVIEW
 70
     1
  9
$SHADEDGE
 70
     3
  9
$SHADEDIF
 70
    70
  9
$TILEMODE
 70
     1
  9
$MAXACTVP
 70
    64
  9
$PINSBASE
 10
0.0
 20
0.0
 30
0.0
  9
$PLIMCHECK
 70
     0
  9
$PEXTMIN
 10
1.000000000000000E+20
 20
1.000000000000000E+20
 30
1.000000000000000E+20
  9
$PEXTMAX
 10
-1.000000000000000E+20
 20
-1.000000000000000E+20
 30
-1.000000000000000E+20
  9
$PLIMMIN
 10
0.0
 20
0.0
  9
$PLIMMAX
 10
12.0
 20
9.0
  9
$UNITMODE
 70
     0
  9
$VISRETAIN
 70
     1
  9
$PLINEGEN
 70
     0
  9
$PSLTSCALE
 70
     1
  9
$TREEDEPTH
 70
  3020
  9
$CMLSTYLE
  2
Standard
  9
$CMLJUST
 70
     0
  9
$CMLSCALE
 40
1.0
  9
$PROXYGRAPHICS
 70
     1
  9
$MEASUREMENT
 70
     1
  9
$CELWEIGHT
370
    -1
  9
$ENDCAPS
280
     0
  9
$JOINSTYLE
280
     0
  9
$LWDISPLAY
290
     0
  9
$INSUNITS
 70
     4
  9
$HYPERLINKBASE
  1

  9
$STYLESHEET
  1

  9
$XEDIT
290
     1
  9
$CEPSNTYPE
380
     0
  9
$PSTYLEMODE
290
     1
  9
$FINGERPRINTGUID
  2
{C1E17F03-ADB7-40A8-9C25-DE2F842E9C99}
  9
$VERSIONGUID
  2
{AB377A90-7CBD-43F1-B3A7-98DFC37173D7}
  9
$EXTNAMES
290
     1
  9
$PSVPSCALE
 40
0.0
  9
$OLESTARTUP
290
     0
  9
$SORTENTS
280
   127
  9
$INDEXCTL
280
     0
  9
$HIDETEXT
280
     1
  9
$XCLIPFRAME
280
     2
  9
$HALOGAP
280
     0
  9
$OBSCOLOR
 70
   257
  9
$OBSLTYPE
280
     0
  9
$INTERSECTIONDISPLAY
280
     0
  9
$INTERSECTIONCOLOR
 70
   257
  9
$DIMASSOC
280
     2
  9
$PROJECTNAME
  1

  9
$CAMERADISPLAY
290
     0
  9
$LENSLENGTH
 40
50.0
  9
$CAMERAHEIGHT
 40
0.0
  9
$STEPSPERSEC
 40
2.0
  9
$STEPSIZE
 40
6.0
  9
$3DDWFPREC
 40
2.0
  9
$PSOLWIDTH
 40
0.25
  9
$PSOLHEIGHT
 40
4.0
  9
$LOFTANG1
 40
1.570796326794896
  9
$LOFTANG2
 40
1.570796326794896
  9
$LOFTMAG1
 40
0.0
  9
$LOFTMAG2
 40
0.0
  9
$LOFTPARAM
 70
     7
  9
$LOFTNORMALS
280
     1
  9
$LATITUDE
 40
37.795
  9
$LONGITUDE
 40
-122.394
  9
$NORTHDIRECTION
 40
0.0
  9
$TIMEZONE
 70
 -8000
  9
$LIGHTGLYPHDISPLAY
280
     1
  9
$TILEMODELIGHTSYNCH
280
     1
  9
$CMATERIAL
347
11
  9
$SOLIDHIST
280
     0
  9
$SHOWHIST
280
     1
  9
$DWFFRAME
280
     2
  9
$DGNFRAME
280
     0
  9
$REALWORLDSCALE
290
     1
  9
$INTERFERECOLOR
 62
     1
  9
$INTERFEREOBJVS
345
33
  9
$INTERFEREVPVS
346
30
  9
$CSHADOW
280
     0
  9
$SHADOWPLANELOCATION
 40
0.0
  0
ENDSEC
  0
SECTION
  2
CLASSES
  0
CLASS
  1
ACDBDICTIONARYWDFLT
  2
AcDbDictionaryWithDefault
  3
ObjectDBX Classes
 90
        0
 91
        1
280
     0
281
     0
  0
CLASS
  1
MATERIAL
  2
AcDbMaterial
  3
ObjectDBX Classes
 90
     1153
 91
        3
280
     0
281
     0
  0
CLASS
  1
VISUALSTYLE
  2
AcDbVisualStyle
  3
ObjectDBX Classes
 90
     4095
 91
       24
280
     0
281
     0
  0
CLASS
  1
SCALE
  2
AcDbScale
  3
ObjectDBX Classes
 90
     1153
 91
       17
280
     0
281
     0
  0
CLASS
  1
TABLESTYLE
  2
AcDbTableStyle
  3
ObjectDBX Classes
 90
     4095
 91
        1
280
     0
281
     0
  0
CLASS
  1
MLEADERSTYLE
  2
AcDbMLeaderStyle
  3
ACDB_MLEADERSTYLE_CLASS
 90
     4095
 91
        1
280
     0
281
     0
  0
CLASS
  1
ACDBSECTIONVIEWSTYLE
  2
AcDbSectionViewStyle
  3
ObjectDBX Classes
 90
     1025
 91
        1
280
     0
281
     0
  0
CLASS
  1
ACDBDETAILVIEWSTYLE
  2
AcDbDetailViewStyle
  3
ObjectDBX Classes
 90
     1025
 91
        1
280
     0
281
     0
  0
CLASS
  1
RASTERVARIABLES
  2
AcDbRasterVariables
  3
ISM
 90
        0
 91
        1
280
     0
281
     0
  0
CLASS
  1
DICTIONARYVAR
  2
AcDbDictionaryVar
  3
ObjectDBX Classes
 90
        0
 91
        5
280
     0
281
     0
  0
CLASS
  1
CELLSTYLEMAP
  2
AcDbCellStyleMap
  3
ObjectDBX Classes
 90
     1152
 91
        2
280
     0
281
     0
  0
CLASS
  1
SORTENTSTABLE
  2
AcDbSortentsTable
  3
ObjectDBX Classes
 90
        0
 91
        1
280
     0
281
     0
  0
ENDSEC
  0
SECTION
  2
TABLES
  0
TABLE
  2
VPORT
  5
8
330
0
100
AcDbSymbolTable
 70
     1
  0
VPORT
  5
57
330
8
100
AcDbSymbolTableRecord
100
AcDbViewportTableRecord
  2
*Active
 70
     0
 10
0.0
 20
0.0
 11
1.0
 21
1.0
 12
1143.990762482676
 22
1669.395755068269
 13
0.0
 23
0.0
 14
1.0
 24
1.0
 15
0.0
 25
0.0
 16
0.0
 26
0.0
 36
1.0
 17
0.0
 27
0.0
 37
0.0
 40
989.2012798345522
 41
0.9266554024599217
 42
50.0
 43
0.0
 44
0.0
 50
0.0
 51
0.0
 71
     0
 72
  1000
 73
     1
 74
     1
 75
     0
 76
     0
 77
     0
 78
     0
281
     0
 65
     1
110
0.0
120
0.0
130
0.0
111
1.0
121
0.0
131
0.0
112
0.0
122
1.0
132
0.0
 79
     0
146
0.0
 60
     3
 61
     5
292
     1
282
     1
141
0.0
142
0.0
 63
   250
421
  3355443
  0
ENDTAB
  0
TABLE
  2
LTYPE
  5
5
330
0
100
AcDbSymbolTable
 70
     3
  0
LTYPE
  5
5B
330
5
100
AcDbSymbolTableRecord
100
AcDbLinetypeTableRecord
  2
ByBlock
 70
     0
  3

 72
    65
 73
     0
 40
0.0
  0
LTYPE
  5
5C
330
5
100
AcDbSymbolTableRecord
100
AcDbLinetypeTableRecord
  2
ByLayer
 70
     0
  3

 72
    65
 73
     0
 40
0.0
  0
LTYPE
  5
5D
330
5
100
AcDbSymbolTableRecord
100
AcDbLinetypeTableRecord
  2
Continuous
 70
     0
  3
Solid line
 72
    65
 73
     0
 40
0.0
  0
LTYPE
  5
69
330
5
100
AcDbSymbolTableRecord
100
AcDbLinetypeTableRecord
  2
PHANTOM2
 70
     0
  3
___ _ _ ___ _ _ ___ _ _ ___ _ _
 72
    65
 73
     6
 40
1.25
 49
0.625
 74
     0
 49
-0.125
 74
     0
 49
0.125
 74
     0
 49
-0.125
 74
     0
 49
0.125
 74
     0
 49
-0.125
 74
     0
  0
LTYPE
  5
86
330
5
100
AcDbSymbolTableRecord
100
AcDbLinetypeTableRecord
  2
Nascosto 1_5 mm
 70
     0
  3

 72
    65
 73
     2
 40
2.2
 49
1.5
 74
     0
 49
-0.7000000000000001
 74
     0
  0
ENDTAB
  0
TABLE
  2
LAYER
  5
2
330
0
100
AcDbSymbolTable
 70
     3
  0
LAYER
  5
54
330
2
100
AcDbSymbolTableRecord
100
AcDbLayerTableRecord
  2
0
 70
     0
 62
     7
  6
Continuous
370
    -3
390
F
347
21
348
0
  0
LAYER
  5
85
330
2
100
AcDbSymbolTableRecord
100
AcDbLayerTableRecord
  2
P-SANR-FIXT
 70
     0
 62
     6
  6
Continuous
370
    18
390
F
347
21
348
0
  0
ENDTAB
  0
TABLE
  2
STYLE
  5
3
330
0
100
AcDbSymbolTable
 70
     2
  0
STYLE
  5
55
330
3
100
AcDbSymbolTableRecord
100
AcDbTextStyleTableRecord
  2
Standard
 70
     0
 40
0.0
 41
1.0
 50
0.0
 71
     0
 42
0.2
  3
txt
  4

  0
STYLE
  5
5A
330
3
100
AcDbSymbolTableRecord
100
AcDbTextStyleTableRecord
  2
Annotative
 70
     0
 40
0.0
 41
1.0
 50
0.0
 71
     0
 42
0.2
  3
txt
  4

1001
AcadAnnotative
1000
AnnotativeData
1002
{
1070
     1
1070
     1
1002
}
  0
ENDTAB
  0
TABLE
  2
VIEW
  5
6
330
0
100
AcDbSymbolTable
 70
     0
  0
ENDTAB
  0
TABLE
  2
UCS
  5
7
330
0
100
AcDbSymbolTable
 70
     0
  0
ENDTAB
  0
TABLE
  2
APPID
  5
9
330
0
100
AcDbSymbolTable
 70
     3
  0
APPID
  5
56
330
9
100
AcDbSymbolTableRecord
100
AcDbRegAppTableRecord
  2
ACAD
 70
     0
  0
APPID
  5
5E
330
9
100
AcDbSymbolTableRecord
100
AcDbRegAppTableRecord
  2
AcadAnnotative
 70
     0
  0
APPID
  5
79
330
9
100
AcDbSymbolTableRecord
100
AcDbRegAppTableRecord
  2
REVIT
 70
     0
  0
ENDTAB
  0
TABLE
  2
DIMSTYLE
  5
A
330
0
100
AcDbSymbolTable
 70
     2
100
AcDbDimStyleTable
 71
     0
  0
DIMSTYLE
105
58
330
A
100
AcDbSymbolTableRecord
100
AcDbDimStyleTableRecord
  2
Standard
 70
     0
340
55
  0
DIMSTYLE
105
59
330
A
100
AcDbSymbolTableRecord
100
AcDbDimStyleTableRecord
  2
Annotative
 70
     0
340
55
1001
AcadAnnotative
1000
AnnotativeData
1002
{
1070
     1
1070
     1
1002
}
  0
ENDTAB
  0
TABLE
  2
BLOCK_RECORD
  5
1
330
0
100
AcDbSymbolTable
 70
     4
  0
BLOCK_RECORD
  5
71
102
{ACAD_XDICTIONARY
360
3B1
102
}
330
1
100
AcDbSymbolTableRecord
100
AcDbBlockTableRecord
  2
*Model_Space
340
74
 70
     0
280
     1
281
     0
  0
BLOCK_RECORD
  5
6D
330
1
100
AcDbSymbolTableRecord
100
AcDbBlockTableRecord
  2
*Paper_Space
340
70
 70
     0
280
     1
281
     0
  0
BLOCK_RECORD
  5
75
330
1
100
AcDbSymbolTableRecord
100
AcDbBlockTableRecord
  2
*Paper_Space0
340
78
 70
     0
280
     1
281
     0
  0
BLOCK_RECORD
  5
87
330
1
100
AcDbSymbolTableRecord
100
AcDbBlockTableRecord
  2
Automatic flow rate regulator valve_Caleffi_121 DN15 - 1_2__-859151-Est - Idraulica
340
0
102
{BLKREFS
331
1C6
102
}
 70
     0
280
     1
281
     0
  0
BLOCK_RECORD
  5
1C7
330
1
100
AcDbSymbolTableRecord
100
AcDbBlockTableRecord
  2
Automatic flow rate regulator valve_Caleffi_121 DN15 - 1_2__-V1-Est - Idraulica
340
0
102
{BLKREFS
331
299
102
}
 70
     0
280
     1
281
     0
  0
BLOCK_RECORD
  5
29A
330
1
100
AcDbSymbolTableRecord
100
AcDbBlockTableRecord
  2
Automatic flow rate regulator valve_Caleffi_121 DN15 - 1_2__-V2-Est - Idraulica
340
0
102
{BLKREFS
331
3AB
102
}
 70
     0
280
     1
281
     0
  0
ENDTAB
  0
ENDSEC
  0
SECTION
  2
BLOCKS
  0
BLOCK
  5
72
330
71
100
AcDbEntity
  8
0
100
AcDbBlockBegin
  2
*Model_Space
 70
     0
 10
0.0
 20
0.0
 30
0.0
  3
*Model_Space
  1

  0
ENDBLK
  5
73
330
71
100
AcDbEntity
  8
0
100
AcDbBlockEnd
  0
BLOCK
  5
6E
330
6D
100
AcDbEntity
 67
     1
  8
0
100
AcDbBlockBegin
  2
*Paper_Space
 70
     0
 10
0.0
 20
0.0
 30
0.0
  3
*Paper_Space
  1

  0
ENDBLK
  5
6F
330
6D
100
AcDbEntity
 67
     1
  8
0
100
AcDbBlockEnd
  0
BLOCK
  5
76
330
75
100
AcDbEntity
 67
     1
  8
0
100
AcDbBlockBegin
  2
*Paper_Space0
 70
     0
 10
0.0
 20
0.0
 30
0.0
  3
*Paper_Space0
  1

  0
ENDBLK
  5
77
330
75
100
AcDbEntity
 67
     1
  8
0
100
AcDbBlockEnd
  0
BLOCK
  5
1C4
330
87
100
AcDbEntity
  8
0
100
AcDbBlockBegin
  2
Automatic flow rate regulator valve_Caleffi_121 DN15 - 1_2__-859151-Est - Idraulica
 70
     0
 10
0.0
 20
0.0
 30
0.0
  3
Automatic flow rate regulator valve_Caleffi_121 DN15 - 1_2__-859151-Est - Idraulica
  1

  0
LINE
  5
88
330
87
100
AcDbEntity
  8
P-SANR-FIXT
100
AcDbLine
 10
811.8366686015296
 20
2131.928200327818
 30
0.0
 11
808.4848057402808
 21
2144.437522826002
 31
0.0
  0
LINE
  5
89
330
87
100
AcDbEntity
  8
P-SANR-FIXT
100
AcDbLine
 10
782.6358455447998
 20
2137.511314816439
 30
0.0
 11
785.9877084060488
 21
2125.001992318255
 31
0.0
  0
LINE
  5
8A
330
87
100
AcDbEntity
  8
P-SANR-FIXT
100
AcDbLine
 10
808.4848057402808
 20
2144.437522826001
 30
0.0
 11
808.4848057402808
 21
2150.695152012384
 31
0.0
  0
LINE
  5
8B
330
87
100
AcDbEntity
  8
P-SANR-FIXT
100
AcDbLine
 10
779.5070309516088
 20
2142.930580659308
 30
0.0
 11
782.6358455448001
 21
2137.511314816439
 31
0.0
  0
LINE
  5
8C
330
87
100
AcDbEntity
  8
P-SANR-FIXT
100
AcDbLine
 10
808.4848057402808
 20
2150.695152012384
 30
0.0
 11
804.9370086185762
 21
2163.935711125533
 31
0.0
  0
LINE
  5
8D
330
87
100
AcDbEntity
  8
P-SANR-FIXT
100
AcDbLine
 10
775.959233829904
 20
2156.171139772457
 30
0.0
 11
779.5070309516088
 21
2142.930580659308
 31
0.0
  0
LINE
  5
8E
330
87
100
AcDbEntity
  8
P-SANR-FIXT
100
AcDbLine
 10
808.4848057402792
 20
2144.437522826001
 30
0.0
 11
782.6358455447985
 21
2137.511314816437
 31
0.0
  0
LINE
  5
8F
330
87
100
AcDbEntity
  8
P-SANR-FIXT
100
AcDbLine
 10
808.4848057402792
 20
2150.695152012383
 30
0.0
 11
779.5070309516072
 21
2142.930580659307
 31
0.0
  0
LINE
  5
90
330
87
100
AcDbEntity
  8
P-SANR-FIXT
100
AcDbLine
 10
804.9370086185748
 20
2163.935711125532
 30
0.0
 11
775.9592338299025
 21
2156.171139772456
 31
0.0
  0
LINE
  5
91
330
87
100
AcDbEntity
  8
P-SANR-FIXT
100
AcDbLine
 10
901.6552044131165
 20
1582.747402009995
 30
0.0
 11
905.0198519994491
 21
1570.190366268237
 31
0.0
  0
LINE
  5
92
330
87
100
AcDbEntity
  8
P-SANR-FIXT
100
AcDbLine
 10
986.1576214077308
 20
1591.931166056848
 30
0.0
 11
982.7929738213978
 21
1604.488201798606
 31
0.0
  0
LINE
  5
93
330
87
100
AcDbEntity
  8
P-SANR-FIXT
100
AcDbLine
 10
906.6787264304089
 20
1570.634860332358
 30
0.0
 11
907.9728216559216
 21
1565.805231200912
 31
0.0
  0
LINE
  5
94
330
87
100
AcDbEntity
  8
P-SANR-FIXT
100
AcDbLine
 10
985.7928422022833
 20
1586.657042861283
 30
0.0
 11
984.4987469767708
 21
1591.486671992728
 31
0.0
  0
LWPOLYLINE
  5
95
330
87
100
AcDbEntity
  8
P-SANR-FIXT
100
AcDbPolyline
 90
       41
 70
   128
 43
0.0
 10
985.7928422022833
 20
1586.657042861283
 10
985.8407290205537
 20
1586.462874069797
 10
985.8808128537853
 20
1586.266945630655
 10
985.9130295763964
 20
1586.069570987564
 10
985.9373276485033
 20
1585.871065897848
 10
985.9536681983737
 20
1585.671747927306
 10
985.9620250846138
 20
1585.471935942172
 10
985.9623849379879
 20
1585.271949598996
 10
985.9547471828081
 20
1585.072108833268
 10
985.9391240378526
 20
1584.872733347581
 10
985.9155404968209
 20
1584.674142100182
 10
985.8840342883482
 20
1584.476652794703
 10
985.8446558156463
 20
1584.280581371903
 10
985.7974680758719
 20
1584.086241504232
 10
985.742546559342
 20
1583.893944094023
 10
985.6799791287674
 20
1583.703996776111
 10
985.6098658786896
 20
1583.516703425682
 10
985.5323189753526
 20
1583.332363672145
 10
985.4474624772588
 20
1583.151272419782
 10
985.3554321367038
 20
1582.973719375966
 10
985.2563751826
 20
1582.799988587691
 10
985.1504500849433
 20
1582.630357987157
 10
985.0378263012933
 20
1582.465098947139
 10
984.9186840056791
 20
1582.304475846849
 10
984.7932138003582
 20
1582.148745648981
 10
984.6616164108931
 20
1581.998157488633
 10
984.5241023650347
 20
1581.852952274737
 10
984.3808916559213
 20
1581.713362304659
 10
984.2322133901376
 20
1581.579610892574
 10
984.0783054211929
 20
1581.451912012209
 10
983.919413969005
 20
1581.330469954533
 10
983.7557932260025
 20
1581.21547900093
 10
983.5877049504706
 20
1581.107123112397
 10
983.4154180477929
 20
1581.005575635241
 10
983.2392081402613
 20
1580.910999023762
 10
983.0593571261381
 20
1580.823544580364
 10
982.8761527286804
 20
1580.743352213501
 10
982.6898880358418
 20
1580.670550213852
 10
982.5008610313972
 20
1580.605255049086
 10
982.3093741182296
 20
1580.547571177539
 10
982.2573082963508
 20
1580.533318504325
  0
LWPOLYLINE
  5
96
330
87
100
AcDbEntity
  8
P-SANR-FIXT
100
AcDbPolyline
 90
       41
 70
   128
 43
0.0
 10
914.0965460128793
 20
1562.269697294979
 10
913.9023772213935
 20
1562.221810476709
 10
913.7064487822518
 20
1562.181726643477
 10
913.5090741391607
 20
1562.149509920866
 10
913.3105690494453
 20
1562.12521184876
 10
913.1112510789032
 20
1562.108871298889
 10
912.9114390937685
 20
1562.100514412649
 10
912.7114527505931
 20
1562.100154559275
 10
912.5116119848645
 20
1562.107792314455
 10
912.3122364991779
 20
1562.12341545941
 10
912.1136452517788
 20
1562.146999000442
 10
911.9161559462993
 20
1562.178505208915
 10
911.7200845234997
 20
1562.217883681617
 10
911.5257446558292
 20
1562.265071421391
 10
911.33344724562
 20
1562.319992937921
 10
911.1434999277069
 20
1562.382560368495
 10
910.9562065772786
 20
1562.452673618573
 10
910.7718668237421
 20
1562.53022052191
 10
910.5907755713792
 20
1562.615077020004
 10
910.4132225275629
 20
1562.707107360559
 10
910.2394917392876
 20
1562.806164314663
 10
910.0698611387535
 20
1562.91208941232
 10
909.9046020987362
 20
1563.02471319597
 10
909.7439789984456
 20
1563.143855491584
 10
909.5882488005782
 20
1563.269325696905
 10
909.4376606402301
 20
1563.40092308637
 10
909.2924554263335
 20
1563.538437132228
 10
909.1528654562557
 20
1563.681647841342
 10
909.0191140441708
 20
1563.830326107125
 10
908.8914151638062
 20
1563.98423407607
 10
908.7699731061295
 20
1564.143125528258
 10
908.654982152527
 20
1564.30674627126
 10
908.546626263994
 20
1564.474834546792
 10
908.4450787868375
 20
1564.64712144947
 10
908.3505021753586
 20
1564.823331357002
 10
908.2630477319609
 20
1565.003182371125
 10
908.1828553650973
 20
1565.186386768583
 10
908.1100533654483
 20
1565.372651461421
 10
908.0447582006828
 20
1565.561678465866
 10
907.9870743291358
 20
1565.753165379033
 10
907.9728216559216
 20
1565.805231200912
  0
LWPOLYLINE
  5
97
330
87
100
AcDbEntity
  8
P-SANR-FIXT
100
AcDbPolyline
 90
        4
 70
   128
 43
0.0
 10
982.2573082963508
 20
1580.533318504325
 10
982.2300476264841
 20
1580.526014029849
 10
982.1483092281406
 20
1580.504112292022
 10
982.1288200484195
 20
1580.498890182055
  0
LWPOLYLINE
  5
98
330
87
100
AcDbEntity
  8
P-SANR-FIXT
100
AcDbPolyline
 90
        4
 70
   128
 43
0.0
 10
914.2294116144521
 20
1562.305298525623
 10
914.1611701826084
 20
1562.28701328907
 10
914.1044905684717
 20
1562.271826032235
 10
914.0965460128793
 20
1562.269697294979
  0
LWPOLYLINE
  5
99
330
87
100
AcDbEntity
  8
P-SANR-FIXT
100
AcDbPolyline
 90
       80
 70
   128
 43
0.0
 10
914.0965460128793
 20
1562.269697294979
 10
914.1238066827462
 20
1562.277001769455
 10
914.2055450810895
 20
1562.298903507282
 10
914.3416304439087
 20
1562.335367470351
 10
914.5318450636535
 20
1562.3863353241
 10
914.7758846375092
 20
1562.451725530836
 10
915.0733587542164
 20
1562.531433480177
 10
915.4237915186463
 20
1562.625331656408
 10
915.8266223131306
 20
1562.733269842476
 10
916.2812066943315
 20
1562.855075360311
 10
916.786817424211
 20
1562.990553347067
 10
917.3426456334595
 20
1563.139487066865
 10
917.9478021155128
 20
1563.301638257525
 10
918.6013187490923
 20
1563.476747511734
 10
919.3021500469944
 20
1563.664534692037
 10
920.0491748286445
 20
1563.864699379006
 10
920.8411980137491
 20
1564.076921351842
 10
921.676952534168
 20
1564.300861100658
 10
922.555101360953
 20
1564.53616036963
 10
923.47423964331
 20
1564.78244273012
 10
924.4328969560594
 20
1565.039314182889
 10
925.4295396520035
 20
1565.306363788409
 10
926.4625733154346
 20
1565.583164324281
 10
927.53034531286
 20
1565.869272968691
 10
928.6311474368629
 20
1566.164232008844
 10
929.7632186388703
 20
1566.467569573197
 10
930.9247478464547
 20
1566.778800386354
 10
932.1138768606633
 20
1567.097426545408
 10
933.328703328741
 20
1567.422938316473
 10
934.5672837874881
 20
1567.754814950155
 10
935.8276367723867
 20
1568.092525514637
 10
937.1077459875222
 20
1568.435529745056
 10
938.4055635312256
 20
1568.783278907814
 10
939.7190131722799
 20
1569.135216678434
 10
941.0459936714474
 20
1569.490780031557
 10
942.3843821430033
 20
1569.84940014167
 10
943.7320374509004
 20
1570.210503293097
 10
945.0868036341313
 20
1570.573511797826
 10
946.4465133558036
 20
1570.937844919689
 10
947.8089913704186
 20
1571.30291980341
 10
949.1720580037998
 20
1571.668152407054
 10
950.5335326401054
 20
1572.032958436368
 10
951.8912372103498
 20
1572.396754279525
 10
953.2429996768492
 20
1572.758957940782
 10
954.5866575080173
 20
1573.118989971548
 10
955.9200611379564
 20
1573.476274397375
 10
957.2410774053023
 20
1573.830239639398
 10
958.5475929658295
 20
1574.18031942874
 10
959.8375176733496
 20
1574.525953712417
 10
961.1087879234995
 20
1574.866589549306
 10
962.3593699550692
 20
1575.201681994735
 10
963.5872631035848
 20
1575.530694972271
 10
964.7905030019447
 20
1575.853102131337
 10
965.9671647229895
 20
1576.168387689256
 10
967.115365858973
 20
1576.476047256391
 10
968.2332695330146
 20
1576.775588643066
 10
969.3190873377087
 20
1577.066532646961
 10
970.3710821961969
 20
1577.348413819735
 10
971.3875711411192
 20
1577.620781211642
 10
972.366928007003
 20
1577.883199092958
 10
973.3075860317812
 20
1578.135247651051
 10
974.2080403632774
 20
1578.376523661996
 10
975.0668504666476
 20
1578.606641135646
 10
975.8826424289296
 20
1578.825231933131
 10
976.6541111570102
 20
1579.031946355806
 10
977.3800224654957
 20
1579.226453704691
 10
978.0592150511447
 20
1579.408442809521
 10
978.6906023507077
 20
1579.577622526551
 10
979.2731742791938
 20
1579.733722204321
 10
979.8059988457927
 20
1579.876492116649
 10
980.2882236448613
 20
1580.00570386213
 10
980.71907721959
 20
1580.121150729534
 10
981.0978702961696
 20
1580.222648028503
 10
981.423996886483
 20
1580.310033385007
 10
981.6969352575554
 20
1580.383167001119
 10
981.9162487662167
 20
1580.441931878654
 10
982.0815865576374
 20
1580.486234006344
 10
982.1926841266217
 20
1580.516002510234
 10
982.2493637407584
 20
1580.53118976707
 10
982.2573082963508
 20
1580.533318504325
  0
LINE
  5
9A
330
87
100
AcDbEntity
  8
P-SANR-FIXT
100
AcDbLine
 10
933.6880397602792
 20
1567.519222223114
 30
0.0
 11
934.205677850484
 21
1565.587370570536
 31
0.0
  0
LINE
  5
9B
330
87
100
AcDbEntity
  8
P-SANR-FIXT
100
AcDbLine
 10
963.1834526391562
 20
1573.351941923612
 30
0.0
 11
962.6658145489512
 21
1575.28379357619
 31
0.0
  0
LINE
  5
9C
330
87
100
AcDbEntity
  8
P-SANR-FIXT
100
AcDbLine
 10
982.7929738213962
 20
1604.488201798606
 30
0.0
 11
901.6552044131147
 21
1582.747402009995
 31
0.0
  0
LINE
  5
9D
330
87
100
AcDbEntity
  8
P-SANR-FIXT
100
AcDbLine
 10
905.0198519994475
 20
1570.190366268237
 30
0.0
 11
986.1576214077288
 21
1591.931166056848
 31
0.0
  0
LINE
  5
9E
330
87
100
AcDbEntity
  8
P-SANR-FIXT
100
AcDbLine
 10
934.2056778504822
 20
1565.587370570536
 30
0.0
 11
963.1834526391545
 21
1573.351941923611
 31
0.0
  0
LINE
  5
9F
330
87
100
AcDbEntity
  8
P-SANR-FIXT
100
AcDbLine
 10
1021.677344956421
 20
2085.360084252528
 30
0.0
 11
1021.677344956421
 21
2101.360084252528
 31
0.0
  0
LINE
  5
A0
330
87
100
AcDbEntity
  8
P-SANR-FIXT
100
AcDbLine
 10
1011.677344956421
 20
2101.360084252528
 30
0.0
 11
1011.677344956421
 21
2099.736110152212
 31
0.0
  0
LINE
  5
A1
330
87
100
AcDbEntity
  8
P-SANR-FIXT
100
AcDbLine
 10
1011.677344956421
 20
2089.092982379907
 30
0.0
 11
1011.677344956421
 21
2085.360084252528
 31
0.0
  0
LINE
  5
A2
330
87
100
AcDbEntity
  8
P-SANR-FIXT
100
AcDbLine
 10
1023.866368351052
 20
2103.549107647158
 30
0.0
 11
1023.866368351052
 21
2112.860084252528
 31
0.0
  0
LINE
  5
A3
330
87
100
AcDbEntity
  8
P-SANR-FIXT
100
AcDbLine
 10
1009.48832156179
 20
2112.860084252528
 30
0.0
 11
1009.48832156179
 21
2103.549107647159
 31
0.0
  0
LINE
  5
A4
330
87
100
AcDbEntity
  8
P-SANR-FIXT
100
AcDbLine
 10
1022.677344956421
 20
2114.360084252528
 30
0.0
 11
1022.677344956421
 21
2119.360084252527
 31
0.0
  0
LINE
  5
A5
330
87
100
AcDbEntity
  8
P-SANR-FIXT
100
AcDbLine
 10
1010.677344956421
 20
2119.360084252527
 30
0.0
 11
1010.677344956421
 21
2114.360084252528
 31
0.0
  0
LINE
  5
A6
330
87
100
AcDbEntity
  8
P-SANR-FIXT
100
AcDbLine
 10
1024.477344956421
 20
2119.360084252527
 30
0.0
 11
1024.477344956421
 21
2128.360084252527
 31
0.0
  0
LINE
  5
A7
330
87
100
AcDbEntity
  8
P-SANR-FIXT
100
AcDbLine
 10
1008.877344956421
 20
2128.360084252527
 30
0.0
 11
1008.877344956421
 21
2119.360084252528
 31
0.0
  0
LINE
  5
A8
330
87
100
AcDbEntity
  8
P-SANR-FIXT
100
AcDbLine
 10
1023.477344956421
 20
2128.360084252527
 30
0.0
 11
1023.477344956421
 21
2130.860084252528
 31
0.0
  0
LINE
  5
A9
330
87
100
AcDbEntity
  8
P-SANR-FIXT
100
AcDbLine
 10
1009.877344956422
 20
2130.860084252528
 30
0.0
 11
1009.877344956422
 21
2128.360084252527
 31
0.0
  0
LINE
  5
AA
330
87
100
AcDbEntity
  8
P-SANR-FIXT
100
AcDbLine
 10
1021.477344956421
 20
2130.860084252528
 30
0.0
 11
1021.477344956421
 21
2134.360084252528
 31
0.0
  0
LINE
  5
AB
330
87
100
AcDbEntity
  8
P-SANR-FIXT
100
AcDbLine
 10
1011.877344956421
 20
2134.360084252528
 30
0.0
 11
1011.877344956421
 21
2130.860084252528
 31
0.0
  0
LINE
  5
AC
330
87
100
AcDbEntity
  8
P-SANR-FIXT
100
AcDbLine
 10
1022.477344956421
 20
2134.360084252528
 30
0.0
 11
1022.477344956421
 21
2142.360084252528
 31
0.0
  0
LINE
  5
AD
330
87
100
AcDbEntity
  8
P-SANR-FIXT
100
AcDbLine
 10
1010.877344956421
 20
2142.360084252528
 30
0.0
 11
1010.877344956421
 21
2134.360084252528
 31
0.0
  0
LINE
  5
AE
330
87
100
AcDbEntity
  8
P-SANR-FIXT
100
AcDbLine
 10
1018.677344956421
 20
2142.360084252528
 30
0.0
 11
1018.677344956421
 21
2145.360084252528
 31
0.0
  0
LINE
  5
AF
330
87
100
AcDbEntity
  8
P-SANR-FIXT
100
AcDbLine
 10
1014.677344956421
 20
2145.360084252528
 30
0.0
 11
1014.677344956421
 21
2142.360084252528
 31
0.0
  0
LINE
  5
B0
330
87
100
AcDbEntity
  8
P-SANR-FIXT
100
AcDbLine
 10
1006.981347678394
 20
2102.414546266059
 30
0.0
 11
994.0055977380044
 21
2102.414546266059
 31
0.0
  0
LINE
  5
B1
330
87
100
AcDbEntity
  8
P-SANR-FIXT
100
AcDbLine
 10
994.0055977380042
 20
2086.414546266059
 30
0.0
 11
1006.981347678394
 21
2086.414546266059
 31
0.0
  0
LINE
  5
B2
330
87
100
AcDbEntity
  8
P-SANR-FIXT
100
AcDbLine
 10
994.0055977380044
 20
2103.41454626606
 30
0.0
 11
986.0055977380042
 21
2103.41454626606
 31
0.0
  0
LINE
  5
B3
330
87
100
AcDbEntity
  8
P-SANR-FIXT
100
AcDbLine
 10
986.0055977380042
 20
2085.41454626606
 30
0.0
 11
994.0055977380042
 21
2085.41454626606
 31
0.0
  0
LINE
  5
B4
330
87
100
AcDbEntity
  8
P-SANR-FIXT
100
AcDbLine
 10
986.0055977380042
 20
2101.41454626606
 30
0.0
 11
982.0055977380045
 21
2101.41454626606
 31
0.0
  0
LINE
  5
B5
330
87
100
AcDbEntity
  8
P-SANR-FIXT
100
AcDbLine
 10
982.0055977380045
 20
2087.41454626606
 30
0.0
 11
986.0055977380042
 21
2087.41454626606
 31
0.0
  0
LINE
  5
B6
330
87
100
AcDbEntity
  8
P-SANR-FIXT
100
AcDbLine
 10
982.0055977380045
 20
2096.971431281861
 30
0.0
 11
979.0055977380044
 21
2096.971431281861
 31
0.0
  0
LINE
  5
B7
330
87
100
AcDbEntity
  8
P-SANR-FIXT
100
AcDbLine
 10
979.0055977380044
 20
2091.857661250258
 30
0.0
 11
982.0055977380041
 21
2091.857661250258
 31
0.0
  0
LINE
  5
B8
330
87
100
AcDbEntity
  8
P-SANR-FIXT
100
AcDbLine
 10
979.0055977380044
 20
2098.471431281861
 30
0.0
 11
970.0055977380044
 21
2098.471431281861
 31
0.0
  0
LINE
  5
B9
330
87
100
AcDbEntity
  8
P-SANR-FIXT
100
AcDbLine
 10
970.0055977380044
 20
2090.357661250259
 30
0.0
 11
979.0055977380044
 21
2090.357661250258
 31
0.0
  0
LINE
  5
BA
330
87
100
AcDbEntity
  8
P-SANR-FIXT
100
AcDbLine
 10
1021.677344956421
 20
2101.360084252528
 30
0.0
 11
1023.866368351052
 21
2103.549107647158
 31
0.0
  0
LINE
  5
BB
330
87
100
AcDbEntity
  8
P-SANR-FIXT
100
AcDbLine
 10
1009.48832156179
 20
2103.549107647159
 30
0.0
 11
1011.677344956421
 21
2101.360084252528
 31
0.0
  0
LINE
  5
BC
330
87
100
AcDbEntity
  8
P-SANR-FIXT
100
AcDbLine
 10
1023.677344956421
 20
2080.937255847337
 30
0.0
 11
1023.677344956421
 21
2085.360084252528
 31
0.0
  0
LINE
  5
BD
330
87
100
AcDbEntity
  8
P-SANR-FIXT
100
AcDbLine
 10
1009.677344956421
 20
2085.360084252528
 30
0.0
 11
1009.677344956421
 21
2080.9375
 31
0.0
  0
LINE
  5
BE
330
87
100
AcDbEntity
  8
P-SANR-FIXT
100
AcDbLine
 10
1024.677344956421
 20
2112.860084252528
 30
0.0
 11
1024.677344956421
 21
2114.360084252528
 31
0.0
  0
LINE
  5
BF
330
87
100
AcDbEntity
  8
P-SANR-FIXT
100
AcDbLine
 10
1008.677344956421
 20
2114.360084252528
 30
0.0
 11
1008.677344956421
 21
2112.860084252528
 31
0.0
  0
LINE
  5
C0
330
87
100
AcDbEntity
  8
P-SANR-FIXT
100
AcDbLine
 10
1011.677344956421
 20
2099.736110152212
 30
0.0
 11
1008.765766593322
 21
2099.736110152212
 31
0.0
  0
LINE
  5
C1
330
87
100
AcDbEntity
  8
P-SANR-FIXT
100
AcDbLine
 10
1008.765766593322
 20
2089.092982379907
 30
0.0
 11
1011.677344956421
 21
2089.092982379907
 31
0.0
  0
LINE
  5
C2
330
87
100
AcDbEntity
  8
P-SANR-FIXT
100
AcDbLine
 10
1008.765766593322
 20
2099.736110152212
 30
0.0
 11
1007.026944289358
 21
2102.34610515705
 31
0.0
  0
LINE
  5
C3
330
87
100
AcDbEntity
  8
P-SANR-FIXT
100
AcDbLine
 10
1007.018965880536
 20
2102.35808085297
 30
0.0
 11
1006.981347678394
 21
2102.414546266059
 31
0.0
  0
LINE
  5
C4
330
87
100
AcDbEntity
  8
P-SANR-FIXT
100
AcDbLine
 10
1006.981347678394
 20
2086.414546266059
 30
0.0
 11
1007.018965880537
 21
2086.471011679149
 31
0.0
  0
LINE
  5
C5
330
87
100
AcDbEntity
  8
P-SANR-FIXT
100
AcDbLine
 10
1007.026944289358
 20
2086.482987375068
 30
0.0
 11
1008.765766593322
 21
2089.092982379907
 31
0.0
  0
SPLINE
  5
C6
330
87
100
AcDbEntity
  8
P-SANR-FIXT
100
AcDbSpline
210
0.0
220
0.0
230
1.0
 70
     8
 71
     3
 72
    10
 73
     6
 74
     0
 42
0.000000001
 43
0.0000000001
 40
0.0
 40
0.0
 40
0.0
 40
0.0
 40
0.3333333333333333
 40
0.6666666666666666
 40
1.0
 40
1.0
 40
1.0
 40
1.0
 10
1011.677344956419
 20
2099.736110152212
 30
0.0
 10
1011.677344956419
 20
2099.733305525965
 30
0.0
 10
1011.745739056282
 20
2099.673680813324
 30
0.0
 10
1012.033923011574
 20
2099.399537511713
 30
0.0
 10
1012.322714830967
 20
2099.138957526622
 30
0.0
 10
1012.485210077504
 20
2098.985436446037
 30
0.0
  0
SPLINE
  5
C7
330
87
100
AcDbEntity
  8
P-SANR-FIXT
100
AcDbSpline
210
0.0
220
0.0
230
1.0
 70
     8
 71
     3
 72
    10
 73
     6
 74
     0
 42
0.000000001
 43
0.0000000001
 40
0.0
 40
0.0
 40
0.0
 40
0.0
 40
0.3333333333333333
 40
0.6666666666666666
 40
1.0
 40
1.0
 40
1.0
 40
1.0
 10
1012.485210077504
 20
2089.84365608608
 30
0.0
 10
1012.322714830967
 20
2089.690135005495
 30
0.0
 10
1012.033923011574
 20
2089.429555020404
 30
0.0
 10
1011.745739056281
 20
2089.155411718793
 30
0.0
 10
1011.677344956419
 20
2089.095787006152
 30
0.0
 10
1011.677344956419
 20
2089.092982379906
 30
0.0
  0
LINE
  5
C8
330
87
100
AcDbEntity
  8
P-SANR-FIXT
100
AcDbLine
 10
1009.488321561789
 20
2103.549107647157
 30
0.0
 11
1023.86636835105
 21
2103.549107647157
 31
0.0
  0
LINE
  5
C9
330
87
100
AcDbEntity
  8
P-SANR-FIXT
100
AcDbLine
 10
1008.67734495642
 20
2114.360084252527
 30
0.0
 11
1024.677344956419
 21
2114.360084252527
 31
0.0
  0
LINE
  5
CA
330
87
100
AcDbEntity
  8
P-SANR-FIXT
100
AcDbLine
 10
1024.477344956419
 20
2119.360084252527
 30
0.0
 11
1008.877344956419
 21
2119.360084252527
 31
0.0
  0
LINE
  5
CB
330
87
100
AcDbEntity
  8
P-SANR-FIXT
100
AcDbLine
 10
1024.477344956419
 20
2128.360084252527
 30
0.0
 11
1008.877344956419
 21
2128.360084252527
 31
0.0
  0
LINE
  5
CC
330
87
100
AcDbEntity
  8
P-SANR-FIXT
100
AcDbLine
 10
1023.477344956419
 20
2130.860084252526
 30
0.0
 11
1009.87734495642
 21
2130.860084252527
 31
0.0
  0
LINE
  5
CD
330
87
100
AcDbEntity
  8
P-SANR-FIXT
100
AcDbLine
 10
1022.47734495642
 20
2134.360084252527
 30
0.0
 11
1010.877344956419
 21
2134.360084252527
 31
0.0
  0
LINE
  5
CE
330
87
100
AcDbEntity
  8
P-SANR-FIXT
100
AcDbLine
 10
1022.47734495642
 20
2142.360084252527
 30
0.0
 11
1010.87734495642
 21
2142.360084252527
 31
0.0
  0
LINE
  5
CF
330
87
100
AcDbEntity
  8
P-SANR-FIXT
100
AcDbLine
 10
1018.67734495642
 20
2145.360084252526
 30
0.0
 11
1014.677344956419
 21
2145.360084252526
 31
0.0
  0
LINE
  5
D0
330
87
100
AcDbEntity
  8
P-SANR-FIXT
100
AcDbLine
 10
1006.981347678392
 20
2086.414546266059
 30
0.0
 11
1006.981347678392
 21
2102.414546266059
 31
0.0
  0
LINE
  5
D1
330
87
100
AcDbEntity
  8
P-SANR-FIXT
100
AcDbLine
 10
994.0055977380026
 20
2103.414546266059
 30
0.0
 11
994.0055977380024
 21
2085.414546266059
 31
0.0
  0
LINE
  5
D2
330
87
100
AcDbEntity
  8
P-SANR-FIXT
100
AcDbLine
 10
986.0055977380026
 20
2103.414546266059
 30
0.0
 11
986.0055977380026
 21
2085.414546266059
 31
0.0
  0
LINE
  5
D3
330
87
100
AcDbEntity
  8
P-SANR-FIXT
100
AcDbLine
 10
982.0055977380027
 20
2101.414546266059
 30
0.0
 11
982.0055977380025
 21
2087.414546266058
 31
0.0
  0
LINE
  5
D4
330
87
100
AcDbEntity
  8
P-SANR-FIXT
100
AcDbLine
 10
979.0055977380026
 20
2098.47143128186
 30
0.0
 11
979.0055977380026
 21
2090.357661250258
 31
0.0
  0
LINE
  5
D5
330
87
100
AcDbEntity
  8
P-SANR-FIXT
100
AcDbLine
 10
970.0055977380026
 20
2098.47143128186
 30
0.0
 11
970.0055977380026
 21
2090.357661250258
 31
0.0
  0
LINE
  5
D6
330
87
100
AcDbEntity
  8
P-SANR-FIXT
100
AcDbLine
 10
1021.677344956419
 20
2101.360084252527
 30
0.0
 11
1011.677344956419
 21
2101.360084252527
 31
0.0
  0
LINE
  5
D7
330
87
100
AcDbEntity
  8
P-SANR-FIXT
100
AcDbLine
 10
1023.677344956419
 20
2080.937255847336
 30
0.0
 11
1015.664821082902
 21
2080.937255847336
 31
0.0
  0
LINE
  5
D8
330
87
100
AcDbEntity
  8
P-SANR-FIXT
100
AcDbLine
 10
1023.677344956419
 20
2085.360084252527
 30
0.0
 11
1009.677344956419
 21
2085.360084252527
 31
0.0
  0
LINE
  5
D9
330
87
100
AcDbEntity
  8
P-SANR-FIXT
100
AcDbLine
 10
1024.677344956419
 20
2112.860084252527
 30
0.0
 11
1008.67734495642
 21
2112.860084252527
 31
0.0
  0
LINE
  5
DA
330
87
100
AcDbEntity
  8
P-SANR-FIXT
100
AcDbLine
 10
1012.485210077504
 20
2098.985436446037
 30
0.0
 11
1012.485210077504
 21
2089.84365608608
 31
0.0
  0
LINE
  5
DB
330
87
100
AcDbEntity
  8
P-SANR-FIXT
100
AcDbLine
 10
1008.76576659332
 20
2099.736110152212
 30
0.0
 11
1008.76576659332
 21
2089.092982379906
 31
0.0
  0
LINE
  5
DC
330
87
100
AcDbEntity
  8
P-SANR-FIXT
100
AcDbLine
 10
714.6835076408425
 20
2091.855653749432
 30
0.0
 11
714.6835076408425
 21
2099.623312142262
 31
0.0
  0
LINE
  5
DD
330
87
100
AcDbEntity
  8
P-SANR-FIXT
100
AcDbLine
 10
699.6835076408427
 20
2099.623312142262
 30
0.0
 11
699.6835076408427
 21
2091.855653749432
 31
0.0
  0
LINE
  5
DE
330
87
100
AcDbEntity
  8
P-SANR-FIXT
100
AcDbLine
 10
712.1835076408427
 20
2099.623312142262
 30
0.0
 11
712.1835076408427
 21
2101.123312142262
 31
0.0
  0
LINE
  5
DF
330
87
100
AcDbEntity
  8
P-SANR-FIXT
100
AcDbLine
 10
702.1835076408426
 20
2101.123312142262
 30
0.0
 11
702.1835076408426
 21
2099.623312142262
 31
0.0
  0
LINE
  5
E0
330
87
100
AcDbEntity
  8
P-SANR-FIXT
100
AcDbLine
 10
714.6835076408425
 20
2101.123312142262
 30
0.0
 11
714.6835076408425
 21
2106.146243186739
 31
0.0
  0
LINE
  5
E1
330
87
100
AcDbEntity
  8
P-SANR-FIXT
100
AcDbLine
 10
699.6835076408427
 20
2106.146243186739
 30
0.0
 11
699.6835076408427
 21
2101.123312142262
 31
0.0
  0
LINE
  5
E2
330
87
100
AcDbEntity
  8
P-SANR-FIXT
100
AcDbLine
 10
711.1835076408428
 20
2107.123312142262
 30
0.0
 11
711.1835076408428
 21
2108.623312142262
 31
0.0
  0
LINE
  5
E3
330
87
100
AcDbEntity
  8
P-SANR-FIXT
100
AcDbLine
 10
703.1835076408428
 20
2108.623312142262
 30
0.0
 11
703.1835076408428
 21
2107.123312142262
 31
0.0
  0
LINE
  5
E4
330
87
100
AcDbEntity
  8
P-SANR-FIXT
100
AcDbLine
 10
712.1835076408427
 20
2108.623312142262
 30
0.0
 11
712.1835076408427
 21
2110.623312142262
 31
0.0
  0
LINE
  5
E5
330
87
100
AcDbEntity
  8
P-SANR-FIXT
100
AcDbLine
 10
702.1835076408426
 20
2110.623312142262
 30
0.0
 11
702.1835076408426
 21
2108.623312142262
 31
0.0
  0
LINE
  5
E6
330
87
100
AcDbEntity
  8
P-SANR-FIXT
100
AcDbLine
 10
714.6835076408425
 20
2106.146243186739
 30
0.0
 11
713.7064386853193
 21
2107.123312142262
 31
0.0
  0
LINE
  5
E7
330
87
100
AcDbEntity
  8
P-SANR-FIXT
100
AcDbLine
 10
700.660576596366
 20
2107.123312142262
 30
0.0
 11
699.6835076408427
 21
2106.146243186739
 31
0.0
  0
LINE
  5
E8
330
87
100
AcDbEntity
  8
P-SANR-FIXT
100
AcDbLine
 10
713.8051860340035
 20
2080.937500000004
 30
0.0
 11
713.8051860340035
 21
2091.855653749432
 31
0.0
  0
LINE
  5
E9
330
87
100
AcDbEntity
  8
P-SANR-FIXT
100
AcDbLine
 10
700.5618292476818
 20
2091.855653749432
 30
0.0
 11
700.5618292476818
 21
2080.919762203913
 31
0.0
  0
LINE
  5
EA
330
87
100
AcDbEntity
  8
P-SANR-FIXT
100
AcDbLine
 10
699.6835076408414
 20
2091.855653749431
 30
0.0
 11
714.6835076408412
 21
2091.855653749431
 31
0.0
  0
LINE
  5
EB
330
87
100
AcDbEntity
  8
P-SANR-FIXT
100
AcDbLine
 10
714.6835076408412
 20
2099.623312142261
 30
0.0
 11
699.6835076408414
 21
2099.623312142261
 31
0.0
  0
LINE
  5
EC
330
87
100
AcDbEntity
  8
P-SANR-FIXT
100
AcDbLine
 10
714.6835076408412
 20
2101.123312142261
 30
0.0
 11
699.6835076408414
 21
2101.123312142261
 31
0.0
  0
LINE
  5
ED
330
87
100
AcDbEntity
  8
P-SANR-FIXT
100
AcDbLine
 10
700.6605765963646
 20
2107.123312142261
 30
0.0
 11
713.7064386853179
 21
2107.123312142261
 31
0.0
  0
LINE
  5
EE
330
87
100
AcDbEntity
  8
P-SANR-FIXT
100
AcDbLine
 10
712.1835076408411
 20
2108.623312142261
 30
0.0
 11
702.1835076408412
 21
2108.623312142261
 31
0.0
  0
LINE
  5
EF
330
87
100
AcDbEntity
  8
P-SANR-FIXT
100
AcDbLine
 10
712.1835076408411
 20
2110.623312142261
 30
0.0
 11
702.1835076408412
 21
2110.623312142261
 31
0.0
  0
LINE
  5
F0
330
87
100
AcDbEntity
  8
P-SANR-FIXT
100
AcDbLine
 10
714.6835076408412
 20
2106.146243186738
 30
0.0
 11
699.6835076408414
 21
2106.146243186738
 31
0.0
  0
LINE
  5
F1
330
87
100
AcDbEntity
  8
P-SANR-FIXT
100
AcDbLine
 10
705.660858923645
 20
2080.773465045023
 30
0.0
 11
703.5423565038991
 21
2080.773465045023
 31
0.0
  0
LINE
  5
F2
330
87
100
AcDbEntity
  8
P-SANR-FIXT
100
AcDbLine
 10
705.6680140695456
 20
1955.076800476825
 30
0.0
 11
709.2874510189829
 21
1931.698534502985
 31
0.0
  0
LINE
  5
F3
330
87
100
AcDbEntity
  8
P-SANR-FIXT
100
AcDbLine
 10
688.6664074431962
 20
2050.937499999959
 30
0.0
 11
685.6664074432003
 21
2050.937499999959
 31
0.0
  0
LINE
  5
F4
330
87
100
AcDbEntity
  8
P-SANR-FIXT
100
AcDbLine
 10
685.6664074432003
 20
1890.93750000004
 30
0.0
 11
688.6664074431962
 21
1890.93750000004
 31
0.0
  0
LINE
  5
F5
330
87
100
AcDbEntity
  8
P-SANR-FIXT
100
AcDbLine
 10
701.018611851901
 20
2080.937500000004
 30
0.0
 11
688.6664074431966
 21
2080.937500000004
 31
0.0
  0
LINE
  5
F6
330
87
100
AcDbEntity
  8
P-SANR-FIXT
100
AcDbLine
 10
688.6664074431966
 20
1860.937499999995
 30
0.0
 11
705.6664074431965
 21
1860.937499999995
 31
0.0
  0
LINE
  5
F7
330
87
100
AcDbEntity
  8
P-SANR-FIXT
100
AcDbLine
 10
705.6664074431986
 20
1898.937499999998
 30
0.0
 11
795.5045877091206
 21
1898.937499999998
 31
0.0
  0
LINE
  5
F8
330
87
100
AcDbEntity
  8
P-SANR-FIXT
100
AcDbLine
 10
908.4478295764037
 20
1898.937499999998
 30
0.0
 11
1015.666407443181
 21
1898.937499999998
 31
0.0
  0
LINE
  5
F9
330
87
100
AcDbEntity
  8
P-SANR-FIXT
100
AcDbLine
 10
1002.388984301093
 20
2042.937499999998
 30
0.0
 11
902.8236783606317
 21
2042.937499999998
 31
0.0
  0
LINE
  5
FA
330
87
100
AcDbEntity
  8
P-SANR-FIXT
100
AcDbLine
 10
760.7780765886753
 20
2042.937499999998
 30
0.0
 11
718.9438305852855
 21
2042.937499999998
 31
0.0
  0
LINE
  5
FB
330
87
100
AcDbEntity
  8
P-SANR-FIXT
100
AcDbLine
 10
775.5594137151171
 20
2122.207739177385
 30
0.0
 11
776.8535089406295
 21
2117.37811004594
 31
0.0
  0
LINE
  5
FC
330
87
100
AcDbEntity
  8
P-SANR-FIXT
100
AcDbLine
 10
823.5590585179739
 20
2129.892824337241
 30
0.0
 11
822.2649632924612
 21
2134.722453468687
 31
0.0
  0
LINE
  5
FD
330
87
100
AcDbEntity
  8
P-SANR-FIXT
100
AcDbLine
 10
766.5564942506733
 20
2109.442652373265
 30
0.0
 11
767.3329513859808
 21
2106.544874894398
 31
0.0
  0
LINE
  5
FE
330
87
100
AcDbEntity
  8
P-SANR-FIXT
100
AcDbLine
 10
837.2207207942629
 20
2125.271246268159
 30
0.0
 11
836.4442636589554
 21
2128.169023747027
 31
0.0
  0
LINE
  5
FF
330
87
100
AcDbEntity
  8
P-SANR-FIXT
100
AcDbLine
 10
765.8840626465472
 20
2106.156646326744
 30
0.0
 11
759.651888379598
 21
2097.256179069731
 31
0.0
  0
LINE
  5
100
330
87
100
AcDbEntity
  8
P-SANR-FIXT
100
AcDbLine
 10
848.5170643981925
 20
2121.067531219163
 30
0.0
 11
838.6696095336965
 21
2125.659474835813
 31
0.0
  0
LINE
  5
101
330
87
100
AcDbEntity
  8
P-SANR-FIXT
100
AcDbLine
 10
759.651888379598
 20
2097.256179069731
 30
0.0
 11
767.0927147122597
 21
2069.486637145941
 31
0.0
  0
LINE
  5
102
330
87
100
AcDbEntity
  8
P-SANR-FIXT
100
AcDbLine
 10
855.9578907308543
 20
2093.297989295373
 30
0.0
 11
848.5170643981927
 21
2121.067531219163
 31
0.0
  0
LINE
  5
103
330
87
100
AcDbEntity
  8
P-SANR-FIXT
100
AcDbLine
 10
835.9626533175832
 20
1849.814999766518
 30
0.0
 11
828.5557518898917
 21
1835.884644225248
 31
0.0
  0
LINE
  5
104
330
87
100
AcDbEntity
  8
P-SANR-FIXT
100
AcDbLine
 10
919.5521277055917
 20
1860.267049639223
 30
0.0
 11
906.1723851352482
 21
1868.627640707867
 31
0.0
  0
LINE
  5
105
330
87
100
AcDbEntity
  8
P-SANR-FIXT
100
AcDbLine
 10
814.4186704277883
 20
1822.629364560469
 30
0.0
 11
806.2716856931418
 21
1818.948737617792
 31
0.0
  0
LINE
  5
106
330
87
100
AcDbEntity
  8
P-SANR-FIXT
100
AcDbLine
 10
972.4141677069333
 20
1859.24153945521
 30
0.0
 11
938.4228392195323
 21
1855.85618144631
 31
0.0
  0
LINE
  5
107
330
87
100
AcDbEntity
  8
P-SANR-FIXT
100
AcDbLine
 10
834.4375519119648
 20
1713.381533773704
 30
0.0
 11
879.4886518916158
 21
1628.410056776045
 31
0.0
  0
LINE
  5
108
330
87
100
AcDbEntity
  8
P-SANR-FIXT
100
AcDbLine
 10
979.180236140287
 20
1655.122336267655
 30
0.0
 11
975.7098946922679
 21
1751.235343934538
 31
0.0
  0
LINE
  5
109
330
87
100
AcDbEntity
  8
P-SANR-FIXT
100
AcDbLine
 10
893.492747934067
 20
1607.458133554583
 30
0.0
 11
896.3397574301946
 21
1596.832949465404
 31
0.0
  0
LINE
  5
10A
330
87
100
AcDbEntity
  8
P-SANR-FIXT
100
AcDbLine
 10
980.375304317345
 20
1619.350206389324
 30
0.0
 11
977.5282948212172
 21
1629.975390478503
 31
0.0
  0
LINE
  5
10B
330
87
100
AcDbEntity
  8
P-SANR-FIXT
100
AcDbLine
 10
834.6926436717605
 20
1859.744588245692
 30
0.0
 11
836.3775444847339
 21
1853.456452805961
 31
0.0
  0
LINE
  5
10C
330
87
100
AcDbEntity
  8
P-SANR-FIXT
100
AcDbLine
 10
903.9923523249688
 20
1871.573785963137
 30
0.0
 11
900.7627408959685
 21
1883.626859904872
 31
0.0
  0
LINE
  5
10D
330
87
100
AcDbEntity
  8
P-SANR-FIXT
100
AcDbLine
 10
908.4478295764037
 20
1898.937499999998
 30
0.0
 11
908.0754194139888
 21
1897.833498701071
 31
0.0
  0
LWPOLYLINE
  5
10E
330
87
100
AcDbEntity
  8
P-SANR-FIXT
100
AcDbPolyline
 90
        3
 70
   128
 43
0.0
 10
906.1218334842665
 20
1892.042138470741
 10
905.7161207560232
 20
1890.839412486928
 10
904.9795959493176
 20
1889.766968207177
  0
LINE
  5
10F
330
87
100
AcDbEntity
  8
P-SANR-FIXT
100
AcDbLine
 10
901.7463812219876
 20
1885.05912590782
 30
0.0
 11
900.7627408959685
 21
1883.626859904871
 31
0.0
  0
LWPOLYLINE
  5
110
330
87
100
AcDbEntity
  8
P-SANR-FIXT
100
AcDbPolyline
 90
       23
 70
   128
 43
0.0
 10
809.3039816594117
 20
1899.853391706836
 10
809.1735292386738
 20
1900.568905898643
 10
809.0259760760254
 20
1901.378215387296
 10
808.8620112068278
 20
1902.277540905403
 10
808.682400304897
 20
1903.26268283384
 10
808.4879821070003
 20
1904.329040812891
 10
808.2796644961748
 20
1905.471635224753
 10
808.0584202621441
 20
1906.685130447064
 10
807.8252825586416
 20
1907.963859768895
 10
807.581340078847
 20
1909.301851852831
 10
807.3277319714701
 20
1910.692858619581
 10
807.0656425212183
 20
1912.130384424909
 10
806.7962956184908
 20
1913.607716392614
 10
806.5209490441256
 20
1915.117955761951
 10
806.2408885958864
 20
1916.654050103057
 10
805.9574220841158
 20
1918.208826249997
 10
805.6718732245988
 20
1919.7750237976
 10
805.3855754571495
 20
1921.34532900569
 10
805.0998657187886
 20
1922.912408952372
 10
804.8160782005938
 20
1924.468945776891
 10
804.5355381173667
 20
1926.007670852166
 10
804.2595555192228
 20
1927.521398727407
 10
804.0243653488774
 20
1928.811385557116
  0
LWPOLYLINE
  5
111
330
87
100
AcDbEntity
  8
P-SANR-FIXT
100
AcDbPolyline
 90
        3
 70
   128
 43
0.0
 10
900.7627408959686
 20
1883.626859904871
 10
905.7161207560232
 20
1890.839412486928
 10
908.4478295764037
 20
1898.937499999998
  0
LINE
  5
112
330
87
100
AcDbEntity
  8
P-SANR-FIXT
100
AcDbLine
 10
902.8278613271693
 20
2042.938172825127
 30
0.0
 11
873.6179505897096
 21
2072.148083562586
 31
0.0
  0
LWPOLYLINE
  5
113
330
87
100
AcDbEntity
  8
P-SANR-FIXT
100
AcDbPolyline
 90
        3
 70
   128
 43
0.0
 10
982.1743847476803
 20
1580.609638772
 10
982.0239852762179
 20
1580.564332157313
 10
982.0106895113703
 20
1580.560692529921
  0
LINE
  5
114
330
87
100
AcDbEntity
  8
P-SANR-FIXT
100
AcDbLine
 10
981.9448771371337
 20
1580.542833517042
 30
0.0
 11
981.915508421148
 21
1580.534964193311
 31
0.0
  0
LWPOLYLINE
  5
115
330
87
100
AcDbEntity
  8
P-SANR-FIXT
100
AcDbPolyline
 90
        3
 70
   128
 43
0.0
 10
914.409568987472
 20
1562.446802237753
 10
914.3649925353512
 20
1562.434858013406
 10
914.3571116141034
 20
1562.432746326922
  0
LINE
  5
116
330
87
100
AcDbEntity
  8
P-SANR-FIXT
100
AcDbLine
 10
914.3841539313088
 20
1562.439992293979
 30
0.0
 11
914.465237620986
 21
1562.461718603147
 31
0.0
  0
LWPOLYLINE
  5
117
330
87
100
AcDbEntity
  8
P-SANR-FIXT
100
AcDbPolyline
 90
        4
 70
   128
 43
0.0
 10
981.820974285152
 20
1580.509633847914
 10
981.907812911635
 20
1580.532902187752
 10
981.9640385330911
 20
1580.547967797615
 10
981.971919454339
 20
1580.550079484099
  0
LINE
  5
118
330
87
100
AcDbEntity
  8
P-SANR-FIXT
100
AcDbLine
 10
718.9509583924936
 20
2042.931264424056
 30
0.0
 11
718.9509583924936
 21
2080.937500000004
 31
0.0
  0
LWPOLYLINE
  5
119
330
87
100
AcDbEntity
  8
P-SANR-FIXT
100
AcDbPolyline
 90
       39
 70
   128
 43
0.0
 10
823.5590585179739
 20
2129.892824337241
 10
823.6146717125885
 20
2129.700725822058
 10
823.6779223142995
 20
2129.511004899821
 10
823.7487091356371
 20
2129.323965083536
 10
823.8269189327873
 20
2129.139905597008
 10
823.9124265867589
 20
2128.959120896153
 10
824.0050953035458
 20
2128.781900197926
 10
824.1047768329696
 20
2128.608527017639
 10
824.2113117058478
 20
2128.439278715396
 10
824.3245294891094
 20
2128.274426052378
 10
824.4442490584535
 20
2128.114232757676
 10
824.5702788881079
 20
2127.958955106391
 10
824.7024173572295
 20
2127.808841509642
 10
824.8404530724567
 20
2127.664132117158
 10
824.9841652060904
 20
2127.5250584331
 10
825.1333238493742
 20
2127.391842945694
 10
825.2876903802974
 20
2127.264698771302
 10
825.4470178453404
 20
2127.143829313481
 10
825.6110513545474
 20
2127.029427937578
 10
825.7795284892951
 20
2126.921677661391
 10
825.9521797221081
 20
2126.820750862377
 10
826.1287288478442
 20
2126.726809001884
 10
826.3088934255641
 20
2126.640002366849
 10
826.4923852303763
 20
2126.56046982937
 10
826.678910714536
 20
2126.488338624541
 10
826.8681714770586
 20
2126.423724146903
 10
827.0598647410976
 20
2126.366729765836
 10
827.2536838383226
 20
2126.317446660191
 10
827.4493186995242
 20
2126.275953672426
 10
827.6464563506575
 20
2126.242317182467
 10
827.8447814135349
 20
2126.216591001526
 10
828.0439766103624
 20
2126.198816286002
 10
828.2437232713178
 20
2126.189021471649
 10
828.4437018443544
 20
2126.187222228079
 10
828.6435924064145
 20
2126.193421433701
 10
828.8430751752406
 20
2126.207609171105
 10
829.0418310209558
 20
2126.229762742941
 10
829.2395419766066
 20
2126.259846708218
 10
829.4358917468397
 20
2126.297812939009
  0
LINE
  5
11A
330
87
100
AcDbEntity
  8
P-SANR-FIXT
100
AcDbLine
 10
829.5684158277893
 20
2126.328982823261
 30
0.0
 11
829.6305662139086
 21
2126.343600697445
 31
0.0
  0
LWPOLYLINE
  5
11B
330
87
100
AcDbEntity
  8
P-SANR-FIXT
100
AcDbPolyline
 90
       40
 70
   128
 43
0.0
 10
773.5100735498807
 20
2111.309998883597
 10
773.6997944721172
 20
2111.373249485308
 10
773.8868342884026
 20
2111.444036306646
 10
774.07089377493
 20
2111.522246103796
 10
774.2516784757856
 20
2111.607753757768
 10
774.4288991740128
 20
2111.700422474555
 10
774.6022723542998
 20
2111.800104003979
 10
774.7715206565424
 20
2111.906638876857
 10
774.9363733195612
 20
2112.019856660118
 10
775.0965666142623
 20
2112.139576229463
 10
775.2518442655468
 20
2112.265606059116
 10
775.4019578622967
 20
2112.397744528239
 10
775.5466672547798
 20
2112.535780243466
 10
775.6857409388381
 20
2112.679492377099
 10
775.8189564262444
 20
2112.828651020383
 10
775.9461006006363
 20
2112.983017551306
 10
776.0669700584579
 20
2113.142345016349
 10
776.1813714343604
 20
2113.306378525556
 10
776.2891217105468
 20
2113.474855660304
 10
776.3900485095612
 20
2113.647506893117
 10
776.4839903700542
 20
2113.824056018853
 10
776.5707970050895
 20
2114.004220596573
 10
776.6503295425685
 20
2114.187712401385
 10
776.7224607473975
 20
2114.374237885545
 10
776.7870752250359
 20
2114.563498648067
 10
776.8440696061029
 20
2114.755191912106
 10
776.8933527117472
 20
2114.949011009331
 10
776.934845699513
 20
2115.144645870533
 10
776.968482189471
 20
2115.341783521667
 10
776.9942083704129
 20
2115.540108584544
 10
777.0119830859371
 20
2115.739303781371
 10
777.0217779002903
 20
2115.939050442327
 10
777.023577143859
 20
2116.139029015363
 10
777.0173779382377
 20
2116.338919577424
 10
777.0031902008326
 20
2116.538402346249
 10
776.9810366289972
 20
2116.737158191964
 10
776.9509526637201
 20
2116.934869147615
 10
776.9129864329291
 20
2117.131218917848
 10
776.8671986744935
 20
2117.325893384917
 10
776.8535089406295
 20
2117.37811004594
  0
LINE
  5
11C
330
87
100
AcDbEntity
  8
P-SANR-FIXT
100
AcDbLine
 10
942.6186165885583
 20
1567.837014453095
 30
0.0
 11
945.4656260846862
 21
1557.211830363916
 31
0.0
  0
LINE
  5
11D
330
87
100
AcDbEntity
  8
P-SANR-FIXT
100
AcDbLine
 10
957.6416136303215
 20
1560.47437639382
 30
0.0
 11
954.7946041341939
 21
1571.099560483
 31
0.0
  0
LINE
  5
11E
330
87
100
AcDbEntity
  8
P-SANR-FIXT
100
AcDbLine
 10
831.6219259966601
 20
1693.430726379724
 30
0.0
 11
829.2925545907374
 21
1702.124058816326
 31
0.0
  0
LINE
  5
11F
330
87
100
AcDbEntity
  8
P-SANR-FIXT
100
AcDbLine
 10
817.7014446752696
 20
1699.018230275096
 30
0.0
 11
820.0308160811923
 21
1690.324897838494
 31
0.0
  0
LINE
  5
120
330
87
100
AcDbEntity
  8
P-SANR-FIXT
100
AcDbLine
 10
828.3266287644485
 20
1701.865239771224
 30
0.0
 11
827.4207621065896
 21
1705.245980163235
 31
0.0
  0
LINE
  5
121
330
87
100
AcDbEntity
  8
P-SANR-FIXT
100
AcDbLine
 10
817.7615038437
 20
1702.65778971221
 30
0.0
 11
818.6673705015587
 21
1699.277049320199
 31
0.0
  0
LINE
  5
122
330
87
100
AcDbEntity
  8
P-SANR-FIXT
100
AcDbLine
 10
830.8015024986014
 20
1706.151846821094
 30
0.0
 11
829.6368167956401
 21
1710.498513039395
 31
0.0
  0
LINE
  5
123
330
87
100
AcDbEntity
  8
P-SANR-FIXT
100
AcDbLine
 10
813.2160777487268
 20
1706.098589272652
 30
0.0
 11
814.3807634516882
 21
1701.751923054352
 31
0.0
  0
LINE
  5
124
330
87
100
AcDbEntity
  8
P-SANR-FIXT
100
AcDbLine
 10
827.7049651430621
 20
1709.98087494919
 30
0.0
 11
827.3167365754082
 21
1711.429763688623
 31
0.0
  0
LINE
  5
125
330
87
100
AcDbEntity
  8
P-SANR-FIXT
100
AcDbLine
 10
814.7597008336513
 20
1708.065116102291
 30
0.0
 11
815.147929401305
 21
1706.616227362857
 31
0.0
  0
LINE
  5
126
330
87
100
AcDbEntity
  8
P-SANR-FIXT
100
AcDbLine
 10
830.69747696742
 20
1712.335630346482
 30
0.0
 11
829.144562696805
 21
1718.131185304217
 31
0.0
  0
LINE
  5
127
330
87
100
AcDbEntity
  8
P-SANR-FIXT
100
AcDbLine
 10
809.8260461710243
 20
1712.954804402167
 30
0.0
 11
811.3789604416396
 21
1707.159249444432
 31
0.0
  0
LINE
  5
128
330
87
100
AcDbEntity
  8
P-SANR-FIXT
100
AcDbLine
 10
806.2716856931418
 20
1818.948737617792
 30
0.0
 11
804.5381710406854
 21
1825.418302376425
 31
0.0
  0
LINE
  5
129
330
87
100
AcDbEntity
  8
P-SANR-FIXT
100
AcDbLine
 10
777.492247904591
 20
1818.171369113554
 30
0.0
 11
780.6449171325144
 21
1806.405447375485
 31
0.0
  0
LINE
  5
12A
330
87
100
AcDbEntity
  8
P-SANR-FIXT
100
AcDbLine
 10
799.5079718390739
 20
1736.007568824652
 30
0.0
 11
805.9623428658674
 21
1711.919528221756
 31
0.0
  0
LINE
  5
12B
330
87
100
AcDbEntity
  8
P-SANR-FIXT
100
AcDbLine
 10
798.742616082951
 20
1823.865388105809
 30
0.0
 11
797.1897018123359
 21
1829.660943063544
 31
0.0
  0
LINE
  5
12C
330
87
100
AcDbEntity
  8
P-SANR-FIXT
100
AcDbLine
 10
781.7348885917104
 20
1825.519838341904
 30
0.0
 11
783.2878028623255
 21
1819.724283384169
 31
0.0
  0
LINE
  5
12D
330
87
100
AcDbEntity
  8
P-SANR-FIXT
100
AcDbLine
 10
795.5004047425831
 20
1898.936827174869
 30
0.0
 11
834.6926436717607
 21
1859.744588245692
 31
0.0
  0
LINE
  5
12E
330
87
100
AcDbEntity
  8
P-SANR-FIXT
100
AcDbLine
 10
1002.381856493885
 20
2080.9375
 30
0.0
 11
1002.381856493885
 21
2042.931264424056
 31
0.0
  0
LWPOLYLINE
  5
12F
330
87
100
AcDbEntity
  8
P-SANR-FIXT
100
AcDbPolyline
 90
       12
 70
   128
 43
0.0
 10
972.4141677069331
 20
1859.24153945521
 10
972.8140610487995
 20
1859.23354052182
 10
973.2133146466249
 20
1859.209556518236
 10
973.6112897798225
 20
1859.169625813748
 10
974.0073497730756
 20
1859.113812288966
 10
974.4008610148837
 20
1859.042205233622
 10
974.7911939712045
 20
1858.95491920373
 10
975.1777241925742
 20
1858.852093838317
 10
975.5598333130942
 20
1858.733893636034
 10
975.9369100396842
 20
1858.600507691989
 10
976.3083511300196
 20
1858.452149395239
 10
976.6403503243402
 20
1858.304617325576
  0
LWPOLYLINE
  5
130
330
87
100
AcDbEntity
  8
P-SANR-FIXT
100
AcDbPolyline
 90
        4
 70
   128
 43
0.0
 10
780.0971170019774
 20
1805.641016679047
 10
780.3330387425644
 20
1805.964002127826
 10
780.5816877439711
 20
1806.27729486937
 10
780.6555854045456
 20
1806.365632842235
  0
LINE
  5
131
330
87
100
AcDbEntity
  8
P-SANR-FIXT
100
AcDbLine
 10
780.0971170019774
 20
1805.641016679047
 30
0.0
 11
775.7617285531637
 21
1799.449440307421
 31
0.0
  0
LINE
  5
132
330
87
100
AcDbEntity
  8
P-SANR-FIXT
100
AcDbLine
 10
983.4906950420998
 20
1855.110249122683
 30
0.0
 11
976.6403503243404
 21
1858.304617325576
 31
0.0
  0
LWPOLYLINE
  5
133
330
87
100
AcDbEntity
  8
P-SANR-FIXT
100
AcDbPolyline
 90
       13
 70
   128
 43
0.0
 10
983.4906950420997
 20
1855.110249122683
 10
983.8565019871424
 20
1854.948496389281
 10
984.228484709758
 20
1854.801501416987
 10
984.6060481169422
 20
1854.669499366398
 10
984.9885881877867
 20
1854.552701412637
 10
985.3754929397817
 20
1854.451294407513
 10
985.7661434078593
 20
1854.365440580604
 10
986.1599146346055
 20
1854.295277279716
 10
986.5561766700569
 20
1854.240916751166
 10
986.9542955794884
 20
1854.2024459602
 10
987.3536344575724
 20
1854.17992645188
 10
987.7535544472918
 20
1854.173394252614
 10
987.8400423800929
 20
1854.174085499236
  0
LWPOLYLINE
  5
134
330
87
100
AcDbEntity
  8
P-SANR-FIXT
100
AcDbPolyline
 90
       13
 70
   128
 43
0.0
 10
772.4631650803027
 20
1796.464025158421
 10
772.808005398642
 20
1796.666667263257
 10
773.1444663586565
 20
1796.882937210754
 10
773.4720096945856
 20
1797.112489015131
 10
773.7901114069635
 20
1797.35495544247
 10
774.0982626009089
 20
1797.609948598211
 10
774.3959703002464
 20
1797.877060547699
 10
774.682758236165
 20
1798.155863968797
 10
774.958167609145
 20
1798.445912835506
 10
775.2217578229411
 20
1798.746743131513
 10
775.4731071894402
 20
1799.057873592517
 10
775.7118136032747
 20
1799.378806476153
 10
775.7617285531637
 20
1799.449440307421
  0
LINE
  5
135
330
87
100
AcDbEntity
  8
P-SANR-FIXT
100
AcDbLine
 10
772.4631650803031
 20
1796.464025158421
 30
0.0
 11
763.2530833288732
 21
1790.404079234025
 31
0.0
  0
LINE
  5
136
330
87
100
AcDbEntity
  8
P-SANR-FIXT
100
AcDbLine
 10
998.8461801099607
 20
1853.531059258864
 30
0.0
 11
987.8400423800927
 21
1854.174085499236
 31
0.0
  0
LINE
  5
137
330
87
100
AcDbEntity
  8
P-SANR-FIXT
100
AcDbLine
 10
764.9620941612194
 20
1784.025963977023
 30
0.0
 11
765.5414160630855
 21
1781.863905205321
 31
0.0
  0
LINE
  5
138
330
87
100
AcDbEntity
  8
P-SANR-FIXT
100
AcDbLine
 10
1001.134512844173
 20
1844.990885230161
 30
0.0
 11
1000.555190942306
 21
1847.152944001862
 31
0.0
  0
LINE
  5
139
330
87
100
AcDbEntity
  8
P-SANR-FIXT
100
AcDbLine
 10
765.5414160630852
 20
1781.863905205321
 30
0.0
 11
770.969006275754
 21
1780.906874610599
 31
0.0
  0
LINE
  5
13A
330
87
100
AcDbEntity
  8
P-SANR-FIXT
100
AcDbLine
 10
996.9125971360313
 20
1841.448277316598
 30
0.0
 11
1001.134512844173
 21
1844.990885230161
 31
0.0
  0
LINE
  5
13B
330
87
100
AcDbEntity
  8
P-SANR-FIXT
100
AcDbLine
 10
778.3456666818698
 20
1775.175912521698
 30
0.0
 11
793.6255704206392
 21
1741.354190177824
 31
0.0
  0
LINE
  5
13C
330
87
100
AcDbEntity
  8
P-SANR-FIXT
100
AcDbLine
 10
997.0677792404764
 20
1795.866365737503
 30
0.0
 11
993.3897028736947
 21
1832.796788356426
 31
0.0
  0
LWPOLYLINE
  5
13D
330
87
100
AcDbEntity
  8
P-SANR-FIXT
100
AcDbPolyline
 90
       15
 70
   128
 43
0.0
 10
979.180236140287
 20
1655.122336267655
 10
979.1834540284135
 20
1654.922375491133
 10
979.1786730442565
 20
1654.722445980701
 10
979.1659008363701
 20
1654.522867580926
 10
979.145157837563
 20
1654.323959574673
 10
979.1164772322078
 20
1654.126040172321
 10
979.0799049031551
 20
1653.929426002692
 10
979.0354993583299
 20
1653.734431606516
 10
978.9833316371309
 20
1653.541368933231
 10
978.9234851967837
 20
1653.350546841929
 10
978.856055778826
 20
1653.16227060725
 10
978.7811512559429
 20
1652.976841431005
 10
978.6988914593916
 20
1652.794555960322
 10
978.6094079872993
 20
1652.615705813066
 10
978.5136192439299
 20
1652.441919402807
  0
LWPOLYLINE
  5
13E
330
87
100
AcDbEntity
  8
P-SANR-FIXT
100
AcDbPolyline
 90
       15
 70
   128
 43
0.0
 10
881.4061674908767
 20
1626.422056126533
 10
881.2350083277939
 20
1626.525493101759
 10
881.0681224495553
 20
1626.635691879409
 10
880.9057768379654
 20
1626.752476164947
 10
880.7482312113709
 20
1626.875659128429
 10
880.5957376091667
 20
1627.00504370339
 10
880.4485399885857
 20
1627.140422902111
 10
880.3068738344206
 20
1627.281580146753
 10
880.1709657822971
 20
1627.428289615839
 10
880.0410332561073
 20
1627.580316605511
 10
879.9172841201748
 20
1627.737417905019
 10
879.7999163467192
 20
1627.899342185796
 10
879.6891176991406
 20
1628.065830403535
 10
879.5850654316396
 20
1628.236616212603
 10
879.4886518916158
 20
1628.410056776045
  0
LINE
  5
13F
330
87
100
AcDbEntity
  8
P-SANR-FIXT
100
AcDbLine
 10
881.4061674908767
 20
1626.422056126533
 30
0.0
 11
883.4207731682539
 21
1625.258922996388
 31
0.0
  0
LINE
  5
140
330
87
100
AcDbEntity
  8
P-SANR-FIXT
100
AcDbLine
 10
977.3504861137851
 20
1650.42731372543
 30
0.0
 11
978.5136192439301
 21
1652.441919402807
 31
0.0
  0
LWPOLYLINE
  5
141
330
87
100
AcDbEntity
  8
P-SANR-FIXT
100
AcDbPolyline
 90
       21
 70
   128
 43
0.0
 10
977.3504861137855
 20
1650.42731372543
 10
977.1574667223712
 20
1650.076996465875
 10
976.9786106798465
 20
1649.719240705814
 10
976.8142041177249
 20
1649.354618778146
 10
976.6645100514345
 20
1648.983714000175
 10
976.5297679595486
 20
1648.607119740423
 10
976.4101934006701
 20
1648.225438469369
 10
976.3059776685858
 20
1647.839280795626
 10
976.2172874862358
 20
1647.449264489096
 10
976.1442647389918
 20
1647.056013492671
 10
976.087026247672
 20
1646.660156924055
 10
976.0456635816526
 20
1646.262328069315
 10
976.0202429123754
 20
1645.863163369751
 10
976.0108049074888
 20
1645.463301403732
 10
976.017364665787
 20
1645.063381865106
 10
976.0399116930562
 20
1644.664044539821
 10
976.0784099188624
 20
1644.265928282411
 10
976.132797754257
 20
1643.869669993961
 10
976.2029881903053
 20
1643.475903603201
 10
976.2888689372831
 20
1643.085259052358
 10
976.3514818887388
 20
1642.839123274405
  0
LWPOLYLINE
  5
142
330
87
100
AcDbEntity
  8
P-SANR-FIXT
100
AcDbPolyline
 90
       21
 70
   128
 43
0.0
 10
888.0800314311445
 20
1619.186859409569
 10
887.9688050419154
 20
1619.571056439937
 10
887.8423038384934
 20
1619.950498284409
 10
887.7007301958181
 20
1620.32457791698
 10
887.5443106015175
 20
1620.692696890036
 10
887.3732952935744
 20
1621.054266291746
 10
887.1879578600005
 20
1621.408707688201
 10
886.9885948011527
 20
1621.755454048775
 10
886.7755250553967
 20
1622.09395065326
 10
886.5490894888734
 20
1622.423655979298
 10
886.3096503501852
 20
1622.7440425687
 10
886.0575906908767
 20
1623.054597871268
 10
885.7933137526329
 20
1623.354825064768
 10
885.5172423221787
 20
1623.644243849735
 10
885.2298180549112
 20
1623.922391217852
 10
884.9315007683438
 20
1624.188822192664
 10
884.6227677064973
 20
1624.443110541448
 10
884.3041127764113
 20
1624.684849457091
 10
883.9760457579977
 20
1624.913652208896
 10
883.639091488502
 20
1625.129152761269
 10
883.4207731682537
 20
1625.258922996388
  0
LINE
  5
143
330
87
100
AcDbEntity
  8
P-SANR-FIXT
100
AcDbLine
 10
888.0800314311445
 20
1619.186859409569
 30
0.0
 11
892.2346322644996
 21
1607.121022476938
 31
0.0
  0
LINE
  5
144
330
87
100
AcDbEntity
  8
P-SANR-FIXT
100
AcDbLine
 10
978.7864104907848
 20
1630.312501556149
 30
0.0
 11
976.351481888739
 21
1642.839123274405
 31
0.0
  0
LINE
  5
145
330
87
100
AcDbEntity
  8
P-SANR-FIXT
100
AcDbLine
 10
898.4371596636872
 20
1597.394946700072
 30
0.0
 11
903.3265148157333
 21
1583.195228282678
 31
0.0
  0
LINE
  5
146
330
87
100
AcDbEntity
  8
P-SANR-FIXT
100
AcDbLine
 10
981.1434555227529
 20
1604.046214702584
 30
0.0
 11
978.2779020838525
 21
1618.788209154656
 31
0.0
  0
LINE
  5
147
330
87
100
AcDbEntity
  8
P-SANR-FIXT
100
AcDbLine
 10
833.9067514157552
 20
1714.382683627412
 30
0.0
 11
834.4375519119648
 21
1713.381533773704
 31
0.0
  0
LINE
  5
148
330
87
100
AcDbEntity
  8
P-SANR-FIXT
100
AcDbLine
 10
975.7098946922681
 20
1751.235343934538
 30
0.0
 11
975.6690064794728
 21
1752.36776538895
 31
0.0
  0
LWPOLYLINE
  5
149
330
87
100
AcDbEntity
  8
P-SANR-FIXT
100
AcDbPolyline
 90
       28
 70
   128
 43
0.0
 10
997.0677792404764
 20
1795.866365737503
 10
997.0994508964112
 20
1795.467648326277
 10
997.1151527745959
 20
1795.067983318018
 10
997.1148597553748
 20
1794.668010091484
 10
997.0985723075164
 20
1794.268368518514
 10
997.0663164874624
 20
1793.86969794037
 10
997.0181438976444
 20
1793.472636144935
 10
996.9541316039297
 20
1793.077818346377
 10
996.8743820123329
 20
1792.685876168953
 10
996.7790227051885
 20
1792.297436636534
 10
996.6682062370454
 20
1791.913121169511
 10
996.5421098906132
 20
1791.533544590649
 10
996.4009353931471
 20
1791.159314141501
 10
996.2449085937274
 20
1790.791028510954
 10
996.0742791019491
 20
1790.429276877454
 10
995.8893198886
 20
1790.074637966445
 10
995.6903268489661
 20
1789.727679124532
 10
995.4776183294603
 20
1789.388955411849
 10
995.2515346183394
 20
1789.059008714077
 10
995.0124374013119
 20
1788.73836687555
 10
994.7607091829208
 20
1788.427542854808
 10
994.4967526746159
 20
1788.12703390398
 10
994.2209901505036
 20
1787.837320773281
 10
993.9338627717949
 20
1787.558866941918
 10
993.6358298810466
 20
1787.292117876622
 10
993.3273682673059
 20
1787.037500318993
 10
993.0089714033538
 20
1786.795421602808
 10
992.8221986653609
 20
1786.662477028363
  0
LWPOLYLINE
  5
14A
330
87
100
AcDbEntity
  8
P-SANR-FIXT
100
AcDbPolyline
 90
       22
 70
   128
 43
0.0
 10
799.5079718390737
 20
1736.007568824652
 10
799.1321075537658
 20
1736.144333976772
 10
798.7620130671696
 20
1736.296020293871
 10
798.3982804515137
 20
1736.462385110202
 10
798.0414916013915
 20
1736.643162277546
 10
797.6922173028523
 20
1736.838062590999
 10
797.3510163202655
 20
1737.046774251638
 10
797.018434502418
 20
1737.268963365326
 10
796.6950039092712
 20
1737.504274476881
 10
796.3812419607794
 20
1737.752331138721
 10
796.0776506091278
 20
1738.012736513101
 10
795.7847155357161
 20
1738.285074006976
 10
795.5029053741724
 20
1738.568907938448
 10
795.2326709606392
 20
1738.863784233777
 10
794.9744446125309
 20
1739.169231153793
 10
794.7286394369191
 20
1739.484760048582
 10
794.4956486696493
 20
1739.809866139222
 10
794.275845046247
 20
1740.144029325321
 10
794.0695802056207
 20
1740.486715017064
 10
793.8771841275147
 20
1740.837374990449
 10
793.6989646046115
 20
1741.19544826432
 10
793.6255704206392
 20
1741.354190177824
  0
LWPOLYLINE
  5
14B
330
87
100
AcDbEntity
  8
P-SANR-FIXT
100
AcDbPolyline
 90
       26
 70
   128
 43
0.0
 10
992.8221986653609
 20
1786.662477028363
 10
991.526748156413
 20
1785.723612467451
 10
990.2698784383806
 20
1784.733694694723
 10
989.0536002346946
 20
1783.694307367443
 10
987.8798593310223
 20
1782.607113283612
 10
986.7505334624242
 20
1781.473851721841
 10
985.6674293093808
 20
1780.296335658881
 10
984.6322796074868
 20
1779.076448869241
 10
983.6467403754447
 20
1777.816142911555
 10
982.7123882657891
 20
1776.517434006507
 10
981.8307180425776
 20
1775.182399811299
 10
981.0031401900875
 20
1773.813176095854
 10
980.2309786563423
 20
1772.411953326029
 10
979.515468735077
 20
1770.980973159346
 10
978.8577550895318
 20
1769.52252485881
 10
978.2588899212345
 20
1768.038941630585
 10
977.7198312867035
 20
1766.532596891354
 10
977.2414415647611
 20
1765.005900471364
 10
976.8244860769112
 20
1763.461294759209
 10
976.4696318629889
 20
1761.90125079453
 10
976.1774466140378
 20
1760.328264314878
 10
975.9483977641268
 20
1758.74485176307
 10
975.7828517425549
 20
1757.153546261411
 10
975.6810733876418
 20
1755.556893559242
 10
975.6432255230441
 20
1753.957447960287
 10
975.6690064794726
 20
1752.36776538895
  0
LWPOLYLINE
  5
14C
330
87
100
AcDbEntity
  8
P-SANR-FIXT
100
AcDbPolyline
 90
        5
 70
   128
 43
0.0
 10
833.906751415755
 20
1714.382683627412
 10
833.1292024925826
 20
1715.780924077744
 10
832.2963608209731
 20
1717.146952421118
 10
831.4095587699373
 20
1718.478583303589
 10
831.2568989905363
 20
1718.696614880934
  0
LWPOLYLINE
  5
14D
330
87
100
AcDbEntity
  8
P-SANR-FIXT
100
AcDbPolyline
 90
       26
 70
   128
 43
0.0
 10
996.9125971360314
 20
1841.448277316597
 10
996.6114026789282
 20
1841.185103292775
 10
996.3209732992531
 20
1840.910095214301
 10
996.0417736220584
 20
1840.623693035436
 10
995.774250307268
 20
1840.32635493857
 10
995.5188313351172
 20
1840.018556601229
 10
995.2759253214749
 20
1839.700790435093
 10
995.0459208641458
 20
1839.373564798241
 10
994.8291859211964
 20
1839.037403181888
 10
994.6260672223013
 20
1838.692843372909
 10
994.436889714049
 20
1838.340436593497
 10
994.2619560400972
 20
1837.980746619322
 10
994.1015460570067
 20
1837.614348877612
 10
993.9559163865316
 20
1837.241829526596
 10
993.8253000050787
 20
1836.863784517767
 10
993.7099058709948
 20
1836.480818642494
 10
993.6099185902788
 20
1836.093544564483
 10
993.5254981212498
 20
1835.702581839644
 10
993.4567795186497
 20
1835.308555924937
 10
993.4038727175838
 20
1834.91209717777
 10
993.3668623576471
 20
1834.513839847565
 10
993.3458076475206
 20
1834.114421061094
 10
993.3407422702492
 20
1833.714479803211
 10
993.3516743293559
 20
1833.31465589461
 10
993.3785863358782
 20
1832.915588968257
 10
993.3897028736947
 20
1832.796788356426
  0
LWPOLYLINE
  5
14E
330
87
100
AcDbEntity
  8
P-SANR-FIXT
100
AcDbPolyline
 90
       26
 70
   128
 43
0.0
 10
778.3456666818696
 20
1775.175912521698
 10
778.1737364348761
 20
1775.537047756718
 10
777.9875021561421
 20
1775.891018745966
 10
777.787261780786
 20
1776.237259211368
 10
777.5733356506919
 20
1776.575215242039
 10
777.346066002034
 20
1776.904346180426
 10
777.1058164177676
 20
1777.224125487237
 10
776.8529712459774
 20
1777.534041583797
 10
776.5879349850007
 20
1777.833598670462
 10
776.3111316363172
 20
1778.122317519799
 10
776.0230040262363
 20
1778.399736243236
 10
775.7240130974706
 20
1778.665411029996
 10
775.4146371717243
 20
1778.918916857095
 10
775.0953711844823
 20
1779.159848169287
 10
774.7667258932174
 20
1779.38781952787
 10
774.4292270602886
 20
1779.6024662273
 10
774.0834146118327
 20
1779.803444878647
 10
773.7298417739978
 20
1779.990433958942
 10
773.3690741878995
 20
1780.163134325546
 10
773.001689004716
 20
1780.321269694714
 10
772.6282739623691
 20
1780.464587083586
 10
772.2494264452684
 20
1780.592857214916
 10
771.8657525286257
 20
1780.705874883855
 10
771.4778660088612
 20
1780.803459286242
 10
771.0863874216613
 20
1780.88545430785
 10
770.969006275754
 20
1780.906874610599
  0
LWPOLYLINE
  5
14F
330
87
100
AcDbEntity
  8
P-SANR-FIXT
100
AcDbPolyline
 90
       18
 70
   128
 43
0.0
 10
919.5521277055915
 20
1860.267049639223
 10
920.582230433988
 20
1859.651666523441
 10
921.6361179511435
 20
1859.077968770766
 10
922.7121042618476
 20
1858.546874175222
 10
923.8084680175349
 20
1858.059232374866
 10
924.9234552700748
 20
1857.615823492553
 10
926.0552822777142
 20
1857.217356887908
 10
927.2021383586849
 20
1856.864470022496
 10
928.3621887879066
 20
1856.557727440022
 10
929.5335777321566
 20
1856.297619863185
 10
930.7144312190073
 20
1856.08456340862
 10
931.9028601347822
 20
1855.918898921205
 10
933.0969632467333
 20
1855.80089142878
 10
934.2948302446101
 20
1855.730729718159
 10
935.4945447967473
 20
1855.708526033112
 10
936.6941876157872
 20
1855.734315894799
 10
937.8918395291291
 20
1855.808058044943
 10
938.422839219532
 20
1855.85618144631
  0
LWPOLYLINE
  5
150
330
87
100
AcDbEntity
  8
P-SANR-FIXT
100
AcDbPolyline
 90
       18
 70
   128
 43
0.0
 10
814.4186704277885
 20
1822.62936456047
 10
815.5020761328493
 20
1823.14515530145
 10
816.5639891005918
 20
1823.703858137652
 10
817.6027104967969
 20
1824.304579263721
 10
818.6165785888128
 20
1824.946357654002
 10
819.6039714039724
 20
1825.628166599977
 10
820.563309324404
 20
1826.348915352776
 10
821.4930576140831
 20
1827.107450868146
 10
822.3917288740816
 20
1827.902559651077
 10
823.2578854220902
 20
1828.732969697127
 10
824.0901415924019
 20
1829.597352527369
 10
824.8871659526828
 20
1830.494325313667
 10
825.6476834339794
 20
1831.422453090906
 10
826.3704773705564
 20
1832.380251052632
 10
827.0543914463035
 20
1833.366186926426
 10
827.6983315445932
 20
1834.378683425213
 10
828.3012674986347
 20
1835.416120770581
 10
828.5557518898917
 20
1835.884644225248
  0
LINE
  5
151
330
87
100
AcDbEntity
  8
P-SANR-FIXT
100
AcDbLine
 10
763.2530833288739
 20
1790.404079234025
 30
0.0
 11
764.1856370259127
 21
1786.92374145589
 31
0.0
  0
LINE
  5
152
330
87
100
AcDbEntity
  8
P-SANR-FIXT
100
AcDbLine
 10
999.7787338069986
 20
1850.050721480729
 30
0.0
 11
998.8461801099601
 21
1853.531059258864
 31
0.0
  0
LINE
  5
153
330
87
100
AcDbEntity
  8
P-SANR-FIXT
100
AcDbLine
 10
767.0834145047797
 20
1787.700198591197
 30
0.0
 11
767.8598716400873
 21
1784.80242111233
 31
0.0
  0
LINE
  5
154
330
87
100
AcDbEntity
  8
P-SANR-FIXT
100
AcDbLine
 10
997.657413463439
 20
1846.376486866554
 30
0.0
 11
996.8809563281315
 21
1849.274264345421
 31
0.0
  0
LWPOLYLINE
  5
155
330
87
100
AcDbEntity
  8
P-SANR-FIXT
100
AcDbPolyline
 90
       20
 70
   128
 43
0.0
 10
903.9923523249688
 20
1871.573785963137
 10
904.0479655195834
 20
1871.381687447953
 10
904.1112161212945
 20
1871.191966525717
 10
904.182002942632
 20
1871.004926709431
 10
904.2602127397824
 20
1870.820867222904
 10
904.3457203937538
 20
1870.640082522048
 10
904.4383891105409
 20
1870.462861823821
 10
904.5380706399647
 20
1870.289488643534
 10
904.6446055128429
 20
1870.120240341291
 10
904.7578232961045
 20
1869.955387678272
 10
904.8775428654485
 20
1869.795194383572
 10
905.0035726951026
 20
1869.639916732287
 10
905.1357111642246
 20
1869.489803135537
 10
905.2737468794516
 20
1869.345093743054
 10
905.4174590130854
 20
1869.206020058996
 10
905.566617656369
 20
1869.07280457159
 10
905.7209841872925
 20
1868.945660397197
 10
905.8803116523355
 20
1868.824790939376
 10
906.0443451615423
 20
1868.710389563473
 10
906.1723851352482
 20
1868.627640707867
  0
LWPOLYLINE
  5
156
330
87
100
AcDbEntity
  8
P-SANR-FIXT
100
AcDbPolyline
 90
       20
 70
   128
 43
0.0
 10
835.9626533175832
 20
1849.814999766518
 10
836.0529912741689
 20
1849.993419834199
 10
836.1361220703127
 20
1850.175309739591
 10
836.2119127144747
 20
1850.360378497648
 10
836.2802419577915
 20
1850.548330037835
 10
836.3410004880504
 20
1850.738863677783
 10
836.3940911045641
 20
1850.931674604313
 10
836.4394288736715
 20
1851.126454361073
 10
836.4769412646134
 20
1851.322891342003
 10
836.5065682655666
 20
1851.520671289838
 10
836.5282624796495
 20
1851.719477798852
 10
836.5419892007482
 20
1851.918992821041
 10
836.547726469036
 20
1852.11889717493
 10
836.5454651061083
 20
1852.318871056196
 10
836.5352087296631
 20
1852.51859454929
 10
836.5169737477151
 20
1852.717748139226
 10
836.4907893323451
 20
1852.916013222745
 10
836.4566973730321
 20
1853.113072618008
 10
836.4147524096386
 20
1853.308611072019
 10
836.3775444847339
 20
1853.456452805961
  0
LINE
  5
157
330
87
100
AcDbEntity
  8
P-SANR-FIXT
100
AcDbLine
 10
1035.666407443178
 20
2050.937499999989
 30
0.0
 11
1032.666407443181
 21
2050.937499999989
 31
0.0
  0
LINE
  5
158
330
87
100
AcDbEntity
  8
P-SANR-FIXT
100
AcDbLine
 10
1032.666407443181
 20
1890.93750000001
 30
0.0
 11
1035.666407443178
 21
1890.93750000001
 31
0.0
  0
LINE
  5
159
330
87
100
AcDbEntity
  8
P-SANR-FIXT
100
AcDbLine
 10
1032.666407443181
 20
2080.9375
 30
0.0
 11
1023.258083998943
 21
2080.9375
 31
0.0
  0
LINE
  5
15A
330
87
100
AcDbEntity
  8
P-SANR-FIXT
100
AcDbLine
 10
1015.666407443181
 20
1860.937499999999
 30
0.0
 11
1032.666407443181
 21
1860.937499999999
 31
0.0
  0
LINE
  5
15B
330
87
100
AcDbEntity
  8
P-SANR-FIXT
100
AcDbLine
 10
685.6664074431988
 20
1890.937500000039
 30
0.0
 11
685.6664074431989
 21
2050.937499999958
 31
0.0
  0
LINE
  5
15C
330
87
100
AcDbEntity
  8
P-SANR-FIXT
100
AcDbLine
 10
688.666407443195
 20
1860.937499999994
 30
0.0
 11
688.666407443195
 21
2080.937500000003
 31
0.0
  0
LINE
  5
15D
330
87
100
AcDbEntity
  8
P-SANR-FIXT
100
AcDbLine
 10
705.6664074431952
 20
1860.937499999994
 30
0.0
 11
705.6664074431952
 21
2080.132374907554
 31
0.0
  0
LINE
  5
15E
330
87
100
AcDbEntity
  8
P-SANR-FIXT
100
AcDbLine
 10
771.8955687480273
 20
2015.144320143416
 30
0.0
 11
766.5920021898125
 21
2034.937499999997
 31
0.0
  0
LINE
  5
15F
330
87
100
AcDbEntity
  8
P-SANR-FIXT
100
AcDbLine
 10
716.2720330223191
 20
2034.937499999998
 30
0.0
 11
716.2720330223191
 21
2012.115324044827
 31
0.0
  0
SPLINE
  5
160
330
87
100
AcDbEntity
  8
P-SANR-FIXT
100
AcDbSpline
210
0.0
220
0.0
230
1.0
 70
     8
 71
     3
 72
     8
 73
     4
 74
     0
 42
0.000000001
 43
0.0000000001
 40
0.8910192188148965
 40
0.8910192188148965
 40
0.8910192188148965
 40
0.8910192188148965
 40
1.0
 40
1.0
 40
1.0
 40
1.0
 10
772.0879635862809
 20
2014.195361917237
 30
0.0
 10
772.0431819726213
 20
2014.512951131142
 30
0.0
 10
771.9790167693047
 20
2014.829523918644
 30
0.0
 10
771.8955687480275
 20
2015.144320143416
 30
0.0
  0
LINE
  5
161
330
87
100
AcDbEntity
  8
P-SANR-FIXT
100
AcDbLine
 10
905.1716799028039
 20
2034.937499999998
 30
0.0
 11
950.3354826360798
 21
1989.773697266721
 31
0.0
  0
LWPOLYLINE
  5
162
330
87
100
AcDbEntity
  8
P-SANR-FIXT
100
AcDbPolyline
 90
        3
 70
   128
 43
0.0
 10
950.3354826360798
 20
1989.773697266721
 10
977.6971125438448
 20
1998.064789086749
 10
1005.060781864056
 20
2006.349147608209
  0
LINE
  5
163
330
87
100
AcDbEntity
  8
P-SANR-FIXT
100
AcDbLine
 10
1005.060781864056
 20
2006.349147608209
 30
0.0
 11
1005.060781864056
 21
2034.937499999998
 31
0.0
  0
LWPOLYLINE
  5
164
330
87
100
AcDbEntity
  8
P-SANR-FIXT
100
AcDbPolyline
 90
        3
 70
   128
 43
0.0
 10
1015.66640744318
 20
1910.442022784504
 10
989.3707749968308
 20
1908.686676085556
 10
963.0747313626935
 20
1906.937499999997
  0
LINE
  5
165
330
87
100
AcDbEntity
  8
P-SANR-FIXT
100
AcDbLine
 10
793.1565861669453
 20
1906.937499999997
 30
0.0
 11
760.0793242014788
 21
1940.014761965464
 31
0.0
  0
SPLINE
  5
166
330
87
100
AcDbEntity
  8
P-SANR-FIXT
100
AcDbSpline
210
0.0
220
0.0
230
1.0
 70
     8
 71
     3
 72
     9
 73
     5
 74
     0
 42
0.000000001
 43
0.0000000001
 40
0.4822900313158519
 40
0.4822900313158519
 40
0.4822900313158519
 40
0.4822900313158519
 40
0.5
 40
0.5002036994221828
 40
0.5002036994221828
 40
0.5002036994221828
 40
0.5002036994221828
 10
795.5055217703513
 20
1898.951567830725
 30
0.0
 10
795.5048567759116
 20
1898.942306314323
 30
0.0
 10
795.504599607191
 20
1898.937553677818
 30
0.0
 10
795.5045877836736
 20
1898.937500002392
 30
0.0
 10
795.5045876812118
 20
1898.937499999587
 30
0.0
  0
SPLINE
  5
167
330
87
100
AcDbEntity
  8
P-SANR-FIXT
100
AcDbSpline
210
0.0
220
0.0
230
1.0
 70
     8
 71
     3
 72
    31
 73
    27
 74
     0
 42
0.000000001
 43
0.0000000001
 40
0.5002045062192777
 40
0.5002045062192777
 40
0.5002045062192777
 40
0.5002045062192777
 40
0.5555555555555556
 40
0.5833333333333334
 40
0.6111111111111112
 40
0.6388888888888889
 40
0.6527777777777777
 40
0.6666666666666666
 40
0.6805555555555556
 40
0.6944444444444445
 40
0.7222222222222223
 40
0.75
 40
0.7638888888888889
 40
0.7708333333333333
 40
0.7777777777777778
 40
0.7847222222222224
 40
0.7916666666666668
 40
0.8055555555555555
 40
0.8333333333333332
 40
0.861111111111111
 40
0.875
 40
0.8888888888888889
 40
0.9027777777777776
 40
0.9166666666666666
 40
0.9444444444444444
 40
1.0
 40
1.0
 40
1.0
 40
1.0
 10
795.5045876799959
 20
1898.937499999583
 30
0.0
 10
795.5045599069966
 20
1898.93750054531
 30
0.0
 10
795.5080652239685
 20
1899.004873229737
 30
0.0
 10
795.5356342389693
 20
1899.227080719748
 30
0.0
 10
795.5687020035434
 20
1899.458935946287
 30
0.0
 10
795.5945751806803
 20
1899.704620128737
 30
0.0
 10
795.6100259965177
 20
1899.931470605328
 30
0.0
 10
795.6156871662755
 20
1900.116293039225
 30
0.0
 10
795.6217083292346
 20
1900.315888075813
 30
0.0
 10
795.6361449897651
 20
1900.601551215066
 30
0.0
 10
795.6535726572556
 20
1900.993289205075
 30
0.0
 10
795.6503170927551
 20
1901.425669084074
 30
0.0
 10
795.6257498257169
 20
1901.745926373672
 30
0.0
 10
795.6039635564654
 20
1901.933450251234
 30
0.0
 10
795.5828216117268
 20
1902.075976386478
 30
0.0
 10
795.5586454694119
 20
1902.221158307011
 30
0.0
 10
795.5249221061241
 20
1902.41916762373
 30
0.0
 10
795.4592822962341
 20
1902.775555306144
 30
0.0
 10
795.3426407155729
 20
1903.307433241878
 30
0.0
 10
795.1819568543944
 20
1903.851047909233
 30
0.0
 10
795.0194633120629
 20
1904.281102942543
 30
0.0
 10
794.8778260695781
 20
1904.597178012069
 30
0.0
 10
794.717769925906
 20
1904.907239150715
 30
0.0
 10
794.4842243245634
 20
1905.316430268769
 30
0.0
 10
794.0198219329123
 20
1906.015971363627
 30
0.0
 10
793.5271653834359
 20
1906.580851050216
 30
0.0
 10
793.1565861669453
 20
1906.937499999997
 30
0.0
  0
SPLINE
  5
168
330
87
100
AcDbEntity
  8
P-SANR-FIXT
100
AcDbSpline
210
0.0
220
0.0
230
1.0
 70
     8
 71
     3
 72
     9
 73
     5
 74
     0
 42
0.000000001
 43
0.0000000001
 40
0.0
 40
0.0
 40
0.0
 40
0.0
 40
0.5
 40
1.0
 40
1.0
 40
1.0
 40
1.0
 10
963.0747313626935
 20
1906.937499999997
 30
0.0
 10
958.7446422233631
 20
1906.651672619644
 30
0.0
 10
950.085142640659
 20
1906.070005538571
 30
0.0
 10
941.4270004498675
 20
1905.475572749615
 30
0.0
 10
937.09826870245
 20
1905.177328253902
 30
0.0
  0
SPLINE
  5
169
330
87
100
AcDbEntity
  8
P-SANR-FIXT
100
AcDbSpline
210
0.0
220
0.0
230
1.0
 70
     8
 71
     3
 72
    11
 73
     7
 74
     0
 42
0.000000001
 43
0.0000000001
 40
0.0
 40
0.0
 40
0.0
 40
0.0
 40
0.25
 40
0.5
 40
0.75
 40
1.0
 40
1.0
 40
1.0
 40
1.0
 10
937.09826870245
 20
1905.177328253902
 30
0.0
 10
934.5490442774881
 20
1905.196250508607
 30
0.0
 10
929.534463210053
 20
1904.92635765143
 30
0.0
 10
922.2641949563668
 20
1903.629473889834
 30
0.0
 10
915.2455300501474
 20
1901.626471337078
 30
0.0
 10
910.7341556776452
 20
1900.212702979826
 30
0.0
 10
908.5204023826387
 20
1899.689794973881
 30
0.0
  0
SPLINE
  5
16A
330
87
100
AcDbEntity
  8
P-SANR-FIXT
100
AcDbSpline
210
0.0
220
0.0
230
1.0
 70
     8
 71
     3
 72
     9
 73
     5
 74
     0
 42
0.000000001
 43
0.0000000001
 40
0.0
 40
0.0
 40
0.0
 40
0.0
 40
0.5
 40
1.0
 40
1.0
 40
1.0
 40
1.0
 10
908.5204023826387
 20
1899.689794973881
 30
0.0
 10
908.4970348030674
 20
1899.44289147451
 30
0.0
 10
908.4615717557898
 20
1899.065258062116
 30
0.0
 10
908.4486529322431
 20
1898.937499999997
 30
0.0
 10
908.4478295764021
 20
1898.937499999997
 30
0.0
  0
SPLINE
  5
16B
330
87
100
AcDbEntity
  8
P-SANR-FIXT
100
AcDbSpline
210
0.0
220
0.0
230
1.0
 70
     8
 71
     3
 72
     9
 73
     5
 74
     0
 42
0.000000001
 43
0.0000000001
 40
0.4822900313159039
 40
0.4822900313159039
 40
0.4822900313159039
 40
0.4822900313159039
 40
0.5
 40
0.5002036994221916
 40
0.5002036994221916
 40
0.5002036994221916
 40
0.5002036994221916
 10
902.8227442993976
 20
2042.923432169269
 30
0.0
 10
902.8234092938374
 20
2042.932693685671
 30
0.0
 10
902.8236664625579
 20
2042.937446322178
 30
0.0
 10
902.8236782860755
 20
2042.937499997603
 30
0.0
 10
902.8236783885374
 20
2042.937500000407
 30
0.0
  0
SPLINE
  5
16C
330
87
100
AcDbEntity
  8
P-SANR-FIXT
100
AcDbSpline
210
0.0
220
0.0
230
1.0
 70
     8
 71
     3
 72
    31
 73
    27
 74
     0
 42
0.000000001
 43
0.0000000001
 40
0.5002045062192835
 40
0.5002045062192835
 40
0.5002045062192835
 40
0.5002045062192835
 40
0.5555555555555556
 40
0.5833333333333334
 40
0.6111111111111112
 40
0.6388888888888889
 40
0.6527777777777777
 40
0.6666666666666666
 40
0.6805555555555556
 40
0.6944444444444445
 40
0.7222222222222223
 40
0.75
 40
0.7638888888888889
 40
0.7708333333333333
 40
0.7777777777777778
 40
0.7847222222222224
 40
0.7916666666666668
 40
0.8055555555555555
 40
0.8333333333333332
 40
0.861111111111111
 40
0.875
 40
0.8888888888888889
 40
0.9027777777777776
 40
0.9166666666666666
 40
0.9444444444444444
 40
1.0
 40
1.0
 40
1.0
 40
1.0
 10
902.8236783897533
 20
2042.937500000411
 30
0.0
 10
902.8237061627523
 20
2042.937499454684
 30
0.0
 10
902.8202008457807
 20
2042.870126770258
 30
0.0
 10
902.7926318307795
 20
2042.647919280247
 30
0.0
 10
902.7595640662056
 20
2042.416064053707
 30
0.0
 10
902.7336908890688
 20
2042.170379871257
 30
0.0
 10
902.7182400732314
 20
2041.943529394667
 30
0.0
 10
902.7125789034734
 20
2041.75870696077
 30
0.0
 10
902.7065577405146
 20
2041.559111924182
 30
0.0
 10
902.6921210799839
 20
2041.273448784929
 30
0.0
 10
902.6746934124934
 20
2040.88171079492
 30
0.0
 10
902.6779489769939
 20
2040.449330915921
 30
0.0
 10
902.7025162440322
 20
2040.129073626323
 30
0.0
 10
902.7243025132834
 20
2039.941549748761
 30
0.0
 10
902.7454444580222
 20
2039.799023613517
 30
0.0
 10
902.7696206003369
 20
2039.653841692984
 30
0.0
 10
902.8033439636251
 20
2039.455832376264
 30
0.0
 10
902.868983773515
 20
2039.09944469385
 30
0.0
 10
902.985625354176
 20
2038.567566758116
 30
0.0
 10
903.1463092153547
 20
2038.023952090762
 30
0.0
 10
903.3088027576862
 20
2037.593897057452
 30
0.0
 10
903.4504400001711
 20
2037.277821987926
 30
0.0
 10
903.6104961438432
 20
2036.96776084928
 30
0.0
 10
903.8440417451857
 20
2036.558569731226
 30
0.0
 10
904.3084441368369
 20
2035.859028636368
 30
0.0
 10
904.8011006863131
 20
2035.294148949779
 30
0.0
 10
905.1716799028039
 20
2034.937499999998
 30
0.0
  0
SPLINE
  5
16D
330
87
100
AcDbEntity
  8
P-SANR-FIXT
100
AcDbSpline
210
0.0
220
0.0
230
1.0
 70
     8
 71
     3
 72
    29
 73
    25
 74
     0
 42
0.000000001
 43
0.0000000001
 40
0.0
 40
0.0
 40
0.0
 40
0.0
 40
0.0555555555555556
 40
0.0833333333333333
 40
0.0972222222222222
 40
0.1111111111111111
 40
0.125
 40
0.1388888888888889
 40
0.1666666666666666
 40
0.1944444444444444
 40
0.2083333333333333
 40
0.2222222222222222
 40
0.2361111111111111
 40
0.25
 40
0.2777777777777778
 40
0.3055555555555556
 40
0.3194444444444444
 40
0.3333333333333333
 40
0.3472222222222222
 40
0.3611111111111111
 40
0.3888888888888888
 40
0.4166666666666666
 40
0.4444444444444445
 40
0.4999476174825288
 40
0.4999476174825288
 40
0.4999476174825288
 40
0.4999476174825288
 10
1005.060781864056
 20
2034.937499999998
 30
0.0
 10
1005.03969435407
 20
2035.418892226581
 30
0.0
 10
1004.978962991861
 20
2036.134988284629
 30
0.0
 10
1004.85750925217
 20
2036.940569962529
 30
0.0
 10
1004.773278763988
 20
2037.389819996242
 30
0.0
 10
1004.703712165113
 20
2037.720797670325
 30
0.0
 10
1004.623577294494
 20
2038.04451970786
 30
0.0
 10
1004.50039415141
 20
2038.465421242801
 30
0.0
 10
1004.324460437024
 20
2038.971709704749
 30
0.0
 10
1004.135471852932
 20
2039.451013399153
 30
0.0
 10
1003.985746151841
 20
2039.817715030722
 30
0.0
 10
1003.878520668785
 20
2040.084534102978
 30
0.0
 10
1003.77121721479
 20
2040.341633619105
 30
0.0
 10
1003.620615221881
 20
2040.669812409676
 30
0.0
 10
1003.427998177791
 20
2041.05356881166
 30
0.0
 10
1003.242298826774
 20
2041.401692619173
 30
0.0
 10
1003.105751356316
 20
2041.6582394991
 30
0.0
 10
1003.012810705549
 20
2041.839493306894
 30
0.0
 10
1002.925523027536
 20
2042.008949830612
 30
0.0
 10
1002.810720578211
 20
2042.217921589891
 30
0.0
 10
1002.677615441574
 20
2042.446085969679
 30
0.0
 10
1002.543930785813
 20
2042.663091589424
 30
0.0
 10
1002.420928519292
 20
2042.872412251421
 30
0.0
 10
1002.388475531454
 20
2042.937462864524
 30
0.0
 10
1002.388982899083
 20
2042.93749989598
 30
0.0
  0
SPLINE
  5
16E
330
87
100
AcDbEntity
  8
P-SANR-FIXT
100
AcDbSpline
210
0.0
220
0.0
230
1.0
 70
     8
 71
     3
 72
     9
 73
     5
 74
     0
 42
0.000000001
 43
0.0000000001
 40
0.4999482572299394
 40
0.4999482572299394
 40
0.4999482572299394
 40
0.4999482572299394
 40
0.5
 40
0.518310927062935
 40
0.518310927062935
 40
0.518310927062935
 40
0.518310927062935
 10
1002.388982916637
 20
2042.937499897243
 30
0.0
 10
1002.388983390105
 20
2042.937499930835
 30
0.0
 10
1002.389158243683
 20
2042.937498492077
 30
0.0
 10
1002.391755533454
 20
2042.932755596824
 30
0.0
 10
1002.396749521468
 20
2042.923389884697
 30
0.0
  0
SPLINE
  5
16F
330
87
100
AcDbEntity
  8
P-SANR-FIXT
100
AcDbSpline
210
0.0
220
0.0
230
1.0
 70
     8
 71
     3
 72
    14
 73
    10
 74
     0
 42
0.000000001
 43
0.0000000001
 40
0.0
 40
0.0
 40
0.0
 40
0.0
 40
0.1428571428571428
 40
0.2857142857142857
 40
0.4285714285714286
 40
0.5714285714285714
 40
0.7142857142857144
 40
0.8571428571428571
 40
1.0
 40
1.0
 40
1.0
 40
1.0
 10
766.5920021898127
 20
2034.937499999998
 30
0.0
 10
766.4515856236094
 20
2035.453052802763
 30
0.0
 10
766.1641854556001
 20
2036.48170949391
 30
0.0
 10
765.7037495103584
 20
2037.957353584089
 30
0.0
 10
765.2428816311489
 20
2039.322852790156
 30
0.0
 10
764.8047807988592
 20
2040.532875314006
 30
0.0
 10
764.4179914311227
 20
2041.5449051932
 30
0.0
 10
764.1085362581764
 20
2042.316658851601
 30
0.0
 10
763.9773526544963
 20
2042.644450648129
 30
0.0
 10
763.9285771709697
 20
2042.756904536759
 30
0.0
  0
LWPOLYLINE
  5
170
330
87
100
AcDbEntity
  8
P-SANR-FIXT
100
AcDbPolyline
 90
        3
 70
   128
 43
0.0
 10
761.3415010811012
 20
2042.063699587721
 10
761.0067658626291
 20
2042.715983036611
 10
760.7780765886738
 20
2042.937499999997
  0
SPLINE
  5
171
330
87
100
AcDbEntity
  8
P-SANR-FIXT
100
AcDbSpline
210
0.0
220
0.0
230
1.0
 70
     8
 71
     3
 72
     9
 73
     5
 74
     0
 42
0.000000001
 43
0.0000000001
 40
0.4816890729370649
 40
0.4816890729370649
 40
0.4816890729370649
 40
0.4816890729370649
 40
0.5
 40
0.5000517427700576
 40
0.5000517427700576
 40
0.5000517427700576
 40
0.5000517427700576
 10
718.936882150272
 20
2042.923328090171
 30
0.0
 10
718.9417114232276
 20
2042.93270648381
 30
0.0
 10
718.9439818007578
 20
2042.937474281281
 30
0.0
 10
718.9438296534087
 20
2042.937500068056
 30
0.0
 10
718.943829205449
 20
2042.937500103068
 30
0.0
  0
SPLINE
  5
172
330
87
100
AcDbEntity
  8
P-SANR-FIXT
100
AcDbSpline
210
0.0
220
0.0
230
1.0
 70
     8
 71
     3
 72
    29
 73
    25
 74
     0
 42
0.000000001
 43
0.0000000001
 40
0.5000523825174712
 40
0.5000523825174712
 40
0.5000523825174712
 40
0.5000523825174712
 40
0.5277777777777778
 40
0.5555555555555556
 40
0.5833333333333334
 40
0.6111111111111112
 40
0.6388888888888889
 40
0.6666666666666666
 40
0.6805555555555556
 40
0.6944444444444445
 40
0.7222222222222223
 40
0.75
 40
0.7638888888888889
 40
0.7777777777777778
 40
0.7916666666666668
 40
0.8055555555555555
 40
0.8333333333333332
 40
0.861111111111111
 40
0.875
 40
0.8888888888888889
 40
0.9027777777777776
 40
0.9166666666666666
 40
0.9444444444444444
 40
1.0
 40
1.0
 40
1.0
 40
1.0
 10
718.9438291888246
 20
2042.93750010435
 30
0.0
 10
718.943588903217
 20
2042.937518366095
 30
0.0
 10
718.932052063921
 20
2042.915914495946
 30
0.0
 10
718.8815898572043
 20
2042.820126446959
 30
0.0
 10
718.7887263490146
 20
2042.663102354583
 30
0.0
 10
718.6554199061405
 20
2042.446072594931
 30
0.0
 10
718.4947491870257
 20
2042.172331447768
 30
0.0
 10
718.3506134901259
 20
2041.899933063545
 30
0.0
 10
718.2271319364698
 20
2041.658235474709
 30
0.0
 10
718.0904765287585
 20
2041.401694944796
 30
0.0
 10
717.9048304541135
 20
2041.053568003002
 30
0.0
 10
717.7121979587496
 20
2040.669812510026
 30
0.0
 10
717.5615979928197
 20
2040.341633600207
 30
0.0
 10
717.4542941316529
 20
2040.084534108034
 30
0.0
 10
717.3470687570507
 20
2039.817715029397
 30
0.0
 10
717.197343020431
 20
2039.451013399918
 30
0.0
 10
717.0083544538756
 20
2038.971709704483
 30
0.0
 10
716.8324207344038
 20
2038.465421242834
 30
0.0
 10
716.7092375919867
 20
2038.044519707853
 30
0.0
 10
716.6291027212341
 20
2037.720797670327
 30
0.0
 10
716.5595361223944
 20
2037.389819996242
 30
0.0
 10
716.4753056342017
 20
2036.940569962529
 30
0.0
 10
716.3538518945171
 20
2036.134988284629
 30
0.0
 10
716.2931205323056
 20
2035.418892226581
 30
0.0
 10
716.2720330223191
 20
2034.937499999998
 30
0.0
  0
LINE
  5
173
330
87
100
AcDbEntity
  8
P-SANR-FIXT
100
AcDbLine
 10
822.2649632924598
 20
2134.722453468686
 30
0.0
 11
775.5594137151155
 21
2122.207739177385
 31
0.0
  0
LINE
  5
174
330
87
100
AcDbEntity
  8
P-SANR-FIXT
100
AcDbLine
 10
766.5564942506717
 20
2109.442652373264
 30
0.0
 11
836.4442636589538
 21
2128.169023747025
 31
0.0
  0
LINE
  5
175
330
87
100
AcDbEntity
  8
P-SANR-FIXT
100
AcDbLine
 10
765.8840626465456
 20
2106.156646326743
 30
0.0
 11
838.6696095336949
 21
2125.659474835812
 31
0.0
  0
LINE
  5
176
330
87
100
AcDbEntity
  8
P-SANR-FIXT
100
AcDbLine
 10
759.6518883795965
 20
2097.25617906973
 30
0.0
 11
848.5170643981909
 21
2121.067531219162
 31
0.0
  0
LINE
  5
177
330
87
100
AcDbEntity
  8
P-SANR-FIXT
100
AcDbLine
 10
754.5637928486154
 20
2066.129522650544
 30
0.0
 11
757.85975515555
 21
2067.01267308897
 31
0.0
  0
LINE
  5
178
330
87
100
AcDbEntity
  8
P-SANR-FIXT
100
AcDbLine
 10
757.8597551555499
 20
2067.012673088971
 30
0.0
 11
776.4922968592435
 21
2072.005247591414
 31
0.0
  0
LINE
  5
179
330
87
100
AcDbEntity
  8
P-SANR-FIXT
100
AcDbLine
 10
776.4922968592437
 20
2072.005247591414
 30
0.0
 11
811.5253027215556
 21
2081.392313220655
 31
0.0
  0
LINE
  5
17A
330
87
100
AcDbEntity
  8
P-SANR-FIXT
100
AcDbLine
 10
811.5253027215556
 20
2081.392313220655
 30
0.0
 11
847.8236200647941
 21
2091.118418039384
 31
0.0
  0
LINE
  5
17B
330
87
100
AcDbEntity
  8
P-SANR-FIXT
100
AcDbLine
 10
847.8236200647938
 20
2091.118418039386
 30
0.0
 11
865.3480272215492
 21
2095.814068784872
 31
0.0
  0
LINE
  5
17C
330
87
100
AcDbEntity
  8
P-SANR-FIXT
100
AcDbLine
 10
865.3480272215494
 20
2095.814068784871
 30
0.0
 11
868.2502066854389
 21
2096.591705428512
 31
0.0
  0
LINE
  5
17D
330
87
100
AcDbEntity
  8
P-SANR-FIXT
100
AcDbLine
 10
878.6550375636348
 20
2043.750433596933
 30
0.0
 11
875.280858964007
 21
2056.343039564556
 31
0.0
  0
SPLINE
  5
17E
330
87
100
AcDbEntity
  8
P-SANR-FIXT
100
AcDbSpline
210
0.0
220
0.0
230
1.0
 70
     8
 71
     3
 72
    17
 73
    13
 74
     0
 42
0.000000001
 43
0.0000000001
 40
0.0
 40
0.0
 40
0.0
 40
0.0
 40
0.1666666666666666
 40
0.3333333333333333
 40
0.5
 40
0.5833333333333333
 40
0.625
 40
0.6666666666666666
 40
0.7083333333333333
 40
0.75
 40
0.8333333333333332
 40
0.9996986138727374
 40
0.9996986138727374
 40
0.9996986138727374
 40
0.9996986138727374
 10
875.280858964007
 20
2056.343039564556
 30
0.0
 10
875.0400540729581
 20
2057.240198315372
 30
0.0
 10
874.5726854508049
 20
2059.031935368047
 30
0.0
 10
873.9086736216805
 20
2061.720821079515
 30
0.0
 10
873.3947614232913
 20
2063.938560338839
 30
0.0
 10
873.058805125124
 20
2065.465578523399
 30
0.0
 10
872.8734267670551
 20
2066.329348469784
 30
0.0
 10
872.7398731991327
 20
2066.967072298449
 30
0.0
 10
872.6099442205009
 20
2067.598690716685
 30
0.0
 10
872.440130448845
 20
2068.435081854776
 30
0.0
 10
872.1625219504778
 20
2069.851927352082
 30
0.0
 10
871.961091959969
 20
2070.963349161373
 30
0.0
 10
871.8337792530203
 20
2071.666012466861
 30
0.0
  0
LINE
  5
17F
330
87
100
AcDbEntity
  8
P-SANR-FIXT
100
AcDbLine
 10
904.4578348164463
 20
1981.760708249506
 30
0.0
 11
890.9243294092791
 21
2032.268438033563
 31
0.0
  0
SPLINE
  5
180
330
87
100
AcDbEntity
  8
P-SANR-FIXT
100
AcDbSpline
210
0.0
220
0.0
230
1.0
 70
     8
 71
     3
 72
    15
 73
    11
 74
     0
 42
0.000000001
 43
0.0000000001
 40
-1.0
 40
-1.0
 40
-1.0
 40
-1.0
 40
-0.8
 40
-0.7
 40
-0.6
 40
-0.5
 40
-0.4
 40
-0.3
 40
-0.2
 40
-0.1000000000000001
 40
-0.1000000000000001
 40
-0.1000000000000001
 40
-0.1000000000000001
 10
806.2716856931404
 20
1818.948737617791
 30
0.0
 10
806.2724103864821
 20
1818.946033025415
 30
0.0
 10
805.4950555372188
 20
1818.567483476686
 30
0.0
 10
803.1127198429231
 20
1817.42097987067
 30
0.0
 10
800.7696437539189
 20
1816.312117419477
 30
0.0
 10
798.0040096775812
 20
1815.025672760205
 30
0.0
 10
794.9724725339257
 20
1813.640389429099
 30
0.0
 10
791.8444674914175
 20
1812.235269440179
 30
0.0
 10
788.79499122242
 20
1810.885121797576
 30
0.0
 10
786.9328371246829
 20
1810.074087735056
 30
0.0
 10
786.0708602332766
 20
1809.699941582329
 30
0.0
  0
SPLINE
  5
181
330
87
100
AcDbEntity
  8
P-SANR-FIXT
100
AcDbSpline
210
0.0
220
0.0
230
1.0
 70
     8
 71
     3
 72
     8
 73
     4
 74
     0
 42
0.000000001
 43
0.0000000001
 40
-0.0114248572795552
 40
-0.0114248572795552
 40
-0.0114248572795552
 40
-0.0114248572795552
 40
0.0
 40
0.0
 40
0.0
 40
0.0
 10
783.9613479964442
 20
1808.785903820336
 30
0.0
 10
783.8792193503194
 20
1808.750323462684
 30
0.0
 10
783.7982977882765
 20
1808.715257845651
 30
0.0
 10
783.7186226685075
 20
1808.680720546813
 30
0.0
  0
SPLINE
  5
182
330
87
100
AcDbEntity
  8
P-SANR-FIXT
100
AcDbSpline
210
0.0
220
0.0
230
1.0
 70
     8
 71
     3
 72
    19
 73
    15
 74
     0
 42
0.000000001
 43
0.0000000001
 40
0.0
 40
0.0
 40
0.0
 40
0.0
 40
0.1111111111111111
 40
0.2222222222222222
 40
0.3333333333333333
 40
0.3888888888888888
 40
0.4444444444444445
 40
0.5555555555555556
 40
0.6111111111111112
 40
0.6666666666666666
 40
0.7222222222222223
 40
0.7777777777777778
 40
0.8888888888888889
 40
1.0
 40
1.0
 40
1.0
 40
1.0
 10
900.7627408959667
 20
1883.626859904871
 30
0.0
 10
900.7727473586024
 20
1883.58951527791
 30
0.0
 10
899.6116165139378
 20
1883.253402072728
 30
0.0
 10
894.5226482761393
 20
1881.864312858544
 30
0.0
 10
887.8173903377303
 20
1880.439394407046
 30
0.0
 10
881.4492840429648
 20
1879.10869328688
 30
0.0
 10
874.5812606520891
 20
1877.642603275621
 30
0.0
 10
867.2272312716563
 20
1875.934306600884
 30
0.0
 10
859.9859962015608
 20
1874.060288008653
 30
0.0
 10
854.7339330531407
 20
1872.671933241993
 30
0.0
 10
849.8048764616537
 20
1871.348540220579
 30
0.0
 10
843.7995061508598
 20
1869.766946199125
 30
0.0
 10
837.5723762172333
 20
1868.436197117994
 30
0.0
 10
834.5789129867087
 20
1867.961313661202
 30
0.0
 10
833.6357154272372
 20
1867.90865278623
 30
0.0
  0
SPLINE
  5
183
330
87
100
AcDbEntity
  8
P-SANR-FIXT
100
AcDbSpline
210
0.0
220
0.0
230
1.0
 70
     8
 71
     3
 72
    22
 73
    18
 74
     0
 42
0.000000001
 43
0.0000000001
 40
0.0
 40
0.0
 40
0.0
 40
0.0
 40
0.2
 40
0.3
 40
0.35
 40
0.4
 40
0.475
 40
0.55
 40
0.5875
 40
0.60625
 40
0.625
 40
0.7
 40
0.775
 40
0.8125
 40
0.85
 40
0.925
 40
1.0
 40
1.0
 40
1.0
 40
1.0
 10
833.6357154272372
 20
1867.90865278623
 30
0.0
 10
833.7833275380921
 20
1867.102586835798
 30
0.0
 10
833.9732444674408
 20
1865.939111508728
 30
0.0
 10
834.1631625253397
 20
1864.63557396407
 30
0.0
 10
834.2615546647959
 20
1863.915588603473
 30
0.0
 10
834.3375426551604
 20
1863.314972959424
 30
0.0
 10
834.4165343221398
 20
1862.65281316351
 30
0.0
 10
834.482473144115
 20
1862.06817406007
 30
0.0
 10
834.5208864673416
 20
1861.695595220932
 30
0.0
 10
834.5401038737291
 20
1861.496117828355
 30
0.0
 10
834.5681188724848
 20
1861.202699455915
 30
0.0
 10
834.607114266581
 20
1860.787686132015
 30
0.0
 10
834.6413077833098
 20
1860.405922109468
 30
0.0
 10
834.6592560125911
 20
1860.172517503123
 30
0.0
 10
834.6732096358454
 20
1859.979188744327
 30
0.0
 10
834.6849281550841
 20
1859.810014423328
 30
0.0
 10
834.690327539622
 20
1859.753232168503
 30
0.0
 10
834.6926436717589
 20
1859.744588245691
 30
0.0
  0
LINE
  5
184
330
87
100
AcDbEntity
  8
P-SANR-FIXT
100
AcDbLine
 10
923.2604912514267
 20
1981.075698657919
 30
0.0
 11
937.0982687024413
 21
1905.177328253901
 31
0.0
  0
LINE
  5
185
330
87
100
AcDbEntity
  8
P-SANR-FIXT
100
AcDbLine
 10
895.6479110588366
 20
1970.293699247891
 30
0.0
 11
908.5204023826396
 21
1899.689794973881
 31
0.0
  0
SPLINE
  5
186
330
87
100
AcDbEntity
  8
P-SANR-FIXT
100
AcDbSpline
210
0.0
220
0.0
230
1.0
 70
     8
 71
     3
 72
    10
 73
     6
 74
     0
 42
0.000000001
 43
0.0000000001
 40
-1.0
 40
-1.0
 40
-1.0
 40
-1.0
 40
-0.6666666666666666
 40
-0.3333333333333333
 40
0.0
 40
0.0
 40
0.0
 40
0.0
 10
950.3354826360798
 20
1989.773697266721
 30
0.0
 10
949.7540077540797
 20
1989.510756211466
 30
0.0
 10
948.4958894456797
 20
1988.962005807508
 30
0.0
 10
946.3897025980037
 20
1988.163667070224
 30
0.0
 10
944.9178032856826
 20
1987.672406332256
 30
0.0
 10
944.1736543264058
 20
1987.450244202156
 30
0.0
  0
SPLINE
  5
187
330
87
100
AcDbEntity
  8
P-SANR-FIXT
100
AcDbSpline
210
0.0
220
0.0
230
1.0
 70
     8
 71
     3
 72
     9
 73
     5
 74
     0
 42
0.000000001
 43
0.0000000001
 40
-1.0
 40
-1.0
 40
-1.0
 40
-1.0
 40
-0.5
 40
0.0
 40
0.0
 40
0.0
 40
0.0
 10
923.2604912514267
 20
1981.075698657919
 30
0.0
 10
920.124438924379
 20
1980.022296948382
 30
0.0
 10
913.7839429305369
 20
1978.200828340236
 30
0.0
 10
907.3066642572015
 20
1976.950029353943
 30
0.0
 10
904.0338292506604
 20
1976.46729726626
 30
0.0
  0
LWPOLYLINE
  5
188
330
87
100
AcDbEntity
  8
P-SANR-FIXT
100
AcDbPolyline
 90
        3
 70
   128
 43
0.0
 10
944.1736543264058
 20
1987.450244202156
 10
933.7167239546582
 20
1984.264115861065
 10
923.2604912514267
 20
1981.075698657919
  0
SPLINE
  5
189
330
87
100
AcDbEntity
  8
P-SANR-FIXT
100
AcDbSpline
210
0.0
220
0.0
230
1.0
 70
     8
 71
     3
 72
    10
 73
     6
 74
     0
 42
0.000000001
 43
0.0000000001
 40
0.0
 40
0.0
 40
0.0
 40
0.0
 40
0.4
 40
0.7
 40
1.0
 40
1.0
 40
1.0
 40
1.0
 10
884.794093101417
 20
2038.010617368016
 30
0.0
 10
885.9652337424137
 20
2037.768141281558
 30
0.0
 10
887.8700815163986
 20
2036.917727607966
 30
0.0
 10
889.950746657138
 20
2034.747761129721
 30
0.0
 10
890.6888987559618
 20
2033.136769888214
 30
0.0
 10
890.9243294092789
 20
2032.268438033563
 30
0.0
  0
SPLINE
  5
18A
330
87
100
AcDbEntity
  8
P-SANR-FIXT
100
AcDbSpline
210
0.0
220
0.0
230
1.0
 70
     8
 71
     3
 72
    11
 73
     7
 74
     0
 42
0.000000001
 43
0.0000000001
 40
0.0
 40
0.0
 40
0.0
 40
0.0
 40
0.3333333333333333
 40
0.5
 40
0.6666666666666666
 40
0.7887775481087703
 40
0.7887775481087703
 40
0.7887775481087703
 40
0.7887775481087703
 10
788.3310737209367
 20
1942.739167277633
 30
0.0
 10
787.1822671207868
 20
1942.783569676358
 30
0.0
 10
785.5173253590209
 20
1943.201424032563
 30
0.0
 10
783.5841037234782
 20
1944.412331371866
 30
0.0
 10
782.468447008424
 20
1945.501210886125
 30
0.0
 10
781.9057859238172
 20
1946.301616538873
 30
0.0
 10
781.6953876461394
 20
1946.657176365837
 30
0.0
  0
SPLINE
  5
18B
330
87
100
AcDbEntity
  8
P-SANR-FIXT
100
AcDbSpline
210
0.0
220
0.0
230
1.0
 70
     8
 71
     3
 72
     9
 73
     5
 74
     0
 42
0.000000001
 43
0.0000000001
 40
-1.0
 40
-1.0
 40
-1.0
 40
-1.0
 40
-0.5
 40
0.0
 40
0.0
 40
0.0
 40
0.0
 10
889.1625769694449
 20
1969.756887144686
 30
0.0
 10
886.7485608651445
 20
1969.194221276342
 30
0.0
 10
880.957592309207
 20
1967.747251392556
 30
0.0
 10
873.7568594833854
 20
1965.713105382793
 30
0.0
 10
869.9511607113766
 20
1964.609203672879
 30
0.0
  0
SPLINE
  5
18C
330
87
100
AcDbEntity
  8
P-SANR-FIXT
100
AcDbSpline
210
0.0
220
0.0
230
1.0
 70
     8
 71
     3
 72
     9
 73
     5
 74
     0
 42
0.000000001
 43
0.0000000001
 40
-1.0
 40
-1.0
 40
-1.0
 40
-1.0
 40
-0.5
 40
0.0
 40
0.0
 40
0.0
 40
0.0
 10
904.0338292506604
 20
1976.46729726626
 30
0.0
 10
903.5595582953373
 20
1975.936718561794
 30
0.0
 10
902.2914190495766
 20
1974.605300799764
 30
0.0
 10
900.153621642759
 20
1973.035355644748
 30
0.0
 10
898.8353446062701
 20
1972.348697421548
 30
0.0
  0
SPLINE
  5
18D
330
87
100
AcDbEntity
  8
P-SANR-FIXT
100
AcDbSpline
210
0.0
220
0.0
230
1.0
 70
     8
 71
     3
 72
     9
 73
     5
 74
     0
 42
0.000000001
 43
0.0000000001
 40
0.0
 40
0.0
 40
0.0
 40
0.0
 40
0.5
 40
1.0
 40
1.0
 40
1.0
 40
1.0
 10
904.457834816446
 20
1981.760708249506
 30
0.0
 10
904.692815532533
 20
1980.877835868157
 30
0.0
 10
904.8545146564311
 20
1979.063710203169
 30
0.0
 10
904.4044572422219
 20
1977.299089353274
 30
0.0
 10
904.0338292506604
 20
1976.46729726626
 30
0.0
  0
SPLINE
  5
18E
330
87
100
AcDbEntity
  8
P-SANR-FIXT
100
AcDbSpline
210
0.0
220
0.0
230
1.0
 70
     8
 71
     3
 72
     9
 73
     5
 74
     0
 42
0.000000001
 43
0.0000000001
 40
0.1437336120039486
 40
0.1437336120039486
 40
0.1437336120039486
 40
0.1437336120039486
 40
0.5
 40
1.0
 40
1.0
 40
1.0
 40
1.0
 10
806.1078920140285
 20
1916.968424346117
 30
0.0
 10
804.4819914802731
 20
1919.814240876712
 30
0.0
 10
800.7145028864549
 20
1926.728754388673
 30
0.0
 10
797.2841517394449
 20
1933.82293074972
 30
0.0
 10
795.3960206752636
 20
1938.026696696079
 30
0.0
  0
SPLINE
  5
18F
330
87
100
AcDbEntity
  8
P-SANR-FIXT
100
AcDbSpline
210
0.0
220
0.0
230
1.0
 70
     8
 71
     3
 72
    13
 73
     9
 74
     0
 42
0.000000001
 43
0.0000000001
 40
-1.0
 40
-1.0
 40
-1.0
 40
-1.0
 40
-0.875
 40
-0.8125
 40
-0.75
 40
-0.6875
 40
-0.625
 40
-0.5833333333333334
 40
-0.5833333333333334
 40
-0.5833333333333334
 40
-0.5833333333333334
 10
804.0587634821179
 20
1940.347871635414
 30
0.0
 10
803.8083453430061
 20
1939.297809050819
 30
0.0
 10
803.5470983348178
 20
1937.692675945592
 30
0.0
 10
803.4173646581992
 20
1935.487096027638
 30
0.0
 10
803.4194860016091
 20
1933.804989800744
 30
0.0
 10
803.5439665943462
 20
1932.072817536343
 30
0.0
 10
803.755041249509
 20
1930.491419564055
 30
0.0
 10
803.9207611156774
 20
1929.495749983473
 30
0.0
 10
803.9910197246392
 20
1929.097533068815
 30
0.0
  0
SPLINE
  5
190
330
87
100
AcDbEntity
  8
P-SANR-FIXT
100
AcDbSpline
210
0.0
220
0.0
230
1.0
 70
     8
 71
     3
 72
    10
 73
     6
 74
     0
 42
0.000000001
 43
0.0000000001
 40
0.0
 40
0.0
 40
0.0
 40
0.0
 40
0.4
 40
0.7
 40
1.0
 40
1.0
 40
1.0
 40
1.0
 10
795.3960206752636
 20
1938.026696696079
 30
0.0
 10
794.8948940227364
 20
1939.132072089441
 30
0.0
 10
793.6170141672687
 20
1940.814014814966
 30
0.0
 10
790.9918178537864
 20
1942.348173430316
 30
0.0
 10
789.2375956824698
 20
1942.704015112677
 30
0.0
 10
788.3310737209367
 20
1942.739167277633
 30
0.0
  0
SPLINE
  5
191
330
87
100
AcDbEntity
  8
P-SANR-FIXT
100
AcDbSpline
210
0.0
220
0.0
230
1.0
 70
     8
 71
     3
 72
     8
 73
     4
 74
     0
 42
0.000000001
 43
0.0000000001
 40
-1.0
 40
-1.0
 40
-1.0
 40
-1.0
 40
-0.9629629629629629
 40
-0.9629629629629629
 40
-0.9629629629629629
 40
-0.9629629629629629
 10
869.9511607113775
 20
1964.609203672879
 30
0.0
 10
869.0540780912566
 20
1964.353622422448
 30
0.0
 10
868.1466372429657
 20
1964.09532104727
 30
0.0
 10
867.2301064731428
 20
1963.8348124971
 30
0.0
  0
SPLINE
  5
192
330
87
100
AcDbEntity
  8
P-SANR-FIXT
100
AcDbSpline
210
0.0
220
0.0
230
1.0
 70
     8
 71
     3
 72
    26
 73
    22
 74
     0
 42
0.000000001
 43
0.0000000001
 40
-0.9562307557707423
 40
-0.9562307557707423
 40
-0.9562307557707423
 40
-0.9562307557707423
 40
-0.8333333333333332
 40
-0.6666666666666666
 40
-0.6111111111111112
 40
-0.5555555555555556
 40
-0.5
 40
-0.4722222222222223
 40
-0.4444444444444445
 40
-0.3888888888888888
 40
-0.3333333333333333
 40
-0.2777777777777778
 40
-0.25
 40
-0.2222222222222222
 40
-0.1944444444444444
 40
-0.1666666666666666
 40
-0.1388888888888889
 40
-0.1111111111111111
 40
-0.0833333333333333
 40
-0.0555555555555556
 40
0.0
 40
0.0
 40
0.0
 40
0.0
 10
866.7294208138558
 20
1963.692539200968
 30
0.0
 10
863.6773343622481
 20
1962.825505515864
 30
0.0
 10
856.256341378997
 20
1960.727807650673
 30
0.0
 10
847.0727381421889
 20
1958.197642810884
 30
0.0
 10
839.6638917616774
 20
1956.215260968785
 30
0.0
 10
835.2442896521038
 20
1955.029328291816
 30
0.0
 10
831.6143359461086
 20
1954.050282554814
 30
0.0
 10
828.7611267326635
 20
1953.272355387783
 30
0.0
 10
825.966551225078
 20
1952.486051344105
 30
0.0
 10
822.5896649452121
 20
1951.505999404591
 30
0.0
 10
818.773009247271
 20
1950.319370216307
 30
0.0
 10
815.8415305538049
 20
1949.302355451123
 30
0.0
 10
813.6687304799089
 20
1948.465815390127
 30
0.0
 10
812.1484269250981
 20
1947.812590506708
 30
0.0
 10
810.7073058975331
 20
1947.139153569232
 30
0.0
 10
809.3496196743677
 20
1946.444080411314
 30
0.0
 10
808.1241676290179
 20
1945.70098202872
 30
0.0
 10
807.0718298942773
 20
1944.873154883062
 30
0.0
 10
806.1838337404219
 20
1943.933310315736
 30
0.0
 10
805.1448174840817
 20
1942.531226672691
 30
0.0
 10
804.4963753025225
 20
1941.279437485388
 30
0.0
 10
804.058763482118
 20
1940.347871635414
 30
0.0
  0
SPLINE
  5
193
330
87
100
AcDbEntity
  8
P-SANR-FIXT
100
AcDbSpline
210
0.0
220
0.0
230
1.0
 70
     8
 71
     3
 72
     9
 73
     5
 74
     0
 42
0.000000001
 43
0.0000000001
 40
-1.0
 40
-1.0
 40
-1.0
 40
-1.0
 40
-0.5
 40
0.0
 40
0.0
 40
0.0
 40
0.0
 10
895.6479110588366
 20
1970.293699247891
 30
0.0
 10
895.010168443868
 20
1970.503532230119
 30
0.0
 10
893.3293196378622
 20
1970.573858824087
 30
0.0
 10
890.7042904355852
 20
1970.096056735411
 30
0.0
 10
889.1625769694449
 20
1969.756887144686
 30
0.0
  0
SPLINE
  5
194
330
87
100
AcDbEntity
  8
P-SANR-FIXT
100
AcDbSpline
210
0.0
220
0.0
230
1.0
 70
     8
 71
     3
 72
     9
 73
     5
 74
     0
 42
0.000000001
 43
0.0000000001
 40
-1.0
 40
-1.0
 40
-1.0
 40
-1.0
 40
-0.5
 40
0.0
 40
0.0
 40
0.0
 40
0.0
 10
898.8353446062701
 20
1972.348697421548
 30
0.0
 10
898.2519471114878
 20
1972.044985315412
 30
0.0
 10
897.1425302475328
 20
1971.382422535114
 30
0.0
 10
896.1335184747795
 20
1970.659889517864
 30
0.0
 10
895.6479110588366
 20
1970.293699247891
 30
0.0
  0
LINE
  5
195
330
87
100
AcDbEntity
  8
P-SANR-FIXT
100
AcDbLine
 10
705.666407443195
 20
2080.937500000003
 30
0.0
 11
718.9509583924922
 21
2080.937500000003
 31
0.0
  0
LINE
  5
196
330
87
100
AcDbEntity
  8
P-SANR-FIXT
100
AcDbLine
 10
705.6664074431952
 20
2080.937500000003
 30
0.0
 11
705.666407443195
 21
2080.132374907554
 31
0.0
  0
LINE
  5
197
330
87
100
AcDbEntity
  8
P-SANR-FIXT
100
AcDbLine
 10
874.7206828130019
 20
2072.443559771285
 30
0.0
 11
871.8185033491122
 21
2071.665923127645
 31
0.0
  0
LINE
  5
198
330
87
100
AcDbEntity
  8
P-SANR-FIXT
100
AcDbLine
 10
871.8185033491122
 20
2071.665923127645
 30
0.0
 11
854.2940961923571
 21
2066.970272382159
 31
0.0
  0
LINE
  5
199
330
87
100
AcDbEntity
  8
P-SANR-FIXT
100
AcDbLine
 10
854.2940961923571
 20
2066.970272382159
 30
0.0
 11
817.9957788491185
 21
2057.244167563429
 31
0.0
  0
LINE
  5
19A
330
87
100
AcDbEntity
  8
P-SANR-FIXT
100
AcDbLine
 10
817.9957788491185
 20
2057.244167563429
 30
0.0
 11
782.9627729868067
 21
2047.857101934188
 31
0.0
  0
LINE
  5
19B
330
87
100
AcDbEntity
  8
P-SANR-FIXT
100
AcDbLine
 10
782.9627729868067
 20
2047.857101934188
 30
0.0
 11
764.3302312831129
 21
2042.864527431744
 31
0.0
  0
LINE
  5
19C
330
87
100
AcDbEntity
  8
P-SANR-FIXT
100
AcDbLine
 10
764.3302312831129
 20
2042.864527431744
 30
0.0
 11
761.3415010811012
 21
2042.06369958772
 31
0.0
  0
LINE
  5
19D
330
87
100
AcDbEntity
  8
P-SANR-FIXT
100
AcDbLine
 10
865.3480272215492
 20
2095.814068784872
 30
0.0
 11
871.8185033491122
 21
2071.665923127645
 31
0.0
  0
LINE
  5
19E
330
87
100
AcDbEntity
  8
P-SANR-FIXT
100
AcDbLine
 10
757.8597551555499
 20
2067.012673088971
 30
0.0
 11
764.3302312831129
 21
2042.864527431744
 31
0.0
  0
LINE
  5
19F
330
87
100
AcDbEntity
  8
P-SANR-FIXT
100
AcDbLine
 10
847.8236200647938
 20
2091.118418039386
 30
0.0
 11
854.2940961923569
 21
2066.970272382159
 31
0.0
  0
LINE
  5
1A0
330
87
100
AcDbEntity
  8
P-SANR-FIXT
100
AcDbLine
 10
874.7206828130019
 20
2072.443559771285
 30
0.0
 11
868.2502066854389
 21
2096.591705428512
 31
0.0
  0
LINE
  5
1A1
330
87
100
AcDbEntity
  8
P-SANR-FIXT
100
AcDbLine
 10
760.7780765886738
 20
2042.937499999997
 30
0.0
 11
754.5637928486154
 21
2066.129522650544
 31
0.0
  0
LINE
  5
1A2
330
87
100
AcDbEntity
  8
P-SANR-FIXT
100
AcDbLine
 10
782.9627729868067
 20
2047.857101934188
 30
0.0
 11
776.4922968592436
 21
2072.005247591414
 31
0.0
  0
LINE
  5
1A3
330
87
100
AcDbEntity
  8
P-SANR-FIXT
100
AcDbLine
 10
817.9957788491185
 20
2057.244167563429
 30
0.0
 11
811.5253027215555
 21
2081.392313220655
 31
0.0
  0
SPLINE
  5
1A4
330
87
100
AcDbEntity
  8
P-SANR-FIXT
100
AcDbSpline
210
0.0
220
0.0
230
1.0
 70
     8
 71
     3
 72
    10
 73
     6
 74
     0
 42
0.000000001
 43
0.0000000001
 40
0.0
 40
0.0
 40
0.0
 40
0.0
 40
0.4
 40
0.7
 40
1.0
 40
1.0
 40
1.0
 40
1.0
 10
878.6550375636345
 20
2043.750433596933
 30
0.0
 10
878.9682912622707
 20
2042.594470560171
 30
0.0
 10
879.9451538624859
 20
2040.748815335121
 30
0.0
 10
882.2575773862874
 20
2038.826452224125
 30
0.0
 10
883.9133203176558
 20
2038.193262917645
 30
0.0
 10
884.794093101417
 20
2038.010617368016
 30
0.0
  0
LINE
  5
1A5
330
87
100
AcDbEntity
  8
P-SANR-FIXT
100
AcDbLine
 10
937.2660432789585
 20
1566.40279675736
 30
0.0
 11
937.2782931736836
 21
1566.406079106759
 31
0.0
  0
LINE
  5
1A6
330
87
100
AcDbEntity
  8
P-SANR-FIXT
100
AcDbLine
 10
945.4656260846844
 20
1557.211830363916
 30
0.0
 11
957.6416136303198
 21
1560.47437639382
 31
0.0
  0
LINE
  5
1A7
330
87
100
AcDbEntity
  8
P-SANR-FIXT
100
AcDbLine
 10
781.7348885917088
 20
1825.519838341903
 30
0.0
 11
797.1897018123343
 21
1829.660943063544
 31
0.0
  0
LINE
  5
1A8
330
87
100
AcDbEntity
  8
P-SANR-FIXT
100
AcDbLine
 10
831.6219259966585
 20
1693.430726379724
 30
0.0
 11
820.0308160811907
 21
1690.324897838494
 31
0.0
  0
LINE
  5
1A9
330
87
100
AcDbEntity
  8
P-SANR-FIXT
100
AcDbLine
 10
829.2925545907358
 20
1702.124058816325
 30
0.0
 11
817.701444675268
 21
1699.018230275095
 31
0.0
  0
LINE
  5
1AA
330
87
100
AcDbEntity
  8
P-SANR-FIXT
100
AcDbLine
 10
830.8015024986
 20
1706.151846821094
 30
0.0
 11
814.3807634516866
 21
1701.751923054351
 31
0.0
  0
LINE
  5
1AB
330
87
100
AcDbEntity
  8
P-SANR-FIXT
100
AcDbLine
 10
829.6368167956385
 20
1710.498513039394
 30
0.0
 11
813.2160777487253
 21
1706.098589272652
 31
0.0
  0
LINE
  5
1AC
330
87
100
AcDbEntity
  8
P-SANR-FIXT
100
AcDbLine
 10
830.6974769674184
 20
1712.335630346482
 30
0.0
 11
811.378960441638
 21
1707.159249444432
 31
0.0
  0
LINE
  5
1AD
330
87
100
AcDbEntity
  8
P-SANR-FIXT
100
AcDbLine
 10
831.5201554663325
 20
1718.767723468357
 30
0.0
 11
805.962342865866
 21
1711.919528221756
 31
0.0
  0
LINE
  5
1AE
330
87
100
AcDbEntity
  8
P-SANR-FIXT
100
AcDbLine
 10
804.5381710406839
 20
1825.418302376424
 30
0.0
 11
777.4922479045897
 21
1818.171369113554
 31
0.0
  0
SPLINE
  5
1AF
330
87
100
AcDbEntity
  8
P-SANR-FIXT
100
AcDbSpline
210
0.0
220
0.0
230
1.0
 70
     8
 71
     3
 72
    31
 73
    27
 74
     0
 42
0.000000001
 43
0.0000000001
 40
-1.0
 40
-1.0
 40
-1.0
 40
-1.0
 40
-0.8571428571428571
 40
-0.7857142857142857
 40
-0.7142857142857144
 40
-0.6785714285714287
 40
-0.6428571428571428
 40
-0.6071428571428572
 40
-0.5892857142857143
 40
-0.5714285714285714
 40
-0.5535714285714287
 40
-0.5357142857142857
 40
-0.5
 40
-0.4642857142857144
 40
-0.4285714285714286
 40
-0.3928571428571428
 40
-0.3571428571428571
 40
-0.3214285714285714
 40
-0.2857142857142857
 40
-0.25
 40
-0.2142857142857143
 40
-0.1785714285714286
 40
-0.1428571428571428
 40
-0.1071428571428571
 40
-0.0714285714285714
 40
0.0
 40
0.0
 40
0.0
 40
0.0
 10
809.439381031014
 20
1899.139986510167
 30
0.0
 10
809.8408924542569
 20
1897.178215850523
 30
0.0
 10
810.5634897172095
 20
1894.274394207139
 30
0.0
 10
811.838955124098
 20
1890.54312920241
 30
0.0
 10
812.7785678772823
 20
1888.285997511921
 30
0.0
 10
813.6042386702877
 20
1886.522816132998
 30
0.0
 10
814.2578786778372
 20
1885.217609266151
 30
0.0
 10
814.8427660216393
 20
1884.152667812934
 30
0.0
 10
815.3376036264889
 20
1883.315570765706
 30
0.0
 10
815.7242660217233
 20
1882.696906864681
 30
0.0
 10
816.1222521205621
 20
1882.082455253868
 30
0.0
 10
816.6635244205847
 20
1881.264622445528
 30
0.0
 10
817.3664691760258
 20
1880.253656565055
 30
0.0
 10
818.2603364948985
 20
1879.069402292699
 30
0.0
 10
819.2106246844666
 20
1877.932714583847
 30
0.0
 10
820.2271460354831
 20
1876.829912326079
 30
0.0
 10
821.2961304826389
 20
1875.748019556531
 30
0.0
 10
822.4035433224642
 20
1874.707110160144
 30
0.0
 10
823.5293908760839
 20
1873.720979531636
 30
0.0
 10
824.6868041792861
 20
1872.804511353697
 30
0.0
 10
825.8910354078377
 20
1871.949362710887
 30
0.0
 10
827.1259689697879
 20
1871.150303081543
 30
0.0
 10
828.3766586541622
 20
1870.395037767996
 30
0.0
 10
829.6414988132635
 20
1869.683066702283
 30
0.0
 10
831.3707294144862
 20
1868.81099708119
 30
0.0
 10
832.7148684148133
 20
1868.244155395032
 30
0.0
 10
833.6357154272372
 20
1867.90865278623
 30
0.0
  0
LINE
  5
1B0
330
87
100
AcDbEntity
  8
P-SANR-FIXT
100
AcDbLine
 10
1002.381856493883
 20
2080.937499999999
 30
0.0
 11
1015.66640744318
 21
2080.937499999999
 31
0.0
  0
SPLINE
  5
1B1
330
87
100
AcDbEntity
  8
P-SANR-FIXT
100
AcDbSpline
210
0.0
220
0.0
230
1.0
 70
     8
 71
     3
 72
     9
 73
     5
 74
     0
 42
0.000000001
 43
0.0000000001
 40
-1.0
 40
-1.0
 40
-1.0
 40
-1.0
 40
-0.5
 40
0.0
 40
0.0
 40
0.0
 40
0.0
 10
1006.496996333494
 20
2006.480037154009
 30
0.0
 10
1006.236536500456
 20
2006.452556405882
 30
0.0
 10
1005.735575072715
 20
2006.403260733455
 30
0.0
 10
1005.277961606812
 20
2006.365296708682
 30
0.0
 10
1005.060781864056
 20
2006.349147608209
 30
0.0
  0
SPLINE
  5
1B2
330
87
100
AcDbEntity
  8
P-SANR-FIXT
100
AcDbSpline
210
0.0
220
0.0
230
1.0
 70
     8
 71
     3
 72
     9
 73
     5
 74
     0
 42
0.000000001
 43
0.0000000001
 40
0.0
 40
0.0
 40
0.0
 40
0.0
 40
0.5
 40
1.0
 40
1.0
 40
1.0
 40
1.0
 10
1006.496996333494
 20
2006.480037154009
 30
0.0
 10
1007.916003296104
 20
2002.202657408233
 30
0.0
 10
1011.139147539736
 20
1993.632758852462
 30
0.0
 10
1014.254047422699
 20
1985.032582168257
 30
0.0
 10
1015.66640744318
 20
1980.724924294046
 30
0.0
  0
LINE
  5
1B3
330
87
100
AcDbEntity
  8
P-SANR-FIXT
100
AcDbLine
 10
1015.66640744318
 20
2080.132374907549
 30
0.0
 11
1015.66640744318
 21
2080.937499999999
 31
0.0
  0
LINE
  5
1B4
330
87
100
AcDbEntity
  8
P-SANR-FIXT
100
AcDbLine
 10
783.7186226685076
 20
1808.680720546813
 30
0.0
 11
972.4141677069315
 21
1859.241539455209
 31
0.0
  0
SPLINE
  5
1B5
330
87
100
AcDbEntity
  8
P-SANR-FIXT
100
AcDbSpline
210
0.0
220
0.0
230
1.0
 70
     8
 71
     3
 72
    17
 73
    13
 74
     0
 42
0.000000001
 43
0.0000000001
 40
0.1111111111111111
 40
0.1111111111111111
 40
0.1111111111111111
 40
0.1111111111111111
 40
0.1666666666666666
 40
0.25
 40
0.3333333333333333
 40
0.4166666666666666
 40
0.5
 40
0.5833333333333333
 40
0.6666666666666666
 40
0.75
 40
0.8333333333333332
 40
1.0
 40
1.0
 40
1.0
 40
1.0
 10
780.6902451683408
 20
1806.418250702686
 30
0.0
 10
780.7027412310822
 20
1806.432095426453
 30
0.0
 10
780.7423179115295
 20
1806.473065405845
 30
0.0
 10
780.8386100703666
 20
1806.564135969917
 30
0.0
 10
780.9913239158423
 20
1806.697980637498
 30
0.0
 10
781.1839993028504
 20
1806.874137080061
 30
0.0
 10
781.4158625858103
 20
1807.089965830497
 30
0.0
 10
781.6902335376434
 20
1807.329655522726
 30
0.0
 10
782.0106774470454
 20
1807.577460576421
 30
0.0
 10
782.3766753529143
 20
1807.830809766973
 30
0.0
 10
782.9185460402523
 20
1808.190303748489
 30
0.0
 10
783.3843664411763
 20
1808.479472194149
 30
0.0
 10
783.7186226685075
 20
1808.680720546813
 30
0.0
  0
LINE
  5
1B6
330
87
100
AcDbEntity
  8
P-SANR-FIXT
100
AcDbLine
 10
772.4631650803014
 20
1796.46402515842
 30
0.0
 11
987.8400423800909
 21
1854.174085499235
 31
0.0
  0
LINE
  5
1B7
330
87
100
AcDbEntity
  8
P-SANR-FIXT
100
AcDbLine
 10
1000.555190942305
 20
1847.152944001861
 30
0.0
 11
764.962094161218
 21
1784.025963977022
 31
0.0
  0
LINE
  5
1B8
330
87
100
AcDbEntity
  8
P-SANR-FIXT
100
AcDbLine
 10
765.5414160630838
 20
1781.863905205321
 30
0.0
 11
1001.134512844171
 21
1844.99088523016
 31
0.0
  0
LINE
  5
1B9
330
87
100
AcDbEntity
  8
P-SANR-FIXT
100
AcDbLine
 10
888.0800314311429
 20
1619.186859409568
 30
0.0
 11
976.3514818887372
 21
1642.839123274404
 31
0.0
  0
LINE
  5
1BA
330
87
100
AcDbEntity
  8
P-SANR-FIXT
100
AcDbLine
 10
892.2346322644978
 20
1607.121022476938
 30
0.0
 11
978.7864104907832
 21
1630.312501556149
 31
0.0
  0
LINE
  5
1BB
330
87
100
AcDbEntity
  8
P-SANR-FIXT
100
AcDbLine
 10
896.339757430193
 20
1596.832949465404
 30
0.0
 11
980.3753043173433
 21
1619.350206389323
 31
0.0
  0
SPLINE
  5
1BC
330
87
100
AcDbEntity
  8
P-SANR-FIXT
100
AcDbSpline
210
0.0
220
0.0
230
1.0
 70
     8
 71
     3
 72
    13
 73
     9
 74
     0
 42
0.000000001
 43
0.0000000001
 40
0.0
 40
0.0
 40
0.0
 40
0.0
 40
0.1666666666666666
 40
0.3333333333333333
 40
0.5
 40
0.6666666666666666
 40
0.8333333333333332
 40
1.0
 40
1.0
 40
1.0
 40
1.0
 10
802.2173671631787
 20
1735.590066353883
 30
0.0
 10
801.9352484892918
 20
1735.612667078022
 30
0.0
 10
801.4088723669889
 20
1735.660565433963
 30
0.0
 10
800.7437853055023
 20
1735.733915924304
 30
0.0
 10
800.2039937350666
 20
1735.837508621894
 30
0.0
 10
799.8060395087861
 20
1735.932995948689
 30
0.0
 10
799.5659613986522
 20
1735.981895526468
 30
0.0
 10
799.5094651015079
 20
1736.001995893373
 30
0.0
 10
799.5079718390723
 20
1736.007568824651
 30
0.0
  0
SPLINE
  5
1BD
330
87
100
AcDbEntity
  8
P-SANR-FIXT
100
AcDbSpline
210
0.0
220
0.0
230
1.0
 70
     8
 71
     3
 72
    20
 73
    16
 74
     0
 42
0.000000001
 43
0.0000000001
 40
0.0
 40
0.0
 40
0.0
 40
0.0
 40
0.1111111111111111
 40
0.2222222222222222
 40
0.2777777777777778
 40
0.3333333333333333
 40
0.3888888888888888
 40
0.4444444444444445
 40
0.5
 40
0.5555555555555556
 40
0.6111111111111112
 40
0.6666666666666666
 40
0.75
 40
0.8333333333333332
 40
1.0
 40
1.0
 40
1.0
 40
1.0
 10
831.5201554663323
 20
1718.767723468357
 30
0.0
 10
830.8615193153665
 20
1719.813611705132
 30
0.0
 10
829.4173477727229
 20
1721.853929967307
 30
0.0
 10
827.3191951841585
 20
1724.308348721165
 30
0.0
 10
825.4497493402622
 20
1726.163159209537
 30
0.0
 10
823.9514636209602
 20
1727.492719081675
 30
0.0
 10
822.352595085427
 20
1728.754665544642
 30
0.0
 10
820.6565097121135
 20
1729.934229314246
 30
0.0
 10
818.8613215447062
 20
1731.025491958966
 30
0.0
 10
816.9808917516901
 20
1732.013210676323
 30
0.0
 10
815.0196884646984
 20
1732.887472485669
 30
0.0
 10
812.6757069590659
 20
1733.765858851904
 30
0.0
 10
809.9515612694849
 20
1734.551559797087
 30
0.0
 10
806.0058026267396
 20
1735.328633662641
 30
0.0
 10
803.4874431776028
 20
1735.546970659374
 30
0.0
 10
802.2173671631787
 20
1735.590066353883
 30
0.0
  0
LINE
  5
1BE
330
87
100
AcDbEntity
  8
P-SANR-FIXT
100
AcDbLine
 10
763.2530833288724
 20
1790.404079234024
 30
0.0
 11
998.8461801099582
 21
1853.531059258863
 31
0.0
  0
LINE
  5
1BF
330
87
100
AcDbEntity
  8
P-SANR-FIXT
100
AcDbLine
 10
764.185637025911
 20
1786.92374145589
 30
0.0
 11
999.7787338069967
 21
1850.050721480728
 31
0.0
  0
LINE
  5
1C0
330
87
100
AcDbEntity
  8
P-SANR-FIXT
100
AcDbLine
 10
1015.66640744318
 20
1956.187035748741
 30
0.0
 11
1006.496996333494
 21
2006.480037154009
 31
0.0
  0
LINE
  5
1C1
330
87
100
AcDbEntity
  8
P-SANR-FIXT
100
AcDbLine
 10
1035.666407443176
 20
2050.937499999988
 30
0.0
 11
1035.666407443176
 21
1890.937500000009
 31
0.0
  0
LINE
  5
1C2
330
87
100
AcDbEntity
  8
P-SANR-FIXT
100
AcDbLine
 10
1032.66640744318
 20
2080.937499999999
 30
0.0
 11
1032.66640744318
 21
1860.937499999998
 31
0.0
  0
LINE
  5
1C3
330
87
100
AcDbEntity
  8
P-SANR-FIXT
100
AcDbLine
 10
1015.66640744318
 20
2080.132374907549
 30
0.0
 11
1015.66640744318
 21
1860.937499999998
 31
0.0
  0
ENDBLK
  5
1C5
330
87
100
AcDbEntity
  8
0
100
AcDbBlockEnd
  0
BLOCK
  5
297
330
1C7
100
AcDbEntity
  8
0
100
AcDbBlockBegin
  2
Automatic flow rate regulator valve_Caleffi_121 DN15 - 1_2__-V1-Est - Idraulica
 70
     0
 10
0.0
 20
0.0
 30
0.0
  3
Automatic flow rate regulator valve_Caleffi_121 DN15 - 1_2__-V1-Est - Idraulica
  1

  0
LINE
  5
1C8
330
1C7
100
AcDbEntity
  8
P-SANR-FIXT
100
AcDbLine
 10
793.9959183459441
 20
1311.747075844254
 30
0.0
 11
790.4481212242395
 21
1311.747075844254
 31
0.0
  0
LINE
  5
1C9
330
1C7
100
AcDbEntity
  8
P-SANR-FIXT
100
AcDbLine
 10
790.448121224239
 20
1281.747075844253
 30
0.0
 11
793.9959183459438
 21
1281.747075844253
 31
0.0
  0
ELLIPSE
  5
1CA
330
1C7
100
AcDbEntity
  8
P-SANR-FIXT
100
AcDbEllipse
 10
798.9121885037872
 20
1296.747075844254
 30
0.0
 11
0.0
 21
13.38040638937491
 31
0.0
210
0.0
220
0.0
230
1.0
 40
0.9659258262890658
 41
4.712388980384685
 42
6.134388399636874
  0
ELLIPSE
  5
1CB
330
1C7
100
AcDbEntity
  8
P-SANR-FIXT
100
AcDbEllipse
 10
798.9121885037872
 20
1296.747075844254
 30
0.0
 11
0.0
 21
13.38040638937491
 31
0.0
210
0.0
220
0.0
230
1.0
 40
0.9659258262890658
 41
3.290389561132515
 42
4.712388980384685
  0
ELLIPSE
  5
1CC
330
1C7
100
AcDbEntity
  8
P-SANR-FIXT
100
AcDbEllipse
 10
795.5603256425384
 20
1296.747075844254
 30
0.0
 11
0.0
 21
13.38040638937468
 31
0.0
210
0.0
220
0.0
230
1.0
 40
0.9659258262890899
 41
4.908738521234055
 42
4.933092009385859
  0
ELLIPSE
  5
1CD
330
1C7
100
AcDbEntity
  8
P-SANR-FIXT
100
AcDbEllipse
 10
795.5603256425384
 20
1296.747075844254
 30
0.0
 11
0.0
 21
13.38040638937494
 31
0.0
210
0.0
220
0.0
230
0.9999999999999998
 40
0.9659258262890578
 41
4.810563750809379
 42
4.822562594851241
  0
ELLIPSE
  5
1CE
330
1C7
100
AcDbEntity
  8
P-SANR-FIXT
100
AcDbEllipse
 10
795.5603256425384
 20
1296.747075844254
 30
0.0
 11
0.0
 21
13.38040638937477
 31
0.0
210
0.0
220
0.0
230
0.9999999999999998
 40
0.9659258262890702
 41
4.602215365918143
 42
4.614214209960023
  0
ELLIPSE
  5
1CF
330
1C7
100
AcDbEntity
  8
P-SANR-FIXT
100
AcDbEllipse
 10
795.5603256425384
 20
1296.747075844254
 30
0.0
 11
0.0
 21
13.38040638937466
 31
0.0
210
0.0
220
0.0
230
1.0
 40
0.965925826289083
 41
4.491685951383511
 42
4.516039439535332
  0
ELLIPSE
  5
1D0
330
1C7
100
AcDbEntity
  8
P-SANR-FIXT
100
AcDbEllipse
 10
793.9959183459428
 20
1296.747075844254
 30
0.0
 11
0.0000000000033949
 21
15.00000000000023
 31
0.0
210
0.0
220
0.0
230
1.0
 40
0.9659258262890569
 41
4.712388980384901
 42
6.283185307179804
  0
ELLIPSE
  5
1D1
330
1C7
100
AcDbEntity
  8
P-SANR-FIXT
100
AcDbEllipse
 10
793.9959183459428
 20
1296.747075844254
 30
0.0
 11
0.0000000000016962
 21
15.0
 31
0.0
210
0.0
220
0.0
230
1.0
 40
0.9659258262890716
 41
3.141592653589896
 42
4.712388980384792
  0
ELLIPSE
  5
1D2
330
1C7
100
AcDbEntity
  8
P-SANR-FIXT
100
AcDbEllipse
 10
790.4481212242382
 20
1296.747075844254
 30
0.0
 11
0.0
 21
15.00000000000023
 31
0.0
210
0.0
220
0.0
230
1.0
 40
0.9659258262890494
 41
4.712388980384685
 42
7.853981633974469
  0
ELLIPSE
  5
1D3
330
1C7
100
AcDbEntity
  8
P-SANR-FIXT
100
AcDbEllipse
 10
790.4481212242382
 20
1296.747075844254
 30
0.0
 11
0.0000000000016962
 21
15.0
 31
0.0
210
0.0
220
0.0
230
1.0
 40
0.9659258262890716
 41
1.57079632679499
 42
4.712388980384792
  0
LINE
  5
1D4
330
1C7
100
AcDbEntity
  8
P-SANR-FIXT
100
AcDbLine
 10
1006.981347678393
 20
1304.747075844253
 30
0.0
 11
994.0055977380037
 21
1304.747075844253
 31
0.0
  0
LINE
  5
1D5
330
1C7
100
AcDbEntity
  8
P-SANR-FIXT
100
AcDbLine
 10
994.0055977380035
 20
1288.747075844253
 30
0.0
 11
1006.981347678393
 21
1288.747075844253
 31
0.0
  0
LINE
  5
1D6
330
1C7
100
AcDbEntity
  8
P-SANR-FIXT
100
AcDbLine
 10
994.0055977380037
 20
1305.747075844253
 30
0.0
 11
986.0055977380037
 21
1305.747075844253
 31
0.0
  0
LINE
  5
1D7
330
1C7
100
AcDbEntity
  8
P-SANR-FIXT
100
AcDbLine
 10
986.0055977380033
 20
1287.747075844253
 30
0.0
 11
994.0055977380035
 21
1287.747075844253
 31
0.0
  0
LINE
  5
1D8
330
1C7
100
AcDbEntity
  8
P-SANR-FIXT
100
AcDbLine
 10
986.0055977380037
 20
1303.747075844253
 30
0.0
 11
982.0055977380036
 21
1303.747075844253
 31
0.0
  0
LINE
  5
1D9
330
1C7
100
AcDbEntity
  8
P-SANR-FIXT
100
AcDbLine
 10
982.0055977380034
 20
1289.747075844253
 30
0.0
 11
986.0055977380033
 21
1289.747075844253
 31
0.0
  0
LINE
  5
1DA
330
1C7
100
AcDbEntity
  8
P-SANR-FIXT
100
AcDbLine
 10
982.0055977380036
 20
1299.303960860054
 30
0.0
 11
979.0055977380037
 21
1299.303960860054
 31
0.0
  0
LINE
  5
1DB
330
1C7
100
AcDbEntity
  8
P-SANR-FIXT
100
AcDbLine
 10
979.0055977380035
 20
1294.190190828451
 30
0.0
 11
982.0055977380036
 21
1294.190190828451
 31
0.0
  0
LINE
  5
1DC
330
1C7
100
AcDbEntity
  8
P-SANR-FIXT
100
AcDbLine
 10
979.0055977380037
 20
1300.803960860055
 30
0.0
 11
970.0055977380035
 21
1300.803960860055
 31
0.0
  0
LINE
  5
1DD
330
1C7
100
AcDbEntity
  8
P-SANR-FIXT
100
AcDbLine
 10
970.0055977380035
 20
1292.690190828451
 30
0.0
 11
979.0055977380035
 21
1292.690190828451
 31
0.0
  0
LINE
  5
1DE
330
1C7
100
AcDbEntity
  8
P-SANR-FIXT
100
AcDbLine
 10
1010.726448950011
 20
1302.068639730406
 30
0.0
 11
1008.765766593321
 21
1302.068639730406
 31
0.0
  0
LINE
  5
1DF
330
1C7
100
AcDbEntity
  8
P-SANR-FIXT
100
AcDbLine
 10
1008.765766593321
 20
1291.425511958099
 30
0.0
 11
1010.726448950011
 21
1291.425511958099
 31
0.0
  0
LINE
  5
1E0
330
1C7
100
AcDbEntity
  8
P-SANR-FIXT
100
AcDbLine
 10
1008.765766593321
 20
1302.068639730406
 30
0.0
 11
1007.026944289357
 21
1304.678634735243
 31
0.0
  0
LINE
  5
1E1
330
1C7
100
AcDbEntity
  8
P-SANR-FIXT
100
AcDbLine
 10
1007.018965880536
 20
1304.690610431163
 30
0.0
 11
1006.981347678393
 21
1304.747075844253
 31
0.0
  0
LINE
  5
1E2
330
1C7
100
AcDbEntity
  8
P-SANR-FIXT
100
AcDbLine
 10
1006.981347678393
 20
1288.747075844252
 30
0.0
 11
1007.018965880536
 21
1288.803541257342
 31
0.0
  0
LINE
  5
1E3
330
1C7
100
AcDbEntity
  8
P-SANR-FIXT
100
AcDbLine
 10
1007.026944289357
 20
1288.815516953262
 30
0.0
 11
1008.765766593321
 21
1291.425511958099
 31
0.0
  0
ARC
  5
1E4
330
1C7
100
AcDbEntity
  8
P-SANR-FIXT
100
AcDbCircle
 10
1016.677344956419
 20
1296.747075844252
 30
0.0
 40
7.999999999999886
100
AcDbArc
 50
0.0
 51
180.0
  0
ARC
  5
1E5
330
1C7
100
AcDbEntity
  8
P-SANR-FIXT
100
AcDbCircle
 10
1016.677344956419
 20
1296.747075844252
 30
0.0
 40
8.000000000000056
100
AcDbArc
 50
179.9999999999996
 51
359.9999999999992
  0
ARC
  5
1E6
330
1C7
100
AcDbEntity
  8
P-SANR-FIXT
100
AcDbCircle
 10
1016.677344956419
 20
1296.747075844252
 30
0.0
 40
7.799999999999954
100
AcDbArc
 50
0.0
 51
180.0
  0
ARC
  5
1E7
330
1C7
100
AcDbEntity
  8
P-SANR-FIXT
100
AcDbCircle
 10
1016.677344956419
 20
1296.747075844252
 30
0.0
 40
7.800000000000068
100
AcDbArc
 50
180.0
 51
0.0
  0
ARC
  5
1E8
330
1C7
100
AcDbEntity
  8
P-SANR-FIXT
100
AcDbCircle
 10
1016.677344956419
 20
1296.747075844252
 30
0.0
 40
6.79999999999984
100
AcDbArc
 50
0.0
 51
180.0
  0
ARC
  5
1E9
330
1C7
100
AcDbEntity
  8
P-SANR-FIXT
100
AcDbCircle
 10
1016.677344956419
 20
1296.747075844252
 30
0.0
 40
6.799999999999954
100
AcDbArc
 50
180.0
 51
0.0
  0
ARC
  5
1EA
330
1C7
100
AcDbEntity
  8
P-SANR-FIXT
100
AcDbCircle
 10
1016.677344956419
 20
1296.747075844252
 30
0.0
 40
5.799999999999954
100
AcDbArc
 50
0.0
 51
180.0
  0
ARC
  5
1EB
330
1C7
100
AcDbEntity
  8
P-SANR-FIXT
100
AcDbCircle
 10
1016.677344956419
 20
1296.747075844252
 30
0.0
 40
5.800000000000068
100
AcDbArc
 50
180.0
 51
0.0
  0
ARC
  5
1EC
330
1C7
100
AcDbEntity
  8
P-SANR-FIXT
100
AcDbCircle
 10
1016.677344956419
 20
1296.747075844252
 30
0.0
 40
1.999999999999886
100
AcDbArc
 50
0.0
 51
180.0
  0
ARC
  5
1ED
330
1C7
100
AcDbEntity
  8
P-SANR-FIXT
100
AcDbCircle
 10
1016.677344956419
 20
1296.747075844252
 30
0.0
 40
2.000000000000113
100
AcDbArc
 50
180.0
 51
0.0
  0
LINE
  5
1EE
330
1C7
100
AcDbEntity
  8
P-SANR-FIXT
100
AcDbLine
 10
1006.981347678392
 20
1296.747075844252
 30
0.0
 11
1006.981347678392
 21
1304.747075844253
 31
0.0
  0
LINE
  5
1EF
330
1C7
100
AcDbEntity
  8
P-SANR-FIXT
100
AcDbLine
 10
1006.981347678392
 20
1288.747075844252
 30
0.0
 11
1006.981347678392
 21
1296.747075844252
 31
0.0
  0
LINE
  5
1F0
330
1C7
100
AcDbEntity
  8
P-SANR-FIXT
100
AcDbLine
 10
994.0055977380021
 20
1305.747075844253
 30
0.0
 11
994.0055977380023
 21
1296.747075844253
 31
0.0
  0
LINE
  5
1F1
330
1C7
100
AcDbEntity
  8
P-SANR-FIXT
100
AcDbLine
 10
994.0055977380023
 20
1296.747075844253
 30
0.0
 11
994.0055977380021
 21
1287.747075844253
 31
0.0
  0
LINE
  5
1F2
330
1C7
100
AcDbEntity
  8
P-SANR-FIXT
100
AcDbLine
 10
986.0055977380021
 20
1305.747075844253
 30
0.0
 11
986.0055977380021
 21
1296.747075844253
 31
0.0
  0
LINE
  5
1F3
330
1C7
100
AcDbEntity
  8
P-SANR-FIXT
100
AcDbLine
 10
986.0055977380021
 20
1296.747075844253
 30
0.0
 11
986.0055977380021
 21
1287.747075844253
 31
0.0
  0
LINE
  5
1F4
330
1C7
100
AcDbEntity
  8
P-SANR-FIXT
100
AcDbLine
 10
982.0055977380022
 20
1303.747075844253
 30
0.0
 11
982.0055977380022
 21
1296.747075844253
 31
0.0
  0
LINE
  5
1F5
330
1C7
100
AcDbEntity
  8
P-SANR-FIXT
100
AcDbLine
 10
982.0055977380022
 20
1296.747075844253
 30
0.0
 11
982.0055977380022
 21
1289.747075844253
 31
0.0
  0
LINE
  5
1F6
330
1C7
100
AcDbEntity
  8
P-SANR-FIXT
100
AcDbLine
 10
979.0055977380022
 20
1300.803960860054
 30
0.0
 11
979.0055977380022
 21
1296.747075844253
 31
0.0
  0
LINE
  5
1F7
330
1C7
100
AcDbEntity
  8
P-SANR-FIXT
100
AcDbLine
 10
979.0055977380022
 20
1296.747075844253
 30
0.0
 11
979.0055977380022
 21
1292.690190828451
 31
0.0
  0
LINE
  5
1F8
330
1C7
100
AcDbEntity
  8
P-SANR-FIXT
100
AcDbLine
 10
970.0055977380021
 20
1300.803960860054
 30
0.0
 11
970.0055977380021
 21
1296.747075844253
 31
0.0
  0
LINE
  5
1F9
330
1C7
100
AcDbEntity
  8
P-SANR-FIXT
100
AcDbLine
 10
970.0055977380021
 20
1296.747075844253
 30
0.0
 11
970.0055977380021
 21
1292.690190828451
 31
0.0
  0
LINE
  5
1FA
330
1C7
100
AcDbEntity
  8
P-SANR-FIXT
100
AcDbLine
 10
1008.765766593319
 20
1302.068639730405
 30
0.0
 11
1008.765766593319
 21
1297.793525092294
 31
0.0
  0
LINE
  5
1FB
330
1C7
100
AcDbEntity
  8
P-SANR-FIXT
100
AcDbLine
 10
1008.76576659332
 20
1295.700626596211
 30
0.0
 11
1008.76576659332
 21
1291.425511958099
 31
0.0
  0
ARC
  5
1FC
330
1C7
100
AcDbEntity
  8
P-SANR-FIXT
100
AcDbCircle
 10
707.1835076408408
 20
1296.747075844254
 30
0.0
 40
6.522931044476536
100
AcDbArc
 50
0.0
 51
180.0
  0
ARC
  5
1FD
330
1C7
100
AcDbEntity
  8
P-SANR-FIXT
100
AcDbCircle
 10
707.1835076408408
 20
1296.747075844254
 30
0.0
 40
6.522931044476649
100
AcDbArc
 50
180.0
 51
0.0
  0
ARC
  5
1FE
330
1C7
100
AcDbEntity
  8
P-SANR-FIXT
100
AcDbCircle
 10
707.1835076408408
 20
1296.747075844254
 30
0.0
 40
4.999999999999886
100
AcDbArc
 50
0.0
 51
180.0
  0
ARC
  5
1FF
330
1C7
100
AcDbEntity
  8
P-SANR-FIXT
100
AcDbCircle
 10
707.1835076408408
 20
1296.747075844254
 30
0.0
 40
5.0
100
AcDbArc
 50
180.0
 51
0.0
  0
ARC
  5
200
330
1C7
100
AcDbEntity
  8
P-SANR-FIXT
100
AcDbCircle
 10
707.1835076408408
 20
1296.747075844254
 30
0.0
 40
7.499999999999886
100
AcDbArc
 50
0.0
 51
180.0
  0
ARC
  5
201
330
1C7
100
AcDbEntity
  8
P-SANR-FIXT
100
AcDbCircle
 10
707.1835076408408
 20
1296.747075844254
 30
0.0
 40
7.5
100
AcDbArc
 50
180.0
 51
0.0
  0
LINE
  5
202
330
1C7
100
AcDbEntity
  8
P-SANR-FIXT
100
AcDbLine
 10
733.7267816229654
 20
1337.531567514491
 30
0.0
 11
757.7305580711208
 21
1334.516888332709
 31
0.0
  0
LWPOLYLINE
  5
203
330
1C7
100
AcDbEntity
  8
P-SANR-FIXT
100
AcDbPolyline
 90
        4
 70
   128
 43
0.0
 10
733.7267816229654
 20
1337.531567514491
 10
716.8565003971459
 20
1338.13150260005
 10
708.7118435554843
 20
1336.79233735466
 10
705.6664074431979
 20
1335.882323638369
  0
LWPOLYLINE
  5
204
330
1C7
100
AcDbEntity
  8
P-SANR-FIXT
100
AcDbPolyline
 90
        4
 70
   128
 43
0.0
 10
733.7267816229648
 20
1255.962584174017
 10
716.8565003971456
 20
1255.362649088458
 10
708.7118435554842
 20
1256.701814333848
 10
705.6664074431973
 20
1257.611828050139
  0
LINE
  5
205
330
1C7
100
AcDbEntity
  8
P-SANR-FIXT
100
AcDbLine
 10
733.7267816229648
 20
1255.962584174017
 30
0.0
 11
757.7553642493946
 21
1258.980378810126
 31
0.0
  0
LINE
  5
206
330
1C7
100
AcDbEntity
  8
P-SANR-FIXT
100
AcDbLine
 10
800.2062837292998
 20
1320.923647329437
 30
0.0
 11
798.9121885037873
 21
1320.923647329437
 31
0.0
  0
LINE
  5
207
330
1C7
100
AcDbEntity
  8
P-SANR-FIXT
100
AcDbLine
 10
688.6664074431962
 20
1376.747075844205
 30
0.0
 11
685.6664074432
 21
1376.747075844205
 31
0.0
  0
LINE
  5
208
330
1C7
100
AcDbEntity
  8
P-SANR-FIXT
100
AcDbLine
 10
685.666407443199
 20
1216.747075844286
 30
0.0
 11
688.6664074431955
 21
1216.747075844286
 31
0.0
  0
LINE
  5
209
330
1C7
100
AcDbEntity
  8
P-SANR-FIXT
100
AcDbLine
 10
705.6664074431964
 20
1406.74707584425
 30
0.0
 11
688.6664074431963
 21
1406.74707584425
 31
0.0
  0
LINE
  5
20A
330
1C7
100
AcDbEntity
  8
P-SANR-FIXT
100
AcDbLine
 10
688.6664074431953
 20
1186.747075844241
 30
0.0
 11
705.6664074431953
 21
1186.747075844241
 31
0.0
  0
LINE
  5
20B
330
1C7
100
AcDbEntity
  8
P-SANR-FIXT
100
AcDbLine
 10
986.0055977380037
 20
1304.747075844253
 30
0.0
 11
905.1716799028048
 21
1304.747075844253
 31
0.0
  0
LINE
  5
20C
330
1C7
100
AcDbEntity
  8
P-SANR-FIXT
100
AcDbLine
 10
755.2345433795534
 20
1304.747075844254
 30
0.0
 11
716.2720330223102
 21
1304.747075844254
 31
0.0
  0
LINE
  5
20D
330
1C7
100
AcDbEntity
  8
P-SANR-FIXT
100
AcDbLine
 10
716.2720330223196
 20
1288.747075844254
 30
0.0
 11
755.2398533254737
 21
1288.747075844254
 31
0.0
  0
LINE
  5
20E
330
1C7
100
AcDbEntity
  8
P-SANR-FIXT
100
AcDbLine
 10
905.1716799028048
 20
1288.747075844253
 30
0.0
 11
986.0055977380033
 21
1288.747075844253
 31
0.0
  0
LINE
  5
20F
330
1C7
100
AcDbEntity
  8
P-SANR-FIXT
100
AcDbLine
 10
798.9121885037893
 20
1272.570504359049
 30
0.0
 11
800.2062837293021
 21
1272.570504359049
 31
0.0
  0
LINE
  5
210
330
1C7
100
AcDbEntity
  8
P-SANR-FIXT
100
AcDbLine
 10
802.2768360901196
 20
1332.923647329437
 30
0.0
 11
801.5003789548119
 21
1332.923647329437
 31
0.0
  0
LINE
  5
211
330
1C7
100
AcDbEntity
  8
P-SANR-FIXT
100
AcDbLine
 10
801.5003789548153
 20
1260.57050435905
 30
0.0
 11
802.2768360901226
 21
1260.57050435905
 31
0.0
  0
LINE
  5
212
330
1C7
100
AcDbEntity
  8
P-SANR-FIXT
100
AcDbLine
 10
811.5253027215542
 20
1342.747075844244
 30
0.0
 11
804.0844763888927
 21
1342.747075844243
 31
0.0
  0
LINE
  5
213
330
1C7
100
AcDbEntity
  8
P-SANR-FIXT
100
AcDbLine
 10
804.0844763888966
 20
1250.747075844243
 30
0.0
 11
811.5253027215581
 21
1250.747075844244
 31
0.0
  0
LINE
  5
214
330
1C7
100
AcDbEntity
  8
P-SANR-FIXT
100
AcDbLine
 10
842.6585031956921
 20
1361.503238117458
 30
0.0
 11
829.1249977885248
 21
1361.503238117458
 31
0.0
  0
LINE
  5
215
330
1C7
100
AcDbEntity
  8
P-SANR-FIXT
100
AcDbLine
 10
829.1249977885303
 20
1231.990913571031
 30
0.0
 11
842.6585031956975
 21
1231.990913571032
 31
0.0
  0
LINE
  5
216
330
1C7
100
AcDbEntity
  8
P-SANR-FIXT
100
AcDbLine
 10
1014.99384472365
 20
1346.066483747581
 30
0.0
 11
929.9882243690447
 21
1336.343374474364
 31
0.0
  0
LINE
  5
217
330
1C7
100
AcDbEntity
  8
P-SANR-FIXT
100
AcDbLine
 10
929.9882243690358
 20
1257.150777214142
 30
0.0
 11
1014.99384472365
 21
1247.427667940924
 31
0.0
  0
LWPOLYLINE
  5
218
330
1C7
100
AcDbEntity
  8
P-SANR-FIXT
100
AcDbPolyline
 90
        3
 70
   128
 43
0.0
 10
901.6548584883182
 20
1335.985715341666
 10
926.0442796861031
 20
1335.853485090757
 10
929.9525470881148
 20
1336.338793760515
  0
LWPOLYLINE
  5
219
330
1C7
100
AcDbEntity
  8
P-SANR-FIXT
100
AcDbPolyline
 90
        3
 70
   128
 43
0.0
 10
901.6548584883263
 20
1257.508436346841
 10
926.0442796861113
 20
1257.640666597747
 10
929.9525470881262
 20
1257.155357927989
  0
LWPOLYLINE
  5
21A
330
1C7
100
AcDbEntity
  8
P-SANR-FIXT
100
AcDbPolyline
 90
        8
 70
   128
 43
0.0
 10
863.41582685129
 20
1361.425144076744
 10
874.1354232559514
 20
1359.090808084346
 10
883.7938967963275
 20
1355.288111929223
 10
891.7257752588907
 20
1350.351557850533
 10
897.6900487368938
 20
1344.678529866483
 10
899.9495991049576
 20
1341.699326428552
 10
902.9255802416402
 20
1336.384799593152
 10
903.1279572621579
 20
1335.827592470824
  0
LWPOLYLINE
  5
21B
330
1C7
100
AcDbEntity
  8
P-SANR-FIXT
100
AcDbPolyline
 90
        3
 70
   128
 43
0.0
 10
863.41582685129
 20
1361.425144076744
 10
852.4730850118976
 20
1362.152870661688
 10
843.9883193366329
 20
1361.442288914566
  0
LWPOLYLINE
  5
21C
330
1C7
100
AcDbEntity
  8
P-SANR-FIXT
100
AcDbPolyline
 90
        3
 70
   128
 43
0.0
 10
863.4158268512893
 20
1232.069007611763
 10
852.4730850118968
 20
1231.341281026819
 10
843.9883193367561
 20
1232.05186277393
  0
LWPOLYLINE
  5
21D
330
1C7
100
AcDbEntity
  8
P-SANR-FIXT
100
AcDbPolyline
 90
        8
 70
   128
 43
0.0
 10
863.4158268512893
 20
1232.069007611763
 10
874.1354232559507
 20
1234.40334360416
 10
883.7938967963268
 20
1238.206039759283
 10
891.7257752588902
 20
1243.142593837974
 10
897.6900487368933
 20
1248.815621822023
 10
899.9495991049572
 20
1251.794825259954
 10
902.9255802416402
 20
1257.109352095353
 10
903.1229379604287
 20
1257.652739512928
  0
LINE
  5
21E
330
1C7
100
AcDbEntity
  8
P-SANR-FIXT
100
AcDbLine
 10
944.1736543264065
 20
1306.747075844253
 30
0.0
 11
875.280858964003
 21
1306.747075844253
 31
0.0
  0
LINE
  5
21F
330
1C7
100
AcDbEntity
  8
P-SANR-FIXT
100
AcDbLine
 10
875.2808589640077
 20
1286.747075844253
 30
0.0
 11
944.1736543264065
 21
1286.747075844252
 31
0.0
  0
LWPOLYLINE
  5
220
330
1C7
100
AcDbEntity
  8
P-SANR-FIXT
100
AcDbPolyline
 90
       10
 70
   128
 43
0.0
 10
829.1249977885234
 20
1361.503238117458
 10
826.6015117649676
 20
1361.450981247148
 10
824.0821764763348
 20
1361.294301306594
 10
821.5711341884011
 20
1361.033470040062
 10
819.0725102769798
 20
1360.668939468237
 10
816.5904049027865
 20
1360.20134056931
 10
814.1288848274145
 20
1359.631481453642
 10
811.6919754130464
 20
1358.960345052426
 10
809.2836528449701
 20
1358.189086345601
 10
808.6301632140424
 20
1357.949769288079
  0
LWPOLYLINE
  5
221
330
1C7
100
AcDbEntity
  8
P-SANR-FIXT
100
AcDbPolyline
 90
       11
 70
   128
 43
0.0
 10
808.6109617310899
 20
1235.546121573392
 10
808.8999783340545
 20
1235.438113027976
 10
811.3033452638042
 20
1234.650900934119
 10
813.7359322363716
 20
1233.963609923358
 10
816.1937716683182
 20
1233.377422306525
 10
818.6728455739684
 20
1232.893348831701
 10
821.1690933037656
 20
1232.512225840806
 10
823.6784195113218
 20
1232.234712882478
 10
826.196702310737
 20
1232.061290807211
 10
828.7198015820798
 20
1231.992260365996
 10
829.1249977885287
 20
1231.990913571031
  0
LWPOLYLINE
  5
222
330
1C7
100
AcDbEntity
  8
P-SANR-FIXT
100
AcDbPolyline
 90
       37
 70
   128
 43
0.0
 10
904.727254132009
 20
1306.747079362519
 10
904.2916415728344
 20
1309.287486374922
 10
903.7581509976732
 20
1311.80829255428
 10
903.127577349022
 20
1314.305546345307
 10
902.4008616816571
 20
1316.775326820408
 10
901.5790904792362
 20
1319.213748939502
 10
900.6634948505647
 20
1321.616968838504
 10
899.6554495992128
 20
1323.981189150126
 10
898.5564721590471
 20
1326.30266436032
 10
897.3682213870375
 20
1328.577706203172
 10
896.0924962034793
 20
1330.802689096372
 10
894.731234068479
 20
1332.974055618481
 10
893.2865092823147
 20
1335.088322028145
 10
891.760531096037
 20
1337.142083823981
 10
890.1556416175644
 20
1339.132021342267
 10
888.4743134975124
 20
1341.054905387651
 10
886.7191473782083
 20
1342.907602889876
 10
884.8928690887902
 20
1344.687082577102
 10
882.9983265690804
 20
1346.390420653675
 10
881.038486505067
 20
1348.014806467319
 10
879.0164306594478
 20
1349.557548147646
 10
876.9353518817794
 20
1351.016078194752
 10
874.7985497844164
 20
1352.387958993538
 10
872.6094260726277
 20
1353.670888226292
 10
870.3714795200614
 20
1354.862704153257
 10
868.0883005840705
 20
1355.961390728295
 10
865.7635656593093
 20
1356.965082514653
 10
863.4010309723693
 20
1357.872069364183
 10
861.0045261249924
 20
1358.680800822375
 10
858.5779472984714
 20
1359.389890221319
 10
856.1252501370752
 20
1359.998118423182
 10
853.6504423336101
 20
1360.504437178179
 10
851.1575759453805
 20
1360.907972063202
 10
848.650739473658
 20
1361.208024970356
 10
846.1340497442083
 20
1361.404076118496
 10
843.6116436302356
 20
1361.495785565431
 10
842.6585031956907
 20
1361.503238117458
  0
LWPOLYLINE
  5
223
330
1C7
100
AcDbEntity
  8
P-SANR-FIXT
100
AcDbPolyline
 90
       37
 70
   128
 43
0.0
 10
842.6585031956962
 20
1231.990913571032
 10
845.1819892192517
 20
1232.043170441341
 10
847.7013245078847
 20
1232.199850381896
 10
850.2123667958183
 20
1232.460681648428
 10
852.7109907072397
 20
1232.825212220252
 10
855.1930960814329
 20
1233.292811119179
 10
857.654616156805
 20
1233.862670234847
 10
860.0915255711731
 20
1234.533806636062
 10
862.4998481392495
 20
1235.305065342887
 10
864.875664372477
 20
1236.17512253009
 10
867.2151187110809
 20
1237.14248912918
 10
869.5144264432563
 20
1238.205514793739
 10
871.7698802916599
 20
1239.36239219105
 10
873.9778566526304
 20
1240.611161582236
 10
876.1348214787181
 20
1241.949715653076
 10
878.237335799994
 20
1243.3758045584
 10
880.2820608841335
 20
1244.887041144366
 10
882.265763039355
 20
1246.480906314912
 10
884.1853180678427
 20
1248.154754511028
 10
886.0377153802826
 20
1249.905819274347
 10
887.820061784569
 20
1251.731218869469
 10
889.529584963574
 20
1253.627961942614
 10
891.1636366581817
 20
1255.59295319733
 10
892.7196955725767
 20
1257.622999071073
 10
894.1953700190811
 20
1259.714813399444
 10
895.5884003197722
 20
1261.865023057678
 10
896.8966609816632
 20
1264.070173571468
 10
898.1181626615377
 20
1266.326734691571
 10
899.25105393558
 20
1268.631105928603
 10
900.293622887874
 20
1270.979622046203
 10
901.2442985306329
 20
1273.368558512197
 10
902.1016520677846
 20
1275.794136908603
 10
902.8643980122534
 20
1278.252530302301
 10
903.5313951660398
 20
1280.739868578927
 10
904.1016474709785
 20
1283.252243743142
 10
904.5743047369033
 20
1285.785715188828
 10
904.7272541320113
 20
1286.747072325986
  0
LINE
  5
224
330
1C7
100
AcDbEntity
  8
P-SANR-FIXT
100
AcDbLine
 10
883.3379644536234
 20
1418.6990365275
 30
0.0
 11
882.7586425517573
 21
1418.6990365275
 31
0.0
  0
LINE
  5
225
330
1C7
100
AcDbEntity
  8
P-SANR-FIXT
100
AcDbLine
 10
882.7586425517676
 20
1174.795115160993
 30
0.0
 11
883.3379644536334
 21
1174.795115160993
 31
0.0
  0
LINE
  5
226
330
1C7
100
AcDbEntity
  8
P-SANR-FIXT
100
AcDbLine
 10
881.9821854164498
 20
1418.699036527499
 30
0.0
 11
881.0496317194111
 21
1418.699036527499
 31
0.0
  0
LINE
  5
227
330
1C7
100
AcDbEntity
  8
P-SANR-FIXT
100
AcDbLine
 10
881.0496317194214
 20
1174.795115160994
 30
0.0
 11
881.9821854164599
 21
1174.795115160994
 31
0.0
  0
LINE
  5
228
330
1C7
100
AcDbEntity
  8
P-SANR-FIXT
100
AcDbLine
 10
882.7586425517573
 20
1415.6990365275
 30
0.0
 11
881.9821854164496
 21
1415.699036527499
 31
0.0
  0
LINE
  5
229
330
1C7
100
AcDbEntity
  8
P-SANR-FIXT
100
AcDbLine
 10
881.9821854164599
 20
1177.795115160994
 30
0.0
 11
882.7586425517676
 21
1177.795115160994
 31
0.0
  0
LINE
  5
22A
330
1C7
100
AcDbEntity
  8
P-SANR-FIXT
100
AcDbLine
 10
1035.666407443177
 20
1376.747075844234
 30
0.0
 11
1032.666407443181
 21
1376.747075844234
 31
0.0
  0
LINE
  5
22B
330
1C7
100
AcDbEntity
  8
P-SANR-FIXT
100
AcDbLine
 10
1032.66640744318
 20
1216.747075844254
 30
0.0
 11
1035.666407443176
 21
1216.747075844254
 31
0.0
  0
LINE
  5
22C
330
1C7
100
AcDbEntity
  8
P-SANR-FIXT
100
AcDbLine
 10
1032.666407443181
 20
1406.747075844244
 30
0.0
 11
1015.666407443181
 21
1406.747075844244
 31
0.0
  0
LINE
  5
22D
330
1C7
100
AcDbEntity
  8
P-SANR-FIXT
100
AcDbLine
 10
1015.66640744318
 20
1186.747075844244
 30
0.0
 11
1032.66640744318
 21
1186.747075844244
 31
0.0
  0
ELLIPSE
  5
22E
330
1C7
100
AcDbEntity
  8
P-SANR-FIXT
100
AcDbEllipse
 10
798.9121885037872
 20
1296.747075844243
 30
0.0
 11
0.0
 21
24.17657148519333
 31
0.0
210
0.0
220
0.0
230
0.9999999999999998
 40
0.9659258262890704
 41
4.712388980384685
 42
7.853981633974474
  0
LINE
  5
22F
330
1C7
100
AcDbEntity
  8
P-SANR-FIXT
100
AcDbLine
 10
685.6664074431985
 20
1296.747075844244
 30
0.0
 11
685.6664074431988
 21
1376.747075844205
 31
0.0
  0
LINE
  5
230
330
1C7
100
AcDbEntity
  8
P-SANR-FIXT
100
AcDbLine
 10
685.666407443198
 20
1216.747075844286
 30
0.0
 11
685.6664074431985
 21
1296.747075844244
 31
0.0
  0
LINE
  5
231
330
1C7
100
AcDbEntity
  8
P-SANR-FIXT
100
AcDbLine
 10
688.6664074431948
 20
1296.747075844244
 30
0.0
 11
688.6664074431953
 21
1406.74707584425
 31
0.0
  0
LINE
  5
232
330
1C7
100
AcDbEntity
  8
P-SANR-FIXT
100
AcDbLine
 10
688.6664074431942
 20
1186.747075844241
 30
0.0
 11
688.6664074431948
 21
1296.747075844244
 31
0.0
  0
LINE
  5
233
330
1C7
100
AcDbEntity
  8
P-SANR-FIXT
100
AcDbLine
 10
705.6664074431948
 20
1310.031626793544
 30
0.0
 11
705.6664074431953
 21
1406.746254706653
 31
0.0
  0
LINE
  5
234
330
1C7
100
AcDbEntity
  8
P-SANR-FIXT
100
AcDbLine
 10
705.6664074431942
 20
1186.747896981838
 30
0.0
 11
705.6664074431948
 21
1283.462524894951
 31
0.0
  0
SPLINE
  5
235
330
1C7
100
AcDbEntity
  8
P-SANR-FIXT
100
AcDbSpline
210
0.0
220
0.0
230
1.0
 70
     8
 71
     3
 72
    55
 73
    51
 74
     0
 42
0.000000001
 43
0.0000000001
 40
0.0
 40
0.0
 40
0.0
 40
0.0
 40
0.0555555555555556
 40
0.0833333333333333
 40
0.0972222222222222
 40
0.1111111111111111
 40
0.125
 40
0.1388888888888889
 40
0.1666666666666666
 40
0.1944444444444444
 40
0.2083333333333333
 40
0.2152777777777778
 40
0.2222222222222222
 40
0.2291666666666666
 40
0.2361111111111111
 40
0.25
 40
0.2777777777777778
 40
0.3055555555555556
 40
0.3194444444444444
 40
0.3333333333333333
 40
0.3472222222222222
 40
0.3611111111111111
 40
0.3888888888888888
 40
0.4166666666666666
 40
0.4444444444444445
 40
0.5
 40
0.5555555555555556
 40
0.5833333333333334
 40
0.6111111111111112
 40
0.6388888888888889
 40
0.6527777777777777
 40
0.6666666666666666
 40
0.6805555555555556
 40
0.6944444444444445
 40
0.7222222222222223
 40
0.75
 40
0.7638888888888889
 40
0.7708333333333333
 40
0.7777777777777778
 40
0.7847222222222224
 40
0.7916666666666668
 40
0.8055555555555555
 40
0.8333333333333332
 40
0.861111111111111
 40
0.875
 40
0.8888888888888889
 40
0.9027777777777776
 40
0.9166666666666666
 40
0.9444444444444444
 40
1.0
 40
1.0
 40
1.0
 40
1.0
 10
905.1716799028033
 20
1304.747075844253
 30
0.0
 10
904.8015762606034
 20
1304.747075844253
 30
0.0
 10
904.3094856224275
 20
1304.711368004768
 30
0.0
 10
903.8454867260202
 20
1304.586385224635
 30
0.0
 10
903.6120968513516
 20
1304.488085988448
 30
0.0
 10
903.4521241772194
 20
1304.400464197457
 30
0.0
 10
903.3105203242756
 20
1304.29715039675
 30
0.0
 10
903.1479954471523
 20
1304.13630629081
 30
0.0
 10
902.9871654694305
 20
1303.891912277684
 30
0.0
 10
902.8702985655231
 20
1303.591899762905
 30
0.0
 10
902.8044952884659
 20
1303.356933830547
 30
0.0
 10
902.7706810022401
 20
1303.216380149498
 30
0.0
 10
902.7464414389807
 20
1303.108238142111
 30
0.0
 10
902.7252327677944
 20
1302.996934913509
 30
0.0
 10
902.7033427280123
 20
1302.843462663478
 30
0.0
 10
902.6785683253942
 20
1302.56243378171
 30
0.0
 10
902.6749702030974
 20
1302.126651712061
 30
0.0
 10
902.6920760157324
 20
1301.65080434628
 30
0.0
 10
902.7063152218165
 20
1301.250223441862
 30
0.0
 10
902.7122331019468
 20
1300.941235240168
 30
0.0
 10
902.7178375651804
 20
1300.624126863929
 30
0.0
 10
902.7332532256851
 20
1300.190280933816
 30
0.0
 10
902.7591479777866
 20
1299.629444777484
 30
0.0
 10
902.7923040892163
 20
1298.932133998344
 30
0.0
 10
902.8200250796997
 20
1297.977617018516
 30
0.0
 10
902.8260377219737
 20
1296.752519246955
 30
0.0
 10
902.8202516816618
 20
1295.52726507423
 30
0.0
 10
902.7926318307791
 20
1294.572343861355
 30
0.0
 10
902.7595640662051
 20
1293.874594952388
 30
0.0
 10
902.7336908890683
 20
1293.313354101126
 30
0.0
 10
902.7182400732309
 20
1292.879195088069
 30
0.0
 10
902.712578903473
 20
1292.561846860238
 30
0.0
 10
902.7065577405142
 20
1292.252688135447
 30
0.0
 10
902.6921210799834
 20
1291.851986618445
 30
0.0
 10
902.6746934124931
 20
1291.376007745293
 30
0.0
 10
902.6779489769936
 20
1290.939830244491
 30
0.0
 10
902.7025162440319
 20
1290.658285569951
 30
0.0
 10
902.7243025132831
 20
1290.504443485984
 30
0.0
 10
902.7454444580218
 20
1290.392825665377
 30
0.0
 10
902.7696206003364
 20
1290.284325722737
 30
0.0
 10
902.8033439636248
 20
1290.143243502581
 30
0.0
 10
902.8689837735146
 20
1289.907257889667
 30
0.0
 10
902.9856253541757
 20
1289.605705413052
 30
0.0
 10
903.1463092153543
 20
1289.360040214445
 30
0.0
 10
903.3088027576859
 20
1289.198448478624
 30
0.0
 10
903.4504400001706
 20
1289.094723683178
 30
0.0
 10
903.6104961438425
 20
1289.006797972752
 30
0.0
 10
903.8440417451852
 20
1288.908172922855
 30
0.0
 10
904.3084441368366
 20
1288.782833470788
 30
0.0
 10
904.8011006863127
 20
1288.747075844253
 30
0.0
 10
905.1716799028033
 20
1288.747075844253
 30
0.0
  0
SPLINE
  5
236
330
1C7
100
AcDbEntity
  8
P-SANR-FIXT
100
AcDbSpline
210
0.0
220
0.0
230
1.0
 70
     8
 71
     3
 72
     9
 73
     5
 74
     0
 42
0.000000001
 43
0.0000000001
 40
0.0949747710767099
 40
0.0949747710767099
 40
0.0949747710767099
 40
0.0949747710767099
 40
0.0972222222222222
 40
0.1111111111111111
 40
0.1111111111111111
 40
0.1111111111111111
 40
0.1111111111111111
 10
716.5498681590502
 20
1304.379588388914
 30
0.0
 10
716.5533888605185
 20
1304.37391781293
 30
0.0
 10
716.5788722079634
 20
1304.332756416865
 30
0.0
 10
716.6057924395446
 20
1304.288392724881
 30
0.0
 10
716.630719753835
 20
1304.247952424969
 30
0.0
  0
SPLINE
  5
237
330
1C7
100
AcDbEntity
  8
P-SANR-FIXT
100
AcDbSpline
210
0.0
220
0.0
230
1.0
 70
     8
 71
     3
 72
     8
 73
     4
 74
     0
 42
0.000000001
 43
0.0000000001
 40
0.1851851851851852
 40
0.1851851851851852
 40
0.1851851851851852
 40
0.1851851851851852
 40
0.1871723626517359
 40
0.1871723626517359
 40
0.1871723626517359
 40
0.1871723626517359
 10
717.1586822676636
 20
1303.41933259818
 30
0.0
 10
717.1640480270099
 20
1303.410355815542
 30
0.0
 10
717.1694166570467
 20
1303.40133801197
 30
0.0
 10
717.1747870296574
 20
1303.392279248172
 30
0.0
  0
SPLINE
  5
238
330
1C7
100
AcDbEntity
  8
P-SANR-FIXT
100
AcDbSpline
210
0.0
220
0.0
230
1.0
 70
     8
 71
     3
 72
     8
 73
     4
 74
     0
 42
0.000000001
 43
0.0000000001
 40
0.191804921298419
 40
0.191804921298419
 40
0.191804921298419
 40
0.191804921298419
 40
0.1925557192601895
 40
0.1925557192601895
 40
0.1925557192601895
 40
0.1925557192601895
 10
717.2123597954632
 20
1303.328258146889
 30
0.0
 10
717.2143895898885
 20
1303.324763523248
 30
0.0
 10
717.2164192576498
 20
1303.321263072781
 30
0.0
 10
717.2184487379038
 20
1303.317756798763
 30
0.0
  0
SPLINE
  5
239
330
1C7
100
AcDbEntity
  8
P-SANR-FIXT
100
AcDbSpline
210
0.0
220
0.0
230
1.0
 70
     8
 71
     3
 72
     8
 73
     4
 74
     0
 42
0.000000001
 43
0.0000000001
 40
0.252822078167664
 40
0.252822078167664
 40
0.252822078167664
 40
0.252822078167664
 40
0.2592592592592593
 40
0.2592592592592593
 40
0.2592592592592593
 40
0.2592592592592593
 10
717.6970765086085
 20
1302.36523981237
 30
0.0
 10
717.7147234797722
 20
1302.327816973233
 30
0.0
 10
717.7324201414844
 20
1302.29003963133
 30
0.0
 10
717.7501345775993
 20
1302.251909299968
 30
0.0
  0
SPLINE
  5
23A
330
1C7
100
AcDbEntity
  8
P-SANR-FIXT
100
AcDbSpline
210
0.0
220
0.0
230
1.0
 70
     8
 71
     3
 72
     9
 73
     5
 74
     0
 42
0.000000001
 43
0.0000000001
 40
0.2962962962962963
 40
0.2962962962962963
 40
0.2962962962962963
 40
0.2962962962962963
 40
0.3055555555555556
 40
0.3093090651934252
 40
0.3093090651934252
 40
0.3093090651934252
 40
0.3093090651934252
 10
718.0515652282008
 20
1301.558942253951
 30
0.0
 10
718.0758094264555
 20
1301.498305925089
 30
0.0
 10
718.1093918885612
 20
1301.412074520214
 30
0.0
 10
718.1420930492942
 20
1301.324417079143
 30
0.0
 10
718.1514408675229
 20
1301.299013230288
 30
0.0
  0
SPLINE
  5
23B
330
1C7
100
AcDbEntity
  8
P-SANR-FIXT
100
AcDbSpline
210
0.0
220
0.0
230
1.0
 70
     8
 71
     3
 72
     9
 73
     5
 74
     0
 42
0.000000001
 43
0.0000000001
 40
0.3607327859800188
 40
0.3607327859800188
 40
0.3607327859800188
 40
0.3607327859800188
 40
0.3611111111111111
 40
0.3703703703703703
 40
0.3703703703703703
 40
0.3703703703703703
 40
0.3703703703703703
 10
718.4901249911438
 20
1300.189865104973
 30
0.0
 10
718.4908889746095
 20
1300.186999460821
 30
0.0
 10
718.5103380590314
 20
1300.113974547527
 30
0.0
 10
718.5294522138534
 20
1300.040326500338
 30
0.0
 10
718.5474491609859
 20
1299.969026856345
 30
0.0
  0
SPLINE
  5
23C
330
1C7
100
AcDbEntity
  8
P-SANR-FIXT
100
AcDbSpline
210
0.0
220
0.0
230
1.0
 70
     8
 71
     3
 72
     8
 73
     4
 74
     0
 42
0.000000001
 43
0.0000000001
 40
0.4074074074074074
 40
0.4074074074074074
 40
0.4074074074074074
 40
0.4074074074074074
 40
0.4088582201905396
 40
0.4088582201905396
 40
0.4088582201905396
 40
0.4088582201905396
 10
718.7418143139062
 20
1299.089596734305
 30
0.0
 10
718.7440066163467
 20
1299.077836638003
 30
0.0
 10
718.7461824410684
 20
1299.066067227542
 30
0.0
 10
718.7483414248759
 20
1299.054288691936
 30
0.0
  0
SPLINE
  5
23D
330
1C7
100
AcDbEntity
  8
P-SANR-FIXT
100
AcDbSpline
210
0.0
220
0.0
230
1.0
 70
     8
 71
     3
 72
     8
 73
     4
 74
     0
 42
0.000000001
 43
0.0000000001
 40
0.4444444444444445
 40
0.4444444444444445
 40
0.4444444444444445
 40
0.4444444444444445
 40
0.4549334494200112
 40
0.4549334494200112
 40
0.4549334494200112
 40
0.4549334494200112
 10
718.8742582332479
 20
1298.172548198298
 30
0.0
 10
718.8833730695177
 20
1298.084475559401
 30
0.0
 10
718.8915417665193
 20
1297.995978504556
 30
0.0
 10
718.898793721882
 20
1297.907131377291
 30
0.0
  0
SPLINE
  5
23E
330
1C7
100
AcDbEntity
  8
P-SANR-FIXT
100
AcDbSpline
210
0.0
220
0.0
230
1.0
 70
     8
 71
     3
 72
     8
 73
     4
 74
     0
 42
0.000000001
 43
0.0000000001
 40
0.5451667350351887
 40
0.5451667350351887
 40
0.5451667350351887
 40
0.5451667350351887
 40
0.5555555555555556
 40
0.5555555555555556
 40
0.5555555555555556
 40
0.5555555555555556
 10
718.8984526432025
 20
1295.586852086667
 30
0.0
 10
718.8914123075936
 20
1295.498916686701
 30
0.0
 10
718.8834641528408
 20
1295.411322031211
 30
0.0
 10
718.8745282636252
 20
1295.324107707786
 30
0.0
  0
SPLINE
  5
23F
330
1C7
100
AcDbEntity
  8
P-SANR-FIXT
100
AcDbSpline
210
0.0
220
0.0
230
1.0
 70
     8
 71
     3
 72
     8
 73
     4
 74
     0
 42
0.000000001
 43
0.0000000001
 40
0.5912225452308558
 40
0.5912225452308558
 40
0.5912225452308558
 40
0.5912225452308558
 40
0.5925925925925926
 40
0.5925925925925926
 40
0.5925925925925926
 40
0.5925925925925926
 10
718.7482872323833
 20
1294.439892992264
 30
0.0
 10
718.7462478824709
 20
1294.428762521474
 30
0.0
 10
718.7441936414359
 20
1294.417640249301
 30
0.0
 10
718.742124770811
 20
1294.406526333569
 30
0.0
  0
SPLINE
  5
240
330
1C7
100
AcDbEntity
  8
P-SANR-FIXT
100
AcDbSpline
210
0.0
220
0.0
230
1.0
 70
     8
 71
     3
 72
     9
 73
     5
 74
     0
 42
0.000000001
 43
0.0000000001
 40
0.6296296296296296
 40
0.6296296296296296
 40
0.6296296296296296
 40
0.6296296296296296
 40
0.6388888888888889
 40
0.6393235910347832
 40
0.6393235910347832
 40
0.6393235910347832
 40
0.6393235910347832
 10
718.5475301599798
 20
1293.526487955485
 30
0.0
 10
718.5295432640756
 20
1293.455140995275
 30
0.0
 10
718.5103761978369
 20
1293.381012380067
 30
0.0
 10
718.4909596244384
 20
1293.307513073172
 30
0.0
 10
718.4900884310683
 20
1293.304218445118
 30
0.0
  0
SPLINE
  5
241
330
1C7
100
AcDbEntity
  8
P-SANR-FIXT
100
AcDbSpline
210
0.0
220
0.0
230
1.0
 70
     8
 71
     3
 72
     9
 73
     5
 74
     0
 42
0.000000001
 43
0.0000000001
 40
0.6907529344146221
 40
0.6907529344146221
 40
0.6907529344146221
 40
0.6907529344146221
 40
0.6944444444444445
 40
0.7037037037037035
 40
0.7037037037037035
 40
0.7037037037037035
 40
0.7037037037037035
 10
718.151459341983
 20
1292.195090612461
 30
0.0
 10
718.1422682714589
 20
1292.17012591888
 30
0.0
 10
718.1097352887807
 20
1292.082950515965
 30
0.0
 10
718.0763428714745
 20
1291.997193454891
 30
0.0
 10
718.0521240608452
 20
1291.936603813951
 30
0.0
  0
SPLINE
  5
242
330
1C7
100
AcDbEntity
  8
P-SANR-FIXT
100
AcDbSpline
210
0.0
220
0.0
230
1.0
 70
     8
 71
     3
 72
     8
 73
     4
 74
     0
 42
0.000000001
 43
0.0000000001
 40
0.7407407407407405
 40
0.7407407407407405
 40
0.7407407407407405
 40
0.7407407407407405
 40
0.7472923915544806
 40
0.7472923915544806
 40
0.7472923915544806
 40
0.7472923915544806
 10
717.7510189811609
 20
1291.244152031787
 30
0.0
 10
717.7330044312597
 20
1291.205365401952
 30
0.0
 10
717.7150073137173
 20
1291.166941906857
 30
0.0
 10
717.6970612950116
 20
1291.128882621912
 30
0.0
  0
SPLINE
  5
243
330
1C7
100
AcDbEntity
  8
P-SANR-FIXT
100
AcDbSpline
210
0.0
220
0.0
230
1.0
 70
     8
 71
     3
 72
     8
 73
     4
 74
     0
 42
0.000000001
 43
0.0000000001
 40
0.8129231976316253
 40
0.8129231976316253
 40
0.8129231976316253
 40
0.8129231976316253
 40
0.8148148148148145
 40
0.8148148148148145
 40
0.8148148148148145
 40
0.8148148148148145
 10
717.1748440377235
 20
1290.101973085296
 30
0.0
 10
717.1697265870939
 20
1290.093341211276
 30
0.0
 10
717.1646106648154
 20
1290.084746357625
 30
0.0
 10
717.1594972549475
 20
1290.07618859845
 30
0.0
  0
SPLINE
  5
244
330
1C7
100
AcDbEntity
  8
P-SANR-FIXT
100
AcDbSpline
210
0.0
220
0.0
230
1.0
 70
     8
 71
     3
 72
     9
 73
     5
 74
     0
 42
0.000000001
 43
0.0000000001
 40
0.8888888888888889
 40
0.8888888888888889
 40
0.8888888888888889
 40
0.8888888888888889
 40
0.9027777777777776
 40
0.9050441683140862
 40
0.9050441683140862
 40
0.9050441683140862
 40
0.9050441683140862
 10
716.6308640998858
 20
1289.246410263913
 30
0.0
 10
716.6059138549536
 20
1289.205937994525
 30
0.0
 10
716.5787862575293
 20
1289.161164312027
 30
0.0
 10
716.5534604829274
 20
1289.120369446986
 30
0.0
 10
716.5499385794947
 20
1289.114713893372
 30
0.0
  0
ELLIPSE
  5
245
330
1C7
100
AcDbEntity
  8
P-SANR-FIXT
100
AcDbEllipse
 10
798.9121885037872
 20
1296.747075844243
 30
0.0
 11
0.0
 21
24.17657148519356
 31
0.0
210
0.0
220
0.0
230
0.9999999999999998
 40
0.9659258262890613
 41
1.570796326794898
 42
4.712388980384685
  0
ELLIPSE
  5
246
330
1C7
100
AcDbEntity
  8
P-SANR-FIXT
100
AcDbEllipse
 10
801.5003789548124
 20
1296.747075844243
 30
0.0
 11
0.0000000000033921
 21
36.17657148519334
 31
0.0
210
0.0
220
0.0
230
1.0
 40
0.965925826289072
 41
4.712388980384774
 42
7.85398163397456
  0
ELLIPSE
  5
247
330
1C7
100
AcDbEntity
  8
P-SANR-FIXT
100
AcDbEllipse
 10
801.5003789548124
 20
1296.747075844243
 30
0.0
 11
0.0
 21
36.17657148519334
 31
0.0
210
0.0
220
0.0
230
1.0
 40
0.965925826289072
 41
1.570796326794891
 42
4.712388980384685
  0
ELLIPSE
  5
248
330
1C7
100
AcDbEntity
  8
P-SANR-FIXT
100
AcDbEllipse
 10
802.2768360901199
 20
1296.747075844243
 30
0.0
 11
0.0
 21
36.17657148519311
 31
0.0
210
0.0
220
0.0
230
1.0
 40
0.965925826289075
 41
4.712388980384679
 42
6.195918844579862
  0
ELLIPSE
  5
249
330
1C7
100
AcDbEntity
  8
P-SANR-FIXT
100
AcDbEllipse
 10
802.2768360901199
 20
1296.747075844243
 30
0.0
 11
0.0
 21
36.17657148519356
 31
0.0
210
0.0
220
0.0
230
1.0
 40
0.9659258262890627
 41
3.141592653589827
 42
3.149990052531622
  0
ELLIPSE
  5
24A
330
1C7
100
AcDbEntity
  8
P-SANR-FIXT
100
AcDbEllipse
 10
802.2768360901199
 20
1296.747075844243
 30
0.0
 11
0.0
 21
36.17657148519338
 31
0.0
210
0.0
220
0.0
230
1.0
 40
0.965925826289069
 41
3.228859116189501
 42
4.712388980384679
  0
ELLIPSE
  5
24B
330
1C7
100
AcDbEntity
  8
P-SANR-FIXT
100
AcDbEllipse
 10
802.2768360901199
 20
1296.747075844243
 30
0.0
 11
0.0
 21
37.67657148519333
 31
0.0
210
0.0
220
0.0
230
1.0
 40
0.9659258262890698
 41
4.712388980384679
 42
7.853981633974472
  0
ELLIPSE
  5
24C
330
1C7
100
AcDbEntity
  8
P-SANR-FIXT
100
AcDbEllipse
 10
802.2768360901199
 20
1296.747075844243
 30
0.0
 11
0.0000000000001194
 21
37.67657148519357
 31
0.0
210
0.0
220
0.0
230
1.0
 40
0.96592582628907
 41
1.570796326794893
 42
4.71238898038468
  0
ELLIPSE
  5
24D
330
1C7
100
AcDbEntity
  8
P-SANR-FIXT
100
AcDbEllipse
 10
804.0844763888934
 20
1296.747075844243
 30
0.0
 11
0.0
 21
46.0
 31
0.0
210
0.0
220
0.0
230
1.0
 40
0.9659258262890697
 41
4.712388980384675
 42
7.853981633974474
  0
ELLIPSE
  5
24E
330
1C7
100
AcDbEntity
  8
P-SANR-FIXT
100
AcDbEllipse
 10
804.0844763888934
 20
1296.747075844243
 30
0.0
 11
0.0
 21
46.0
 31
0.0
210
0.0
220
0.0
230
1.0
 40
0.9659258262890672
 41
1.570796326794893
 42
4.712388980384675
  0
ELLIPSE
  5
24F
330
1C7
100
AcDbEntity
  8
P-SANR-FIXT
100
AcDbEllipse
 10
811.5253027215551
 20
1296.747075844243
 30
0.0
 11
0.0000000000018107
 21
46.00000000000022
 31
0.0
210
0.0
220
0.0
230
1.0
 40
0.9659258262890649
 41
4.712388980384716
 42
6.283185307179619
  0
ELLIPSE
  5
250
330
1C7
100
AcDbEntity
  8
P-SANR-FIXT
100
AcDbEllipse
 10
811.5253027215551
 20
1296.747075844243
 30
0.0
 11
0.0
 21
45.99999999999977
 31
0.0
210
0.0
220
0.0
230
1.0
 40
0.9659258262890745
 41
3.141592653589826
 42
4.712388980384679
  0
LINE
  5
251
330
1C7
100
AcDbEntity
  8
P-SANR-FIXT
100
AcDbLine
 10
868.2502066854386
 20
1296.747075844253
 30
0.0
 11
864.5914704854428
 21
1340.041855826092
 31
0.0
  0
ELLIPSE
  5
252
330
1C7
100
AcDbEntity
  8
P-SANR-FIXT
100
AcDbEllipse
 10
845.8841020800777
 20
1335.051067771406
 30
0.0
 11
0.0
 21
20.00000000000014
 31
0.0
210
0.0
220
0.0
230
1.0
 40
0.9659258262890608
 41
4.964593561909058
 42
6.248278722139689
  0
LINE
  5
253
330
1C7
100
AcDbEntity
  8
P-SANR-FIXT
100
AcDbLine
 10
846.5583085838664
 20
1355.038884311787
 30
0.0
 11
811.5253027215548
 21
1358.211996344587
 31
0.0
  0
LINE
  5
254
330
1C7
100
AcDbEntity
  8
P-SANR-FIXT
100
AcDbLine
 10
811.5253027215548
 20
1358.211996344587
 30
0.0
 11
776.4922968592435
 21
1355.038884311788
 31
0.0
  0
ELLIPSE
  5
255
330
1C7
100
AcDbEntity
  8
P-SANR-FIXT
100
AcDbEllipse
 10
777.1665033630324
 20
1335.051067771406
 30
0.0
 11
0.0
 21
20.00000000000012
 31
0.0
210
0.0
220
0.0
230
1.0
 40
0.9659258262890599
 41
0.0349065850398873
 42
1.484211842610109
  0
LINE
  5
256
330
1C7
100
AcDbEntity
  8
P-SANR-FIXT
100
AcDbLine
 10
757.9203558400505
 20
1336.780594556433
 30
0.0
 11
754.563792848615
 21
1296.747075844254
 31
0.0
  0
LINE
  5
257
330
1C7
100
AcDbEntity
  8
P-SANR-FIXT
100
AcDbLine
 10
754.563792848615
 20
1296.747075844254
 30
0.0
 11
757.8597551555494
 21
1257.745093983051
 31
0.0
  0
ELLIPSE
  5
258
330
1C7
100
AcDbEntity
  8
P-SANR-FIXT
100
AcDbEllipse
 10
777.1665033630322
 20
1258.443083917102
 30
0.0
 11
0.0
 21
20.00000000000011
 31
0.0
210
0.0
220
0.0
230
1.0
 40
0.9659258262890654
 41
1.605702911834773
 42
3.106686068549873
  0
LINE
  5
259
330
1C7
100
AcDbEntity
  8
P-SANR-FIXT
100
AcDbLine
 10
776.4922968592433
 20
1238.45526737672
 30
0.0
 11
811.5253027215551
 21
1235.28215534392
 31
0.0
  0
LINE
  5
25A
330
1C7
100
AcDbEntity
  8
P-SANR-FIXT
100
AcDbLine
 10
811.5253027215551
 20
1235.28215534392
 30
0.0
 11
847.8236200647938
 21
1239.231844628499
 31
0.0
  0
ELLIPSE
  5
25B
330
1C7
100
AcDbEntity
  8
P-SANR-FIXT
100
AcDbEllipse
 10
841.2145919621956
 20
1263.277316516328
 30
0.0
 11
0.0
 21
25.00000000000005
 31
0.0
210
0.0
220
0.0
230
1.0
 40
0.9659258262890663
 41
3.41881673420711
 42
4.677482395344771
  0
LINE
  5
25C
330
1C7
100
AcDbEntity
  8
P-SANR-FIXT
100
AcDbLine
 10
865.3480272215489
 20
1262.404829098765
 30
0.0
 11
868.2502066854386
 21
1296.747075844253
 31
0.0
  0
SPLINE
  5
25D
330
1C7
100
AcDbEntity
  8
P-SANR-FIXT
100
AcDbSpline
210
0.0
220
0.0
230
1.0
 70
     8
 71
     3
 72
     9
 73
     5
 74
     0
 42
0.000000001
 43
0.0000000001
 40
0.6666666666666666
 40
0.6666666666666666
 40
0.6666666666666666
 40
0.6666666666666666
 40
0.8333333333333332
 40
1.0
 40
1.0
 40
1.0
 40
1.0
 10
873.9165598201855
 20
1306.336884504073
 30
0.0
 10
874.1300108980507
 20
1306.478426334678
 30
0.0
 10
874.5726854508001
 20
1306.681890060293
 30
0.0
 10
875.0400540729529
 20
1306.749268226494
 30
0.0
 10
875.2808589640016
 20
1306.747075844253
 30
0.0
  0
SPLINE
  5
25E
330
1C7
100
AcDbEntity
  8
P-SANR-FIXT
100
AcDbSpline
210
0.0
220
0.0
230
1.0
 70
     8
 71
     3
 72
     9
 73
     5
 74
     0
 42
0.000000001
 43
0.0000000001
 40
0.0
 40
0.0
 40
0.0
 40
0.0
 40
0.1666666666666666
 40
0.3333333333333333
 40
0.3333333333333333
 40
0.3333333333333333
 40
0.3333333333333333
 10
875.2808589640064
 20
1286.747075844254
 30
0.0
 10
875.0400540729577
 20
1286.744883462013
 30
0.0
 10
874.5726854508047
 20
1286.812261628214
 30
0.0
 10
874.1300108980551
 20
1287.015725353828
 30
0.0
 10
873.9165598201898
 20
1287.157267184434
 30
0.0
  0
ELLIPSE
  5
25F
330
1C7
100
AcDbEntity
  8
P-SANR-FIXT
100
AcDbEllipse
 10
930.1339307155721
 20
1296.747075844253
 30
0.0
 11
0.0
 21
39.60463084202595
 31
0.0
210
0.0
220
0.0
230
1.0
 40
0.1793631308672731
 41
0.0205130283797148
 42
1.315537636225641
  0
ELLIPSE
  5
260
330
1C7
100
AcDbEntity
  8
P-SANR-FIXT
100
AcDbEllipse
 10
930.1339307155636
 20
1296.747075844253
 30
0.0
 11
0.0
 21
39.60463084202493
 31
0.0
210
0.0
220
0.0
230
1.0
 40
0.179363130867274
 41
1.826055017364159
 42
3.12107962521001
  0
ELLIPSE
  5
261
330
1C7
100
AcDbEntity
  8
P-SANR-FIXT
100
AcDbEllipse
 10
901.5071474009891
 20
1296.747075844253
 30
0.0
 11
0.0
 21
39.24728057857049
 31
0.0
210
0.0
220
0.0
230
1.0
 40
0.1793631308672707
 41
6.262200633343372
 42
6.912927703902577
  0
ELLIPSE
  5
262
330
1C7
100
AcDbEntity
  8
P-SANR-FIXT
100
AcDbEllipse
 10
901.5071474009898
 20
1296.747075844253
 30
0.0
 11
0.0
 21
39.24728057857069
 31
0.0
210
0.0
220
0.0
230
1.0
 40
0.1793631308672701
 41
2.511850256873168
 42
3.162577327425965
  0
SPLINE
  5
263
330
1C7
100
AcDbEntity
  8
P-SANR-FIXT
100
AcDbSpline
210
0.0
220
0.0
230
1.0
 70
     8
 71
     3
 72
    10
 73
     6
 74
     0
 42
0.000000001
 43
0.0000000001
 40
-1.0
 40
-1.0
 40
-1.0
 40
-1.0
 40
-0.6666666666666666
 40
-0.3333333333333333
 40
0.0
 40
0.0
 40
0.0
 40
0.0
 10
944.1736543264052
 20
1306.747075844253
 30
0.0
 10
944.9178032856819
 20
1306.747075844253
 30
0.0
 10
946.3897025980029
 20
1306.60655991803
 30
0.0
 10
948.495889445679
 20
1305.943511843673
 30
0.0
 10
949.754007754079
 20
1305.194895020785
 30
0.0
 10
950.3354826360789
 20
1304.747075844253
 30
0.0
  0
SPLINE
  5
264
330
1C7
100
AcDbEntity
  8
P-SANR-FIXT
100
AcDbSpline
210
0.0
220
0.0
230
1.0
 70
     8
 71
     3
 72
    10
 73
     6
 74
     0
 42
0.000000001
 43
0.0000000001
 40
-1.0
 40
-1.0
 40
-1.0
 40
-1.0
 40
-0.6666666666666666
 40
-0.3333333333333333
 40
0.0
 40
0.0
 40
0.0
 40
0.0
 10
950.3354826360792
 20
1288.747075844253
 30
0.0
 10
949.7540077540794
 20
1288.299256667721
 30
0.0
 10
948.4958894456793
 20
1287.550639844832
 30
0.0
 10
946.3897025980033
 20
1286.887591770475
 30
0.0
 10
944.9178032856821
 20
1286.747075844252
 30
0.0
 10
944.1736543264052
 20
1286.747075844252
 30
0.0
  0
ARC
  5
265
330
1C7
100
AcDbEntity
  8
P-SANR-FIXT
100
AcDbCircle
 10
705.6664074431957
 20
1296.747075844248
 30
0.0
 40
13.28455094929623
100
AcDbArc
 50
269.9999999999954
 51
89.99999999999632
  0
LINE
  5
266
330
1C7
100
AcDbEntity
  8
P-SANR-FIXT
100
AcDbLine
 10
705.6664074431965
 20
1310.031626793544
 30
0.0
 11
705.6664074431957
 21
1304.075866866938
 31
0.0
  0
LINE
  5
267
330
1C7
100
AcDbEntity
  8
P-SANR-FIXT
100
AcDbLine
 10
705.6664074431948
 20
1289.41828482157
 30
0.0
 11
705.6664074431948
 21
1283.462524894952
 31
0.0
  0
LINE
  5
268
330
1C7
100
AcDbEntity
  8
P-SANR-FIXT
100
AcDbLine
 10
874.7206828130016
 20
1296.747075844253
 30
0.0
 11
871.8185033491119
 21
1262.404829098765
 31
0.0
  0
ELLIPSE
  5
269
330
1C7
100
AcDbEntity
  8
P-SANR-FIXT
100
AcDbEllipse
 10
847.6850680897586
 20
1263.277316516328
 30
0.0
 11
0.0
 21
24.99999999999981
 31
0.0
210
0.0
220
0.0
230
0.9999999999999998
 40
0.9659258262890725
 41
3.418816734207116
 42
4.67748239534478
  0
LINE
  5
26A
330
1C7
100
AcDbEntity
  8
P-SANR-FIXT
100
AcDbLine
 10
854.2940961923564
 20
1239.231844628499
 30
0.0
 11
817.9957788491179
 21
1235.28215534392
 31
0.0
  0
LINE
  5
26B
330
1C7
100
AcDbEntity
  8
P-SANR-FIXT
100
AcDbLine
 10
817.9957788491181
 20
1358.211996344587
 30
0.0
 11
853.0287847114296
 21
1355.038884311787
 31
0.0
  0
ELLIPSE
  5
26C
330
1C7
100
AcDbEntity
  8
P-SANR-FIXT
100
AcDbEllipse
 10
852.3545782076407
 20
1335.051067771406
 30
0.0
 11
0.0
 21
19.99999999999988
 31
0.0
210
0.0
220
0.0
230
1.0
 40
0.9659258262890713
 41
4.964593561909072
 42
6.248278722139696
  0
LINE
  5
26D
330
1C7
100
AcDbEntity
  8
P-SANR-FIXT
100
AcDbLine
 10
871.061946613006
 20
1340.041855826092
 30
0.0
 11
874.7206828130016
 21
1296.747075844253
 31
0.0
  0
LINE
  5
26E
330
1C7
100
AcDbEntity
  8
P-SANR-FIXT
100
AcDbLine
 10
865.3480272215487
 20
1262.404829098765
 30
0.0
 11
871.8185033491119
 21
1262.404829098765
 31
0.0
  0
LINE
  5
26F
330
1C7
100
AcDbEntity
  8
P-SANR-FIXT
100
AcDbLine
 10
864.5914704854428
 20
1340.041855826092
 30
0.0
 11
871.061946613006
 21
1340.041855826092
 31
0.0
  0
LINE
  5
270
330
1C7
100
AcDbEntity
  8
P-SANR-FIXT
100
AcDbLine
 10
847.8236200647932
 20
1239.231844628499
 30
0.0
 11
854.2940961923564
 21
1239.231844628499
 31
0.0
  0
LINE
  5
271
330
1C7
100
AcDbEntity
  8
P-SANR-FIXT
100
AcDbLine
 10
853.0287847114296
 20
1355.038884311787
 30
0.0
 11
846.5583085838664
 21
1355.038884311787
 31
0.0
  0
LINE
  5
272
330
1C7
100
AcDbEntity
  8
P-SANR-FIXT
100
AcDbLine
 10
817.9957788491181
 20
1358.211996344587
 30
0.0
 11
811.5253027215549
 21
1358.211996344587
 31
0.0
  0
LINE
  5
273
330
1C7
100
AcDbEntity
  8
P-SANR-FIXT
100
AcDbLine
 10
874.7206828130016
 20
1296.747075844253
 30
0.0
 11
868.2502066854386
 21
1296.747075844253
 31
0.0
  0
LINE
  5
274
330
1C7
100
AcDbEntity
  8
P-SANR-FIXT
100
AcDbLine
 10
817.9957788491179
 20
1235.28215534392
 30
0.0
 11
811.5253027215549
 21
1235.28215534392
 31
0.0
  0
ARC
  5
275
330
1C7
100
AcDbEntity
  8
P-SANR-FIXT
100
AcDbCircle
 10
1015.666407443179
 20
1296.747075844246
 30
0.0
 40
13.28455094929591
100
AcDbArc
 50
90.00000000000197
 51
142.9319212055908
  0
ARC
  5
276
330
1C7
100
AcDbEntity
  8
P-SANR-FIXT
100
AcDbCircle
 10
1015.666407443179
 20
1296.747075844246
 30
0.0
 40
13.28455094929632
100
AcDbArc
 50
217.0680787943376
 51
270.0000000000026
  0
LINE
  5
277
330
1C7
100
AcDbEntity
  8
P-SANR-FIXT
100
AcDbLine
 10
1015.66640744318
 20
1283.46252489495
 30
0.0
 11
1015.66640744318
 21
1288.815516953262
 31
0.0
  0
LINE
  5
278
330
1C7
100
AcDbEntity
  8
P-SANR-FIXT
100
AcDbLine
 10
1015.666407443179
 20
1304.678634735243
 30
0.0
 11
1015.666407443178
 21
1310.031626793542
 31
0.0
  0
SPLINE
  5
279
330
1C7
100
AcDbEntity
  8
P-SANR-FIXT
100
AcDbSpline
210
0.0
220
0.0
230
1.0
 70
     8
 71
     3
 72
     8
 73
     4
 74
     0
 42
0.000000001
 43
0.0000000001
 40
0.25
 40
0.25
 40
0.25
 40
0.25
 40
0.2553574031863811
 40
0.2553574031863811
 40
0.2553574031863811
 40
0.2553574031863811
 10
1013.453803575562
 20
1309.846442624639
 30
0.0
 10
1013.437431965021
 20
1309.843682122112
 30
0.0
 10
1013.421046233466
 20
1309.840930051326
 30
0.0
 10
1013.404646798605
 20
1309.838183572972
 30
0.0
  0
SPLINE
  5
27A
330
1C7
100
AcDbEntity
  8
P-SANR-FIXT
100
AcDbSpline
210
0.0
220
0.0
230
1.0
 70
     8
 71
     3
 72
     8
 73
     4
 74
     0
 42
0.000000001
 43
0.0000000001
 40
0.7255903886696272
 40
0.7255903886696272
 40
0.7255903886696272
 40
0.7255903886696272
 40
0.75
 40
0.75
 40
0.75
 40
0.75
 10
1008.971029092299
 20
1308.219738864117
 30
0.0
 10
1008.894664995043
 20
1308.175189525028
 30
0.0
 10
1008.819070367968
 20
1308.127973581713
 30
0.0
 10
1008.744111236357
 20
1308.078550904421
 30
0.0
  0
SPLINE
  5
27B
330
1C7
100
AcDbEntity
  8
P-SANR-FIXT
100
AcDbSpline
210
0.0
220
0.0
230
1.0
 70
     8
 71
     3
 72
     8
 73
     4
 74
     0
 42
0.000000001
 43
0.0000000001
 40
-0.6775033030628396
 40
-0.6775033030628396
 40
-0.6775033030628396
 40
-0.6775033030628396
 40
-0.5
 40
-0.5
 40
-0.5
 40
-0.5
 10
1005.495319441729
 20
1305.292731390025
 30
0.0
 10
1005.577627635878
 20
1305.390695665898
 30
0.0
 10
1005.660368901034
 20
1305.488412214927
 30
0.0
 10
1005.74641206318
 20
1305.582967739535
 30
0.0
  0
SPLINE
  5
27C
330
1C7
100
AcDbEntity
  8
P-SANR-FIXT
100
AcDbSpline
210
0.0
220
0.0
230
1.0
 70
     8
 71
     3
 72
     8
 73
     4
 74
     0
 42
0.000000001
 43
0.0000000001
 40
-0.140960860494497
 40
-0.140960860494497
 40
-0.140960860494497
 40
-0.140960860494497
 40
0.0
 40
0.0
 40
0.0
 40
0.0
 10
1006.279107119651
 20
1306.146962025718
 30
0.0
 10
1006.350930903699
 20
1306.218690208607
 30
0.0
 10
1006.423567049115
 20
1306.28958565136
 30
0.0
 10
1006.496996333493
 20
1306.359629814238
 30
0.0
  0
SPLINE
  5
27D
330
1C7
100
AcDbEntity
  8
P-SANR-FIXT
100
AcDbSpline
210
0.0
220
0.0
230
1.0
 70
     8
 71
     3
 72
     8
 73
     4
 74
     0
 42
0.000000001
 43
0.0000000001
 40
-1.0
 40
-1.0
 40
-1.0
 40
-1.0
 40
-0.859039139506828
 40
-0.859039139506828
 40
-0.859039139506828
 40
-0.859039139506828
 10
1006.496996333493
 20
1287.134521874253
 30
0.0
 10
1006.423567049115
 20
1287.204566037132
 30
0.0
 10
1006.3509309037
 20
1287.275461479884
 30
0.0
 10
1006.279107119652
 20
1287.347189662773
 30
0.0
  0
SPLINE
  5
27E
330
1C7
100
AcDbEntity
  8
P-SANR-FIXT
100
AcDbSpline
210
0.0
220
0.0
230
1.0
 70
     8
 71
     3
 72
     8
 73
     4
 74
     0
 42
0.000000001
 43
0.0000000001
 40
-0.5
 40
-0.5
 40
-0.5
 40
-0.5
 40
-0.3224966969424864
 40
-0.3224966969424864
 40
-0.3224966969424864
 40
-0.3224966969424864
 10
1005.746412063174
 20
1287.911183948962
 30
0.0
 10
1005.66133695825
 20
1288.006697195436
 30
0.0
 10
1005.579476492799
 20
1288.104964006632
 30
0.0
 10
1005.498896943233
 20
1288.204338217693
 30
0.0
  0
SPLINE
  5
27F
330
1C7
100
AcDbEntity
  8
P-SANR-FIXT
100
AcDbSpline
210
0.0
220
0.0
230
1.0
 70
     8
 71
     3
 72
     8
 73
     4
 74
     0
 42
0.000000001
 43
0.0000000001
 40
0.25
 40
0.25
 40
0.25
 40
0.25
 40
0.2744096113304643
 40
0.2744096113304643
 40
0.2744096113304643
 40
0.2744096113304643
 10
1008.742477365641
 20
1285.410812537254
 30
0.0
 10
1008.818472568198
 20
1285.364426185514
 30
0.0
 10
1008.894785640019
 20
1285.318237208762
 30
0.0
 10
1008.971355688462
 20
1285.272450310619
 30
0.0
  0
SPLINE
  5
280
330
1C7
100
AcDbEntity
  8
P-SANR-FIXT
100
AcDbSpline
210
0.0
220
0.0
230
1.0
 70
     8
 71
     3
 72
     8
 73
     4
 74
     0
 42
0.000000001
 43
0.0000000001
 40
0.7446425968137291
 40
0.7446425968137291
 40
0.7446425968137291
 40
0.7446425968137291
 40
0.75
 40
0.75
 40
0.75
 40
0.75
 10
1013.4046592429
 20
1283.656090543276
 30
0.0
 10
1013.421050472404
 20
1283.653263340095
 30
0.0
 10
1013.437405982392
 20
1283.650527481775
 30
0.0
 10
1013.453727263023
 20
1283.647879164841
 30
0.0
  0
ELLIPSE
  5
281
330
1C7
100
AcDbEntity
  8
P-SANR-FIXT
100
AcDbEllipse
 10
877.8514025758983
 20
1296.747075844246
 30
0.0
 11
0.0
 21
97.89857829387138
 31
0.0
210
0.0
220
0.0
230
1.0
 40
0.9659258262890686
 41
5.171152341966647
 42
7.183918517878582
  0
ELLIPSE
  5
282
330
1C7
100
AcDbEntity
  8
P-SANR-FIXT
100
AcDbEllipse
 10
877.8514025758983
 20
1296.747075844246
 30
0.0
 11
0.0
 21
97.89857829387152
 31
0.0
210
0.0
220
0.0
230
1.0
 40
0.9659258262890652
 41
2.24085944289058
 42
4.253625618810557
  0
ELLIPSE
  5
283
330
1C7
100
AcDbEntity
  8
P-SANR-FIXT
100
AcDbEllipse
 10
880.1516037301958
 20
1296.747075844246
 30
0.0
 11
0.0
 21
111.487275439789
 31
0.0
210
0.0
220
0.0
230
0.9999999999999998
 40
0.9659258262890638
 41
5.12947627412852
 42
7.291455985471127
  0
ELLIPSE
  5
284
330
1C7
100
AcDbEntity
  8
P-SANR-FIXT
100
AcDbEllipse
 10
880.1516037301958
 20
1296.747075844246
 30
0.0
 11
0.0
 21
111.4872754397886
 31
0.0
210
0.0
220
0.0
230
1.0
 40
0.9659258262890681
 41
2.133321975298074
 42
4.29530168665749
  0
ELLIPSE
  5
285
330
1C7
100
AcDbEntity
  8
P-SANR-FIXT
100
AcDbEllipse
 10
882.758642551761
 20
1296.747075844246
 30
0.0
 11
0.0
 21
121.9519606832534
 31
0.0
210
0.0
220
0.0
230
0.9999999999999998
 40
0.9659258262890688
 41
0.0000000000000451
 42
0.0065982915779266
  0
ELLIPSE
  5
286
330
1C7
100
AcDbEntity
  8
P-SANR-FIXT
100
AcDbEllipse
 10
882.758642551761
 20
1296.747075844246
 30
0.0
 11
0.0
 21
121.9519606832534
 31
0.0
210
0.0
220
0.0
230
1.0
 40
0.9659258262890688
 41
5.104698226242851
 42
6.211243782417763
  0
ELLIPSE
  5
287
330
1C7
100
AcDbEntity
  8
P-SANR-FIXT
100
AcDbEllipse
 10
882.758642551761
 20
1296.747075844246
 30
0.0
 11
0.0
 21
121.9519606832535
 31
0.0
210
0.0
220
0.0
230
1.0
 40
0.9659258262890666
 41
3.213534178351609
 42
4.320079734540314
  0
ELLIPSE
  5
288
330
1C7
100
AcDbEntity
  8
P-SANR-FIXT
100
AcDbEllipse
 10
882.758642551761
 20
1296.747075844246
 30
0.0
 11
0.0
 21
121.9519606832534
 31
0.0
210
0.0
220
0.0
230
1.0
 40
0.9659258262890663
 41
3.134994362011864
 42
3.141592653589791
  0
ELLIPSE
  5
289
330
1C7
100
AcDbEntity
  8
P-SANR-FIXT
100
AcDbEllipse
 10
883.3379644536272
 20
1296.747075844246
 30
0.0
 11
0.0
 21
121.9519606832534
 31
0.0
210
0.0
220
0.0
230
1.0
 40
0.9659258262890684
 41
5.10526182604797
 42
6.204645490839831
  0
ELLIPSE
  5
28A
330
1C7
100
AcDbEntity
  8
P-SANR-FIXT
100
AcDbEllipse
 10
883.3379644536272
 20
1296.747075844246
 30
0.0
 11
0.0
 21
121.9519606832535
 31
0.0
210
0.0
220
0.0
230
1.0
 40
0.9659258262890684
 41
3.220132469929528
 42
4.319516134735168
  0
ELLIPSE
  5
28B
330
1C7
100
AcDbEntity
  8
P-SANR-FIXT
100
AcDbEllipse
 10
881.0496317194148
 20
1296.747075844246
 30
0.0
 11
0.0
 21
121.9519606832528
 31
0.0
210
0.0
220
0.0
230
1.0
 40
0.9659258262890686
 41
5.10304713621024
 42
7.354169796423306
  0
ELLIPSE
  5
28C
330
1C7
100
AcDbEntity
  8
P-SANR-FIXT
100
AcDbEllipse
 10
881.0496317194148
 20
1296.747075844246
 30
0.0
 11
0.0
 21
121.9519606832525
 31
0.0
210
0.0
220
0.0
230
1.0
 40
0.9659258262890691
 41
2.070608164345913
 42
4.321730824573885
  0
ELLIPSE
  5
28D
330
1C7
100
AcDbEntity
  8
P-SANR-FIXT
100
AcDbEllipse
 10
881.9821854164535
 20
1296.747075844246
 30
0.0
 11
0.0
 21
121.9519606832527
 31
0.0
210
0.0
220
0.0
230
0.9999999999999998
 40
0.9659258262890679
 41
5.10394808434053
 42
6.204645490839832
  0
ELLIPSE
  5
28E
330
1C7
100
AcDbEntity
  8
P-SANR-FIXT
100
AcDbEllipse
 10
881.9821854164535
 20
1296.747075844246
 30
0.0
 11
0.0
 21
121.9519606832526
 31
0.0
210
0.0
220
0.0
230
1.0
 40
0.9659258262890679
 41
3.220132469929529
 42
4.320829876443061
  0
ELLIPSE
  5
28F
330
1C7
100
AcDbEntity
  8
P-SANR-FIXT
100
AcDbEllipse
 10
1015.175330139892
 20
1296.747075844252
 30
0.0
 11
0.0
 21
49.32978613999068
 31
0.0
210
0.0
220
0.0
230
1.0
 40
0.1793631308672762
 41
6.227654923197023
 42
7.657863783660832
  0
ELLIPSE
  5
290
330
1C7
100
AcDbEntity
  8
P-SANR-FIXT
100
AcDbEllipse
 10
1015.175330139892
 20
1296.747075844252
 30
0.0
 11
0.0
 21
49.32978613999057
 31
0.0
210
0.0
220
0.0
230
1.0
 40
0.1793631308672719
 41
1.766914177108811
 42
3.197123037572309
  0
LINE
  5
291
330
1C7
100
AcDbEntity
  8
P-SANR-FIXT
100
AcDbLine
 10
1035.666407443176
 20
1376.747075844234
 30
0.0
 11
1035.666407443176
 21
1296.747075844243
 31
0.0
  0
LINE
  5
292
330
1C7
100
AcDbEntity
  8
P-SANR-FIXT
100
AcDbLine
 10
1035.666407443176
 20
1296.747075844243
 30
0.0
 11
1035.666407443175
 21
1216.747075844254
 31
0.0
  0
LINE
  5
293
330
1C7
100
AcDbEntity
  8
P-SANR-FIXT
100
AcDbLine
 10
1032.66640744318
 20
1406.747075844244
 30
0.0
 11
1032.666407443179
 21
1296.747075844243
 31
0.0
  0
LINE
  5
294
330
1C7
100
AcDbEntity
  8
P-SANR-FIXT
100
AcDbLine
 10
1032.666407443179
 20
1296.747075844243
 30
0.0
 11
1032.666407443179
 21
1186.747075844244
 31
0.0
  0
LINE
  5
295
330
1C7
100
AcDbEntity
  8
P-SANR-FIXT
100
AcDbLine
 10
1015.66640744318
 20
1406.746254727886
 30
0.0
 11
1015.666407443179
 21
1310.031626793543
 31
0.0
  0
LINE
  5
296
330
1C7
100
AcDbEntity
  8
P-SANR-FIXT
100
AcDbLine
 10
1015.666407443179
 20
1283.46252489495
 30
0.0
 11
1015.666407443179
 21
1186.747896960602
 31
0.0
  0
ENDBLK
  5
298
330
1C7
100
AcDbEntity
  8
0
100
AcDbBlockEnd
  0
BLOCK
  5
3A9
330
29A
100
AcDbEntity
  8
0
100
AcDbBlockBegin
  2
Automatic flow rate regulator valve_Caleffi_121 DN15 - 1_2__-V2-Est - Idraulica
 70
     0
 10
0.0
 20
0.0
 30
0.0
  3
Automatic flow rate regulator valve_Caleffi_121 DN15 - 1_2__-V2-Est - Idraulica
  1

  0
LINE
  5
29B
330
29A
100
AcDbEntity
  8
P-SANR-FIXT
100
AcDbLine
 10
1466.982750439521
 20
2140.927404347973
 30
0.0
 11
1466.982750439521
 21
2128.525780173051
 31
0.0
  0
LINE
  5
29C
330
29A
100
AcDbEntity
  8
P-SANR-FIXT
100
AcDbLine
 10
1493.743563218271
 20
2128.525780173051
 30
0.0
 11
1493.743563218271
 21
2140.927404347973
 31
0.0
  0
LINE
  5
29D
330
29A
100
AcDbEntity
  8
P-SANR-FIXT
100
AcDbLine
 10
1465.401867600763
 20
2146.594814615137
 30
0.0
 11
1467.017281496803
 21
2140.786462990471
 31
0.0
  0
LINE
  5
29E
330
29A
100
AcDbEntity
  8
P-SANR-FIXT
100
AcDbLine
 10
1493.70903216099
 20
2140.786462990471
 30
0.0
 11
1495.32444605703
 21
2146.594814615137
 31
0.0
  0
LINE
  5
29F
330
29A
100
AcDbEntity
  8
P-SANR-FIXT
100
AcDbLine
 10
1465.363156828896
 20
2160.114109299009
 30
0.0
 11
1465.363156828896
 21
2146.873550185861
 31
0.0
  0
LINE
  5
2A0
330
29A
100
AcDbEntity
  8
P-SANR-FIXT
100
AcDbLine
 10
1495.363156828896
 20
2146.873550185861
 30
0.0
 11
1495.363156828896
 21
2160.114109299009
 31
0.0
  0
ELLIPSE
  5
2A1
330
29A
100
AcDbEntity
  8
P-SANR-FIXT
100
AcDbEllipse
 10
1480.363156828894
 20
2128.525780173049
 30
0.0
 11
13.38040638937491
 21
0.0
 31
0.0
210
0.0
220
0.0
230
1.0
 40
0.2588190451025145
 41
3.141592653589793
 42
4.712388980384666
  0
ELLIPSE
  5
2A2
330
29A
100
AcDbEntity
  8
P-SANR-FIXT
100
AcDbEllipse
 10
1480.363156828894
 20
2128.525780173049
 30
0.0
 11
13.38040638937491
 21
0.0
 31
0.0
210
0.0
220
0.0
230
1.0
 40
0.2588190451025145
 41
4.712388980384666
 42
6.283185307179586
  0
ELLIPSE
  5
2A3
330
29A
100
AcDbEntity
  8
P-SANR-FIXT
100
AcDbEllipse
 10
1480.363156828894
 20
2141.035102671233
 30
0.0
 11
13.38040638937514
 21
0.0
 31
0.0
210
0.0
220
0.0
230
0.9999999999999998
 40
0.2588190451025101
 41
3.213451249549665
 42
4.712388980384683
  0
ELLIPSE
  5
2A4
330
29A
100
AcDbEntity
  8
P-SANR-FIXT
100
AcDbEllipse
 10
1480.363156828894
 20
2141.035102671233
 30
0.0
 11
13.38040638937473
 21
0.0
 31
0.0
210
0.0
220
0.0
230
1.0
 40
0.2588190451025131
 41
4.712388980384683
 42
6.2113267112197
  0
ELLIPSE
  5
2A5
330
29A
100
AcDbEntity
  8
P-SANR-FIXT
100
AcDbEllipse
 10
1480.363156828894
 20
2146.873550185859
 30
0.0
 11
15.00000000000023
 21
0.0
 31
0.0
210
0.0
220
0.0
230
1.0
 40
0.2588190451025145
 41
3.141592653589793
 42
4.712388980384683
  0
ELLIPSE
  5
2A6
330
29A
100
AcDbEntity
  8
P-SANR-FIXT
100
AcDbEllipse
 10
1480.363156828894
 20
2146.873550185859
 30
0.0
 11
15.0
 21
0.0
 31
0.0
210
0.0
220
0.0
230
1.0
 40
0.2588190451025184
 41
4.712388980384683
 42
6.283185307179586
  0
ELLIPSE
  5
2A7
330
29A
100
AcDbEntity
  8
P-SANR-FIXT
100
AcDbEllipse
 10
1480.363156828894
 20
2160.114109299008
 30
0.0
 11
15.00000000000023
 21
0.0
 31
0.0
210
0.0
220
0.0
230
1.0
 40
0.2588190451025145
 41
1.570796326794881
 42
4.712388980384683
  0
ELLIPSE
  5
2A8
330
29A
100
AcDbEntity
  8
P-SANR-FIXT
100
AcDbEllipse
 10
1480.363156828894
 20
2160.114109299008
 30
0.0
 11
15.0
 21
0.0
 31
0.0
210
0.0
220
0.0
230
1.0
 40
0.2588190451025184
 41
4.712388980384683
 42
7.853981633974467
  0
LINE
  5
2A9
330
29A
100
AcDbEntity
  8
P-SANR-FIXT
100
AcDbLine
 10
1522.363156828897
 20
1581.121450012557
 30
0.0
 11
1522.363156828897
 21
1593.678485754315
 31
0.0
  0
LINE
  5
2AA
330
29A
100
AcDbEntity
  8
P-SANR-FIXT
100
AcDbLine
 10
1438.363156828898
 20
1593.678485754315
 30
0.0
 11
1438.363156828898
 21
1581.121450012557
 31
0.0
  0
LINE
  5
2AB
330
29A
100
AcDbEntity
  8
P-SANR-FIXT
100
AcDbLine
 10
1440.080550013562
 20
1578.072986808161
 30
0.0
 11
1440.080550013562
 21
1576.291820881112
 31
0.0
  0
LINE
  5
2AC
330
29A
100
AcDbEntity
  8
P-SANR-FIXT
100
AcDbLine
 10
1520.645763644233
 20
1576.291820881112
 30
0.0
 11
1520.645763644233
 21
1578.072986808161
 31
0.0
  0
LWPOLYLINE
  5
2AD
330
29A
100
AcDbEntity
  8
P-SANR-FIXT
100
AcDbPolyline
 90
       41
 70
   128
 43
0.0
 10
1440.080550013562
 20
1576.291820881112
 10
1440.167497850944
 20
1575.162573564074
 10
1440.417279887278
 20
1574.082618474689
 10
1440.802003861963
 20
1573.087122212696
 10
1441.288397939623
 20
1572.191472293348
 10
1441.847479913337
 20
1571.394597682438
 10
1442.458693242303
 20
1570.685996981826
 10
1443.10964812456
 20
1570.051852212408
 10
1443.794019435515
 20
1569.478681477892
 10
1444.509320273941
 20
1568.954924742218
 10
1445.255203668793
 20
1568.47131734782
 10
1446.032353666362
 20
1568.020709624054
 10
1446.841827827203
 20
1567.597703527122
 10
1447.684696104768
 20
1567.19827739214
 10
1448.5618585064
 20
1566.819462161953
 10
1449.473964649768
 20
1566.459082984011
 10
1450.421388654281
 20
1566.115560729105
 10
1451.404232461481
 20
1565.787762379942
 10
1452.42234256348
 20
1565.474889162516
 10
1453.475332024229
 20
1565.176393041694
 10
1454.562603585703
 20
1564.891914253148
 10
1455.683371814255
 20
1564.621234356305
 10
1456.836683412629
 20
1564.364240735369
 10
1458.021435436532
 20
1564.120899567254
 10
1459.236391460403
 20
1563.89123508104
 10
1460.480195875572
 20
1563.675313520493
 10
1461.751386553887
 20
1563.473230646454
 10
1463.048406114741
 20
1563.285101923665
 10
1464.369612016898
 20
1563.1110547597
 10
1465.71328567149
 20
1562.951222325967
 10
1467.077640745549
 20
1562.805738609451
 10
1468.460830799724
 20
1562.674734431081
 10
1469.860956380838
 20
1562.558334231193
 10
1471.27607167011
 20
1562.456653470662
 10
1472.704190771109
 20
1562.369796532408
 10
1474.143293707714
 20
1562.297855035392
 10
1475.591332191042
 20
1562.240906494138
 10
1477.046235205267
 20
1562.199013273146
 10
1478.505914455109
 20
1562.172221798315
 10
1479.968269712325
 20
1562.160561997875
 10
1480.363156828897
 20
1562.160010276439
  0
LWPOLYLINE
  5
2AE
330
29A
100
AcDbEntity
  8
P-SANR-FIXT
100
AcDbPolyline
 90
       41
 70
   128
 43
0.0
 10
1520.645763644233
 20
1576.291820881112
 10
1520.558815806851
 20
1575.162573564074
 10
1520.309033770518
 20
1574.082618474689
 10
1519.924309795833
 20
1573.087122212697
 10
1519.437915718172
 20
1572.191472293348
 10
1518.878833744458
 20
1571.394597682438
 10
1518.267620415492
 20
1570.685996981826
 10
1517.616665533235
 20
1570.051852212408
 10
1516.93229422228
 20
1569.478681477892
 10
1516.216993383854
 20
1568.954924742219
 10
1515.471109989002
 20
1568.47131734782
 10
1514.693959991433
 20
1568.020709624055
 10
1513.884485830592
 20
1567.597703527123
 10
1513.041617553028
 20
1567.198277392141
 10
1512.164455151395
 20
1566.819462161953
 10
1511.252349008027
 20
1566.459082984011
 10
1510.304925003514
 20
1566.115560729105
 10
1509.322081196314
 20
1565.787762379942
 10
1508.303971094316
 20
1565.474889162516
 10
1507.250981633566
 20
1565.176393041694
 10
1506.163710072092
 20
1564.891914253148
 10
1505.04294184354
 20
1564.621234356306
 10
1503.889630245167
 20
1564.364240735369
 10
1502.704878221263
 20
1564.120899567254
 10
1501.489922197392
 20
1563.89123508104
 10
1500.246117782223
 20
1563.675313520494
 10
1498.974927103908
 20
1563.473230646454
 10
1497.677907543054
 20
1563.285101923666
 10
1496.356701640897
 20
1563.1110547597
 10
1495.013027986306
 20
1562.951222325968
 10
1493.648672912246
 20
1562.805738609451
 10
1492.265482858072
 20
1562.674734431081
 10
1490.865357276957
 20
1562.558334231193
 10
1489.450241987686
 20
1562.456653470662
 10
1488.022122886687
 20
1562.369796532409
 10
1486.583019950082
 20
1562.297855035392
 10
1485.134981466754
 20
1562.240906494138
 10
1483.680078452529
 20
1562.199013273146
 10
1482.220399202687
 20
1562.172221798315
 10
1480.758043945471
 20
1562.160561997875
 10
1480.363156828898
 20
1562.160010276439
  0
ELLIPSE
  5
2AF
330
29A
100
AcDbEntity
  8
P-SANR-FIXT
100
AcDbEllipse
 10
1480.363156828896
 20
1593.678485754315
 30
0.0
 11
41.99999999999953
 21
0.0
 31
0.0
210
0.0
220
0.0
230
1.0
 40
0.2588190451025149
 41
4.712388980384683
 42
6.551295035222731
  0
ELLIPSE
  5
2B0
330
29A
100
AcDbEntity
  8
P-SANR-FIXT
100
AcDbEllipse
 10
1480.363156828896
 20
1581.121450012556
 30
0.0
 11
41.99999999999977
 21
0.0
 31
0.0
210
0.0
220
0.0
230
1.0
 40
0.2588190451025101
 41
3.141592653589793
 42
4.712388980384672
  0
ELLIPSE
  5
2B1
330
29A
100
AcDbEntity
  8
P-SANR-FIXT
100
AcDbEllipse
 10
1480.363156828896
 20
1593.678485754315
 30
0.0
 11
41.99999999999977
 21
0.0
 31
0.0
210
0.0
220
0.0
230
1.0
 40
0.2588190451025101
 41
2.873482925546188
 42
4.712388980384672
  0
ELLIPSE
  5
2B2
330
29A
100
AcDbEntity
  8
P-SANR-FIXT
100
AcDbEllipse
 10
1480.363156828896
 20
1581.121450012556
 30
0.0
 11
41.99999999999954
 21
0.0
 31
0.0
210
0.0
220
0.0
230
1.0
 40
0.2588190451025115
 41
4.712388980384672
 42
6.283185307179586
  0
LINE
  5
2B3
330
29A
100
AcDbEntity
  8
P-SANR-FIXT
100
AcDbLine
 10
1472.863156828896
 20
2099.683995992276
 30
0.0
 11
1472.863156828896
 21
2091.916337599446
 31
0.0
  0
LINE
  5
2B4
330
29A
100
AcDbEntity
  8
P-SANR-FIXT
100
AcDbLine
 10
1487.863156828896
 20
2091.916337599446
 30
0.0
 11
1487.863156828896
 21
2099.683995992276
 31
0.0
  0
LINE
  5
2B5
330
29A
100
AcDbEntity
  8
P-SANR-FIXT
100
AcDbLine
 10
1475.363156828896
 20
2101.183995992276
 30
0.0
 11
1475.363156828896
 21
2099.683995992276
 31
0.0
  0
LINE
  5
2B6
330
29A
100
AcDbEntity
  8
P-SANR-FIXT
100
AcDbLine
 10
1485.363156828896
 20
2099.683995992276
 30
0.0
 11
1485.363156828896
 21
2101.183995992276
 31
0.0
  0
LINE
  5
2B7
330
29A
100
AcDbEntity
  8
P-SANR-FIXT
100
AcDbLine
 10
1472.863156828896
 20
2106.206927036753
 30
0.0
 11
1472.863156828896
 21
2101.183995992276
 31
0.0
  0
LINE
  5
2B8
330
29A
100
AcDbEntity
  8
P-SANR-FIXT
100
AcDbLine
 10
1487.863156828896
 20
2101.183995992276
 30
0.0
 11
1487.863156828896
 21
2106.206927036753
 31
0.0
  0
LINE
  5
2B9
330
29A
100
AcDbEntity
  8
P-SANR-FIXT
100
AcDbLine
 10
1476.363156828896
 20
2108.683995992276
 30
0.0
 11
1476.363156828896
 21
2107.183995992276
 31
0.0
  0
LINE
  5
2BA
330
29A
100
AcDbEntity
  8
P-SANR-FIXT
100
AcDbLine
 10
1484.363156828895
 20
2107.183995992276
 30
0.0
 11
1484.363156828895
 21
2108.683995992276
 31
0.0
  0
LINE
  5
2BB
330
29A
100
AcDbEntity
  8
P-SANR-FIXT
100
AcDbLine
 10
1475.363156828896
 20
2110.683995992276
 30
0.0
 11
1475.363156828896
 21
2108.683995992276
 31
0.0
  0
LINE
  5
2BC
330
29A
100
AcDbEntity
  8
P-SANR-FIXT
100
AcDbLine
 10
1485.363156828896
 20
2108.683995992276
 30
0.0
 11
1485.363156828896
 21
2110.683995992276
 31
0.0
  0
LINE
  5
2BD
330
29A
100
AcDbEntity
  8
P-SANR-FIXT
100
AcDbLine
 10
1473.840225784419
 20
2107.183995992276
 30
0.0
 11
1472.863156828896
 21
2106.206927036753
 31
0.0
  0
LINE
  5
2BE
330
29A
100
AcDbEntity
  8
P-SANR-FIXT
100
AcDbLine
 10
1487.863156828896
 20
2106.206927036753
 30
0.0
 11
1486.886087873372
 21
2107.183995992276
 31
0.0
  0
LINE
  5
2BF
330
29A
100
AcDbEntity
  8
P-SANR-FIXT
100
AcDbLine
 10
1473.741478435735
 20
2091.916337599446
 30
0.0
 11
1473.741478435735
 21
2080.998183850018
 31
0.0
  0
LINE
  5
2C0
330
29A
100
AcDbEntity
  8
P-SANR-FIXT
100
AcDbLine
 10
1486.984835222057
 20
2080.998183850018
 30
0.0
 11
1486.984835222057
 21
2091.916337599446
 31
0.0
  0
LINE
  5
2C1
330
29A
100
AcDbEntity
  8
P-SANR-FIXT
100
AcDbLine
 10
1472.863156828894
 20
2091.916337599444
 30
0.0
 11
1480.363156828893
 21
2091.916337599444
 31
0.0
  0
LINE
  5
2C2
330
29A
100
AcDbEntity
  8
P-SANR-FIXT
100
AcDbLine
 10
1480.363156828893
 20
2091.916337599444
 30
0.0
 11
1487.863156828893
 21
2091.916337599444
 31
0.0
  0
LINE
  5
2C3
330
29A
100
AcDbEntity
  8
P-SANR-FIXT
100
AcDbLine
 10
1480.363156828893
 20
2099.683995992275
 30
0.0
 11
1472.863156828894
 21
2099.683995992275
 31
0.0
  0
LINE
  5
2C4
330
29A
100
AcDbEntity
  8
P-SANR-FIXT
100
AcDbLine
 10
1487.863156828893
 20
2099.683995992275
 30
0.0
 11
1480.363156828893
 21
2099.683995992275
 31
0.0
  0
LINE
  5
2C5
330
29A
100
AcDbEntity
  8
P-SANR-FIXT
100
AcDbLine
 10
1480.363156828893
 20
2101.183995992276
 30
0.0
 11
1472.863156828894
 21
2101.183995992276
 31
0.0
  0
LINE
  5
2C6
330
29A
100
AcDbEntity
  8
P-SANR-FIXT
100
AcDbLine
 10
1487.863156828893
 20
2101.183995992276
 30
0.0
 11
1480.363156828893
 21
2101.183995992276
 31
0.0
  0
LINE
  5
2C7
330
29A
100
AcDbEntity
  8
P-SANR-FIXT
100
AcDbLine
 10
1473.840225784417
 20
2107.183995992276
 30
0.0
 11
1480.363156828893
 21
2107.183995992276
 31
0.0
  0
LINE
  5
2C8
330
29A
100
AcDbEntity
  8
P-SANR-FIXT
100
AcDbLine
 10
1480.363156828893
 20
2107.183995992276
 30
0.0
 11
1486.88608787337
 21
2107.183995992276
 31
0.0
  0
LINE
  5
2C9
330
29A
100
AcDbEntity
  8
P-SANR-FIXT
100
AcDbLine
 10
1480.363156828893
 20
2108.683995992275
 30
0.0
 11
1475.363156828893
 21
2108.683995992275
 31
0.0
  0
LINE
  5
2CA
330
29A
100
AcDbEntity
  8
P-SANR-FIXT
100
AcDbLine
 10
1485.363156828893
 20
2108.683995992275
 30
0.0
 11
1480.363156828893
 21
2108.683995992275
 31
0.0
  0
LINE
  5
2CB
330
29A
100
AcDbEntity
  8
P-SANR-FIXT
100
AcDbLine
 10
1480.363156828893
 20
2110.683995992276
 30
0.0
 11
1475.363156828893
 21
2110.683995992276
 31
0.0
  0
LINE
  5
2CC
330
29A
100
AcDbEntity
  8
P-SANR-FIXT
100
AcDbLine
 10
1485.363156828893
 20
2110.683995992276
 30
0.0
 11
1480.363156828893
 21
2110.683995992276
 31
0.0
  0
LINE
  5
2CD
330
29A
100
AcDbEntity
  8
P-SANR-FIXT
100
AcDbLine
 10
1480.363156828893
 20
2106.206927036752
 30
0.0
 11
1472.863156828894
 21
2106.206927036752
 31
0.0
  0
LINE
  5
2CE
330
29A
100
AcDbEntity
  8
P-SANR-FIXT
100
AcDbLine
 10
1487.863156828893
 20
2106.206927036752
 30
0.0
 11
1480.363156828893
 21
2106.206927036752
 31
0.0
  0
LINE
  5
2CF
330
29A
100
AcDbEntity
  8
P-SANR-FIXT
100
AcDbLine
 10
1476.183487248776
 20
2080.834148895037
 30
0.0
 11
1473.741478435733
 21
2080.834148895037
 31
0.0
  0
LINE
  5
2D0
330
29A
100
AcDbEntity
  8
P-SANR-FIXT
100
AcDbLine
 10
1486.984835222054
 20
2080.834148895037
 30
0.0
 11
1484.542826409026
 21
2080.834148895037
 31
0.0
  0
LINE
  5
2D1
330
29A
100
AcDbEntity
  8
P-SANR-FIXT
100
AcDbLine
 10
1462.907443436276
 20
2010.070331294037
 30
0.0
 11
1462.936920028868
 21
2010.084498117441
 31
0.0
  0
LINE
  5
2D2
330
29A
100
AcDbEntity
  8
P-SANR-FIXT
100
AcDbLine
 10
1497.818870221519
 20
2010.070331294036
 30
0.0
 11
1497.789393628927
 21
2010.084498117439
 31
0.0
  0
LINE
  5
2D3
330
29A
100
AcDbEntity
  8
P-SANR-FIXT
100
AcDbLine
 10
1456.186585343713
 20
2128.525780173051
 30
0.0
 11
1456.186585343713
 21
2123.696151041606
 31
0.0
  0
LINE
  5
2D4
330
29A
100
AcDbEntity
  8
P-SANR-FIXT
100
AcDbLine
 10
1504.5397283141
 20
2123.696151041605
 30
0.0
 11
1504.5397283141
 21
2128.52578017305
 31
0.0
  0
LINE
  5
2D5
330
29A
100
AcDbEntity
  8
P-SANR-FIXT
100
AcDbLine
 10
1444.186585343713
 20
2118.86652191016
 30
0.0
 11
1444.186585343713
 21
2115.968744431294
 31
0.0
  0
LINE
  5
2D6
330
29A
100
AcDbEntity
  8
P-SANR-FIXT
100
AcDbLine
 10
1516.5397283141
 20
2115.968744431292
 30
0.0
 11
1516.5397283141
 21
2118.86652191016
 31
0.0
  0
LINE
  5
2D7
330
29A
100
AcDbEntity
  8
P-SANR-FIXT
100
AcDbLine
 10
1444.186585343713
 20
2118.719664264957
 30
0.0
 11
1444.098402849583
 21
2118.651933683965
 31
0.0
  0
LINE
  5
2D8
330
29A
100
AcDbEntity
  8
P-SANR-FIXT
100
AcDbLine
 10
1443.970383385332
 20
2118.553605407162
 30
0.0
 11
1436.771543133267
 21
2113.024371543346
 31
0.0
  0
LINE
  5
2D9
330
29A
100
AcDbEntity
  8
P-SANR-FIXT
100
AcDbLine
 10
1523.954770524547
 20
2113.024371543345
 30
0.0
 11
1516.755930272482
 21
2118.553605407161
 31
0.0
  0
LINE
  5
2DA
330
29A
100
AcDbEntity
  8
P-SANR-FIXT
100
AcDbLine
 10
1516.627910808231
 20
2118.651933683964
 30
0.0
 11
1516.5397283141
 21
2118.719664264956
 31
0.0
  0
LINE
  5
2DB
330
29A
100
AcDbEntity
  8
P-SANR-FIXT
100
AcDbLine
 10
1434.363156828907
 20
2109.222538994462
 30
0.0
 11
1434.363156828906
 21
2081.452997070671
 31
0.0
  0
LINE
  5
2DC
330
29A
100
AcDbEntity
  8
P-SANR-FIXT
100
AcDbLine
 10
1526.363156828907
 20
2081.45299707067
 30
0.0
 11
1526.363156828907
 21
2109.22253899446
 31
0.0
  0
LINE
  5
2DD
330
29A
100
AcDbEntity
  8
P-SANR-FIXT
100
AcDbLine
 10
1444.825594229868
 20
1861.284169013012
 30
0.0
 11
1434.754067869532
 21
1851.182705935968
 31
0.0
  0
LINE
  5
2DE
330
29A
100
AcDbEntity
  8
P-SANR-FIXT
100
AcDbLine
 10
1525.972245788276
 20
1851.182705935967
 30
0.0
 11
1515.903801940202
 21
1861.281077338257
 31
0.0
  0
LINE
  5
2DF
330
29A
100
AcDbEntity
  8
P-SANR-FIXT
100
AcDbLine
 10
1407.373756544603
 20
1731.204612703086
 30
0.0
 11
1428.85676283487
 21
1641.005121175454
 31
0.0
  0
LINE
  5
2E0
330
29A
100
AcDbEntity
  8
P-SANR-FIXT
100
AcDbLine
 10
1531.869550822933
 20
1641.005121175453
 30
0.0
 11
1553.352557113201
 21
1731.204612703084
 31
0.0
  0
LINE
  5
2E1
330
29A
100
AcDbEntity
  8
P-SANR-FIXT
100
AcDbLine
 10
1436.8631568289
 20
1616.037887515282
 30
0.0
 11
1436.8631568289
 21
1608.152261777379
 31
0.0
  0
LINE
  5
2E2
330
29A
100
AcDbEntity
  8
P-SANR-FIXT
100
AcDbLine
 10
1523.863156828902
 20
1608.152261777378
 30
0.0
 11
1523.863156828901
 21
1616.037887515281
 31
0.0
  0
LINE
  5
2E3
330
29A
100
AcDbEntity
  8
P-SANR-FIXT
100
AcDbLine
 10
1445.363156828904
 20
1866.753886078276
 30
0.0
 11
1445.363156828904
 21
1862.575803234563
 31
0.0
  0
LINE
  5
2E4
330
29A
100
AcDbEntity
  8
P-SANR-FIXT
100
AcDbLine
 10
1515.363156828904
 20
1862.575803234562
 30
0.0
 11
1515.363156828904
 21
1866.753886078276
 31
0.0
  0
LWPOLYLINE
  5
2E5
330
29A
100
AcDbEntity
  8
P-SANR-FIXT
100
AcDbPolyline
 90
        8
 70
   128
 43
0.0
 10
1456.186585343713
 20
2123.696151041606
 10
1456.151197973693
 20
2123.234056303032
 10
1456.056014853695
 20
2122.820186490304
 10
1455.928680919032
 20
2122.488642608809
 10
1455.802056235925
 20
2122.253749991626
 10
1455.704547457009
 20
2122.113380533819
 10
1455.655972704439
 20
2122.055982569051
 10
1455.652835143532
 20
2122.052723589348
  0
LWPOLYLINE
  5
2E6
330
29A
100
AcDbEntity
  8
P-SANR-FIXT
100
AcDbPolyline
 90
        8
 70
   128
 43
0.0
 10
1504.5397283141
 20
2123.696151041605
 10
1504.575115684121
 20
2123.234056303031
 10
1504.670298804119
 20
2122.820186490303
 10
1504.797632738782
 20
2122.488642608809
 10
1504.924257421889
 20
2122.253749991625
 10
1505.021766200805
 20
2122.113380533819
 10
1505.070340953374
 20
2122.055982569051
 10
1505.073478514282
 20
2122.052723589347
  0
LINE
  5
2E7
330
29A
100
AcDbEntity
  8
P-SANR-FIXT
100
AcDbLine
 10
1474.060401889417
 20
1562.320567063411
 30
0.0
 11
1474.060401889417
 21
1558.903787228882
 31
0.0
  0
LINE
  5
2E8
330
29A
100
AcDbEntity
  8
P-SANR-FIXT
100
AcDbLine
 10
1486.665911768383
 20
1558.903787228882
 30
0.0
 11
1486.665911768383
 21
1562.307405419627
 31
0.0
  0
LINE
  5
2E9
330
29A
100
AcDbEntity
  8
P-SANR-FIXT
100
AcDbLine
 10
1474.363156828897
 20
1700.631828395725
 30
0.0
 11
1474.363156828897
 21
1691.938495959123
 31
0.0
  0
LINE
  5
2EA
330
29A
100
AcDbEntity
  8
P-SANR-FIXT
100
AcDbLine
 10
1486.363156828896
 20
1691.938495959123
 30
0.0
 11
1486.363156828896
 21
1700.631828395725
 31
0.0
  0
LINE
  5
2EB
330
29A
100
AcDbEntity
  8
P-SANR-FIXT
100
AcDbLine
 10
1475.363156828897
 20
1702.237048927148
 30
0.0
 11
1475.363156828897
 21
1700.631828395725
 31
0.0
  0
LINE
  5
2EC
330
29A
100
AcDbEntity
  8
P-SANR-FIXT
100
AcDbLine
 10
1485.363156828896
 20
1700.631828395725
 30
0.0
 11
1485.363156828896
 21
1702.237048927148
 31
0.0
  0
LINE
  5
2ED
330
29A
100
AcDbEntity
  8
P-SANR-FIXT
100
AcDbLine
 10
1471.863156828897
 20
1708.359235006038
 30
0.0
 11
1471.863156828897
 21
1704.012568787737
 31
0.0
  0
LINE
  5
2EE
330
29A
100
AcDbEntity
  8
P-SANR-FIXT
100
AcDbLine
 10
1488.863156828896
 20
1704.012568787737
 30
0.0
 11
1488.863156828896
 21
1708.359235006038
 31
0.0
  0
LINE
  5
2EF
330
29A
100
AcDbEntity
  8
P-SANR-FIXT
100
AcDbLine
 10
1470.363156828897
 20
1713.070041150663
 30
0.0
 11
1470.363156828897
 21
1709.808123745471
 31
0.0
  0
LINE
  5
2F0
330
29A
100
AcDbEntity
  8
P-SANR-FIXT
100
AcDbLine
 10
1490.363156828896
 20
1709.808123745471
 30
0.0
 11
1490.363156828896
 21
1713.070041150663
 31
0.0
  0
LINE
  5
2F1
330
29A
100
AcDbEntity
  8
P-SANR-FIXT
100
AcDbLine
 10
1466.363156828896
 20
1821.855519595004
 30
0.0
 11
1466.363156828896
 21
1812.991303354093
 31
0.0
  0
LINE
  5
2F2
330
29A
100
AcDbEntity
  8
P-SANR-FIXT
100
AcDbLine
 10
1466.363156828896
 20
1733.005184833653
 30
0.0
 11
1466.363156828896
 21
1715.603678703206
 31
0.0
  0
LINE
  5
2F3
330
29A
100
AcDbEntity
  8
P-SANR-FIXT
100
AcDbLine
 10
1494.363156828897
 20
1715.603678703206
 30
0.0
 11
1494.363156828897
 21
1733.005184833651
 31
0.0
  0
LINE
  5
2F4
330
29A
100
AcDbEntity
  8
P-SANR-FIXT
100
AcDbLine
 10
1494.363156828897
 20
1812.991303354093
 30
0.0
 11
1494.363156828897
 21
1821.855519595004
 31
0.0
  0
LINE
  5
2F5
330
29A
100
AcDbEntity
  8
P-SANR-FIXT
100
AcDbLine
 10
1472.363156828896
 20
1827.651074552738
 30
0.0
 11
1472.363156828896
 21
1821.855519595004
 31
0.0
  0
LINE
  5
2F6
330
29A
100
AcDbEntity
  8
P-SANR-FIXT
100
AcDbLine
 10
1488.363156828897
 20
1821.855519595004
 30
0.0
 11
1488.363156828897
 21
1827.651074552738
 31
0.0
  0
LWPOLYLINE
  5
2F7
330
29A
100
AcDbEntity
  8
P-SANR-FIXT
100
AcDbPolyline
 90
       22
 70
   128
 43
0.0
 10
1383.951524226188
 20
1840.442019185218
 10
1385.724530795199
 20
1841.71959523065
 10
1387.595774318181
 20
1842.915229081111
 10
1389.566179203755
 20
1844.042357966907
 10
1391.637241170642
 20
1845.111019312437
 10
1393.810362034629
 20
1846.12859297831
 10
1396.08651871422
 20
1847.100433299921
 10
1398.466121579686
 20
1848.030370419828
 10
1400.948975027382
 20
1848.921094259952
 10
1403.53429017399
 20
1849.774443647706
 10
1406.220721809351
 20
1850.591622518933
 10
1409.006414621468
 20
1851.373361437477
 10
1411.889050971067
 20
1852.120038594721
 10
1414.865896503718
 20
1852.831770915246
 10
1417.933842049803
 20
1853.50848310347
 10
1421.0894413904
 20
1854.14996036195
 10
1424.32894502442
 20
1854.755888962678
 10
1427.648330320195
 20
1855.325887725102
 10
1431.043328519426
 20
1855.859532637997
 10
1434.509449063545
 20
1856.356376271283
 10
1438.042001676221
 20
1856.81596319525
 10
1440.689544248248
 20
1857.126733148963
  0
LWPOLYLINE
  5
2F8
330
29A
100
AcDbEntity
  8
P-SANR-FIXT
100
AcDbPolyline
 90
       22
 70
   128
 43
0.0
 10
1576.774789431619
 20
1840.442019185216
 10
1575.001782862608
 20
1841.719595230648
 10
1573.130539339626
 20
1842.915229081109
 10
1571.160134454053
 20
1844.042357966906
 10
1569.089072487166
 20
1845.111019312435
 10
1566.915951623179
 20
1846.128592978308
 10
1564.639794943587
 20
1847.100433299919
 10
1562.260192078121
 20
1848.030370419826
 10
1559.777338630425
 20
1848.92109425995
 10
1557.192023483817
 20
1849.774443647704
 10
1554.505591848456
 20
1850.591622518931
 10
1551.719899036339
 20
1851.373361437475
 10
1548.837262686741
 20
1852.120038594719
 10
1545.860417154089
 20
1852.831770915244
 10
1542.792471608005
 20
1853.508483103468
 10
1539.636872267407
 20
1854.149960361949
 10
1536.397368633388
 20
1854.755888962676
 10
1533.077983337613
 20
1855.3258877251
 10
1529.682985138382
 20
1855.859532637996
 10
1526.216864594263
 20
1856.356376271282
 10
1522.684311981587
 20
1856.815963195249
 10
1520.03676940956
 20
1857.126733148962
  0
LINE
  5
2F9
330
29A
100
AcDbEntity
  8
P-SANR-FIXT
100
AcDbLine
 10
1383.951524226188
 20
1840.442019185218
 30
0.0
 11
1378.464513667657
 21
1836.227595260108
 31
0.0
  0
LINE
  5
2FA
330
29A
100
AcDbEntity
  8
P-SANR-FIXT
100
AcDbLine
 10
1582.26179999015
 20
1836.227595260106
 30
0.0
 11
1576.774789431619
 21
1840.442019185216
 31
0.0
  0
LINE
  5
2FB
330
29A
100
AcDbEntity
  8
P-SANR-FIXT
100
AcDbLine
 10
1358.41119614565
 20
1815.650137839458
 30
0.0
 11
1358.41119614565
 21
1813.488079067757
 31
0.0
  0
LINE
  5
2FC
330
29A
100
AcDbEntity
  8
P-SANR-FIXT
100
AcDbLine
 10
1602.315117512157
 20
1813.488079067754
 30
0.0
 11
1602.315117512157
 21
1815.650137839455
 31
0.0
  0
LINE
  5
2FD
330
29A
100
AcDbEntity
  8
P-SANR-FIXT
100
AcDbLine
 10
1380.555097104954
 20
1795.351101235142
 30
0.0
 11
1384.643071143284
 21
1793.844142775193
 31
0.0
  0
LINE
  5
2FE
330
29A
100
AcDbEntity
  8
P-SANR-FIXT
100
AcDbLine
 10
1576.083242514523
 20
1793.84414277519
 30
0.0
 11
1580.171216552853
 21
1795.351101235139
 31
0.0
  0
LINE
  5
2FF
330
29A
100
AcDbEntity
  8
P-SANR-FIXT
100
AcDbLine
 10
1369.567509912734
 20
1800.357557583061
 30
0.0
 11
1375.155421460669
 21
1767.473386700627
 31
0.0
  0
LINE
  5
300
330
29A
100
AcDbEntity
  8
P-SANR-FIXT
100
AcDbLine
 10
1585.570892197137
 20
1767.473386700625
 30
0.0
 11
1591.158803745072
 21
1800.357557583058
 31
0.0
  0
LWPOLYLINE
  5
301
330
29A
100
AcDbEntity
  8
P-SANR-FIXT
100
AcDbPolyline
 90
        7
 70
   128
 43
0.0
 10
1428.85676283487
 20
1641.005121175454
 10
1429.220692078147
 20
1639.849466309008
 10
1429.719781535244
 20
1638.789449361489
 10
1430.322119833195
 20
1637.830983722534
 10
1431.002976086527
 20
1636.967216106665
 10
1431.74625396011
 20
1636.185435915742
 10
1431.934734432754
 20
1636.006670938662
  0
LWPOLYLINE
  5
302
330
29A
100
AcDbEntity
  8
P-SANR-FIXT
100
AcDbPolyline
 90
        7
 70
   128
 43
0.0
 10
1531.869550822933
 20
1641.005121175453
 10
1531.505621579655
 20
1639.849466309007
 10
1531.006532122559
 20
1638.789449361488
 10
1530.404193824607
 20
1637.830983722533
 10
1529.723337571275
 20
1636.967216106664
 10
1528.980059697692
 20
1636.185435915741
 10
1528.791579225049
 20
1636.006670938661
  0
LINE
  5
303
330
29A
100
AcDbEntity
  8
P-SANR-FIXT
100
AcDbLine
 10
1431.934734432754
 20
1636.006670938662
 30
0.0
 11
1433.519503412447
 21
1634.531877225605
 31
0.0
  0
LINE
  5
304
330
29A
100
AcDbEntity
  8
P-SANR-FIXT
100
AcDbLine
 10
1527.206810245355
 20
1634.531877225603
 30
0.0
 11
1528.791579225048
 21
1636.006670938661
 31
0.0
  0
LWPOLYLINE
  5
305
330
29A
100
AcDbEntity
  8
P-SANR-FIXT
100
AcDbPolyline
 90
        8
 70
   128
 43
0.0
 10
1434.670491794403
 20
1631.073675192002
 10
1434.597588955782
 20
1632.025400619214
 10
1434.400841824551
 20
1632.880632143088
 10
1434.135550479401
 20
1633.571123771676
 10
1433.867452048066
 20
1634.068180998484
 10
1433.653383591154
 20
1634.37601640401
 10
1433.53301183035
 20
1634.517689972329
 10
1433.51563002711
 20
1634.535528911604
  0
LWPOLYLINE
  5
306
330
29A
100
AcDbEntity
  8
P-SANR-FIXT
100
AcDbPolyline
 90
        8
 70
   128
 43
0.0
 10
1526.055821863399
 20
1631.073675192
 10
1526.12872470202
 20
1632.025400619213
 10
1526.325471833251
 20
1632.880632143087
 10
1526.590763178402
 20
1633.571123771675
 10
1526.858861609737
 20
1634.068180998483
 10
1527.072930066648
 20
1634.376016404009
 10
1527.193301827452
 20
1634.517689972328
 10
1527.210683630692
 20
1634.535528911603
  0
LINE
  5
307
330
29A
100
AcDbEntity
  8
P-SANR-FIXT
100
AcDbLine
 10
1434.67851313537
 20
1630.852090935436
 30
0.0
 11
1435.568524716121
 21
1618.560178433733
 31
0.0
  0
LINE
  5
308
330
29A
100
AcDbEntity
  8
P-SANR-FIXT
100
AcDbLine
 10
1525.15778894168
 20
1618.560178433732
 30
0.0
 11
1526.047800522432
 21
1630.852090935435
 31
0.0
  0
LINE
  5
309
330
29A
100
AcDbEntity
  8
P-SANR-FIXT
100
AcDbLine
 10
1439.294702794395
 20
1604.459047304491
 30
0.0
 11
1440.116314262938
 21
1593.111805875119
 31
0.0
  0
LINE
  5
30A
330
29A
100
AcDbEntity
  8
P-SANR-FIXT
100
AcDbLine
 10
1520.609999394864
 20
1593.11180587512
 30
0.0
 11
1521.431610863407
 21
1604.45904730449
 31
0.0
  0
LINE
  5
30B
330
29A
100
AcDbEntity
  8
P-SANR-FIXT
100
AcDbLine
 10
1407.120639741593
 20
1732.267360002982
 30
0.0
 11
1407.373756544603
 21
1731.204612703085
 31
0.0
  0
LINE
  5
30C
330
29A
100
AcDbEntity
  8
P-SANR-FIXT
100
AcDbLine
 10
1553.352557113201
 20
1731.204612703083
 30
0.0
 11
1553.605673916212
 21
1732.26736000298
 31
0.0
  0
LWPOLYLINE
  5
30D
330
29A
100
AcDbEntity
  8
P-SANR-FIXT
100
AcDbPolyline
 90
       21
 70
   128
 43
0.0
 10
1375.155421460669
 20
1767.473386700627
 10
1375.748085216137
 20
1765.070669611646
 10
1376.64380636996
 20
1762.842540426096
 10
1377.776025502754
 20
1760.816420210337
 10
1379.088028204134
 20
1758.98806339573
 10
1380.540144786197
 20
1757.335747172798
 10
1382.108650323611
 20
1755.832058543836
 10
1383.78142337881
 20
1754.450722437733
 10
1385.55356734554
 20
1753.169458427187
 10
1387.42413669784
 20
1751.970569106789
 10
1389.394023743805
 20
1750.84051768616
 10
1391.464716052814
 20
1749.76918781345
 10
1393.637619621246
 20
1748.749139302802
 10
1395.913721141942
 20
1747.774972640013
 10
1398.29344263666
 20
1746.84282424735
 10
1400.776600082484
 20
1745.949979651992
 10
1403.362415156586
 20
1745.094582118873
 10
1406.04955178554
 20
1744.275414750728
 10
1408.836162254723
 20
1743.491737705073
 10
1411.719935011279
 20
1742.743166260805
 10
1414.418760021992
 20
1742.094119774392
  0
LWPOLYLINE
  5
30E
330
29A
100
AcDbEntity
  8
P-SANR-FIXT
100
AcDbPolyline
 90
       21
 70
   128
 43
0.0
 10
1585.570892197137
 20
1767.473386700625
 10
1584.978228441669
 20
1765.070669611644
 10
1584.082507287846
 20
1762.842540426094
 10
1582.950288155052
 20
1760.816420210335
 10
1581.638285453671
 20
1758.988063395728
 10
1580.186168871609
 20
1757.335747172795
 10
1578.617663334194
 20
1755.832058543834
 10
1576.944890278995
 20
1754.450722437731
 10
1575.172746312266
 20
1753.169458427185
 10
1573.302176959966
 20
1751.970569106787
 10
1571.332289914
 20
1750.840517686158
 10
1569.261597604991
 20
1749.769187813448
 10
1567.088694036559
 20
1748.7491393028
 10
1564.812592515863
 20
1747.774972640011
 10
1562.432871021146
 20
1746.842824247349
 10
1559.949713575322
 20
1745.94997965199
 10
1557.36389850122
 20
1745.094582118871
 10
1554.676761872266
 20
1744.275414750727
 10
1551.890151403082
 20
1743.491737705071
 10
1549.006378646527
 20
1742.743166260803
 10
1546.307553635814
 20
1742.094119774391
  0
LWPOLYLINE
  5
30F
330
29A
100
AcDbEntity
  8
P-SANR-FIXT
100
AcDbPolyline
 90
        7
 70
   128
 43
0.0
 10
1407.120639741593
 20
1732.267360002982
 10
1405.793677655951
 20
1736.49600210641
 10
1404.159265389451
 20
1739.979952886607
 10
1402.468921143458
 20
1742.679898056363
 10
1400.915487289699
 20
1744.658611287671
 10
1399.621505873882
 20
1746.025666597982
 10
1398.952641823364
 20
1746.627841796229
  0
LWPOLYLINE
  5
310
330
29A
100
AcDbEntity
  8
P-SANR-FIXT
100
AcDbPolyline
 90
        7
 70
   128
 43
0.0
 10
1553.605673916212
 20
1732.267360002979
 10
1554.932636001854
 20
1736.496002106407
 10
1556.567048268354
 20
1739.979952886605
 10
1558.257392514347
 20
1742.679898056361
 10
1559.810826368106
 20
1744.65861128767
 10
1561.104807783923
 20
1746.02566659798
 10
1561.763820436563
 20
1746.618972628471
  0
LWPOLYLINE
  5
311
330
29A
100
AcDbEntity
  8
P-SANR-FIXT
100
AcDbPolyline
 90
        6
 70
   128
 43
0.0
 10
1434.754067869532
 20
1851.182705935968
 10
1433.805300617072
 20
1850.299781421692
 10
1433.092678436558
 20
1849.725982522775
 10
1432.620653867795
 20
1849.391820077171
 10
1432.382597828975
 20
1849.241520580929
 10
1432.347105392692
 20
1849.220954936435
  0
LWPOLYLINE
  5
312
330
29A
100
AcDbEntity
  8
P-SANR-FIXT
100
AcDbPolyline
 90
        6
 70
   128
 43
0.0
 10
1525.972245788276
 20
1851.182705935966
 10
1526.921013040736
 20
1850.299781421691
 10
1527.63363522125
 20
1849.725982522773
 10
1528.105659790012
 20
1849.39182007717
 10
1528.343715828833
 20
1849.241520580928
 10
1528.379208265116
 20
1849.220954936434
  0
LINE
  5
313
330
29A
100
AcDbEntity
  8
P-SANR-FIXT
100
AcDbLine
 10
1358.41119614565
 20
1822.02825309646
 30
0.0
 11
1358.41119614565
 21
1818.547915318325
 31
0.0
  0
LINE
  5
314
330
29A
100
AcDbEntity
  8
P-SANR-FIXT
100
AcDbLine
 10
1602.315117512156
 20
1818.547915318322
 30
0.0
 11
1602.315117512156
 21
1822.028253096457
 31
0.0
  0
LWPOLYLINE
  5
315
330
29A
100
AcDbEntity
  8
P-SANR-FIXT
100
AcDbPolyline
 90
        6
 70
   128
 43
0.0
 10
1445.363156828904
 20
1862.575803234563
 10
1445.336427047258
 20
1862.225730995063
 10
1445.267202842088
 20
1861.923704469307
 10
1445.183087619982
 20
1861.703645737283
 10
1445.116872306439
 20
1861.579701779611
 10
1445.096042402614
 20
1861.548502636817
  0
LWPOLYLINE
  5
316
330
29A
100
AcDbEntity
  8
P-SANR-FIXT
100
AcDbPolyline
 90
        6
 70
   128
 43
0.0
 10
1515.363156828904
 20
1862.575803234562
 10
1515.38988661055
 20
1862.225730995062
 10
1515.45911081572
 20
1861.923704469307
 10
1515.543226037826
 20
1861.703645737282
 10
1515.609441351369
 20
1861.57970177961
 10
1515.630271255194
 20
1861.548502636816
  0
ELLIPSE
  5
317
330
29A
100
AcDbEntity
  8
P-SANR-FIXT
100
AcDbEllipse
 10
1480.363156828905
 20
2128.525780173049
 30
0.0
 11
24.17657148519333
 21
0.0
 31
0.0
210
0.0
220
0.0
230
0.9999999999999998
 40
0.258819045102519
 41
2.157803758476791
 42
4.712388980384673
  0
ARC
  5
318
330
29A
100
AcDbEntity
  8
P-SANR-FIXT
100
AcDbCircle
 10
1480.363156828902
 20
1970.998183850013
 30
0.0
 40
79.99999999995903
100
AcDbArc
 50
89.99999999999911
 51
269.9999999999986
  0
ARC
  5
319
330
29A
100
AcDbEntity
  8
P-SANR-FIXT
100
AcDbCircle
 10
1480.363156828893
 20
1970.998183850011
 30
0.0
 40
50.8000000000075
100
AcDbArc
 50
89.99999999999012
 51
270.0000000000075
  0
ARC
  5
31A
330
29A
100
AcDbEntity
  8
P-SANR-FIXT
100
AcDbCircle
 10
1480.363156828902
 20
1970.998183850013
 30
0.0
 40
79.99999999995907
100
AcDbArc
 50
269.9999999999987
 51
89.99999999999886
  0
ARC
  5
31B
330
29A
100
AcDbEntity
  8
P-SANR-FIXT
100
AcDbCircle
 10
1480.363156828893
 20
1970.998183850011
 30
0.0
 40
50.80000000000769
100
AcDbArc
 50
270.0000000000084
 51
89.99999999998948
  0
ARC
  5
31C
330
29A
100
AcDbEntity
  8
P-SANR-FIXT
100
AcDbCircle
 10
1480.363156828902
 20
1970.998183850013
 30
0.0
 40
110.0000000000044
100
AcDbArc
 50
89.99999999999911
 51
269.9999999999986
  0
ARC
  5
31D
330
29A
100
AcDbEntity
  8
P-SANR-FIXT
100
AcDbCircle
 10
1480.363156828902
 20
1970.998183850013
 30
0.0
 40
110.0000000000042
100
AcDbArc
 50
269.9999999999986
 51
89.99999999999898
  0
ARC
  5
31E
330
29A
100
AcDbEntity
  8
P-SANR-FIXT
100
AcDbCircle
 10
1480.363156828902
 20
1970.998183850013
 30
0.0
 40
110.0000000000043
100
AcDbArc
 50
93.34742659861364
 51
96.93646532879826
  0
ARC
  5
31F
330
29A
100
AcDbEntity
  8
P-SANR-FIXT
100
AcDbCircle
 10
1480.363156828902
 20
1970.998183850013
 30
0.0
 40
110.0000000000044
100
AcDbArc
 50
83.06353467120269
 51
86.65257340139515
  0
LINE
  5
320
330
29A
100
AcDbEntity
  8
P-SANR-FIXT
100
AcDbLine
 10
1467.078605879604
 20
2080.193058757567
 30
0.0
 11
1467.078605879604
 21
2080.108247393623
 31
0.0
  0
LINE
  5
321
330
29A
100
AcDbEntity
  8
P-SANR-FIXT
100
AcDbLine
 10
1467.078605879604
 20
2020.024163838542
 30
0.0
 11
1467.078605879604
 21
2019.993851761456
 31
0.0
  0
LINE
  5
322
330
29A
100
AcDbEntity
  8
P-SANR-FIXT
100
AcDbLine
 10
1493.647707778196
 20
2019.993851761453
 30
0.0
 11
1493.647707778196
 21
2020.024163838538
 31
0.0
  0
LINE
  5
323
330
29A
100
AcDbEntity
  8
P-SANR-FIXT
100
AcDbLine
 10
1493.647707778196
 20
2080.108247393624
 30
0.0
 11
1493.647707778196
 21
2080.193058757568
 31
0.0
  0
ELLIPSE
  5
324
330
29A
100
AcDbEntity
  8
P-SANR-FIXT
100
AcDbEllipse
 10
1480.363156828905
 20
2128.525780173049
 30
0.0
 11
24.17657148519325
 21
0.0
 31
0.0
210
0.0
220
0.0
230
1.0
 40
0.2588190451025106
 41
4.712388980384683
 42
7.266974202293628
  0
ELLIPSE
  5
325
330
29A
100
AcDbEntity
  8
P-SANR-FIXT
100
AcDbEllipse
 10
1480.363156828905
 20
2118.866521910159
 30
0.0
 11
36.17657148519388
 21
0.0
 31
0.0
210
0.0
220
0.0
230
1.0
 40
0.2588190451025196
 41
2.303533856639973
 42
4.573610366363475
  0
ELLIPSE
  5
326
330
29A
100
AcDbEntity
  8
P-SANR-FIXT
100
AcDbEllipse
 10
1480.363156828905
 20
2118.866521910159
 30
0.0
 11
36.17657148519324
 21
0.0
 31
0.0
210
0.0
220
0.0
230
1.0
 40
0.2588190451025134
 41
4.851167594405239
 42
7.121244104129362
  0
ELLIPSE
  5
327
330
29A
100
AcDbEntity
  8
P-SANR-FIXT
100
AcDbEllipse
 10
1480.363156828905
 20
2115.968744431292
 30
0.0
 11
-36.17657148519311
 21
0.000000000000428
 31
0.0
210
0.0
220
0.0
230
1.0
 40
0.258819045102528
 41
0.0
 42
1.378126337610838
  0
ELLIPSE
  5
328
330
29A
100
AcDbEntity
  8
P-SANR-FIXT
100
AcDbEllipse
 10
1480.363156828905
 20
2115.968744431292
 30
0.0
 11
36.17657148519346
 21
0.0
 31
0.0
210
0.0
220
0.0
230
1.0
 40
0.2588190451025179
 41
4.905058969568148
 42
6.283185307179531
  0
ELLIPSE
  5
329
330
29A
100
AcDbEntity
  8
P-SANR-FIXT
100
AcDbEllipse
 10
1480.363156828905
 20
2115.968744431292
 30
0.0
 11
37.67657148519326
 21
0.0
 31
0.0
210
0.0
220
0.0
230
1.0
 40
0.2588190451025212
 41
2.859949039105494
 42
4.517306999996139
  0
ELLIPSE
  5
32A
330
29A
100
AcDbEntity
  8
P-SANR-FIXT
100
AcDbEllipse
 10
1480.363156828905
 20
2115.968744431292
 30
0.0
 11
37.67657148519346
 21
0.0
 31
0.0
210
0.0
220
0.0
230
1.0
 40
0.258819045102517
 41
4.907470960772655
 42
6.564828921663842
  0
ELLIPSE
  5
32B
330
29A
100
AcDbEntity
  8
P-SANR-FIXT
100
AcDbEllipse
 10
1480.363156828905
 20
2109.22253899446
 30
0.0
 11
46.0000000000002
 21
0.0
 31
0.0
210
0.0
220
0.0
230
1.0
 40
0.2588190451025202
 41
2.792526803190876
 42
4.548555656889631
  0
ELLIPSE
  5
32C
330
29A
100
AcDbEntity
  8
P-SANR-FIXT
100
AcDbEllipse
 10
1480.363156828905
 20
2109.22253899446
 30
0.0
 11
45.99999999999986
 21
0.0
 31
0.0
210
0.0
220
0.0
230
1.0
 40
0.2588190451025266
 41
4.876222303879227
 42
6.632251157578385
  0
ELLIPSE
  5
32D
330
29A
100
AcDbEntity
  8
P-SANR-FIXT
100
AcDbEllipse
 10
1480.363156828904
 20
2081.45299707067
 30
0.0
 11
-46.00000000000022
 21
0.000000000000299
 31
0.0
210
0.0
220
0.0
230
1.0
 40
0.2588190451025251
 41
0.0
 42
0.6296194722851015
  0
ELLIPSE
  5
32E
330
29A
100
AcDbEntity
  8
P-SANR-FIXT
100
AcDbEllipse
 10
1480.363156828904
 20
2081.45299707067
 30
0.0
 11
45.99999999999988
 21
0.0
 31
0.0
210
0.0
220
0.0
230
1.0
 40
0.2588190451025174
 41
5.653565834894363
 42
6.283185307179503
  0
ELLIPSE
  5
32F
330
29A
100
AcDbEntity
  8
P-SANR-FIXT
100
AcDbEllipse
 10
1442.059164901742
 20
2090.659409611689
 30
0.0
 11
19.99999999999995
 21
0.0
 31
0.0
210
0.0
220
0.0
230
1.0
 40
0.2588190451025256
 41
1.966116509894582
 42
3.106686068549859
  0
LINE
  5
330
330
29A
100
AcDbEntity
  8
P-SANR-FIXT
100
AcDbLine
 10
1422.07134836136
 20
2090.840062699911
 30
0.0
 11
1418.898236328561
 21
2081.45299707067
 31
0.0
  0
LINE
  5
331
330
29A
100
AcDbEntity
  8
P-SANR-FIXT
100
AcDbLine
 10
1418.898236328561
 20
2081.45299707067
 30
0.0
 11
1422.07134836136
 21
2072.06593144143
 31
0.0
  0
ELLIPSE
  5
332
330
29A
100
AcDbEntity
  8
P-SANR-FIXT
100
AcDbEllipse
 10
1442.059164901742
 20
2072.246584529651
 30
0.0
 11
20.00000000000011
 21
0.0
 31
0.0
210
0.0
220
0.0
230
1.0
 40
0.2588190451025232
 41
3.176499238629632
 42
4.010362632383294
  0
ELLIPSE
  5
333
330
29A
100
AcDbEntity
  8
P-SANR-FIXT
100
AcDbEllipse
 10
1518.667148756046
 20
2072.246584529651
 30
0.0
 11
19.99999999999991
 21
0.0
 31
0.0
210
0.0
220
0.0
230
1.0
 40
0.2588190451025202
 41
5.414399190631264
 42
6.248278722139645
  0
LINE
  5
334
330
29A
100
AcDbEntity
  8
P-SANR-FIXT
100
AcDbLine
 10
1538.654965296428
 20
2072.065931441428
 30
0.0
 11
1541.828077329228
 21
2081.452997070669
 31
0.0
  0
LINE
  5
335
330
29A
100
AcDbEntity
  8
P-SANR-FIXT
100
AcDbLine
 10
1541.828077329228
 20
2081.452997070669
 30
0.0
 11
1537.878388044649
 21
2091.179101889398
 31
0.0
  0
ELLIPSE
  5
336
330
29A
100
AcDbEntity
  8
P-SANR-FIXT
100
AcDbEllipse
 10
1513.83291615682
 20
2089.408218146554
 30
0.0
 11
24.9999999999999
 21
0.0
 31
0.0
210
0.0
220
0.0
230
1.0
 40
0.2588190451024981
 41
0.2772240806173063
 42
1.045540182049938
  0
SPLINE
  5
337
330
29A
100
AcDbEntity
  8
P-SANR-FIXT
100
AcDbSpline
210
0.0
220
0.0
230
1.0
 70
     8
 71
     3
 72
    11
 73
     7
 74
     0
 42
0.000000001
 43
0.0000000001
 40
-1.0
 40
-1.0
 40
-1.0
 40
-1.0
 40
-0.9
 40
-0.8
 40
-0.7
 40
-0.6505687879996388
 40
-0.6505687879996388
 40
-0.6505687879996388
 40
-0.6505687879996388
 10
1471.037835381162
 20
1808.741404396828
 30
0.0
 10
1470.195928516243
 20
1809.043704005425
 30
0.0
 10
1468.696905865032
 20
1809.725037215989
 30
0.0
 10
1467.128845925629
 20
1810.946935679817
 30
0.0
 10
1466.462413572158
 20
1812.068307586553
 30
0.0
 10
1466.363271027182
 20
1812.761242598085
 30
0.0
 10
1466.363272646327
 20
1812.991222941619
 30
0.0
  0
SPLINE
  5
338
330
29A
100
AcDbEntity
  8
P-SANR-FIXT
100
AcDbSpline
210
0.0
220
0.0
230
1.0
 70
     8
 71
     3
 72
    10
 73
     6
 74
     0
 42
0.000000001
 43
0.0000000001
 40
-0.3494312120005571
 40
-0.3494312120005571
 40
-0.3494312120005571
 40
-0.3494312120005571
 40
-0.3
 40
-0.2
 40
0.0
 40
0.0
 40
0.0
 40
0.0
 10
1494.362962676528
 20
1812.99130659884
 30
0.0
 10
1494.362950076306
 20
1812.761341440776
 30
0.0
 10
1494.263842713059
 20
1812.06836885717
 30
0.0
 10
1493.33179227542
 20
1810.495756433389
 30
0.0
 10
1491.372292006462
 20
1809.346003614021
 30
0.0
 10
1489.688478276623
 20
1808.741404396827
 30
0.0
  0
SPLINE
  5
339
330
29A
100
AcDbEntity
  8
P-SANR-FIXT
100
AcDbSpline
210
0.0
220
0.0
230
1.0
 70
     8
 71
     3
 72
    12
 73
     8
 74
     0
 42
0.000000001
 43
0.0000000001
 40
0.0
 40
0.0
 40
0.0
 40
0.0
 40
0.125
 40
0.1875
 40
0.25
 40
0.3125
 40
0.342238898290391
 40
0.342238898290391
 40
0.342238898290391
 40
0.342238898290391
 10
1480.363156828902
 20
1859.805272095705
 30
0.0
 10
1479.802652408529
 20
1859.829672504934
 30
0.0
 10
1478.996306653938
 20
1859.942078054611
 30
0.0
 10
1477.990822559256
 20
1860.243528179231
 30
0.0
 10
1477.273018706406
 20
1860.539988453835
 30
0.0
 10
1476.706477056231
 20
1860.858253023182
 30
0.0
 10
1476.380504144608
 20
1861.078935694967
 30
0.0
 10
1476.276761807217
 20
1861.152779192543
 30
0.0
  0
SPLINE
  5
33A
330
29A
100
AcDbEntity
  8
P-SANR-FIXT
100
AcDbSpline
210
0.0
220
0.0
230
1.0
 70
     8
 71
     3
 72
    13
 73
     9
 74
     0
 42
0.000000001
 43
0.0000000001
 40
0.6583143097218409
 40
0.6583143097218409
 40
0.6583143097218409
 40
0.6583143097218409
 40
0.7
 40
0.775
 40
0.8125
 40
0.85
 40
0.925
 40
1.0
 40
1.0
 40
1.0
 40
1.0
 10
1484.450377227701
 20
1861.158851911419
 30
0.0
 10
1484.304177667698
 20
1861.056540111339
 30
0.0
 10
1483.885592240724
 20
1860.780539555961
 30
0.0
 10
1483.303183961641
 20
1860.466605959482
 30
0.0
 10
1482.720007847233
 20
1860.233201353137
 30
0.0
 10
1482.122221713381
 20
1860.039872594341
 30
0.0
 10
1481.346381848083
 20
1859.870698273342
 30
0.0
 10
1480.69581767145
 20
1859.813916018516
 30
0.0
 10
1480.363156828902
 20
1859.805272095705
 30
0.0
  0
LINE
  5
33B
330
29A
100
AcDbEntity
  8
P-SANR-FIXT
100
AcDbLine
 10
1467.078605879604
 20
2080.998183850017
 30
0.0
 11
1473.940483043381
 21
2080.998183850017
 31
0.0
  0
LINE
  5
33C
330
29A
100
AcDbEntity
  8
P-SANR-FIXT
100
AcDbLine
 10
1486.785830614405
 20
2080.998183850017
 30
0.0
 11
1493.647707778196
 21
2080.998183850017
 31
0.0
  0
LINE
  5
33D
330
29A
100
AcDbEntity
  8
P-SANR-FIXT
100
AcDbLine
 10
1493.647707778196
 20
2080.998183850017
 30
0.0
 11
1493.647707778196
 21
2080.193058757568
 31
0.0
  0
LINE
  5
33E
330
29A
100
AcDbEntity
  8
P-SANR-FIXT
100
AcDbLine
 10
1422.07134836136
 20
2072.065931441429
 30
0.0
 11
1422.07134836136
 21
2064.242722466809
 31
0.0
  0
LINE
  5
33F
330
29A
100
AcDbEntity
  8
P-SANR-FIXT
100
AcDbLine
 10
1418.898236328561
 20
2062.122516790765
 30
0.0
 11
1418.898236328561
 21
2081.45299707067
 31
0.0
  0
LINE
  5
340
330
29A
100
AcDbEntity
  8
P-SANR-FIXT
100
AcDbLine
 10
1538.654965296428
 20
2064.242722466819
 30
0.0
 11
1538.654965296428
 21
2072.065931441429
 31
0.0
  0
LINE
  5
341
330
29A
100
AcDbEntity
  8
P-SANR-FIXT
100
AcDbLine
 10
1541.828077329228
 20
2062.122516790774
 30
0.0
 11
1541.828077329228
 21
2081.45299707067
 31
0.0
  0
ELLIPSE
  5
342
330
29A
100
AcDbEntity
  8
P-SANR-FIXT
100
AcDbEllipse
 10
1480.363156828898
 20
1558.903787228882
 30
0.0
 11
6.302754939482837
 21
0.0
 31
0.0
210
0.0
220
0.0
230
0.9999999999999998
 40
0.258819045102507
 41
3.141592653589793
 42
4.712388980384683
  0
ELLIPSE
  5
343
330
29A
100
AcDbEntity
  8
P-SANR-FIXT
100
AcDbEllipse
 10
1480.363156828898
 20
1558.903787228882
 30
0.0
 11
6.302754939483065
 21
0.0
 31
0.0
210
0.0
220
0.0
230
1.0
 40
0.2588190451024976
 41
4.712388980384683
 42
6.283185307179586
  0
ELLIPSE
  5
344
330
29A
100
AcDbEntity
  8
P-SANR-FIXT
100
AcDbEllipse
 10
1480.363156828894
 20
1827.651074552737
 30
0.0
 11
8.000000000000227
 21
0.0
 31
0.0
210
0.0
220
0.0
230
1.0
 40
0.2588190451025054
 41
1.570796326794896
 42
4.712388980384683
  0
ELLIPSE
  5
345
330
29A
100
AcDbEntity
  8
P-SANR-FIXT
100
AcDbEllipse
 10
1480.363156828894
 20
1827.651074552737
 30
0.0
 11
8.0
 21
0.0
 31
0.0
210
0.0
220
0.0
230
1.0
 40
0.2588190451025412
 41
4.712388980384683
 42
7.853981633974482
  0
ELLIPSE
  5
346
330
29A
100
AcDbEntity
  8
P-SANR-FIXT
100
AcDbEllipse
 10
1480.363156828894
 20
1691.938495959123
 30
0.0
 11
5.999999999999544
 21
0.0
 31
0.0
210
0.0
220
0.0
230
0.9999999999999998
 40
0.2588190451025229
 41
3.141592653589793
 42
4.712388980384683
  0
ELLIPSE
  5
347
330
29A
100
AcDbEntity
  8
P-SANR-FIXT
100
AcDbEllipse
 10
1480.363156828894
 20
1691.938495959123
 30
0.0
 11
5.999999999999317
 21
0.0
 31
0.0
210
0.0
220
0.0
230
1.0
 40
0.2588190451025327
 41
4.712388980384683
 42
6.283185307179586
  0
ELLIPSE
  5
348
330
29A
100
AcDbEntity
  8
P-SANR-FIXT
100
AcDbEllipse
 10
1480.363156828894
 20
1700.631828395724
 30
0.0
 11
5.999999999999544
 21
0.0
 31
0.0
210
0.0
220
0.0
230
0.9999999999999998
 40
0.2588190451025229
 41
2.560924585511371
 42
4.712388980384683
  0
ELLIPSE
  5
349
330
29A
100
AcDbEntity
  8
P-SANR-FIXT
100
AcDbEllipse
 10
1480.363156828894
 20
1700.631828395724
 30
0.0
 11
5.999999999999229
 21
0.0
 31
0.0
210
0.0
220
0.0
230
1.0
 40
0.2588190451025272
 41
4.712388980384683
 42
6.863853375258041
  0
ELLIPSE
  5
34A
330
29A
100
AcDbEntity
  8
P-SANR-FIXT
100
AcDbEllipse
 10
1480.363156828894
 20
1700.631828395724
 30
0.0
 11
4.999999999999545
 21
0.0
 31
0.0
210
0.0
220
0.0
230
1.0
 40
0.2588190451024965
 41
3.141592653589793
 42
4.712388980384683
  0
ELLIPSE
  5
34B
330
29A
100
AcDbEntity
  8
P-SANR-FIXT
100
AcDbEllipse
 10
1480.363156828894
 20
1700.631828395724
 30
0.0
 11
4.999999999999317
 21
0.0
 31
0.0
210
0.0
220
0.0
230
1.0
 40
0.2588190451025083
 41
4.712388980384683
 42
6.283185307179586
  0
ELLIPSE
  5
34C
330
29A
100
AcDbEntity
  8
P-SANR-FIXT
100
AcDbEllipse
 10
1480.363156828894
 20
1704.012568787736
 30
0.0
 11
8.499999999999545
 21
0.0
 31
0.0
210
0.0
220
0.0
230
1.0
 40
0.2588190451025216
 41
3.141592653589793
 42
4.712388980384683
  0
ELLIPSE
  5
34D
330
29A
100
AcDbEntity
  8
P-SANR-FIXT
100
AcDbEllipse
 10
1480.363156828894
 20
1704.012568787736
 30
0.0
 11
8.499999999999317
 21
0.0
 31
0.0
210
0.0
220
0.0
230
1.0
 40
0.2588190451025285
 41
4.712388980384683
 42
6.283185307179586
  0
ELLIPSE
  5
34E
330
29A
100
AcDbEntity
  8
P-SANR-FIXT
100
AcDbEllipse
 10
1480.363156828894
 20
1708.359235006037
 30
0.0
 11
8.499999999999545
 21
0.0
 31
0.0
210
0.0
220
0.0
230
1.0
 40
0.2588190451025216
 41
3.103101936561622
 42
4.712388980384683
  0
ELLIPSE
  5
34F
330
29A
100
AcDbEntity
  8
P-SANR-FIXT
100
AcDbEllipse
 10
1480.363156828894
 20
1708.359235006037
 30
0.0
 11
8.499999999999342
 21
0.0
 31
0.0
210
0.0
220
0.0
230
1.0
 40
0.258819045102518
 41
4.712388980384683
 42
6.321676024207757
  0
ELLIPSE
  5
350
330
29A
100
AcDbEntity
  8
P-SANR-FIXT
100
AcDbEllipse
 10
1480.363156828894
 20
1708.359235006037
 30
0.0
 11
6.499999999999544
 21
0.0
 31
0.0
210
0.0
220
0.0
230
0.9999999999999998
 40
0.2588190451025155
 41
3.498089703836967
 42
4.712388980384683
  0
ELLIPSE
  5
351
330
29A
100
AcDbEntity
  8
P-SANR-FIXT
100
AcDbEllipse
 10
1480.363156828894
 20
1708.359235006037
 30
0.0
 11
6.499999999999584
 21
0.0
 31
0.0
210
0.0
220
0.0
230
1.0
 40
0.2588190451025054
 41
4.712388980384683
 42
5.926688256932386
  0
ELLIPSE
  5
352
330
29A
100
AcDbEntity
  8
P-SANR-FIXT
100
AcDbEllipse
 10
1480.363156828894
 20
1709.808123745471
 30
0.0
 11
9.999999999999317
 21
0.0
 31
0.0
210
0.0
220
0.0
230
1.0
 40
0.2588190451025361
 41
3.141592653589962
 42
4.712388980384683
  0
ELLIPSE
  5
353
330
29A
100
AcDbEntity
  8
P-SANR-FIXT
100
AcDbEllipse
 10
1480.363156828894
 20
1709.808123745471
 30
0.0
 11
9.999999999999317
 21
0.0
 31
0.0
210
0.0
220
0.0
230
1.0
 40
0.2588190451025361
 41
4.712388980384683
 42
6.283185307179586
  0
ELLIPSE
  5
354
330
29A
100
AcDbEntity
  8
P-SANR-FIXT
100
AcDbEllipse
 10
1480.363156828894
 20
1715.603678703205
 30
0.0
 11
14.00000000000023
 21
0.0
 31
0.0
210
0.0
220
0.0
230
1.0
 40
0.2588190451025045
 41
3.156028424394609
 42
4.712388980384683
  0
ELLIPSE
  5
355
330
29A
100
AcDbEntity
  8
P-SANR-FIXT
100
AcDbEllipse
 10
1480.363156828894
 20
1715.603678703205
 30
0.0
 11
14.00000000000011
 21
0.0
 31
0.0
210
0.0
220
0.0
230
0.9999999999999998
 40
0.2588190451025042
 41
4.712388980384683
 42
6.268749536374694
  0
ELLIPSE
  5
356
330
29A
100
AcDbEntity
  8
P-SANR-FIXT
100
AcDbEllipse
 10
1480.363156828894
 20
1821.855519595003
 30
0.0
 11
14.00000000000023
 21
0.0
 31
0.0
210
0.0
220
0.0
230
1.0
 40
0.2588190451025045
 41
2.179596642661385
 42
4.712388980384683
  0
ELLIPSE
  5
357
330
29A
100
AcDbEntity
  8
P-SANR-FIXT
100
AcDbEllipse
 10
1480.363156828894
 20
1821.855519595003
 30
0.0
 11
14.0000000000003
 21
0.0
 31
0.0
210
0.0
220
0.0
230
1.0
 40
0.2588190451025119
 41
4.712388980384683
 42
7.245181318108003
  0
ELLIPSE
  5
358
330
29A
100
AcDbEntity
  8
P-SANR-FIXT
100
AcDbEllipse
 10
1480.363156828894
 20
1821.855519595003
 30
0.0
 11
8.000000000000227
 21
0.0
 31
0.0
210
0.0
220
0.0
230
1.0
 40
0.2588190451024769
 41
3.141592653589793
 42
4.712388980384683
  0
ELLIPSE
  5
359
330
29A
100
AcDbEntity
  8
P-SANR-FIXT
100
AcDbEllipse
 10
1480.363156828894
 20
1821.855519595003
 30
0.0
 11
8.0
 21
0.0
 31
0.0
210
0.0
220
0.0
230
1.0
 40
0.2588190451024843
 41
4.712388980384683
 42
6.283185307179586
  0
LINE
  5
35A
330
29A
100
AcDbEntity
  8
P-SANR-FIXT
100
AcDbLine
 10
1467.078605879604
 20
2080.193058757567
 30
0.0
 11
1467.078605879604
 21
2080.998183850017
 31
0.0
  0
SPLINE
  5
35B
330
29A
100
AcDbEntity
  8
P-SANR-FIXT
100
AcDbSpline
210
0.0
220
0.0
230
1.0
 70
     8
 71
     3
 72
    17
 73
    13
 74
     0
 42
0.000000001
 43
0.0000000001
 40
0.0
 40
0.0
 40
0.0
 40
0.0
 40
0.1666666666666666
 40
0.25
 40
0.3333333333333333
 40
0.4166666666666666
 40
0.5
 40
0.5833333333333333
 40
0.6666666666666666
 40
0.75
 40
0.8333333333333332
 40
1.0
 40
1.0
 40
1.0
 40
1.0
 10
1471.037835381162
 20
1808.741404396828
 30
0.0
 10
1471.457854362916
 20
1808.54007114085
 30
0.0
 10
1472.122305647113
 20
1808.250800344074
 30
0.0
 10
1473.067496617982
 20
1807.891216177723
 30
0.0
 10
1473.803723260634
 20
1807.637823520303
 30
0.0
 10
1474.563588398685
 20
1807.389990239767
 30
0.0
 10
1475.34448684217
 20
1807.150290248569
 30
0.0
 10
1476.145118987746
 20
1806.934477230228
 30
0.0
 10
1476.964239418674
 20
1806.758365114923
 30
0.0
 10
1477.79922522652
 20
1806.624585906794
 30
0.0
 10
1478.928142096526
 20
1806.488080856892
 30
0.0
 10
1479.788183786723
 20
1806.437384711063
 30
0.0
 10
1480.3631568289
 20
1806.426316692249
 30
0.0
  0
ELLIPSE
  5
35C
330
29A
100
AcDbEntity
  8
P-SANR-FIXT
100
AcDbEllipse
 10
1480.363156828901
 20
1833.964206754309
 30
0.0
 11
97.89857829387141
 21
0.0
 31
0.0
210
0.0
220
0.0
230
1.0
 40
0.2588190451025193
 41
1.988202499364318
 42
4.616989417679299
  0
ELLIPSE
  5
35D
330
29A
100
AcDbEntity
  8
P-SANR-FIXT
100
AcDbEllipse
 10
1480.363156828901
 20
1833.964206754309
 30
0.0
 11
97.89857829387123
 21
0.0
 31
0.0
210
0.0
220
0.0
230
1.0
 40
0.2588190451025208
 41
4.807788543089881
 42
7.007816886506502
  0
ELLIPSE
  5
35E
330
29A
100
AcDbEntity
  8
P-SANR-FIXT
100
AcDbEllipse
 10
1480.363156828901
 20
1833.964206754309
 30
0.0
 11
97.89857829387129
 21
0.0
 31
0.0
210
0.0
220
0.0
230
1.0
 40
0.2588190451025203
 41
0.7288033817820211
 42
0.8654220940677561
  0
ELLIPSE
  5
35F
330
29A
100
AcDbEntity
  8
P-SANR-FIXT
100
AcDbEllipse
 10
1480.363156828901
 20
1833.964206754309
 30
0.0
 11
97.89857829387113
 21
0.0
 31
0.0
210
0.0
220
0.0
230
1.0
 40
0.2588190451025183
 41
0.8938645288205172
 42
1.153390154225446
  0
SPLINE
  5
360
330
29A
100
AcDbEntity
  8
P-SANR-FIXT
100
AcDbSpline
210
0.0
220
0.0
230
1.0
 70
     8
 71
     3
 72
    17
 73
    13
 74
     0
 42
0.000000001
 43
0.0000000001
 40
0.0
 40
0.0
 40
0.0
 40
0.0
 40
0.1666666666666666
 40
0.25
 40
0.3333333333333333
 40
0.4166666666666666
 40
0.5
 40
0.5833333333333333
 40
0.6666666666666666
 40
0.75
 40
0.8333333333333332
 40
1.0
 40
1.0
 40
1.0
 40
1.0
 10
1480.3631568289
 20
1806.426316692249
 30
0.0
 10
1480.938560881753
 20
1806.437434748258
 30
0.0
 10
1481.79911978301
 20
1806.488213973823
 30
0.0
 10
1482.928443673887
 20
1806.624819819931
 30
0.0
 10
1483.763609141267
 20
1806.758664487512
 30
0.0
 10
1484.582726834494
 20
1806.934820930075
 30
0.0
 10
1485.383194803225
 20
1807.150649680511
 30
0.0
 10
1486.163857232772
 20
1807.390339372739
 30
0.0
 10
1486.92349778011
 20
1807.638144426435
 30
0.0
 10
1487.659522782453
 20
1807.891493616987
 30
0.0
 10
1488.604408735701
 20
1808.250987598503
 30
0.0
 10
1489.268619297631
 20
1808.540156044163
 30
0.0
 10
1489.688478276623
 20
1808.741404396827
 30
0.0
  0
ELLIPSE
  5
361
330
29A
100
AcDbEntity
  8
P-SANR-FIXT
100
AcDbEllipse
 10
1480.363156828901
 20
1825.379739178842
 30
0.0
 11
111.4872754397887
 21
0.0
 31
0.0
210
0.0
220
0.0
230
1.0
 40
0.2588190451025197
 41
2.652360288529507
 42
4.712388980384669
  0
ELLIPSE
  5
362
330
29A
100
AcDbEntity
  8
P-SANR-FIXT
100
AcDbEllipse
 10
1480.363156828901
 20
1825.379739178842
 30
0.0
 11
-111.4872754397884
 21
0.0000000000016407
 31
0.0
210
0.0
220
0.0
230
1.0
 40
0.2588190451025198
 41
1.570796326794891
 42
3.630825018650041
  0
ELLIPSE
  5
363
330
29A
100
AcDbEntity
  8
P-SANR-FIXT
100
AcDbEllipse
 10
1480.363156828901
 20
1815.650137839456
 30
0.0
 11
-121.9519606832534
 21
0.0000000000014426
 31
0.0
210
0.0
220
0.0
230
1.0
 40
0.258819045102519
 41
6.237234134144514
 42
7.85398163397448
  0
ELLIPSE
  5
364
330
29A
100
AcDbEntity
  8
P-SANR-FIXT
100
AcDbEllipse
 10
1480.363156828901
 20
1815.650137839456
 30
0.0
 11
121.9519606832534
 21
0.0
 31
0.0
210
0.0
220
0.0
230
1.0
 40
0.2588190451025192
 41
4.712388980384679
 42
6.329136480214612
  0
ELLIPSE
  5
365
330
29A
100
AcDbEntity
  8
P-SANR-FIXT
100
AcDbEllipse
 10
1480.363156828901
 20
1813.488079067754
 30
0.0
 11
-121.9519606832536
 21
0.0000000000013343
 31
0.0
210
0.0
220
0.0
230
1.0
 40
0.2588190451025205
 41
0.0
 42
1.570796326794886
  0
ELLIPSE
  5
366
330
29A
100
AcDbEntity
  8
P-SANR-FIXT
100
AcDbEllipse
 10
1480.363156828901
 20
1813.488079067754
 30
0.0
 11
-121.9519606832534
 21
0.0000000000016322
 31
0.0
210
0.0
220
0.0
230
1.0
 40
0.258819045102521
 41
1.570796326794892
 42
3.141592653589782
  0
ELLIPSE
  5
367
330
29A
100
AcDbEntity
  8
P-SANR-FIXT
100
AcDbEllipse
 10
1480.363156828899
 20
1631.073675192
 30
0.0
 11
-45.6926650344983
 21
0.0000000000006014
 31
0.0
210
0.0
220
0.0
230
1.0
 40
0.2588190451025186
 41
0.0
 42
1.570796326794881
  0
ELLIPSE
  5
368
330
29A
100
AcDbEntity
  8
P-SANR-FIXT
100
AcDbEllipse
 10
1480.363156828899
 20
1631.073675192
 30
0.0
 11
-45.69266503449807
 21
0.0000000000006724
 31
0.0
210
0.0
220
0.0
230
1.0
 40
0.2588190451025199
 41
1.570796326794897
 42
3.141592653589787
  0
ELLIPSE
  5
369
330
29A
100
AcDbEntity
  8
P-SANR-FIXT
100
AcDbEllipse
 10
1480.363156828899
 20
1618.777445866557
 30
0.0
 11
-44.80249718490472
 21
0.0000000000005399
 31
0.0
210
0.0
220
0.0
230
0.9999999999999998
 40
0.2588190451025192
 41
0.0
 42
1.570796326794886
  0
ELLIPSE
  5
36A
330
29A
100
AcDbEntity
  8
P-SANR-FIXT
100
AcDbEllipse
 10
1480.363156828899
 20
1618.777445866557
 30
0.0
 11
-44.80249718490449
 21
0.0000000000004206
 31
0.0
210
0.0
220
0.0
230
1.0
 40
0.2588190451025206
 41
1.570796326794895
 42
3.141592653589786
  0
ELLIPSE
  5
36B
330
29A
100
AcDbEntity
  8
P-SANR-FIXT
100
AcDbEllipse
 10
1480.363156828899
 20
1608.152261777378
 30
0.0
 11
-43.50000000000068
 21
0.0000000000003021
 31
0.0
210
0.0
220
0.0
230
1.0
 40
0.2588190451025279
 41
0.0
 42
1.570796326794878
  0
ELLIPSE
  5
36C
330
29A
100
AcDbEntity
  8
P-SANR-FIXT
100
AcDbEllipse
 10
1480.363156828899
 20
1608.152261777378
 30
0.0
 11
-43.50000000000091
 21
0.0000000000005436
 31
0.0
210
0.0
220
0.0
230
1.0
 40
0.2588190451025266
 41
1.570796326794885
 42
3.141592653589776
  0
SPLINE
  5
36D
330
29A
100
AcDbEntity
  8
P-SANR-FIXT
100
AcDbSpline
210
0.0
220
0.0
230
1.0
 70
     8
 71
     3
 72
    13
 73
     9
 74
     0
 42
0.000000001
 43
0.0000000001
 40
0.0
 40
0.0
 40
0.0
 40
0.0
 40
0.1666666666666666
 40
0.3333333333333333
 40
0.5
 40
0.6666666666666666
 40
0.8333333333333332
 40
1.0
 40
1.0
 40
1.0
 40
1.0
 10
1480.3631568289
 20
1736.068252674665
 30
0.0
 10
1479.883327878789
 20
1736.062679743388
 30
0.0
 10
1478.926142253898
 20
1736.042579376482
 30
0.0
 10
1477.512415982624
 20
1735.993679798704
 30
0.0
 10
1476.136116116919
 20
1735.898192471908
 30
0.0
 10
1474.809316090015
 20
1735.794599774318
 30
0.0
 10
1473.543504522234
 20
1735.721249283977
 30
0.0
 10
1472.748970477764
 20
1735.673350928037
 30
0.0
 10
1472.365824949174
 20
1735.650750203898
 30
0.0
  0
SPLINE
  5
36E
330
29A
100
AcDbEntity
  8
P-SANR-FIXT
100
AcDbSpline
210
0.0
220
0.0
230
1.0
 70
     8
 71
     3
 72
    13
 73
     9
 74
     0
 42
0.000000001
 43
0.0000000001
 40
0.0
 40
0.0
 40
0.0
 40
0.0
 40
0.1666666666666666
 40
0.3333333333333333
 40
0.5
 40
0.6666666666666666
 40
0.8333333333333332
 40
1.0
 40
1.0
 40
1.0
 40
1.0
 10
1488.36048870861
 20
1735.650750203897
 30
0.0
 10
1487.977343180022
 20
1735.673350928037
 30
0.0
 10
1487.182809135554
 20
1735.721249283976
 30
0.0
 10
1485.916997567774
 20
1735.794599774317
 30
0.0
 10
1484.590197540874
 20
1735.898192471908
 30
0.0
 10
1483.213897675171
 20
1735.993679798703
 30
0.0
 10
1481.800171403899
 20
1736.042579376482
 30
0.0
 10
1480.84298577901
 20
1736.062679743387
 30
0.0
 10
1480.3631568289
 20
1736.068252674665
 30
0.0
  0
SPLINE
  5
36F
330
29A
100
AcDbEntity
  8
P-SANR-FIXT
100
AcDbSpline
210
0.0
220
0.0
230
1.0
 70
     8
 71
     3
 72
    11
 73
     7
 74
     0
 42
0.000000001
 43
0.0000000001
 40
0.0
 40
0.0
 40
0.0
 40
0.0
 40
0.1111111111111111
 40
0.2222222222222222
 40
0.3333333333333333
 40
0.3836052505249543
 40
0.3836052505249543
 40
0.3836052505249543
 40
0.3836052505249543
 10
1472.365824949174
 20
1735.650750203898
 30
0.0
 10
1471.201356718367
 20
1735.622019740892
 30
0.0
 10
1469.171885340433
 20
1735.468620478939
 30
0.0
 10
1467.172601824083
 20
1734.878660555
 30
0.0
 10
1466.454909459664
 20
1733.969799159786
 30
0.0
 10
1466.363073047544
 20
1733.246650939404
 30
0.0
 10
1466.363136217351
 20
1733.004751326732
 30
0.0
  0
SPLINE
  5
370
330
29A
100
AcDbEntity
  8
P-SANR-FIXT
100
AcDbSpline
210
0.0
220
0.0
230
1.0
 70
     8
 71
     3
 72
    11
 73
     7
 74
     0
 42
0.000000001
 43
0.0000000001
 40
0.6163947494749454
 40
0.6163947494749454
 40
0.6163947494749454
 40
0.6163947494749454
 40
0.6666666666666666
 40
0.75
 40
0.8333333333333332
 40
1.0
 40
1.0
 40
1.0
 40
1.0
 10
1494.36317992725
 20
1733.004755716964
 30
0.0
 10
1494.363252289751
 20
1733.246663314393
 30
0.0
 10
1494.287274836503
 20
1733.845223820372
 30
0.0
 10
1493.792504874556
 20
1734.612243647101
 30
0.0
 10
1492.222088557962
 20
1735.389317512655
 30
0.0
 10
1490.107191054822
 20
1735.607654509388
 30
0.0
 10
1488.36048870861
 20
1735.650750203897
 30
0.0
  0
ELLIPSE
  5
371
330
29A
100
AcDbEntity
  8
P-SANR-FIXT
100
AcDbEllipse
 10
1480.363156828901
 20
1822.028253096457
 30
0.0
 11
121.9519606832529
 21
0.0
 31
0.0
210
0.0
220
0.0
230
1.0
 40
0.2588190451025177
 41
2.451687838264542
 42
4.712388980384666
  0
ELLIPSE
  5
372
330
29A
100
AcDbEntity
  8
P-SANR-FIXT
100
AcDbEllipse
 10
1480.363156828901
 20
1822.028253096457
 30
0.0
 11
-121.9519606832525
 21
0.0000000000013343
 31
0.0
210
0.0
220
0.0
230
1.0
 40
0.2588190451025191
 41
1.570796326794889
 42
3.831963875203945
  0
ELLIPSE
  5
373
330
29A
100
AcDbEntity
  8
P-SANR-FIXT
100
AcDbEllipse
 10
1480.363156828901
 20
1818.547915318323
 30
0.0
 11
-121.9519606832525
 21
0.0000000000013343
 31
0.0
210
0.0
220
0.0
230
1.0
 40
0.258819045102521
 41
0.0
 42
1.570796326794886
  0
ELLIPSE
  5
374
330
29A
100
AcDbEntity
  8
P-SANR-FIXT
100
AcDbEllipse
 10
1480.363156828901
 20
1818.547915318323
 30
0.0
 11
-121.9519606832527
 21
0.0000000000016322
 31
0.0
210
0.0
220
0.0
230
1.0
 40
0.2588190451025205
 41
1.570796326794892
 42
3.141592653589782
  0
ELLIPSE
  5
375
330
29A
100
AcDbEntity
  8
P-SANR-FIXT
100
AcDbEllipse
 10
1480.363156828901
 20
1815.650137839456
 30
0.0
 11
118.9519606832526
 21
0.0
 31
0.0
210
0.0
220
0.0
230
1.0
 40
0.2588190451025179
 41
3.369435072483306
 42
4.712388980384668
  0
ELLIPSE
  5
376
330
29A
100
AcDbEntity
  8
P-SANR-FIXT
100
AcDbEllipse
 10
1480.363156828901
 20
1815.650137839456
 30
0.0
 11
-118.9519606832527
 21
0.0000000000016977
 31
0.0
210
0.0
220
0.0
230
1.0
 40
0.258819045102519
 41
1.570796326794894
 42
2.913750234696228
  0
ARC
  5
377
330
29A
100
AcDbEntity
  8
P-SANR-FIXT
100
AcDbCircle
 10
1480.363156828904
 20
1970.998183850013
 30
0.0
 40
110.0000000000001
100
AcDbArc
 50
247.9261831079307
 51
251.4452271616305
  0
ARC
  5
378
330
29A
100
AcDbEntity
  8
P-SANR-FIXT
100
AcDbCircle
 10
1480.363156828904
 20
1970.998183850013
 30
0.0
 40
110.0000000000002
100
AcDbArc
 50
243.5105182969727
 51
245.9318634197346
  0
ARC
  5
379
330
29A
100
AcDbEntity
  8
P-SANR-FIXT
100
AcDbCircle
 10
1480.363156828904
 20
1970.998183850013
 30
0.0
 40
110.0000000000002
100
AcDbArc
 50
239.0945342487413
 51
241.4880584080053
  0
ARC
  5
37A
330
29A
100
AcDbEntity
  8
P-SANR-FIXT
100
AcDbCircle
 10
1480.363156828904
 20
1970.998183850013
 30
0.0
 40
110.0000000000001
100
AcDbArc
 50
234.6782201248279
 51
237.0524200475625
  0
ARC
  5
37B
330
29A
100
AcDbEntity
  8
P-SANR-FIXT
100
AcDbCircle
 10
1480.363156828904
 20
1970.998183850013
 30
0.0
 40
110.0000000000001
100
AcDbArc
 50
230.2615059915069
 51
232.6221349998315
  0
ARC
  5
37C
330
29A
100
AcDbEntity
  8
P-SANR-FIXT
100
AcDbCircle
 10
1480.363156828904
 20
1970.998183850013
 30
0.0
 40
110.0000000000003
100
AcDbArc
 50
225.8442895727557
 51
228.1955453592832
  0
ARC
  5
37D
330
29A
100
AcDbEntity
  8
P-SANR-FIXT
100
AcDbCircle
 10
1480.363156828904
 20
1970.998183850013
 30
0.0
 40
110.0000000000001
100
AcDbArc
 50
221.4264531905044
 51
223.7715559656669
  0
ARC
  5
37E
330
29A
100
AcDbEntity
  8
P-SANR-FIXT
100
AcDbCircle
 10
1480.363156828904
 20
1970.998183850013
 30
0.0
 40
110.0000000000002
100
AcDbArc
 50
217.0078570774826
 51
219.3494655218807
  0
ARC
  5
37F
330
29A
100
AcDbEntity
  8
P-SANR-FIXT
100
AcDbCircle
 10
1480.363156828904
 20
1970.998183850013
 30
0.0
 40
110.0000000000004
100
AcDbArc
 50
212.588333258804
 51
214.9287930743168
  0
ARC
  5
380
330
29A
100
AcDbEntity
  8
P-SANR-FIXT
100
AcDbCircle
 10
1480.363156828904
 20
1970.998183850013
 30
0.0
 40
110.0000000000003
100
AcDbArc
 50
208.1676520897514
 51
210.5092101658904
  0
ARC
  5
381
330
29A
100
AcDbEntity
  8
P-SANR-FIXT
100
AcDbCircle
 10
1480.363156828904
 20
1970.998183850013
 30
0.0
 40
110.0000000000004
100
AcDbArc
 50
203.7454946389824
 51
206.0904895359168
  0
ARC
  5
382
330
29A
100
AcDbEntity
  8
P-SANR-FIXT
100
AcDbCircle
 10
1480.363156828904
 20
1970.998183850013
 30
0.0
 40
110.0000000000002
100
AcDbArc
 50
199.3214025831101
 51
201.6724592040938
  0
ARC
  5
383
330
29A
100
AcDbEntity
  8
P-SANR-FIXT
100
AcDbCircle
 10
1480.363156828904
 20
1970.998183850013
 30
0.0
 40
110.0000000000003
100
AcDbArc
 50
194.8947032175738
 51
197.2549881919262
  0
ARC
  5
384
330
29A
100
AcDbEntity
  8
P-SANR-FIXT
100
AcDbCircle
 10
1480.363156828904
 20
1970.998183850013
 30
0.0
 40
110.0
100
AcDbArc
 50
190.4643732055663
 51
192.8379729462713
  0
ARC
  5
385
330
29A
100
AcDbEntity
  8
P-SANR-FIXT
100
AcDbCircle
 10
1480.363156828904
 20
1970.998183850013
 30
0.0
 40
110.0000000000002
100
AcDbArc
 50
186.0287599302469
 51
188.421333746835
  0
ARC
  5
386
330
29A
100
AcDbEntity
  8
P-SANR-FIXT
100
AcDbCircle
 10
1480.363156828904
 20
1970.998183850013
 30
0.0
 40
110.0000000000002
100
AcDbArc
 50
181.5850054448812
 51
184.0050094721272
  0
ARC
  5
387
330
29A
100
AcDbEntity
  8
P-SANR-FIXT
100
AcDbCircle
 10
1480.363156828904
 20
1970.998183850013
 30
0.0
 40
110.0
100
AcDbArc
 50
170.4884675640593
 51
179.5889491900703
  0
ARC
  5
388
330
29A
100
AcDbEntity
  8
P-SANR-FIXT
100
AcDbCircle
 10
1480.363156828904
 20
1970.998183850013
 30
0.0
 40
110.0000000000002
100
AcDbArc
 50
166.1618791972793
 51
166.5115670564252
  0
ARC
  5
389
330
29A
100
AcDbEntity
  8
P-SANR-FIXT
100
AcDbCircle
 10
1480.363156828904
 20
1970.998183850013
 30
0.0
 40
110.0
100
AcDbArc
 50
161.8352908304993
 51
162.0121786548533
  0
ARC
  5
38A
330
29A
100
AcDbEntity
  8
P-SANR-FIXT
100
AcDbCircle
 10
1480.363156828904
 20
1970.998183850013
 30
0.0
 40
109.9999999999999
100
AcDbArc
 50
153.0104242924774
 51
153.1821140969393
  0
ARC
  5
38B
330
29A
100
AcDbEntity
  8
P-SANR-FIXT
100
AcDbCircle
 10
1480.363156828904
 20
1970.998183850013
 30
0.0
 40
109.9999999999999
100
AcDbArc
 50
148.5057975733029
 51
148.8555257301592
  0
ARC
  5
38C
330
29A
100
AcDbEntity
  8
P-SANR-FIXT
100
AcDbCircle
 10
1480.363156828904
 20
1970.998183850013
 30
0.0
 40
110.0
100
AcDbArc
 50
135.4332522307531
 51
144.5289373633793
  0
ARC
  5
38D
330
29A
100
AcDbEntity
  8
P-SANR-FIXT
100
AcDbCircle
 10
1480.363156828904
 20
1970.998183850013
 30
0.0
 40
110.0
100
AcDbArc
 50
131.0169746350225
 51
133.4394359828665
  0
ARC
  5
38E
330
29A
100
AcDbEntity
  8
P-SANR-FIXT
100
AcDbCircle
 10
1480.363156828904
 20
1970.998183850013
 30
0.0
 40
109.9999999999999
100
AcDbArc
 50
126.6004816171112
 51
128.994682882636
  0
ARC
  5
38F
330
29A
100
AcDbEntity
  8
P-SANR-FIXT
100
AcDbCircle
 10
1480.363156828904
 20
1970.998183850013
 30
0.0
 40
109.9999999999997
100
AcDbArc
 50
124.0041464861087
 51
124.5584532336257
  0
ARC
  5
390
330
29A
100
AcDbEntity
  8
P-SANR-FIXT
100
AcDbCircle
 10
1480.363156828904
 20
1970.998183850013
 30
0.0
 40
110.0
100
AcDbArc
 50
55.44154676630879
 51
55.99585351390452
  0
ARC
  5
391
330
29A
100
AcDbEntity
  8
P-SANR-FIXT
100
AcDbCircle
 10
1480.363156828904
 20
1970.998183850013
 30
0.0
 40
110.0000000000002
100
AcDbArc
 50
51.00531711728255
 51
53.39951838291693
  0
ARC
  5
392
330
29A
100
AcDbEntity
  8
P-SANR-FIXT
100
AcDbCircle
 10
1480.363156828904
 20
1970.998183850013
 30
0.0
 40
110.0
100
AcDbArc
 50
46.56056401702824
 51
48.98302536500892
  0
ARC
  5
393
330
29A
100
AcDbEntity
  8
P-SANR-FIXT
100
AcDbCircle
 10
1480.363156828904
 20
1970.998183850013
 30
0.0
 40
110.0
100
AcDbArc
 50
35.47106263662218
 51
44.56674776927766
  0
ARC
  5
394
330
29A
100
AcDbEntity
  8
P-SANR-FIXT
100
AcDbCircle
 10
1480.363156828904
 20
1970.998183850013
 30
0.0
 40
110.0
100
AcDbArc
 50
31.1444742698421
 51
31.49420242669581
  0
ARC
  5
395
330
29A
100
AcDbEntity
  8
P-SANR-FIXT
100
AcDbCircle
 10
1480.363156828904
 20
1970.998183850013
 30
0.0
 40
109.9999999999999
100
AcDbArc
 50
26.81788590306194
 51
26.98957570752132
  0
ARC
  5
396
330
29A
100
AcDbEntity
  8
P-SANR-FIXT
100
AcDbCircle
 10
1480.363156828904
 20
1970.998183850013
 30
0.0
 40
109.9999999999999
100
AcDbArc
 50
17.98782134514546
 51
18.16470916950177
  0
ARC
  5
397
330
29A
100
AcDbEntity
  8
P-SANR-FIXT
100
AcDbCircle
 10
1480.363156828904
 20
1970.998183850013
 30
0.0
 40
110.0000000000001
100
AcDbArc
 50
13.48843294357376
 51
13.83812080272169
  0
ARC
  5
398
330
29A
100
AcDbEntity
  8
P-SANR-FIXT
100
AcDbCircle
 10
1480.363156828904
 20
1970.998183850013
 30
0.0
 40
110.0000000000001
100
AcDbArc
 50
0.411050809885634
 51
9.511532435941576
  0
ARC
  5
399
330
29A
100
AcDbEntity
  8
P-SANR-FIXT
100
AcDbCircle
 10
1480.363156828904
 20
1970.998183850013
 30
0.0
 40
110.0
100
AcDbArc
 50
355.9949905278259
 51
358.4149945552786
  0
ARC
  5
39A
330
29A
100
AcDbEntity
  8
P-SANR-FIXT
100
AcDbCircle
 10
1480.363156828904
 20
1970.998183850013
 30
0.0
 40
110.0000000000001
100
AcDbArc
 50
351.5786662531207
 51
353.9712400698803
  0
ARC
  5
39B
330
29A
100
AcDbEntity
  8
P-SANR-FIXT
100
AcDbCircle
 10
1480.363156828904
 20
1970.998183850013
 30
0.0
 40
110.0000000000002
100
AcDbArc
 50
347.1620270536797
 51
349.5356267945409
  0
ARC
  5
39C
330
29A
100
AcDbEntity
  8
P-SANR-FIXT
100
AcDbCircle
 10
1480.363156828904
 20
1970.998183850013
 30
0.0
 40
109.9999999999998
100
AcDbArc
 50
342.7450118080214
 51
345.1052967825213
  0
ARC
  5
39D
330
29A
100
AcDbEntity
  8
P-SANR-FIXT
100
AcDbCircle
 10
1480.363156828904
 20
1970.998183850013
 30
0.0
 40
110.0
100
AcDbArc
 50
338.3275407958546
 51
340.6785974169721
  0
ARC
  5
39E
330
29A
100
AcDbEntity
  8
P-SANR-FIXT
100
AcDbCircle
 10
1480.363156828904
 20
1970.998183850013
 30
0.0
 40
110.0000000000001
100
AcDbArc
 50
333.9095104640342
 51
336.2545053610882
  0
ARC
  5
39F
330
29A
100
AcDbEntity
  8
P-SANR-FIXT
100
AcDbCircle
 10
1480.363156828904
 20
1970.998183850013
 30
0.0
 40
109.9999999999999
100
AcDbArc
 50
329.490789834052
 51
331.8323479103057
  0
ARC
  5
3A0
330
29A
100
AcDbEntity
  8
P-SANR-FIXT
100
AcDbCircle
 10
1480.363156828904
 20
1970.998183850013
 30
0.0
 40
109.9999999999998
100
AcDbArc
 50
325.0712069256211
 51
327.4116667412525
  0
ARC
  5
3A1
330
29A
100
AcDbEntity
  8
P-SANR-FIXT
100
AcDbCircle
 10
1480.363156828904
 20
1970.998183850013
 30
0.0
 40
110.0000000000001
100
AcDbArc
 50
320.6505344780602
 51
322.9921429225679
  0
ARC
  5
3A2
330
29A
100
AcDbEntity
  8
P-SANR-FIXT
100
AcDbCircle
 10
1480.363156828904
 20
1970.998183850013
 30
0.0
 40
110.0000000000001
100
AcDbArc
 50
316.2284440342684
 51
318.5735468095364
  0
ARC
  5
3A3
330
29A
100
AcDbEntity
  8
P-SANR-FIXT
100
AcDbCircle
 10
1480.363156828904
 20
1970.998183850013
 30
0.0
 40
110.0
100
AcDbArc
 50
311.804454640657
 51
314.1557104272818
  0
ARC
  5
3A4
330
29A
100
AcDbEntity
  8
P-SANR-FIXT
100
AcDbCircle
 10
1480.363156828904
 20
1970.998183850013
 30
0.0
 40
110.0000000000001
100
AcDbArc
 50
307.3778650001094
 51
309.7384940085222
  0
ARC
  5
3A5
330
29A
100
AcDbEntity
  8
P-SANR-FIXT
100
AcDbCircle
 10
1480.363156828904
 20
1970.998183850013
 30
0.0
 40
110.0
100
AcDbArc
 50
302.9475799523674
 51
305.3217798751959
  0
ARC
  5
3A6
330
29A
100
AcDbEntity
  8
P-SANR-FIXT
100
AcDbCircle
 10
1480.363156828904
 20
1970.998183850013
 30
0.0
 40
110.0000000000001
100
AcDbArc
 50
298.5119415919196
 51
300.9054657512818
  0
ARC
  5
3A7
330
29A
100
AcDbEntity
  8
P-SANR-FIXT
100
AcDbCircle
 10
1480.363156828904
 20
1970.998183850013
 30
0.0
 40
109.9999999999999
100
AcDbArc
 50
294.0681365801976
 51
296.4894817030467
  0
ARC
  5
3A8
330
29A
100
AcDbEntity
  8
P-SANR-FIXT
100
AcDbCircle
 10
1480.363156828904
 20
1970.998183850013
 30
0.0
 40
110.0000000000001
100
AcDbArc
 50
288.5546946657614
 51
292.0738168920811
  0
ENDBLK
  5
3AA
330
29A
100
AcDbEntity
  8
0
100
AcDbBlockEnd
  0
ENDSEC
  0
SECTION
  2
ENTITIES
  0
INSERT
  5
1C6
330
71
100
AcDbEntity
  8
P-SANR-FIXT
100
AcDbBlockReference
  2
Automatic flow rate regulator valve_Caleffi_121 DN15 - 1_2__-859151-Est - Idraulica
 10
0.0
 20
0.0
 30
0.0
1001
REVIT
1002
{
1070
     1
1000
863131
1002
}
1002
{
1070
     5
1000
859151
1002
}
1002
{
1070
     2
1000
-2001160
1002
}
  0
INSERT
  5
299
330
71
100
AcDbEntity
  8
P-SANR-FIXT
100
AcDbBlockReference
  2
Automatic flow rate regulator valve_Caleffi_121 DN15 - 1_2__-V1-Est - Idraulica
 10
0.0
 20
0.0
 30
0.0
1001
REVIT
1002
{
1070
     1
1000
863152
1002
}
1002
{
1070
     5
1000
859151
1002
}
1002
{
1070
     2
1000
-2001160
1002
}
  0
INSERT
  5
3AB
330
71
100
AcDbEntity
  8
P-SANR-FIXT
100
AcDbBlockReference
  2
Automatic flow rate regulator valve_Caleffi_121 DN15 - 1_2__-V2-Est - Idraulica
 10
0.0
 20
0.0
 30
0.0
1001
REVIT
1002
{
1070
     1
1000
863172
1002
}
1002
{
1070
     5
1000
859151
1002
}
1002
{
1070
     2
1000
-2001160
1002
}
  0
ENDSEC
  0
SECTION
  2
OBJECTS
  0
DICTIONARY
  5
C
330
0
100
AcDbDictionary
281
     1
  3
ACAD_CIP_PREVIOUS_PRODUCT_INFO
350
7A
  3
ACAD_COLOR
350
63
  3
ACAD_DETAILVIEWSTYLE
350
6B
  3
ACAD_GROUP
350
D
  3
ACAD_IMAGE_VARS
350
7B
  3
ACAD_LAYOUT
350
62
  3
ACAD_MATERIAL
350
10
  3
ACAD_MLEADERSTYLE
350
66
  3
ACAD_MLINESTYLE
350
5F
  3
ACAD_PLOTSETTINGS
350
61
  3
ACAD_PLOTSTYLENAME
350
E
  3
ACAD_SCALELIST
350
42
  3
ACAD_SECTIONVIEWSTYLE
350
68
  3
ACAD_TABLESTYLE
350
64
  3
ACAD_VISUALSTYLE
350
29
  3
ACDB_RECOMPOSE_DATA
350
3B5
  3
AcDbVariableDictionary
350
7C
  3
REVIT_DICTIONARY
350
3AD
  0
DICTIONARY
  5
3B1
330
71
100
AcDbDictionary
280
     1
281
     1
  3
ACAD_SORTENTS
360
3B2
  0
XRECORD
  5
7A
102
{ACAD_REACTORS
330
C
102
}
330
C
100
AcDbXrecord
280
     1
300
RVT
300
2013
300
RVT2013
  0
DICTIONARY
  5
63
102
{ACAD_REACTORS
330
C
102
}
330
C
100
AcDbDictionary
281
     1
  0
DICTIONARY
  5
6B
102
{ACAD_REACTORS
330
C
102
}
330
C
100
AcDbDictionary
281
     1
  3
Imperial24
350
6C
  0
DICTIONARY
  5
D
102
{ACAD_REACTORS
330
C
102
}
330
C
100
AcDbDictionary
281
     1
  0
RASTERVARIABLES
  5
7B
102
{ACAD_REACTORS
330
C
102
}
330
C
100
AcDbRasterVariables
 90
        0
 70
     0
 71
     1
 72
     1
  0
DICTIONARY
  5
62
102
{ACAD_REACTORS
330
C
102
}
330
C
100
AcDbDictionary
281
     1
  3
Layout1
350
70
  3
Layout2
350
78
  3
Model
350
74
  0
DICTIONARY
  5
10
102
{ACAD_REACTORS
330
C
102
}
330
C
100
AcDbDictionary
281
     1
  3
ByBlock
350
19
  3
ByLayer
350
11
  3
Global
350
21
  0
DICTIONARY
  5
66
102
{ACAD_REACTORS
330
C
102
}
330
C
100
AcDbDictionary
281
     1
  3
Standard
350
67
  0
DICTIONARY
  5
5F
102
{ACAD_REACTORS
330
C
102
}
330
C
100
AcDbDictionary
281
     1
  3
Standard
350
60
  0
DICTIONARY
  5
61
102
{ACAD_REACTORS
330
C
102
}
330
C
100
AcDbDictionary
281
     1
  0
ACDBDICTIONARYWDFLT
  5
E
102
{ACAD_REACTORS
330
C
102
}
330
C
100
AcDbDictionary
281
     1
  3
Normal
350
F
100
AcDbDictionaryWithDefault
340
F
  0
DICTIONARY
  5
42
102
{ACAD_REACTORS
330
C
102
}
330
C
100
AcDbDictionary
281
     1
  3
A0
350
43
  3
A1
350
44
  3
A2
350
45
  3
A3
350
46
  3
A4
350
47
  3
A5
350
48
  3
A6
350
49
  3
A7
350
4A
  3
A8
350
4B
  3
A9
350
4C
  3
B0
350
4D
  3
B1
350
4E
  3
B2
350
4F
  3
B3
350
50
  3
B4
350
51
  3
B5
350
52
  3
B6
350
53
  0
DICTIONARY
  5
68
102
{ACAD_REACTORS
330
C
102
}
330
C
100
AcDbDictionary
281
     1
  3
Imperial24
350
6A
  0
DICTIONARY
  5
64
102
{ACAD_REACTORS
330
C
102
}
330
C
100
AcDbDictionary
281
     1
  3
Standard
350
65
  0
DICTIONARY
  5
29
102
{ACAD_REACTORS
330
C
102
}
330
C
100
AcDbDictionary
281
     1
  3
2dWireframe
350
2F
  3
Basic
350
2E
  3
Brighten
350
35
  3
ColorChange
350
39
  3
Conceptual
350
32
  3
Dim
350
34
  3
EdgeColorOff
350
41
  3
Facepattern
350
38
  3
Flat
350
2A
  3
FlatWithEdges
350
2B
  3
Gouraud
350
2C
  3
GouraudWithEdges
350
2D
  3
Hidden
350
31
  3
JitterOff
350
3F
  3
Linepattern
350
37
  3
OverhangOff
350
40
  3
Realistic
350
33
  3
Shaded
350
3E
  3
Shaded with edges
350
3D
  3
Shades of Gray
350
3A
  3
Sketchy
350
3B
  3
Thicken
350
36
  3
Wireframe
350
30
  3
X-Ray
350
3C
  0
XRECORD
  5
3B5
102
{ACAD_REACTORS
330
C
102
}
330
C
100
AcDbXrecord
280
     1
 90
        1
330
65
  0
DICTIONARY
  5
7C
102
{ACAD_REACTORS
330
C
102
}
330
C
100
AcDbDictionary
281
     1
  3
CANNOSCALE
350
81
  3
CMLEADERSTYLE
350
7E
  3
CTABLESTYLE
350
7D
  3
CVIEWDETAILSTYLE
350
7F
  3
CVIEWSECTIONSTYLE
350
80
  0
DICTIONARY
  5
3AD
102
{ACAD_REACTORS
330
C
102
}
330
C
100
AcDbDictionary
281
     1
  3
DRAWING_TOOL
350
3B0
  3
REVIT_CATEGORY_MAPPING
350
3AF
  3
REVIT_TYPE_MAPPING
350
3AE
  0
SORTENTSTABLE
  5
3B2
102
{ACAD_REACTORS
330
3B1
102
}
330
3B1
100
AcDbSortentsTable
330
71
  0
ACDBDETAILVIEWSTYLE
  5
6C
102
{ACAD_REACTORS
330
6B
102
}
330
6B
100
AcDbModelDocViewStyle
 70
     0
  3
Imperial24
290
     1
100
AcDbDetailViewStyle
 70
     0
 71
     0
 90
        3
 71
     1
340
55
 62
   256
 40
0.24
340
0
 62
   256
 40
0.24
300

 40
0.36
280
     3
 71
     2
340
5D
 90
       25
 62
   256
 71
     3
340
55
 62
   256
 40
0.24
 90
        1
 40
0.75
 90
        1
300
%<\AcVar ViewType \f "%tc1">% %<\AcVar ViewDetailId>%\PSCALA %<\AcVar ViewScale \f "%sn">%
 71
     4
340
5D
 90
       25
 62
   256
340
5D
 90
       25
 62
   256
280
     0
  0
LAYOUT
  5
70
102
{ACAD_REACTORS
330
62
102
}
330
62
100
AcDbPlotSettings
  1

  2

  4

  6

 40
0.0
 41
0.0
 42
0.0
 43
0.0
 44
0.0
 45
0.0
 46
0.0
 47
0.0
 48
0.0
 49
0.0
140
0.0
141
0.0
142
1.0
143
1.0
 70
   688
 72
     0
 73
     0
 74
     5
  7

 75
    16
147
1.0
 76
     0
 77
     2
 78
   300
148
0.0
149
0.0
100
AcDbLayout
  1
Layout1
 70
     1
 71
     1
 10
0.0
 20
0.0
 11
12.0
 21
9.0
 12
0.0
 22
0.0
 32
0.0
 14
0.0
 24
0.0
 34
0.0
 15
0.0
 25
0.0
 35
0.0
146
0.0
 13
0.0
 23
0.0
 33
0.0
 16
1.0
 26
0.0
 36
0.0
 17
0.0
 27
1.0
 37
0.0
 76
     0
330
6D
  0
LAYOUT
  5
78
102
{ACAD_REACTORS
330
62
102
}
330
62
100
AcDbPlotSettings
  1

  2

  4

  6

 40
0.0
 41
0.0
 42
0.0
 43
0.0
 44
0.0
 45
0.0
 46
0.0
 47
0.0
 48
0.0
 49
0.0
140
0.0
141
0.0
142
1.0
143
1.0
 70
   688
 72
     0
 73
     0
 74
     5
  7

 75
    16
147
1.0
 76
     0
 77
     2
 78
   300
148
0.0
149
0.0
100
AcDbLayout
  1
Layout2
 70
     1
 71
     2
 10
0.0
 20
0.0
 11
12.0
 21
9.0
 12
0.0
 22
0.0
 32
0.0
 14
0.0
 24
0.0
 34
0.0
 15
0.0
 25
0.0
 35
0.0
146
0.0
 13
0.0
 23
0.0
 33
0.0
 16
1.0
 26
0.0
 36
0.0
 17
0.0
 27
1.0
 37
0.0
 76
     0
330
75
  0
LAYOUT
  5
74
102
{ACAD_REACTORS
330
62
102
}
330
62
100
AcDbPlotSettings
  1

  2

  4

  6

 40
0.0
 41
0.0
 42
0.0
 43
0.0
 44
0.0
 45
0.0
 46
0.0
 47
0.0
 48
0.0
 49
0.0
140
0.0
141
0.0
142
1.0
143
1.0
 70
  1712
 72
     0
 73
     0
 74
     0
  7

 75
     0
147
1.0
 76
     0
 77
     2
 78
   300
148
0.0
149
0.0
100
AcDbLayout
  1
Model
 70
     1
 71
     0
 10
0.0
 20
0.0
 11
12.0
 21
9.0
 12
0.0
 22
0.0
 32
0.0
 14
0.0
 24
0.0
 34
0.0
 15
0.0
 25
0.0
 35
0.0
146
0.0
 13
0.0
 23
0.0
 33
0.0
 16
1.0
 26
0.0
 36
0.0
 17
0.0
 27
1.0
 37
0.0
 76
     0
330
71
  0
MATERIAL
  5
19
102
{ACAD_XDICTIONARY
360
1A
102
}
102
{ACAD_REACTORS
330
10
102
}
330
10
100
AcDbMaterial
  1
ByBlock
 72
     0
 43
0.0208333333333333
 43
0.0
 43
0.0
 43
0.0
 43
0.0
 43
0.0208333333333333
 43
0.0
 43
0.0
 43
0.0
 43
0.0
 43
1.0
 43
0.0
 43
0.0
 43
0.0
 43
0.0
 43
1.0
 77
     0
 47
0.0208333333333333
 47
0.0
 47
0.0
 47
0.0
 47
0.0
 47
0.0208333333333333
 47
0.0
 47
0.0
 47
0.0
 47
0.0
 47
1.0
 47
0.0
 47
0.0
 47
0.0
 47
0.0
 47
1.0
171
     0
 49
0.0208333333333333
 49
0.0
 49
0.0
 49
0.0
 49
0.0
 49
0.0208333333333333
 49
0.0
 49
0.0
 49
0.0
 49
0.0
 49
1.0
 49
0.0
 49
0.0
 49
0.0
 49
0.0
 49
1.0
175
     0
142
0.0208333333333333
142
0.0
142
0.0
142
0.0
142
0.0
142
0.0208333333333333
142
0.0
142
0.0
142
0.0
142
0.0
142
1.0
142
0.0
142
0.0
142
0.0
142
0.0
142
1.0
179
     0
144
0.0208333333333333
144
0.0
144
0.0
144
0.0
144
0.0
144
0.0208333333333333
144
0.0
144
0.0
144
0.0
144
0.0
144
1.0
144
0.0
144
0.0
144
0.0
144
0.0
144
1.0
147
0.0208333333333333
147
0.0
147
0.0
147
0.0
147
0.0
147
0.0208333333333333
147
0.0
147
0.0
147
0.0
147
0.0
147
1.0
147
0.0
147
0.0
147
0.0
147
0.0
147
1.0
  0
MATERIAL
  5
11
102
{ACAD_XDICTIONARY
360
12
102
}
102
{ACAD_REACTORS
330
10
102
}
330
10
100
AcDbMaterial
  1
ByLayer
 72
     0
 43
0.0208333333333333
 43
0.0
 43
0.0
 43
0.0
 43
0.0
 43
0.0208333333333333
 43
0.0
 43
0.0
 43
0.0
 43
0.0
 43
1.0
 43
0.0
 43
0.0
 43
0.0
 43
0.0
 43
1.0
 77
     0
 47
0.0208333333333333
 47
0.0
 47
0.0
 47
0.0
 47
0.0
 47
0.0208333333333333
 47
0.0
 47
0.0
 47
0.0
 47
0.0
 47
1.0
 47
0.0
 47
0.0
 47
0.0
 47
0.0
 47
1.0
171
     0
 49
0.0208333333333333
 49
0.0
 49
0.0
 49
0.0
 49
0.0
 49
0.0208333333333333
 49
0.0
 49
0.0
 49
0.0
 49
0.0
 49
1.0
 49
0.0
 49
0.0
 49
0.0
 49
0.0
 49
1.0
175
     0
142
0.0208333333333333
142
0.0
142
0.0
142
0.0
142
0.0
142
0.0208333333333333
142
0.0
142
0.0
142
0.0
142
0.0
142
1.0
142
0.0
142
0.0
142
0.0
142
0.0
142
1.0
179
     0
144
0.0208333333333333
144
0.0
144
0.0
144
0.0
144
0.0
144
0.0208333333333333
144
0.0
144
0.0
144
0.0
144
0.0
144
1.0
144
0.0
144
0.0
144
0.0
144
0.0
144
1.0
147
0.0208333333333333
147
0.0
147
0.0
147
0.0
147
0.0
147
0.0208333333333333
147
0.0
147
0.0
147
0.0
147
0.0
147
1.0
147
0.0
147
0.0
147
0.0
147
0.0
147
1.0
  0
MATERIAL
  5
21
102
{ACAD_XDICTIONARY
360
22
102
}
102
{ACAD_REACTORS
330
10
102
}
330
10
100
AcDbMaterial
  1
Global
 72
     0
 43
0.0208333333333333
 43
0.0
 43
0.0
 43
0.0
 43
0.0
 43
0.0208333333333333
 43
0.0
 43
0.0
 43
0.0
 43
0.0
 43
1.0
 43
0.0
 43
0.0
 43
0.0
 43
0.0
 43
1.0
 77
     0
 47
0.0208333333333333
 47
0.0
 47
0.0
 47
0.0
 47
0.0
 47
0.0208333333333333
 47
0.0
 47
0.0
 47
0.0
 47
0.0
 47
1.0
 47
0.0
 47
0.0
 47
0.0
 47
0.0
 47
1.0
171
     0
 49
0.0208333333333333
 49
0.0
 49
0.0
 49
0.0
 49
0.0
 49
0.0208333333333333
 49
0.0
 49
0.0
 49
0.0
 49
0.0
 49
1.0
 49
0.0
 49
0.0
 49
0.0
 49
0.0
 49
1.0
175
     0
142
0.0208333333333333
142
0.0
142
0.0
142
0.0
142
0.0
142
0.0208333333333333
142
0.0
142
0.0
142
0.0
142
0.0
142
1.0
142
0.0
142
0.0
142
0.0
142
0.0
142
1.0
179
     0
144
0.0208333333333333
144
0.0
144
0.0
144
0.0
144
0.0
144
0.0208333333333333
144
0.0
144
0.0
144
0.0
144
0.0
144
1.0
144
0.0
144
0.0
144
0.0
144
0.0
144
1.0
147
0.0208333333333333
147
0.0
147
0.0
147
0.0
147
0.0
147
0.0208333333333333
147
0.0
147
0.0
147
0.0
147
0.0
147
1.0
147
0.0
147
0.0
147
0.0
147
0.0
147
1.0
  0
MLEADERSTYLE
  5
67
102
{ACAD_REACTORS
330
66
102
}
330
66
100
AcDbMLeaderStyle
179
     2
170
     2
171
     1
172
     0
 90
        2
 40
0.0
 41
0.0
173
     1
 91
-1056964608
340
5B
 92
       -2
290
     1
 42
0.09
291
     1
 43
0.36
  3
Standard
 44
0.18
300

342
55
174
     1
178
     6
175
     1
176
     0
 93
-1056964608
 45
0.18
292
     0
297
     0
 46
0.18
 94
-1056964608
 47
1.0
 49
1.0
140
1.0
293
     1
141
0.0
294
     1
177
     0
142
1.0
295
     1
296
     0
143
0.125
271
     0
272
     9
273
     9
298
     1
  0
MLINESTYLE
  5
60
102
{ACAD_REACTORS
330
5F
102
}
330
5F
100
AcDbMlineStyle
  2
STANDARD
 70
     0
  3

 62
   256
 51
90.0
 52
90.0
 71
     2
 49
0.5
 62
   256
  6
BYLAYER
 49
-0.5
 62
   256
  6
BYLAYER
  0
ACDBPLACEHOLDER
  5
F
102
{ACAD_REACTORS
330
E
102
}
330
E
  0
SCALE
  5
43
102
{ACAD_REACTORS
330
42
102
}
330
42
100
AcDbScale
 70
     0
300
1:1
140
1.0
141
1.0
290
     1
  0
SCALE
  5
44
102
{ACAD_REACTORS
330
42
102
}
330
42
100
AcDbScale
 70
     0
300
1/128" = 1'-0"
140
0.0078125
141
12.0
290
     0
  0
SCALE
  5
45
102
{ACAD_REACTORS
330
42
102
}
330
42
100
AcDbScale
 70
     0
300
1/64" = 1'-0"
140
0.015625
141
12.0
290
     0
  0
SCALE
  5
46
102
{ACAD_REACTORS
330
42
102
}
330
42
100
AcDbScale
 70
     0
300
1/32" = 1'-0"
140
0.03125
141
12.0
290
     0
  0
SCALE
  5
47
102
{ACAD_REACTORS
330
42
102
}
330
42
100
AcDbScale
 70
     0
300
1/16" = 1'-0"
140
0.0625
141
12.0
290
     0
  0
SCALE
  5
48
102
{ACAD_REACTORS
330
42
102
}
330
42
100
AcDbScale
 70
     0
300
3/32" = 1'-0"
140
0.09375
141
12.0
290
     0
  0
SCALE
  5
49
102
{ACAD_REACTORS
330
42
102
}
330
42
100
AcDbScale
 70
     0
300
1/8" = 1'-0"
140
0.125
141
12.0
290
     0
  0
SCALE
  5
4A
102
{ACAD_REACTORS
330
42
102
}
330
42
100
AcDbScale
 70
     0
300
3/16" = 1'-0"
140
0.1875
141
12.0
290
     0
  0
SCALE
  5
4B
102
{ACAD_REACTORS
330
42
102
}
330
42
100
AcDbScale
 70
     0
300
1/4" = 1'-0"
140
0.25
141
12.0
290
     0
  0
SCALE
  5
4C
102
{ACAD_REACTORS
330
42
102
}
330
42
100
AcDbScale
 70
     0
300
3/8" = 1'-0"
140
0.375
141
12.0
290
     0
  0
SCALE
  5
4D
102
{ACAD_REACTORS
330
42
102
}
330
42
100
AcDbScale
 70
     0
300
1/2" = 1'-0"
140
0.5
141
12.0
290
     0
  0
SCALE
  5
4E
102
{ACAD_REACTORS
330
42
102
}
330
42
100
AcDbScale
 70
     0
300
3/4" = 1'-0"
140
0.75
141
12.0
290
     0
  0
SCALE
  5
4F
102
{ACAD_REACTORS
330
42
102
}
330
42
100
AcDbScale
 70
     0
300
1" = 1'-0"
140
1.0
141
12.0
290
     0
  0
SCALE
  5
50
102
{ACAD_REACTORS
330
42
102
}
330
42
100
AcDbScale
 70
     0
300
1-1/2" = 1'-0"
140
1.5
141
12.0
290
     0
  0
SCALE
  5
51
102
{ACAD_REACTORS
330
42
102
}
330
42
100
AcDbScale
 70
     0
300
3" = 1'-0"
140
3.0
141
12.0
290
     0
  0
SCALE
  5
52
102
{ACAD_REACTORS
330
42
102
}
330
42
100
AcDbScale
 70
     0
300
6" = 1'-0"
140
6.0
141
12.0
290
     0
  0
SCALE
  5
53
102
{ACAD_REACTORS
330
42
102
}
330
42
100
AcDbScale
 70
     0
300
1'-0" = 1'-0"
140
12.0
141
12.0
290
     0
  0
ACDBSECTIONVIEWSTYLE
  5
6A
102
{ACAD_REACTORS
330
68
102
}
330
68
100
AcDbModelDocViewStyle
 70
     0
  3
Imperial24
290
     1
100
AcDbSectionViewStyle
 70
     0
 71
     0
 90
       78
 71
     1
340
55
 62
   256
 40
0.24
340
0
340
0
 62
   256
 40
0.24
300
I, O, Q, S, X, Z
 40
0.48
 90
        3
 40
0.18
 90
        1
 71
     2
340
69
 90
       25
 62
   256
340
5D
 90
       50
 62
   256
 40
0.24
 40
0.0
 40
0.24
 71
     3
340
55
 62
   256
 40
0.24
 90
        1
 40
0.75
 90
        1
300
%<\AcVar ViewType \f "%tc1">% %<\AcVar ViewSectionStartId>%-%<\AcVar ViewSectionEndId>%\PSCALA %<\AcVar ViewScale \f "%sn">%
 71
     4
 62
   256
 62
   257
300
ANSI31
 40
1.0
 90
        0
290
     0
290
     0
 90
        6
 40
0.0
 40
1.570796326794896
 40
0.2617993877991494
 40
1.308996938995747
 40
-0.2617993877991494
 40
1.832595714594046
  0
TABLESTYLE
  5
65
102
{ACAD_XDICTIONARY
360
3B3
102
}
102
{ACAD_REACTORS
330
64
102
}
330
64
100
AcDbTableStyle
280
     0
  3
Standard
 70
     0
 71
     0
 40
0.06
 41
0.06
280
     0
281
     0
  7
Standard
140
0.18
170
     2
 62
     0
 63
     7
283
     0
 90
      512
 91
        0
  1

274
    -2
284
     1
 64
     0
275
    -2
285
     1
 65
     0
276
    -2
286
     1
 66
     0
277
    -2
287
     1
 67
     0
278
    -2
288
     1
 68
     0
279
    -2
289
     1
 69
     0
  7
Standard
140
0.25
170
     5
 62
     0
 63
     7
283
     0
 90
      512
 91
        0
  1

274
    -2
284
     1
 64
     0
275
    -2
285
     1
 65
     0
276
    -2
286
     1
 66
     0
277
    -2
287
     1
 67
     0
278
    -2
288
     1
 68
     0
279
    -2
289
     1
 69
     0
  7
Standard
140
0.18
170
     5
 62
     0
 63
     7
283
     0
 90
      512
 91
        0
  1

274
    -2
284
     1
 64
     0
275
    -2
285
     1
 65
     0
276
    -2
286
     1
 66
     0
277
    -2
287
     1
 67
     0
278
    -2
288
     1
 68
     0
279
    -2
289
     1
 69
     0
  0
VISUALSTYLE
  5
2F
102
{ACAD_REACTORS
330
29
102
}
330
29
100
AcDbVisualStyle
  2
2dWireframe
 70
     4
177
     3
291
     0
 70
    58
 90
        0
176
     1
 90
        2
176
     1
 90
        0
176
     1
 90
        0
176
     1
 40
0.6
176
     1
 40
30.0
176
     1
 62
     7
420
 16777215
176
     1
 90
        1
176
     1
 90
        4
176
     1
 62
     7
176
     1
 62
   257
176
     1
 90
        1
176
     1
 90
        1
176
     1
 40
1.0
176
     1
 90
        0
176
     1
 62
   257
176
     1
 40
1.0
176
     1
 90
        1
176
     1
 90
        6
176
     1
 90
        2
176
     1
 62
     7
176
     1
 90
        5
176
     1
 90
        0
176
     1
 90
        0
176
     1
290
     0
176
     1
 90
        1
176
     1
 40
0.0
176
     1
 90
        0
176
     1
290
     1
176
     1
290
     1
176
     1
290
     0
176
     1
290
     0
176
     1
290
     0
176
     1
290
     0
176
     1
290
     0
176
     1
290
     0
176
     1
290
     0
176
     1
 90
       50
176
     1
 40
0.0
176
     1
 40
1.0
176
     1
 90
        0
176
     1
 62
    18
420
        0
176
     1
 90
       50
176
     1
 90
        3
176
     1
 62
     5
420
      255
176
     1
290
     0
176
     1
 90
       50
176
     1
 90
       50
176
     1
 90
       50
176
     1
290
     0
176
     1
 90
       50
176
     1
 62
   256
176
     0
 40
1.0
176
     0
 90
        2
176
     1
  1
strokes_ogs.tif
176
     1
290
     0
176
     1
 40
1.0
176
     1
 40
1.0
176
     1
  0
VISUALSTYLE
  5
2E
102
{ACAD_REACTORS
330
29
102
}
330
29
100
AcDbVisualStyle
  2
Basic
 70
     7
177
     3
291
     1
 70
    58
 90
        1
176
     1
 90
        0
176
     1
 90
        1
176
     1
 90
        0
176
     1
 40
0.6
176
     1
 40
30.0
176
     1
 62
     7
420
 16777215
176
     1
 90
        0
176
     1
 90
        4
176
     1
 62
     7
176
     1
 62
   257
176
     1
 90
        1
176
     1
 90
        1
176
     1
 40
1.0
176
     1
 90
        8
176
     1
 62
     7
176
     1
 40
1.0
176
     1
 90
        1
176
     1
 90
        6
176
     1
 90
        2
176
     1
 62
     7
176
     1
 90
        5
176
     1
 90
        0
176
     1
 90
        0
176
     1
290
     0
176
     1
 90
        1
176
     1
 40
0.0
176
     1
 90
        0
176
     1
290
     0
176
     1
290
     1
176
     1
290
     1
176
     1
290
     0
176
     1
290
     0
176
     1
290
     0
176
     1
290
     0
176
     1
290
     0
176
     1
290
     0
176
     1
 90
       50
176
     1
 40
0.0
176
     1
 40
1.0
176
     1
 90
        0
176
     1
 62
    18
420
        0
176
     1
 90
       50
176
     1
 90
        3
176
     1
 62
     5
420
      255
176
     1
290
     0
176
     1
 90
       50
176
     1
 90
       50
176
     1
 90
       50
176
     1
290
     0
176
     1
 90
       50
176
     1
 62
   256
176
     0
 40
1.0
176
     0
 90
        2
176
     1
  1
strokes_ogs.tif
176
     1
290
     0
176
     1
 40
1.0
176
     1
 40
1.0
176
     1
  0
VISUALSTYLE
  5
35
102
{ACAD_REACTORS
330
29
102
}
330
29
100
AcDbVisualStyle
  2
Brighten
 70
    12
177
     3
291
     1
 70
    58
 90
        2
176
     1
 90
        2
176
     1
 90
        0
176
     1
 90
        0
176
     1
 40
0.6
176
     1
 40
30.0
176
     1
 62
     7
420
 16777215
176
     1
 90
        1
176
     1
 90
        4
176
     1
 62
     7
176
     1
 62
   257
176
     1
 90
        1
176
     1
 90
        1
176
     1
 40
1.0
176
     1
 90
        8
176
     1
 62
     7
176
     1
 40
1.0
176
     1
 90
        1
176
     1
 90
        6
176
     1
 90
        2
176
     1
 62
     7
176
     1
 90
        5
176
     1
 90
        0
176
     1
 90
        0
176
     1
290
     0
176
     1
 90
        1
176
     1
 40
50.0
176
     1
 90
        0
176
     1
290
     0
176
     1
290
     1
176
     1
290
     1
176
     1
290
     0
176
     1
290
     0
176
     1
290
     0
176
     1
290
     0
176
     1
290
     0
176
     1
290
     0
176
     1
 90
       50
176
     1
 40
0.0
176
     1
 40
1.0
176
     1
 90
        0
176
     1
 62
    18
420
        0
176
     1
 90
       50
176
     1
 90
        3
176
     1
 62
     5
420
      255
176
     1
290
     0
176
     1
 90
       50
176
     1
 90
       50
176
     1
 90
       50
176
     1
290
     0
176
     1
 90
       50
176
     1
 62
   256
176
     0
 40
1.0
176
     0
 90
        2
176
     1
  1
strokes_ogs.tif
176
     1
290
     0
176
     1
 40
1.0
176
     1
 40
1.0
176
     1
  0
VISUALSTYLE
  5
39
102
{ACAD_REACTORS
330
29
102
}
330
29
100
AcDbVisualStyle
  2
ColorChange
 70
    16
177
     3
291
     1
 70
    58
 90
        2
176
     1
 90
        2
176
     1
 90
        3
176
     1
 90
        0
176
     1
 40
0.6
176
     1
 40
30.0
176
     1
 62
     8
420
  8421504
176
     1
 90
        1
176
     1
 90
        4
176
     1
 62
     7
176
     1
 62
   257
176
     1
 90
        1
176
     1
 90
        1
176
     1
 40
1.0
176
     1
 90
        8
176
     1
 62
     8
420
  8421504
176
     1
 40
1.0
176
     1
 90
        1
176
     1
 90
        6
176
     1
 90
        2
176
     1
 62
     7
176
     1
 90
        5
176
     1
 90
        0
176
     1
 90
        0
176
     1
290
     0
176
     1
 90
        1
176
     1
 40
0.0
176
     1
 90
        0
176
     1
290
     0
176
     1
290
     1
176
     1
290
     1
176
     1
290
     0
176
     1
290
     0
176
     1
290
     0
176
     1
290
     0
176
     1
290
     0
176
     1
290
     0
176
     1
 90
       50
176
     1
 40
0.0
176
     1
 40
1.0
176
     1
 90
        0
176
     1
 62
    18
420
        0
176
     1
 90
       50
176
     1
 90
        3
176
     1
 62
     5
420
      255
176
     1
290
     0
176
     1
 90
       50
176
     1
 90
       50
176
     1
 90
       50
176
     1
290
     0
176
     1
 90
       50
176
     1
 62
   256
176
     0
 40
1.0
176
     0
 90
        2
176
     1
  1
strokes_ogs.tif
176
     1
290
     0
176
     1
 40
1.0
176
     1
 40
1.0
176
     1
  0
VISUALSTYLE
  5
32
102
{ACAD_REACTORS
330
29
102
}
330
29
100
AcDbVisualStyle
  2
Conceptual
 70
     9
177
     3
291
     0
 70
    58
 90
        3
176
     1
 90
        2
176
     1
 90
        0
176
     1
 90
        0
176
     1
 40
0.6
176
     1
 40
30.0
176
     1
 62
     7
420
 16777215
176
     1
 90
        2
176
     1
 90
        2
176
     1
 62
     7
176
     1
 62
   257
176
     1
 90
        1
176
     1
 90
        1
176
     1
 40
179.0
176
     1
 90
        8
176
     1
 62
     7
176
     1
 40
1.0
176
     1
 90
        1
176
     1
 90
        6
176
     1
 90
        2
176
     1
 62
     7
176
     1
 90
        3
176
     1
 90
        0
176
     1
 90
        0
176
     1
290
     0
176
     1
 90
        1
176
     1
 40
0.0
176
     1
 90
        0
176
     1
290
     0
176
     1
290
     1
176
     1
290
     1
176
     1
290
     0
176
     1
290
     0
176
     1
290
     0
176
     1
290
     0
176
     1
290
     0
176
     1
290
     0
176
     1
 90
       50
176
     1
 40
0.0
176
     1
 40
1.0
176
     1
 90
        0
176
     1
 62
    18
420
        0
176
     1
 90
       50
176
     1
 90
        3
176
     1
 62
     5
420
      255
176
     1
290
     0
176
     1
 90
       50
176
     1
 90
       50
176
     1
 90
       50
176
     1
290
     0
176
     1
 90
       50
176
     1
 62
   256
176
     0
 40
1.0
176
     0
 90
        2
176
     1
  1
strokes_ogs.tif
176
     1
290
     0
176
     1
 40
1.0
176
     1
 40
1.0
176
     1
  0
VISUALSTYLE
  5
34
102
{ACAD_REACTORS
330
29
102
}
330
29
100
AcDbVisualStyle
  2
Dim
 70
    11
177
     3
291
     1
 70
    58
 90
        2
176
     1
 90
        2
176
     1
 90
        0
176
     1
 90
        0
176
     1
 40
0.6
176
     1
 40
30.0
176
     1
 62
     7
420
 16777215
176
     1
 90
        1
176
     1
 90
        4
176
     1
 62
     7
176
     1
 62
   257
176
     1
 90
        1
176
     1
 90
        1
176
     1
 40
1.0
176
     1
 90
        8
176
     1
 62
     7
176
     1
 40
1.0
176
     1
 90
        1
176
     1
 90
        6
176
     1
 90
        2
176
     1
 62
     7
176
     1
 90
        5
176
     1
 90
        0
176
     1
 90
        0
176
     1
290
     0
176
     1
 90
        1
176
     1
 40
-50.0
176
     1
 90
        0
176
     1
290
     0
176
     1
290
     1
176
     1
290
     1
176
     1
290
     0
176
     1
290
     0
176
     1
290
     0
176
     1
290
     0
176
     1
290
     0
176
     1
290
     0
176
     1
 90
       50
176
     1
 40
0.0
176
     1
 40
1.0
176
     1
 90
        0
176
     1
 62
    18
420
        0
176
     1
 90
       50
176
     1
 90
        3
176
     1
 62
     5
420
      255
176
     1
290
     0
176
     1
 90
       50
176
     1
 90
       50
176
     1
 90
       50
176
     1
290
     0
176
     1
 90
       50
176
     1
 62
   256
176
     0
 40
1.0
176
     0
 90
        2
176
     1
  1
strokes_ogs.tif
176
     1
290
     0
176
     1
 40
1.0
176
     1
 40
1.0
176
     1
  0
VISUALSTYLE
  5
41
102
{ACAD_REACTORS
330
29
102
}
330
29
100
AcDbVisualStyle
  2
EdgeColorOff
 70
    22
177
     3
291
     1
 70
    58
 90
        2
176
     0
 90
        2
176
     0
 90
        0
176
     0
 90
        0
176
     0
 40
0.6
176
     0
 40
30.0
176
     0
 62
     7
420
 16777215
176
     0
 90
        1
176
     0
 90
        4
176
     0
 62
     7
176
     0
 62
   257
176
     0
 90
        1
176
     0
 90
        1
176
     0
 40
1.0
176
     0
 90
        8
176
     2
 62
     7
176
     0
 40
1.0
176
     0
 90
        1
176
     0
 90
        6
176
     0
 90
        2
176
     0
 62
     7
176
     0
 90
        5
176
     0
 90
        0
176
     0
 90
        0
176
     0
290
     0
176
     0
 90
        1
176
     0
 40
0.0
176
     0
 90
        0
176
     0
290
     0
176
     0
290
     1
176
     0
290
     1
176
     0
290
     0
176
     0
290
     0
176
     0
290
     0
176
     0
290
     0
176
     0
290
     0
176
     0
290
     0
176
     0
 90
       50
176
     0
 40
0.0
176
     0
 40
1.0
176
     0
 90
        0
176
     0
 62
    18
420
        0
176
     0
 90
       50
176
     0
 90
        3
176
     0
 62
     5
420
      255
176
     0
290
     0
176
     0
 90
       50
176
     0
 90
       50
176
     0
 90
       50
176
     0
290
     0
176
     0
 90
       50
176
     0
 62
   256
176
     0
 40
1.0
176
     0
 90
        2
176
     0
  1
strokes_ogs.tif
176
     0
290
     0
176
     0
 40
1.0
176
     0
 40
1.0
176
     0
  0
VISUALSTYLE
  5
38
102
{ACAD_REACTORS
330
29
102
}
330
29
100
AcDbVisualStyle
  2
Facepattern
 70
    15
177
     3
291
     1
 70
    58
 90
        2
176
     1
 90
        2
176
     1
 90
        0
176
     1
 90
        0
176
     1
 40
0.6
176
     1
 40
30.0
176
     1
 62
     7
420
 16777215
176
     1
 90
        1
176
     1
 90
        4
176
     1
 62
     7
176
     1
 62
   257
176
     1
 90
        1
176
     1
 90
        1
176
     1
 40
1.0
176
     1
 90
        8
176
     1
 62
     7
176
     1
 40
1.0
176
     1
 90
        1
176
     1
 90
        6
176
     1
 90
        2
176
     1
 62
     7
176
     1
 90
        5
176
     1
 90
        0
176
     1
 90
        0
176
     1
290
     0
176
     1
 90
        1
176
     1
 40
0.0
176
     1
 90
        0
176
     1
290
     0
176
     1
290
     1
176
     1
290
     1
176
     1
290
     0
176
     1
290
     0
176
     1
290
     0
176
     1
290
     0
176
     1
290
     0
176
     1
290
     0
176
     1
 90
       50
176
     1
 40
0.0
176
     1
 40
1.0
176
     1
 90
        0
176
     1
 62
    18
420
        0
176
     1
 90
       50
176
     1
 90
        3
176
     1
 62
     5
420
      255
176
     1
290
     0
176
     1
 90
       50
176
     1
 90
       50
176
     1
 90
       50
176
     1
290
     0
176
     1
 90
       50
176
     1
 62
   256
176
     0
 40
1.0
176
     0
 90
        2
176
     1
  1
strokes_ogs.tif
176
     1
290
     0
176
     1
 40
1.0
176
     1
 40
1.0
176
     1
  0
VISUALSTYLE
  5
2A
102
{ACAD_REACTORS
330
29
102
}
330
29
100
AcDbVisualStyle
  2
Flat
 70
     0
177
     3
291
     1
 70
    58
 90
        2
176
     1
 90
        1
176
     1
 90
        1
176
     1
 90
        2
176
     1
 40
0.6
176
     1
 40
30.0
176
     1
 62
     7
420
 16777215
176
     1
 90
        0
176
     1
 90
        0
176
     1
 62
     7
176
     1
 62
   257
176
     1
 90
        1
176
     1
 90
        1
176
     1
 40
1.0
176
     1
 90
        8
176
     1
 62
     7
176
     1
 40
1.0
176
     1
 90
        1
176
     1
 90
        6
176
     1
 90
        2
176
     1
 62
     7
176
     1
 90
        5
176
     1
 90
        0
176
     1
 90
        0
176
     1
290
     0
176
     1
 90
       13
176
     1
 40
0.0
176
     1
 90
        0
176
     1
290
     0
176
     1
290
     1
176
     1
290
     1
176
     1
290
     0
176
     1
290
     0
176
     1
290
     0
176
     1
290
     0
176
     1
290
     0
176
     1
290
     0
176
     1
 90
       50
176
     1
 40
0.0
176
     1
 40
1.0
176
     1
 90
        0
176
     1
 62
    18
420
        0
176
     1
 90
       50
176
     1
 90
        3
176
     1
 62
     5
420
      255
176
     1
290
     0
176
     1
 90
       50
176
     1
 90
       50
176
     1
 90
       50
176
     1
290
     0
176
     1
 90
       50
176
     1
 62
   256
176
     0
 40
1.0
176
     0
 90
        2
176
     1
  1
strokes_ogs.tif
176
     1
290
     0
176
     1
 40
1.0
176
     1
 40
1.0
176
     1
  0
VISUALSTYLE
  5
2B
102
{ACAD_REACTORS
330
29
102
}
330
29
100
AcDbVisualStyle
  2
FlatWithEdges
 70
     1
177
     3
291
     1
 70
    58
 90
        2
176
     1
 90
        1
176
     1
 90
        1
176
     1
 90
        2
176
     1
 40
0.6
176
     1
 40
30.0
176
     1
 62
     7
420
 16777215
176
     1
 90
        1
176
     1
 90
        0
176
     1
 62
     7
176
     1
 62
   257
176
     1
 90
        1
176
     1
 90
        1
176
     1
 40
1.0
176
     1
 90
        0
176
     1
 62
   257
176
     1
 40
1.0
176
     1
 90
        1
176
     1
 90
        6
176
     1
 90
        2
176
     1
 62
     7
176
     1
 90
        5
176
     1
 90
        0
176
     1
 90
        0
176
     1
290
     0
176
     1
 90
       13
176
     1
 40
0.0
176
     1
 90
        0
176
     1
290
     0
176
     1
290
     1
176
     1
290
     1
176
     1
290
     0
176
     1
290
     0
176
     1
290
     0
176
     1
290
     0
176
     1
290
     0
176
     1
290
     0
176
     1
 90
       50
176
     1
 40
0.0
176
     1
 40
1.0
176
     1
 90
        0
176
     1
 62
    18
420
        0
176
     1
 90
       50
176
     1
 90
        3
176
     1
 62
     5
420
      255
176
     1
290
     0
176
     1
 90
       50
176
     1
 90
       50
176
     1
 90
       50
176
     1
290
     0
176
     1
 90
       50
176
     1
 62
   256
176
     0
 40
1.0
176
     0
 90
        2
176
     1
  1
strokes_ogs.tif
176
     1
290
     0
176
     1
 40
1.0
176
     1
 40
1.0
176
     1
  0
VISUALSTYLE
  5
2C
102
{ACAD_REACTORS
330
29
102
}
330
29
100
AcDbVisualStyle
  2
Gouraud
 70
     2
177
     3
291
     1
 70
    58
 90
        2
176
     1
 90
        2
176
     1
 90
        1
176
     1
 90
        2
176
     1
 40
0.6
176
     1
 40
30.0
176
     1
 62
     7
420
 16777215
176
     1
 90
        0
176
     1
 90
        0
176
     1
 62
     7
176
     1
 62
   257
176
     1
 90
        1
176
     1
 90
        1
176
     1
 40
1.0
176
     1
 90
        0
176
     1
 62
     7
176
     1
 40
1.0
176
     1
 90
        1
176
     1
 90
        6
176
     1
 90
        2
176
     1
 62
     7
176
     1
 90
        5
176
     1
 90
        0
176
     1
 90
        0
176
     1
290
     0
176
     1
 90
       13
176
     1
 40
0.0
176
     1
 90
        0
176
     1
290
     0
176
     1
290
     1
176
     1
290
     1
176
     1
290
     0
176
     1
290
     0
176
     1
290
     0
176
     1
290
     0
176
     1
290
     0
176
     1
290
     0
176
     1
 90
       50
176
     1
 40
0.0
176
     1
 40
1.0
176
     1
 90
        0
176
     1
 62
    18
420
        0
176
     1
 90
       50
176
     1
 90
        3
176
     1
 62
     5
420
      255
176
     1
290
     0
176
     1
 90
       50
176
     1
 90
       50
176
     1
 90
       50
176
     1
290
     0
176
     1
 90
       50
176
     1
 62
   256
176
     0
 40
1.0
176
     0
 90
        2
176
     1
  1
strokes_ogs.tif
176
     1
290
     0
176
     1
 40
1.0
176
     1
 40
1.0
176
     1
  0
VISUALSTYLE
  5
2D
102
{ACAD_REACTORS
330
29
102
}
330
29
100
AcDbVisualStyle
  2
GouraudWithEdges
 70
     3
177
     3
291
     1
 70
    58
 90
        2
176
     1
 90
        2
176
     1
 90
        1
176
     1
 90
        2
176
     1
 40
0.6
176
     1
 40
30.0
176
     1
 62
     7
420
 16777215
176
     1
 90
        1
176
     1
 90
        0
176
     1
 62
     7
176
     1
 62
   257
176
     1
 90
        1
176
     1
 90
        1
176
     1
 40
1.0
176
     1
 90
        0
176
     1
 62
   257
176
     1
 40
1.0
176
     1
 90
        1
176
     1
 90
        6
176
     1
 90
        2
176
     1
 62
     7
176
     1
 90
        5
176
     1
 90
        0
176
     1
 90
        0
176
     1
290
     0
176
     1
 90
       13
176
     1
 40
0.0
176
     1
 90
        0
176
     1
290
     0
176
     1
290
     1
176
     1
290
     1
176
     1
290
     0
176
     1
290
     0
176
     1
290
     0
176
     1
290
     0
176
     1
290
     0
176
     1
290
     0
176
     1
 90
       50
176
     1
 40
0.0
176
     1
 40
1.0
176
     1
 90
        0
176
     1
 62
    18
420
        0
176
     1
 90
       50
176
     1
 90
        3
176
     1
 62
     5
420
      255
176
     1
290
     0
176
     1
 90
       50
176
     1
 90
       50
176
     1
 90
       50
176
     1
290
     0
176
     1
 90
       50
176
     1
 62
   256
176
     0
 40
1.0
176
     0
 90
        2
176
     1
  1
strokes_ogs.tif
176
     1
290
     0
176
     1
 40
1.0
176
     1
 40
1.0
176
     1
  0
VISUALSTYLE
  5
31
102
{ACAD_REACTORS
330
29
102
}
330
29
100
AcDbVisualStyle
  2
Hidden
 70
     6
177
     3
291
     0
 70
    58
 90
        1
176
     1
 90
        2
176
     1
 90
        2
176
     1
 90
        0
176
     1
 40
0.6
176
     1
 40
30.0
176
     1
 62
     7
420
 16777215
176
     1
 90
        2
176
     1
 90
        2
176
     1
 62
     7
176
     1
 62
   257
176
     1
 90
        2
176
     1
 90
        1
176
     1
 40
40.0
176
     1
 90
        0
176
     1
 62
   257
176
     1
 40
1.0
176
     1
 90
        1
176
     1
 90
        6
176
     1
 90
        2
176
     1
 62
     7
176
     1
 90
        3
176
     1
 90
        0
176
     1
 90
        0
176
     1
290
     0
176
     1
 90
        1
176
     1
 40
0.0
176
     1
 90
        0
176
     1
290
     0
176
     1
290
     1
176
     1
290
     1
176
     1
290
     0
176
     1
290
     0
176
     1
290
     0
176
     1
290
     0
176
     1
290
     0
176
     1
290
     0
176
     1
 90
       50
176
     1
 40
0.0
176
     1
 40
1.0
176
     1
 90
        0
176
     1
 62
    18
420
        0
176
     1
 90
       50
176
     1
 90
        3
176
     1
 62
     5
420
      255
176
     1
290
     0
176
     1
 90
       50
176
     1
 90
       50
176
     1
 90
       50
176
     1
290
     0
176
     1
 90
       50
176
     1
 62
   256
176
     0
 40
1.0
176
     0
 90
        2
176
     1
  1
strokes_ogs.tif
176
     1
290
     0
176
     1
 40
1.0
176
     1
 40
1.0
176
     1
  0
VISUALSTYLE
  5
3F
102
{ACAD_REACTORS
330
29
102
}
330
29
100
AcDbVisualStyle
  2
JitterOff
 70
    20
177
     3
291
     1
 70
    58
 90
        2
176
     0
 90
        2
176
     0
 90
        0
176
     0
 90
        0
176
     0
 40
0.6
176
     0
 40
30.0
176
     0
 62
     7
420
 16777215
176
     0
 90
        1
176
     0
 90
        4
176
     0
 62
     7
176
     0
 62
   257
176
     0
 90
        1
176
     0
 90
        1
176
     0
 40
1.0
176
     0
 90
       10
176
     2
 62
     7
176
     0
 40
1.0
176
     0
 90
        1
176
     0
 90
        6
176
     0
 90
        2
176
     0
 62
     7
176
     0
 90
        5
176
     0
 90
        0
176
     0
 90
        0
176
     0
290
     0
176
     0
 90
        1
176
     0
 40
0.0
176
     0
 90
        0
176
     0
290
     0
176
     0
290
     1
176
     0
290
     1
176
     0
290
     0
176
     0
290
     0
176
     0
290
     0
176
     0
290
     0
176
     0
290
     0
176
     0
290
     0
176
     0
 90
       50
176
     0
 40
0.0
176
     0
 40
1.0
176
     0
 90
        0
176
     0
 62
    18
420
        0
176
     0
 90
       50
176
     0
 90
        3
176
     0
 62
     5
420
      255
176
     0
290
     0
176
     0
 90
       50
176
     0
 90
       50
176
     0
 90
       50
176
     0
290
     0
176
     0
 90
       50
176
     0
 62
   256
176
     0
 40
1.0
176
     0
 90
        2
176
     0
  1
strokes_ogs.tif
176
     0
290
     0
176
     0
 40
1.0
176
     0
 40
1.0
176
     0
  0
VISUALSTYLE
  5
37
102
{ACAD_REACTORS
330
29
102
}
330
29
100
AcDbVisualStyle
  2
Linepattern
 70
    14
177
     3
291
     1
 70
    58
 90
        2
176
     1
 90
        2
176
     1
 90
        0
176
     1
 90
        0
176
     1
 40
0.6
176
     1
 40
30.0
176
     1
 62
     7
420
 16777215
176
     1
 90
        1
176
     1
 90
        4
176
     1
 62
     7
176
     1
 62
   257
176
     1
 90
        7
176
     1
 90
        7
176
     1
 40
1.0
176
     1
 90
        8
176
     1
 62
     7
176
     1
 40
1.0
176
     1
 90
        1
176
     1
 90
        6
176
     1
 90
        2
176
     1
 62
     7
176
     1
 90
        5
176
     1
 90
        0
176
     1
 90
        0
176
     1
290
     0
176
     1
 90
        1
176
     1
 40
0.0
176
     1
 90
        0
176
     1
290
     0
176
     1
290
     1
176
     1
290
     1
176
     1
290
     0
176
     1
290
     0
176
     1
290
     0
176
     1
290
     0
176
     1
290
     0
176
     1
290
     0
176
     1
 90
       50
176
     1
 40
0.0
176
     1
 40
1.0
176
     1
 90
        0
176
     1
 62
    18
420
        0
176
     1
 90
       50
176
     1
 90
        3
176
     1
 62
     5
420
      255
176
     1
290
     0
176
     1
 90
       50
176
     1
 90
       50
176
     1
 90
       50
176
     1
290
     0
176
     1
 90
       50
176
     1
 62
   256
176
     0
 40
1.0
176
     0
 90
        2
176
     1
  1
strokes_ogs.tif
176
     1
290
     0
176
     1
 40
1.0
176
     1
 40
1.0
176
     1
  0
VISUALSTYLE
  5
40
102
{ACAD_REACTORS
330
29
102
}
330
29
100
AcDbVisualStyle
  2
OverhangOff
 70
    21
177
     3
291
     1
 70
    58
 90
        2
176
     0
 90
        2
176
     0
 90
        0
176
     0
 90
        0
176
     0
 40
0.6
176
     0
 40
30.0
176
     0
 62
     7
420
 16777215
176
     0
 90
        1
176
     0
 90
        4
176
     0
 62
     7
176
     0
 62
   257
176
     0
 90
        1
176
     0
 90
        1
176
     0
 40
1.0
176
     0
 90
        9
176
     2
 62
     7
176
     0
 40
1.0
176
     0
 90
        1
176
     0
 90
        6
176
     0
 90
        2
176
     0
 62
     7
176
     0
 90
        5
176
     0
 90
        0
176
     0
 90
        0
176
     0
290
     0
176
     0
 90
        1
176
     0
 40
0.0
176
     0
 90
        0
176
     0
290
     0
176
     0
290
     1
176
     0
290
     1
176
     0
290
     0
176
     0
290
     0
176
     0
290
     0
176
     0
290
     0
176
     0
290
     0
176
     0
290
     0
176
     0
 90
       50
176
     0
 40
0.0
176
     0
 40
1.0
176
     0
 90
        0
176
     0
 62
    18
420
        0
176
     0
 90
       50
176
     0
 90
        3
176
     0
 62
     5
420
      255
176
     0
290
     0
176
     0
 90
       50
176
     0
 90
       50
176
     0
 90
       50
176
     0
290
     0
176
     0
 90
       50
176
     0
 62
   256
176
     0
 40
1.0
176
     0
 90
        2
176
     0
  1
strokes_ogs.tif
176
     0
290
     0
176
     0
 40
1.0
176
     0
 40
1.0
176
     0
  0
VISUALSTYLE
  5
33
102
{ACAD_REACTORS
330
29
102
}
330
29
100
AcDbVisualStyle
  2
Realistic
 70
     8
177
     3
291
     0
 70
    58
 90
        2
176
     1
 90
        3
176
     1
 90
        0
176
     1
 90
        2
176
     1
 40
0.6
176
     1
 40
30.0
176
     1
 62
     7
420
 16777215
176
     1
 90
        0
176
     1
 90
        0
176
     1
 62
     7
176
     1
 62
   257
176
     1
 90
        1
176
     1
 90
        1
176
     1
 40
1.0
176
     1
 90
        8
176
     1
 62
   257
176
     1
 40
1.0
176
     1
 90
        1
176
     1
 90
        6
176
     1
 90
        2
176
     1
 62
     7
176
     1
 90
        3
176
     1
 90
        0
176
     1
 90
        0
176
     1
290
     0
176
     1
 90
       13
176
     1
 40
0.0
176
     1
 90
        0
176
     1
290
     0
176
     1
290
     1
176
     1
290
     1
176
     1
290
     0
176
     1
290
     0
176
     1
290
     0
176
     1
290
     0
176
     1
290
     0
176
     1
290
     0
176
     1
 90
       50
176
     1
 40
0.0
176
     1
 40
1.0
176
     1
 90
        0
176
     1
 62
    18
420
        0
176
     1
 90
       50
176
     1
 90
        3
176
     1
 62
     5
420
      255
176
     1
290
     0
176
     1
 90
       50
176
     1
 90
       50
176
     1
 90
       50
176
     1
290
     0
176
     1
 90
       50
176
     1
 62
   256
176
     0
 40
1.0
176
     0
 90
        2
176
     1
  1
strokes_ogs.tif
176
     1
290
     0
176
     1
 40
1.0
176
     1
 40
1.0
176
     1
  0
VISUALSTYLE
  5
3E
102
{ACAD_REACTORS
330
29
102
}
330
29
100
AcDbVisualStyle
  2
Shaded
 70
    27
177
     3
291
     0
 70
    58
 90
        2
176
     1
 90
        2
176
     1
 90
        1
176
     1
 90
        2
176
     1
 40
0.6
176
     1
 40
30.0
176
     1
 62
     7
420
 16777215
176
     1
 90
        0
176
     1
 90
        4
176
     1
 62
     7
176
     1
 62
   257
176
     1
 90
        1
176
     1
 90
        1
176
     1
 40
1.0
176
     1
 90
        8
176
     1
 62
   257
176
     1
 40
1.0
176
     1
 90
        1
176
     1
 90
        6
176
     1
 90
        2
176
     1
 62
     8
420
  7895160
176
     1
 90
        3
176
     1
 90
        0
176
     1
 90
        0
176
     1
290
     0
176
     1
 90
        5
176
     1
 40
0.0
176
     1
 90
        0
176
     1
290
     0
176
     1
290
     1
176
     1
290
     1
176
     1
290
     0
176
     1
290
     0
176
     1
290
     0
176
     1
290
     0
176
     1
290
     0
176
     1
290
     0
176
     1
 90
       50
176
     1
 40
0.0
176
     1
 40
1.0
176
     1
 90
        0
176
     1
 62
    18
420
        0
176
     1
 90
       50
176
     1
 90
        3
176
     1
 62
     5
420
      255
176
     1
290
     0
176
     1
 90
       50
176
     1
 90
       50
176
     1
 90
       50
176
     1
290
     0
176
     1
 90
       50
176
     1
 62
   256
176
     0
 40
1.0
176
     0
 90
        2
176
     1
  1
strokes_ogs.tif
176
     1
290
     0
176
     1
 40
1.0
176
     1
 40
1.0
176
     1
  0
VISUALSTYLE
  5
3D
102
{ACAD_REACTORS
330
29
102
}
330
29
100
AcDbVisualStyle
  2
Shaded with edges
 70
    26
177
     3
291
     0
 70
    58
 90
        2
176
     1
 90
        2
176
     1
 90
        1
176
     1
 90
        2
176
     1
 40
0.6
176
     1
 40
30.0
176
     1
 62
     7
420
 16777215
176
     1
 90
        1
176
     1
 90
       10
176
     1
 62
     7
176
     1
 62
   257
176
     1
 90
        2
176
     1
 90
        1
176
     1
 40
1.0
176
     1
 90
        8
176
     1
 62
   257
176
     1
 40
1.0
176
     1
 90
        1
176
     1
 90
        6
176
     1
 90
        2
176
     1
 62
     7
176
     1
 90
        3
176
     1
 90
        0
176
     1
 90
        0
176
     1
290
     0
176
     1
 90
        5
176
     1
 40
0.0
176
     1
 90
        0
176
     1
290
     0
176
     1
290
     1
176
     1
290
     1
176
     1
290
     0
176
     1
290
     0
176
     1
290
     0
176
     1
290
     0
176
     1
290
     0
176
     1
290
     0
176
     1
 90
       50
176
     1
 40
0.0
176
     1
 40
1.0
176
     1
 90
        0
176
     1
 62
    18
420
        0
176
     1
 90
       50
176
     1
 90
        3
176
     1
 62
     5
420
      255
176
     1
290
     0
176
     1
 90
       50
176
     1
 90
       50
176
     1
 90
       50
176
     1
290
     0
176
     1
 90
       50
176
     1
 62
   256
176
     0
 40
1.0
176
     0
 90
        2
176
     1
  1
strokes_ogs.tif
176
     1
290
     0
176
     1
 40
1.0
176
     1
 40
1.0
176
     1
  0
VISUALSTYLE
  5
3A
102
{ACAD_REACTORS
330
29
102
}
330
29
100
AcDbVisualStyle
  2
Shades of Gray
 70
    23
177
     3
291
     0
 70
    58
 90
        2
176
     1
 90
        2
176
     1
 90
        3
176
     1
 90
        0
176
     1
 40
0.6
176
     1
 40
30.0
176
     1
 62
     7
420
 16777215
176
     1
 90
        2
176
     1
 90
        2
176
     1
 62
     7
176
     1
 62
     7
176
     1
 90
        1
176
     1
 90
        1
176
     1
 40
40.0
176
     1
 90
        8
176
     1
 62
     7
176
     1
 40
1.0
176
     1
 90
        1
176
     1
 90
        6
176
     1
 90
        2
176
     1
 62
     7
176
     1
 90
        3
176
     1
 90
        0
176
     1
 90
        0
176
     1
290
     0
176
     1
 90
        1
176
     1
 40
0.0
176
     1
 90
        0
176
     1
290
     0
176
     1
290
     1
176
     1
290
     1
176
     1
290
     0
176
     1
290
     0
176
     1
290
     0
176
     1
290
     0
176
     1
290
     0
176
     1
290
     0
176
     1
 90
       50
176
     1
 40
0.0
176
     1
 40
1.0
176
     1
 90
        0
176
     1
 62
    18
420
        0
176
     1
 90
       50
176
     1
 90
        3
176
     1
 62
     5
420
      255
176
     1
290
     0
176
     1
 90
       50
176
     1
 90
       50
176
     1
 90
       50
176
     1
290
     0
176
     1
 90
       50
176
     1
 62
   256
176
     0
 40
1.0
176
     0
 90
        2
176
     1
  1
strokes_ogs.tif
176
     1
290
     0
176
     1
 40
1.0
176
     1
 40
1.0
176
     1
  0
VISUALSTYLE
  5
3B
102
{ACAD_REACTORS
330
29
102
}
330
29
100
AcDbVisualStyle
  2
Sketchy
 70
    24
177
     3
291
     0
 70
    58
 90
        1
176
     1
 90
        2
176
     1
 90
        2
176
     1
 90
        0
176
     1
 40
0.6
176
     1
 40
30.0
176
     1
 62
     7
420
 16777215
176
     1
 90
        2
176
     1
 90
        2
176
     1
 62
     7
176
     1
 62
     7
176
     1
 90
        1
176
     1
 90
        1
176
     1
 40
40.0
176
     1
 90
       11
176
     1
 62
     7
176
     1
 40
1.0
176
     1
 90
        1
176
     1
 90
        6
176
     1
 90
        2
176
     1
 62
     7
176
     1
 90
        6
176
     1
 90
        0
176
     1
 90
        0
176
     1
290
     0
176
     1
 90
        1
176
     1
 40
0.0
176
     1
 90
        0
176
     1
290
     0
176
     1
290
     1
176
     1
290
     1
176
     1
290
     0
176
     1
290
     0
176
     1
290
     0
176
     1
290
     0
176
     1
290
     0
176
     1
290
     0
176
     1
 90
       50
176
     1
 40
0.0
176
     1
 40
1.0
176
     1
 90
        0
176
     1
 62
    18
420
        0
176
     1
 90
       50
176
     1
 90
        3
176
     1
 62
     5
420
      255
176
     1
290
     0
176
     1
 90
       50
176
     1
 90
       50
176
     1
 90
       50
176
     1
290
     0
176
     1
 90
       50
176
     1
 62
   256
176
     0
 40
1.0
176
     0
 90
        2
176
     1
  1
strokes_ogs.tif
176
     1
290
     0
176
     1
 40
1.0
176
     1
 40
1.0
176
     1
  0
VISUALSTYLE
  5
36
102
{ACAD_REACTORS
330
29
102
}
330
29
100
AcDbVisualStyle
  2
Thicken
 70
    13
177
     3
291
     1
 70
    58
 90
        2
176
     1
 90
        2
176
     1
 90
        0
176
     1
 90
        0
176
     1
 40
0.6
176
     1
 40
30.0
176
     1
 62
     7
420
 16777215
176
     1
 90
        1
176
     1
 90
        4
176
     1
 62
     7
176
     1
 62
   257
176
     1
 90
        1
176
     1
 90
        1
176
     1
 40
1.0
176
     1
 90
       12
176
     1
 62
     7
176
     1
 40
1.0
176
     1
 90
        1
176
     1
 90
        6
176
     1
 90
        2
176
     1
 62
     7
176
     1
 90
        5
176
     1
 90
        0
176
     1
 90
        0
176
     1
290
     0
176
     1
 90
        1
176
     1
 40
0.0
176
     1
 90
        0
176
     1
290
     0
176
     1
290
     1
176
     1
290
     1
176
     1
290
     0
176
     1
290
     0
176
     1
290
     0
176
     1
290
     0
176
     1
290
     0
176
     1
290
     0
176
     1
 90
       50
176
     1
 40
0.0
176
     1
 40
1.0
176
     1
 90
        0
176
     1
 62
    18
420
        0
176
     1
 90
       50
176
     1
 90
        3
176
     1
 62
     5
420
      255
176
     1
290
     0
176
     1
 90
       50
176
     1
 90
       50
176
     1
 90
       50
176
     1
290
     0
176
     1
 90
       50
176
     1
 62
   256
176
     0
 40
1.0
176
     0
 90
        2
176
     1
  1
strokes_ogs.tif
176
     1
290
     0
176
     1
 40
1.0
176
     1
 40
1.0
176
     1
  0
VISUALSTYLE
  5
30
102
{ACAD_REACTORS
330
29
102
}
330
29
100
AcDbVisualStyle
  2
Wireframe
 70
     5
177
     3
291
     0
 70
    58
 90
        0
176
     1
 90
        2
176
     1
 90
        0
176
     1
 90
        0
176
     1
 40
0.6
176
     1
 40
30.0
176
     1
 62
     7
420
 16777215
176
     1
 90
        1
176
     1
 90
        4
176
     1
 62
     7
176
     1
 62
   257
176
     1
 90
        1
176
     1
 90
        1
176
     1
 40
1.0
176
     1
 90
        0
176
     1
 62
   257
176
     1
 40
1.0
176
     1
 90
        1
176
     1
 90
        6
176
     1
 90
        2
176
     1
 62
     7
176
     1
 90
        3
176
     1
 90
        0
176
     1
 90
        0
176
     1
290
     0
176
     1
 90
        1
176
     1
 40
0.0
176
     1
 90
        0
176
     1
290
     0
176
     1
290
     1
176
     1
290
     1
176
     1
290
     0
176
     1
290
     0
176
     1
290
     0
176
     1
290
     0
176
     1
290
     0
176
     1
290
     0
176
     1
 90
       50
176
     1
 40
0.0
176
     1
 40
1.0
176
     1
 90
        0
176
     1
 62
    18
420
        0
176
     1
 90
       50
176
     1
 90
        3
176
     1
 62
     5
420
      255
176
     1
290
     0
176
     1
 90
       50
176
     1
 90
       50
176
     1
 90
       50
176
     1
290
     0
176
     1
 90
       50
176
     1
 62
   256
176
     0
 40
1.0
176
     0
 90
        2
176
     1
  1
strokes_ogs.tif
176
     1
290
     0
176
     1
 40
1.0
176
     1
 40
1.0
176
     1
  0
VISUALSTYLE
  5
3C
102
{ACAD_REACTORS
330
29
102
}
330
29
100
AcDbVisualStyle
  2
X-Ray
 70
    25
177
     3
291
     0
 70
    58
 90
        2
176
     1
 90
        2
176
     1
 90
        1
176
     1
 90
        1
176
     1
 40
0.5
176
     1
 40
30.0
176
     1
 62
     7
420
 16777215
176
     1
 90
        1
176
     1
 90
        0
176
     1
 62
     7
176
     1
 62
   257
176
     1
 90
        1
176
     1
 90
        1
176
     1
 40
1.0
176
     1
 90
        8
176
     1
 62
     7
176
     1
 40
1.0
176
     1
 90
        1
176
     1
 90
        6
176
     1
 90
        2
176
     1
 62
     7
176
     1
 90
        3
176
     1
 90
        0
176
     1
 90
        0
176
     1
290
     0
176
     1
 90
       13
176
     1
 40
0.0
176
     1
 90
        0
176
     1
290
     0
176
     1
290
     1
176
     1
290
     1
176
     1
290
     0
176
     1
290
     0
176
     1
290
     0
176
     1
290
     0
176
     1
290
     0
176
     1
290
     0
176
     1
 90
       50
176
     1
 40
0.0
176
     1
 40
1.0
176
     1
 90
        0
176
     1
 62
    18
420
        0
176
     1
 90
       50
176
     1
 90
        3
176
     1
 62
     5
420
      255
176
     1
290
     0
176
     1
 90
       50
176
     1
 90
       50
176
     1
 90
       50
176
     1
290
     0
176
     1
 90
       50
176
     1
 62
   256
176
     0
 40
1.0
176
     0
 90
        2
176
     1
  1
strokes_ogs.tif
176
     1
290
     0
176
     1
 40
1.0
176
     1
 40
1.0
176
     1
  0
DICTIONARYVAR
  5
81
102
{ACAD_REACTORS
330
7C
102
}
330
7C
100
DictionaryVariables
280
     0
  1
1:1
  0
DICTIONARYVAR
  5
7E
102
{ACAD_REACTORS
330
7C
102
}
330
7C
100
DictionaryVariables
280
     0
  1
STANDARD
  0
DICTIONARYVAR
  5
7D
102
{ACAD_REACTORS
330
7C
102
}
330
7C
100
DictionaryVariables
280
     0
  1
STANDARD
  0
DICTIONARYVAR
  5
7F
102
{ACAD_REACTORS
330
7C
102
}
330
7C
100
DictionaryVariables
280
     0
  1
Imperial24
  0
DICTIONARYVAR
  5
80
102
{ACAD_REACTORS
330
7C
102
}
330
7C
100
DictionaryVariables
280
     0
  1
Imperial24
  0
XRECORD
  5
3B0
102
{ACAD_REACTORS
330
3AD
102
}
330
3AD
100
AcDbXrecord
280
     1
  1
BUILDING_ID
  1
Progetto per messa in tavola DXF, DWG
  1
FLOOR_ID
  1
694395
  0
XRECORD
  5
3AF
102
{ACAD_REACTORS
330
3AD
102
}
330
3AD
100
AcDbXrecord
280
     1
  1
-2001160
  1
Apparecchi idraulici
  0
XRECORD
  5
3AE
102
{ACAD_REACTORS
330
3AD
102
}
330
3AD
100
AcDbXrecord
280
     1
  1
859151
  1
Automatic flow rate regulator valve_Caleffi_121 DN15 : 1/2''
  0
DICTIONARY
  5
1A
330
19
100
AcDbDictionary
280
     1
281
     1
  3
BUMPTILE
360
1C
  3
DIFFUSETILE
360
1B
  3
OPACITYTILE
360
1F
  3
REFLECTIONTILE
360
1E
  3
REFRACTIONTILE
360
20
  3
SPECULARTILE
360
1D
  0
DICTIONARY
  5
12
330
11
100
AcDbDictionary
280
     1
281
     1
  3
BUMPTILE
360
14
  3
DIFFUSETILE
360
13
  3
OPACITYTILE
360
17
  3
REFLECTIONTILE
360
16
  3
REFRACTIONTILE
360
18
  3
SPECULARTILE
360
15
  0
DICTIONARY
  5
22
330
21
100
AcDbDictionary
280
     1
281
     1
  3
BUMPTILE
360
24
  3
DIFFUSETILE
360
23
  3
OPACITYTILE
360
27
  3
REFLECTIONTILE
360
26
  3
REFRACTIONTILE
360
28
  3
SPECULARTILE
360
25
  0
DICTIONARY
  5
3B3
330
65
100
AcDbDictionary
280
     1
281
     1
  3
ACAD_ROUNDTRIP_2008_TABLESTYLE_CELLSTYLEMAP
360
3B4
  0
XRECORD
  5
1C
102
{ACAD_REACTORS
330
1A
102
}
330
1A
100
AcDbXrecord
280
     1
270
     1
271
     1
  0
XRECORD
  5
1B
102
{ACAD_REACTORS
330
1A
102
}
330
1A
100
AcDbXrecord
280
     1
270
     1
271
     1
  0
XRECORD
  5
1F
102
{ACAD_REACTORS
330
1A
102
}
330
1A
100
AcDbXrecord
280
     1
270
     1
271
     1
  0
XRECORD
  5
1E
102
{ACAD_REACTORS
330
1A
102
}
330
1A
100
AcDbXrecord
280
     1
270
     1
271
     1
  0
XRECORD
  5
20
102
{ACAD_REACTORS
330
1A
102
}
330
1A
100
AcDbXrecord
280
     1
270
     1
271
     1
  0
XRECORD
  5
1D
102
{ACAD_REACTORS
330
1A
102
}
330
1A
100
AcDbXrecord
280
     1
270
     1
271
     1
  0
XRECORD
  5
14
102
{ACAD_REACTORS
330
12
102
}
330
12
100
AcDbXrecord
280
     1
270
     1
271
     1
  0
XRECORD
  5
13
102
{ACAD_REACTORS
330
12
102
}
330
12
100
AcDbXrecord
280
     1
270
     1
271
     1
  0
XRECORD
  5
17
102
{ACAD_REACTORS
330
12
102
}
330
12
100
AcDbXrecord
280
     1
270
     1
271
     1
  0
XRECORD
  5
16
102
{ACAD_REACTORS
330
12
102
}
330
12
100
AcDbXrecord
280
     1
270
     1
271
     1
  0
XRECORD
  5
18
102
{ACAD_REACTORS
330
12
102
}
330
12
100
AcDbXrecord
280
     1
270
     1
271
     1
  0
XRECORD
  5
15
102
{ACAD_REACTORS
330
12
102
}
330
12
100
AcDbXrecord
280
     1
270
     1
271
     1
  0
XRECORD
  5
24
102
{ACAD_REACTORS
330
22
102
}
330
22
100
AcDbXrecord
280
     1
270
     1
271
     1
  0
XRECORD
  5
23
102
{ACAD_REACTORS
330
22
102
}
330
22
100
AcDbXrecord
280
     1
270
     1
271
     1
  0
XRECORD
  5
27
102
{ACAD_REACTORS
330
22
102
}
330
22
100
AcDbXrecord
280
     1
270
     1
271
     1
  0
XRECORD
  5
26
102
{ACAD_REACTORS
330
22
102
}
330
22
100
AcDbXrecord
280
     1
270
     1
271
     1
  0
XRECORD
  5
28
102
{ACAD_REACTORS
330
22
102
}
330
22
100
AcDbXrecord
280
     1
270
     1
271
     1
  0
XRECORD
  5
25
102
{ACAD_REACTORS
330
22
102
}
330
22
100
AcDbXrecord
280
     1
270
     1
271
     1
  0
CELLSTYLEMAP
  5
3B4
102
{ACAD_REACTORS
330
3B3
102
}
330
3B3
100
AcDbCellStyleMap
 90
        3
300
CELLSTYLE
  1
TABLEFORMAT_BEGIN
 90
        5
170
     1
 91
        0
 92
    32768
 62
   257
 93
        1
300
CONTENTFORMAT
  1
CONTENTFORMAT_BEGIN
 90
        0
 91
        0
 92
      512
 93
        0
300

 40
0.0
140
1.0
 94
        5
 62
     0
340
55
144
0.25
309
CONTENTFORMAT_END
171
     0
 94
        0
309
TABLEFORMAT_END
  1
CELLSTYLE_BEGIN
 90
        1
 91
        1
300
_TITLE
309
CELLSTYLE_END
300
CELLSTYLE
  1
TABLEFORMAT_BEGIN
 90
        5
170
     1
 91
        0
 92
        0
 62
   257
 93
        1
300
CONTENTFORMAT
  1
CONTENTFORMAT_BEGIN
 90
        0
 91
        0
 92
      512
 93
        0
300

 40
0.0
140
1.0
 94
        5
 62
     0
340
55
144
0.18
309
CONTENTFORMAT_END
171
     0
 94
        0
309
TABLEFORMAT_END
  1
CELLSTYLE_BEGIN
 90
        2
 91
        1
300
_HEADER
309
CELLSTYLE_END
300
CELLSTYLE
  1
TABLEFORMAT_BEGIN
 90
        5
170
     1
 91
        0
 92
        0
 62
   257
 93
        1
300
CONTENTFORMAT
  1
CONTENTFORMAT_BEGIN
 90
        0
 91
        0
 92
      512
 93
        0
300

 40
0.0
140
1.0
 94
        2
 62
     0
340
55
144
0.18
309
CONTENTFORMAT_END
171
     0
 94
        0
309
TABLEFORMAT_END
  1
CELLSTYLE_BEGIN
 90
        3
 91
        2
300
_DATA
309
CELLSTYLE_END
  0
ENDSEC
  0
EOF
