  0
SECTION
  2
HEADER
  9
$ACADVER
  1
AC1027
  9
$ACADMAINTVER
 70
    20
  9
$DWGCODEPAGE
  3
ANSI_1252
  9
$REQUIREDVERSIONS
160
                 0
  9
$INSBASE
 10
0.0
 20
0.0
 30
0.0
  9
$EXTMIN
 10
705.6664074431965
 20
1174.795115150993
 30
-0.00000001
  9
$EXTMAX
 10
1602.315117522155
 20
2150.806381943192
 30
0.00000001
  9
$LIMMIN
 10
0.0
 20
0.0
  9
$LIMMAX
 10
12.0
 20
9.0
  9
$ORTHOMODE
 70
     0
  9
$REGENMODE
 70
     1
  9
$FILLMODE
 70
     1
  9
$QTEXTMODE
 70
     0
  9
$MIRRTEXT
 70
     0
  9
$LTSCALE
 40
1.0
  9
$ATTMODE
 70
     1
  9
$TEXTSIZE
 40
0.2
  9
$TRACEWID
 40
0.05
  9
$TEXTSTYLE
  7
Standard
  9
$CLAYER
  8
0
  9
$CELTYPE
  6
ByLayer
  9
$CECOLOR
 62
   256
  9
$CELTSCALE
 40
1.0
  9
$DISPSILH
 70
     0
  9
$DIMSCALE
 40
1.0
  9
$DIMASZ
 40
0.18
  9
$DIMEXO
 40
0.0625
  9
$DIMDLI
 40
0.38
  9
$DIMRND
 40
0.0
  9
$DIMDLE
 40
0.0
  9
$DIMEXE
 40
0.18
  9
$DIMTP
 40
0.0
  9
$DIMTM
 40
0.0
  9
$DIMTXT
 40
0.18
  9
$DIMCEN
 40
0.09
  9
$DIMTSZ
 40
0.0
  9
$DIMTOL
 70
     0
  9
$DIMLIM
 70
     0
  9
$DIMTIH
 70
     1
  9
$DIMTOH
 70
     1
  9
$DIMSE1
 70
     0
  9
$DIMSE2
 70
     0
  9
$DIMTAD
 70
     0
  9
$DIMZIN
 70
     0
  9
$DIMBLK
  1

  9
$DIMASO
 70
     1
  9
$DIMSHO
 70
     1
  9
$DIMPOST
  1

  9
$DIMAPOST
  1

  9
$DIMALT
 70
     0
  9
$DIMALTD
 70
     2
  9
$DIMALTF
 40
25.4
  9
$DIMLFAC
 40
1.0
  9
$DIMTOFL
 70
     0
  9
$DIMTVP
 40
0.0
  9
$DIMTIX
 70
     0
  9
$DIMSOXD
 70
     0
  9
$DIMSAH
 70
     0
  9
$DIMBLK1
  1

  9
$DIMBLK2
  1

  9
$DIMSTYLE
  2
Standard
  9
$DIMCLRD
 70
     0
  9
$DIMCLRE
 70
     0
  9
$DIMCLRT
 70
     0
  9
$DIMTFAC
 40
1.0
  9
$DIMGAP
 40
0.09
  9
$DIMJUST
 70
     0
  9
$DIMSD1
 70
     0
  9
$DIMSD2
 70
     0
  9
$DIMTOLJ
 70
     1
  9
$DIMTZIN
 70
     0
  9
$DIMALTZ
 70
     0
  9
$DIMALTTZ
 70
     0
  9
$DIMUPT
 70
     0
  9
$DIMDEC
 70
     4
  9
$DIMTDEC
 70
     4
  9
$DIMALTU
 70
     2
  9
$DIMALTTD
 70
     2
  9
$DIMTXSTY
  7
Standard
  9
$DIMAUNIT
 70
     0
  9
$DIMADEC
 70
     0
  9
$DIMALTRND
 40
0.0
  9
$DIMAZIN
 70
     0
  9
$DIMDSEP
 70
    46
  9
$DIMATFIT
 70
     3
  9
$DIMFRAC
 70
     0
  9
$DIMLDRBLK
  1

  9
$DIMLUNIT
 70
     2
  9
$DIMLWD
 70
    -2
  9
$DIMLWE
 70
    -2
  9
$DIMTMOVE
 70
     0
  9
$DIMFXL
 40
1.0
  9
$DIMFXLON
 70
     0
  9
$DIMJOGANG
 40
0.7853981633974483
  9
$DIMTFILL
 70
     0
  9
$DIMTFILLCLR
 70
     0
  9
$DIMARCSYM
 70
     0
  9
$DIMLTYPE
  6

  9
$DIMLTEX1
  6

  9
$DIMLTEX2
  6

  9
$DIMTXTDIRECTION
 70
     0
  9
$LUNITS
 70
     2
  9
$LUPREC
 70
     4
  9
$SKETCHINC
 40
0.1
  9
$FILLETRAD
 40
0.0
  9
$AUNITS
 70
     0
  9
$AUPREC
 70
     0
  9
$MENU
  1
.
  9
$ELEVATION
 40
0.0
  9
$PELEVATION
 40
0.0
  9
$THICKNESS
 40
0.0
  9
$LIMCHECK
 70
     0
  9
$CHAMFERA
 40
0.0
  9
$CHAMFERB
 40
0.0
  9
$CHAMFERC
 40
0.0
  9
$CHAMFERD
 40
0.0
  9
$SKPOLY
 70
     0
  9
$TDCREATE
 40
2457569.610375509
  9
$TDUCREATE
 40
2457569.527042176
  9
$TDUPDATE
 40
2457569.610375509
  9
$TDUUPDATE
 40
2457569.527042176
  9
$TDINDWG
 40
0.0000599074
  9
$TDUSRTIMER
 40
0.0000599074
  9
$USRTIMER
 70
     1
  9
$ANGBASE
 50
0.0
  9
$ANGDIR
 70
     0
  9
$PDMODE
 70
     0
  9
$PDSIZE
 40
0.0
  9
$PLINEWID
 40
0.0
  9
$SPLFRAME
 70
     0
  9
$SPLINETYPE
 70
     6
  9
$SPLINESEGS
 70
     8
  9
$HANDSEED
  5
41B
  9
$SURFTAB1
 70
     6
  9
$SURFTAB2
 70
     6
  9
$SURFTYPE
 70
     6
  9
$SURFU
 70
     6
  9
$SURFV
 70
     6
  9
$UCSBASE
  2

  9
$UCSNAME
  2

  9
$UCSORG
 10
0.0
 20
0.0
 30
0.0
  9
$UCSXDIR
 10
1.0
 20
0.0
 30
0.0
  9
$UCSYDIR
 10
0.0
 20
1.0
 30
0.0
  9
$UCSORTHOREF
  2

  9
$UCSORTHOVIEW
 70
     0
  9
$UCSORGTOP
 10
0.0
 20
0.0
 30
0.0
  9
$UCSORGBOTTOM
 10
0.0
 20
0.0
 30
0.0
  9
$UCSORGLEFT
 10
0.0
 20
0.0
 30
0.0
  9
$UCSORGRIGHT
 10
0.0
 20
0.0
 30
0.0
  9
$UCSORGFRONT
 10
0.0
 20
0.0
 30
0.0
  9
$UCSORGBACK
 10
0.0
 20
0.0
 30
0.0
  9
$PUCSBASE
  2

  9
$PUCSNAME
  2

  9
$PUCSORG
 10
0.0
 20
0.0
 30
0.0
  9
$PUCSXDIR
 10
1.0
 20
0.0
 30
0.0
  9
$PUCSYDIR
 10
0.0
 20
1.0
 30
0.0
  9
$PUCSORTHOREF
  2

  9
$PUCSORTHOVIEW
 70
     0
  9
$PUCSORGTOP
 10
0.0
 20
0.0
 30
0.0
  9
$PUCSORGBOTTOM
 10
0.0
 20
0.0
 30
0.0
  9
$PUCSORGLEFT
 10
0.0
 20
0.0
 30
0.0
  9
$PUCSORGRIGHT
 10
0.0
 20
0.0
 30
0.0
  9
$PUCSORGFRONT
 10
0.0
 20
0.0
 30
0.0
  9
$PUCSORGBACK
 10
0.0
 20
0.0
 30
0.0
  9
$USERI1
 70
     0
  9
$USERI2
 70
     0
  9
$USERI3
 70
     0
  9
$USERI4
 70
     0
  9
$USERI5
 70
     0
  9
$USERR1
 40
0.0
  9
$USERR2
 40
0.0
  9
$USERR3
 40
0.0
  9
$USERR4
 40
0.0
  9
$USERR5
 40
0.0
  9
$WORLDVIEW
 70
     1
  9
$SHADEDGE
 70
     3
  9
$SHADEDIF
 70
    70
  9
$TILEMODE
 70
     1
  9
$MAXACTVP
 70
    64
  9
$PINSBASE
 10
0.0
 20
0.0
 30
0.0
  9
$PLIMCHECK
 70
     0
  9
$PEXTMIN
 10
1.000000000000000E+20
 20
1.000000000000000E+20
 30
1.000000000000000E+20
  9
$PEXTMAX
 10
-1.000000000000000E+20
 20
-1.000000000000000E+20
 30
-1.000000000000000E+20
  9
$PLIMMIN
 10
0.0
 20
0.0
  9
$PLIMMAX
 10
12.0
 20
9.0
  9
$UNITMODE
 70
     0
  9
$VISRETAIN
 70
     1
  9
$PLINEGEN
 70
     0
  9
$PSLTSCALE
 70
     1
  9
$TREEDEPTH
 70
  3020
  9
$CMLSTYLE
  2
Standard
  9
$CMLJUST
 70
     0
  9
$CMLSCALE
 40
1.0
  9
$PROXYGRAPHICS
 70
     1
  9
$MEASUREMENT
 70
     1
  9
$CELWEIGHT
370
    -1
  9
$ENDCAPS
280
     0
  9
$JOINSTYLE
280
     0
  9
$LWDISPLAY
290
     0
  9
$INSUNITS
 70
     4
  9
$HYPERLINKBASE
  1

  9
$STYLESHEET
  1

  9
$XEDIT
290
     1
  9
$CEPSNTYPE
380
     0
  9
$PSTYLEMODE
290
     1
  9
$FINGERPRINTGUID
  2
{ABAD2D51-FD89-41A2-95DC-E72ABEAB0065}
  9
$VERSIONGUID
  2
{503F7FF6-993C-4947-8F8C-DA0915CBDEC3}
  9
$EXTNAMES
290
     1
  9
$PSVPSCALE
 40
0.0
  9
$OLESTARTUP
290
     0
  9
$SORTENTS
280
   127
  9
$INDEXCTL
280
     0
  9
$HIDETEXT
280
     1
  9
$XCLIPFRAME
280
     2
  9
$HALOGAP
280
     0
  9
$OBSCOLOR
 70
   257
  9
$OBSLTYPE
280
     0
  9
$INTERSECTIONDISPLAY
280
     0
  9
$INTERSECTIONCOLOR
 70
   257
  9
$DIMASSOC
280
     2
  9
$PROJECTNAME
  1

  9
$CAMERADISPLAY
290
     0
  9
$LENSLENGTH
 40
50.0
  9
$CAMERAHEIGHT
 40
0.0
  9
$STEPSPERSEC
 40
2.0
  9
$STEPSIZE
 40
6.0
  9
$3DDWFPREC
 40
2.0
  9
$PSOLWIDTH
 40
0.25
  9
$PSOLHEIGHT
 40
4.0
  9
$LOFTANG1
 40
1.570796326794896
  9
$LOFTANG2
 40
1.570796326794896
  9
$LOFTMAG1
 40
0.0
  9
$LOFTMAG2
 40
0.0
  9
$LOFTPARAM
 70
     7
  9
$LOFTNORMALS
280
     1
  9
$LATITUDE
 40
37.795
  9
$LONGITUDE
 40
-122.394
  9
$NORTHDIRECTION
 40
0.0
  9
$TIMEZONE
 70
 -8000
  9
$LIGHTGLYPHDISPLAY
280
     1
  9
$TILEMODELIGHTSYNCH
280
     1
  9
$CMATERIAL
347
11
  9
$SOLIDHIST
280
     0
  9
$SHOWHIST
280
     1
  9
$DWFFRAME
280
     2
  9
$DGNFRAME
280
     0
  9
$REALWORLDSCALE
290
     1
  9
$INTERFERECOLOR
 62
     1
  9
$INTERFEREOBJVS
345
33
  9
$INTERFEREVPVS
346
30
  9
$CSHADOW
280
     0
  9
$SHADOWPLANELOCATION
 40
0.0
  0
ENDSEC
  0
SECTION
  2
CLASSES
  0
CLASS
  1
ACDBDICTIONARYWDFLT
  2
AcDbDictionaryWithDefault
  3
ObjectDBX Classes
 90
        0
 91
        1
280
     0
281
     0
  0
CLASS
  1
MATERIAL
  2
AcDbMaterial
  3
ObjectDBX Classes
 90
     1153
 91
        3
280
     0
281
     0
  0
CLASS
  1
VISUALSTYLE
  2
AcDbVisualStyle
  3
ObjectDBX Classes
 90
     4095
 91
       24
280
     0
281
     0
  0
CLASS
  1
SCALE
  2
AcDbScale
  3
ObjectDBX Classes
 90
     1153
 91
       17
280
     0
281
     0
  0
CLASS
  1
TABLESTYLE
  2
AcDbTableStyle
  3
ObjectDBX Classes
 90
     4095
 91
        1
280
     0
281
     0
  0
CLASS
  1
MLEADERSTYLE
  2
AcDbMLeaderStyle
  3
ACDB_MLEADERSTYLE_CLASS
 90
     4095
 91
        1
280
     0
281
     0
  0
CLASS
  1
ACDBSECTIONVIEWSTYLE
  2
AcDbSectionViewStyle
  3
ObjectDBX Classes
 90
     1025
 91
        1
280
     0
281
     0
  0
CLASS
  1
ACDBDETAILVIEWSTYLE
  2
AcDbDetailViewStyle
  3
ObjectDBX Classes
 90
     1025
 91
        1
280
     0
281
     0
  0
CLASS
  1
RASTERVARIABLES
  2
AcDbRasterVariables
  3
ISM
 90
        0
 91
        1
280
     0
281
     0
  0
CLASS
  1
DICTIONARYVAR
  2
AcDbDictionaryVar
  3
ObjectDBX Classes
 90
        0
 91
        5
280
     0
281
     0
  0
CLASS
  1
CELLSTYLEMAP
  2
AcDbCellStyleMap
  3
ObjectDBX Classes
 90
     1152
 91
        2
280
     0
281
     0
  0
CLASS
  1
SORTENTSTABLE
  2
AcDbSortentsTable
  3
ObjectDBX Classes
 90
        0
 91
        1
280
     0
281
     0
  0
ENDSEC
  0
SECTION
  2
TABLES
  0
TABLE
  2
VPORT
  5
8
330
0
100
AcDbSymbolTable
 70
     1
  0
VPORT
  5
57
330
8
100
AcDbSymbolTableRecord
100
AcDbViewportTableRecord
  2
*Active
 70
     0
 10
0.0
 20
0.0
 11
1.0
 21
1.0
 12
1153.990762482675
 22
1662.800748547092
 13
0.0
 23
0.0
 14
1.0
 24
1.0
 15
0.0
 25
0.0
 16
0.0
 26
0.0
 36
1.0
 17
0.0
 27
0.0
 37
0.0
 40
976.0112667921985
 41
0.9186868436733558
 42
50.0
 43
0.0
 44
0.0
 50
0.0
 51
0.0
 71
     0
 72
  1000
 73
     1
 74
     1
 75
     0
 76
     0
 77
     0
 78
     0
281
     0
 65
     1
110
0.0
120
0.0
130
0.0
111
1.0
121
0.0
131
0.0
112
0.0
122
1.0
132
0.0
 79
     0
146
0.0
 60
     3
 61
     5
292
     1
282
     1
141
0.0
142
0.0
 63
   250
421
  3355443
  0
ENDTAB
  0
TABLE
  2
LTYPE
  5
5
330
0
100
AcDbSymbolTable
 70
     3
  0
LTYPE
  5
5B
330
5
100
AcDbSymbolTableRecord
100
AcDbLinetypeTableRecord
  2
ByBlock
 70
     0
  3

 72
    65
 73
     0
 40
0.0
  0
LTYPE
  5
5C
330
5
100
AcDbSymbolTableRecord
100
AcDbLinetypeTableRecord
  2
ByLayer
 70
     0
  3

 72
    65
 73
     0
 40
0.0
  0
LTYPE
  5
5D
330
5
100
AcDbSymbolTableRecord
100
AcDbLinetypeTableRecord
  2
Continuous
 70
     0
  3
Solid line
 72
    65
 73
     0
 40
0.0
  0
LTYPE
  5
69
330
5
100
AcDbSymbolTableRecord
100
AcDbLinetypeTableRecord
  2
PHANTOM2
 70
     0
  3
___ _ _ ___ _ _ ___ _ _ ___ _ _
 72
    65
 73
     6
 40
1.25
 49
0.625
 74
     0
 49
-0.125
 74
     0
 49
0.125
 74
     0
 49
-0.125
 74
     0
 49
0.125
 74
     0
 49
-0.125
 74
     0
  0
LTYPE
  5
86
330
5
100
AcDbSymbolTableRecord
100
AcDbLinetypeTableRecord
  2
Nascosto 1_5 mm
 70
     0
  3

 72
    65
 73
     2
 40
2.2
 49
1.5
 74
     0
 49
-0.7000000000000001
 74
     0
  0
ENDTAB
  0
TABLE
  2
LAYER
  5
2
330
0
100
AcDbSymbolTable
 70
     3
  0
LAYER
  5
54
330
2
100
AcDbSymbolTableRecord
100
AcDbLayerTableRecord
  2
0
 70
     0
 62
     7
  6
Continuous
370
    -3
390
F
347
21
348
0
  0
LAYER
  5
85
330
2
100
AcDbSymbolTableRecord
100
AcDbLayerTableRecord
  2
P-SANR-FIXT
 70
     0
 62
     6
  6
Continuous
370
    18
390
F
347
21
348
0
  0
ENDTAB
  0
TABLE
  2
STYLE
  5
3
330
0
100
AcDbSymbolTable
 70
     2
  0
STYLE
  5
55
330
3
100
AcDbSymbolTableRecord
100
AcDbTextStyleTableRecord
  2
Standard
 70
     0
 40
0.0
 41
1.0
 50
0.0
 71
     0
 42
0.2
  3
txt
  4

  0
STYLE
  5
5A
330
3
100
AcDbSymbolTableRecord
100
AcDbTextStyleTableRecord
  2
Annotative
 70
     0
 40
0.0
 41
1.0
 50
0.0
 71
     0
 42
0.2
  3
txt
  4

1001
AcadAnnotative
1000
AnnotativeData
1002
{
1070
     1
1070
     1
1002
}
  0
ENDTAB
  0
TABLE
  2
VIEW
  5
6
330
0
100
AcDbSymbolTable
 70
     0
  0
ENDTAB
  0
TABLE
  2
UCS
  5
7
330
0
100
AcDbSymbolTable
 70
     0
  0
ENDTAB
  0
TABLE
  2
APPID
  5
9
330
0
100
AcDbSymbolTable
 70
     3
  0
APPID
  5
56
330
9
100
AcDbSymbolTableRecord
100
AcDbRegAppTableRecord
  2
ACAD
 70
     0
  0
APPID
  5
5E
330
9
100
AcDbSymbolTableRecord
100
AcDbRegAppTableRecord
  2
AcadAnnotative
 70
     0
  0
APPID
  5
79
330
9
100
AcDbSymbolTableRecord
100
AcDbRegAppTableRecord
  2
REVIT
 70
     0
  0
ENDTAB
  0
TABLE
  2
DIMSTYLE
  5
A
330
0
100
AcDbSymbolTable
 70
     2
100
AcDbDimStyleTable
 71
     0
  0
DIMSTYLE
105
58
330
A
100
AcDbSymbolTableRecord
100
AcDbDimStyleTableRecord
  2
Standard
 70
     0
340
55
  0
DIMSTYLE
105
59
330
A
100
AcDbSymbolTableRecord
100
AcDbDimStyleTableRecord
  2
Annotative
 70
     0
340
55
1001
AcadAnnotative
1000
AnnotativeData
1002
{
1070
     1
1070
     1
1002
}
  0
ENDTAB
  0
TABLE
  2
BLOCK_RECORD
  5
1
330
0
100
AcDbSymbolTable
 70
     4
  0
BLOCK_RECORD
  5
71
102
{ACAD_XDICTIONARY
360
416
102
}
330
1
100
AcDbSymbolTableRecord
100
AcDbBlockTableRecord
  2
*Model_Space
340
74
 70
     0
280
     1
281
     0
  0
BLOCK_RECORD
  5
6D
330
1
100
AcDbSymbolTableRecord
100
AcDbBlockTableRecord
  2
*Paper_Space
340
70
 70
     0
280
     1
281
     0
  0
BLOCK_RECORD
  5
75
330
1
100
AcDbSymbolTableRecord
100
AcDbBlockTableRecord
  2
*Paper_Space0
340
78
 70
     0
280
     1
281
     0
  0
BLOCK_RECORD
  5
87
330
1
100
AcDbSymbolTableRecord
100
AcDbBlockTableRecord
  2
Automatic flow rate regulator valve_Caleffi_121 DN15 - 1_2__-859151-Est - Idraulica
340
0
102
{BLKREFS
331
1F7
102
}
 70
     0
280
     1
281
     0
  0
BLOCK_RECORD
  5
1F8
330
1
100
AcDbSymbolTableRecord
100
AcDbBlockTableRecord
  2
Automatic flow rate regulator valve_Caleffi_121 DN15 - 1_2__-V1-Est - Idraulica
340
0
102
{BLKREFS
331
2EE
102
}
 70
     0
280
     1
281
     0
  0
BLOCK_RECORD
  5
2EF
330
1
100
AcDbSymbolTableRecord
100
AcDbBlockTableRecord
  2
Automatic flow rate regulator valve_Caleffi_121 DN15 - 1_2__-V2-Est - Idraulica
340
0
102
{BLKREFS
331
410
102
}
 70
     0
280
     1
281
     0
  0
ENDTAB
  0
ENDSEC
  0
SECTION
  2
BLOCKS
  0
BLOCK
  5
72
330
71
100
AcDbEntity
  8
0
100
AcDbBlockBegin
  2
*Model_Space
 70
     0
 10
0.0
 20
0.0
 30
0.0
  3
*Model_Space
  1

  0
ENDBLK
  5
73
330
71
100
AcDbEntity
  8
0
100
AcDbBlockEnd
  0
BLOCK
  5
6E
330
6D
100
AcDbEntity
 67
     1
  8
0
100
AcDbBlockBegin
  2
*Paper_Space
 70
     0
 10
0.0
 20
0.0
 30
0.0
  3
*Paper_Space
  1

  0
ENDBLK
  5
6F
330
6D
100
AcDbEntity
 67
     1
  8
0
100
AcDbBlockEnd
  0
BLOCK
  5
76
330
75
100
AcDbEntity
 67
     1
  8
0
100
AcDbBlockBegin
  2
*Paper_Space0
 70
     0
 10
0.0
 20
0.0
 30
0.0
  3
*Paper_Space0
  1

  0
ENDBLK
  5
77
330
75
100
AcDbEntity
 67
     1
  8
0
100
AcDbBlockEnd
  0
BLOCK
  5
1F5
330
87
100
AcDbEntity
  8
0
100
AcDbBlockBegin
  2
Automatic flow rate regulator valve_Caleffi_121 DN15 - 1_2__-859151-Est - Idraulica
 70
     0
 10
0.0
 20
0.0
 30
0.0
  3
Automatic flow rate regulator valve_Caleffi_121 DN15 - 1_2__-859151-Est - Idraulica
  1

  0
LINE
  5
88
330
87
100
AcDbEntity
  8
P-SANR-FIXT
100
AcDbLine
 10
778.4109973543158
 20
2116.497777620474
 30
0.0
 11
785.8707907035095
 21
2118.496623224094
 31
0.0
  0
LINE
  5
89
330
87
100
AcDbEntity
  8
P-SANR-FIXT
100
AcDbLine
 10
778.4082393107092
 20
2116.508070779337
 30
0.0
 11
778.3945680464951
 21
2116.559092631987
 31
0.0
  0
LINE
  5
8A
330
87
100
AcDbEntity
  8
P-SANR-FIXT
100
AcDbLine
 10
778.3732300736783
 20
2116.63872703067
 30
0.0
 11
778.3398089511502
 21
2116.763456357991
 31
0.0
  0
LINE
  5
8B
330
87
100
AcDbEntity
  8
P-SANR-FIXT
100
AcDbLine
 10
778.2921784110819
 20
2116.941215953518
 30
0.0
 11
778.2053710746309
 21
2117.265185343622
 31
0.0
  0
LINE
  5
8C
330
87
100
AcDbEntity
  8
P-SANR-FIXT
100
AcDbLine
 10
778.2018719972652
 20
2117.278244078131
 30
0.0
 11
778.0884357813349
 21
2117.701593799401
 31
0.0
  0
LINE
  5
8D
330
87
100
AcDbEntity
  8
P-SANR-FIXT
100
AcDbLine
 10
778.0517912018693
 20
2117.838353231789
 30
0.0
 11
777.8603674364638
 21
2118.552756450059
 31
0.0
  0
LINE
  5
8E
330
87
100
AcDbEntity
  8
P-SANR-FIXT
100
AcDbLine
 10
777.8003001911131
 20
2118.776930461578
 30
0.0
 11
777.6368180679545
 21
2119.387054051335
 31
0.0
  0
LINE
  5
8F
330
87
100
AcDbEntity
  8
P-SANR-FIXT
100
AcDbLine
 10
777.6305308966567
 20
2119.410518094054
 30
0.0
 11
776.8601425847259
 21
2122.285646415737
 31
0.0
  0
LINE
  5
90
330
87
100
AcDbEntity
  8
P-SANR-FIXT
100
AcDbLine
 10
776.8500644389993
 20
2122.323258567635
 30
0.0
 11
771.972496998521
 21
2140.526588072844
 31
0.0
  0
LINE
  5
91
330
87
100
AcDbEntity
  8
P-SANR-FIXT
100
AcDbLine
 10
779.4322903477145
 20
2142.525433676463
 30
0.0
 11
784.309857788193
 21
2124.322104171254
 31
0.0
  0
LINE
  5
92
330
87
100
AcDbEntity
  8
P-SANR-FIXT
100
AcDbLine
 10
784.3199359339195
 20
2124.284492019356
 30
0.0
 11
784.8519446745266
 21
2122.29900836934
 31
0.0
  0
LINE
  5
93
330
87
100
AcDbEntity
  8
P-SANR-FIXT
100
AcDbLine
 10
784.9072009539172
 20
2122.092789127217
 30
0.0
 11
785.0903242458504
 21
2121.409363697674
 31
0.0
  0
LINE
  5
94
330
87
100
AcDbEntity
  8
P-SANR-FIXT
100
AcDbLine
 10
785.096611417148
 20
2121.385899654955
 30
0.0
 11
785.5115845510628
 21
2119.837198835409
 31
0.0
  0
LINE
  5
95
330
87
100
AcDbEntity
  8
P-SANR-FIXT
100
AcDbLine
 10
785.5482291305285
 20
2119.700439403021
 30
0.0
 11
785.6616653464588
 21
2119.27708968175
 31
0.0
  0
LINE
  5
96
330
87
100
AcDbEntity
  8
P-SANR-FIXT
100
AcDbLine
 10
785.6651644238245
 20
2119.264030947242
 30
0.0
 11
785.7519717602754
 21
2118.940061557137
 31
0.0
  0
LINE
  5
97
330
87
100
AcDbEntity
  8
P-SANR-FIXT
100
AcDbLine
 10
785.7996023003438
 20
2118.762301961611
 30
0.0
 11
785.8330234228718
 21
2118.637572634289
 31
0.0
  0
LINE
  5
98
330
87
100
AcDbEntity
  8
P-SANR-FIXT
100
AcDbLine
 10
785.8543613956887
 20
2118.557938235607
 30
0.0
 11
785.8680326599027
 21
2118.506916382956
 31
0.0
  0
LINE
  5
99
330
87
100
AcDbEntity
  8
P-SANR-FIXT
100
AcDbLine
 10
771.972496998521
 20
2140.526588072844
 30
0.0
 11
779.4322903477145
 21
2142.525433676463
 31
0.0
  0
LINE
  5
9A
330
87
100
AcDbEntity
  8
P-SANR-FIXT
100
AcDbLine
 10
897.5140996914767
 20
1598.20221523062
 30
0.0
 11
900.8787472778093
 21
1585.645179488862
 31
0.0
  0
LINE
  5
9B
330
87
100
AcDbEntity
  8
P-SANR-FIXT
100
AcDbLine
 10
982.0165166860908
 20
1607.385979277474
 30
0.0
 11
978.651869099758
 21
1619.943015019232
 31
0.0
  0
LINE
  5
9C
330
87
100
AcDbEntity
  8
P-SANR-FIXT
100
AcDbLine
 10
902.5376217087691
 20
1586.089673552983
 30
0.0
 11
903.8317169342818
 21
1581.260044421537
 31
0.0
  0
LINE
  5
9D
330
87
100
AcDbEntity
  8
P-SANR-FIXT
100
AcDbLine
 10
981.6517374806435
 20
1602.111856081908
 30
0.0
 11
980.357642255131
 21
1606.941485213353
 31
0.0
  0
LWPOLYLINE
  5
9E
330
87
100
AcDbEntity
  8
P-SANR-FIXT
100
AcDbPolyline
 90
       41
 70
   128
 43
0.0
 10
981.6517374806435
 20
1602.111856081908
 10
981.6996242989137
 20
1601.917687290422
 10
981.7397081321455
 20
1601.72175885128
 10
981.7719248547568
 20
1601.524384208189
 10
981.7962229268635
 20
1601.325879118474
 10
981.8125634767339
 20
1601.126561147931
 10
981.8209203629738
 20
1600.926749162797
 10
981.8212802163483
 20
1600.726762819621
 10
981.813642461168
 20
1600.526922053893
 10
981.7980193162126
 20
1600.327546568206
 10
981.7744357751811
 20
1600.128955320807
 10
981.7429295667082
 20
1599.931466015328
 10
981.7035510940064
 20
1599.735394592528
 10
981.6563633542319
 20
1599.541054724858
 10
981.6014418377021
 20
1599.348757314648
 10
981.5388744071274
 20
1599.158809996735
 10
981.46876115705
 20
1598.971516646307
 10
981.3912142537127
 20
1598.787176892771
 10
981.3063577556189
 20
1598.606085640408
 10
981.214327415064
 20
1598.428532596591
 10
981.11527046096
 20
1598.254801808316
 10
981.0093453633033
 20
1598.085171207782
 10
980.8967215796535
 20
1597.919912167764
 10
980.7775792840393
 20
1597.759289067474
 10
980.6521090787184
 20
1597.603558869607
 10
980.5205116892533
 20
1597.452970709258
 10
980.3829976433947
 20
1597.307765495362
 10
980.2397869342815
 20
1597.168175525284
 10
980.0911086684978
 20
1597.034424113199
 10
979.9372006995531
 20
1596.906725232834
 10
979.7783092473652
 20
1596.785283175158
 10
979.6146885043629
 20
1596.670292221555
 10
979.4466002288306
 20
1596.561936333022
 10
979.2743133261529
 20
1596.460388855866
 10
979.0981034186213
 20
1596.365812244387
 10
978.9182524044985
 20
1596.278357800989
 10
978.7350480070404
 20
1596.198165434126
 10
978.548783314202
 20
1596.125363434476
 10
978.3597563097574
 20
1596.060068269711
 10
978.1682693965896
 20
1596.002384398164
 10
978.1162035747106
 20
1595.98813172495
  0
LWPOLYLINE
  5
9F
330
87
100
AcDbEntity
  8
P-SANR-FIXT
100
AcDbPolyline
 90
       41
 70
   128
 43
0.0
 10
909.9554412912397
 20
1577.724510515605
 10
909.7612724997539
 20
1577.676623697334
 10
909.565344060612
 20
1577.636539864102
 10
909.3679694175211
 20
1577.604323141492
 10
909.1694643278053
 20
1577.580025069385
 10
908.9701463572632
 20
1577.563684519514
 10
908.7703343721285
 20
1577.555327633274
 10
908.5703480289533
 20
1577.5549677799
 10
908.3705072632247
 20
1577.56260553508
 10
908.1711317775379
 20
1577.578228680035
 10
907.972540530139
 20
1577.601812221067
 10
907.7750512246595
 20
1577.63331842954
 10
907.5789798018597
 20
1577.672696902242
 10
907.3846399341894
 20
1577.719884642016
 10
907.1923425239802
 20
1577.774806158546
 10
907.0023952060672
 20
1577.837373589121
 10
906.8151018556386
 20
1577.907486839198
 10
906.6307621021023
 20
1577.985033742535
 10
906.4496708497394
 20
1578.069890240629
 10
906.2721178059231
 20
1578.161920581184
 10
906.0983870176476
 20
1578.260977535288
 10
905.9287564171139
 20
1578.366902632945
 10
905.7634973770962
 20
1578.479526416595
 10
905.6028742768059
 20
1578.598668712209
 10
905.4471440789386
 20
1578.72413891753
 10
905.2965559185903
 20
1578.855736306995
 10
905.1513507046937
 20
1578.993250352853
 10
905.0117607346157
 20
1579.136461061967
 10
904.8780093225309
 20
1579.28513932775
 10
904.7503104421664
 20
1579.439047296695
 10
904.6288683844897
 20
1579.597938748883
 10
904.513877430887
 20
1579.761559491886
 10
904.4055215423542
 20
1579.929647767418
 10
904.3039740651977
 20
1580.101934670095
 10
904.2093974537189
 20
1580.278144577627
 10
904.1219430103209
 20
1580.45799559175
 10
904.0417506434575
 20
1580.641199989208
 10
903.9689486438083
 20
1580.827464682046
 10
903.9036534790431
 20
1581.016491686491
 10
903.8459696074962
 20
1581.207978599659
 10
903.8317169342818
 20
1581.260044421537
  0
LWPOLYLINE
  5
A0
330
87
100
AcDbEntity
  8
P-SANR-FIXT
100
AcDbPolyline
 90
        4
 70
   128
 43
0.0
 10
978.1162035747106
 20
1595.98813172495
 10
978.0889429048441
 20
1595.980827250474
 10
978.0072045065008
 20
1595.958925512647
 10
977.9882185850444
 20
1595.953838250325
  0
LWPOLYLINE
  5
A1
330
87
100
AcDbEntity
  8
P-SANR-FIXT
100
AcDbPolyline
 90
        4
 70
   128
 43
0.0
 10
910.0883068928126
 20
1577.760111746248
 10
910.0200654609688
 20
1577.741826509695
 10
909.9633858468319
 20
1577.72663925286
 10
909.9554412912397
 20
1577.724510515605
  0
LWPOLYLINE
  5
A2
330
87
100
AcDbEntity
  8
P-SANR-FIXT
100
AcDbPolyline
 90
       80
 70
   128
 43
0.0
 10
909.9554412912397
 20
1577.724510515605
 10
909.9827019611062
 20
1577.73181499008
 10
910.0644403594495
 20
1577.753716727907
 10
910.2005257222691
 20
1577.790180690976
 10
910.3907403420137
 20
1577.841148544726
 10
910.6347799158694
 20
1577.906538751461
 10
910.9322540325765
 20
1577.986246700802
 10
911.2826867970065
 20
1578.080144877033
 10
911.685517591491
 20
1578.188083063101
 10
912.1401019726917
 20
1578.309888580936
 10
912.6457127025711
 20
1578.445366567691
 10
913.2015409118197
 20
1578.59430028749
 10
913.8066973938729
 20
1578.756451478151
 10
914.4602140274527
 20
1578.931560732359
 10
915.1610453253544
 20
1579.119347912662
 10
915.9080701070047
 20
1579.319512599631
 10
916.7000932921091
 20
1579.531734572466
 10
917.535847812528
 20
1579.755674321283
 10
918.413996639313
 20
1579.990973590255
 10
919.33313492167
 20
1580.237255950745
 10
920.2917922344195
 20
1580.494127403514
 10
921.2884349303635
 20
1580.761177009035
 10
922.3214685937946
 20
1581.037977544905
 10
923.38924059122
 20
1581.324086189316
 10
924.4900427152229
 20
1581.619045229469
 10
925.6221139172303
 20
1581.922382793822
 10
926.7836431248145
 20
1582.233613606979
 10
927.9727721390232
 20
1582.552239766032
 10
929.187598607101
 20
1582.877751537098
 10
930.4261790658483
 20
1583.20962817078
 10
931.6865320507467
 20
1583.547338735262
 10
932.9666412658822
 20
1583.890342965681
 10
934.2644588095856
 20
1584.238092128439
 10
935.57790845064
 20
1584.590029899059
 10
936.9048889498074
 20
1584.945593252182
 10
938.2432774213631
 20
1585.304213362295
 10
939.5909327292605
 20
1585.665316513721
 10
940.9456989124914
 20
1586.028325018451
 10
942.3054086341636
 20
1586.392658140314
 10
943.6678866487785
 20
1586.757733024035
 10
945.0309532821599
 20
1587.122965627679
 10
946.3924279184654
 20
1587.487771656993
 10
947.7501324887098
 20
1587.85156750015
 10
949.101894955209
 20
1588.213771161407
 10
950.4455527863774
 20
1588.573803192173
 10
951.7789564163162
 20
1588.931087617999
 10
953.0999726836624
 20
1589.285052860024
 10
954.4064882441896
 20
1589.635132649365
 10
955.6964129517096
 20
1589.980766933042
 10
956.9676832018595
 20
1590.321402769931
 10
958.2182652334292
 20
1590.656495215359
 10
959.4461583819446
 20
1590.985508192896
 10
960.6493982803048
 20
1591.307915351962
 10
961.8260600013494
 20
1591.623200909881
 10
962.9742611373332
 20
1591.930860477016
 10
964.0921648113746
 20
1592.230401863691
 10
965.1779826160687
 20
1592.521345867586
 10
966.2299774745569
 20
1592.80322704036
 10
967.2464664194793
 20
1593.075594432267
 10
968.2258232853628
 20
1593.338012313583
 10
969.1664813101413
 20
1593.590060871676
 10
970.0669356416375
 20
1593.831336882621
 10
970.9257457450076
 20
1594.061454356271
 10
971.7415377072896
 20
1594.280045153756
 10
972.5130064353704
 20
1594.486759576431
 10
973.2389177438555
 20
1594.681266925317
 10
973.9181103295049
 20
1594.863256030147
 10
974.5494976290677
 20
1595.032435747176
 10
975.1320695575538
 20
1595.188535424947
 10
975.6648941241529
 20
1595.331305337274
 10
976.1471189232214
 20
1595.460517082755
 10
976.57797249795
 20
1595.575963950159
 10
976.9567655745298
 20
1595.677461249128
 10
977.2828921648432
 20
1595.764846605632
 10
977.5558305359153
 20
1595.837980221745
 10
977.7751440445767
 20
1595.896745099279
 10
977.9404818359974
 20
1595.941047226969
 10
978.0515794049817
 20
1595.97081573086
 10
978.1082590191182
 20
1595.986002987695
 10
978.1162035747106
 20
1595.98813172495
  0
LINE
  5
A3
330
87
100
AcDbEntity
  8
P-SANR-FIXT
100
AcDbLine
 10
929.5469350386392
 20
1582.97403544374
 30
0.0
 11
930.064573128844
 21
1581.042183791162
 31
0.0
  0
LINE
  5
A4
330
87
100
AcDbEntity
  8
P-SANR-FIXT
100
AcDbLine
 10
959.0423479175164
 20
1588.806755144237
 30
0.0
 11
958.5247098273113
 21
1590.738606796815
 31
0.0
  0
LINE
  5
A5
330
87
100
AcDbEntity
  8
P-SANR-FIXT
100
AcDbLine
 10
978.651869099756
 20
1619.943015019231
 30
0.0
 11
897.5140996914745
 21
1598.20221523062
 31
0.0
  0
LINE
  5
A6
330
87
100
AcDbEntity
  8
P-SANR-FIXT
100
AcDbLine
 10
900.8787472778074
 20
1585.645179488862
 30
0.0
 11
982.0165166860887
 21
1607.385979277473
 31
0.0
  0
LINE
  5
A7
330
87
100
AcDbEntity
  8
P-SANR-FIXT
100
AcDbLine
 10
930.0645731288421
 20
1581.042183791161
 30
0.0
 11
959.0423479175143
 21
1588.806755144237
 31
0.0
  0
LINE
  5
A8
330
87
100
AcDbEntity
  8
P-SANR-FIXT
100
AcDbLine
 10
789.0188565071398
 20
2131.755335821036
 30
0.0
 11
785.8357911340818
 21
2130.90243602487
 31
0.0
  0
LINE
  5
A9
330
87
100
AcDbEntity
  8
P-SANR-FIXT
100
AcDbLine
 10
788.9416196753122
 20
2119.311326109401
 30
0.0
 11
793.971765993135
 21
2120.659149753072
 31
0.0
  0
LINE
  5
AA
330
87
100
AcDbEntity
  8
P-SANR-FIXT
100
AcDbLine
 10
786.4117939107513
 20
2128.752764397039
 30
0.0
 11
785.5424606670911
 21
2128.519827256447
 31
0.0
  0
LINE
  5
AB
330
87
100
AcDbEntity
  8
P-SANR-FIXT
100
AcDbLine
 10
787.4962836549827
 20
2121.228060596639
 30
0.0
 11
788.3656168986428
 21
2121.460997737231
 31
0.0
  0
LINE
  5
AC
330
87
100
AcDbEntity
  8
P-SANR-FIXT
100
AcDbLine
 10
784.9664578904219
 20
2130.669498884278
 30
0.0
 11
782.7669929767247
 21
2130.080154036872
 31
0.0
  0
LINE
  5
AD
330
87
100
AcDbEntity
  8
P-SANR-FIXT
100
AcDbLine
 10
778.4130281687613
 20
2116.490198517784
 30
0.0
 11
788.0722864316521
 21
2119.078388968809
 31
0.0
  0
LINE
  5
AE
330
87
100
AcDbEntity
  8
P-SANR-FIXT
100
AcDbLine
 10
799.535268758396
 20
2129.918245785052
 30
0.0
 11
799.538438243071
 21
2129.906417107211
 31
0.0
  0
LINE
  5
AF
330
87
100
AcDbEntity
  8
P-SANR-FIXT
100
AcDbLine
 10
785.8357911340801
 20
2130.902436024868
 30
0.0
 11
788.9416196753104
 21
2119.3113261094
 31
0.0
  0
LINE
  5
B0
330
87
100
AcDbEntity
  8
P-SANR-FIXT
100
AcDbLine
 10
784.9664578904199
 20
2130.669498884276
 30
0.0
 11
788.0722864316502
 21
2119.078388968807
 31
0.0
  0
LINE
  5
B1
330
87
100
AcDbEntity
  8
P-SANR-FIXT
100
AcDbLine
 10
776.8500133076424
 20
2122.323449392457
 30
0.0
 11
776.8601138981445
 21
2122.285753475517
 31
0.0
  0
LINE
  5
B2
330
87
100
AcDbEntity
  8
P-SANR-FIXT
100
AcDbLine
 10
777.054284408366
 20
2121.561099266038
 30
0.0
 11
777.1297746313097
 21
2121.279365918538
 31
0.0
  0
LINE
  5
B3
330
87
100
AcDbEntity
  8
P-SANR-FIXT
100
AcDbLine
 10
777.2555811607722
 20
2120.809849558659
 30
0.0
 11
777.3912418595528
 21
2120.303556938221
 31
0.0
  0
LINE
  5
B4
330
87
100
AcDbEntity
  8
P-SANR-FIXT
100
AcDbLine
 10
777.4491110494895
 20
2120.087586181184
 30
0.0
 11
777.6307848777562
 21
2119.409570223687
 31
0.0
  0
LINE
  5
B5
330
87
100
AcDbEntity
  8
P-SANR-FIXT
100
AcDbLine
 10
777.6365710334519
 20
2119.38797599665
 30
0.0
 11
777.802970626327
 21
2118.766964261681
 31
0.0
  0
LINE
  5
B6
330
87
100
AcDbEntity
  8
P-SANR-FIXT
100
AcDbLine
 10
777.9579889262437
 20
2118.188428090289
 30
0.0
 11
778.0497152457892
 21
2117.846100805354
 31
0.0
  0
LINE
  5
B7
330
87
100
AcDbEntity
  8
P-SANR-FIXT
100
AcDbLine
 10
778.0920227340264
 20
2117.688207109711
 30
0.0
 11
778.2960875934374
 21
2116.926626686351
 31
0.0
  0
LINE
  5
B8
330
87
100
AcDbEntity
  8
P-SANR-FIXT
100
AcDbLine
 10
778.3048052710969
 20
2116.894091870401
 30
0.0
 11
778.3413570264167
 21
2116.757678862442
 31
0.0
  0
LINE
  5
B9
330
87
100
AcDbEntity
  8
P-SANR-FIXT
100
AcDbLine
 10
778.3749338513713
 20
2116.632368445755
 30
0.0
 11
778.3964966313299
 21
2116.551895055397
 31
0.0
  0
LINE
  5
BA
330
87
100
AcDbEntity
  8
P-SANR-FIXT
100
AcDbLine
 10
778.4102435333883
 20
2116.500590918469
 30
0.0
 11
778.4130281687595
 21
2116.490198517782
 31
0.0
  0
LINE
  5
BB
330
87
100
AcDbEntity
  8
P-SANR-FIXT
100
AcDbLine
 10
1001.677344956421
 20
2072.989478783778
 30
0.0
 11
1001.677344956421
 21
2088.989478783778
 31
0.0
  0
LINE
  5
BC
330
87
100
AcDbEntity
  8
P-SANR-FIXT
100
AcDbLine
 10
991.6773449564212
 20
2088.989478783778
 30
0.0
 11
991.677344956421
 21
2087.365504683463
 31
0.0
  0
LINE
  5
BD
330
87
100
AcDbEntity
  8
P-SANR-FIXT
100
AcDbLine
 10
991.677344956421
 20
2076.722376911157
 30
0.0
 11
991.677344956421
 21
2072.989478783778
 31
0.0
  0
LINE
  5
BE
330
87
100
AcDbEntity
  8
P-SANR-FIXT
100
AcDbLine
 10
1003.866368351052
 20
2091.178502178408
 30
0.0
 11
1003.866368351052
 21
2100.489478783778
 31
0.0
  0
LINE
  5
BF
330
87
100
AcDbEntity
  8
P-SANR-FIXT
100
AcDbLine
 10
989.4883215617904
 20
2100.489478783778
 30
0.0
 11
989.4883215617904
 21
2091.178502178408
 31
0.0
  0
LINE
  5
C0
330
87
100
AcDbEntity
  8
P-SANR-FIXT
100
AcDbLine
 10
1002.677344956421
 20
2101.989478783778
 30
0.0
 11
1002.677344956421
 21
2106.989478783778
 31
0.0
  0
LINE
  5
C1
330
87
100
AcDbEntity
  8
P-SANR-FIXT
100
AcDbLine
 10
990.6773449564211
 20
2106.989478783778
 30
0.0
 11
990.6773449564211
 21
2101.989478783778
 31
0.0
  0
LINE
  5
C2
330
87
100
AcDbEntity
  8
P-SANR-FIXT
100
AcDbLine
 10
1004.477344956421
 20
2106.989478783778
 30
0.0
 11
1004.477344956421
 21
2115.989478783777
 31
0.0
  0
LINE
  5
C3
330
87
100
AcDbEntity
  8
P-SANR-FIXT
100
AcDbLine
 10
988.8773449564213
 20
2115.989478783777
 30
0.0
 11
988.8773449564213
 21
2106.989478783778
 31
0.0
  0
LINE
  5
C4
330
87
100
AcDbEntity
  8
P-SANR-FIXT
100
AcDbLine
 10
1003.477344956421
 20
2115.989478783777
 30
0.0
 11
1003.477344956421
 21
2118.489478783777
 31
0.0
  0
LINE
  5
C5
330
87
100
AcDbEntity
  8
P-SANR-FIXT
100
AcDbLine
 10
989.8773449564213
 20
2118.489478783777
 30
0.0
 11
989.8773449564213
 21
2115.989478783777
 31
0.0
  0
LINE
  5
C6
330
87
100
AcDbEntity
  8
P-SANR-FIXT
100
AcDbLine
 10
1001.477344956421
 20
2118.489478783777
 30
0.0
 11
1001.477344956421
 21
2121.989478783778
 31
0.0
  0
LINE
  5
C7
330
87
100
AcDbEntity
  8
P-SANR-FIXT
100
AcDbLine
 10
991.8773449564211
 20
2121.989478783778
 30
0.0
 11
991.8773449564211
 21
2118.489478783777
 31
0.0
  0
LINE
  5
C8
330
87
100
AcDbEntity
  8
P-SANR-FIXT
100
AcDbLine
 10
1002.477344956421
 20
2121.989478783778
 30
0.0
 11
1002.477344956421
 21
2129.989478783778
 31
0.0
  0
LINE
  5
C9
330
87
100
AcDbEntity
  8
P-SANR-FIXT
100
AcDbLine
 10
990.8773449564211
 20
2129.989478783778
 30
0.0
 11
990.8773449564211
 21
2121.989478783778
 31
0.0
  0
LINE
  5
CA
330
87
100
AcDbEntity
  8
P-SANR-FIXT
100
AcDbLine
 10
998.6773449564211
 20
2129.989478783778
 30
0.0
 11
998.6773449564211
 21
2132.989478783778
 31
0.0
  0
LINE
  5
CB
330
87
100
AcDbEntity
  8
P-SANR-FIXT
100
AcDbLine
 10
994.6773449564213
 20
2132.989478783778
 30
0.0
 11
994.6773449564213
 21
2129.989478783778
 31
0.0
  0
LINE
  5
CC
330
87
100
AcDbEntity
  8
P-SANR-FIXT
100
AcDbLine
 10
986.9813476783935
 20
2090.043940797309
 30
0.0
 11
974.0055977380041
 21
2090.043940797309
 31
0.0
  0
LINE
  5
CD
330
87
100
AcDbEntity
  8
P-SANR-FIXT
100
AcDbLine
 10
974.0055977380039
 20
2074.043940797309
 30
0.0
 11
986.9813476783935
 21
2074.043940797309
 31
0.0
  0
LINE
  5
CE
330
87
100
AcDbEntity
  8
P-SANR-FIXT
100
AcDbLine
 10
974.0055977380041
 20
2091.043940797309
 30
0.0
 11
966.0055977380041
 21
2091.043940797309
 31
0.0
  0
LINE
  5
CF
330
87
100
AcDbEntity
  8
P-SANR-FIXT
100
AcDbLine
 10
966.0055977380041
 20
2073.04394079731
 30
0.0
 11
974.0055977380039
 21
2073.04394079731
 31
0.0
  0
LINE
  5
D0
330
87
100
AcDbEntity
  8
P-SANR-FIXT
100
AcDbLine
 10
966.0055977380041
 20
2089.04394079731
 30
0.0
 11
962.005597738004
 21
2089.04394079731
 31
0.0
  0
LINE
  5
D1
330
87
100
AcDbEntity
  8
P-SANR-FIXT
100
AcDbLine
 10
962.005597738004
 20
2075.043940797309
 30
0.0
 11
966.0055977380041
 21
2075.043940797309
 31
0.0
  0
LINE
  5
D2
330
87
100
AcDbEntity
  8
P-SANR-FIXT
100
AcDbLine
 10
962.005597738004
 20
2084.600825813111
 30
0.0
 11
959.0055977380039
 21
2084.600825813111
 31
0.0
  0
LINE
  5
D3
330
87
100
AcDbEntity
  8
P-SANR-FIXT
100
AcDbLine
 10
959.0055977380039
 20
2079.487055781509
 30
0.0
 11
962.005597738004
 21
2079.487055781509
 31
0.0
  0
LINE
  5
D4
330
87
100
AcDbEntity
  8
P-SANR-FIXT
100
AcDbLine
 10
959.0055977380039
 20
2086.100825813111
 30
0.0
 11
950.0055977380041
 21
2086.100825813111
 31
0.0
  0
LINE
  5
D5
330
87
100
AcDbEntity
  8
P-SANR-FIXT
100
AcDbLine
 10
950.0055977380039
 20
2077.987055781508
 30
0.0
 11
959.0055977380039
 21
2077.987055781508
 31
0.0
  0
LINE
  5
D6
330
87
100
AcDbEntity
  8
P-SANR-FIXT
100
AcDbLine
 10
1001.677344956421
 20
2088.989478783778
 30
0.0
 11
1003.866368351052
 21
2091.178502178408
 31
0.0
  0
LINE
  5
D7
330
87
100
AcDbEntity
  8
P-SANR-FIXT
100
AcDbLine
 10
989.4883215617902
 20
2091.178502178408
 30
0.0
 11
991.677344956421
 21
2088.989478783778
 31
0.0
  0
LINE
  5
D8
330
87
100
AcDbEntity
  8
P-SANR-FIXT
100
AcDbLine
 10
1003.67734495642
 20
2070.92070084007
 30
0.0
 11
1003.677344956421
 21
2072.989478783778
 31
0.0
  0
LINE
  5
D9
330
87
100
AcDbEntity
  8
P-SANR-FIXT
100
AcDbLine
 10
989.6773449564211
 20
2072.989478783778
 30
0.0
 11
989.6773449564211
 21
2070.320900689749
 31
0.0
  0
LINE
  5
DA
330
87
100
AcDbEntity
  8
P-SANR-FIXT
100
AcDbLine
 10
1004.677344956421
 20
2100.489478783778
 30
0.0
 11
1004.677344956421
 21
2101.989478783778
 31
0.0
  0
LINE
  5
DB
330
87
100
AcDbEntity
  8
P-SANR-FIXT
100
AcDbLine
 10
988.6773449564211
 20
2101.989478783778
 30
0.0
 11
988.6773449564211
 21
2100.489478783778
 31
0.0
  0
LINE
  5
DC
330
87
100
AcDbEntity
  8
P-SANR-FIXT
100
AcDbLine
 10
991.6773449564212
 20
2087.365504683463
 30
0.0
 11
988.7657665933216
 21
2087.365504683463
 31
0.0
  0
LINE
  5
DD
330
87
100
AcDbEntity
  8
P-SANR-FIXT
100
AcDbLine
 10
988.7657665933216
 20
2076.722376911157
 30
0.0
 11
991.677344956421
 21
2076.722376911157
 31
0.0
  0
LINE
  5
DE
330
87
100
AcDbEntity
  8
P-SANR-FIXT
100
AcDbLine
 10
988.7657665933218
 20
2087.365504683463
 30
0.0
 11
987.0269442893578
 21
2089.9754996883
 31
0.0
  0
LINE
  5
DF
330
87
100
AcDbEntity
  8
P-SANR-FIXT
100
AcDbLine
 10
987.0189658805362
 20
2089.98747538422
 30
0.0
 11
986.9813476783939
 21
2090.043940797309
 31
0.0
  0
LINE
  5
E0
330
87
100
AcDbEntity
  8
P-SANR-FIXT
100
AcDbLine
 10
986.9813476783939
 20
2074.043940797309
 30
0.0
 11
987.0189658805362
 21
2074.1004062104
 31
0.0
  0
LINE
  5
E1
330
87
100
AcDbEntity
  8
P-SANR-FIXT
100
AcDbLine
 10
987.0269442893578
 20
2074.112381906319
 30
0.0
 11
988.7657665933218
 21
2076.722376911157
 31
0.0
  0
SPLINE
  5
E2
330
87
100
AcDbEntity
  8
P-SANR-FIXT
100
AcDbSpline
210
0.0
220
0.0
230
1.0
 70
     8
 71
     3
 72
    10
 73
     6
 74
     0
 42
0.000000001
 43
0.0000000001
 40
0.0
 40
0.0
 40
0.0
 40
0.0
 40
0.3333333333333333
 40
0.6666666666666666
 40
1.0
 40
1.0
 40
1.0
 40
1.0
 10
991.6773449564189
 20
2087.365504683461
 30
0.0
 10
991.6773449564189
 20
2087.362700057215
 30
0.0
 10
991.7457390562811
 20
2087.303075344575
 30
0.0
 10
992.0339230115736
 20
2087.028932042963
 30
0.0
 10
992.3227148309662
 20
2086.768352057872
 30
0.0
 10
992.4852100775034
 20
2086.614830977287
 30
0.0
  0
SPLINE
  5
E3
330
87
100
AcDbEntity
  8
P-SANR-FIXT
100
AcDbSpline
210
0.0
220
0.0
230
1.0
 70
     8
 71
     3
 72
    10
 73
     6
 74
     0
 42
0.000000001
 43
0.0000000001
 40
0.0
 40
0.0
 40
0.0
 40
0.0
 40
0.3333333333333333
 40
0.6666666666666666
 40
1.0
 40
1.0
 40
1.0
 40
1.0
 10
992.4852100775034
 20
2077.47305061733
 30
0.0
 10
992.3227148309662
 20
2077.319529536746
 30
0.0
 10
992.0339230115736
 20
2077.058949551654
 30
0.0
 10
991.7457390562811
 20
2076.784806250043
 30
0.0
 10
991.6773449564189
 20
2076.725181537402
 30
0.0
 10
991.6773449564189
 20
2076.722376911156
 30
0.0
  0
LINE
  5
E4
330
87
100
AcDbEntity
  8
P-SANR-FIXT
100
AcDbLine
 10
989.4883215617882
 20
2091.178502178408
 30
0.0
 11
1003.86636835105
 21
2091.178502178408
 31
0.0
  0
LINE
  5
E5
330
87
100
AcDbEntity
  8
P-SANR-FIXT
100
AcDbLine
 10
988.6773449564191
 20
2101.989478783777
 30
0.0
 11
1004.677344956419
 21
2101.989478783777
 31
0.0
  0
LINE
  5
E6
330
87
100
AcDbEntity
  8
P-SANR-FIXT
100
AcDbLine
 10
1004.477344956419
 20
2106.989478783777
 30
0.0
 11
988.8773449564192
 21
2106.989478783777
 31
0.0
  0
LINE
  5
E7
330
87
100
AcDbEntity
  8
P-SANR-FIXT
100
AcDbLine
 10
1004.477344956419
 20
2115.989478783777
 30
0.0
 11
988.8773449564192
 21
2115.989478783777
 31
0.0
  0
LINE
  5
E8
330
87
100
AcDbEntity
  8
P-SANR-FIXT
100
AcDbLine
 10
1003.477344956419
 20
2118.489478783777
 30
0.0
 11
989.8773449564192
 21
2118.489478783777
 31
0.0
  0
LINE
  5
E9
330
87
100
AcDbEntity
  8
P-SANR-FIXT
100
AcDbLine
 10
1002.477344956419
 20
2121.989478783777
 30
0.0
 11
990.8773449564192
 21
2121.989478783777
 31
0.0
  0
LINE
  5
EA
330
87
100
AcDbEntity
  8
P-SANR-FIXT
100
AcDbLine
 10
1002.477344956419
 20
2129.989478783777
 30
0.0
 11
990.8773449564192
 21
2129.989478783777
 31
0.0
  0
LINE
  5
EB
330
87
100
AcDbEntity
  8
P-SANR-FIXT
100
AcDbLine
 10
998.6773449564193
 20
2132.989478783777
 30
0.0
 11
994.677344956419
 21
2132.989478783777
 31
0.0
  0
LINE
  5
EC
330
87
100
AcDbEntity
  8
P-SANR-FIXT
100
AcDbLine
 10
986.9813476783916
 20
2074.043940797309
 30
0.0
 11
986.9813476783917
 21
2090.043940797309
 31
0.0
  0
LINE
  5
ED
330
87
100
AcDbEntity
  8
P-SANR-FIXT
100
AcDbLine
 10
974.005597738002
 20
2091.043940797309
 30
0.0
 11
974.005597738002
 21
2073.043940797309
 31
0.0
  0
LINE
  5
EE
330
87
100
AcDbEntity
  8
P-SANR-FIXT
100
AcDbLine
 10
966.005597738002
 20
2091.043940797309
 30
0.0
 11
966.005597738002
 21
2073.043940797309
 31
0.0
  0
LINE
  5
EF
330
87
100
AcDbEntity
  8
P-SANR-FIXT
100
AcDbLine
 10
962.0055977380021
 20
2089.043940797309
 30
0.0
 11
962.0055977380021
 21
2075.043940797309
 31
0.0
  0
LINE
  5
F0
330
87
100
AcDbEntity
  8
P-SANR-FIXT
100
AcDbLine
 10
959.0055977380021
 20
2086.10082581311
 30
0.0
 11
959.005597738002
 21
2077.987055781508
 31
0.0
  0
LINE
  5
F1
330
87
100
AcDbEntity
  8
P-SANR-FIXT
100
AcDbLine
 10
950.0055977380021
 20
2086.10082581311
 30
0.0
 11
950.005597738002
 21
2077.987055781508
 31
0.0
  0
LINE
  5
F2
330
87
100
AcDbEntity
  8
P-SANR-FIXT
100
AcDbLine
 10
1001.677344956419
 20
2088.989478783776
 30
0.0
 11
991.6773449564189
 21
2088.989478783776
 31
0.0
  0
LINE
  5
F3
330
87
100
AcDbEntity
  8
P-SANR-FIXT
100
AcDbLine
 10
1003.677344956419
 20
2072.989478783776
 30
0.0
 11
989.6773449564191
 21
2072.989478783776
 31
0.0
  0
LINE
  5
F4
330
87
100
AcDbEntity
  8
P-SANR-FIXT
100
AcDbLine
 10
1004.677344956419
 20
2100.489478783777
 30
0.0
 11
988.6773449564191
 21
2100.489478783777
 31
0.0
  0
LINE
  5
F5
330
87
100
AcDbEntity
  8
P-SANR-FIXT
100
AcDbLine
 10
992.4852100775034
 20
2086.614830977287
 30
0.0
 11
992.4852100775034
 21
2077.47305061733
 31
0.0
  0
LINE
  5
F6
330
87
100
AcDbEntity
  8
P-SANR-FIXT
100
AcDbLine
 10
988.7657665933197
 20
2087.365504683461
 30
0.0
 11
988.7657665933197
 21
2076.722376911156
 31
0.0
  0
LINE
  5
F7
330
87
100
AcDbEntity
  8
P-SANR-FIXT
100
AcDbLine
 10
807.1047416838231
 20
2121.072291442379
 30
0.0
 11
806.7165131161692
 21
2122.521180181813
 31
0.0
  0
LINE
  5
F8
330
87
100
AcDbEntity
  8
P-SANR-FIXT
100
AcDbLine
 10
795.1254032007002
 20
2119.415351640582
 30
0.0
 11
795.513631768354
 21
2117.966462901149
 31
0.0
  0
LINE
  5
F9
330
87
100
AcDbEntity
  8
P-SANR-FIXT
100
AcDbLine
 10
806.7165131161692
 20
2122.521180181813
 30
0.0
 11
807.4033516957467
 21
2123.20801876139
 31
0.0
  0
LINE
  5
FA
330
87
100
AcDbEntity
  8
P-SANR-FIXT
100
AcDbLine
 10
794.1871642526984
 20
2119.666752009007
 30
0.0
 11
795.1254032007002
 21
2119.415351640583
 31
0.0
  0
LINE
  5
FB
330
87
100
AcDbEntity
  8
P-SANR-FIXT
100
AcDbLine
 10
807.4033516957467
 20
2123.20801876139
 30
0.0
 11
805.2033898123752
 21
2131.418388284847
 31
0.0
  0
LINE
  5
FC
330
87
100
AcDbEntity
  8
P-SANR-FIXT
100
AcDbLine
 10
793.9111511587802
 20
2120.696846899063
 30
0.0
 11
794.1871642526984
 21
2119.666752009007
 31
0.0
  0
LINE
  5
FD
330
87
100
AcDbEntity
  8
P-SANR-FIXT
100
AcDbLine
 10
806.1693156386642
 20
2131.677207329949
 30
0.0
 11
805.0046299357028
 21
2136.02387354825
 31
0.0
  0
LINE
  5
FE
330
87
100
AcDbEntity
  8
P-SANR-FIXT
100
AcDbLine
 10
789.8565908400765
 20
2131.964968705662
 30
0.0
 11
789.8673181613974
 21
2131.924933797464
 31
0.0
  0
LINE
  5
FF
330
87
100
AcDbEntity
  8
P-SANR-FIXT
100
AcDbLine
 10
805.8739631793628
 20
2136.256810688843
 30
0.0
 11
801.9916775028249
 21
2150.745698083179
 31
0.0
  0
LINE
  5
100
330
87
100
AcDbEntity
  8
P-SANR-FIXT
100
AcDbLine
 10
785.1049719198788
 20
2146.220918959406
 30
0.0
 11
788.9872575964166
 21
2131.73203156507
 31
0.0
  0
LINE
  5
101
330
87
100
AcDbEntity
  8
P-SANR-FIXT
100
AcDbLine
 10
795.5136317683521
 20
2117.966462901148
 30
0.0
 11
807.1047416838212
 21
2121.072291442378
 31
0.0
  0
LINE
  5
102
330
87
100
AcDbEntity
  8
P-SANR-FIXT
100
AcDbLine
 10
806.7165131161672
 20
2122.521180181812
 30
0.0
 11
795.1254032006984
 21
2119.415351640581
 31
0.0
  0
LINE
  5
103
330
87
100
AcDbEntity
  8
P-SANR-FIXT
100
AcDbLine
 10
807.4033516957449
 20
2123.208018761389
 30
0.0
 11
794.1871642526965
 21
2119.666752009006
 31
0.0
  0
LINE
  5
104
330
87
100
AcDbEntity
  8
P-SANR-FIXT
100
AcDbLine
 10
806.1693156386624
 20
2131.677207329949
 30
0.0
 11
793.4999570246517
 21
2128.282462920704
 31
0.0
  0
LINE
  5
105
330
87
100
AcDbEntity
  8
P-SANR-FIXT
100
AcDbLine
 10
805.873963179361
 20
2136.256810688842
 30
0.0
 11
788.9872575964147
 21
2131.732031565069
 31
0.0
  0
LINE
  5
106
330
87
100
AcDbEntity
  8
P-SANR-FIXT
100
AcDbLine
 10
801.9916775028232
 20
2150.745698083178
 30
0.0
 11
785.1049719198771
 21
2146.220918959405
 31
0.0
  0
LINE
  5
107
330
87
100
AcDbEntity
  8
P-SANR-FIXT
100
AcDbLine
 10
734.6835076408431
 20
2078.95233611706
 30
0.0
 11
734.6835076408431
 21
2086.719994509891
 31
0.0
  0
LINE
  5
108
330
87
100
AcDbEntity
  8
P-SANR-FIXT
100
AcDbLine
 10
719.6835076408433
 20
2086.719994509891
 30
0.0
 11
719.6835076408433
 21
2078.95233611706
 31
0.0
  0
LINE
  5
109
330
87
100
AcDbEntity
  8
P-SANR-FIXT
100
AcDbLine
 10
732.1835076408429
 20
2086.719994509891
 30
0.0
 11
732.1835076408429
 21
2088.219994509891
 31
0.0
  0
LINE
  5
10A
330
87
100
AcDbEntity
  8
P-SANR-FIXT
100
AcDbLine
 10
722.1835076408431
 20
2088.219994509891
 30
0.0
 11
722.1835076408431
 21
2086.719994509891
 31
0.0
  0
LINE
  5
10B
330
87
100
AcDbEntity
  8
P-SANR-FIXT
100
AcDbLine
 10
734.6835076408431
 20
2088.219994509891
 30
0.0
 11
734.6835076408431
 21
2093.242925554367
 31
0.0
  0
LINE
  5
10C
330
87
100
AcDbEntity
  8
P-SANR-FIXT
100
AcDbLine
 10
719.6835076408433
 20
2093.242925554367
 30
0.0
 11
719.6835076408433
 21
2088.219994509891
 31
0.0
  0
LINE
  5
10D
330
87
100
AcDbEntity
  8
P-SANR-FIXT
100
AcDbLine
 10
731.1835076408431
 20
2094.219994509891
 30
0.0
 11
731.1835076408431
 21
2095.719994509891
 31
0.0
  0
LINE
  5
10E
330
87
100
AcDbEntity
  8
P-SANR-FIXT
100
AcDbLine
 10
723.1835076408432
 20
2095.719994509891
 30
0.0
 11
723.1835076408432
 21
2094.219994509891
 31
0.0
  0
LINE
  5
10F
330
87
100
AcDbEntity
  8
P-SANR-FIXT
100
AcDbLine
 10
732.1835076408429
 20
2095.719994509891
 30
0.0
 11
732.1835076408429
 21
2097.719994509891
 31
0.0
  0
LINE
  5
110
330
87
100
AcDbEntity
  8
P-SANR-FIXT
100
AcDbLine
 10
722.1835076408431
 20
2097.719994509891
 30
0.0
 11
722.1835076408431
 21
2095.719994509891
 31
0.0
  0
LINE
  5
111
330
87
100
AcDbEntity
  8
P-SANR-FIXT
100
AcDbLine
 10
734.6835076408431
 20
2093.242925554367
 30
0.0
 11
733.7064386853199
 21
2094.219994509891
 31
0.0
  0
LINE
  5
112
330
87
100
AcDbEntity
  8
P-SANR-FIXT
100
AcDbLine
 10
720.6605765963665
 20
2094.219994509891
 30
0.0
 11
719.6835076408433
 21
2093.242925554367
 31
0.0
  0
LINE
  5
113
330
87
100
AcDbEntity
  8
P-SANR-FIXT
100
AcDbLine
 10
733.805186034004
 20
2070.32090068975
 30
0.0
 11
733.805186034004
 21
2078.95233611706
 31
0.0
  0
LINE
  5
114
330
87
100
AcDbEntity
  8
P-SANR-FIXT
100
AcDbLine
 10
720.5618292476826
 20
2078.95233611706
 30
0.0
 11
720.5618292476826
 21
2070.921161398695
 31
0.0
  0
LINE
  5
115
330
87
100
AcDbEntity
  8
P-SANR-FIXT
100
AcDbLine
 10
719.6835076408415
 20
2078.95233611706
 30
0.0
 11
734.6835076408414
 21
2078.95233611706
 31
0.0
  0
LINE
  5
116
330
87
100
AcDbEntity
  8
P-SANR-FIXT
100
AcDbLine
 10
734.6835076408414
 20
2086.719994509889
 30
0.0
 11
719.6835076408415
 21
2086.719994509889
 31
0.0
  0
LINE
  5
117
330
87
100
AcDbEntity
  8
P-SANR-FIXT
100
AcDbLine
 10
734.6835076408414
 20
2088.21999450989
 30
0.0
 11
719.6835076408415
 21
2088.21999450989
 31
0.0
  0
LINE
  5
118
330
87
100
AcDbEntity
  8
P-SANR-FIXT
100
AcDbLine
 10
720.6605765963647
 20
2094.21999450989
 30
0.0
 11
733.706438685318
 21
2094.21999450989
 31
0.0
  0
LINE
  5
119
330
87
100
AcDbEntity
  8
P-SANR-FIXT
100
AcDbLine
 10
732.1835076408413
 20
2095.71999450989
 30
0.0
 11
722.1835076408415
 21
2095.71999450989
 31
0.0
  0
LINE
  5
11A
330
87
100
AcDbEntity
  8
P-SANR-FIXT
100
AcDbLine
 10
732.1835076408413
 20
2097.71999450989
 30
0.0
 11
722.1835076408415
 21
2097.71999450989
 31
0.0
  0
LINE
  5
11B
330
87
100
AcDbEntity
  8
P-SANR-FIXT
100
AcDbLine
 10
734.6835076408414
 20
2093.242925554367
 30
0.0
 11
719.6835076408415
 21
2093.242925554367
 31
0.0
  0
LINE
  5
11C
330
87
100
AcDbEntity
  8
P-SANR-FIXT
100
AcDbLine
 10
1012.66640744318
 20
2070.937500000004
 30
0.0
 11
1003.286631203506
 21
2070.937500000004
 31
0.0
  0
LINE
  5
11D
330
87
100
AcDbEntity
  8
P-SANR-FIXT
100
AcDbLine
 10
995.6664074431804
 20
1870.937499999994
 30
0.0
 11
1012.66640744318
 21
1870.937499999994
 31
0.0
  0
LINE
  5
11E
330
87
100
AcDbEntity
  8
P-SANR-FIXT
100
AcDbLine
 10
1015.666407443179
 20
2039.937499999956
 30
0.0
 11
1012.66640744318
 21
2039.937499999956
 31
0.0
  0
LINE
  5
11F
330
87
100
AcDbEntity
  8
P-SANR-FIXT
100
AcDbLine
 10
1012.66640744318
 20
1901.937500000043
 30
0.0
 11
1015.666407443179
 21
1901.937500000043
 31
0.0
  0
LINE
  5
120
330
87
100
AcDbEntity
  8
P-SANR-FIXT
100
AcDbLine
 10
708.6664074431967
 20
2039.937499999969
 30
0.0
 11
705.6664074431989
 21
2039.937499999969
 31
0.0
  0
LINE
  5
121
330
87
100
AcDbEntity
  8
P-SANR-FIXT
100
AcDbLine
 10
705.6664074431989
 20
1901.93750000003
 30
0.0
 11
708.6664074431967
 21
1901.93750000003
 31
0.0
  0
LINE
  5
122
330
87
100
AcDbEntity
  8
P-SANR-FIXT
100
AcDbLine
 10
720.9667916758198
 20
2070.937500000004
 30
0.0
 11
708.6664074431969
 21
2070.937500000004
 31
0.0
  0
LINE
  5
123
330
87
100
AcDbEntity
  8
P-SANR-FIXT
100
AcDbLine
 10
708.6664074431969
 20
1870.937499999995
 30
0.0
 11
725.666407443197
 21
1870.937499999995
 31
0.0
  0
LINE
  5
124
330
87
100
AcDbEntity
  8
P-SANR-FIXT
100
AcDbLine
 10
725.666407443199
 20
1898.937499999998
 30
0.0
 11
795.5045877091208
 21
1898.937499999998
 31
0.0
  0
LINE
  5
125
330
87
100
AcDbEntity
  8
P-SANR-FIXT
100
AcDbLine
 10
908.4478295764041
 20
1898.937499999998
 30
0.0
 11
995.6664074431802
 21
1898.937499999998
 31
0.0
  0
LINE
  5
126
330
87
100
AcDbEntity
  8
P-SANR-FIXT
100
AcDbLine
 10
982.3889843010929
 20
2042.937499999998
 30
0.0
 11
902.8236783606317
 21
2042.937499999998
 31
0.0
  0
LINE
  5
127
330
87
100
AcDbEntity
  8
P-SANR-FIXT
100
AcDbLine
 10
760.7780765886754
 20
2042.937499999998
 30
0.0
 11
738.943830585286
 21
2042.937499999998
 31
0.0
  0
LINE
  5
128
330
87
100
AcDbEntity
  8
P-SANR-FIXT
100
AcDbLine
 10
775.4031637151172
 20
2112.478372116068
 30
0.0
 11
776.8535089406298
 21
2107.065610045941
 31
0.0
  0
LINE
  5
129
330
87
100
AcDbEntity
  8
P-SANR-FIXT
100
AcDbLine
 10
828.715308517974
 20
2120.961937360715
 30
0.0
 11
827.2649632924617
 21
2126.374699430843
 31
0.0
  0
LINE
  5
12A
330
87
100
AcDbEntity
  8
P-SANR-FIXT
100
AcDbLine
 10
766.5564942506736
 20
2099.130152373265
 30
0.0
 11
767.3329513859811
 21
2096.232374894398
 31
0.0
  0
LINE
  5
12B
330
87
100
AcDbEntity
  8
P-SANR-FIXT
100
AcDbLine
 10
842.376970794263
 20
2116.340359291632
 30
0.0
 11
841.6005136589555
 21
2119.238136770499
 31
0.0
  0
LINE
  5
12C
330
87
100
AcDbEntity
  8
P-SANR-FIXT
100
AcDbLine
 10
765.8840626465474
 20
2095.844146326744
 30
0.0
 11
761.6503578903852
 21
2089.797789318097
 31
0.0
  0
LINE
  5
12D
330
87
100
AcDbEntity
  8
P-SANR-FIXT
100
AcDbLine
 10
850.5155339089798
 20
2113.609141467529
 30
0.0
 11
843.8258595336968
 21
2116.728587859286
 31
0.0
  0
LINE
  5
12E
330
87
100
AcDbEntity
  8
P-SANR-FIXT
100
AcDbLine
 10
761.6503578903852
 20
2089.797789318097
 30
0.0
 11
767.0927147122601
 21
2069.486637145941
 31
0.0
  0
LINE
  5
12F
330
87
100
AcDbEntity
  8
P-SANR-FIXT
100
AcDbLine
 10
855.9578907308544
 20
2093.297989295373
 30
0.0
 11
850.5155339089798
 21
2113.609141467529
 31
0.0
  0
LINE
  5
130
330
87
100
AcDbEntity
  8
P-SANR-FIXT
100
AcDbLine
 10
835.9626533175834
 20
1849.814999766518
 30
0.0
 11
828.5557518898921
 21
1835.884644225248
 31
0.0
  0
LINE
  5
131
330
87
100
AcDbEntity
  8
P-SANR-FIXT
100
AcDbLine
 10
919.5521277055918
 20
1860.267049639223
 30
0.0
 11
906.1723851352486
 21
1868.627640707867
 31
0.0
  0
LINE
  5
132
330
87
100
AcDbEntity
  8
P-SANR-FIXT
100
AcDbLine
 10
814.4186704277885
 20
1822.629364560469
 30
0.0
 11
806.271685693142
 21
1818.948737617792
 31
0.0
  0
LINE
  5
133
330
87
100
AcDbEntity
  8
P-SANR-FIXT
100
AcDbLine
 10
972.4141677069335
 20
1859.24153945521
 30
0.0
 11
938.4228392195325
 21
1855.85618144631
 31
0.0
  0
LINE
  5
134
330
87
100
AcDbEntity
  8
P-SANR-FIXT
100
AcDbLine
 10
835.6239020681666
 20
1714.010525776507
 30
0.0
 11
877.9357376210009
 21
1634.205611733779
 31
0.0
  0
LINE
  5
135
330
87
100
AcDbEntity
  8
P-SANR-FIXT
100
AcDbLine
 10
977.6273218696719
 20
1660.917891225389
 30
0.0
 11
974.3679893178123
 21
1751.186891909643
 31
0.0
  0
LINE
  5
136
330
87
100
AcDbEntity
  8
P-SANR-FIXT
100
AcDbLine
 10
891.9398336634523
 20
1613.253688512318
 30
0.0
 11
894.7868431595798
 21
1602.628504423138
 31
0.0
  0
LINE
  5
137
330
87
100
AcDbEntity
  8
P-SANR-FIXT
100
AcDbLine
 10
978.8223900467302
 20
1625.145761347058
 30
0.0
 11
975.9753805506028
 21
1635.770945436237
 31
0.0
  0
LINE
  5
138
330
87
100
AcDbEntity
  8
P-SANR-FIXT
100
AcDbLine
 10
834.6926436717607
 20
1859.744588245692
 30
0.0
 11
836.3775444847343
 21
1853.456452805961
 31
0.0
  0
LINE
  5
139
330
87
100
AcDbEntity
  8
P-SANR-FIXT
100
AcDbLine
 10
903.9923523249692
 20
1871.573785963137
 30
0.0
 11
900.7627408959688
 21
1883.626859904872
 31
0.0
  0
LINE
  5
13A
330
87
100
AcDbEntity
  8
P-SANR-FIXT
100
AcDbLine
 10
908.4478295764041
 20
1898.937499999998
 30
0.0
 11
908.0754194139897
 21
1897.833498701073
 31
0.0
  0
LWPOLYLINE
  5
13B
330
87
100
AcDbEntity
  8
P-SANR-FIXT
100
AcDbPolyline
 90
        3
 70
   128
 43
0.0
 10
906.1218334842667
 20
1892.042138470741
 10
905.7161207560236
 20
1890.839412486929
 10
904.9795959493179
 20
1889.766968207177
  0
LINE
  5
13C
330
87
100
AcDbEntity
  8
P-SANR-FIXT
100
AcDbLine
 10
901.7463812219894
 20
1885.059125907822
 30
0.0
 11
900.7627408959688
 21
1883.626859904872
 31
0.0
  0
LWPOLYLINE
  5
13D
330
87
100
AcDbEntity
  8
P-SANR-FIXT
100
AcDbPolyline
 90
       23
 70
   128
 43
0.0
 10
809.3039816594123
 20
1899.853391706836
 10
809.173529238674
 20
1900.568905898643
 10
809.0259760760257
 20
1901.378215387296
 10
808.8620112068282
 20
1902.277540905403
 10
808.6824003048972
 20
1903.26268283384
 10
808.4879821070007
 20
1904.329040812891
 10
808.2796644961753
 20
1905.471635224753
 10
808.0584202621444
 20
1906.685130447064
 10
807.8252825586416
 20
1907.963859768896
 10
807.581340078847
 20
1909.301851852831
 10
807.3277319714703
 20
1910.692858619581
 10
807.0656425212185
 20
1912.130384424909
 10
806.796295618491
 20
1913.607716392614
 10
806.5209490441258
 20
1915.117955761951
 10
806.2408885958864
 20
1916.654050103057
 10
805.957422084116
 20
1918.208826249997
 10
805.6718732245991
 20
1919.7750237976
 10
805.3855754571495
 20
1921.34532900569
 10
805.0998657187889
 20
1922.912408952372
 10
804.8160782005938
 20
1924.468945776891
 10
804.5355381173667
 20
1926.007670852166
 10
804.259555519223
 20
1927.521398727407
 10
804.0243653488776
 20
1928.811385557116
  0
LWPOLYLINE
  5
13E
330
87
100
AcDbEntity
  8
P-SANR-FIXT
100
AcDbPolyline
 90
        3
 70
   128
 43
0.0
 10
900.7627408959688
 20
1883.626859904871
 10
905.7161207560236
 20
1890.839412486929
 10
908.4478295764041
 20
1898.937499999998
  0
LINE
  5
13F
330
87
100
AcDbEntity
  8
P-SANR-FIXT
100
AcDbLine
 10
902.8278613271695
 20
2042.938172825127
 30
0.0
 11
873.6179505897098
 21
2072.148083562586
 31
0.0
  0
LWPOLYLINE
  5
140
330
87
100
AcDbEntity
  8
P-SANR-FIXT
100
AcDbPolyline
 90
        3
 70
   128
 43
0.0
 10
978.0332800260403
 20
1596.064451992626
 10
977.882880554578
 20
1596.019145377938
 10
977.8695847897301
 20
1596.015505750546
  0
LINE
  5
141
330
87
100
AcDbEntity
  8
P-SANR-FIXT
100
AcDbLine
 10
977.8037724154936
 20
1595.997646737667
 30
0.0
 11
977.7744036995079
 21
1595.989777413936
 31
0.0
  0
LWPOLYLINE
  5
142
330
87
100
AcDbEntity
  8
P-SANR-FIXT
100
AcDbPolyline
 90
        3
 70
   128
 43
0.0
 10
910.2684642658319
 20
1577.901615458379
 10
910.2238878137111
 20
1577.889671234031
 10
910.2160068924634
 20
1577.887559547547
  0
LINE
  5
143
330
87
100
AcDbEntity
  8
P-SANR-FIXT
100
AcDbLine
 10
910.2430492096688
 20
1577.894805514604
 30
0.0
 11
910.324132899346
 21
1577.916531823772
 31
0.0
  0
LWPOLYLINE
  5
144
330
87
100
AcDbEntity
  8
P-SANR-FIXT
100
AcDbPolyline
 90
        4
 70
   128
 43
0.0
 10
977.6798695635122
 20
1595.964447068539
 10
977.7667081899949
 20
1595.987715408377
 10
977.8229338114512
 20
1596.00278101824
 10
977.830814732699
 20
1596.004892704724
  0
LINE
  5
145
330
87
100
AcDbEntity
  8
P-SANR-FIXT
100
AcDbLine
 10
738.9509583924941
 20
2042.931264424056
 30
0.0
 11
738.9509583924941
 21
2070.32090068975
 31
0.0
  0
LWPOLYLINE
  5
146
330
87
100
AcDbEntity
  8
P-SANR-FIXT
100
AcDbPolyline
 90
       40
 70
   128
 43
0.0
 10
828.715308517974
 20
2120.961937360715
 10
828.7709217125886
 20
2120.76983884553
 10
828.8341723142996
 20
2120.580117923295
 10
828.9049591356373
 20
2120.393078107009
 10
828.9831689327876
 20
2120.209018620482
 10
829.068676586759
 20
2120.028233919626
 10
829.1613453035459
 20
2119.851013221399
 10
829.2610268329701
 20
2119.677640041112
 10
829.3675617058479
 20
2119.508391738869
 10
829.4807794891095
 20
2119.343539075851
 10
829.6004990584536
 20
2119.183345781149
 10
829.726528888108
 20
2119.028068129865
 10
829.8586673572298
 20
2118.877954533115
 10
829.9967030724568
 20
2118.733245140631
 10
830.1404152060907
 20
2118.594171456573
 10
830.2895738493745
 20
2118.460955969167
 10
830.4439403802977
 20
2118.333811794775
 10
830.6032678453407
 20
2118.212942336954
 10
830.7673013545477
 20
2118.098540961051
 10
830.9357784892952
 20
2117.990790684865
 10
831.1084297221084
 20
2117.889863885851
 10
831.2849788478445
 20
2117.795922025357
 10
831.4651434255642
 20
2117.709115390322
 10
831.6486352303765
 20
2117.629582852843
 10
831.8351607145363
 20
2117.557451648014
 10
832.0244214770587
 20
2117.492837170376
 10
832.2161147410977
 20
2117.435842789308
 10
832.4099338383229
 20
2117.386559683664
 10
832.6055686995243
 20
2117.345066695898
 10
832.8027063506578
 20
2117.311430205941
 10
833.0010314135352
 20
2117.285704024999
 10
833.2002266103625
 20
2117.267929309474
 10
833.3999732713181
 20
2117.258134495122
 10
833.5999518443545
 20
2117.256335251553
 10
833.7998424064149
 20
2117.262534457174
 10
833.9993251752407
 20
2117.276722194579
 10
834.1980810209559
 20
2117.298875766414
 10
834.3957919766067
 20
2117.328959731691
 10
834.5921417468398
 20
2117.366925962483
 10
834.7868162139086
 20
2117.412713720918
  0
LWPOLYLINE
  5
147
330
87
100
AcDbEntity
  8
P-SANR-FIXT
100
AcDbPolyline
 90
       40
 70
   128
 43
0.0
 10
773.5100735498808
 20
2100.997498883597
 10
773.6997944721176
 20
2101.060749485308
 10
773.8868342884029
 20
2101.131536306646
 10
774.0708937749304
 20
2101.209746103796
 10
774.2516784757859
 20
2101.295253757768
 10
774.4288991740131
 20
2101.387922474555
 10
774.6022723543
 20
2101.487604003978
 10
774.7715206565427
 20
2101.594138876857
 10
774.9363733195614
 20
2101.707356660118
 10
775.0965666142625
 20
2101.827076229462
 10
775.2518442655469
 20
2101.953106059117
 10
775.4019578622971
 20
2102.085244528239
 10
775.5466672547802
 20
2102.223280243466
 10
775.6857409388385
 20
2102.3669923771
 10
775.8189564262445
 20
2102.516151020383
 10
775.9461006006366
 20
2102.670517551306
 10
776.0669700584582
 20
2102.82984501635
 10
776.1813714343607
 20
2102.993878525556
 10
776.2891217105472
 20
2103.162355660304
 10
776.3900485095614
 20
2103.335006893118
 10
776.4839903700544
 20
2103.511556018853
 10
776.5707970050897
 20
2103.691720596573
 10
776.650329542569
 20
2103.875212401385
 10
776.7224607473977
 20
2104.061737885545
 10
776.787075225036
 20
2104.250998648068
 10
776.8440696061032
 20
2104.442691912106
 10
776.8933527117476
 20
2104.636511009331
 10
776.9348456995133
 20
2104.832145870533
 10
776.9684821894713
 20
2105.029283521667
 10
776.9942083704131
 20
2105.227608584544
 10
777.0119830859373
 20
2105.426803781371
 10
777.0217779002904
 20
2105.626550442327
 10
777.0235771438595
 20
2105.826529015363
 10
777.017377938238
 20
2106.026419577423
 10
777.0031902008327
 20
2106.225902346249
 10
776.9810366289974
 20
2106.424658191965
 10
776.9509526637206
 20
2106.622369147615
 10
776.9129864329292
 20
2106.818718917848
 10
776.8671986744939
 20
2107.013393384917
 10
776.8535089406298
 20
2107.065610045941
  0
LINE
  5
148
330
87
100
AcDbEntity
  8
P-SANR-FIXT
100
AcDbLine
 10
938.4775118669185
 20
1583.291827673721
 30
0.0
 11
941.3245213630464
 21
1572.666643584542
 31
0.0
  0
LINE
  5
149
330
87
100
AcDbEntity
  8
P-SANR-FIXT
100
AcDbLine
 10
953.5005089086816
 20
1575.929189614446
 30
0.0
 11
950.6534994125539
 21
1586.554373703625
 31
0.0
  0
LINE
  5
14A
330
87
100
AcDbEntity
  8
P-SANR-FIXT
100
AcDbLine
 10
831.6219259966604
 20
1693.430726379724
 30
0.0
 11
829.292554590738
 21
1702.124058816326
 31
0.0
  0
LINE
  5
14B
330
87
100
AcDbEntity
  8
P-SANR-FIXT
100
AcDbLine
 10
817.70144467527
 20
1699.018230275096
 30
0.0
 11
820.0308160811925
 21
1690.324897838494
 31
0.0
  0
LINE
  5
14C
330
87
100
AcDbEntity
  8
P-SANR-FIXT
100
AcDbLine
 10
828.3266287644487
 20
1701.865239771223
 30
0.0
 11
827.4207621065899
 21
1705.245980163235
 31
0.0
  0
LINE
  5
14D
330
87
100
AcDbEntity
  8
P-SANR-FIXT
100
AcDbLine
 10
817.7615038437002
 20
1702.65778971221
 30
0.0
 11
818.6673705015589
 21
1699.277049320199
 31
0.0
  0
LINE
  5
14E
330
87
100
AcDbEntity
  8
P-SANR-FIXT
100
AcDbLine
 10
830.8015024986017
 20
1706.151846821094
 30
0.0
 11
829.6368167956405
 21
1710.498513039395
 31
0.0
  0
LINE
  5
14F
330
87
100
AcDbEntity
  8
P-SANR-FIXT
100
AcDbLine
 10
813.2160777487271
 20
1706.098589272652
 30
0.0
 11
814.3807634516885
 21
1701.751923054352
 31
0.0
  0
LINE
  5
150
330
87
100
AcDbEntity
  8
P-SANR-FIXT
100
AcDbLine
 10
827.7049651430623
 20
1709.98087494919
 30
0.0
 11
827.3167365754083
 21
1711.429763688623
 31
0.0
  0
LINE
  5
151
330
87
100
AcDbEntity
  8
P-SANR-FIXT
100
AcDbLine
 10
814.7597008336514
 20
1708.065116102291
 30
0.0
 11
815.1479294013052
 21
1706.616227362857
 31
0.0
  0
LINE
  5
152
330
87
100
AcDbEntity
  8
P-SANR-FIXT
100
AcDbLine
 10
830.6974769674202
 20
1712.335630346482
 30
0.0
 11
829.1445626968052
 21
1718.131185304217
 31
0.0
  0
LINE
  5
153
330
87
100
AcDbEntity
  8
P-SANR-FIXT
100
AcDbLine
 10
809.8260461710248
 20
1712.954804402167
 30
0.0
 11
811.3789604416398
 21
1707.159249444432
 31
0.0
  0
LINE
  5
154
330
87
100
AcDbEntity
  8
P-SANR-FIXT
100
AcDbLine
 10
806.2716856931421
 20
1818.948737617792
 30
0.0
 11
804.5381710406857
 21
1825.418302376425
 31
0.0
  0
LINE
  5
155
330
87
100
AcDbEntity
  8
P-SANR-FIXT
100
AcDbLine
 10
777.4922479045914
 20
1818.171369113554
 30
0.0
 11
780.6449171325145
 21
1806.405447375485
 31
0.0
  0
LINE
  5
156
330
87
100
AcDbEntity
  8
P-SANR-FIXT
100
AcDbLine
 10
799.1592572034513
 20
1737.308989562138
 30
0.0
 11
805.9623428658678
 21
1711.919528221756
 31
0.0
  0
LINE
  5
157
330
87
100
AcDbEntity
  8
P-SANR-FIXT
100
AcDbLine
 10
798.7426160829512
 20
1823.86538810581
 30
0.0
 11
797.1897018123362
 21
1829.660943063544
 31
0.0
  0
LINE
  5
158
330
87
100
AcDbEntity
  8
P-SANR-FIXT
100
AcDbLine
 10
781.7348885917108
 20
1825.519838341904
 30
0.0
 11
783.287802862326
 21
1819.724283384169
 31
0.0
  0
LINE
  5
159
330
87
100
AcDbEntity
  8
P-SANR-FIXT
100
AcDbLine
 10
795.5004047425831
 20
1898.936827174869
 30
0.0
 11
834.6926436717611
 21
1859.744588245692
 31
0.0
  0
LINE
  5
15A
330
87
100
AcDbEntity
  8
P-SANR-FIXT
100
AcDbLine
 10
982.3818564938848
 20
2070.320900689749
 30
0.0
 11
982.3818564938848
 21
2042.931264424056
 31
0.0
  0
LWPOLYLINE
  5
15B
330
87
100
AcDbEntity
  8
P-SANR-FIXT
100
AcDbPolyline
 90
       12
 70
   128
 43
0.0
 10
972.4141677069335
 20
1859.24153945521
 10
972.8140610487999
 20
1859.23354052182
 10
973.2133146466251
 20
1859.209556518236
 10
973.6112897798227
 20
1859.169625813748
 10
974.007349773076
 20
1859.113812288966
 10
974.400861014884
 20
1859.042205233622
 10
974.7911939712047
 20
1858.95491920373
 10
975.1777241925745
 20
1858.852093838317
 10
975.5598333130947
 20
1858.733893636034
 10
975.9369100396844
 20
1858.600507691989
 10
976.30835113002
 20
1858.452149395239
 10
976.6403503243406
 20
1858.304617325576
  0
LWPOLYLINE
  5
15C
330
87
100
AcDbEntity
  8
P-SANR-FIXT
100
AcDbPolyline
 90
        4
 70
   128
 43
0.0
 10
780.0971170019777
 20
1805.641016679048
 10
780.3330387425646
 20
1805.964002127826
 10
780.5816877439715
 20
1806.27729486937
 10
780.6555854045459
 20
1806.365632842235
  0
LINE
  5
15D
330
87
100
AcDbEntity
  8
P-SANR-FIXT
100
AcDbLine
 10
780.0971170019777
 20
1805.641016679047
 30
0.0
 11
775.7617285531639
 21
1799.449440307421
 31
0.0
  0
LINE
  5
15E
330
87
100
AcDbEntity
  8
P-SANR-FIXT
100
AcDbLine
 10
983.4906950421002
 20
1855.110249122683
 30
0.0
 11
976.6403503243406
 21
1858.304617325576
 31
0.0
  0
LWPOLYLINE
  5
15F
330
87
100
AcDbEntity
  8
P-SANR-FIXT
100
AcDbPolyline
 90
       13
 70
   128
 43
0.0
 10
983.4906950420998
 20
1855.110249122683
 10
983.8565019871428
 20
1854.948496389281
 10
984.2284847097582
 20
1854.801501416987
 10
984.6060481169427
 20
1854.669499366398
 10
984.988588187787
 20
1854.552701412637
 10
985.3754929397821
 20
1854.451294407513
 10
985.7661434078597
 20
1854.365440580604
 10
986.1599146346058
 20
1854.295277279716
 10
986.5561766700571
 20
1854.240916751166
 10
986.9542955794887
 20
1854.202445960201
 10
987.3536344575727
 20
1854.17992645188
 10
987.7535544472921
 20
1854.173394252614
 10
987.8400423800931
 20
1854.174085499236
  0
LWPOLYLINE
  5
160
330
87
100
AcDbEntity
  8
P-SANR-FIXT
100
AcDbPolyline
 90
       13
 70
   128
 43
0.0
 10
772.4631650803033
 20
1796.464025158421
 10
772.8080053986423
 20
1796.666667263257
 10
773.1444663586568
 20
1796.882937210753
 10
773.4720096945858
 20
1797.112489015131
 10
773.7901114069638
 20
1797.35495544247
 10
774.098262600909
 20
1797.609948598211
 10
774.3959703002466
 20
1797.877060547699
 10
774.6827582361652
 20
1798.155863968798
 10
774.9581676091453
 20
1798.445912835506
 10
775.2217578229414
 20
1798.746743131513
 10
775.4731071894407
 20
1799.057873592517
 10
775.7118136032751
 20
1799.378806476153
 10
775.7617285531639
 20
1799.449440307421
  0
LINE
  5
161
330
87
100
AcDbEntity
  8
P-SANR-FIXT
100
AcDbLine
 10
772.4631650803034
 20
1796.464025158421
 30
0.0
 11
763.2530833288735
 21
1790.404079234025
 31
0.0
  0
LINE
  5
162
330
87
100
AcDbEntity
  8
P-SANR-FIXT
100
AcDbLine
 10
998.846180109961
 20
1853.531059258864
 30
0.0
 11
987.8400423800929
 21
1854.174085499236
 31
0.0
  0
LINE
  5
163
330
87
100
AcDbEntity
  8
P-SANR-FIXT
100
AcDbLine
 10
764.9620941612198
 20
1784.025963977023
 30
0.0
 11
765.5414160630859
 21
1781.863905205321
 31
0.0
  0
LINE
  5
164
330
87
100
AcDbEntity
  8
P-SANR-FIXT
100
AcDbLine
 10
1001.134512844173
 20
1844.990885230161
 30
0.0
 11
1000.555190942307
 21
1847.152944001862
 31
0.0
  0
LINE
  5
165
330
87
100
AcDbEntity
  8
P-SANR-FIXT
100
AcDbLine
 10
765.5414160630855
 20
1781.863905205321
 30
0.0
 11
772.5668024969792
 21
1780.625140027123
 31
0.0
  0
LINE
  5
166
330
87
100
AcDbEntity
  8
P-SANR-FIXT
100
AcDbLine
 10
995.6697323101181
 20
1840.40538989957
 30
0.0
 11
1001.134512844173
 21
1844.990885230161
 31
0.0
  0
LINE
  5
167
330
87
100
AcDbEntity
  8
P-SANR-FIXT
100
AcDbLine
 10
779.9434629030949
 20
1774.894177938222
 30
0.0
 11
794.8119205768416
 21
1741.983182180627
 31
0.0
  0
LINE
  5
168
330
87
100
AcDbEntity
  8
P-SANR-FIXT
100
AcDbLine
 10
995.7258738660204
 20
1795.817913712606
 30
0.0
 11
992.1468380477813
 21
1831.753900939399
 31
0.0
  0
LWPOLYLINE
  5
169
330
87
100
AcDbEntity
  8
P-SANR-FIXT
100
AcDbPolyline
 90
       15
 70
   128
 43
0.0
 10
977.6273218696719
 20
1660.917891225389
 10
977.6305397577987
 20
1660.717930448868
 10
977.6257587736417
 20
1660.518000938436
 10
977.6129865657553
 20
1660.318422538661
 10
977.5922435669482
 20
1660.119514532408
 10
977.563562961593
 20
1659.921595130055
 10
977.5269906325403
 20
1659.724980960427
 10
977.4825850877149
 20
1659.529986564251
 10
977.4304173665159
 20
1659.336923890966
 10
977.3705709261687
 20
1659.146101799664
 10
977.3031415082114
 20
1658.957825564985
 10
977.2282369853279
 20
1658.77239638874
 10
977.1459771887769
 20
1658.590110918056
 10
977.0564937166845
 20
1658.4112607708
 10
976.9607049733151
 20
1658.237474360542
  0
LWPOLYLINE
  5
16A
330
87
100
AcDbEntity
  8
P-SANR-FIXT
100
AcDbPolyline
 90
       15
 70
   128
 43
0.0
 10
879.8532532202615
 20
1632.217611084267
 10
879.6820940571791
 20
1632.321048059493
 10
879.5152081789403
 20
1632.431246837144
 10
879.3528625673506
 20
1632.548031122682
 10
879.1953169407562
 20
1632.671214086163
 10
879.0428233385517
 20
1632.800598661124
 10
878.8956257179707
 20
1632.935977859845
 10
878.7539595638058
 20
1633.077135104488
 10
878.6180515116823
 20
1633.223844573573
 10
878.4881189854925
 20
1633.375871563246
 10
878.3643698495598
 20
1633.532972862754
 10
878.2470020761044
 20
1633.694897143531
 10
878.136203428526
 20
1633.86138536127
 10
878.0321511610249
 20
1634.032171170338
 10
877.9357376210009
 20
1634.205611733779
  0
LINE
  5
16B
330
87
100
AcDbEntity
  8
P-SANR-FIXT
100
AcDbLine
 10
879.8532532202619
 20
1632.217611084267
 30
0.0
 11
881.8678588976391
 21
1631.054477954122
 31
0.0
  0
LINE
  5
16C
330
87
100
AcDbEntity
  8
P-SANR-FIXT
100
AcDbLine
 10
975.7975718431705
 20
1656.222868683165
 30
0.0
 11
976.9607049733151
 21
1658.237474360542
 31
0.0
  0
LWPOLYLINE
  5
16D
330
87
100
AcDbEntity
  8
P-SANR-FIXT
100
AcDbPolyline
 90
       21
 70
   128
 43
0.0
 10
975.7975718431707
 20
1656.222868683165
 10
975.6045524517565
 20
1655.872551423609
 10
975.4256964092318
 20
1655.514795663548
 10
975.2612898471101
 20
1655.150173735881
 10
975.1115957808197
 20
1654.779268957909
 10
974.9768536889337
 20
1654.402674698157
 10
974.8572791300553
 20
1654.020993427103
 10
974.753063397971
 20
1653.63483575336
 10
974.664373215621
 20
1653.24481944683
 10
974.5913504683768
 20
1652.851568450405
 10
974.5341119770571
 20
1652.45571188179
 10
974.4927493110379
 20
1652.057883027049
 10
974.4673286417606
 20
1651.658718327485
 10
974.457890636874
 20
1651.258856361467
 10
974.4644503951722
 20
1650.85893682284
 10
974.4869974224412
 20
1650.459599497555
 10
974.5254956482476
 20
1650.061483240145
 10
974.5798834836421
 20
1649.665224951695
 10
974.6500739196905
 20
1649.271458560935
 10
974.7359546666682
 20
1648.880814010093
 10
974.798567618124
 20
1648.634678232139
  0
LWPOLYLINE
  5
16E
330
87
100
AcDbEntity
  8
P-SANR-FIXT
100
AcDbPolyline
 90
       21
 70
   128
 43
0.0
 10
886.5271171605298
 20
1624.982414367303
 10
886.4158907713008
 20
1625.366611397671
 10
886.2893895678787
 20
1625.746053242144
 10
886.1478159252037
 20
1626.120132874715
 10
885.9913963309027
 20
1626.48825184777
 10
885.8203810229598
 20
1626.849821249481
 10
885.6350435893858
 20
1627.204262645935
 10
885.4356805305378
 20
1627.551009006509
 10
885.2226107847819
 20
1627.889505610994
 10
884.9961752182586
 20
1628.219210937032
 10
884.7567360795705
 20
1628.539597526434
 10
884.5046764202621
 20
1628.850152829002
 10
884.2403994820182
 20
1629.150380022503
 10
883.9643280515643
 20
1629.439798807469
 10
883.6769037842966
 20
1629.717946175586
 10
883.378586497729
 20
1629.984377150398
 10
883.0698534358825
 20
1630.238665499182
 10
882.7511985057967
 20
1630.480404414825
 10
882.4231314873829
 20
1630.70920716663
 10
882.0861772178872
 20
1630.924707719003
 10
881.8678588976389
 20
1631.054477954122
  0
LINE
  5
16F
330
87
100
AcDbEntity
  8
P-SANR-FIXT
100
AcDbLine
 10
886.52711716053
 20
1624.982414367303
 30
0.0
 11
890.6817179938848
 21
1612.916577434672
 31
0.0
  0
LINE
  5
170
330
87
100
AcDbEntity
  8
P-SANR-FIXT
100
AcDbLine
 10
977.23349622017
 20
1636.108056513883
 30
0.0
 11
974.798567618124
 21
1648.634678232139
 31
0.0
  0
LINE
  5
171
330
87
100
AcDbEntity
  8
P-SANR-FIXT
100
AcDbLine
 10
896.8842453930724
 20
1603.190501657806
 30
0.0
 11
898.5099689580305
 21
1598.469057596361
 31
0.0
  0
LINE
  5
172
330
87
100
AcDbEntity
  8
P-SANR-FIXT
100
AcDbLine
 10
977.6777919371758
 20
1619.682011830152
 30
0.0
 11
976.7249878132377
 21
1624.58376411239
 31
0.0
  0
LINE
  5
173
330
87
100
AcDbEntity
  8
P-SANR-FIXT
100
AcDbLine
 10
835.093101571957
 20
1715.011675630216
 30
0.0
 11
835.6239020681666
 21
1714.010525776507
 31
0.0
  0
LINE
  5
174
330
87
100
AcDbEntity
  8
P-SANR-FIXT
100
AcDbLine
 10
974.3679893178123
 20
1751.186891909643
 30
0.0
 11
974.3271011050172
 21
1752.319313364054
 31
0.0
  0
LWPOLYLINE
  5
175
330
87
100
AcDbEntity
  8
P-SANR-FIXT
100
AcDbPolyline
 90
       28
 70
   128
 43
0.0
 10
995.7258738660204
 20
1795.817913712606
 10
995.7575455219553
 20
1795.419196301381
 10
995.7732474001399
 20
1795.019531293123
 10
995.772954380919
 20
1794.619558066588
 10
995.7566669330603
 20
1794.219916493618
 10
995.7244111130066
 20
1793.821245915474
 10
995.6762385231884
 20
1793.424184120038
 10
995.6122262294737
 20
1793.029366321481
 10
995.5324766378771
 20
1792.637424144056
 10
995.4371173307327
 20
1792.248984611638
 10
995.3263008625894
 20
1791.864669144615
 10
995.2002045161574
 20
1791.485092565753
 10
995.0590300186913
 20
1791.110862116605
 10
994.9030032192714
 20
1790.742576486058
 10
994.7323737274931
 20
1790.380824852558
 10
994.5474145141442
 20
1790.026185941549
 10
994.3484214745099
 20
1789.679227099636
 10
994.1357129550045
 20
1789.340503386952
 10
993.9096292438835
 20
1789.010556689181
 10
993.6705320268561
 20
1788.689914850654
 10
993.4188038084649
 20
1788.379090829912
 10
993.1548473001601
 20
1788.078581879084
 10
992.8790847760474
 20
1787.788868748385
 10
992.5919573973391
 20
1787.510414917022
 10
992.2939245065906
 20
1787.243665851726
 10
991.9854628928501
 20
1786.989048294097
 10
991.6670660288978
 20
1786.746969577912
 10
991.4802932909049
 20
1786.614025003467
  0
LWPOLYLINE
  5
176
330
87
100
AcDbEntity
  8
P-SANR-FIXT
100
AcDbPolyline
 90
       18
 70
   128
 43
0.0
 10
799.1592572034512
 20
1737.308989562138
 10
798.8115107836335
 20
1737.506603061951
 10
798.471944956144
 20
1737.717964639835
 10
798.1411029538707
 20
1737.942736162356
 10
797.8195140534408
 20
1738.180558043024
 10
797.5076927284932
 20
1738.431049817565
 10
797.2061378266295
 20
1738.693810752573
 10
796.9153317713645
 20
1738.968420486606
 10
796.6357397903512
 20
1739.254439702669
 10
796.3678091711158
 20
1739.551410831031
 10
796.1119685454942
 20
1739.858858781237
 10
795.8686272039106
 20
1740.176291702152
 10
795.6381744406014
 20
1740.503201768818
 10
795.4209789308277
 20
1740.839065994866
 10
795.2173881410722
 20
1741.183347069181
 10
795.027727773168
 20
1741.535494215486
 10
794.8523012432454
 20
1741.894944073468
 10
794.8119205768416
 20
1741.983182180627
  0
LWPOLYLINE
  5
177
330
87
100
AcDbEntity
  8
P-SANR-FIXT
100
AcDbPolyline
 90
       26
 70
   128
 43
0.0
 10
991.4802932909051
 20
1786.614025003467
 10
990.1848427819572
 20
1785.675160442554
 10
988.9279730639248
 20
1784.685242669826
 10
987.7116948602388
 20
1783.645855342546
 10
986.5379539565664
 20
1782.558661258716
 10
985.4086280879684
 20
1781.425399696945
 10
984.325523934925
 20
1780.247883633984
 10
983.290374233031
 20
1779.027996844344
 10
982.3048350009889
 20
1777.767690886659
 10
981.3704828913333
 20
1776.46898198161
 10
980.4888126681218
 20
1775.133947786403
 10
979.6612348156317
 20
1773.764724070957
 10
978.8890732818865
 20
1772.363501301133
 10
978.1735633606214
 20
1770.93252113445
 10
977.5158497150759
 20
1769.474072833914
 10
976.9169845467789
 20
1767.990489605689
 10
976.3779259122479
 20
1766.484144866458
 10
975.8995361903055
 20
1764.957448446468
 10
975.4825807024555
 20
1763.412842734313
 10
975.1277264885331
 20
1761.852798769634
 10
974.835541239582
 20
1760.279812289982
 10
974.6064923896712
 20
1758.696399738173
 10
974.4409463680993
 20
1757.105094236514
 10
974.3391680131864
 20
1755.508441534346
 10
974.3013201485883
 20
1753.908995935391
 10
974.3271011050172
 20
1752.319313364054
  0
LWPOLYLINE
  5
178
330
87
100
AcDbEntity
  8
P-SANR-FIXT
100
AcDbPolyline
 90
        4
 70
   128
 43
0.0
 10
835.093101571957
 20
1715.011675630216
 10
834.3155526487844
 20
1716.409916080547
 10
833.4827109771749
 20
1717.775944423921
 10
832.6261155404026
 20
1719.064064577065
  0
LWPOLYLINE
  5
179
330
87
100
AcDbEntity
  8
P-SANR-FIXT
100
AcDbPolyline
 90
       26
 70
   128
 43
0.0
 10
995.6697323101181
 20
1840.40538989957
 10
995.3685378530151
 20
1840.142215875748
 10
995.0781084733398
 20
1839.867207797274
 10
994.7989087961449
 20
1839.580805618409
 10
994.5313854813546
 20
1839.283467521543
 10
994.2759665092038
 20
1838.975669184202
 10
994.0330604955615
 20
1838.657903018066
 10
993.8030560382321
 20
1838.330677381214
 10
993.5863210952829
 20
1837.994515764861
 10
993.3832023963878
 20
1837.649955955882
 10
993.1940248881359
 20
1837.297549176469
 10
993.0190912141837
 20
1836.937859202294
 10
992.8586812310934
 20
1836.571461460585
 10
992.7130515606183
 20
1836.198942109569
 10
992.5824351791652
 20
1835.82089710074
 10
992.4670410450815
 20
1835.437931225467
 10
992.3670537643653
 20
1835.050657147456
 10
992.2826332953363
 20
1834.659694422617
 10
992.2139146927364
 20
1834.26566850791
 10
992.1610078916701
 20
1833.869209760742
 10
992.1239975317336
 20
1833.470952430538
 10
992.1029428216073
 20
1833.071533644067
 10
992.0978774443357
 20
1832.671592386183
 10
992.1088095034424
 20
1832.271768477583
 10
992.1357215099646
 20
1831.87270155123
 10
992.1468380477813
 20
1831.753900939399
  0
LWPOLYLINE
  5
17A
330
87
100
AcDbEntity
  8
P-SANR-FIXT
100
AcDbPolyline
 90
       26
 70
   128
 43
0.0
 10
779.9434629030949
 20
1774.894177938222
 10
779.7715326561014
 20
1775.255313173242
 10
779.5852983773676
 20
1775.60928416249
 10
779.3850580020113
 20
1775.955524627892
 10
779.1711318719174
 20
1776.293480658563
 10
778.9438622232593
 20
1776.62261159695
 10
778.7036126389929
 20
1776.942390903761
 10
778.4507674672028
 20
1777.25230700032
 10
778.1857312062261
 20
1777.551864086987
 10
777.9089278575426
 20
1777.840582936323
 10
777.6208002474617
 20
1778.11800165976
 10
777.3218093186959
 20
1778.38367644652
 10
777.0124333929496
 20
1778.637182273619
 10
776.6931674057075
 20
1778.878113585811
 10
776.3645221144428
 20
1779.106084944394
 10
776.027023281514
 20
1779.320731643824
 10
775.681210833058
 20
1779.521710295171
 10
775.3276379952231
 20
1779.708699375466
 10
774.9668704091248
 20
1779.881399742071
 10
774.5994852259411
 20
1780.039535111238
 10
774.2260701835943
 20
1780.182852500111
 10
773.8472226664939
 20
1780.311122631441
 10
773.463548749851
 20
1780.424140300379
 10
773.0756622300863
 20
1780.521724702766
 10
772.6841836428866
 20
1780.603719724374
 10
772.5668024969793
 20
1780.625140027123
  0
LWPOLYLINE
  5
17B
330
87
100
AcDbEntity
  8
P-SANR-FIXT
100
AcDbPolyline
 90
       18
 70
   128
 43
0.0
 10
919.5521277055917
 20
1860.267049639223
 10
920.5822304339884
 20
1859.651666523441
 10
921.6361179511437
 20
1859.077968770767
 10
922.7121042618479
 20
1858.546874175222
 10
923.8084680175353
 20
1858.059232374866
 10
924.923455270075
 20
1857.615823492553
 10
926.0552822777144
 20
1857.217356887908
 10
927.2021383586849
 20
1856.864470022496
 10
928.3621887879068
 20
1856.557727440022
 10
929.5335777321568
 20
1856.297619863185
 10
930.7144312190079
 20
1856.08456340862
 10
931.9028601347824
 20
1855.918898921205
 10
933.0969632467336
 20
1855.80089142878
 10
934.2948302446103
 20
1855.730729718159
 10
935.4945447967477
 20
1855.708526033112
 10
936.6941876157877
 20
1855.734315894799
 10
937.8918395291297
 20
1855.808058044943
 10
938.4228392195323
 20
1855.85618144631
  0
LWPOLYLINE
  5
17C
330
87
100
AcDbEntity
  8
P-SANR-FIXT
100
AcDbPolyline
 90
       18
 70
   128
 43
0.0
 10
814.4186704277887
 20
1822.62936456047
 10
815.5020761328497
 20
1823.14515530145
 10
816.5639891005922
 20
1823.703858137652
 10
817.6027104967971
 20
1824.304579263721
 10
818.6165785888128
 20
1824.946357654002
 10
819.6039714039725
 20
1825.628166599977
 10
820.5633093244044
 20
1826.348915352776
 10
821.4930576140833
 20
1827.107450868146
 10
822.3917288740819
 20
1827.902559651077
 10
823.2578854220903
 20
1828.732969697127
 10
824.0901415924021
 20
1829.597352527369
 10
824.887165952683
 20
1830.494325313667
 10
825.6476834339796
 20
1831.422453090906
 10
826.3704773705567
 20
1832.380251052632
 10
827.0543914463038
 20
1833.366186926426
 10
827.6983315445933
 20
1834.378683425213
 10
828.301267498635
 20
1835.416120770581
 10
828.5557518898921
 20
1835.884644225248
  0
LINE
  5
17D
330
87
100
AcDbEntity
  8
P-SANR-FIXT
100
AcDbLine
 10
763.2530833288741
 20
1790.404079234025
 30
0.0
 11
764.1856370259128
 21
1786.92374145589
 31
0.0
  0
LINE
  5
17E
330
87
100
AcDbEntity
  8
P-SANR-FIXT
100
AcDbLine
 10
999.778733806999
 20
1850.050721480729
 30
0.0
 11
998.8461801099603
 21
1853.531059258864
 31
0.0
  0
LINE
  5
17F
330
87
100
AcDbEntity
  8
P-SANR-FIXT
100
AcDbLine
 10
767.0834145047803
 20
1787.700198591197
 30
0.0
 11
767.8598716400877
 21
1784.80242111233
 31
0.0
  0
LINE
  5
180
330
87
100
AcDbEntity
  8
P-SANR-FIXT
100
AcDbLine
 10
997.6574134634391
 20
1846.376486866554
 30
0.0
 11
996.8809563281318
 21
1849.274264345421
 31
0.0
  0
LWPOLYLINE
  5
181
330
87
100
AcDbEntity
  8
P-SANR-FIXT
100
AcDbPolyline
 90
       20
 70
   128
 43
0.0
 10
903.9923523249692
 20
1871.573785963137
 10
904.0479655195836
 20
1871.381687447953
 10
904.1112161212948
 20
1871.191966525717
 10
904.1820029426322
 20
1871.004926709431
 10
904.2602127397826
 20
1870.820867222904
 10
904.3457203937542
 20
1870.640082522048
 10
904.4383891105411
 20
1870.462861823821
 10
904.5380706399651
 20
1870.289488643534
 10
904.6446055128431
 20
1870.120240341291
 10
904.7578232961047
 20
1869.955387678272
 10
904.8775428654488
 20
1869.795194383572
 10
905.003572695103
 20
1869.639916732287
 10
905.135711164225
 20
1869.489803135537
 10
905.273746879452
 20
1869.345093743054
 10
905.4174590130857
 20
1869.206020058996
 10
905.5666176563695
 20
1869.07280457159
 10
905.7209841872927
 20
1868.945660397197
 10
905.8803116523357
 20
1868.824790939376
 10
906.0443451615425
 20
1868.710389563473
 10
906.1723851352486
 20
1868.627640707867
  0
LWPOLYLINE
  5
182
330
87
100
AcDbEntity
  8
P-SANR-FIXT
100
AcDbPolyline
 90
       20
 70
   128
 43
0.0
 10
835.9626533175834
 20
1849.814999766518
 10
836.0529912741691
 20
1849.993419834199
 10
836.136122070313
 20
1850.175309739591
 10
836.2119127144749
 20
1850.360378497648
 10
836.2802419577919
 20
1850.548330037835
 10
836.341000488051
 20
1850.738863677783
 10
836.3940911045645
 20
1850.931674604313
 10
836.4394288736718
 20
1851.126454361073
 10
836.4769412646134
 20
1851.322891342003
 10
836.506568265567
 20
1851.520671289838
 10
836.5282624796501
 20
1851.719477798853
 10
836.5419892007484
 20
1851.918992821041
 10
836.5477264690364
 20
1852.11889717493
 10
836.5454651061085
 20
1852.318871056196
 10
836.5352087296637
 20
1852.51859454929
 10
836.5169737477154
 20
1852.717748139226
 10
836.4907893323453
 20
1852.916013222745
 10
836.4566973730324
 20
1853.113072618008
 10
836.414752409639
 20
1853.308611072019
 10
836.3775444847343
 20
1853.456452805961
  0
LINE
  5
183
330
87
100
AcDbEntity
  8
P-SANR-FIXT
100
AcDbLine
 10
995.6664074431783
 20
1870.937499999994
 30
0.0
 11
995.6664074431783
 21
2070.051175676347
 31
0.0
  0
LINE
  5
184
330
87
100
AcDbEntity
  8
P-SANR-FIXT
100
AcDbLine
 10
995.6664074431783
 20
2070.320900689748
 30
0.0
 11
995.6664074431783
 21
2070.69929775301
 31
0.0
  0
LINE
  5
185
330
87
100
AcDbEntity
  8
P-SANR-FIXT
100
AcDbLine
 10
1012.666407443178
 20
1870.937499999994
 30
0.0
 11
1012.666407443178
 21
2070.937500000002
 31
0.0
  0
LINE
  5
186
330
87
100
AcDbEntity
  8
P-SANR-FIXT
100
AcDbLine
 10
1015.666407443177
 20
1901.937500000042
 30
0.0
 11
1015.666407443177
 21
2039.937499999955
 31
0.0
  0
LINE
  5
187
330
87
100
AcDbEntity
  8
P-SANR-FIXT
100
AcDbLine
 10
705.6664074431973
 20
1901.937500000029
 30
0.0
 11
705.6664074431973
 21
2039.937499999968
 31
0.0
  0
LINE
  5
188
330
87
100
AcDbEntity
  8
P-SANR-FIXT
100
AcDbLine
 10
708.6664074431952
 20
1870.937499999994
 30
0.0
 11
708.6664074431953
 21
2070.937500000002
 31
0.0
  0
LINE
  5
189
330
87
100
AcDbEntity
  8
P-SANR-FIXT
100
AcDbLine
 10
725.6664074431952
 20
1870.937499999994
 30
0.0
 11
725.6664074431952
 21
2070.051175676347
 31
0.0
  0
LINE
  5
18A
330
87
100
AcDbEntity
  8
P-SANR-FIXT
100
AcDbLine
 10
725.6664074431971
 20
2070.320900689748
 30
0.0
 11
725.6664074431971
 21
2070.732054719387
 31
0.0
  0
LINE
  5
18B
330
87
100
AcDbEntity
  8
P-SANR-FIXT
100
AcDbLine
 10
771.8955687480273
 20
2015.144320143416
 30
0.0
 11
766.5920021898125
 21
2034.937499999998
 31
0.0
  0
LINE
  5
18C
330
87
100
AcDbEntity
  8
P-SANR-FIXT
100
AcDbLine
 10
736.2720330223193
 20
2034.937499999998
 30
0.0
 11
736.2720330223193
 21
2012.710080179353
 31
0.0
  0
LWPOLYLINE
  5
18D
330
87
100
AcDbEntity
  8
P-SANR-FIXT
100
AcDbPolyline
 90
        3
 70
   128
 43
0.0
 10
736.2720330223193
 20
2012.710080179353
 10
754.1694904248398
 20
2013.276831101834
 10
772.1288221001802
 20
2013.855035696253
  0
SPLINE
  5
18E
330
87
100
AcDbEntity
  8
P-SANR-FIXT
100
AcDbSpline
210
0.0
220
0.0
230
1.0
 70
     8
 71
     3
 72
     9
 73
     5
 74
     0
 42
0.000000001
 43
0.0000000001
 40
0.0
 40
0.0
 40
0.0
 40
0.0
 40
0.5
 40
1.0
 40
1.0
 40
1.0
 40
1.0
 10
772.1288221001802
 20
2013.855035696253
 30
0.0
 10
772.1079642506457
 20
2014.071956248055
 30
0.0
 10
772.0482308424193
 20
2014.503757541051
 30
0.0
 10
771.9524620158773
 20
2014.931479212831
 30
0.0
 10
771.8955687480275
 20
2015.144320143416
 30
0.0
  0
LINE
  5
18F
330
87
100
AcDbEntity
  8
P-SANR-FIXT
100
AcDbLine
 10
905.1716799028039
 20
2034.937499999998
 30
0.0
 11
950.3354826360796
 21
1989.773697266721
 31
0.0
  0
LWPOLYLINE
  5
190
330
87
100
AcDbEntity
  8
P-SANR-FIXT
100
AcDbPolyline
 90
        3
 70
   128
 43
0.0
 10
950.3354826360796
 20
1989.773697266721
 10
967.6976888129466
 20
1995.035712446247
 10
985.0607818640559
 20
2000.294800463781
  0
LINE
  5
191
330
87
100
AcDbEntity
  8
P-SANR-FIXT
100
AcDbLine
 10
985.0607818640559
 20
2000.294800463781
 30
0.0
 11
985.0607818640559
 21
2034.937499999998
 31
0.0
  0
LWPOLYLINE
  5
192
330
87
100
AcDbEntity
  8
P-SANR-FIXT
100
AcDbPolyline
 90
        3
 70
   128
 43
0.0
 10
995.6664074431783
 20
1909.106418334813
 10
979.3706543612007
 20
1908.020682525398
 10
963.0747313626935
 20
1906.937499999997
  0
LINE
  5
193
330
87
100
AcDbEntity
  8
P-SANR-FIXT
100
AcDbLine
 10
793.1565861669453
 20
1906.937499999997
 30
0.0
 11
763.2273705682929
 21
1936.866715598649
 31
0.0
  0
SPLINE
  5
194
330
87
100
AcDbEntity
  8
P-SANR-FIXT
100
AcDbSpline
210
0.0
220
0.0
230
1.0
 70
     8
 71
     3
 72
    17
 73
    13
 74
     0
 42
0.000000001
 43
0.0000000001
 40
0.0
 40
0.0
 40
0.0
 40
0.0
 40
0.1666666666666666
 40
0.25
 40
0.3333333333333333
 40
0.4166666666666666
 40
0.5
 40
0.5833333333333333
 40
0.6666666666666666
 40
0.75
 40
0.8333333333333332
 40
1.0
 40
1.0
 40
1.0
 40
1.0
 10
763.2273705682929
 20
1936.866715598649
 30
0.0
 10
761.2131214503669
 20
1936.152910453937
 30
0.0
 10
758.171156098623
 20
1935.177721119294
 30
0.0
 10
754.0730809943982
 20
1934.061691759564
 30
0.0
 10
750.980339919658
 20
1933.330408639782
 30
0.0
 10
747.8609104808338
 20
1932.650354992875
 30
0.0
 10
744.7163001010863
 20
1932.032481373401
 30
0.0
 10
741.556859752788
 20
1931.551981589338
 30
0.0
 10
738.392940408311
 20
1931.28404944866
 30
0.0
 10
735.2260494908163
 20
1931.239635505928
 30
0.0
 10
730.9895613467833
 20
1931.405761943358
 30
0.0
 10
727.7992963095303
 20
1931.804310962815
 30
0.0
 10
725.6664074431971
 20
1932.189496501382
 30
0.0
  0
SPLINE
  5
195
330
87
100
AcDbEntity
  8
P-SANR-FIXT
100
AcDbSpline
210
0.0
220
0.0
230
1.0
 70
     8
 71
     3
 72
     9
 73
     5
 74
     0
 42
0.000000001
 43
0.0000000001
 40
0.4822900313158572
 40
0.4822900313158572
 40
0.4822900313158572
 40
0.4822900313158572
 40
0.5
 40
0.5002036994221832
 40
0.5002036994221832
 40
0.5002036994221832
 40
0.5002036994221832
 10
795.5055217703513
 20
1898.951567830725
 30
0.0
 10
795.5048567759116
 20
1898.942306314323
 30
0.0
 10
795.504599607191
 20
1898.937553677818
 30
0.0
 10
795.5045877836736
 20
1898.937500002392
 30
0.0
 10
795.5045876812118
 20
1898.937499999587
 30
0.0
  0
SPLINE
  5
196
330
87
100
AcDbEntity
  8
P-SANR-FIXT
100
AcDbSpline
210
0.0
220
0.0
230
1.0
 70
     8
 71
     3
 72
    31
 73
    27
 74
     0
 42
0.000000001
 43
0.0000000001
 40
0.5002045062192778
 40
0.5002045062192778
 40
0.5002045062192778
 40
0.5002045062192778
 40
0.5555555555555556
 40
0.5833333333333334
 40
0.6111111111111112
 40
0.6388888888888889
 40
0.6527777777777777
 40
0.6666666666666666
 40
0.6805555555555556
 40
0.6944444444444445
 40
0.7222222222222223
 40
0.75
 40
0.7638888888888889
 40
0.7708333333333333
 40
0.7777777777777778
 40
0.7847222222222224
 40
0.7916666666666668
 40
0.8055555555555555
 40
0.8333333333333332
 40
0.861111111111111
 40
0.875
 40
0.8888888888888889
 40
0.9027777777777776
 40
0.9166666666666666
 40
0.9444444444444444
 40
1.0
 40
1.0
 40
1.0
 40
1.0
 10
795.5045876799959
 20
1898.937499999583
 30
0.0
 10
795.5045599069966
 20
1898.93750054531
 30
0.0
 10
795.5080652239685
 20
1899.004873229737
 30
0.0
 10
795.5356342389693
 20
1899.227080719748
 30
0.0
 10
795.5687020035434
 20
1899.458935946287
 30
0.0
 10
795.5945751806803
 20
1899.704620128737
 30
0.0
 10
795.6100259965177
 20
1899.931470605328
 30
0.0
 10
795.6156871662755
 20
1900.116293039225
 30
0.0
 10
795.6217083292346
 20
1900.315888075813
 30
0.0
 10
795.6361449897651
 20
1900.601551215066
 30
0.0
 10
795.6535726572556
 20
1900.993289205075
 30
0.0
 10
795.6503170927551
 20
1901.425669084074
 30
0.0
 10
795.6257498257169
 20
1901.745926373672
 30
0.0
 10
795.6039635564654
 20
1901.933450251234
 30
0.0
 10
795.5828216117268
 20
1902.075976386478
 30
0.0
 10
795.5586454694122
 20
1902.22115830701
 30
0.0
 10
795.5249221061241
 20
1902.41916762373
 30
0.0
 10
795.4592822962341
 20
1902.775555306144
 30
0.0
 10
795.3426407155729
 20
1903.307433241878
 30
0.0
 10
795.1819568543944
 20
1903.851047909233
 30
0.0
 10
795.0194633120629
 20
1904.281102942543
 30
0.0
 10
794.8778260695781
 20
1904.597178012069
 30
0.0
 10
794.717769925906
 20
1904.907239150715
 30
0.0
 10
794.4842243245634
 20
1905.316430268769
 30
0.0
 10
794.0198219329122
 20
1906.015971363627
 30
0.0
 10
793.5271653834359
 20
1906.580851050215
 30
0.0
 10
793.1565861669453
 20
1906.937499999997
 30
0.0
  0
SPLINE
  5
197
330
87
100
AcDbEntity
  8
P-SANR-FIXT
100
AcDbSpline
210
0.0
220
0.0
230
1.0
 70
     8
 71
     3
 72
     9
 73
     5
 74
     0
 42
0.000000001
 43
0.0000000001
 40
0.0
 40
0.0
 40
0.0
 40
0.0
 40
0.5
 40
1.0
 40
1.0
 40
1.0
 40
1.0
 10
963.0747313626935
 20
1906.937499999997
 30
0.0
 10
958.7446422233631
 20
1906.651672619644
 30
0.0
 10
950.085142640659
 20
1906.070005538571
 30
0.0
 10
941.4270004498675
 20
1905.475572749615
 30
0.0
 10
937.09826870245
 20
1905.177328253902
 30
0.0
  0
SPLINE
  5
198
330
87
100
AcDbEntity
  8
P-SANR-FIXT
100
AcDbSpline
210
0.0
220
0.0
230
1.0
 70
     8
 71
     3
 72
    11
 73
     7
 74
     0
 42
0.000000001
 43
0.0000000001
 40
0.0
 40
0.0
 40
0.0
 40
0.0
 40
0.25
 40
0.5
 40
0.75
 40
1.0
 40
1.0
 40
1.0
 40
1.0
 10
937.09826870245
 20
1905.177328253902
 30
0.0
 10
934.5490442774881
 20
1905.196250508607
 30
0.0
 10
929.534463210053
 20
1904.92635765143
 30
0.0
 10
922.2641949563668
 20
1903.629473889834
 30
0.0
 10
915.2455300501474
 20
1901.626471337078
 30
0.0
 10
910.7341556776452
 20
1900.212702979826
 30
0.0
 10
908.5204023826387
 20
1899.689794973881
 30
0.0
  0
SPLINE
  5
199
330
87
100
AcDbEntity
  8
P-SANR-FIXT
100
AcDbSpline
210
0.0
220
0.0
230
1.0
 70
     8
 71
     3
 72
     9
 73
     5
 74
     0
 42
0.000000001
 43
0.0000000001
 40
0.0
 40
0.0
 40
0.0
 40
0.0
 40
0.5
 40
1.0
 40
1.0
 40
1.0
 40
1.0
 10
908.5204023826387
 20
1899.689794973881
 30
0.0
 10
908.4970348030674
 20
1899.44289147451
 30
0.0
 10
908.4615717557898
 20
1899.065258062116
 30
0.0
 10
908.4486529322431
 20
1898.937499999997
 30
0.0
 10
908.4478295764021
 20
1898.937499999997
 30
0.0
  0
SPLINE
  5
19A
330
87
100
AcDbEntity
  8
P-SANR-FIXT
100
AcDbSpline
210
0.0
220
0.0
230
1.0
 70
     8
 71
     3
 72
     9
 73
     5
 74
     0
 42
0.000000001
 43
0.0000000001
 40
0.4822900313158576
 40
0.4822900313158576
 40
0.4822900313158576
 40
0.4822900313158576
 40
0.5
 40
0.5002036994221898
 40
0.5002036994221898
 40
0.5002036994221898
 40
0.5002036994221898
 10
902.8227442993976
 20
2042.923432169269
 30
0.0
 10
902.8234092938374
 20
2042.932693685671
 30
0.0
 10
902.8236664625579
 20
2042.937446322177
 30
0.0
 10
902.8236782860755
 20
2042.937499997603
 30
0.0
 10
902.8236783885374
 20
2042.937500000407
 30
0.0
  0
SPLINE
  5
19B
330
87
100
AcDbEntity
  8
P-SANR-FIXT
100
AcDbSpline
210
0.0
220
0.0
230
1.0
 70
     8
 71
     3
 72
    31
 73
    27
 74
     0
 42
0.000000001
 43
0.0000000001
 40
0.5002045062192825
 40
0.5002045062192825
 40
0.5002045062192825
 40
0.5002045062192825
 40
0.5555555555555556
 40
0.5833333333333334
 40
0.6111111111111112
 40
0.6388888888888889
 40
0.6527777777777777
 40
0.6666666666666666
 40
0.6805555555555556
 40
0.6944444444444445
 40
0.7222222222222223
 40
0.75
 40
0.7638888888888889
 40
0.7708333333333333
 40
0.7777777777777778
 40
0.7847222222222224
 40
0.7916666666666668
 40
0.8055555555555555
 40
0.8333333333333332
 40
0.861111111111111
 40
0.875
 40
0.8888888888888889
 40
0.9027777777777776
 40
0.9166666666666666
 40
0.9444444444444444
 40
1.0
 40
1.0
 40
1.0
 40
1.0
 10
902.8236783897533
 20
2042.937500000411
 30
0.0
 10
902.8237061627523
 20
2042.937499454684
 30
0.0
 10
902.8202008457807
 20
2042.870126770258
 30
0.0
 10
902.7926318307795
 20
2042.647919280247
 30
0.0
 10
902.7595640662056
 20
2042.416064053707
 30
0.0
 10
902.7336908890688
 20
2042.170379871257
 30
0.0
 10
902.7182400732314
 20
2041.943529394667
 30
0.0
 10
902.7125789034734
 20
2041.75870696077
 30
0.0
 10
902.7065577405144
 20
2041.559111924182
 30
0.0
 10
902.6921210799839
 20
2041.273448784929
 30
0.0
 10
902.6746934124934
 20
2040.881710794919
 30
0.0
 10
902.6779489769939
 20
2040.449330915921
 30
0.0
 10
902.7025162440322
 20
2040.129073626323
 30
0.0
 10
902.7243025132834
 20
2039.941549748761
 30
0.0
 10
902.7454444580222
 20
2039.799023613517
 30
0.0
 10
902.7696206003369
 20
2039.653841692984
 30
0.0
 10
902.8033439636251
 20
2039.455832376264
 30
0.0
 10
902.868983773515
 20
2039.09944469385
 30
0.0
 10
902.985625354176
 20
2038.567566758117
 30
0.0
 10
903.1463092153547
 20
2038.023952090762
 30
0.0
 10
903.3088027576862
 20
2037.593897057452
 30
0.0
 10
903.4504400001711
 20
2037.277821987926
 30
0.0
 10
903.6104961438432
 20
2036.96776084928
 30
0.0
 10
903.8440417451857
 20
2036.558569731226
 30
0.0
 10
904.3084441368369
 20
2035.859028636368
 30
0.0
 10
904.8011006863131
 20
2035.294148949779
 30
0.0
 10
905.1716799028039
 20
2034.937499999998
 30
0.0
  0
SPLINE
  5
19C
330
87
100
AcDbEntity
  8
P-SANR-FIXT
100
AcDbSpline
210
0.0
220
0.0
230
1.0
 70
     8
 71
     3
 72
    29
 73
    25
 74
     0
 42
0.000000001
 43
0.0000000001
 40
0.0
 40
0.0
 40
0.0
 40
0.0
 40
0.0555555555555556
 40
0.0833333333333333
 40
0.0972222222222222
 40
0.1111111111111111
 40
0.125
 40
0.1388888888888889
 40
0.1666666666666666
 40
0.1944444444444444
 40
0.2083333333333333
 40
0.2222222222222222
 40
0.2361111111111111
 40
0.25
 40
0.2777777777777778
 40
0.3055555555555556
 40
0.3194444444444444
 40
0.3333333333333333
 40
0.3472222222222222
 40
0.3611111111111111
 40
0.3888888888888888
 40
0.4166666666666666
 40
0.4444444444444445
 40
0.4999476174825288
 40
0.4999476174825288
 40
0.4999476174825288
 40
0.4999476174825288
 10
985.0607818640559
 20
2034.937499999998
 30
0.0
 10
985.0396943540692
 20
2035.418892226581
 30
0.0
 10
984.978962991861
 20
2036.134988284629
 30
0.0
 10
984.857509252169
 20
2036.940569962529
 30
0.0
 10
984.7732787639881
 20
2037.389819996242
 30
0.0
 10
984.7037121651126
 20
2037.720797670325
 30
0.0
 10
984.6235772944941
 20
2038.04451970786
 30
0.0
 10
984.5003941514097
 20
2038.465421242801
 30
0.0
 10
984.3244604370235
 20
2038.971709704749
 30
0.0
 10
984.1354718529318
 20
2039.451013399153
 30
0.0
 10
983.9857461518411
 20
2039.817715030722
 30
0.0
 10
983.8785206687843
 20
2040.084534102978
 30
0.0
 10
983.7712172147897
 20
2040.341633619105
 30
0.0
 10
983.6206152218808
 20
2040.669812409676
 30
0.0
 10
983.4279981777903
 20
2041.05356881166
 30
0.0
 10
983.242298826774
 20
2041.401692619173
 30
0.0
 10
983.1057513563161
 20
2041.6582394991
 30
0.0
 10
983.0128107055488
 20
2041.839493306894
 30
0.0
 10
982.9255230275359
 20
2042.008949830612
 30
0.0
 10
982.810720578211
 20
2042.217921589891
 30
0.0
 10
982.6776154415739
 20
2042.446085969679
 30
0.0
 10
982.5439307858125
 20
2042.663091589424
 30
0.0
 10
982.4209285192914
 20
2042.872412251421
 30
0.0
 10
982.3884755314537
 20
2042.937462864524
 30
0.0
 10
982.3889828990832
 20
2042.93749989598
 30
0.0
  0
SPLINE
  5
19D
330
87
100
AcDbEntity
  8
P-SANR-FIXT
100
AcDbSpline
210
0.0
220
0.0
230
1.0
 70
     8
 71
     3
 72
     9
 73
     5
 74
     0
 42
0.000000001
 43
0.0000000001
 40
0.4999482572299394
 40
0.4999482572299394
 40
0.4999482572299394
 40
0.4999482572299394
 40
0.5
 40
0.5183109270629549
 40
0.5183109270629549
 40
0.5183109270629549
 40
0.5183109270629549
 10
982.3889829166361
 20
2042.937499897243
 30
0.0
 10
982.3889833901048
 20
2042.937499930835
 30
0.0
 10
982.3891582436747
 20
2042.937498492077
 30
0.0
 10
982.3917555334439
 20
2042.932755596824
 30
0.0
 10
982.3967495214644
 20
2042.923389884697
 30
0.0
  0
SPLINE
  5
19E
330
87
100
AcDbEntity
  8
P-SANR-FIXT
100
AcDbSpline
210
0.0
220
0.0
230
1.0
 70
     8
 71
     3
 72
    14
 73
    10
 74
     0
 42
0.000000001
 43
0.0000000001
 40
0.0
 40
0.0
 40
0.0
 40
0.0
 40
0.1428571428571428
 40
0.2857142857142857
 40
0.4285714285714286
 40
0.5714285714285714
 40
0.7142857142857144
 40
0.8571428571428571
 40
1.0
 40
1.0
 40
1.0
 40
1.0
 10
766.5920021898126
 20
2034.937499999998
 30
0.0
 10
766.4515856236094
 20
2035.453052802763
 30
0.0
 10
766.1641854556001
 20
2036.48170949391
 30
0.0
 10
765.7037495103584
 20
2037.957353584089
 30
0.0
 10
765.2428816311489
 20
2039.322852790156
 30
0.0
 10
764.8047807988592
 20
2040.532875314006
 30
0.0
 10
764.4179914311227
 20
2041.5449051932
 30
0.0
 10
764.1085362581764
 20
2042.316658851601
 30
0.0
 10
763.9773526544963
 20
2042.644450648129
 30
0.0
 10
763.9285771709697
 20
2042.756904536759
 30
0.0
  0
LWPOLYLINE
  5
19F
330
87
100
AcDbEntity
  8
P-SANR-FIXT
100
AcDbPolyline
 90
        3
 70
   128
 43
0.0
 10
761.3415010811012
 20
2042.063699587721
 10
761.0067658626291
 20
2042.715983036611
 10
760.7780765886738
 20
2042.937499999997
  0
SPLINE
  5
1A0
330
87
100
AcDbEntity
  8
P-SANR-FIXT
100
AcDbSpline
210
0.0
220
0.0
230
1.0
 70
     8
 71
     3
 72
     9
 73
     5
 74
     0
 42
0.000000001
 43
0.0000000001
 40
0.4816890729370451
 40
0.4816890729370451
 40
0.4816890729370451
 40
0.4816890729370451
 40
0.5
 40
0.5000517427700579
 40
0.5000517427700579
 40
0.5000517427700579
 40
0.5000517427700579
 10
738.9368821502722
 20
2042.923328090171
 30
0.0
 10
738.9417114232278
 20
2042.932706483809
 30
0.0
 10
738.9439818007598
 20
2042.937474281282
 30
0.0
 10
738.9438296534089
 20
2042.937500068056
 30
0.0
 10
738.9438292054494
 20
2042.937500103068
 30
0.0
  0
SPLINE
  5
1A1
330
87
100
AcDbEntity
  8
P-SANR-FIXT
100
AcDbSpline
210
0.0
220
0.0
230
1.0
 70
     8
 71
     3
 72
    29
 73
    25
 74
     0
 42
0.000000001
 43
0.0000000001
 40
0.5000523825174716
 40
0.5000523825174716
 40
0.5000523825174716
 40
0.5000523825174716
 40
0.5277777777777778
 40
0.5555555555555556
 40
0.5833333333333334
 40
0.6111111111111112
 40
0.6388888888888889
 40
0.6666666666666666
 40
0.6805555555555556
 40
0.6944444444444445
 40
0.7222222222222223
 40
0.75
 40
0.7638888888888889
 40
0.7777777777777778
 40
0.7916666666666668
 40
0.8055555555555555
 40
0.8333333333333332
 40
0.861111111111111
 40
0.875
 40
0.8888888888888889
 40
0.9027777777777776
 40
0.9166666666666666
 40
0.9444444444444444
 40
1.0
 40
1.0
 40
1.0
 40
1.0
 10
738.9438291888248
 20
2042.93750010435
 30
0.0
 10
738.9435889032171
 20
2042.937518366095
 30
0.0
 10
738.9320520639211
 20
2042.915914495946
 30
0.0
 10
738.8815898572045
 20
2042.820126446959
 30
0.0
 10
738.7887263490149
 20
2042.663102354583
 30
0.0
 10
738.6554199061406
 20
2042.446072594931
 30
0.0
 10
738.4947491870258
 20
2042.172331447768
 30
0.0
 10
738.350613490126
 20
2041.899933063545
 30
0.0
 10
738.2271319364701
 20
2041.658235474709
 30
0.0
 10
738.0904765287587
 20
2041.401694944796
 30
0.0
 10
737.9048304541138
 20
2041.053568003002
 30
0.0
 10
737.7121979587497
 20
2040.669812510026
 30
0.0
 10
737.5615979928199
 20
2040.341633600207
 30
0.0
 10
737.4542941316528
 20
2040.084534108034
 30
0.0
 10
737.347068757051
 20
2039.817715029397
 30
0.0
 10
737.1973430204313
 20
2039.451013399918
 30
0.0
 10
737.0083544538759
 20
2038.971709704483
 30
0.0
 10
736.8324207344041
 20
2038.465421242834
 30
0.0
 10
736.7092375919867
 20
2038.044519707853
 30
0.0
 10
736.6291027212342
 20
2037.720797670327
 30
0.0
 10
736.5595361223944
 20
2037.389819996242
 30
0.0
 10
736.4753056342019
 20
2036.940569962529
 30
0.0
 10
736.3538518945171
 20
2036.134988284629
 30
0.0
 10
736.293120532306
 20
2035.418892226581
 30
0.0
 10
736.2720330223193
 20
2034.937499999998
 30
0.0
  0
LINE
  5
1A2
330
87
100
AcDbEntity
  8
P-SANR-FIXT
100
AcDbLine
 10
827.2649632924597
 20
2126.374699430842
 30
0.0
 11
775.4031637151155
 21
2112.478372116068
 31
0.0
  0
LINE
  5
1A3
330
87
100
AcDbEntity
  8
P-SANR-FIXT
100
AcDbLine
 10
766.5564942506719
 20
2099.130152373264
 30
0.0
 11
841.6005136589536
 21
2119.238136770499
 31
0.0
  0
LINE
  5
1A4
330
87
100
AcDbEntity
  8
P-SANR-FIXT
100
AcDbLine
 10
765.8840626465456
 20
2095.844146326743
 30
0.0
 11
843.8258595336948
 21
2116.728587859285
 31
0.0
  0
LINE
  5
1A5
330
87
100
AcDbEntity
  8
P-SANR-FIXT
100
AcDbLine
 10
761.6503578903837
 20
2089.797789318096
 30
0.0
 11
850.515533908978
 21
2113.609141467527
 31
0.0
  0
LINE
  5
1A6
330
87
100
AcDbEntity
  8
P-SANR-FIXT
100
AcDbLine
 10
754.5637928486154
 20
2066.129522650544
 30
0.0
 11
757.85975515555
 21
2067.01267308897
 31
0.0
  0
LINE
  5
1A7
330
87
100
AcDbEntity
  8
P-SANR-FIXT
100
AcDbLine
 10
757.8597551555499
 20
2067.012673088971
 30
0.0
 11
776.4922968592435
 21
2072.005247591414
 31
0.0
  0
LINE
  5
1A8
330
87
100
AcDbEntity
  8
P-SANR-FIXT
100
AcDbLine
 10
776.4922968592437
 20
2072.005247591414
 30
0.0
 11
811.5253027215556
 21
2081.392313220655
 31
0.0
  0
LINE
  5
1A9
330
87
100
AcDbEntity
  8
P-SANR-FIXT
100
AcDbLine
 10
811.5253027215556
 20
2081.392313220655
 30
0.0
 11
847.8236200647941
 21
2091.118418039384
 31
0.0
  0
LINE
  5
1AA
330
87
100
AcDbEntity
  8
P-SANR-FIXT
100
AcDbLine
 10
847.8236200647938
 20
2091.118418039386
 30
0.0
 11
865.3480272215492
 21
2095.814068784872
 31
0.0
  0
LINE
  5
1AB
330
87
100
AcDbEntity
  8
P-SANR-FIXT
100
AcDbLine
 10
865.3480272215494
 20
2095.814068784871
 30
0.0
 11
868.2502066854389
 21
2096.591705428512
 31
0.0
  0
LINE
  5
1AC
330
87
100
AcDbEntity
  8
P-SANR-FIXT
100
AcDbLine
 10
878.6550375636348
 20
2043.750433596933
 30
0.0
 11
875.280858964007
 21
2056.343039564556
 31
0.0
  0
SPLINE
  5
1AD
330
87
100
AcDbEntity
  8
P-SANR-FIXT
100
AcDbSpline
210
0.0
220
0.0
230
1.0
 70
     8
 71
     3
 72
    17
 73
    13
 74
     0
 42
0.000000001
 43
0.0000000001
 40
0.0
 40
0.0
 40
0.0
 40
0.0
 40
0.1666666666666666
 40
0.3333333333333333
 40
0.5
 40
0.5833333333333333
 40
0.625
 40
0.6666666666666666
 40
0.7083333333333333
 40
0.75
 40
0.8333333333333332
 40
0.9996986138727363
 40
0.9996986138727363
 40
0.9996986138727363
 40
0.9996986138727363
 10
875.280858964007
 20
2056.343039564556
 30
0.0
 10
875.0400540729581
 20
2057.240198315372
 30
0.0
 10
874.5726854508049
 20
2059.031935368047
 30
0.0
 10
873.9086736216805
 20
2061.720821079515
 30
0.0
 10
873.3947614232913
 20
2063.938560338839
 30
0.0
 10
873.058805125124
 20
2065.465578523399
 30
0.0
 10
872.8734267670551
 20
2066.329348469784
 30
0.0
 10
872.7398731991327
 20
2066.967072298449
 30
0.0
 10
872.6099442205009
 20
2067.598690716685
 30
0.0
 10
872.440130448845
 20
2068.435081854776
 30
0.0
 10
872.162521950478
 20
2069.851927352082
 30
0.0
 10
871.9610919599688
 20
2070.963349161373
 30
0.0
 10
871.8337792530203
 20
2071.666012466861
 30
0.0
  0
LINE
  5
1AE
330
87
100
AcDbEntity
  8
P-SANR-FIXT
100
AcDbLine
 10
904.4578348164463
 20
1981.760708249506
 30
0.0
 11
890.9243294092791
 21
2032.268438033563
 31
0.0
  0
SPLINE
  5
1AF
330
87
100
AcDbEntity
  8
P-SANR-FIXT
100
AcDbSpline
210
0.0
220
0.0
230
1.0
 70
     8
 71
     3
 72
    18
 73
    14
 74
     0
 42
0.000000001
 43
0.0000000001
 40
0.0
 40
0.0
 40
0.0
 40
0.0
 40
0.1428571428571428
 40
0.2857142857142857
 40
0.3571428571428571
 40
0.4285714285714286
 40
0.5
 40
0.5714285714285714
 40
0.6785714285714287
 40
0.7321428571428572
 40
0.7857142857142857
 40
0.8928571428571427
 40
1.0
 40
1.0
 40
1.0
 40
1.0
 10
773.2482768278172
 20
2000.737234775877
 30
0.0
 10
774.6040092136466
 20
1998.746846786137
 30
0.0
 10
777.2560119332362
 20
1994.496720445664
 30
0.0
 10
780.2915273891992
 20
1988.365744464714
 30
0.0
 10
782.2584539144108
 20
1983.089045321127
 30
0.0
 10
783.4796867687211
 20
1979.014635151101
 30
0.0
 10
784.3765952023518
 20
1974.858237206437
 30
0.0
 10
785.0871637895989
 20
1970.015635639463
 30
0.0
 10
785.3169411835055
 20
1965.605572262077
 30
0.0
 10
785.2828241544354
 20
1961.76230590049
 30
0.0
 10
785.0814880080503
 20
1958.044407730616
 30
0.0
 10
784.6196729089348
 20
1953.769253303209
 30
0.0
 10
784.1233867643271
 20
1950.813107413895
 30
0.0
 10
783.8677534410846
 20
1949.448693329775
 30
0.0
  0
SPLINE
  5
1B0
330
87
100
AcDbEntity
  8
P-SANR-FIXT
100
AcDbSpline
210
0.0
220
0.0
230
1.0
 70
     8
 71
     3
 72
    15
 73
    11
 74
     0
 42
0.000000001
 43
0.0000000001
 40
-1.0
 40
-1.0
 40
-1.0
 40
-1.0
 40
-0.8
 40
-0.7
 40
-0.6
 40
-0.5
 40
-0.4
 40
-0.3
 40
-0.2
 40
-0.1000000000000001
 40
-0.1000000000000001
 40
-0.1000000000000001
 40
-0.1000000000000001
 10
806.2716856931404
 20
1818.948737617791
 30
0.0
 10
806.2724103864821
 20
1818.946033025415
 30
0.0
 10
805.4950555372188
 20
1818.567483476686
 30
0.0
 10
803.1127198429231
 20
1817.42097987067
 30
0.0
 10
800.7696437539189
 20
1816.312117419477
 30
0.0
 10
798.0040096775812
 20
1815.025672760205
 30
0.0
 10
794.9724725339257
 20
1813.640389429099
 30
0.0
 10
791.8444674914175
 20
1812.235269440179
 30
0.0
 10
788.79499122242
 20
1810.885121797576
 30
0.0
 10
786.9328371246829
 20
1810.074087735056
 30
0.0
 10
786.0708602332766
 20
1809.699941582329
 30
0.0
  0
SPLINE
  5
1B1
330
87
100
AcDbEntity
  8
P-SANR-FIXT
100
AcDbSpline
210
0.0
220
0.0
230
1.0
 70
     8
 71
     3
 72
     8
 73
     4
 74
     0
 42
0.000000001
 43
0.0000000001
 40
-0.011424857279558
 40
-0.011424857279558
 40
-0.011424857279558
 40
-0.011424857279558
 40
0.0
 40
0.0
 40
0.0
 40
0.0
 10
783.9613479964442
 20
1808.785903820336
 30
0.0
 10
783.8792193503194
 20
1808.750323462684
 30
0.0
 10
783.7982977882766
 20
1808.715257845651
 30
0.0
 10
783.7186226685075
 20
1808.680720546813
 30
0.0
  0
SPLINE
  5
1B2
330
87
100
AcDbEntity
  8
P-SANR-FIXT
100
AcDbSpline
210
0.0
220
0.0
230
1.0
 70
     8
 71
     3
 72
    19
 73
    15
 74
     0
 42
0.000000001
 43
0.0000000001
 40
0.0
 40
0.0
 40
0.0
 40
0.0
 40
0.1111111111111111
 40
0.2222222222222222
 40
0.3333333333333333
 40
0.3888888888888888
 40
0.4444444444444445
 40
0.5555555555555556
 40
0.6111111111111112
 40
0.6666666666666666
 40
0.7222222222222223
 40
0.7777777777777778
 40
0.8888888888888889
 40
1.0
 40
1.0
 40
1.0
 40
1.0
 10
900.7627408959667
 20
1883.626859904871
 30
0.0
 10
900.7727473586024
 20
1883.58951527791
 30
0.0
 10
899.6116165139378
 20
1883.253402072728
 30
0.0
 10
894.5226482761393
 20
1881.864312858544
 30
0.0
 10
887.8173903377303
 20
1880.439394407046
 30
0.0
 10
881.4492840429648
 20
1879.10869328688
 30
0.0
 10
874.5812606520891
 20
1877.642603275621
 30
0.0
 10
867.2272312716563
 20
1875.934306600884
 30
0.0
 10
859.9859962015608
 20
1874.060288008653
 30
0.0
 10
854.7339330531407
 20
1872.671933241993
 30
0.0
 10
849.8048764616537
 20
1871.348540220579
 30
0.0
 10
843.7995061508598
 20
1869.766946199125
 30
0.0
 10
837.5723762172333
 20
1868.436197117994
 30
0.0
 10
834.5789129867087
 20
1867.961313661202
 30
0.0
 10
833.6357154272372
 20
1867.90865278623
 30
0.0
  0
SPLINE
  5
1B3
330
87
100
AcDbEntity
  8
P-SANR-FIXT
100
AcDbSpline
210
0.0
220
0.0
230
1.0
 70
     8
 71
     3
 72
    22
 73
    18
 74
     0
 42
0.000000001
 43
0.0000000001
 40
0.0
 40
0.0
 40
0.0
 40
0.0
 40
0.2
 40
0.3
 40
0.35
 40
0.4
 40
0.475
 40
0.55
 40
0.5875
 40
0.60625
 40
0.625
 40
0.7
 40
0.775
 40
0.8125
 40
0.85
 40
0.925
 40
1.0
 40
1.0
 40
1.0
 40
1.0
 10
833.6357154272372
 20
1867.90865278623
 30
0.0
 10
833.7833275380921
 20
1867.102586835798
 30
0.0
 10
833.9732444674408
 20
1865.939111508728
 30
0.0
 10
834.1631625253397
 20
1864.63557396407
 30
0.0
 10
834.2615546647959
 20
1863.915588603473
 30
0.0
 10
834.3375426551604
 20
1863.314972959424
 30
0.0
 10
834.4165343221398
 20
1862.65281316351
 30
0.0
 10
834.482473144115
 20
1862.06817406007
 30
0.0
 10
834.5208864673416
 20
1861.695595220932
 30
0.0
 10
834.5401038737291
 20
1861.496117828355
 30
0.0
 10
834.5681188724848
 20
1861.202699455915
 30
0.0
 10
834.607114266581
 20
1860.787686132015
 30
0.0
 10
834.6413077833098
 20
1860.405922109468
 30
0.0
 10
834.6592560125911
 20
1860.172517503123
 30
0.0
 10
834.6732096358454
 20
1859.979188744327
 30
0.0
 10
834.6849281550841
 20
1859.810014423328
 30
0.0
 10
834.690327539622
 20
1859.753232168503
 30
0.0
 10
834.6926436717589
 20
1859.744588245691
 30
0.0
  0
LINE
  5
1B4
330
87
100
AcDbEntity
  8
P-SANR-FIXT
100
AcDbLine
 10
923.2604912514267
 20
1981.075698657919
 30
0.0
 11
937.0982687024413
 21
1905.177328253901
 31
0.0
  0
LINE
  5
1B5
330
87
100
AcDbEntity
  8
P-SANR-FIXT
100
AcDbLine
 10
895.6479110588366
 20
1970.293699247891
 30
0.0
 11
908.5204023826396
 21
1899.689794973881
 31
0.0
  0
SPLINE
  5
1B6
330
87
100
AcDbEntity
  8
P-SANR-FIXT
100
AcDbSpline
210
0.0
220
0.0
230
1.0
 70
     8
 71
     3
 72
    10
 73
     6
 74
     0
 42
0.000000001
 43
0.0000000001
 40
-1.0
 40
-1.0
 40
-1.0
 40
-1.0
 40
-0.6666666666666666
 40
-0.3333333333333333
 40
0.0
 40
0.0
 40
0.0
 40
0.0
 10
950.3354826360798
 20
1989.773697266721
 30
0.0
 10
949.7540077540797
 20
1989.510756211466
 30
0.0
 10
948.4958894456797
 20
1988.962005807508
 30
0.0
 10
946.3897025980037
 20
1988.163667070224
 30
0.0
 10
944.9178032856826
 20
1987.672406332256
 30
0.0
 10
944.1736543264058
 20
1987.450244202156
 30
0.0
  0
SPLINE
  5
1B7
330
87
100
AcDbEntity
  8
P-SANR-FIXT
100
AcDbSpline
210
0.0
220
0.0
230
1.0
 70
     8
 71
     3
 72
     9
 73
     5
 74
     0
 42
0.000000001
 43
0.0000000001
 40
-1.0
 40
-1.0
 40
-1.0
 40
-1.0
 40
-0.5
 40
0.0
 40
0.0
 40
0.0
 40
0.0
 10
923.2604912514267
 20
1981.075698657919
 30
0.0
 10
920.124438924379
 20
1980.022296948382
 30
0.0
 10
913.7839429305369
 20
1978.200828340236
 30
0.0
 10
907.3066642572015
 20
1976.950029353943
 30
0.0
 10
904.0338292506604
 20
1976.46729726626
 30
0.0
  0
LWPOLYLINE
  5
1B8
330
87
100
AcDbEntity
  8
P-SANR-FIXT
100
AcDbPolyline
 90
        3
 70
   128
 43
0.0
 10
944.1736543264058
 20
1987.450244202156
 10
933.7167239546582
 20
1984.264115861065
 10
923.2604912514267
 20
1981.075698657919
  0
SPLINE
  5
1B9
330
87
100
AcDbEntity
  8
P-SANR-FIXT
100
AcDbSpline
210
0.0
220
0.0
230
1.0
 70
     8
 71
     3
 72
     9
 73
     5
 74
     0
 42
0.000000001
 43
0.0000000001
 40
-1.0
 40
-1.0
 40
-1.0
 40
-1.0
 40
-0.5
 40
0.0
 40
0.0
 40
0.0
 40
0.0
 10
769.3958357701413
 20
1939.18353177104
 30
0.0
 10
771.9969859931008
 20
1939.925158845844
 30
0.0
 10
777.2020609876321
 20
1941.399131165121
 30
0.0
 10
782.412685079389
 20
1942.854539823733
 30
0.0
 10
785.0193843995739
 20
1943.577603237872
 30
0.0
  0
SPLINE
  5
1BA
330
87
100
AcDbEntity
  8
P-SANR-FIXT
100
AcDbSpline
210
0.0
220
0.0
230
1.0
 70
     8
 71
     3
 72
    10
 73
     6
 74
     0
 42
0.000000001
 43
0.0000000001
 40
0.0
 40
0.0
 40
0.0
 40
0.0
 40
0.4
 40
0.7
 40
1.0
 40
1.0
 40
1.0
 40
1.0
 10
884.794093101417
 20
2038.010617368016
 30
0.0
 10
885.9652337424137
 20
2037.768141281558
 30
0.0
 10
887.8700815163986
 20
2036.917727607966
 30
0.0
 10
889.950746657138
 20
2034.747761129721
 30
0.0
 10
890.6888987559618
 20
2033.136769888214
 30
0.0
 10
890.9243294092789
 20
2032.268438033563
 30
0.0
  0
SPLINE
  5
1BB
330
87
100
AcDbEntity
  8
P-SANR-FIXT
100
AcDbSpline
210
0.0
220
0.0
230
1.0
 70
     8
 71
     3
 72
    14
 73
    10
 74
     0
 42
0.000000001
 43
0.0000000001
 40
-1.0
 40
-1.0
 40
-1.0
 40
-1.0
 40
-0.8
 40
-0.6
 40
-0.5
 40
-0.4
 40
-0.3
 40
-0.2
 40
0.0
 40
0.0
 40
0.0
 40
0.0
 10
773.2482768278172
 20
2000.737234775877
 30
0.0
 10
772.9031366086497
 20
2001.245600190918
 30
0.0
 10
772.328419786414
 20
2002.289917390638
 30
0.0
 10
771.9118627955447
 20
2003.59307684303
 30
0.0
 10
771.7637229210589
 20
2004.606723483143
 30
0.0
 10
771.7492240564022
 20
2005.348544101784
 30
0.0
 10
771.830537945144
 20
2006.062773788153
 30
0.0
 10
772.0757821172581
 20
2006.974057317235
 30
0.0
 10
772.431628552459
 20
2007.607789701661
 30
0.0
 10
772.7369722633533
 20
2007.9850023333
 30
0.0
  0
SPLINE
  5
1BC
330
87
100
AcDbEntity
  8
P-SANR-FIXT
100
AcDbSpline
210
0.0
220
0.0
230
1.0
 70
     8
 71
     3
 72
     9
 73
     5
 74
     0
 42
0.000000001
 43
0.0000000001
 40
0.0
 40
0.0
 40
0.0
 40
0.0
 40
0.5
 40
1.0
 40
1.0
 40
1.0
 40
1.0
 10
904.457834816446
 20
1981.760708249506
 30
0.0
 10
904.692815532533
 20
1980.877835868157
 30
0.0
 10
904.8545146564311
 20
1979.063710203169
 30
0.0
 10
904.4044572422219
 20
1977.299089353274
 30
0.0
 10
904.0338292506604
 20
1976.46729726626
 30
0.0
  0
SPLINE
  5
1BD
330
87
100
AcDbEntity
  8
P-SANR-FIXT
100
AcDbSpline
210
0.0
220
0.0
230
1.0
 70
     8
 71
     3
 72
     9
 73
     5
 74
     0
 42
0.000000001
 43
0.0000000001
 40
-1.0
 40
-1.0
 40
-1.0
 40
-1.0
 40
-0.5
 40
0.0
 40
0.0
 40
0.0
 40
0.0
 10
785.0193843995739
 20
1943.577603237872
 30
0.0
 10
784.5343470972899
 20
1944.078989711507
 30
0.0
 10
783.6959986711469
 20
1945.526575966315
 30
0.0
 10
783.5974087789487
 20
1948.006041510535
 30
0.0
 10
783.8677534410846
 20
1949.448693329775
 30
0.0
  0
SPLINE
  5
1BE
330
87
100
AcDbEntity
  8
P-SANR-FIXT
100
AcDbSpline
210
0.0
220
0.0
230
1.0
 70
     8
 71
     3
 72
    10
 73
     6
 74
     0
 42
0.000000001
 43
0.0000000001
 40
0.0
 40
0.0
 40
0.0
 40
0.0
 40
0.3333333333333333
 40
0.6666666666666666
 40
1.0
 40
1.0
 40
1.0
 40
1.0
 10
788.3310737209367
 20
1942.739167277633
 30
0.0
 10
787.9449947160419
 20
1942.753783152429
 30
0.0
 10
787.1847947675221
 20
1942.835403691749
 30
0.0
 10
786.0708416552559
 20
1943.117134315601
 30
0.0
 10
785.3648255340119
 20
1943.406887716725
 30
0.0
 10
785.0193843995739
 20
1943.577603237872
 30
0.0
  0
SPLINE
  5
1BF
330
87
100
AcDbEntity
  8
P-SANR-FIXT
100
AcDbSpline
210
0.0
220
0.0
230
1.0
 70
     8
 71
     3
 72
     9
 73
     5
 74
     0
 42
0.000000001
 43
0.0000000001
 40
-1.0
 40
-1.0
 40
-1.0
 40
-1.0
 40
-0.5
 40
0.0
 40
0.0
 40
0.0
 40
0.0
 10
889.1625769694449
 20
1969.756887144686
 30
0.0
 10
886.7485608651445
 20
1969.194221276342
 30
0.0
 10
880.957592309207
 20
1967.747251392556
 30
0.0
 10
873.7568594833854
 20
1965.713105382793
 30
0.0
 10
869.9511607113766
 20
1964.609203672879
 30
0.0
  0
SPLINE
  5
1C0
330
87
100
AcDbEntity
  8
P-SANR-FIXT
100
AcDbSpline
210
0.0
220
0.0
230
1.0
 70
     8
 71
     3
 72
     9
 73
     5
 74
     0
 42
0.000000001
 43
0.0000000001
 40
-1.0
 40
-1.0
 40
-1.0
 40
-1.0
 40
-0.5
 40
0.0
 40
0.0
 40
0.0
 40
0.0
 10
904.0338292506604
 20
1976.46729726626
 30
0.0
 10
903.5595582953373
 20
1975.936718561794
 30
0.0
 10
902.2914190495766
 20
1974.605300799764
 30
0.0
 10
900.153621642759
 20
1973.035355644748
 30
0.0
 10
898.8353446062701
 20
1972.348697421548
 30
0.0
  0
SPLINE
  5
1C1
330
87
100
AcDbEntity
  8
P-SANR-FIXT
100
AcDbSpline
210
0.0
220
0.0
230
1.0
 70
     8
 71
     3
 72
     9
 73
     5
 74
     0
 42
0.000000001
 43
0.0000000001
 40
0.1437336120039454
 40
0.1437336120039454
 40
0.1437336120039454
 40
0.1437336120039454
 40
0.5
 40
1.0
 40
1.0
 40
1.0
 40
1.0
 10
806.1078920140285
 20
1916.968424346117
 30
0.0
 10
804.4819914802731
 20
1919.814240876712
 30
0.0
 10
800.7145028864549
 20
1926.728754388673
 30
0.0
 10
797.2841517394449
 20
1933.82293074972
 30
0.0
 10
795.3960206752636
 20
1938.026696696079
 30
0.0
  0
SPLINE
  5
1C2
330
87
100
AcDbEntity
  8
P-SANR-FIXT
100
AcDbSpline
210
0.0
220
0.0
230
1.0
 70
     8
 71
     3
 72
    13
 73
     9
 74
     0
 42
0.000000001
 43
0.0000000001
 40
-1.0
 40
-1.0
 40
-1.0
 40
-1.0
 40
-0.875
 40
-0.8125
 40
-0.75
 40
-0.6875
 40
-0.625
 40
-0.5833333333333334
 40
-0.5833333333333334
 40
-0.5833333333333334
 40
-0.5833333333333334
 10
804.0587634821179
 20
1940.347871635414
 30
0.0
 10
803.8083453430061
 20
1939.297809050819
 30
0.0
 10
803.5470983348178
 20
1937.692675945592
 30
0.0
 10
803.4173646581992
 20
1935.487096027638
 30
0.0
 10
803.4194860016091
 20
1933.804989800744
 30
0.0
 10
803.5439665943462
 20
1932.072817536343
 30
0.0
 10
803.755041249509
 20
1930.491419564055
 30
0.0
 10
803.9207611156774
 20
1929.495749983473
 30
0.0
 10
803.9910197246392
 20
1929.097533068815
 30
0.0
  0
SPLINE
  5
1C3
330
87
100
AcDbEntity
  8
P-SANR-FIXT
100
AcDbSpline
210
0.0
220
0.0
230
1.0
 70
     8
 71
     3
 72
    10
 73
     6
 74
     0
 42
0.000000001
 43
0.0000000001
 40
0.0
 40
0.0
 40
0.0
 40
0.0
 40
0.4
 40
0.7
 40
1.0
 40
1.0
 40
1.0
 40
1.0
 10
795.3960206752636
 20
1938.026696696079
 30
0.0
 10
794.8948940227364
 20
1939.132072089441
 30
0.0
 10
793.6170141672687
 20
1940.814014814966
 30
0.0
 10
790.9918178537864
 20
1942.348173430316
 30
0.0
 10
789.2375956824698
 20
1942.704015112677
 30
0.0
 10
788.3310737209367
 20
1942.739167277633
 30
0.0
  0
SPLINE
  5
1C4
330
87
100
AcDbEntity
  8
P-SANR-FIXT
100
AcDbSpline
210
0.0
220
0.0
230
1.0
 70
     8
 71
     3
 72
     8
 73
     4
 74
     0
 42
0.000000001
 43
0.0000000001
 40
-1.0
 40
-1.0
 40
-1.0
 40
-1.0
 40
-0.9629629629629629
 40
-0.9629629629629629
 40
-0.9629629629629629
 40
-0.9629629629629629
 10
869.9511607113775
 20
1964.609203672879
 30
0.0
 10
869.0540780912566
 20
1964.353622422448
 30
0.0
 10
868.1466372429657
 20
1964.09532104727
 30
0.0
 10
867.2301064731428
 20
1963.8348124971
 30
0.0
  0
SPLINE
  5
1C5
330
87
100
AcDbEntity
  8
P-SANR-FIXT
100
AcDbSpline
210
0.0
220
0.0
230
1.0
 70
     8
 71
     3
 72
    26
 73
    22
 74
     0
 42
0.000000001
 43
0.0000000001
 40
-0.9562307557707415
 40
-0.9562307557707415
 40
-0.9562307557707415
 40
-0.9562307557707415
 40
-0.8333333333333332
 40
-0.6666666666666666
 40
-0.6111111111111112
 40
-0.5555555555555556
 40
-0.5
 40
-0.4722222222222223
 40
-0.4444444444444445
 40
-0.3888888888888888
 40
-0.3333333333333333
 40
-0.2777777777777778
 40
-0.25
 40
-0.2222222222222222
 40
-0.1944444444444444
 40
-0.1666666666666666
 40
-0.1388888888888889
 40
-0.1111111111111111
 40
-0.0833333333333333
 40
-0.0555555555555556
 40
0.0
 40
0.0
 40
0.0
 40
0.0
 10
866.7294208138557
 20
1963.692539200968
 30
0.0
 10
863.6773343622481
 20
1962.825505515864
 30
0.0
 10
856.256341378997
 20
1960.727807650673
 30
0.0
 10
847.0727381421889
 20
1958.197642810884
 30
0.0
 10
839.6638917616774
 20
1956.215260968785
 30
0.0
 10
835.2442896521038
 20
1955.029328291816
 30
0.0
 10
831.6143359461086
 20
1954.050282554814
 30
0.0
 10
828.7611267326635
 20
1953.272355387783
 30
0.0
 10
825.966551225078
 20
1952.486051344105
 30
0.0
 10
822.5896649452121
 20
1951.505999404591
 30
0.0
 10
818.773009247271
 20
1950.319370216307
 30
0.0
 10
815.8415305538049
 20
1949.302355451123
 30
0.0
 10
813.6687304799089
 20
1948.465815390127
 30
0.0
 10
812.1484269250981
 20
1947.812590506708
 30
0.0
 10
810.7073058975331
 20
1947.139153569232
 30
0.0
 10
809.3496196743677
 20
1946.444080411314
 30
0.0
 10
808.1241676290179
 20
1945.70098202872
 30
0.0
 10
807.0718298942773
 20
1944.873154883062
 30
0.0
 10
806.1838337404219
 20
1943.933310315736
 30
0.0
 10
805.1448174840817
 20
1942.531226672691
 30
0.0
 10
804.4963753025225
 20
1941.279437485388
 30
0.0
 10
804.058763482118
 20
1940.347871635414
 30
0.0
  0
SPLINE
  5
1C6
330
87
100
AcDbEntity
  8
P-SANR-FIXT
100
AcDbSpline
210
0.0
220
0.0
230
1.0
 70
     8
 71
     3
 72
     9
 73
     5
 74
     0
 42
0.000000001
 43
0.0000000001
 40
-1.0
 40
-1.0
 40
-1.0
 40
-1.0
 40
-0.5
 40
0.0
 40
0.0
 40
0.0
 40
0.0
 10
895.6479110588366
 20
1970.293699247891
 30
0.0
 10
895.010168443868
 20
1970.503532230119
 30
0.0
 10
893.3293196378622
 20
1970.573858824087
 30
0.0
 10
890.7042904355852
 20
1970.096056735411
 30
0.0
 10
889.1625769694449
 20
1969.756887144686
 30
0.0
  0
SPLINE
  5
1C7
330
87
100
AcDbEntity
  8
P-SANR-FIXT
100
AcDbSpline
210
0.0
220
0.0
230
1.0
 70
     8
 71
     3
 72
     9
 73
     5
 74
     0
 42
0.000000001
 43
0.0000000001
 40
-1.0
 40
-1.0
 40
-1.0
 40
-1.0
 40
-0.5
 40
0.0
 40
0.0
 40
0.0
 40
0.0
 10
898.8353446062701
 20
1972.348697421548
 30
0.0
 10
898.2519471114878
 20
1972.044985315412
 30
0.0
 10
897.1425302475328
 20
1971.382422535114
 30
0.0
 10
896.1335184747795
 20
1970.659889517864
 30
0.0
 10
895.6479110588366
 20
1970.293699247891
 30
0.0
  0
LINE
  5
1C8
330
87
100
AcDbEntity
  8
P-SANR-FIXT
100
AcDbLine
 10
725.6664074431952
 20
2070.320900689748
 30
0.0
 11
738.9509583924924
 21
2070.320900689748
 31
0.0
  0
LINE
  5
1C9
330
87
100
AcDbEntity
  8
P-SANR-FIXT
100
AcDbLine
 10
725.6664074431954
 20
2070.320900689748
 30
0.0
 11
725.6664074431951
 21
2070.051175676347
 31
0.0
  0
SPLINE
  5
1CA
330
87
100
AcDbEntity
  8
P-SANR-FIXT
100
AcDbSpline
210
0.0
220
0.0
230
1.0
 70
     8
 71
     3
 72
    11
 73
     7
 74
     0
 42
0.000000001
 43
0.0000000001
 40
-1.0
 40
-1.0
 40
-1.0
 40
-1.0
 40
-0.75
 40
-0.5
 40
-0.25
 40
0.0
 40
0.0
 40
0.0
 40
0.0
 10
736.2720330223192
 20
2012.710080179353
 30
0.0
 10
735.6498307958483
 20
2012.483815321106
 30
0.0
 10
734.2158260964081
 20
2012.002539321541
 30
0.0
 10
731.624328497083
 20
2011.169158610764
 30
0.0
 10
728.7290134688023
 20
2010.299994775205
 30
0.0
 10
726.6873113054042
 20
2009.729122327621
 30
0.0
 10
725.666407443197
 20
2009.443126504028
 30
0.0
  0
LINE
  5
1CB
330
87
100
AcDbEntity
  8
P-SANR-FIXT
100
AcDbLine
 10
874.7206828130019
 20
2072.443559771285
 30
0.0
 11
871.8185033491122
 21
2071.665923127645
 31
0.0
  0
LINE
  5
1CC
330
87
100
AcDbEntity
  8
P-SANR-FIXT
100
AcDbLine
 10
871.8185033491122
 20
2071.665923127645
 30
0.0
 11
854.2940961923571
 21
2066.970272382159
 31
0.0
  0
LINE
  5
1CD
330
87
100
AcDbEntity
  8
P-SANR-FIXT
100
AcDbLine
 10
854.2940961923571
 20
2066.970272382159
 30
0.0
 11
817.9957788491185
 21
2057.244167563429
 31
0.0
  0
LINE
  5
1CE
330
87
100
AcDbEntity
  8
P-SANR-FIXT
100
AcDbLine
 10
817.9957788491185
 20
2057.244167563429
 30
0.0
 11
782.9627729868067
 21
2047.857101934188
 31
0.0
  0
LINE
  5
1CF
330
87
100
AcDbEntity
  8
P-SANR-FIXT
100
AcDbLine
 10
782.9627729868067
 20
2047.857101934188
 30
0.0
 11
764.3302312831129
 21
2042.864527431744
 31
0.0
  0
LINE
  5
1D0
330
87
100
AcDbEntity
  8
P-SANR-FIXT
100
AcDbLine
 10
764.3302312831129
 20
2042.864527431744
 30
0.0
 11
761.3415010811012
 21
2042.06369958772
 31
0.0
  0
LINE
  5
1D1
330
87
100
AcDbEntity
  8
P-SANR-FIXT
100
AcDbLine
 10
865.3480272215492
 20
2095.814068784872
 30
0.0
 11
871.8185033491122
 21
2071.665923127645
 31
0.0
  0
LINE
  5
1D2
330
87
100
AcDbEntity
  8
P-SANR-FIXT
100
AcDbLine
 10
757.8597551555499
 20
2067.012673088971
 30
0.0
 11
764.3302312831129
 21
2042.864527431744
 31
0.0
  0
LINE
  5
1D3
330
87
100
AcDbEntity
  8
P-SANR-FIXT
100
AcDbLine
 10
847.8236200647938
 20
2091.118418039386
 30
0.0
 11
854.2940961923569
 21
2066.970272382159
 31
0.0
  0
LINE
  5
1D4
330
87
100
AcDbEntity
  8
P-SANR-FIXT
100
AcDbLine
 10
874.7206828130019
 20
2072.443559771285
 30
0.0
 11
868.2502066854389
 21
2096.591705428512
 31
0.0
  0
LINE
  5
1D5
330
87
100
AcDbEntity
  8
P-SANR-FIXT
100
AcDbLine
 10
760.7780765886738
 20
2042.937499999997
 30
0.0
 11
754.5637928486154
 21
2066.129522650544
 31
0.0
  0
LINE
  5
1D6
330
87
100
AcDbEntity
  8
P-SANR-FIXT
100
AcDbLine
 10
782.9627729868067
 20
2047.857101934188
 30
0.0
 11
776.4922968592436
 21
2072.005247591414
 31
0.0
  0
LINE
  5
1D7
330
87
100
AcDbEntity
  8
P-SANR-FIXT
100
AcDbLine
 10
817.9957788491185
 20
2057.244167563429
 30
0.0
 11
811.5253027215555
 21
2081.392313220655
 31
0.0
  0
SPLINE
  5
1D8
330
87
100
AcDbEntity
  8
P-SANR-FIXT
100
AcDbSpline
210
0.0
220
0.0
230
1.0
 70
     8
 71
     3
 72
    17
 73
    13
 74
     0
 42
0.000000001
 43
0.0000000001
 40
-1.0
 40
-1.0
 40
-1.0
 40
-1.0
 40
-0.8333333333333332
 40
-0.75
 40
-0.6666666666666666
 40
-0.5833333333333333
 40
-0.5
 40
-0.4166666666666666
 40
-0.3333333333333333
 40
-0.25
 40
-0.1666666666666666
 40
0.0
 40
0.0
 40
0.0
 40
0.0
 10
772.7369722633533
 20
2007.9850023333
 30
0.0
 10
773.0426454100021
 20
2008.391276521977
 30
0.0
 10
773.3555846898151
 20
2009.049956951855
 30
0.0
 10
773.5296468197681
 20
2009.914690677835
 30
0.0
 10
773.5586819165797
 20
2010.541264901303
 30
0.0
 10
773.4913517048261
 20
2011.113701963736
 30
0.0
 10
773.3521982730049
 20
2011.623221735185
 30
0.0
 10
773.1725611878906
 20
2012.085295235178
 30
0.0
 10
772.9745242576645
 20
2012.518568420785
 30
0.0
 10
772.7655405689171
 20
2012.923312573159
 30
0.0
 10
772.4753433387101
 20
2013.399901644159
 30
0.0
 10
772.2606540548631
 20
2013.691063988707
 30
0.0
 10
772.1288221001802
 20
2013.855035696253
 30
0.0
  0
SPLINE
  5
1D9
330
87
100
AcDbEntity
  8
P-SANR-FIXT
100
AcDbSpline
210
0.0
220
0.0
230
1.0
 70
     8
 71
     3
 72
    10
 73
     6
 74
     0
 42
0.000000001
 43
0.0000000001
 40
0.0
 40
0.0
 40
0.0
 40
0.0
 40
0.4
 40
0.7
 40
1.0
 40
1.0
 40
1.0
 40
1.0
 10
878.6550375636345
 20
2043.750433596933
 30
0.0
 10
878.9682912622707
 20
2042.594470560171
 30
0.0
 10
879.9451538624859
 20
2040.748815335121
 30
0.0
 10
882.2575773862874
 20
2038.826452224125
 30
0.0
 10
883.9133203176558
 20
2038.193262917645
 30
0.0
 10
884.794093101417
 20
2038.010617368016
 30
0.0
  0
LINE
  5
1DA
330
87
100
AcDbEntity
  8
P-SANR-FIXT
100
AcDbLine
 10
953.2821529290734
 20
1587.258719290558
 30
0.0
 11
953.2850638363182
 21
1587.259499265803
 31
0.0
  0
LINE
  5
1DB
330
87
100
AcDbEntity
  8
P-SANR-FIXT
100
AcDbLine
 10
941.3245213630442
 20
1572.666643584541
 30
0.0
 11
953.5005089086794
 21
1575.929189614445
 31
0.0
  0
LINE
  5
1DC
330
87
100
AcDbEntity
  8
P-SANR-FIXT
100
AcDbLine
 10
781.7348885917088
 20
1825.519838341903
 30
0.0
 11
797.1897018123343
 21
1829.660943063544
 31
0.0
  0
LINE
  5
1DD
330
87
100
AcDbEntity
  8
P-SANR-FIXT
100
AcDbLine
 10
831.6219259966585
 20
1693.430726379724
 30
0.0
 11
820.0308160811907
 21
1690.324897838494
 31
0.0
  0
LINE
  5
1DE
330
87
100
AcDbEntity
  8
P-SANR-FIXT
100
AcDbLine
 10
829.2925545907358
 20
1702.124058816325
 30
0.0
 11
817.701444675268
 21
1699.018230275095
 31
0.0
  0
LINE
  5
1DF
330
87
100
AcDbEntity
  8
P-SANR-FIXT
100
AcDbLine
 10
830.8015024986
 20
1706.151846821094
 30
0.0
 11
814.3807634516866
 21
1701.751923054351
 31
0.0
  0
LINE
  5
1E0
330
87
100
AcDbEntity
  8
P-SANR-FIXT
100
AcDbLine
 10
829.6368167956385
 20
1710.498513039394
 30
0.0
 11
813.2160777487253
 21
1706.098589272652
 31
0.0
  0
LINE
  5
1E1
330
87
100
AcDbEntity
  8
P-SANR-FIXT
100
AcDbLine
 10
830.6974769674184
 20
1712.335630346482
 30
0.0
 11
811.378960441638
 21
1707.159249444432
 31
0.0
  0
LINE
  5
1E2
330
87
100
AcDbEntity
  8
P-SANR-FIXT
100
AcDbLine
 10
832.6867342452391
 20
1719.080307310072
 30
0.0
 11
805.962342865866
 21
1711.919528221756
 31
0.0
  0
LINE
  5
1E3
330
87
100
AcDbEntity
  8
P-SANR-FIXT
100
AcDbLine
 10
804.5381710406839
 20
1825.418302376424
 30
0.0
 11
777.4922479045897
 21
1818.171369113554
 31
0.0
  0
SPLINE
  5
1E4
330
87
100
AcDbEntity
  8
P-SANR-FIXT
100
AcDbSpline
210
0.0
220
0.0
230
1.0
 70
     8
 71
     3
 72
    31
 73
    27
 74
     0
 42
0.000000001
 43
0.0000000001
 40
-1.0
 40
-1.0
 40
-1.0
 40
-1.0
 40
-0.8571428571428571
 40
-0.7857142857142857
 40
-0.7142857142857144
 40
-0.6785714285714287
 40
-0.6428571428571428
 40
-0.6071428571428572
 40
-0.5892857142857143
 40
-0.5714285714285714
 40
-0.5535714285714287
 40
-0.5357142857142857
 40
-0.5
 40
-0.4642857142857144
 40
-0.4285714285714286
 40
-0.3928571428571428
 40
-0.3571428571428571
 40
-0.3214285714285714
 40
-0.2857142857142857
 40
-0.25
 40
-0.2142857142857143
 40
-0.1785714285714286
 40
-0.1428571428571428
 40
-0.1071428571428571
 40
-0.0714285714285714
 40
0.0
 40
0.0
 40
0.0
 40
0.0
 10
809.439381031014
 20
1899.139986510167
 30
0.0
 10
809.8408924542569
 20
1897.178215850523
 30
0.0
 10
810.5634897172095
 20
1894.274394207139
 30
0.0
 10
811.838955124098
 20
1890.54312920241
 30
0.0
 10
812.7785678772823
 20
1888.285997511921
 30
0.0
 10
813.6042386702877
 20
1886.522816132998
 30
0.0
 10
814.2578786778372
 20
1885.217609266151
 30
0.0
 10
814.8427660216393
 20
1884.152667812934
 30
0.0
 10
815.3376036264889
 20
1883.315570765706
 30
0.0
 10
815.7242660217233
 20
1882.696906864681
 30
0.0
 10
816.1222521205621
 20
1882.082455253868
 30
0.0
 10
816.6635244205847
 20
1881.264622445528
 30
0.0
 10
817.3664691760258
 20
1880.253656565055
 30
0.0
 10
818.2603364948985
 20
1879.069402292699
 30
0.0
 10
819.2106246844666
 20
1877.932714583847
 30
0.0
 10
820.2271460354831
 20
1876.829912326079
 30
0.0
 10
821.2961304826389
 20
1875.748019556531
 30
0.0
 10
822.4035433224642
 20
1874.707110160144
 30
0.0
 10
823.5293908760839
 20
1873.720979531636
 30
0.0
 10
824.6868041792861
 20
1872.804511353697
 30
0.0
 10
825.8910354078377
 20
1871.949362710887
 30
0.0
 10
827.1259689697879
 20
1871.150303081543
 30
0.0
 10
828.3766586541622
 20
1870.395037767996
 30
0.0
 10
829.6414988132635
 20
1869.683066702283
 30
0.0
 10
831.3707294144862
 20
1868.81099708119
 30
0.0
 10
832.7148684148133
 20
1868.244155395032
 30
0.0
 10
833.6357154272372
 20
1867.90865278623
 30
0.0
  0
SPLINE
  5
1E5
330
87
100
AcDbEntity
  8
P-SANR-FIXT
100
AcDbSpline
210
0.0
220
0.0
230
1.0
 70
     8
 71
     3
 72
    10
 73
     6
 74
     0
 42
0.000000001
 43
0.0000000001
 40
-1.0
 40
-1.0
 40
-1.0
 40
-1.0
 40
-0.6666666666666666
 40
-0.3333333333333333
 40
0.0
 40
0.0
 40
0.0
 40
0.0
 10
763.2273705682929
 20
1936.866715598649
 30
0.0
 10
763.8051187409002
 20
1937.137151403088
 30
0.0
 10
765.0593402554382
 20
1937.696020619948
 30
0.0
 10
767.1667629140751
 20
1938.494325975092
 30
0.0
 10
768.6463228309065
 20
1938.971560797519
 30
0.0
 10
769.3958357701413
 20
1939.18353177104
 30
0.0
  0
LINE
  5
1E6
330
87
100
AcDbEntity
  8
P-SANR-FIXT
100
AcDbLine
 10
982.3818564938827
 20
2070.320900689748
 30
0.0
 11
995.6664074431797
 21
2070.320900689748
 31
0.0
  0
SPLINE
  5
1E7
330
87
100
AcDbEntity
  8
P-SANR-FIXT
100
AcDbSpline
210
0.0
220
0.0
230
1.0
 70
     8
 71
     3
 72
    10
 73
     6
 74
     0
 42
0.000000001
 43
0.0000000001
 40
-1.0
 40
-1.0
 40
-1.0
 40
-1.0
 40
-0.5
 40
-0.25
 40
0.0
 40
0.0
 40
0.0
 40
0.0
 10
995.6664074431783
 20
2002.257577879743
 30
0.0
 10
993.6748157345304
 20
2001.641658734035
 30
0.0
 10
990.6283874732936
 20
2000.934666487991
 30
0.0
 10
987.1273879872271
 20
2000.456867028927
 30
0.0
 10
985.6858305479551
 20
2000.327989502403
 30
0.0
 10
985.0607818640559
 20
2000.294800463781
 30
0.0
  0
LINE
  5
1E8
330
87
100
AcDbEntity
  8
P-SANR-FIXT
100
AcDbLine
 10
995.6664074431797
 20
2070.051175676347
 30
0.0
 11
995.6664074431797
 21
2070.320900689748
 31
0.0
  0
LINE
  5
1E9
330
87
100
AcDbEntity
  8
P-SANR-FIXT
100
AcDbLine
 10
783.7186226685076
 20
1808.680720546813
 30
0.0
 11
972.4141677069315
 21
1859.241539455209
 31
0.0
  0
SPLINE
  5
1EA
330
87
100
AcDbEntity
  8
P-SANR-FIXT
100
AcDbSpline
210
0.0
220
0.0
230
1.0
 70
     8
 71
     3
 72
    17
 73
    13
 74
     0
 42
0.000000001
 43
0.0000000001
 40
0.1111111111111111
 40
0.1111111111111111
 40
0.1111111111111111
 40
0.1111111111111111
 40
0.1666666666666666
 40
0.25
 40
0.3333333333333333
 40
0.4166666666666666
 40
0.5
 40
0.5833333333333333
 40
0.6666666666666666
 40
0.75
 40
0.8333333333333332
 40
1.0
 40
1.0
 40
1.0
 40
1.0
 10
780.6902451683408
 20
1806.418250702686
 30
0.0
 10
780.7027412310822
 20
1806.432095426453
 30
0.0
 10
780.7423179115295
 20
1806.473065405845
 30
0.0
 10
780.8386100703666
 20
1806.564135969917
 30
0.0
 10
780.9913239158423
 20
1806.697980637498
 30
0.0
 10
781.1839993028504
 20
1806.874137080061
 30
0.0
 10
781.4158625858103
 20
1807.089965830497
 30
0.0
 10
781.6902335376434
 20
1807.329655522726
 30
0.0
 10
782.0106774470454
 20
1807.577460576421
 30
0.0
 10
782.3766753529143
 20
1807.830809766973
 30
0.0
 10
782.9185460402523
 20
1808.190303748489
 30
0.0
 10
783.3843664411763
 20
1808.479472194149
 30
0.0
 10
783.7186226685075
 20
1808.680720546813
 30
0.0
  0
LINE
  5
1EB
330
87
100
AcDbEntity
  8
P-SANR-FIXT
100
AcDbLine
 10
772.4631650803014
 20
1796.46402515842
 30
0.0
 11
987.8400423800909
 21
1854.174085499235
 31
0.0
  0
LINE
  5
1EC
330
87
100
AcDbEntity
  8
P-SANR-FIXT
100
AcDbLine
 10
1000.555190942305
 20
1847.152944001861
 30
0.0
 11
764.962094161218
 21
1784.025963977022
 31
0.0
  0
LINE
  5
1ED
330
87
100
AcDbEntity
  8
P-SANR-FIXT
100
AcDbLine
 10
765.5414160630838
 20
1781.863905205321
 30
0.0
 11
1001.134512844171
 21
1844.99088523016
 31
0.0
  0
LINE
  5
1EE
330
87
100
AcDbEntity
  8
P-SANR-FIXT
100
AcDbLine
 10
886.5271171605279
 20
1624.982414367303
 30
0.0
 11
974.7985676181222
 21
1648.634678232139
 31
0.0
  0
LINE
  5
1EF
330
87
100
AcDbEntity
  8
P-SANR-FIXT
100
AcDbLine
 10
890.6817179938828
 20
1612.916577434672
 30
0.0
 11
977.233496220168
 21
1636.108056513883
 31
0.0
  0
LINE
  5
1F0
330
87
100
AcDbEntity
  8
P-SANR-FIXT
100
AcDbLine
 10
894.7868431595779
 20
1602.628504423138
 30
0.0
 11
978.8223900467283
 21
1625.145761347058
 31
0.0
  0
SPLINE
  5
1F1
330
87
100
AcDbEntity
  8
P-SANR-FIXT
100
AcDbSpline
210
0.0
220
0.0
230
1.0
 70
     8
 71
     3
 72
    19
 73
    15
 74
     0
 42
0.000000001
 43
0.0000000001
 40
0.0
 40
0.0
 40
0.0
 40
0.0
 40
0.125
 40
0.25
 40
0.3125
 40
0.375
 40
0.4375
 40
0.5
 40
0.5625
 40
0.625
 40
0.6875
 40
0.75
 40
0.875
 40
1.0
 40
1.0
 40
1.0
 40
1.0
 10
803.5658640935567
 20
1736.262505453882
 30
0.0
 10
803.2355262778599
 20
1736.288161947649
 30
0.0
 10
802.6039830201801
 20
1736.350599332472
 30
0.0
 10
801.8945585233755
 20
1736.4526631696
 30
0.0
 10
801.3769471289096
 20
1736.559529333024
 30
0.0
 10
801.0141706643924
 20
1736.65323641045
 30
0.0
 10
800.6790217778588
 20
1736.750657063729
 30
0.0
 10
800.3744776380193
 20
1736.840399599522
 30
0.0
 10
800.1001826913867
 20
1736.928465048928
 30
0.0
 10
799.8559799405907
 20
1737.020756056005
 30
0.0
 10
799.6452988931303
 20
1737.105866710835
 30
0.0
 10
799.4134946075802
 20
1737.196789381345
 30
0.0
 10
799.2175135139917
 20
1737.270709617213
 30
0.0
 10
799.161252708974
 20
1737.301542234134
 30
0.0
 10
799.1592572034496
 20
1737.308989562138
 30
0.0
  0
SPLINE
  5
1F2
330
87
100
AcDbEntity
  8
P-SANR-FIXT
100
AcDbSpline
210
0.0
220
0.0
230
1.0
 70
     8
 71
     3
 72
    28
 73
    24
 74
     0
 42
0.000000001
 43
0.0000000001
 40
0.0
 40
0.0
 40
0.0
 40
0.0
 40
0.0555555555555556
 40
0.0833333333333333
 40
0.1111111111111111
 40
0.1388888888888889
 40
0.1666666666666666
 40
0.1944444444444444
 40
0.2222222222222222
 40
0.25
 40
0.2777777777777778
 40
0.3055555555555556
 40
0.3333333333333333
 40
0.3611111111111111
 40
0.3888888888888888
 40
0.4444444444444445
 40
0.5
 40
0.5555555555555556
 40
0.6111111111111112
 40
0.6666666666666666
 40
0.75
 40
0.8333333333333332
 40
1.0
 40
1.0
 40
1.0
 40
1.0
 10
832.686734245239
 20
1719.080307310072
 30
0.0
 10
832.4477584655094
 20
1719.505203296201
 30
0.0
 10
832.0413063310262
 20
1720.15060308991
 30
0.0
 10
831.4203310252333
 20
1721.033333251869
 30
0.0
 10
830.9185954966524
 20
1721.704327396455
 30
0.0
 10
830.3869342935692
 20
1722.398272791198
 30
0.0
 10
829.8300611508521
 20
1723.113857727211
 30
0.0
 10
829.247814430184
 20
1723.834350074363
 30
0.0
 10
828.6363110473043
 20
1724.540368655709
 30
0.0
 10
827.9969063033348
 20
1725.234657537878
 30
0.0
 10
827.334863749273
 20
1725.929990705882
 30
0.0
 10
826.6472910028351
 20
1726.615873664073
 30
0.0
 10
825.9309775374598
 20
1727.284643747384
 30
0.0
 10
825.187024037937
 20
1727.939208272946
 30
0.0
 10
824.1633848940516
 20
1728.801095911091
 30
0.0
 10
822.815304923005
 20
1729.829808814863
 30
0.0
 10
821.0890369163124
 20
1730.990911462058
 30
0.0
 10
819.2621663870587
 20
1732.059391748055
 30
0.0
 10
817.333919296589
 20
1733.025404465349
 30
0.0
 10
814.9940641827761
 20
1734.016567900315
 30
0.0
 10
812.211598353973
 20
1734.939539712593
 30
0.0
 10
808.0235182508257
 20
1735.899913416214
 30
0.0
 10
805.1397139182366
 20
1736.196259310366
 30
0.0
 10
803.5658640935567
 20
1736.262505453882
 30
0.0
  0
LINE
  5
1F3
330
87
100
AcDbEntity
  8
P-SANR-FIXT
100
AcDbLine
 10
763.2530833288724
 20
1790.404079234024
 30
0.0
 11
998.8461801099582
 21
1853.531059258863
 31
0.0
  0
LINE
  5
1F4
330
87
100
AcDbEntity
  8
P-SANR-FIXT
100
AcDbLine
 10
764.185637025911
 20
1786.92374145589
 30
0.0
 11
999.7787338069967
 21
1850.050721480728
 31
0.0
  0
ENDBLK
  5
1F6
330
87
100
AcDbEntity
  8
0
100
AcDbBlockEnd
  0
BLOCK
  5
2EC
330
1F8
100
AcDbEntity
  8
0
100
AcDbBlockBegin
  2
Automatic flow rate regulator valve_Caleffi_121 DN15 - 1_2__-V1-Est - Idraulica
 70
     0
 10
0.0
 20
0.0
 30
0.0
  3
Automatic flow rate regulator valve_Caleffi_121 DN15 - 1_2__-V1-Est - Idraulica
  1

  0
LINE
  5
1F9
330
1F8
100
AcDbEntity
  8
P-SANR-FIXT
100
AcDbLine
 10
771.9724969985206
 20
1290.716094180224
 30
0.0
 11
771.9724969985206
 21
1302.778057508283
 31
0.0
  0
LINE
  5
1FA
330
1F8
100
AcDbEntity
  8
P-SANR-FIXT
100
AcDbLine
 10
784.3098577881925
 20
1302.778057508283
 30
0.0
 11
779.4322903477142
 21
1302.778057508283
 31
0.0
  0
LINE
  5
1FB
330
1F8
100
AcDbEntity
  8
P-SANR-FIXT
100
AcDbLine
 10
779.4322903477142
 20
1302.778057508283
 30
0.0
 11
779.4322903477142
 21
1290.716094180224
 31
0.0
  0
LINE
  5
1FC
330
1F8
100
AcDbEntity
  8
P-SANR-FIXT
100
AcDbLine
 10
779.4322903477142
 20
1290.716094180224
 30
0.0
 11
784.3098577881925
 21
1290.716094180224
 31
0.0
  0
ELLIPSE
  5
1FD
330
1F8
100
AcDbEntity
  8
P-SANR-FIXT
100
AcDbEllipse
 10
784.3098577881925
 20
1296.747075844254
 30
0.0
 11
0.0
 21
6.030981664029241
 31
0.0
210
0.0
220
0.0
230
1.0
 40
0.2588190451025239
 41
3.141592653589788
 42
3.220193697098603
  0
ELLIPSE
  5
1FE
330
1F8
100
AcDbEntity
  8
P-SANR-FIXT
100
AcDbEllipse
 10
784.3098577881925
 20
1296.747075844254
 30
0.0
 11
0.0
 21
6.030981664029408
 31
0.0
210
0.0
220
0.0
230
1.0
 40
0.2588190451025214
 41
6.204584263670329
 42
6.283185307179588
  0
LINE
  5
1FF
330
1F8
100
AcDbEntity
  8
P-SANR-FIXT
100
AcDbLine
 10
771.9724969985206
 20
1302.778057508283
 30
0.0
 11
779.4322903477142
 21
1302.778057508283
 31
0.0
  0
LINE
  5
200
330
1F8
100
AcDbEntity
  8
P-SANR-FIXT
100
AcDbLine
 10
771.9724969985206
 20
1290.716094180224
 30
0.0
 11
779.4322903477142
 21
1290.716094180224
 31
0.0
  0
LINE
  5
201
330
1F8
100
AcDbEntity
  8
P-SANR-FIXT
100
AcDbLine
 10
787.4246797917025
 20
1302.747075844254
 30
0.0
 11
787.3887054046965
 21
1302.747075844254
 31
0.0
  0
LINE
  5
202
330
1F8
100
AcDbEntity
  8
P-SANR-FIXT
100
AcDbLine
 10
787.3887054046965
 20
1290.747075844254
 30
0.0
 11
787.4246797917024
 21
1290.747075844254
 31
0.0
  0
LINE
  5
203
330
1F8
100
AcDbEntity
  8
P-SANR-FIXT
100
AcDbLine
 10
786.5193721610364
 20
1302.747075844254
 30
0.0
 11
784.1755630785074
 21
1302.747075844254
 31
0.0
  0
LINE
  5
204
330
1F8
100
AcDbEntity
  8
P-SANR-FIXT
100
AcDbLine
 10
784.1755630785074
 20
1290.747075844254
 30
0.0
 11
786.5193721610364
 21
1290.747075844254
 31
0.0
  0
ELLIPSE
  5
205
330
1F8
100
AcDbEntity
  8
P-SANR-FIXT
100
AcDbEllipse
 10
787.3887054046949
 20
1296.747075844254
 30
0.0
 11
0.0
 21
6.0
 31
0.0
210
0.0
220
0.0
230
1.0
 40
0.2588190451025412
 41
0.0000000000000016
 42
0.6889558788109989
  0
ELLIPSE
  5
206
330
1F8
100
AcDbEntity
  8
P-SANR-FIXT
100
AcDbEllipse
 10
787.3887054046949
 20
1296.747075844254
 30
0.0
 11
0.0
 21
5.999999999999879
 31
0.0
210
0.0
220
0.0
230
1.0
 40
0.2588190451025133
 41
2.452636774778585
 42
3.141592653589788
  0
ELLIPSE
  5
207
330
1F8
100
AcDbEntity
  8
P-SANR-FIXT
100
AcDbEllipse
 10
786.5193721610348
 20
1296.747075844254
 30
0.0
 11
0.0
 21
5.999999999999975
 31
0.0
210
0.0
220
0.0
230
1.0
 40
0.2588190451025109
 41
5.998508710754783
 42
7.853981633974484
  0
ELLIPSE
  5
208
330
1F8
100
AcDbEntity
  8
P-SANR-FIXT
100
AcDbEllipse
 10
786.5193721610348
 20
1296.747075844254
 30
0.0
 11
0.0
 21
6.0
 31
0.0
210
0.0
220
0.0
230
1.0
 40
0.2588190451025412
 41
1.570796326794898
 42
3.426269250014404
  0
LINE
  5
209
330
1F8
100
AcDbEntity
  8
P-SANR-FIXT
100
AcDbLine
 10
986.9813476783932
 20
1304.747075844253
 30
0.0
 11
974.0055977380036
 21
1304.747075844253
 31
0.0
  0
LINE
  5
20A
330
1F8
100
AcDbEntity
  8
P-SANR-FIXT
100
AcDbLine
 10
974.0055977380036
 20
1288.747075844253
 30
0.0
 11
986.9813476783932
 21
1288.747075844253
 31
0.0
  0
LINE
  5
20B
330
1F8
100
AcDbEntity
  8
P-SANR-FIXT
100
AcDbLine
 10
974.0055977380036
 20
1305.747075844253
 30
0.0
 11
966.0055977380034
 21
1305.747075844253
 31
0.0
  0
LINE
  5
20C
330
1F8
100
AcDbEntity
  8
P-SANR-FIXT
100
AcDbLine
 10
966.0055977380034
 20
1287.747075844253
 30
0.0
 11
974.0055977380032
 21
1287.747075844253
 31
0.0
  0
LINE
  5
20D
330
1F8
100
AcDbEntity
  8
P-SANR-FIXT
100
AcDbLine
 10
966.0055977380036
 20
1303.747075844253
 30
0.0
 11
962.0055977380033
 21
1303.747075844253
 31
0.0
  0
LINE
  5
20E
330
1F8
100
AcDbEntity
  8
P-SANR-FIXT
100
AcDbLine
 10
962.0055977380033
 20
1289.747075844253
 30
0.0
 11
966.0055977380034
 21
1289.747075844253
 31
0.0
  0
LINE
  5
20F
330
1F8
100
AcDbEntity
  8
P-SANR-FIXT
100
AcDbLine
 10
962.0055977380033
 20
1299.303960860054
 30
0.0
 11
959.0055977380036
 21
1299.303960860054
 31
0.0
  0
LINE
  5
210
330
1F8
100
AcDbEntity
  8
P-SANR-FIXT
100
AcDbLine
 10
959.0055977380032
 20
1294.190190828452
 30
0.0
 11
962.0055977380033
 21
1294.190190828452
 31
0.0
  0
LINE
  5
211
330
1F8
100
AcDbEntity
  8
P-SANR-FIXT
100
AcDbLine
 10
959.0055977380032
 20
1300.803960860055
 30
0.0
 11
950.0055977380036
 21
1300.803960860055
 31
0.0
  0
LINE
  5
212
330
1F8
100
AcDbEntity
  8
P-SANR-FIXT
100
AcDbLine
 10
950.0055977380032
 20
1292.690190828452
 30
0.0
 11
959.0055977380032
 21
1292.690190828452
 31
0.0
  0
LINE
  5
213
330
1F8
100
AcDbEntity
  8
P-SANR-FIXT
100
AcDbLine
 10
990.7264489500112
 20
1302.068639730406
 30
0.0
 11
988.7657665933209
 21
1302.068639730406
 31
0.0
  0
LINE
  5
214
330
1F8
100
AcDbEntity
  8
P-SANR-FIXT
100
AcDbLine
 10
988.7657665933209
 20
1291.4255119581
 30
0.0
 11
990.7264489500114
 21
1291.4255119581
 31
0.0
  0
LINE
  5
215
330
1F8
100
AcDbEntity
  8
P-SANR-FIXT
100
AcDbLine
 10
988.7657665933211
 20
1302.068639730406
 30
0.0
 11
987.0269442893574
 21
1304.678634735244
 31
0.0
  0
LINE
  5
216
330
1F8
100
AcDbEntity
  8
P-SANR-FIXT
100
AcDbLine
 10
987.0122869512746
 20
1304.700635591279
 30
0.0
 11
986.9813476783932
 21
1304.747075844253
 31
0.0
  0
LINE
  5
217
330
1F8
100
AcDbEntity
  8
P-SANR-FIXT
100
AcDbLine
 10
986.9813476783932
 20
1288.747075844253
 30
0.0
 11
987.0189658805356
 21
1288.803541257342
 31
0.0
  0
LINE
  5
218
330
1F8
100
AcDbEntity
  8
P-SANR-FIXT
100
AcDbLine
 10
987.0269442893574
 20
1288.815516953262
 30
0.0
 11
988.7657665933211
 21
1291.4255119581
 31
0.0
  0
ARC
  5
219
330
1F8
100
AcDbEntity
  8
P-SANR-FIXT
100
AcDbCircle
 10
996.6773449564186
 20
1296.747075844253
 30
0.0
 40
8.0
100
AcDbArc
 50
0.0
 51
180.0
  0
ARC
  5
21A
330
1F8
100
AcDbEntity
  8
P-SANR-FIXT
100
AcDbCircle
 10
996.6773449564186
 20
1296.747075844253
 30
0.0
 40
7.999999999999886
100
AcDbArc
 50
180.0
 51
0.0
  0
ARC
  5
21B
330
1F8
100
AcDbEntity
  8
P-SANR-FIXT
100
AcDbCircle
 10
996.6773449564186
 20
1296.747075844253
 30
0.0
 40
7.799999999999954
100
AcDbArc
 50
0.0
 51
180.0
  0
ARC
  5
21C
330
1F8
100
AcDbEntity
  8
P-SANR-FIXT
100
AcDbCircle
 10
996.6773449564186
 20
1296.747075844253
 30
0.0
 40
7.800000000000068
100
AcDbArc
 50
180.0
 51
0.0
  0
ARC
  5
21D
330
1F8
100
AcDbEntity
  8
P-SANR-FIXT
100
AcDbCircle
 10
996.6773449564186
 20
1296.747075844253
 30
0.0
 40
6.799999999999954
100
AcDbArc
 50
0.0
 51
180.0
  0
ARC
  5
21E
330
1F8
100
AcDbEntity
  8
P-SANR-FIXT
100
AcDbCircle
 10
996.6773449564186
 20
1296.747075844253
 30
0.0
 40
6.800000000000068
100
AcDbArc
 50
180.0
 51
0.0
  0
ARC
  5
21F
330
1F8
100
AcDbEntity
  8
P-SANR-FIXT
100
AcDbCircle
 10
996.6773449564186
 20
1296.747075844253
 30
0.0
 40
5.79999999999984
100
AcDbArc
 50
0.0
 51
180.0
  0
ARC
  5
220
330
1F8
100
AcDbEntity
  8
P-SANR-FIXT
100
AcDbCircle
 10
996.6773449564186
 20
1296.747075844253
 30
0.0
 40
5.800000000000068
100
AcDbArc
 50
180.0
 51
0.0
  0
ARC
  5
221
330
1F8
100
AcDbEntity
  8
P-SANR-FIXT
100
AcDbCircle
 10
996.6773449564186
 20
1296.747075844253
 30
0.0
 40
1.999999999999886
100
AcDbArc
 50
0.0
 51
180.0
  0
ARC
  5
222
330
1F8
100
AcDbEntity
  8
P-SANR-FIXT
100
AcDbCircle
 10
996.6773449564186
 20
1296.747075844253
 30
0.0
 40
2.000000000000113
100
AcDbArc
 50
180.0
 51
0.0
  0
LINE
  5
223
330
1F8
100
AcDbEntity
  8
P-SANR-FIXT
100
AcDbLine
 10
986.9813476783914
 20
1296.747075844253
 30
0.0
 11
986.9813476783914
 21
1304.747075844253
 31
0.0
  0
LINE
  5
224
330
1F8
100
AcDbEntity
  8
P-SANR-FIXT
100
AcDbLine
 10
986.9813476783914
 20
1288.747075844253
 30
0.0
 11
986.9813476783914
 21
1296.747075844253
 31
0.0
  0
LINE
  5
225
330
1F8
100
AcDbEntity
  8
P-SANR-FIXT
100
AcDbLine
 10
974.0055977380016
 20
1305.747075844253
 30
0.0
 11
974.0055977380016
 21
1296.747075844253
 31
0.0
  0
LINE
  5
226
330
1F8
100
AcDbEntity
  8
P-SANR-FIXT
100
AcDbLine
 10
974.0055977380016
 20
1296.747075844253
 30
0.0
 11
974.0055977380016
 21
1287.747075844253
 31
0.0
  0
LINE
  5
227
330
1F8
100
AcDbEntity
  8
P-SANR-FIXT
100
AcDbLine
 10
966.0055977380016
 20
1305.747075844253
 30
0.0
 11
966.0055977380016
 21
1296.747075844253
 31
0.0
  0
LINE
  5
228
330
1F8
100
AcDbEntity
  8
P-SANR-FIXT
100
AcDbLine
 10
966.0055977380016
 20
1296.747075844253
 30
0.0
 11
966.0055977380016
 21
1287.747075844253
 31
0.0
  0
LINE
  5
229
330
1F8
100
AcDbEntity
  8
P-SANR-FIXT
100
AcDbLine
 10
962.0055977380017
 20
1303.747075844253
 30
0.0
 11
962.0055977380017
 21
1296.747075844253
 31
0.0
  0
LINE
  5
22A
330
1F8
100
AcDbEntity
  8
P-SANR-FIXT
100
AcDbLine
 10
962.0055977380017
 20
1296.747075844253
 30
0.0
 11
962.0055977380017
 21
1289.747075844253
 31
0.0
  0
LINE
  5
22B
330
1F8
100
AcDbEntity
  8
P-SANR-FIXT
100
AcDbLine
 10
959.0055977380016
 20
1300.803960860054
 30
0.0
 11
959.0055977380016
 21
1296.747075844253
 31
0.0
  0
LINE
  5
22C
330
1F8
100
AcDbEntity
  8
P-SANR-FIXT
100
AcDbLine
 10
959.0055977380016
 20
1296.747075844253
 30
0.0
 11
959.0055977380016
 21
1292.690190828451
 31
0.0
  0
LINE
  5
22D
330
1F8
100
AcDbEntity
  8
P-SANR-FIXT
100
AcDbLine
 10
950.0055977380016
 20
1300.803960860055
 30
0.0
 11
950.0055977380016
 21
1296.747075844253
 31
0.0
  0
LINE
  5
22E
330
1F8
100
AcDbEntity
  8
P-SANR-FIXT
100
AcDbLine
 10
950.0055977380016
 20
1296.747075844253
 30
0.0
 11
950.0055977380016
 21
1292.690190828452
 31
0.0
  0
LINE
  5
22F
330
1F8
100
AcDbEntity
  8
P-SANR-FIXT
100
AcDbLine
 10
988.7657665933192
 20
1302.068639730406
 30
0.0
 11
988.7657665933192
 21
1297.793525092294
 31
0.0
  0
LINE
  5
230
330
1F8
100
AcDbEntity
  8
P-SANR-FIXT
100
AcDbLine
 10
988.7657665933192
 20
1295.700626596211
 30
0.0
 11
988.7657665933192
 21
1291.4255119581
 31
0.0
  0
LINE
  5
231
330
1F8
100
AcDbEntity
  8
P-SANR-FIXT
100
AcDbLine
 10
797.4306103878892
 20
1305.488277872065
 30
0.0
 11
793.5483247113514
 21
1305.488277872065
 31
0.0
  0
LINE
  5
232
330
1F8
100
AcDbEntity
  8
P-SANR-FIXT
100
AcDbLine
 10
793.5483247113512
 20
1288.005873816443
 30
0.0
 11
797.4306103878888
 21
1288.005873816443
 31
0.0
  0
ELLIPSE
  5
233
330
1F8
100
AcDbEntity
  8
P-SANR-FIXT
100
AcDbEllipse
 10
800.7952579742202
 20
1296.747075844254
 30
0.0
 11
0.0
 21
6.841202027811341
 31
0.0
210
0.0
220
0.0
230
1.0
 40
0.965925826289072
 41
4.712388980384685
 42
5.908121230763116
  0
ELLIPSE
  5
234
330
1F8
100
AcDbEntity
  8
P-SANR-FIXT
100
AcDbEllipse
 10
800.7952579742202
 20
1296.747075844254
 30
0.0
 11
0.0
 21
6.841202027811277
 31
0.0
210
0.0
220
0.0
230
1.0
 40
0.9659258262890805
 41
3.516656730006234
 42
4.712388980384685
  0
ELLIPSE
  5
235
330
1F8
100
AcDbEntity
  8
P-SANR-FIXT
100
AcDbEllipse
 10
798.5952960908488
 20
1296.747075844254
 30
0.0
 11
0.0
 21
7.841202027811029
 31
0.0
210
0.0
220
0.0
230
0.9999999999999998
 40
0.9659258262891052
 41
4.712388980384685
 42
5.459889342100396
  0
ELLIPSE
  5
236
330
1F8
100
AcDbEntity
  8
P-SANR-FIXT
100
AcDbEllipse
 10
798.5952960908488
 20
1296.747075844254
 30
0.0
 11
0.0
 21
7.84120202781105
 31
0.0
210
0.0
220
0.0
230
1.0
 40
0.9659258262890958
 41
3.964888618668988
 42
4.712388980384685
  0
ELLIPSE
  5
237
330
1F8
100
AcDbEntity
  8
P-SANR-FIXT
100
AcDbEllipse
 10
797.4306103878874
 20
1296.747075844254
 30
0.0
 11
0.0
 21
8.741202027811141
 31
0.0
210
0.0
220
0.0
230
1.0
 40
0.9659258262890752
 41
4.712388980384685
 42
6.283185307179588
  0
ELLIPSE
  5
238
330
1F8
100
AcDbEntity
  8
P-SANR-FIXT
100
AcDbEllipse
 10
797.4306103878874
 20
1296.747075844254
 30
0.0
 11
0.0
 21
8.741202027810913
 31
0.0
210
0.0
220
0.0
230
1.0
 40
0.9659258262891004
 41
3.141592653589788
 42
4.712388980384685
  0
ELLIPSE
  5
239
330
1F8
100
AcDbEntity
  8
P-SANR-FIXT
100
AcDbEllipse
 10
793.5483247113496
 20
1296.747075844254
 30
0.0
 11
0.0
 21
8.741202027811141
 31
0.0
210
0.0
220
0.0
230
1.0
 40
0.9659258262890492
 41
4.712388980384685
 42
7.853981633974458
  0
ELLIPSE
  5
23A
330
1F8
100
AcDbEntity
  8
P-SANR-FIXT
100
AcDbEllipse
 10
793.5483247113496
 20
1296.747075844254
 30
0.0
 11
0.0
 21
8.741202027810913
 31
0.0
210
0.0
220
0.0
230
1.0
 40
0.9659258262890874
 41
1.570796326794872
 42
4.712388980384685
  0
ARC
  5
23B
330
1F8
100
AcDbEntity
  8
P-SANR-FIXT
100
AcDbCircle
 10
727.183507640841
 20
1296.747075844254
 30
0.0
 40
6.522931044476649
100
AcDbArc
 50
0.0
 51
180.0
  0
ARC
  5
23C
330
1F8
100
AcDbEntity
  8
P-SANR-FIXT
100
AcDbCircle
 10
727.183507640841
 20
1296.747075844254
 30
0.0
 40
6.522931044476672
100
AcDbArc
 50
179.9999999999995
 51
359.9999999999992
  0
ARC
  5
23D
330
1F8
100
AcDbEntity
  8
P-SANR-FIXT
100
AcDbCircle
 10
727.183507640841
 20
1296.747075844254
 30
0.0
 40
5.000000000000113
100
AcDbArc
 50
0.0
 51
180.0
  0
ARC
  5
23E
330
1F8
100
AcDbEntity
  8
P-SANR-FIXT
100
AcDbCircle
 10
727.183507640841
 20
1296.747075844254
 30
0.0
 40
5.0
100
AcDbArc
 50
180.0
 51
0.0
  0
ARC
  5
23F
330
1F8
100
AcDbEntity
  8
P-SANR-FIXT
100
AcDbCircle
 10
727.183507640841
 20
1296.747075844254
 30
0.0
 40
7.499999999999748
100
AcDbArc
 50
359.9999999999966
 51
180.0000000000004
  0
ARC
  5
240
330
1F8
100
AcDbEntity
  8
P-SANR-FIXT
100
AcDbCircle
 10
727.183507640841
 20
1296.747075844254
 30
0.0
 40
7.499999999999708
100
AcDbArc
 50
180.0000000000017
 51
359.999999999998
  0
LINE
  5
241
330
1F8
100
AcDbEntity
  8
P-SANR-FIXT
100
AcDbLine
 10
802.7844087293001
 20
1323.592718732057
 30
0.0
 11
801.3340635037875
 21
1323.592718732057
 31
0.0
  0
LINE
  5
242
330
1F8
100
AcDbEntity
  8
P-SANR-FIXT
100
AcDbLine
 10
1012.66640744318
 20
1396.747075844249
 30
0.0
 11
995.6664074431802
 21
1396.747075844249
 31
0.0
  0
LINE
  5
243
330
1F8
100
AcDbEntity
  8
P-SANR-FIXT
100
AcDbLine
 10
995.6664074431792
 20
1196.74707584424
 30
0.0
 11
1012.666407443179
 21
1196.747075844239
 31
0.0
  0
LINE
  5
244
330
1F8
100
AcDbEntity
  8
P-SANR-FIXT
100
AcDbLine
 10
1015.666407443179
 20
1365.747075844201
 30
0.0
 11
1012.66640744318
 21
1365.747075844201
 31
0.0
  0
LINE
  5
245
330
1F8
100
AcDbEntity
  8
P-SANR-FIXT
100
AcDbLine
 10
1012.666407443179
 20
1227.747075844287
 30
0.0
 11
1015.666407443178
 21
1227.747075844287
 31
0.0
  0
LINE
  5
246
330
1F8
100
AcDbEntity
  8
P-SANR-FIXT
100
AcDbLine
 10
708.6664074431967
 20
1365.747075844215
 30
0.0
 11
705.6664074431989
 21
1365.747075844215
 31
0.0
  0
LINE
  5
247
330
1F8
100
AcDbEntity
  8
P-SANR-FIXT
100
AcDbLine
 10
705.6664074431981
 20
1227.747075844276
 30
0.0
 11
708.666407443196
 21
1227.747075844276
 31
0.0
  0
LINE
  5
248
330
1F8
100
AcDbEntity
  8
P-SANR-FIXT
100
AcDbLine
 10
725.666407443197
 20
1396.74707584425
 30
0.0
 11
708.6664074431967
 21
1396.74707584425
 31
0.0
  0
LINE
  5
249
330
1F8
100
AcDbEntity
  8
P-SANR-FIXT
100
AcDbLine
 10
708.6664074431958
 20
1196.747075844242
 30
0.0
 11
725.6664074431959
 21
1196.747075844242
 31
0.0
  0
LINE
  5
24A
330
1F8
100
AcDbEntity
  8
P-SANR-FIXT
100
AcDbLine
 10
966.0055977380036
 20
1304.747075844253
 30
0.0
 11
905.1716799028051
 21
1304.747075844253
 31
0.0
  0
LINE
  5
24B
330
1F8
100
AcDbEntity
  8
P-SANR-FIXT
100
AcDbLine
 10
755.2345433795539
 20
1304.747075844254
 30
0.0
 11
736.2720330223108
 21
1304.747075844254
 31
0.0
  0
LINE
  5
24C
330
1F8
100
AcDbEntity
  8
P-SANR-FIXT
100
AcDbLine
 10
736.2720330223204
 20
1288.747075844254
 30
0.0
 11
755.2398533254741
 21
1288.747075844254
 31
0.0
  0
LINE
  5
24D
330
1F8
100
AcDbEntity
  8
P-SANR-FIXT
100
AcDbLine
 10
905.1716799028051
 20
1288.747075844253
 30
0.0
 11
966.0055977380034
 21
1288.747075844253
 31
0.0
  0
LINE
  5
24E
330
1F8
100
AcDbEntity
  8
P-SANR-FIXT
100
AcDbLine
 10
801.3340635037899
 20
1269.90143295643
 30
0.0
 11
802.7844087293026
 21
1269.90143295643
 31
0.0
  0
LINE
  5
24F
330
1F8
100
AcDbEntity
  8
P-SANR-FIXT
100
AcDbLine
 10
804.8549610901197
 20
1335.592718732057
 30
0.0
 11
804.0785039548122
 21
1335.592718732057
 31
0.0
  0
LINE
  5
250
330
1F8
100
AcDbEntity
  8
P-SANR-FIXT
100
AcDbLine
 10
804.0785039548156
 20
1257.901432956431
 30
0.0
 11
804.8549610901233
 21
1257.901432956431
 31
0.0
  0
LINE
  5
251
330
1F8
100
AcDbEntity
  8
P-SANR-FIXT
100
AcDbLine
 10
811.5253027215548
 20
1342.747075844244
 30
0.0
 11
806.0829458996801
 21
1342.747075844244
 31
0.0
  0
LINE
  5
252
330
1F8
100
AcDbEntity
  8
P-SANR-FIXT
100
AcDbLine
 10
806.082945899684
 20
1250.747075844244
 30
0.0
 11
811.5253027215587
 21
1250.747075844244
 31
0.0
  0
LINE
  5
253
330
1F8
100
AcDbEntity
  8
P-SANR-FIXT
100
AcDbLine
 10
842.6585031956927
 20
1361.503238117459
 30
0.0
 11
829.1249977885252
 21
1361.503238117458
 31
0.0
  0
LINE
  5
254
330
1F8
100
AcDbEntity
  8
P-SANR-FIXT
100
AcDbLine
 10
829.1249977885309
 20
1231.990913571032
 30
0.0
 11
842.6585031956982
 21
1231.990913571032
 31
0.0
  0
LINE
  5
255
330
1F8
100
AcDbEntity
  8
P-SANR-FIXT
100
AcDbLine
 10
995.6664074431799
 20
1343.855773633764
 30
0.0
 11
929.9882243690451
 21
1336.343374474365
 31
0.0
  0
LINE
  5
256
330
1F8
100
AcDbEntity
  8
P-SANR-FIXT
100
AcDbLine
 10
929.9882243690362
 20
1257.150777214142
 30
0.0
 11
995.6664074431797
 21
1249.638378054742
 31
0.0
  0
LWPOLYLINE
  5
257
330
1F8
100
AcDbEntity
  8
P-SANR-FIXT
100
AcDbPolyline
 90
        3
 70
   128
 43
0.0
 10
901.6548584883185
 20
1335.985715341666
 10
926.0442796861036
 20
1335.853485090758
 10
929.9525470881153
 20
1336.338793760515
  0
LWPOLYLINE
  5
258
330
1F8
100
AcDbEntity
  8
P-SANR-FIXT
100
AcDbPolyline
 90
        3
 70
   128
 43
0.0
 10
901.6548584883267
 20
1257.508436346842
 10
926.0442796861122
 20
1257.640666597747
 10
929.9525470881267
 20
1257.15535792799
  0
LWPOLYLINE
  5
259
330
1F8
100
AcDbEntity
  8
P-SANR-FIXT
100
AcDbPolyline
 90
        8
 70
   128
 43
0.0
 10
863.4158268512907
 20
1361.425144076744
 10
874.1354232559519
 20
1359.090808084346
 10
883.793896796328
 20
1355.288111929223
 10
891.7257752588911
 20
1350.351557850533
 10
897.6900487368942
 20
1344.678529866483
 10
899.9495991049581
 20
1341.699326428552
 10
902.9255802416409
 20
1336.384799593152
 10
903.1279572621585
 20
1335.827592470825
  0
LWPOLYLINE
  5
25A
330
1F8
100
AcDbEntity
  8
P-SANR-FIXT
100
AcDbPolyline
 90
        3
 70
   128
 43
0.0
 10
863.4158268512907
 20
1361.425144076744
 10
852.4730850118981
 20
1362.152870661688
 10
844.1949415631091
 20
1361.459593102838
  0
LWPOLYLINE
  5
25B
330
1F8
100
AcDbEntity
  8
P-SANR-FIXT
100
AcDbPolyline
 90
        3
 70
   128
 43
0.0
 10
863.41582685129
 20
1232.069007611763
 10
852.4730850118976
 20
1231.341281026819
 10
844.1949415632219
 20
1232.034558585659
  0
LWPOLYLINE
  5
25C
330
1F8
100
AcDbEntity
  8
P-SANR-FIXT
100
AcDbPolyline
 90
        8
 70
   128
 43
0.0
 10
863.41582685129
 20
1232.069007611763
 10
874.1354232559512
 20
1234.403343604161
 10
883.7938967963275
 20
1238.206039759284
 10
891.7257752588907
 20
1243.142593837974
 10
897.6900487368938
 20
1248.815621822023
 10
899.9495991049579
 20
1251.794825259954
 10
902.9255802416406
 20
1257.109352095354
 10
903.1229379604292
 20
1257.652739512928
  0
LINE
  5
25D
330
1F8
100
AcDbEntity
  8
P-SANR-FIXT
100
AcDbLine
 10
749.1636808741231
 20
1337.322307876631
 30
0.0
 11
757.8741076544856
 21
1336.22899531429
 31
0.0
  0
LWPOLYLINE
  5
25E
330
1F8
100
AcDbEntity
  8
P-SANR-FIXT
100
AcDbPolyline
 90
        3
 70
   128
 43
0.0
 10
749.1636808741231
 20
1337.322307876631
 10
732.8160418874716
 20
1337.910801902125
 10
725.6689165101036
 20
1336.799504259004
  0
LWPOLYLINE
  5
25F
330
1F8
100
AcDbEntity
  8
P-SANR-FIXT
100
AcDbPolyline
 90
        3
 70
   128
 43
0.0
 10
749.1636808741225
 20
1256.171843811876
 10
732.8160418874713
 20
1255.583349786383
 10
725.6689104795103
 20
1256.69464879828
  0
LINE
  5
260
330
1F8
100
AcDbEntity
  8
P-SANR-FIXT
100
AcDbLine
 10
749.1636808741225
 20
1256.171843811876
 30
0.0
 11
757.8951398672852
 21
1257.267796288776
 31
0.0
  0
LINE
  5
261
330
1F8
100
AcDbEntity
  8
P-SANR-FIXT
100
AcDbLine
 10
944.1736543264068
 20
1306.747075844253
 30
0.0
 11
875.2808589640034
 21
1306.747075844254
 31
0.0
  0
LINE
  5
262
330
1F8
100
AcDbEntity
  8
P-SANR-FIXT
100
AcDbLine
 10
875.2808589640082
 20
1286.747075844253
 30
0.0
 11
944.1736543264068
 21
1286.747075844253
 31
0.0
  0
LWPOLYLINE
  5
263
330
1F8
100
AcDbEntity
  8
P-SANR-FIXT
100
AcDbPolyline
 90
       10
 70
   128
 43
0.0
 10
829.1249977885238
 20
1361.503238117458
 10
826.6015117649681
 20
1361.450981247148
 10
824.0821764763351
 20
1361.294301306594
 10
821.5711341884016
 20
1361.033470040062
 10
819.0725102769802
 20
1360.668939468238
 10
816.5904049027869
 20
1360.20134056931
 10
814.1288848274149
 20
1359.631481453642
 10
811.6919754130467
 20
1358.960345052427
 10
809.2836528449705
 20
1358.189086345602
 10
808.6301632140427
 20
1357.949769288079
  0
LWPOLYLINE
  5
264
330
1F8
100
AcDbEntity
  8
P-SANR-FIXT
100
AcDbPolyline
 90
       11
 70
   128
 43
0.0
 10
808.6061817642759
 20
1235.546554518548
 10
808.8256693915409
 20
1235.464209707272
 10
811.2280635840233
 20
1234.673907727842
 10
813.6598004454723
 20
1233.983487305132
 10
816.1169140829803
 20
1233.394136040634
 10
818.595387964549
 20
1232.906870068621
 10
821.0911626497541
 20
1232.522531198986
 10
823.6001437502347
 20
1232.241784515507
 10
826.1182100817066
 20
1232.065116455623
 10
828.6412219654962
 20
1231.992833393128
 10
829.1249977885293
 20
1231.990913571032
  0
LWPOLYLINE
  5
265
330
1F8
100
AcDbEntity
  8
P-SANR-FIXT
100
AcDbPolyline
 90
       37
 70
   128
 43
0.0
 10
904.7272541320094
 20
1306.747079362519
 10
904.2916415728347
 20
1309.287486374922
 10
903.7581509976739
 20
1311.80829255428
 10
903.1275773490225
 20
1314.305546345307
 10
902.4008616816576
 20
1316.775326820408
 10
901.5790904792366
 20
1319.213748939502
 10
900.663494850565
 20
1321.616968838505
 10
899.6554495992135
 20
1323.981189150127
 10
898.5564721590476
 20
1326.302664360321
 10
897.3682213870381
 20
1328.577706203173
 10
896.0924962034797
 20
1330.802689096372
 10
894.7312340684797
 20
1332.974055618481
 10
893.2865092823151
 20
1335.088322028145
 10
891.7605310960373
 20
1337.142083823981
 10
890.1556416175649
 20
1339.132021342267
 10
888.4743134975128
 20
1341.054905387651
 10
886.7191473782085
 20
1342.907602889876
 10
884.8928690887907
 20
1344.687082577102
 10
882.998326569081
 20
1346.390420653675
 10
881.0384865050675
 20
1348.01480646732
 10
879.0164306594485
 20
1349.557548147646
 10
876.9353518817801
 20
1351.016078194752
 10
874.7985497844167
 20
1352.387958993538
 10
872.6094260726281
 20
1353.670888226292
 10
870.3714795200617
 20
1354.862704153257
 10
868.088300584071
 20
1355.961390728295
 10
865.7635656593098
 20
1356.965082514654
 10
863.4010309723695
 20
1357.872069364183
 10
861.0045261249927
 20
1358.680800822375
 10
858.577947298472
 20
1359.389890221319
 10
856.1252501370757
 20
1359.998118423183
 10
853.6504423336108
 20
1360.504437178179
 10
851.157575945381
 20
1360.907972063202
 10
848.6507394736586
 20
1361.208024970356
 10
846.1340497442089
 20
1361.404076118496
 10
843.6116436302359
 20
1361.495785565432
 10
842.6585031956912
 20
1361.503238117459
  0
LWPOLYLINE
  5
266
330
1F8
100
AcDbEntity
  8
P-SANR-FIXT
100
AcDbPolyline
 90
       37
 70
   128
 43
0.0
 10
842.6585031956969
 20
1231.990913571032
 10
845.1819892192524
 20
1232.043170441341
 10
847.7013245078852
 20
1232.199850381896
 10
850.2123667958189
 20
1232.460681648428
 10
852.7109907072402
 20
1232.825212220252
 10
855.1930960814333
 20
1233.292811119179
 10
857.6546161568055
 20
1233.862670234847
 10
860.0915255711736
 20
1234.533806636062
 10
862.49984813925
 20
1235.305065342887
 10
864.8756643724773
 20
1236.17512253009
 10
867.2151187110813
 20
1237.142489129181
 10
869.5144264432567
 20
1238.205514793739
 10
871.7698802916606
 20
1239.36239219105
 10
873.9778566526309
 20
1240.611161582236
 10
876.1348214787187
 20
1241.949715653077
 10
878.2373357999945
 20
1243.3758045584
 10
880.282060884134
 20
1244.887041144366
 10
882.2657630393555
 20
1246.480906314912
 10
884.185318067843
 20
1248.154754511029
 10
886.0377153802831
 20
1249.905819274348
 10
887.8200617845697
 20
1251.731218869469
 10
889.5295849635743
 20
1253.627961942614
 10
891.163636658182
 20
1255.59295319733
 10
892.7196955725774
 20
1257.622999071073
 10
894.1953700190815
 20
1259.714813399445
 10
895.5884003197725
 20
1261.865023057679
 10
896.8966609816638
 20
1264.070173571468
 10
898.1181626615381
 20
1266.326734691571
 10
899.2510539355805
 20
1268.631105928603
 10
900.2936228878745
 20
1270.979622046203
 10
901.2442985306334
 20
1273.368558512197
 10
902.1016520677852
 20
1275.794136908603
 10
902.8643980122538
 20
1278.252530302301
 10
903.5313951660404
 20
1280.739868578927
 10
904.101647470979
 20
1283.252243743142
 10
904.5743047369038
 20
1285.785715188828
 10
904.7272541320118
 20
1286.747072325986
  0
LINE
  5
267
330
1F8
100
AcDbEntity
  8
P-SANR-FIXT
100
AcDbLine
 10
883.3379644536236
 20
1418.699036527501
 30
0.0
 11
882.7586425517578
 21
1418.699036527501
 31
0.0
  0
LINE
  5
268
330
1F8
100
AcDbEntity
  8
P-SANR-FIXT
100
AcDbLine
 10
882.7586425517679
 20
1174.795115160993
 30
0.0
 11
883.3379644536341
 21
1174.795115160993
 31
0.0
  0
LINE
  5
269
330
1F8
100
AcDbEntity
  8
P-SANR-FIXT
100
AcDbLine
 10
881.9821854164501
 20
1418.6990365275
 30
0.0
 11
881.0496317194116
 21
1418.699036527499
 31
0.0
  0
LINE
  5
26A
330
1F8
100
AcDbEntity
  8
P-SANR-FIXT
100
AcDbLine
 10
881.0496317194218
 20
1174.795115160994
 30
0.0
 11
881.9821854164603
 21
1174.795115160994
 31
0.0
  0
LINE
  5
26B
330
1F8
100
AcDbEntity
  8
P-SANR-FIXT
100
AcDbLine
 10
882.7586425517578
 20
1415.6990365275
 30
0.0
 11
881.9821854164501
 21
1415.6990365275
 31
0.0
  0
LINE
  5
26C
330
1F8
100
AcDbEntity
  8
P-SANR-FIXT
100
AcDbLine
 10
881.9821854164604
 20
1177.795115160994
 30
0.0
 11
882.7586425517679
 21
1177.795115160994
 31
0.0
  0
ELLIPSE
  5
26D
330
1F8
100
AcDbEntity
  8
P-SANR-FIXT
100
AcDbEllipse
 10
801.3340635037872
 20
1296.747075844243
 30
0.0
 11
0.0
 21
26.84564288781325
 31
0.0
210
0.0
220
0.0
230
1.0
 40
0.9659258262890615
 41
4.712388980384693
 42
7.627328063008988
  0
LINE
  5
26E
330
1F8
100
AcDbEntity
  8
P-SANR-FIXT
100
AcDbLine
 10
995.6664074431779
 20
1310.031626793543
 30
0.0
 11
995.6664074431783
 21
1396.746022533874
 31
0.0
  0
LINE
  5
26F
330
1F8
100
AcDbEntity
  8
P-SANR-FIXT
100
AcDbLine
 10
995.6664074431779
 20
1304.669873262726
 30
0.0
 11
995.6664074431779
 21
1307.834892010724
 31
0.0
  0
LINE
  5
270
330
1F8
100
AcDbEntity
  8
P-SANR-FIXT
100
AcDbLine
 10
995.6664074431774
 20
1196.748129154614
 30
0.0
 11
995.6664074431779
 21
1283.46252489495
 31
0.0
  0
LINE
  5
271
330
1F8
100
AcDbEntity
  8
P-SANR-FIXT
100
AcDbLine
 10
995.6664074431779
 20
1285.659259677765
 30
0.0
 11
995.6664074431779
 21
1288.82427842578
 31
0.0
  0
LINE
  5
272
330
1F8
100
AcDbEntity
  8
P-SANR-FIXT
100
AcDbLine
 10
1012.666407443178
 20
1296.747075844243
 30
0.0
 11
1012.666407443178
 21
1396.747075844249
 31
0.0
  0
LINE
  5
273
330
1F8
100
AcDbEntity
  8
P-SANR-FIXT
100
AcDbLine
 10
1012.666407443177
 20
1196.747075844239
 30
0.0
 11
1012.666407443178
 21
1296.747075844242
 31
0.0
  0
LINE
  5
274
330
1F8
100
AcDbEntity
  8
P-SANR-FIXT
100
AcDbLine
 10
1015.666407443176
 20
1296.747075844243
 30
0.0
 11
1015.666407443177
 21
1365.747075844201
 31
0.0
  0
LINE
  5
275
330
1F8
100
AcDbEntity
  8
P-SANR-FIXT
100
AcDbLine
 10
1015.666407443176
 20
1227.747075844287
 30
0.0
 11
1015.666407443176
 21
1296.747075844242
 31
0.0
  0
LINE
  5
276
330
1F8
100
AcDbEntity
  8
P-SANR-FIXT
100
AcDbLine
 10
705.6664074431968
 20
1296.747075844245
 30
0.0
 11
705.6664074431973
 21
1365.747075844215
 31
0.0
  0
LINE
  5
277
330
1F8
100
AcDbEntity
  8
P-SANR-FIXT
100
AcDbLine
 10
705.6664074431965
 20
1227.747075844276
 30
0.0
 11
705.6664074431968
 21
1296.747075844244
 31
0.0
  0
LINE
  5
278
330
1F8
100
AcDbEntity
  8
P-SANR-FIXT
100
AcDbLine
 10
708.666407443195
 20
1296.747075844244
 30
0.0
 11
708.6664074431953
 21
1396.747075844249
 31
0.0
  0
LINE
  5
279
330
1F8
100
AcDbEntity
  8
P-SANR-FIXT
100
AcDbLine
 10
708.6664074431943
 20
1196.747075844242
 30
0.0
 11
708.666407443195
 21
1296.747075844244
 31
0.0
  0
LINE
  5
27A
330
1F8
100
AcDbEntity
  8
P-SANR-FIXT
100
AcDbLine
 10
725.6664074431949
 20
1304.064490906315
 30
0.0
 11
725.6664074431949
 21
1307.834892010717
 31
0.0
  0
LINE
  5
27B
330
1F8
100
AcDbEntity
  8
P-SANR-FIXT
100
AcDbLine
 10
725.6664074431949
 20
1310.031626793544
 30
0.0
 11
725.6664074431954
 21
1396.746022498524
 31
0.0
  0
LINE
  5
27C
330
1F8
100
AcDbEntity
  8
P-SANR-FIXT
100
AcDbLine
 10
725.6664074431943
 20
1196.748129189967
 30
0.0
 11
725.6664074431949
 21
1283.462524894951
 31
0.0
  0
LINE
  5
27D
330
1F8
100
AcDbEntity
  8
P-SANR-FIXT
100
AcDbLine
 10
725.6664074431967
 20
1285.659259677774
 30
0.0
 11
725.6664074431967
 21
1289.429660782194
 31
0.0
  0
SPLINE
  5
27E
330
1F8
100
AcDbEntity
  8
P-SANR-FIXT
100
AcDbSpline
210
0.0
220
0.0
230
1.0
 70
    24
 71
     3
 72
     8
 73
     4
 74
     0
 42
0.000000001
 43
0.0000000001
 40
0.7230374640887493
 40
0.7230374640887493
 40
0.7230374640887493
 40
0.7230374640887493
 40
0.7234460417699468
 40
0.7234460417699468
 40
0.7234460417699468
 40
0.7234460417699468
 10
736.2501412349427
 20
1288.747075844254
 30
0.0
 10
736.2449618884975
 20
1288.747075844254
 30
0.0
 10
736.2397824939474
 20
1288.747075844254
 30
0.0
 10
736.2346030518665
 20
1288.747075844254
 30
0.0
  0
SPLINE
  5
27F
330
1F8
100
AcDbEntity
  8
P-SANR-FIXT
100
AcDbSpline
210
0.0
220
0.0
230
1.0
 70
    24
 71
     3
 72
     8
 73
     4
 74
     0
 42
0.000000001
 43
0.0000000001
 40
0.2765539582298124
 40
0.2765539582298124
 40
0.2765539582298124
 40
0.2765539582298124
 40
0.2769625359109963
 40
0.2769625359109963
 40
0.2769625359109963
 40
0.2769625359109963
 10
736.2346030987257
 20
1304.747075844253
 30
0.0
 10
736.2397825098013
 20
1304.747075844253
 30
0.0
 10
736.2449618885753
 20
1304.747075844253
 30
0.0
 10
736.2501412351933
 20
1304.747075844253
 30
0.0
  0
SPLINE
  5
280
330
1F8
100
AcDbEntity
  8
P-SANR-FIXT
100
AcDbSpline
210
0.0
220
0.0
230
1.0
 70
     8
 71
     3
 72
    55
 73
    51
 74
     0
 42
0.000000001
 43
0.0000000001
 40
0.0
 40
0.0
 40
0.0
 40
0.0
 40
0.0555555555555556
 40
0.0833333333333333
 40
0.0972222222222222
 40
0.1111111111111111
 40
0.125
 40
0.1388888888888889
 40
0.1666666666666666
 40
0.1944444444444444
 40
0.2083333333333333
 40
0.2152777777777778
 40
0.2222222222222222
 40
0.2291666666666666
 40
0.2361111111111111
 40
0.25
 40
0.2777777777777778
 40
0.3055555555555556
 40
0.3194444444444444
 40
0.3333333333333333
 40
0.3472222222222222
 40
0.3611111111111111
 40
0.3888888888888888
 40
0.4166666666666666
 40
0.4444444444444445
 40
0.5
 40
0.5555555555555556
 40
0.5833333333333334
 40
0.6111111111111112
 40
0.6388888888888889
 40
0.6527777777777777
 40
0.6666666666666666
 40
0.6805555555555556
 40
0.6944444444444445
 40
0.7222222222222223
 40
0.75
 40
0.7638888888888889
 40
0.7708333333333333
 40
0.7777777777777778
 40
0.7847222222222224
 40
0.7916666666666668
 40
0.8055555555555555
 40
0.8333333333333332
 40
0.861111111111111
 40
0.875
 40
0.8888888888888889
 40
0.9027777777777776
 40
0.9166666666666666
 40
0.9444444444444444
 40
1.0
 40
1.0
 40
1.0
 40
1.0
 10
905.1716799028033
 20
1304.747075844253
 30
0.0
 10
904.8015762606034
 20
1304.747075844253
 30
0.0
 10
904.3094856224275
 20
1304.711368004768
 30
0.0
 10
903.8454867260202
 20
1304.586385224635
 30
0.0
 10
903.6120968513516
 20
1304.488085988448
 30
0.0
 10
903.4521241772194
 20
1304.400464197457
 30
0.0
 10
903.3105203242756
 20
1304.29715039675
 30
0.0
 10
903.1479954471523
 20
1304.13630629081
 30
0.0
 10
902.9871654694305
 20
1303.891912277684
 30
0.0
 10
902.8702985655231
 20
1303.591899762905
 30
0.0
 10
902.8044952884659
 20
1303.356933830547
 30
0.0
 10
902.7706810022401
 20
1303.216380149498
 30
0.0
 10
902.7464414389807
 20
1303.108238142111
 30
0.0
 10
902.7252327677944
 20
1302.996934913509
 30
0.0
 10
902.7033427280123
 20
1302.843462663478
 30
0.0
 10
902.6785683253942
 20
1302.56243378171
 30
0.0
 10
902.6749702030972
 20
1302.126651712061
 30
0.0
 10
902.6920760157322
 20
1301.65080434628
 30
0.0
 10
902.7063152218167
 20
1301.250223441862
 30
0.0
 10
902.7122331019468
 20
1300.941235240168
 30
0.0
 10
902.7178375651804
 20
1300.624126863929
 30
0.0
 10
902.7332532256851
 20
1300.190280933816
 30
0.0
 10
902.7591479777866
 20
1299.629444777484
 30
0.0
 10
902.7923040892165
 20
1298.932133998344
 30
0.0
 10
902.8200250796997
 20
1297.977617018516
 30
0.0
 10
902.8260377219737
 20
1296.752519246955
 30
0.0
 10
902.8202516816618
 20
1295.52726507423
 30
0.0
 10
902.7926318307791
 20
1294.572343861355
 30
0.0
 10
902.7595640662051
 20
1293.874594952388
 30
0.0
 10
902.7336908890683
 20
1293.313354101126
 30
0.0
 10
902.7182400732309
 20
1292.879195088069
 30
0.0
 10
902.7125789034732
 20
1292.561846860238
 30
0.0
 10
902.706557740514
 20
1292.252688135447
 30
0.0
 10
902.6921210799836
 20
1291.851986618445
 30
0.0
 10
902.6746934124931
 20
1291.376007745293
 30
0.0
 10
902.6779489769936
 20
1290.939830244491
 30
0.0
 10
902.7025162440319
 20
1290.658285569951
 30
0.0
 10
902.7243025132831
 20
1290.504443485984
 30
0.0
 10
902.7454444580218
 20
1290.392825665377
 30
0.0
 10
902.7696206003364
 20
1290.284325722737
 30
0.0
 10
902.8033439636248
 20
1290.143243502581
 30
0.0
 10
902.8689837735146
 20
1289.907257889667
 30
0.0
 10
902.9856253541757
 20
1289.605705413052
 30
0.0
 10
903.1463092153543
 20
1289.360040214445
 30
0.0
 10
903.3088027576859
 20
1289.198448478624
 30
0.0
 10
903.4504400001706
 20
1289.094723683178
 30
0.0
 10
903.6104961438425
 20
1289.006797972752
 30
0.0
 10
903.8440417451852
 20
1288.908172922855
 30
0.0
 10
904.3084441368366
 20
1288.782833470788
 30
0.0
 10
904.8011006863127
 20
1288.747075844253
 30
0.0
 10
905.1716799028033
 20
1288.747075844253
 30
0.0
  0
SPLINE
  5
281
330
1F8
100
AcDbEntity
  8
P-SANR-FIXT
100
AcDbSpline
210
0.0
220
0.0
230
1.0
 70
     8
 71
     3
 72
     9
 73
     5
 74
     0
 42
0.000000001
 43
0.0000000001
 40
0.0949747710767218
 40
0.0949747710767218
 40
0.0949747710767218
 40
0.0949747710767218
 40
0.0972222222222222
 40
0.1111111111111111
 40
0.1111111111111111
 40
0.1111111111111111
 40
0.1111111111111111
 10
736.5498681590504
 20
1304.379588388913
 30
0.0
 10
736.5533888605187
 20
1304.373917812929
 30
0.0
 10
736.5788722079636
 20
1304.332756416864
 30
0.0
 10
736.6057924395447
 20
1304.28839272488
 30
0.0
 10
736.6307197538351
 20
1304.247952424968
 30
0.0
  0
SPLINE
  5
282
330
1F8
100
AcDbEntity
  8
P-SANR-FIXT
100
AcDbSpline
210
0.0
220
0.0
230
1.0
 70
     8
 71
     3
 72
     8
 73
     4
 74
     0
 42
0.000000001
 43
0.0000000001
 40
0.1851851851851852
 40
0.1851851851851852
 40
0.1851851851851852
 40
0.1851851851851852
 40
0.1871723626517447
 40
0.1871723626517447
 40
0.1871723626517447
 40
0.1871723626517447
 10
737.1586822676638
 20
1303.41933259818
 30
0.0
 10
737.1640480270102
 20
1303.410355815542
 30
0.0
 10
737.1694166570469
 20
1303.401338011969
 30
0.0
 10
737.1747870296577
 20
1303.392279248171
 30
0.0
  0
SPLINE
  5
283
330
1F8
100
AcDbEntity
  8
P-SANR-FIXT
100
AcDbSpline
210
0.0
220
0.0
230
1.0
 70
     8
 71
     3
 72
     8
 73
     4
 74
     0
 42
0.000000001
 43
0.0000000001
 40
0.2528220781676678
 40
0.2528220781676678
 40
0.2528220781676678
 40
0.2528220781676678
 40
0.2592592592592593
 40
0.2592592592592593
 40
0.2592592592592593
 40
0.2592592592592593
 10
737.6970765086086
 20
1302.365239812369
 30
0.0
 10
737.7147234797725
 20
1302.327816973233
 30
0.0
 10
737.7324201414847
 20
1302.290039631329
 30
0.0
 10
737.7501345775994
 20
1302.251909299967
 30
0.0
  0
SPLINE
  5
284
330
1F8
100
AcDbEntity
  8
P-SANR-FIXT
100
AcDbSpline
210
0.0
220
0.0
230
1.0
 70
     8
 71
     3
 72
     9
 73
     5
 74
     0
 42
0.000000001
 43
0.0000000001
 40
0.2962962962962963
 40
0.2962962962962963
 40
0.2962962962962963
 40
0.2962962962962963
 40
0.3055555555555556
 40
0.3093090651934199
 40
0.3093090651934199
 40
0.3093090651934199
 40
0.3093090651934199
 10
738.051565228201
 20
1301.558942253951
 30
0.0
 10
738.0758094264556
 20
1301.498305925089
 30
0.0
 10
738.1093918885615
 20
1301.412074520214
 30
0.0
 10
738.1420930492943
 20
1301.324417079143
 30
0.0
 10
738.151440867523
 20
1301.299013230288
 30
0.0
  0
SPLINE
  5
285
330
1F8
100
AcDbEntity
  8
P-SANR-FIXT
100
AcDbSpline
210
0.0
220
0.0
230
1.0
 70
     8
 71
     3
 72
     9
 73
     5
 74
     0
 42
0.000000001
 43
0.0000000001
 40
0.3607327859800179
 40
0.3607327859800179
 40
0.3607327859800179
 40
0.3607327859800179
 40
0.3611111111111111
 40
0.3703703703703703
 40
0.3703703703703703
 40
0.3703703703703703
 40
0.3703703703703703
 10
738.4901249911441
 20
1300.189865104973
 30
0.0
 10
738.4908889746098
 20
1300.186999460821
 30
0.0
 10
738.5103380590318
 20
1300.113974547527
 30
0.0
 10
738.5294522138443
 20
1300.040326500338
 30
0.0
 10
738.5474491609855
 20
1299.969026856344
 30
0.0
  0
SPLINE
  5
286
330
1F8
100
AcDbEntity
  8
P-SANR-FIXT
100
AcDbSpline
210
0.0
220
0.0
230
1.0
 70
     8
 71
     3
 72
     8
 73
     4
 74
     0
 42
0.000000001
 43
0.0000000001
 40
0.4074074074074074
 40
0.4074074074074074
 40
0.4074074074074074
 40
0.4074074074074074
 40
0.4088582201905454
 40
0.4088582201905454
 40
0.4088582201905454
 40
0.4088582201905454
 10
738.7418143139065
 20
1299.089596734305
 30
0.0
 10
738.7440066163467
 20
1299.077836638003
 30
0.0
 10
738.7461824410686
 20
1299.066067227541
 30
0.0
 10
738.7483414248761
 20
1299.054288691935
 30
0.0
  0
SPLINE
  5
287
330
1F8
100
AcDbEntity
  8
P-SANR-FIXT
100
AcDbSpline
210
0.0
220
0.0
230
1.0
 70
     8
 71
     3
 72
     8
 73
     4
 74
     0
 42
0.000000001
 43
0.0000000001
 40
0.4444444444444445
 40
0.4444444444444445
 40
0.4444444444444445
 40
0.4444444444444445
 40
0.4549334494200112
 40
0.4549334494200112
 40
0.4549334494200112
 40
0.4549334494200112
 10
738.874258233248
 20
1298.172548198298
 30
0.0
 10
738.883373069518
 20
1298.084475559401
 30
0.0
 10
738.8915417665194
 20
1297.995978504556
 30
0.0
 10
738.8987937218822
 20
1297.907131377291
 30
0.0
  0
SPLINE
  5
288
330
1F8
100
AcDbEntity
  8
P-SANR-FIXT
100
AcDbSpline
210
0.0
220
0.0
230
1.0
 70
     8
 71
     3
 72
     8
 73
     4
 74
     0
 42
0.000000001
 43
0.0000000001
 40
0.5451667350351912
 40
0.5451667350351912
 40
0.5451667350351912
 40
0.5451667350351912
 40
0.5555555555555556
 40
0.5555555555555556
 40
0.5555555555555556
 40
0.5555555555555556
 10
738.8984526432026
 20
1295.586852086667
 30
0.0
 10
738.8914123075939
 20
1295.498916686701
 30
0.0
 10
738.883464152841
 20
1295.41132203121
 30
0.0
 10
738.8745282636253
 20
1295.324107707786
 30
0.0
  0
SPLINE
  5
289
330
1F8
100
AcDbEntity
  8
P-SANR-FIXT
100
AcDbSpline
210
0.0
220
0.0
230
1.0
 70
     8
 71
     3
 72
     8
 73
     4
 74
     0
 42
0.000000001
 43
0.0000000001
 40
0.5912225452308607
 40
0.5912225452308607
 40
0.5912225452308607
 40
0.5912225452308607
 40
0.5925925925925926
 40
0.5925925925925926
 40
0.5925925925925926
 40
0.5925925925925926
 10
738.7482872323833
 20
1294.439892992264
 30
0.0
 10
738.746247882471
 20
1294.428762521474
 30
0.0
 10
738.7441936414359
 20
1294.417640249301
 30
0.0
 10
738.7421247708113
 20
1294.406526333568
 30
0.0
  0
SPLINE
  5
28A
330
1F8
100
AcDbEntity
  8
P-SANR-FIXT
100
AcDbSpline
210
0.0
220
0.0
230
1.0
 70
     8
 71
     3
 72
     9
 73
     5
 74
     0
 42
0.000000001
 43
0.0000000001
 40
0.6296296296296296
 40
0.6296296296296296
 40
0.6296296296296296
 40
0.6296296296296296
 40
0.6388888888888889
 40
0.6393235910347931
 40
0.6393235910347931
 40
0.6393235910347931
 40
0.6393235910347931
 10
738.54753015998
 20
1293.526487955484
 30
0.0
 10
738.5295432640758
 20
1293.455140995274
 30
0.0
 10
738.5103761978373
 20
1293.381012380067
 30
0.0
 10
738.4909596244385
 20
1293.307513073171
 30
0.0
 10
738.4900884310683
 20
1293.304218445118
 30
0.0
  0
SPLINE
  5
28B
330
1F8
100
AcDbEntity
  8
P-SANR-FIXT
100
AcDbSpline
210
0.0
220
0.0
230
1.0
 70
     8
 71
     3
 72
     9
 73
     5
 74
     0
 42
0.000000001
 43
0.0000000001
 40
0.6907529344146269
 40
0.6907529344146269
 40
0.6907529344146269
 40
0.6907529344146269
 40
0.6944444444444445
 40
0.7037037037037035
 40
0.7037037037037035
 40
0.7037037037037035
 40
0.7037037037037035
 10
738.1514593419831
 20
1292.19509061246
 30
0.0
 10
738.1422682714591
 20
1292.17012591888
 30
0.0
 10
738.1097352887809
 20
1292.082950515965
 30
0.0
 10
738.0763428714747
 20
1291.997193454891
 30
0.0
 10
738.0521240608453
 20
1291.936603813951
 30
0.0
  0
SPLINE
  5
28C
330
1F8
100
AcDbEntity
  8
P-SANR-FIXT
100
AcDbSpline
210
0.0
220
0.0
230
1.0
 70
     8
 71
     3
 72
     8
 73
     4
 74
     0
 42
0.000000001
 43
0.0000000001
 40
0.7407407407407405
 40
0.7407407407407405
 40
0.7407407407407405
 40
0.7407407407407405
 40
0.7472923915544817
 40
0.7472923915544817
 40
0.7472923915544817
 40
0.7472923915544817
 10
737.751018981161
 20
1291.244152031787
 30
0.0
 10
737.7330044312598
 20
1291.205365401952
 30
0.0
 10
737.7150073137173
 20
1291.166941906856
 30
0.0
 10
737.6970612950117
 20
1291.128882621911
 30
0.0
  0
SPLINE
  5
28D
330
1F8
100
AcDbEntity
  8
P-SANR-FIXT
100
AcDbSpline
210
0.0
220
0.0
230
1.0
 70
     8
 71
     3
 72
     8
 73
     4
 74
     0
 42
0.000000001
 43
0.0000000001
 40
0.8129231976316294
 40
0.8129231976316294
 40
0.8129231976316294
 40
0.8129231976316294
 40
0.8148148148148145
 40
0.8148148148148145
 40
0.8148148148148145
 40
0.8148148148148145
 10
737.1748440377237
 20
1290.101973085296
 30
0.0
 10
737.169726587094
 20
1290.093341211276
 30
0.0
 10
737.1646106648157
 20
1290.084746357625
 30
0.0
 10
737.1594972549476
 20
1290.07618859845
 30
0.0
  0
SPLINE
  5
28E
330
1F8
100
AcDbEntity
  8
P-SANR-FIXT
100
AcDbSpline
210
0.0
220
0.0
230
1.0
 70
     8
 71
     3
 72
     9
 73
     5
 74
     0
 42
0.000000001
 43
0.0000000001
 40
0.8888888888888889
 40
0.8888888888888889
 40
0.8888888888888889
 40
0.8888888888888889
 40
0.9027777777777776
 40
0.9050441683140929
 40
0.9050441683140929
 40
0.9050441683140929
 40
0.9050441683140929
 10
736.630864099886
 20
1289.246410263913
 30
0.0
 10
736.6059138549538
 20
1289.205937994524
 30
0.0
 10
736.5787862575297
 20
1289.161164312026
 30
0.0
 10
736.5534604829276
 20
1289.120369446986
 30
0.0
 10
736.549938579495
 20
1289.114713893371
 30
0.0
  0
ELLIPSE
  5
28F
330
1F8
100
AcDbEntity
  8
P-SANR-FIXT
100
AcDbEllipse
 10
801.3340635037872
 20
1296.747075844243
 30
0.0
 11
0.0000000000032802
 21
26.84564288781303
 31
0.0
210
0.0
220
0.0
230
0.9999999999999998
 40
0.965925826289072
 41
1.797449897759689
 42
4.712388980384809
  0
ELLIPSE
  5
290
330
1F8
100
AcDbEntity
  8
P-SANR-FIXT
100
AcDbEllipse
 10
804.0785039548122
 20
1296.747075844243
 30
0.0
 11
0.0000000000050914
 21
38.84564288781303
 31
0.0
210
0.0
220
0.0
230
1.0
 40
0.965925826289073
 41
4.71238898038481
 42
7.853981633974598
  0
ELLIPSE
  5
291
330
1F8
100
AcDbEntity
  8
P-SANR-FIXT
100
AcDbEllipse
 10
804.0785039548122
 20
1296.747075844243
 30
0.0
 11
0.0
 21
38.84564288781303
 31
0.0
210
0.0
220
0.0
230
1.0
 40
0.9659258262890672
 41
1.570796326794892
 42
4.712388980384685
  0
ELLIPSE
  5
292
330
1F8
100
AcDbEntity
  8
P-SANR-FIXT
100
AcDbEllipse
 10
804.8549610901199
 20
1296.747075844243
 30
0.0
 11
0.000000000001693
 21
38.84564288781326
 31
0.0
210
0.0
220
0.0
230
1.0
 40
0.9659258262890617
 41
4.712388980384725
 42
6.1959188445799
  0
ELLIPSE
  5
293
330
1F8
100
AcDbEntity
  8
P-SANR-FIXT
100
AcDbEllipse
 10
804.8549610901199
 20
1296.747075844243
 30
0.0
 11
0.0
 21
38.84564288781307
 31
0.0
210
0.0
220
0.0
230
0.9999999999999998
 40
0.9659258262890674
 41
3.228859116189502
 42
4.712388980384685
  0
ELLIPSE
  5
294
330
1F8
100
AcDbEntity
  8
P-SANR-FIXT
100
AcDbEllipse
 10
804.8549610901199
 20
1296.747075844243
 30
0.0
 11
0.0
 21
40.34564288781325
 31
0.0
210
0.0
220
0.0
230
1.0
 40
0.9659258262890656
 41
4.712388980384679
 42
7.853981633974473
  0
ELLIPSE
  5
295
330
1F8
100
AcDbEntity
  8
P-SANR-FIXT
100
AcDbEllipse
 10
804.8549610901199
 20
1296.747075844243
 30
0.0
 11
0.0
 21
40.34564288781325
 31
0.0
210
0.0
220
0.0
230
1.0
 40
0.9659258262890684
 41
1.570796326794892
 42
4.712388980384679
  0
ELLIPSE
  5
296
330
1F8
100
AcDbEntity
  8
P-SANR-FIXT
100
AcDbEllipse
 10
806.0829458996805
 20
1296.747075844243
 30
0.0
 11
0.0000000000001152
 21
46.0
 31
0.0
210
0.0
220
0.0
230
1.0
 40
0.9659258262890672
 41
4.71238898038468
 42
7.853981633974475
  0
ELLIPSE
  5
297
330
1F8
100
AcDbEntity
  8
P-SANR-FIXT
100
AcDbEllipse
 10
806.0829458996805
 20
1296.747075844243
 30
0.0
 11
0.0000000000001152
 21
45.99999999999977
 31
0.0
210
0.0
220
0.0
230
1.0
 40
0.9659258262890745
 41
1.570796326794894
 42
4.71238898038468
  0
ELLIPSE
  5
298
330
1F8
100
AcDbEntity
  8
P-SANR-FIXT
100
AcDbEllipse
 10
811.5253027215551
 20
1296.747075844243
 30
0.0
 11
0.0000000000018107
 21
46.00000000000022
 31
0.0
210
0.0
220
0.0
230
1.0
 40
0.9659258262890649
 41
4.712388980384716
 42
6.283185307179619
  0
ELLIPSE
  5
299
330
1F8
100
AcDbEntity
  8
P-SANR-FIXT
100
AcDbEllipse
 10
811.5253027215551
 20
1296.747075844243
 30
0.0
 11
0.0
 21
45.99999999999977
 31
0.0
210
0.0
220
0.0
230
1.0
 40
0.9659258262890745
 41
3.141592653589826
 42
4.712388980384679
  0
LINE
  5
29A
330
1F8
100
AcDbEntity
  8
P-SANR-FIXT
100
AcDbLine
 10
868.2502066854386
 20
1296.747075844253
 30
0.0
 11
864.5914704854428
 21
1340.041855826092
 31
0.0
  0
ELLIPSE
  5
29B
330
1F8
100
AcDbEntity
  8
P-SANR-FIXT
100
AcDbEllipse
 10
845.8841020800777
 20
1335.051067771406
 30
0.0
 11
0.0
 21
20.00000000000014
 31
0.0
210
0.0
220
0.0
230
1.0
 40
0.9659258262890608
 41
4.964593561909058
 42
6.248278722139689
  0
LINE
  5
29C
330
1F8
100
AcDbEntity
  8
P-SANR-FIXT
100
AcDbLine
 10
846.5583085838664
 20
1355.038884311787
 30
0.0
 11
811.5253027215548
 21
1358.211996344587
 31
0.0
  0
LINE
  5
29D
330
1F8
100
AcDbEntity
  8
P-SANR-FIXT
100
AcDbLine
 10
811.5253027215548
 20
1358.211996344587
 30
0.0
 11
776.4922968592435
 21
1355.038884311788
 31
0.0
  0
ELLIPSE
  5
29E
330
1F8
100
AcDbEntity
  8
P-SANR-FIXT
100
AcDbEllipse
 10
777.1665033630324
 20
1335.051067771406
 30
0.0
 11
0.0
 21
20.00000000000012
 31
0.0
210
0.0
220
0.0
230
1.0
 40
0.9659258262890599
 41
0.0349065850398873
 42
1.484211842610109
  0
LINE
  5
29F
330
1F8
100
AcDbEntity
  8
P-SANR-FIXT
100
AcDbLine
 10
757.9203558400505
 20
1336.780594556433
 30
0.0
 11
754.563792848615
 21
1296.747075844254
 31
0.0
  0
LINE
  5
2A0
330
1F8
100
AcDbEntity
  8
P-SANR-FIXT
100
AcDbLine
 10
754.563792848615
 20
1296.747075844254
 30
0.0
 11
757.8597551555494
 21
1257.745093983051
 31
0.0
  0
ELLIPSE
  5
2A1
330
1F8
100
AcDbEntity
  8
P-SANR-FIXT
100
AcDbEllipse
 10
777.1665033630322
 20
1258.443083917102
 30
0.0
 11
0.0
 21
20.00000000000011
 31
0.0
210
0.0
220
0.0
230
1.0
 40
0.9659258262890654
 41
1.605702911834773
 42
3.106686068549873
  0
LINE
  5
2A2
330
1F8
100
AcDbEntity
  8
P-SANR-FIXT
100
AcDbLine
 10
776.4922968592433
 20
1238.45526737672
 30
0.0
 11
811.5253027215551
 21
1235.28215534392
 31
0.0
  0
LINE
  5
2A3
330
1F8
100
AcDbEntity
  8
P-SANR-FIXT
100
AcDbLine
 10
811.5253027215551
 20
1235.28215534392
 30
0.0
 11
847.8236200647938
 21
1239.231844628499
 31
0.0
  0
ELLIPSE
  5
2A4
330
1F8
100
AcDbEntity
  8
P-SANR-FIXT
100
AcDbEllipse
 10
841.2145919621956
 20
1263.277316516328
 30
0.0
 11
0.0
 21
25.00000000000005
 31
0.0
210
0.0
220
0.0
230
1.0
 40
0.9659258262890663
 41
3.41881673420711
 42
4.677482395344771
  0
LINE
  5
2A5
330
1F8
100
AcDbEntity
  8
P-SANR-FIXT
100
AcDbLine
 10
865.3480272215489
 20
1262.404829098765
 30
0.0
 11
868.2502066854386
 21
1296.747075844253
 31
0.0
  0
SPLINE
  5
2A6
330
1F8
100
AcDbEntity
  8
P-SANR-FIXT
100
AcDbSpline
210
0.0
220
0.0
230
1.0
 70
     8
 71
     3
 72
     9
 73
     5
 74
     0
 42
0.000000001
 43
0.0000000001
 40
0.6666666666666666
 40
0.6666666666666666
 40
0.6666666666666666
 40
0.6666666666666666
 40
0.8333333333333332
 40
1.0
 40
1.0
 40
1.0
 40
1.0
 10
873.9165598201855
 20
1306.336884504073
 30
0.0
 10
874.1300108980507
 20
1306.478426334678
 30
0.0
 10
874.5726854508001
 20
1306.681890060293
 30
0.0
 10
875.0400540729529
 20
1306.749268226494
 30
0.0
 10
875.2808589640016
 20
1306.747075844253
 30
0.0
  0
SPLINE
  5
2A7
330
1F8
100
AcDbEntity
  8
P-SANR-FIXT
100
AcDbSpline
210
0.0
220
0.0
230
1.0
 70
     8
 71
     3
 72
     9
 73
     5
 74
     0
 42
0.000000001
 43
0.0000000001
 40
0.0
 40
0.0
 40
0.0
 40
0.0
 40
0.1666666666666666
 40
0.3333333333333333
 40
0.3333333333333333
 40
0.3333333333333333
 40
0.3333333333333333
 10
875.2808589640064
 20
1286.747075844254
 30
0.0
 10
875.0400540729577
 20
1286.744883462013
 30
0.0
 10
874.5726854508047
 20
1286.812261628214
 30
0.0
 10
874.1300108980551
 20
1287.015725353828
 30
0.0
 10
873.9165598201898
 20
1287.157267184434
 30
0.0
  0
ELLIPSE
  5
2A8
330
1F8
100
AcDbEntity
  8
P-SANR-FIXT
100
AcDbEllipse
 10
930.1339307155721
 20
1296.747075844253
 30
0.0
 11
0.0
 21
39.60463084202595
 31
0.0
210
0.0
220
0.0
230
1.0
 40
0.1793631308672731
 41
0.0205130283797148
 42
1.315537636225641
  0
ELLIPSE
  5
2A9
330
1F8
100
AcDbEntity
  8
P-SANR-FIXT
100
AcDbEllipse
 10
930.1339307155636
 20
1296.747075844253
 30
0.0
 11
0.0
 21
39.60463084202493
 31
0.0
210
0.0
220
0.0
230
1.0
 40
0.179363130867274
 41
1.826055017364159
 42
3.12107962521001
  0
ELLIPSE
  5
2AA
330
1F8
100
AcDbEntity
  8
P-SANR-FIXT
100
AcDbEllipse
 10
901.5071474009891
 20
1296.747075844253
 30
0.0
 11
0.0
 21
39.24728057857049
 31
0.0
210
0.0
220
0.0
230
1.0
 40
0.1793631308672707
 41
6.262200633343372
 42
6.909675465741759
  0
ELLIPSE
  5
2AB
330
1F8
100
AcDbEntity
  8
P-SANR-FIXT
100
AcDbEllipse
 10
901.5071474009898
 20
1296.747075844253
 30
0.0
 11
0.0
 21
39.24728057857061
 31
0.0
210
0.0
220
0.0
230
1.0
 40
0.1793631308672719
 41
2.514168700302243
 42
3.162577327425965
  0
SPLINE
  5
2AC
330
1F8
100
AcDbEntity
  8
P-SANR-FIXT
100
AcDbSpline
210
0.0
220
0.0
230
1.0
 70
     8
 71
     3
 72
    10
 73
     6
 74
     0
 42
0.000000001
 43
0.0000000001
 40
-1.0
 40
-1.0
 40
-1.0
 40
-1.0
 40
-0.6666666666666666
 40
-0.3333333333333333
 40
0.0
 40
0.0
 40
0.0
 40
0.0
 10
944.1736543264052
 20
1306.747075844253
 30
0.0
 10
944.9178032856819
 20
1306.747075844253
 30
0.0
 10
946.3897025980029
 20
1306.60655991803
 30
0.0
 10
948.495889445679
 20
1305.943511843673
 30
0.0
 10
949.754007754079
 20
1305.194895020785
 30
0.0
 10
950.3354826360789
 20
1304.747075844253
 30
0.0
  0
SPLINE
  5
2AD
330
1F8
100
AcDbEntity
  8
P-SANR-FIXT
100
AcDbSpline
210
0.0
220
0.0
230
1.0
 70
     8
 71
     3
 72
    10
 73
     6
 74
     0
 42
0.000000001
 43
0.0000000001
 40
-1.0
 40
-1.0
 40
-1.0
 40
-1.0
 40
-0.6666666666666666
 40
-0.3333333333333333
 40
0.0
 40
0.0
 40
0.0
 40
0.0
 10
950.3354826360791
 20
1288.747075844253
 30
0.0
 10
949.7540077540794
 20
1288.299256667721
 30
0.0
 10
948.4958894456791
 20
1287.550639844832
 30
0.0
 10
946.3897025980033
 20
1286.887591770475
 30
0.0
 10
944.9178032856821
 20
1286.747075844252
 30
0.0
 10
944.1736543264052
 20
1286.747075844252
 30
0.0
  0
ARC
  5
2AE
330
1F8
100
AcDbEntity
  8
P-SANR-FIXT
100
AcDbCircle
 10
725.6664074431958
 20
1296.747075844248
 30
0.0
 40
13.28455094929602
100
AcDbArc
 50
269.9999999999952
 51
89.99999999999507
  0
LINE
  5
2AF
330
1F8
100
AcDbEntity
  8
P-SANR-FIXT
100
AcDbLine
 10
725.6664074431966
 20
1310.031626793544
 30
0.0
 11
725.6664074431967
 21
1307.834892010717
 31
0.0
  0
LINE
  5
2B0
330
1F8
100
AcDbEntity
  8
P-SANR-FIXT
100
AcDbLine
 10
725.6664074431967
 20
1285.659259677774
 30
0.0
 11
725.666407443195
 21
1283.462524894952
 31
0.0
  0
SPLINE
  5
2B1
330
1F8
100
AcDbEntity
  8
P-SANR-FIXT
100
AcDbSpline
210
0.0
220
0.0
230
1.0
 70
     8
 71
     3
 72
     8
 73
     4
 74
     0
 42
0.000000001
 43
0.0000000001
 40
-0.875
 40
-0.875
 40
-0.875
 40
-0.875
 40
-0.8517372596590973
 40
-0.8517372596590973
 40
-0.8517372596590973
 40
-0.8517372596590973
 10
735.2703027191199
 20
1287.568775052641
 30
0.0
 10
735.2040824356147
 20
1287.4994855409
 30
0.0
 10
735.1371930635736
 20
1287.430784671433
 30
0.0
 10
735.0696188055656
 20
1287.362769557946
 30
0.0
  0
SPLINE
  5
2B2
330
1F8
100
AcDbEntity
  8
P-SANR-FIXT
100
AcDbSpline
210
0.0
220
0.0
230
1.0
 70
     8
 71
     3
 72
     8
 73
     4
 74
     0
 42
0.000000001
 43
0.0000000001
 40
-0.757000723672002
 40
-0.757000723672002
 40
-0.757000723672002
 40
-0.757000723672002
 40
-0.75
 40
-0.75
 40
-0.75
 40
-0.75
 10
734.2086397562384
 20
1286.573116562277
 30
0.0
 10
734.1866213881233
 20
1286.554627236264
 30
0.0
 10
734.1645508629608
 20
1286.536194775274
 30
0.0
 10
734.1424110047135
 20
1286.517869738709
 30
0.0
  0
SPLINE
  5
2B3
330
1F8
100
AcDbEntity
  8
P-SANR-FIXT
100
AcDbSpline
210
0.0
220
0.0
230
1.0
 70
     8
 71
     3
 72
     8
 73
     4
 74
     0
 42
0.000000001
 43
0.0000000001
 40
-0.6635107096723436
 40
-0.6635107096723436
 40
-0.6635107096723436
 40
-0.6635107096723436
 40
-0.625
 40
-0.625
 40
-0.625
 40
-0.625
 10
733.2966421163829
 20
1285.872456841363
 30
0.0
 10
733.1674790328182
 20
1285.781842477285
 30
0.0
 10
733.0364538050907
 20
1285.694619504585
 30
0.0
 10
732.9038666579263
 20
1285.610089402041
 30
0.0
  0
SPLINE
  5
2B4
330
1F8
100
AcDbEntity
  8
P-SANR-FIXT
100
AcDbSpline
210
0.0
220
0.0
230
1.0
 70
     8
 71
     3
 72
     8
 73
     4
 74
     0
 42
0.000000001
 43
0.0000000001
 40
-0.5
 40
-0.5
 40
-0.5
 40
-0.5
 40
-0.4739688312297059
 40
-0.4739688312297059
 40
-0.4739688312297059
 40
-0.4739688312297059
 10
731.5736922589234
 20
1284.848198585013
 30
0.0
 10
731.4784734952431
 20
1284.800921567475
 30
0.0
 10
731.3829663139877
 20
1284.753629933489
 30
0.0
 10
731.2871150150989
 20
1284.706698223524
 30
0.0
  0
SPLINE
  5
2B5
330
1F8
100
AcDbEntity
  8
P-SANR-FIXT
100
AcDbSpline
210
0.0
220
0.0
230
1.0
 70
     8
 71
     3
 72
     8
 73
     4
 74
     0
 42
0.000000001
 43
0.0000000001
 40
-0.3788402124066406
 40
-0.3788402124066406
 40
-0.3788402124066406
 40
-0.3788402124066406
 40
-0.375
 40
-0.375
 40
-0.375
 40
-0.375
 10
730.2110417062627
 20
1284.26407061212
 30
0.0
 10
730.1963228960856
 20
1284.258711857727
 30
0.0
 10
730.1815995283021
 20
1284.253352267603
 30
0.0
 10
730.1668712573502
 20
1284.247994275547
 30
0.0
  0
SPLINE
  5
2B6
330
1F8
100
AcDbEntity
  8
P-SANR-FIXT
100
AcDbSpline
210
0.0
220
0.0
230
1.0
 70
     8
 71
     3
 72
     8
 73
     4
 74
     0
 42
0.000000001
 43
0.0000000001
 40
-0.2844188480135066
 40
-0.2844188480135066
 40
-0.2844188480135066
 40
-0.2844188480135066
 40
-0.25
 40
-0.25
 40
-0.25
 40
-0.25
 10
729.1096219961408
 20
1283.916487067784
 30
0.0
 10
728.9740293962718
 20
1283.880099925764
 30
0.0
 10
728.8380817067708
 20
1283.843922933507
 30
0.0
 10
728.7011404326658
 20
1283.813797466084
 30
0.0
  0
SPLINE
  5
2B7
330
1F8
100
AcDbEntity
  8
P-SANR-FIXT
100
AcDbSpline
210
0.0
220
0.0
230
1.0
 70
     8
 71
     3
 72
     8
 73
     4
 74
     0
 42
0.000000001
 43
0.0000000001
 40
-0.125
 40
-0.125
 40
-0.125
 40
-0.125
 40
-0.0946926064631045
 40
-0.0946926064631045
 40
-0.0946926064631045
 40
-0.0946926064631045
 10
727.1942461191728
 20
1283.550820747223
 30
0.0
 10
727.0713319367059
 20
1283.536587264142
 30
0.0
 10
726.9480940547349
 20
1283.526684719191
 30
0.0
 10
726.8246682280743
 20
1283.519214584857
 30
0.0
  0
SPLINE
  5
2B8
330
1F8
100
AcDbEntity
  8
P-SANR-FIXT
100
AcDbSpline
210
0.0
220
0.0
230
1.0
 70
     8
 71
     3
 72
     8
 73
     4
 74
     0
 42
0.000000001
 43
0.0000000001
 40
-0.9053073935366448
 40
-0.9053073935366448
 40
-0.9053073935366448
 40
-0.9053073935366448
 40
-0.875
 40
-0.875
 40
-0.875
 40
-0.875
 10
726.8249375158749
 20
1309.980890148556
 30
0.0
 10
726.9482125468266
 20
1309.970086429761
 30
0.0
 10
727.0714566674783
 20
1309.957789703147
 30
0.0
 10
727.1945472898928
 20
1309.94387489186
 30
0.0
  0
SPLINE
  5
2B9
330
1F8
100
AcDbEntity
  8
P-SANR-FIXT
100
AcDbSpline
210
0.0
220
0.0
230
1.0
 70
     8
 71
     3
 72
     8
 73
     4
 74
     0
 42
0.000000001
 43
0.0000000001
 40
-0.75
 40
-0.75
 40
-0.75
 40
-0.75
 40
-0.7155811519859912
 40
-0.7155811519859912
 40
-0.7155811519859912
 40
-0.7155811519859912
 10
728.7011404326622
 20
1309.680354222412
 30
0.0
 10
728.8378490743879
 20
1309.648288546689
 30
0.0
 10
728.9735711146853
 20
1309.613343421373
 30
0.0
 10
729.1084364336744
 20
1309.575832160159
 30
0.0
  0
SPLINE
  5
2BA
330
1F8
100
AcDbEntity
  8
P-SANR-FIXT
100
AcDbSpline
210
0.0
220
0.0
230
1.0
 70
     8
 71
     3
 72
     8
 73
     4
 74
     0
 42
0.000000001
 43
0.0000000001
 40
-0.625
 40
-0.625
 40
-0.625
 40
-0.625
 40
-0.6211597875927235
 40
-0.6211597875927235
 40
-0.6211597875927235
 40
-0.6211597875927235
 10
730.1668573236501
 20
1309.24607913025
 30
0.0
 10
730.1815947410452
 20
1309.240772525
 30
0.0
 10
730.1963160020619
 20
1309.235430064304
 30
0.0
 10
730.2110216595833
 20
1309.23005267711
 30
0.0
  0
SPLINE
  5
2BB
330
1F8
100
AcDbEntity
  8
P-SANR-FIXT
100
AcDbSpline
210
0.0
220
0.0
230
1.0
 70
     8
 71
     3
 72
     8
 73
     4
 74
     0
 42
0.000000001
 43
0.0000000001
 40
-0.5260311687695666
 40
-0.5260311687695666
 40
-0.5260311687695666
 40
-0.5260311687695666
 40
-0.5
 40
-0.5
 40
-0.5
 40
-0.5
 10
731.2864146792119
 20
1308.784308200764
 30
0.0
 10
731.3827057361029
 20
1308.739351478994
 30
0.0
 10
731.4781104771532
 20
1308.692769541949
 30
0.0
 10
731.5736922589166
 20
1308.645953103485
 30
0.0
  0
SPLINE
  5
2BC
330
1F8
100
AcDbEntity
  8
P-SANR-FIXT
100
AcDbSpline
210
0.0
220
0.0
230
1.0
 70
     8
 71
     3
 72
     8
 73
     4
 74
     0
 42
0.000000001
 43
0.0000000001
 40
-0.375
 40
-0.375
 40
-0.375
 40
-0.375
 40
-0.3364892903266718
 40
-0.3364892903266718
 40
-0.3364892903266718
 40
-0.3364892903266718
 10
732.9045708805055
 20
1307.886474692599
 30
0.0
 10
733.0367608662458
 20
1307.800584061886
 30
0.0
 10
733.1691897959395
 20
1307.714180765757
 30
0.0
 10
733.3001932209064
 20
1307.625579713319
 30
0.0
  0
SPLINE
  5
2BD
330
1F8
100
AcDbEntity
  8
P-SANR-FIXT
100
AcDbSpline
210
0.0
220
0.0
230
1.0
 70
     8
 71
     3
 72
     8
 73
     4
 74
     0
 42
0.000000001
 43
0.0000000001
 40
-0.25
 40
-0.25
 40
-0.25
 40
-0.25
 40
-0.2429992763268301
 40
-0.2429992763268301
 40
-0.2429992763268301
 40
-0.2429992763268301
 10
734.1424110047047
 20
1306.976281949793
 30
0.0
 10
734.1645449810799
 20
1306.957940198148
 30
0.0
 10
734.1864927174896
 20
1306.939395386466
 30
0.0
 10
734.2082645537942
 20
1306.920658771563
 30
0.0
  0
SPLINE
  5
2BE
330
1F8
100
AcDbEntity
  8
P-SANR-FIXT
100
AcDbSpline
210
0.0
220
0.0
230
1.0
 70
     8
 71
     3
 72
     8
 73
     4
 74
     0
 42
0.000000001
 43
0.0000000001
 40
-0.1482627403397297
 40
-0.1482627403397297
 40
-0.1482627403397297
 40
-0.1482627403397297
 40
-0.125
 40
-0.125
 40
-0.125
 40
-0.125
 10
735.0694743656306
 20
1306.131023872203
 30
0.0
 10
735.1371339079513
 20
1306.063220291754
 30
0.0
 10
735.2027764186208
 20
1305.993495016931
 30
0.0
 10
735.2669994187039
 20
1305.922414502559
 30
0.0
  0
LINE
  5
2BF
330
1F8
100
AcDbEntity
  8
P-SANR-FIXT
100
AcDbLine
 10
874.7206828130016
 20
1296.747075844253
 30
0.0
 11
871.8185033491119
 21
1262.404829098765
 31
0.0
  0
ELLIPSE
  5
2C0
330
1F8
100
AcDbEntity
  8
P-SANR-FIXT
100
AcDbEllipse
 10
847.6850680897586
 20
1263.277316516328
 30
0.0
 11
0.0
 21
24.99999999999981
 31
0.0
210
0.0
220
0.0
230
0.9999999999999998
 40
0.9659258262890725
 41
3.418816734207116
 42
4.67748239534478
  0
LINE
  5
2C1
330
1F8
100
AcDbEntity
  8
P-SANR-FIXT
100
AcDbLine
 10
854.2940961923564
 20
1239.231844628499
 30
0.0
 11
817.9957788491179
 21
1235.28215534392
 31
0.0
  0
LINE
  5
2C2
330
1F8
100
AcDbEntity
  8
P-SANR-FIXT
100
AcDbLine
 10
817.9957788491181
 20
1358.211996344587
 30
0.0
 11
853.0287847114296
 21
1355.038884311787
 31
0.0
  0
ELLIPSE
  5
2C3
330
1F8
100
AcDbEntity
  8
P-SANR-FIXT
100
AcDbEllipse
 10
852.3545782076407
 20
1335.051067771406
 30
0.0
 11
0.0
 21
19.99999999999988
 31
0.0
210
0.0
220
0.0
230
1.0
 40
0.9659258262890713
 41
4.964593561909072
 42
6.248278722139696
  0
LINE
  5
2C4
330
1F8
100
AcDbEntity
  8
P-SANR-FIXT
100
AcDbLine
 10
871.061946613006
 20
1340.041855826092
 30
0.0
 11
874.7206828130016
 21
1296.747075844253
 31
0.0
  0
LINE
  5
2C5
330
1F8
100
AcDbEntity
  8
P-SANR-FIXT
100
AcDbLine
 10
865.3480272215487
 20
1262.404829098765
 30
0.0
 11
871.8185033491119
 21
1262.404829098765
 31
0.0
  0
LINE
  5
2C6
330
1F8
100
AcDbEntity
  8
P-SANR-FIXT
100
AcDbLine
 10
864.5914704854428
 20
1340.041855826092
 30
0.0
 11
871.061946613006
 21
1340.041855826092
 31
0.0
  0
LINE
  5
2C7
330
1F8
100
AcDbEntity
  8
P-SANR-FIXT
100
AcDbLine
 10
847.8236200647932
 20
1239.231844628499
 30
0.0
 11
854.2940961923564
 21
1239.231844628499
 31
0.0
  0
LINE
  5
2C8
330
1F8
100
AcDbEntity
  8
P-SANR-FIXT
100
AcDbLine
 10
853.0287847114296
 20
1355.038884311787
 30
0.0
 11
846.5583085838664
 21
1355.038884311787
 31
0.0
  0
LINE
  5
2C9
330
1F8
100
AcDbEntity
  8
P-SANR-FIXT
100
AcDbLine
 10
817.9957788491181
 20
1358.211996344587
 30
0.0
 11
811.5253027215549
 21
1358.211996344587
 31
0.0
  0
LINE
  5
2CA
330
1F8
100
AcDbEntity
  8
P-SANR-FIXT
100
AcDbLine
 10
874.7206828130016
 20
1296.747075844253
 30
0.0
 11
868.2502066854386
 21
1296.747075844253
 31
0.0
  0
LINE
  5
2CB
330
1F8
100
AcDbEntity
  8
P-SANR-FIXT
100
AcDbLine
 10
817.9957788491179
 20
1235.28215534392
 30
0.0
 11
811.5253027215549
 21
1235.28215534392
 31
0.0
  0
ARC
  5
2CC
330
1F8
100
AcDbEntity
  8
P-SANR-FIXT
100
AcDbCircle
 10
995.6664074431785
 20
1296.747075844246
 30
0.0
 40
13.28455094929618
100
AcDbArc
 50
90.0000000000022
 51
142.9319212055908
  0
ARC
  5
2CD
330
1F8
100
AcDbEntity
  8
P-SANR-FIXT
100
AcDbCircle
 10
995.6664074431785
 20
1296.747075844246
 30
0.0
 40
13.28455094929609
100
AcDbArc
 50
217.0680787943392
 51
270.0000000000026
  0
LINE
  5
2CE
330
1F8
100
AcDbEntity
  8
P-SANR-FIXT
100
AcDbLine
 10
995.6664074431794
 20
1283.46252489495
 30
0.0
 11
995.6664074431779
 21
1285.659259677765
 31
0.0
  0
LINE
  5
2CF
330
1F8
100
AcDbEntity
  8
P-SANR-FIXT
100
AcDbLine
 10
995.6664074431779
 20
1307.834892010724
 30
0.0
 11
995.6664074431778
 21
1310.031626793543
 31
0.0
  0
SPLINE
  5
2D0
330
1F8
100
AcDbEntity
  8
P-SANR-FIXT
100
AcDbSpline
210
0.0
220
0.0
230
1.0
 70
     8
 71
     3
 72
     8
 73
     4
 74
     0
 42
0.000000001
 43
0.0000000001
 40
-0.875
 40
-0.875
 40
-0.875
 40
-0.875
 40
-0.8524634470951607
 40
-0.8524634470951607
 40
-0.8524634470951607
 40
-0.8524634470951607
 10
986.0678406092418
 20
1305.931078903433
 30
0.0
 10
986.1323992788614
 20
1305.998554801993
 30
0.0
 10
986.1977870294438
 20
1306.064992049885
 30
0.0
 10
986.2639220040643
 20
1306.130566779443
 30
0.0
  0
SPLINE
  5
2D1
330
1F8
100
AcDbEntity
  8
P-SANR-FIXT
100
AcDbSpline
210
0.0
220
0.0
230
1.0
 70
     8
 71
     3
 72
     8
 73
     4
 74
     0
 42
0.000000001
 43
0.0000000001
 40
-0.7585067158559614
 40
-0.7585067158559614
 40
-0.7585067158559614
 40
-0.7585067158559614
 40
-0.75
 40
-0.75
 40
-0.75
 40
-0.75
 10
987.1234307978754
 20
1306.920425953556
 30
0.0
 10
987.1504051417533
 20
1306.943074756238
 30
0.0
 10
987.1774881966128
 20
1306.96555377243
 30
0.0
 10
987.2046235631762
 20
1306.98804784365
 30
0.0
  0
SPLINE
  5
2D2
330
1F8
100
AcDbEntity
  8
P-SANR-FIXT
100
AcDbSpline
210
0.0
220
0.0
230
1.0
 70
     8
 71
     3
 72
     8
 73
     4
 74
     0
 42
0.000000001
 43
0.0000000001
 40
-0.6658662744306186
 40
-0.6658662744306186
 40
-0.6658662744306186
 40
-0.6658662744306186
 40
-0.625
 40
-0.625
 40
-0.625
 40
-0.625
 10
988.0353824241833
 20
1307.621052785397
 30
0.0
 10
988.1737630940708
 20
1307.718155912243
 30
0.0
 10
988.3132904300982
 20
1307.815401489567
 30
0.0
 10
988.4543064488605
 20
1307.910630646441
 30
0.0
  0
SPLINE
  5
2D3
330
1F8
100
AcDbEntity
  8
P-SANR-FIXT
100
AcDbSpline
210
0.0
220
0.0
230
1.0
 70
     8
 71
     3
 72
     8
 73
     4
 74
     0
 42
0.000000001
 43
0.0000000001
 40
-0.5
 40
-0.5
 40
-0.5
 40
-0.5
 40
-0.4777236650223339
 40
-0.4777236650223339
 40
-0.4777236650223339
 40
-0.4777236650223339
 10
989.7998796736377
 20
1308.666100378731
 30
0.0
 10
989.8820340791466
 20
1308.706500262399
 30
0.0
 10
989.9648204211699
 20
1308.744290155106
 30
0.0
 10
990.0481838243662
 20
1308.779699088467
 30
0.0
  0
SPLINE
  5
2D4
330
1F8
100
AcDbEntity
  8
P-SANR-FIXT
100
AcDbSpline
210
0.0
220
0.0
230
1.0
 70
     8
 71
     3
 72
     8
 73
     4
 74
     0
 42
0.000000001
 43
0.0000000001
 40
-0.383162677453639
 40
-0.383162677453639
 40
-0.383162677453639
 40
-0.383162677453639
 40
-0.375
 40
-0.375
 40
-0.375
 40
-0.375
 10
991.1202962245639
 20
1309.228248931623
 30
0.0
 10
991.1516246616731
 20
1309.239624585644
 30
0.0
 10
991.1830125767551
 20
1309.250642937397
 30
0.0
 10
991.2144574676295
 20
1309.261319101393
 30
0.0
  0
SPLINE
  5
2D5
330
1F8
100
AcDbEntity
  8
P-SANR-FIXT
100
AcDbSpline
210
0.0
220
0.0
230
1.0
 70
     8
 71
     3
 72
     8
 73
     4
 74
     0
 42
0.000000001
 43
0.0000000001
 40
-0.2885296597041584
 40
-0.2885296597041584
 40
-0.2885296597041584
 40
-0.2885296597041584
 40
-0.25
 40
-0.25
 40
-0.25
 40
-0.25
 10
992.2227781421792
 20
1309.57540511551
 30
0.0
 10
992.3739416683027
 20
1309.615928993548
 30
0.0
 10
992.5258242352628
 20
1309.649072365937
 30
0.0
 10
992.678251281765
 20
1309.676710454098
 30
0.0
  0
SPLINE
  5
2D6
330
1F8
100
AcDbEntity
  8
P-SANR-FIXT
100
AcDbSpline
210
0.0
220
0.0
230
1.0
 70
     8
 71
     3
 72
     8
 73
     4
 74
     0
 42
0.000000001
 43
0.0000000001
 40
-0.125
 40
-0.125
 40
-0.125
 40
-0.125
 40
-0.0966639181914668
 40
-0.0966639181914668
 40
-0.0966639181914668
 40
-0.0966639181914668
 10
994.1688699611754
 20
1309.945780534225
 30
0.0
 10
994.2820514349593
 20
1309.9587415008
 30
0.0
 10
994.3952013780986
 20
1309.967964131825
 30
0.0
 10
994.5083376536073
 20
1309.974992662195
 30
0.0
  0
SPLINE
  5
2D7
330
1F8
100
AcDbEntity
  8
P-SANR-FIXT
100
AcDbSpline
210
0.0
220
0.0
230
1.0
 70
     8
 71
     3
 72
     8
 73
     4
 74
     0
 42
0.000000001
 43
0.0000000001
 40
-0.9033360818087807
 40
-0.9033360818087807
 40
-0.9033360818087807
 40
-0.9033360818087807
 40
-0.875
 40
-0.875
 40
-0.875
 40
-0.875
 10
994.5085391218762
 20
1283.513884486495
 30
0.0
 10
994.3952882203385
 20
1283.523913983489
 30
0.0
 10
994.2823001477142
 20
1283.535885805661
 30
0.0
 10
994.1695636800414
 20
1283.549697765596
 30
0.0
  0
SPLINE
  5
2D8
330
1F8
100
AcDbEntity
  8
P-SANR-FIXT
100
AcDbSpline
210
0.0
220
0.0
230
1.0
 70
     8
 71
     3
 72
     8
 73
     4
 74
     0
 42
0.000000001
 43
0.0000000001
 40
-0.75
 40
-0.75
 40
-0.75
 40
-0.75
 40
-0.7114703402963489
 40
-0.7114703402963489
 40
-0.7114703402963489
 40
-0.7114703402963489
 10
992.6777906251894
 20
1283.805242121032
 30
0.0
 10
992.5256470178156
 20
1283.840386247853
 30
0.0
 10
992.3745050425523
 20
1283.879118466395
 30
0.0
 10
992.2242077855129
 20
1283.921019722103
 30
0.0
  0
SPLINE
  5
2D9
330
1F8
100
AcDbEntity
  8
P-SANR-FIXT
100
AcDbSpline
210
0.0
220
0.0
230
1.0
 70
     8
 71
     3
 72
     8
 73
     4
 74
     0
 42
0.000000001
 43
0.0000000001
 40
-0.625
 40
-0.625
 40
-0.625
 40
-0.625
 40
-0.6168373225469824
 40
-0.6168373225469824
 40
-0.6168373225469824
 40
-0.6168373225469824
 10
991.2143877558127
 20
1284.232136078459
 30
0.0
 10
991.1829888336725
 20
1284.243271527882
 30
0.0
 10
991.1516556660876
 20
1284.254571620451
 30
0.0
 10
991.1203831639145
 20
1284.266027588488
 30
0.0
  0
SPLINE
  5
2DA
330
1F8
100
AcDbEntity
  8
P-SANR-FIXT
100
AcDbSpline
210
0.0
220
0.0
230
1.0
 70
     8
 71
     3
 72
     8
 73
     4
 74
     0
 42
0.000000001
 43
0.0000000001
 40
-0.522276334978378
 40
-0.522276334978378
 40
-0.522276334978378
 40
-0.522276334978378
 40
-0.5
 40
-0.5
 40
-0.5
 40
-0.5
 10
990.0474362376408
 20
1284.709520674131
 30
0.0
 10
989.9645596055611
 20
1284.748140899244
 30
0.0
 10
989.8823074708962
 20
1284.78799689947
 30
0.0
 10
989.7998796736306
 20
1284.828051309765
 30
0.0
  0
SPLINE
  5
2DB
330
1F8
100
AcDbEntity
  8
P-SANR-FIXT
100
AcDbSpline
210
0.0
220
0.0
230
1.0
 70
     8
 71
     3
 72
     8
 73
     4
 74
     0
 42
0.000000001
 43
0.0000000001
 40
-0.375
 40
-0.375
 40
-0.375
 40
-0.375
 40
-0.3341337255703569
 40
-0.3341337255703569
 40
-0.3341337255703569
 40
-0.3341337255703569
 10
988.4557600004757
 20
1285.589881737912
 30
0.0
 10
988.3139333506065
 20
1285.681563598727
 30
0.0
 10
988.1717902324048
 20
1285.773906212807
 30
0.0
 10
988.0313988033403
 20
1285.868879636918
 30
0.0
  0
SPLINE
  5
2DC
330
1F8
100
AcDbEntity
  8
P-SANR-FIXT
100
AcDbSpline
210
0.0
220
0.0
230
1.0
 70
     8
 71
     3
 72
     8
 73
     4
 74
     0
 42
0.000000001
 43
0.0000000001
 40
-0.25
 40
-0.25
 40
-0.25
 40
-0.25
 40
-0.2414932841451776
 40
-0.2414932841451776
 40
-0.2414932841451776
 40
-0.2414932841451776
 10
987.2046235631669
 20
1286.50610384485
 30
0.0
 10
987.1774696397247
 20
1286.528536061823
 30
0.0
 10
987.1505992955521
 20
1286.551265673975
 30
0.0
 10
987.1239934399453
 20
1286.574272693224
 30
0.0
  0
SPLINE
  5
2DD
330
1F8
100
AcDbEntity
  8
P-SANR-FIXT
100
AcDbSpline
210
0.0
220
0.0
230
1.0
 70
     8
 71
     3
 72
     8
 73
     4
 74
     0
 42
0.000000001
 43
0.0000000001
 40
-0.1475365529060064
 40
-0.1475365529060064
 40
-0.1475365529060064
 40
-0.1475365529060064
 40
-0.125
 40
-0.125
 40
-0.125
 40
-0.125
 10
986.2636114357385
 20
1287.362723144523
 30
0.0
 10
986.1976607371165
 20
1287.428809202858
 30
0.0
 10
986.1336538183042
 20
1287.496700044027
 30
0.0
 10
986.0710293260904
 20
1287.565876727975
 30
0.0
  0
ELLIPSE
  5
2DE
330
1F8
100
AcDbEntity
  8
P-SANR-FIXT
100
AcDbEllipse
 10
877.8514025758983
 20
1296.747075844246
 30
0.0
 11
0.0
 21
97.89857829387131
 31
0.0
210
0.0
220
0.0
230
1.0
 40
0.965925826289069
 41
5.171246575254375
 42
7.183918517878582
  0
ELLIPSE
  5
2DF
330
1F8
100
AcDbEntity
  8
P-SANR-FIXT
100
AcDbEllipse
 10
877.8514025758983
 20
1296.747075844246
 30
0.0
 11
0.0
 21
97.89857829387132
 31
0.0
210
0.0
220
0.0
230
0.9999999999999998
 40
0.9659258262890681
 41
2.240859442890583
 42
4.253763127944335
  0
ELLIPSE
  5
2E0
330
1F8
100
AcDbEntity
  8
P-SANR-FIXT
100
AcDbEllipse
 10
880.1516037301958
 20
1296.747075844246
 30
0.0
 11
0.0
 21
111.4872754397887
 31
0.0
210
0.0
220
0.0
230
1.0
 40
0.9659258262890666
 41
5.129591929104146
 42
7.291455985471124
  0
ELLIPSE
  5
2E1
330
1F8
100
AcDbEntity
  8
P-SANR-FIXT
100
AcDbEllipse
 10
880.1516037301958
 20
1296.747075844246
 30
0.0
 11
0.0
 21
111.4872754397886
 31
0.0
210
0.0
220
0.0
230
1.0
 40
0.9659258262890675
 41
2.133321975298075
 42
4.295261761298419
  0
ELLIPSE
  5
2E2
330
1F8
100
AcDbEntity
  8
P-SANR-FIXT
100
AcDbEllipse
 10
882.758642551761
 20
1296.747075844246
 30
0.0
 11
0.0
 21
121.9519606832534
 31
0.0
210
0.0
220
0.0
230
0.9999999999999998
 40
0.9659258262890688
 41
0.0000000000000451
 42
0.0065982915779275
  0
ELLIPSE
  5
2E3
330
1F8
100
AcDbEntity
  8
P-SANR-FIXT
100
AcDbEllipse
 10
882.758642551761
 20
1296.747075844246
 30
0.0
 11
0.0
 21
121.9519606832534
 31
0.0
210
0.0
220
0.0
230
1.0
 40
0.9659258262890686
 41
5.104808369269942
 42
6.211243782417763
  0
ELLIPSE
  5
2E4
330
1F8
100
AcDbEntity
  8
P-SANR-FIXT
100
AcDbEllipse
 10
882.758642551761
 20
1296.747075844246
 30
0.0
 11
0.0
 21
121.9519606832532
 31
0.0
210
0.0
220
0.0
230
1.0
 40
0.9659258262890681
 41
3.213534178351608
 42
4.319984189490898
  0
ELLIPSE
  5
2E5
330
1F8
100
AcDbEntity
  8
P-SANR-FIXT
100
AcDbEllipse
 10
882.758642551761
 20
1296.747075844246
 30
0.0
 11
0.0
 21
121.9519606832534
 31
0.0
210
0.0
220
0.0
230
1.0
 40
0.9659258262890663
 41
3.134994362011864
 42
3.141592653589791
  0
ELLIPSE
  5
2E6
330
1F8
100
AcDbEntity
  8
P-SANR-FIXT
100
AcDbEllipse
 10
883.3379644536272
 20
1296.747075844246
 30
0.0
 11
0.0
 21
121.9519606832536
 31
0.0
210
0.0
220
0.0
230
1.0
 40
0.9659258262890663
 41
5.105370787215706
 42
6.204645490839831
  0
ELLIPSE
  5
2E7
330
1F8
100
AcDbEntity
  8
P-SANR-FIXT
100
AcDbEllipse
 10
883.3379644536272
 20
1296.747075844246
 30
0.0
 11
0.0
 21
121.9519606832535
 31
0.0
210
0.0
220
0.0
230
1.0
 40
0.9659258262890684
 41
3.220132469929528
 42
4.319419805229161
  0
ELLIPSE
  5
2E8
330
1F8
100
AcDbEntity
  8
P-SANR-FIXT
100
AcDbEllipse
 10
881.0496317194148
 20
1296.747075844246
 30
0.0
 11
0.0
 21
121.9519606832528
 31
0.0
210
0.0
220
0.0
230
1.0
 40
0.965925826289067
 41
5.103168054048623
 42
7.354169796423303
  0
ELLIPSE
  5
2E9
330
1F8
100
AcDbEntity
  8
P-SANR-FIXT
100
AcDbEllipse
 10
881.0496317194148
 20
1296.747075844246
 30
0.0
 11
0.0
 21
121.9519606832525
 31
0.0
210
0.0
220
0.0
230
1.0
 40
0.9659258262890691
 41
2.070608164345913
 42
4.321631177250457
  0
ELLIPSE
  5
2EA
330
1F8
100
AcDbEntity
  8
P-SANR-FIXT
100
AcDbEllipse
 10
881.9821854164535
 20
1296.747075844246
 30
0.0
 11
0.0
 21
121.9519606832528
 31
0.0
210
0.0
220
0.0
230
1.0
 40
0.9659258262890679
 41
5.104063122701786
 42
6.204645490839832
  0
ELLIPSE
  5
2EB
330
1F8
100
AcDbEntity
  8
P-SANR-FIXT
100
AcDbEllipse
 10
881.9821854164535
 20
1296.747075844246
 30
0.0
 11
0.0
 21
121.9519606832526
 31
0.0
210
0.0
220
0.0
230
1.0
 40
0.9659258262890679
 41
3.220132469929529
 42
4.320732467602108
  0
ENDBLK
  5
2ED
330
1F8
100
AcDbEntity
  8
0
100
AcDbBlockEnd
  0
BLOCK
  5
40E
330
2EF
100
AcDbEntity
  8
0
100
AcDbBlockBegin
  2
Automatic flow rate regulator valve_Caleffi_121 DN15 - 1_2__-V2-Est - Idraulica
 70
     0
 10
0.0
 20
0.0
 30
0.0
  3
Automatic flow rate regulator valve_Caleffi_121 DN15 - 1_2__-V2-Est - Idraulica
  1

  0
ELLIPSE
  5
2F0
330
2EF
100
AcDbEntity
  8
P-SANR-FIXT
100
AcDbEllipse
 10
1480.363156828894
 20
2122.383942417649
 30
0.0
 11
6.030981664029467
 21
0.0
 31
0.0
210
0.0
220
0.0
230
0.9999999999999998
 40
0.9659258262890626
 41
3.141592653589793
 42
6.283185307179501
  0
LINE
  5
2F1
330
2EF
100
AcDbEntity
  8
P-SANR-FIXT
100
AcDbLine
 10
1486.394138492923
 20
2122.383942417649
 30
0.0
 11
1486.394138492923
 21
2140.587271922858
 31
0.0
  0
LINE
  5
2F2
330
2EF
100
AcDbEntity
  8
P-SANR-FIXT
100
AcDbLine
 10
1486.394138492923
 20
2140.587271922858
 30
0.0
 11
1474.332175164865
 21
2140.587271922858
 31
0.0
  0
LINE
  5
2F3
330
2EF
100
AcDbEntity
  8
P-SANR-FIXT
100
AcDbLine
 10
1474.332175164865
 20
2140.587271922858
 30
0.0
 11
1474.332175164865
 21
2122.383942417649
 31
0.0
  0
LINE
  5
2F4
330
2EF
100
AcDbEntity
  8
P-SANR-FIXT
100
AcDbLine
 10
1474.332175164865
 20
2142.586117526477
 30
0.0
 11
1486.394138492923
 21
2142.586117526477
 31
0.0
  0
LINE
  5
2F5
330
2EF
100
AcDbEntity
  8
P-SANR-FIXT
100
AcDbLine
 10
1474.332175164865
 20
2140.587271922858
 30
0.0
 11
1474.332175164865
 21
2142.586117526477
 31
0.0
  0
LINE
  5
2F6
330
2EF
100
AcDbEntity
  8
P-SANR-FIXT
100
AcDbLine
 10
1486.394138492923
 20
2140.587271922858
 30
0.0
 11
1486.394138492923
 21
2142.586117526477
 31
0.0
  0
LINE
  5
2F7
330
2EF
100
AcDbEntity
  8
P-SANR-FIXT
100
AcDbLine
 10
1522.363156828898
 20
1596.576263233182
 30
0.0
 11
1522.363156828898
 21
1609.13329897494
 31
0.0
  0
LINE
  5
2F8
330
2EF
100
AcDbEntity
  8
P-SANR-FIXT
100
AcDbLine
 10
1438.363156828899
 20
1609.13329897494
 30
0.0
 11
1438.363156828899
 21
1596.576263233182
 31
0.0
  0
LINE
  5
2F9
330
2EF
100
AcDbEntity
  8
P-SANR-FIXT
100
AcDbLine
 10
1440.080550013562
 20
1593.527800028786
 30
0.0
 11
1440.080550013562
 21
1591.746634101737
 31
0.0
  0
LINE
  5
2FA
330
2EF
100
AcDbEntity
  8
P-SANR-FIXT
100
AcDbLine
 10
1520.645763644234
 20
1591.746634101737
 30
0.0
 11
1520.645763644234
 21
1593.527800028786
 31
0.0
  0
LWPOLYLINE
  5
2FB
330
2EF
100
AcDbEntity
  8
P-SANR-FIXT
100
AcDbPolyline
 90
       41
 70
   128
 43
0.0
 10
1440.080550013562
 20
1591.746634101737
 10
1440.167497850944
 20
1590.617386784699
 10
1440.417279887278
 20
1589.537431695314
 10
1440.802003861964
 20
1588.541935433322
 10
1441.288397939624
 20
1587.646285513973
 10
1441.847479913338
 20
1586.849410903063
 10
1442.458693242304
 20
1586.140810202451
 10
1443.109648124561
 20
1585.506665433033
 10
1443.794019435515
 20
1584.933494698517
 10
1444.509320273941
 20
1584.409737962844
 10
1445.255203668794
 20
1583.926130568445
 10
1446.032353666363
 20
1583.475522844679
 10
1446.841827827204
 20
1583.052516747748
 10
1447.684696104768
 20
1582.653090612766
 10
1448.561858506401
 20
1582.274275382578
 10
1449.473964649769
 20
1581.913896204636
 10
1450.421388654282
 20
1581.570373949729
 10
1451.404232461482
 20
1581.242575600567
 10
1452.42234256348
 20
1580.929702383141
 10
1453.47533202423
 20
1580.63120626232
 10
1454.562603585704
 20
1580.346727473773
 10
1455.683371814255
 20
1580.07604757693
 10
1456.83668341263
 20
1579.819053955994
 10
1458.021435436532
 20
1579.575712787879
 10
1459.236391460404
 20
1579.346048301666
 10
1460.480195875573
 20
1579.130126741119
 10
1461.751386553888
 20
1578.928043867079
 10
1463.048406114742
 20
1578.739915144291
 10
1464.369612016898
 20
1578.565867980326
 10
1465.713285671491
 20
1578.406035546592
 10
1467.07764074555
 20
1578.260551830076
 10
1468.460830799724
 20
1578.129547651706
 10
1469.860956380838
 20
1578.013147451818
 10
1471.276071670111
 20
1577.911466691287
 10
1472.70419077111
 20
1577.824609753034
 10
1474.143293707714
 20
1577.752668256017
 10
1475.591332191043
 20
1577.695719714763
 10
1477.046235205268
 20
1577.653826493771
 10
1478.50591445511
 20
1577.62703501894
 10
1479.968269712325
 20
1577.6153752185
 10
1480.363156828898
 20
1577.614823497064
  0
LWPOLYLINE
  5
2FC
330
2EF
100
AcDbEntity
  8
P-SANR-FIXT
100
AcDbPolyline
 90
       41
 70
   128
 43
0.0
 10
1520.645763644234
 20
1591.746634101737
 10
1520.558815806852
 20
1590.617386784699
 10
1520.309033770518
 20
1589.537431695314
 10
1519.924309795833
 20
1588.541935433322
 10
1519.437915718173
 20
1587.646285513973
 10
1518.878833744458
 20
1586.849410903063
 10
1518.267620415492
 20
1586.140810202451
 10
1517.616665533236
 20
1585.506665433033
 10
1516.932294222281
 20
1584.933494698517
 10
1516.216993383855
 20
1584.409737962844
 10
1515.471109989002
 20
1583.926130568445
 10
1514.693959991434
 20
1583.475522844679
 10
1513.884485830593
 20
1583.052516747748
 10
1513.041617553029
 20
1582.653090612766
 10
1512.164455151395
 20
1582.274275382578
 10
1511.252349008027
 20
1581.913896204636
 10
1510.304925003515
 20
1581.570373949729
 10
1509.322081196315
 20
1581.242575600567
 10
1508.303971094316
 20
1580.929702383141
 10
1507.250981633566
 20
1580.63120626232
 10
1506.163710072092
 20
1580.346727473773
 10
1505.042941843541
 20
1580.076047576931
 10
1503.889630245167
 20
1579.819053955994
 10
1502.704878221264
 20
1579.575712787879
 10
1501.489922197393
 20
1579.346048301666
 10
1500.246117782224
 20
1579.130126741119
 10
1498.974927103909
 20
1578.928043867079
 10
1497.677907543055
 20
1578.739915144291
 10
1496.356701640898
 20
1578.565867980326
 10
1495.013027986306
 20
1578.406035546593
 10
1493.648672912246
 20
1578.260551830076
 10
1492.265482858072
 20
1578.129547651706
 10
1490.865357276958
 20
1578.013147451818
 10
1489.450241987686
 20
1577.911466691287
 10
1488.022122886687
 20
1577.824609753034
 10
1486.583019950082
 20
1577.752668256017
 10
1485.134981466754
 20
1577.695719714763
 10
1483.680078452529
 20
1577.653826493771
 10
1482.220399202688
 20
1577.62703501894
 10
1480.758043945472
 20
1577.6153752185
 10
1480.363156828899
 20
1577.614823497064
  0
ELLIPSE
  5
2FD
330
2EF
100
AcDbEntity
  8
P-SANR-FIXT
100
AcDbEllipse
 10
1480.363156828896
 20
1609.13329897494
 30
0.0
 11
41.99999999999957
 21
0.0
 31
0.0
210
0.0
220
0.0
230
1.0
 40
0.2588190451025158
 41
4.712388980384672
 42
6.423315534775543
  0
ELLIPSE
  5
2FE
330
2EF
100
AcDbEntity
  8
P-SANR-FIXT
100
AcDbEllipse
 10
1480.363156828896
 20
1596.576263233181
 30
0.0
 11
41.99999999999977
 21
0.0
 31
0.0
210
0.0
220
0.0
230
1.0
 40
0.2588190451025101
 41
3.141592653589793
 42
4.712388980384667
  0
ELLIPSE
  5
2FF
330
2EF
100
AcDbEntity
  8
P-SANR-FIXT
100
AcDbEllipse
 10
1480.363156828896
 20
1609.13329897494
 30
0.0
 11
41.99999999999977
 21
0.0
 31
0.0
210
0.0
220
0.0
230
1.0
 40
0.2588190451025155
 41
3.001462425993413
 42
4.712388980384667
  0
ELLIPSE
  5
300
330
2EF
100
AcDbEntity
  8
P-SANR-FIXT
100
AcDbEllipse
 10
1480.363156828896
 20
1596.576263233181
 30
0.0
 11
41.99999999999954
 21
0.0
 31
0.0
210
0.0
220
0.0
230
1.0
 40
0.2588190451025115
 41
4.712388980384667
 42
6.283185307179586
  0
LINE
  5
301
330
2EF
100
AcDbEntity
  8
P-SANR-FIXT
100
AcDbLine
 10
1474.363156828897
 20
2122.885137105657
 30
0.0
 11
1474.363156828897
 21
2122.346437325532
 31
0.0
  0
LINE
  5
302
330
2EF
100
AcDbEntity
  8
P-SANR-FIXT
100
AcDbLine
 10
1486.363156828897
 20
2122.346437325532
 30
0.0
 11
1486.363156828897
 21
2122.885137105657
 31
0.0
  0
ELLIPSE
  5
303
330
2EF
100
AcDbEntity
  8
P-SANR-FIXT
100
AcDbEllipse
 10
1480.363156828894
 20
2122.346437325531
 30
0.0
 11
6.0
 21
0.0
 31
0.0
210
0.0
220
0.0
230
1.0
 40
0.9659258262890185
 41
1.570796326794896
 42
4.712388980384683
  0
ELLIPSE
  5
304
330
2EF
100
AcDbEntity
  8
P-SANR-FIXT
100
AcDbEllipse
 10
1480.363156828894
 20
2122.346437325531
 30
0.0
 11
6.0
 21
0.0
 31
0.0
210
0.0
220
0.0
230
1.0
 40
0.9659258262890944
 41
4.712388980384683
 42
7.853981633974482
  0
LINE
  5
305
330
2EF
100
AcDbEntity
  8
P-SANR-FIXT
100
AcDbLine
 10
1474.363156828897
 20
2120.654572117745
 30
0.0
 11
1474.363156828897
 21
2119.580061021778
 31
0.0
  0
LINE
  5
306
330
2EF
100
AcDbEntity
  8
P-SANR-FIXT
100
AcDbLine
 10
1486.363156828897
 20
2119.580061021778
 30
0.0
 11
1486.363156828897
 21
2120.654572117745
 31
0.0
  0
LINE
  5
307
330
2EF
100
AcDbEntity
  8
P-SANR-FIXT
100
AcDbLine
 10
1474.303343448692
 20
2120.676315425505
 30
0.0
 11
1474.671901368998
 21
2120.494254924593
 31
0.0
  0
LINE
  5
308
330
2EF
100
AcDbEntity
  8
P-SANR-FIXT
100
AcDbLine
 10
1486.054412288795
 20
2120.494254924593
 30
0.0
 11
1486.422970209102
 21
2120.676315425505
 31
0.0
  0
LINE
  5
309
330
2EF
100
AcDbEntity
  8
P-SANR-FIXT
100
AcDbLine
 10
1473.521954801086
 20
2128.720228100816
 30
0.0
 11
1473.521954801086
 21
2121.498069235213
 31
0.0
  0
LINE
  5
30A
330
2EF
100
AcDbEntity
  8
P-SANR-FIXT
100
AcDbLine
 10
1487.204358856709
 20
2121.498069235213
 30
0.0
 11
1487.204358856708
 21
2128.720228100817
 31
0.0
  0
LINE
  5
30B
330
2EF
100
AcDbEntity
  8
P-SANR-FIXT
100
AcDbLine
 10
1472.521954801085
 20
2133.066191932286
 30
0.0
 11
1472.521954801085
 21
2129.70843875867
 31
0.0
  0
LINE
  5
30C
330
2EF
100
AcDbEntity
  8
P-SANR-FIXT
100
AcDbLine
 10
1488.204358856708
 20
2129.70843875867
 30
0.0
 11
1488.204358856708
 21
2133.066191932286
 31
0.0
  0
LINE
  5
30D
330
2EF
100
AcDbEntity
  8
P-SANR-FIXT
100
AcDbLine
 10
1471.621954801086
 20
2148.543992371306
 30
0.0
 11
1471.621954801086
 21
2134.055104976971
 31
0.0
  0
LINE
  5
30E
330
2EF
100
AcDbEntity
  8
P-SANR-FIXT
100
AcDbLine
 10
1489.104358856708
 20
2134.055104976971
 30
0.0
 11
1489.104358856708
 21
2148.543992371306
 31
0.0
  0
ELLIPSE
  5
30F
330
2EF
100
AcDbEntity
  8
P-SANR-FIXT
100
AcDbEllipse
 10
1480.363156828894
 20
2119.580061021776
 30
0.0
 11
6.0
 21
0.0
 31
0.0
210
0.0
220
0.0
230
1.0
 40
0.2588190451025032
 41
3.141592653589793
 42
3.839724354387369
  0
ELLIPSE
  5
310
330
2EF
100
AcDbEntity
  8
P-SANR-FIXT
100
AcDbEllipse
 10
1480.363156828894
 20
2119.580061021776
 30
0.0
 11
5.999999999999711
 21
0.0
 31
0.0
210
0.0
220
0.0
230
1.0
 40
0.2588190451025565
 41
5.585053606382024
 42
6.283185307179586
  0
ELLIPSE
  5
311
330
2EF
100
AcDbEntity
  8
P-SANR-FIXT
100
AcDbEllipse
 10
1480.363156828894
 20
2121.498069235212
 30
0.0
 11
6.841202027811641
 21
0.0
 31
0.0
210
0.0
220
0.0
230
1.0
 40
0.2588190451024899
 41
3.141592653589793
 42
3.721426423029118
  0
ELLIPSE
  5
312
330
2EF
100
AcDbEntity
  8
P-SANR-FIXT
100
AcDbEllipse
 10
1480.363156828894
 20
2121.498069235212
 30
0.0
 11
6.841202027811277
 21
0.0
 31
0.0
210
0.0
220
0.0
230
1.0
 40
0.2588190451025369
 41
5.703351537740007
 42
6.283185307179586
  0
ELLIPSE
  5
313
330
2EF
100
AcDbEntity
  8
P-SANR-FIXT
100
AcDbEllipse
 10
1480.363156828894
 20
2129.708438758669
 30
0.0
 11
7.841202027811712
 21
0.0
 31
0.0
210
0.0
220
0.0
230
1.0
 40
0.2588190451025254
 41
3.141592653589793
 42
3.832840723364647
  0
ELLIPSE
  5
314
330
2EF
100
AcDbEntity
  8
P-SANR-FIXT
100
AcDbEllipse
 10
1480.363156828894
 20
2129.708438758669
 30
0.0
 11
7.84120202781105
 21
0.0
 31
0.0
210
0.0
220
0.0
230
1.0
 40
0.2588190451025885
 41
5.591937237404747
 42
6.283185307179586
  0
ELLIPSE
  5
315
330
2EF
100
AcDbEntity
  8
P-SANR-FIXT
100
AcDbEllipse
 10
1480.363156828894
 20
2134.055104976969
 30
0.0
 11
8.741202027811221
 21
0.0
 31
0.0
210
0.0
220
0.0
230
1.0
 40
0.2588190451025466
 41
3.141592653589793
 42
3.949828472403793
  0
ELLIPSE
  5
316
330
2EF
100
AcDbEntity
  8
P-SANR-FIXT
100
AcDbEllipse
 10
1480.363156828894
 20
2134.055104976969
 30
0.0
 11
8.741202027810913
 21
0.0
 31
0.0
210
0.0
220
0.0
230
1.0
 40
0.2588190451025239
 41
5.474949488365491
 42
6.283185307179586
  0
ELLIPSE
  5
317
330
2EF
100
AcDbEntity
  8
P-SANR-FIXT
100
AcDbEllipse
 10
1480.363156828894
 20
2148.543992371305
 30
0.0
 11
8.741202027811141
 21
0.0
 31
0.0
210
0.0
220
0.0
230
1.0
 40
0.2588190451025171
 41
1.57079632679487
 42
4.712388980384683
  0
ELLIPSE
  5
318
330
2EF
100
AcDbEntity
  8
P-SANR-FIXT
100
AcDbEllipse
 10
1480.363156828894
 20
2148.543992371305
 30
0.0
 11
8.741202027810913
 21
0.0
 31
0.0
210
0.0
220
0.0
230
1.0
 40
0.2588190451025759
 41
4.712388980384683
 42
7.853981633974457
  0
LINE
  5
319
330
2EF
100
AcDbEntity
  8
P-SANR-FIXT
100
AcDbLine
 10
1472.863156828896
 20
2086.780678359905
 30
0.0
 11
1472.863156828896
 21
2079.013019967074
 31
0.0
  0
LINE
  5
31A
330
2EF
100
AcDbEntity
  8
P-SANR-FIXT
100
AcDbLine
 10
1487.863156828896
 20
2079.013019967074
 30
0.0
 11
1487.863156828896
 21
2086.780678359905
 31
0.0
  0
LINE
  5
31B
330
2EF
100
AcDbEntity
  8
P-SANR-FIXT
100
AcDbLine
 10
1475.363156828896
 20
2088.280678359905
 30
0.0
 11
1475.363156828896
 21
2086.780678359905
 31
0.0
  0
LINE
  5
31C
330
2EF
100
AcDbEntity
  8
P-SANR-FIXT
100
AcDbLine
 10
1485.363156828896
 20
2086.780678359905
 30
0.0
 11
1485.363156828896
 21
2088.280678359905
 31
0.0
  0
LINE
  5
31D
330
2EF
100
AcDbEntity
  8
P-SANR-FIXT
100
AcDbLine
 10
1472.863156828896
 20
2093.303609404382
 30
0.0
 11
1472.863156828896
 21
2088.280678359905
 31
0.0
  0
LINE
  5
31E
330
2EF
100
AcDbEntity
  8
P-SANR-FIXT
100
AcDbLine
 10
1487.863156828896
 20
2088.280678359905
 30
0.0
 11
1487.863156828896
 21
2093.303609404382
 31
0.0
  0
LINE
  5
31F
330
2EF
100
AcDbEntity
  8
P-SANR-FIXT
100
AcDbLine
 10
1476.363156828896
 20
2095.780678359905
 30
0.0
 11
1476.363156828896
 21
2094.280678359905
 31
0.0
  0
LINE
  5
320
330
2EF
100
AcDbEntity
  8
P-SANR-FIXT
100
AcDbLine
 10
1484.363156828896
 20
2094.280678359905
 30
0.0
 11
1484.363156828896
 21
2095.780678359905
 31
0.0
  0
LINE
  5
321
330
2EF
100
AcDbEntity
  8
P-SANR-FIXT
100
AcDbLine
 10
1475.363156828896
 20
2097.780678359905
 30
0.0
 11
1475.363156828896
 21
2095.780678359905
 31
0.0
  0
LINE
  5
322
330
2EF
100
AcDbEntity
  8
P-SANR-FIXT
100
AcDbLine
 10
1485.363156828896
 20
2095.780678359905
 30
0.0
 11
1485.363156828896
 21
2097.780678359905
 31
0.0
  0
LINE
  5
323
330
2EF
100
AcDbEntity
  8
P-SANR-FIXT
100
AcDbLine
 10
1473.84022578442
 20
2094.280678359905
 30
0.0
 11
1472.927320368593
 21
2093.367772944078
 31
0.0
  0
LINE
  5
324
330
2EF
100
AcDbEntity
  8
P-SANR-FIXT
100
AcDbLine
 10
1472.911595378024
 20
2093.352047953509
 30
0.0
 11
1472.863156828896
 21
2093.303609404382
 31
0.0
  0
LINE
  5
325
330
2EF
100
AcDbEntity
  8
P-SANR-FIXT
100
AcDbLine
 10
1487.863156828896
 20
2093.303609404382
 30
0.0
 11
1487.814718279769
 21
2093.352047953509
 31
0.0
  0
LINE
  5
326
330
2EF
100
AcDbEntity
  8
P-SANR-FIXT
100
AcDbLine
 10
1487.7989932892
 20
2093.367772944079
 30
0.0
 11
1486.886087873373
 21
2094.280678359905
 31
0.0
  0
LINE
  5
327
330
2EF
100
AcDbEntity
  8
P-SANR-FIXT
100
AcDbLine
 10
1473.741478435736
 20
2079.013019967074
 30
0.0
 11
1473.741478435736
 21
2070.709075127734
 31
0.0
  0
LINE
  5
328
330
2EF
100
AcDbEntity
  8
P-SANR-FIXT
100
AcDbLine
 10
1486.984835222057
 20
2070.709075127734
 30
0.0
 11
1486.984835222057
 21
2079.013019967074
 31
0.0
  0
LINE
  5
329
330
2EF
100
AcDbEntity
  8
P-SANR-FIXT
100
AcDbLine
 10
1472.863156828894
 20
2079.013019967073
 30
0.0
 11
1480.363156828893
 21
2079.013019967073
 31
0.0
  0
LINE
  5
32A
330
2EF
100
AcDbEntity
  8
P-SANR-FIXT
100
AcDbLine
 10
1480.363156828893
 20
2079.013019967073
 30
0.0
 11
1487.863156828893
 21
2079.013019967073
 31
0.0
  0
LINE
  5
32B
330
2EF
100
AcDbEntity
  8
P-SANR-FIXT
100
AcDbLine
 10
1480.363156828893
 20
2086.780678359904
 30
0.0
 11
1472.863156828894
 21
2086.780678359904
 31
0.0
  0
LINE
  5
32C
330
2EF
100
AcDbEntity
  8
P-SANR-FIXT
100
AcDbLine
 10
1487.863156828893
 20
2086.780678359904
 30
0.0
 11
1480.363156828893
 21
2086.780678359904
 31
0.0
  0
LINE
  5
32D
330
2EF
100
AcDbEntity
  8
P-SANR-FIXT
100
AcDbLine
 10
1480.363156828893
 20
2088.280678359904
 30
0.0
 11
1472.863156828894
 21
2088.280678359904
 31
0.0
  0
LINE
  5
32E
330
2EF
100
AcDbEntity
  8
P-SANR-FIXT
100
AcDbLine
 10
1487.863156828893
 20
2088.280678359904
 30
0.0
 11
1480.363156828893
 21
2088.280678359904
 31
0.0
  0
LINE
  5
32F
330
2EF
100
AcDbEntity
  8
P-SANR-FIXT
100
AcDbLine
 10
1473.840225784417
 20
2094.280678359904
 30
0.0
 11
1480.363156828893
 21
2094.280678359904
 31
0.0
  0
LINE
  5
330
330
2EF
100
AcDbEntity
  8
P-SANR-FIXT
100
AcDbLine
 10
1480.363156828893
 20
2094.280678359904
 30
0.0
 11
1486.88608787337
 21
2094.280678359904
 31
0.0
  0
LINE
  5
331
330
2EF
100
AcDbEntity
  8
P-SANR-FIXT
100
AcDbLine
 10
1480.363156828893
 20
2095.780678359904
 30
0.0
 11
1475.363156828893
 21
2095.780678359904
 31
0.0
  0
LINE
  5
332
330
2EF
100
AcDbEntity
  8
P-SANR-FIXT
100
AcDbLine
 10
1485.363156828893
 20
2095.780678359904
 30
0.0
 11
1480.363156828893
 21
2095.780678359904
 31
0.0
  0
LINE
  5
333
330
2EF
100
AcDbEntity
  8
P-SANR-FIXT
100
AcDbLine
 10
1480.363156828893
 20
2097.780678359904
 30
0.0
 11
1475.363156828893
 21
2097.780678359904
 31
0.0
  0
LINE
  5
334
330
2EF
100
AcDbEntity
  8
P-SANR-FIXT
100
AcDbLine
 10
1485.363156828893
 20
2097.780678359904
 30
0.0
 11
1480.363156828893
 21
2097.780678359904
 31
0.0
  0
LINE
  5
335
330
2EF
100
AcDbEntity
  8
P-SANR-FIXT
100
AcDbLine
 10
1480.363156828893
 20
2093.303609404381
 30
0.0
 11
1472.863156828894
 21
2093.303609404381
 31
0.0
  0
LINE
  5
336
330
2EF
100
AcDbEntity
  8
P-SANR-FIXT
100
AcDbLine
 10
1487.863156828893
 20
2093.303609404381
 30
0.0
 11
1480.363156828893
 21
2093.303609404381
 31
0.0
  0
LINE
  5
337
330
2EF
100
AcDbEntity
  8
P-SANR-FIXT
100
AcDbLine
 10
1453.517513941094
 20
2119.48721962347
 30
0.0
 11
1453.517513941094
 21
2114.074457553342
 31
0.0
  0
LINE
  5
338
330
2EF
100
AcDbEntity
  8
P-SANR-FIXT
100
AcDbLine
 10
1507.20879971672
 20
2114.074457553342
 30
0.0
 11
1507.208799716721
 21
2119.487219623469
 31
0.0
  0
LINE
  5
339
330
2EF
100
AcDbEntity
  8
P-SANR-FIXT
100
AcDbLine
 10
1441.517513941094
 20
2109.244828421897
 30
0.0
 11
1441.517513941094
 21
2106.34705094303
 31
0.0
  0
LINE
  5
33A
330
2EF
100
AcDbEntity
  8
P-SANR-FIXT
100
AcDbLine
 10
1519.20879971672
 20
2106.347050943029
 30
0.0
 11
1519.208799716721
 21
2109.244828421896
 31
0.0
  0
LINE
  5
33B
330
2EF
100
AcDbEntity
  8
P-SANR-FIXT
100
AcDbLine
 10
1441.517513941094
 20
2109.211233191726
 30
0.0
 11
1436.771543133268
 21
2105.565981791712
 31
0.0
  0
LINE
  5
33C
330
2EF
100
AcDbEntity
  8
P-SANR-FIXT
100
AcDbLine
 10
1523.954770524547
 20
2105.565981791711
 30
0.0
 11
1519.208799716721
 21
2109.211233191725
 31
0.0
  0
LINE
  5
33D
330
2EF
100
AcDbEntity
  8
P-SANR-FIXT
100
AcDbLine
 10
1434.363156828907
 20
2101.764149242827
 30
0.0
 11
1434.363156828907
 21
2081.452997070671
 31
0.0
  0
LINE
  5
33E
330
2EF
100
AcDbEntity
  8
P-SANR-FIXT
100
AcDbLine
 10
1526.363156828907
 20
2081.45299707067
 30
0.0
 11
1526.363156828908
 21
2101.764149242826
 31
0.0
  0
LINE
  5
33F
330
2EF
100
AcDbEntity
  8
P-SANR-FIXT
100
AcDbLine
 10
1444.825594229868
 20
1861.284169013012
 30
0.0
 11
1434.754067869532
 21
1851.182705935968
 31
0.0
  0
LINE
  5
340
330
2EF
100
AcDbEntity
  8
P-SANR-FIXT
100
AcDbLine
 10
1525.972245788276
 20
1851.182705935967
 30
0.0
 11
1515.903801940203
 21
1861.281077338256
 31
0.0
  0
LINE
  5
341
330
2EF
100
AcDbEntity
  8
P-SANR-FIXT
100
AcDbLine
 10
1408.679998455203
 20
1731.515723139594
 30
0.0
 11
1428.85676283487
 21
1646.800676133188
 31
0.0
  0
LINE
  5
342
330
2EF
100
AcDbEntity
  8
P-SANR-FIXT
100
AcDbLine
 10
1531.869550822933
 20
1646.800676133187
 30
0.0
 11
1552.046315202603
 21
1731.515723139592
 31
0.0
  0
LINE
  5
343
330
2EF
100
AcDbEntity
  8
P-SANR-FIXT
100
AcDbLine
 10
1436.863156828901
 20
1621.833442473017
 30
0.0
 11
1436.863156828901
 21
1613.947816735113
 31
0.0
  0
LINE
  5
344
330
2EF
100
AcDbEntity
  8
P-SANR-FIXT
100
AcDbLine
 10
1523.863156828902
 20
1613.947816735112
 30
0.0
 11
1523.863156828902
 21
1621.833442473016
 31
0.0
  0
LINE
  5
345
330
2EF
100
AcDbEntity
  8
P-SANR-FIXT
100
AcDbLine
 10
1445.363156828904
 20
1874.077390599751
 30
0.0
 11
1445.363156828905
 21
1862.575803234563
 31
0.0
  0
LINE
  5
346
330
2EF
100
AcDbEntity
  8
P-SANR-FIXT
100
AcDbLine
 10
1515.363156828905
 20
1862.575803234562
 30
0.0
 11
1515.363156828905
 21
1874.078699760993
 31
0.0
  0
LWPOLYLINE
  5
347
330
2EF
100
AcDbEntity
  8
P-SANR-FIXT
100
AcDbPolyline
 90
        3
 70
   128
 43
0.0
 10
1436.051633889834
 20
1881.434409745826
 10
1440.890372920517
 20
1877.132913034658
 10
1448.648136323167
 20
1872.079374581157
  0
LWPOLYLINE
  5
348
330
2EF
100
AcDbEntity
  8
P-SANR-FIXT
100
AcDbPolyline
 90
        3
 70
   128
 43
0.0
 10
1512.079399147882
 20
1872.080052409275
 10
1520.619404141157
 20
1877.735721831105
 10
1524.63046707911
 20
1881.411394076786
  0
LWPOLYLINE
  5
349
330
2EF
100
AcDbEntity
  8
P-SANR-FIXT
100
AcDbPolyline
 90
        7
 70
   128
 43
0.0
 10
1453.517513941094
 20
2114.074457553342
 10
1453.48426154351
 20
2113.639987707225
 10
1453.395479925321
 20
2113.253698593018
 10
1453.278803780801
 20
2112.949647092876
 10
1453.167076125982
 20
2112.74211455793
 10
1453.088679781431
 20
2112.628929112952
 10
1453.0631519394
 20
2112.598229467252
  0
LWPOLYLINE
  5
34A
330
2EF
100
AcDbEntity
  8
P-SANR-FIXT
100
AcDbPolyline
 90
        7
 70
   128
 43
0.0
 10
1507.20879971672
 20
2114.074457553342
 10
1507.242052114305
 20
2113.639987707224
 10
1507.330833732495
 20
2113.253698593017
 10
1507.447509877014
 20
2112.949647092875
 10
1507.559237531834
 20
2112.742114557929
 10
1507.637633876385
 20
2112.628929112951
 10
1507.663161718415
 20
2112.598229467252
  0
LINE
  5
34B
330
2EF
100
AcDbEntity
  8
P-SANR-FIXT
100
AcDbLine
 10
1474.060401889418
 20
1577.775380284037
 30
0.0
 11
1474.060401889418
 21
1574.358600449508
 31
0.0
  0
LINE
  5
34C
330
2EF
100
AcDbEntity
  8
P-SANR-FIXT
100
AcDbLine
 10
1486.665911768384
 20
1574.358600449508
 30
0.0
 11
1486.665911768384
 21
1577.762218640252
 31
0.0
  0
LINE
  5
34D
330
2EF
100
AcDbEntity
  8
P-SANR-FIXT
100
AcDbLine
 10
1474.363156828897
 20
1700.631828395725
 30
0.0
 11
1474.363156828897
 21
1691.938495959123
 31
0.0
  0
LINE
  5
34E
330
2EF
100
AcDbEntity
  8
P-SANR-FIXT
100
AcDbLine
 10
1486.363156828896
 20
1691.938495959123
 30
0.0
 11
1486.363156828896
 21
1700.631828395725
 31
0.0
  0
LINE
  5
34F
330
2EF
100
AcDbEntity
  8
P-SANR-FIXT
100
AcDbLine
 10
1475.363156828898
 20
1702.237048927148
 30
0.0
 11
1475.363156828898
 21
1700.631828395725
 31
0.0
  0
LINE
  5
350
330
2EF
100
AcDbEntity
  8
P-SANR-FIXT
100
AcDbLine
 10
1485.363156828897
 20
1700.631828395725
 30
0.0
 11
1485.363156828897
 21
1702.237048927148
 31
0.0
  0
LINE
  5
351
330
2EF
100
AcDbEntity
  8
P-SANR-FIXT
100
AcDbLine
 10
1471.863156828898
 20
1708.359235006038
 30
0.0
 11
1471.863156828898
 21
1704.012568787737
 31
0.0
  0
LINE
  5
352
330
2EF
100
AcDbEntity
  8
P-SANR-FIXT
100
AcDbLine
 10
1488.863156828896
 20
1704.012568787737
 30
0.0
 11
1488.863156828896
 21
1708.359235006038
 31
0.0
  0
LINE
  5
353
330
2EF
100
AcDbEntity
  8
P-SANR-FIXT
100
AcDbLine
 10
1470.363156828898
 20
1713.077507548433
 30
0.0
 11
1470.363156828898
 21
1709.808123745471
 31
0.0
  0
LINE
  5
354
330
2EF
100
AcDbEntity
  8
P-SANR-FIXT
100
AcDbLine
 10
1490.363156828896
 20
1709.808123745471
 30
0.0
 11
1490.363156828896
 21
1713.077507548433
 31
0.0
  0
LINE
  5
355
330
2EF
100
AcDbEntity
  8
P-SANR-FIXT
100
AcDbLine
 10
1466.363156828897
 20
1821.855519595004
 30
0.0
 11
1466.363156828897
 21
1812.991303354094
 31
0.0
  0
LINE
  5
356
330
2EF
100
AcDbEntity
  8
P-SANR-FIXT
100
AcDbLine
 10
1466.363156828897
 20
1734.216328978272
 30
0.0
 11
1466.363156828897
 21
1715.603678703206
 31
0.0
  0
LINE
  5
357
330
2EF
100
AcDbEntity
  8
P-SANR-FIXT
100
AcDbLine
 10
1494.363156828897
 20
1715.603678703206
 30
0.0
 11
1494.363156828897
 21
1734.216328978271
 31
0.0
  0
LINE
  5
358
330
2EF
100
AcDbEntity
  8
P-SANR-FIXT
100
AcDbLine
 10
1494.363156828897
 20
1812.991303354094
 30
0.0
 11
1494.363156828897
 21
1821.855519595004
 31
0.0
  0
LINE
  5
359
330
2EF
100
AcDbEntity
  8
P-SANR-FIXT
100
AcDbLine
 10
1472.363156828897
 20
1827.651074552738
 30
0.0
 11
1472.363156828897
 21
1821.855519595004
 31
0.0
  0
LINE
  5
35A
330
2EF
100
AcDbEntity
  8
P-SANR-FIXT
100
AcDbLine
 10
1488.363156828897
 20
1821.855519595004
 30
0.0
 11
1488.363156828897
 21
1827.651074552738
 31
0.0
  0
LWPOLYLINE
  5
35B
330
2EF
100
AcDbEntity
  8
P-SANR-FIXT
100
AcDbPolyline
 90
       22
 70
   128
 43
0.0
 10
1383.951524226189
 20
1840.442019185218
 10
1385.724530795199
 20
1841.71959523065
 10
1387.595774318182
 20
1842.915229081111
 10
1389.566179203755
 20
1844.042357966907
 10
1391.637241170642
 20
1845.111019312437
 10
1393.810362034629
 20
1846.12859297831
 10
1396.086518714221
 20
1847.100433299921
 10
1398.466121579686
 20
1848.030370419828
 10
1400.948975027383
 20
1848.921094259952
 10
1403.534290173991
 20
1849.774443647706
 10
1406.220721809351
 20
1850.591622518933
 10
1409.006414621469
 20
1851.373361437477
 10
1411.889050971067
 20
1852.120038594721
 10
1414.865896503719
 20
1852.831770915246
 10
1417.933842049803
 20
1853.50848310347
 10
1421.0894413904
 20
1854.14996036195
 10
1424.32894502442
 20
1854.755888962678
 10
1427.648330320195
 20
1855.325887725102
 10
1431.043328519426
 20
1855.859532637997
 10
1434.509449063545
 20
1856.356376271284
 10
1438.042001676221
 20
1856.81596319525
 10
1440.689544248248
 20
1857.126733148963
  0
LWPOLYLINE
  5
35C
330
2EF
100
AcDbEntity
  8
P-SANR-FIXT
100
AcDbPolyline
 90
       22
 70
   128
 43
0.0
 10
1576.774789431619
 20
1840.442019185216
 10
1575.001782862609
 20
1841.719595230648
 10
1573.130539339627
 20
1842.915229081109
 10
1571.160134454053
 20
1844.042357966906
 10
1569.089072487166
 20
1845.111019312436
 10
1566.915951623179
 20
1846.128592978308
 10
1564.639794943587
 20
1847.100433299919
 10
1562.260192078122
 20
1848.030370419826
 10
1559.777338630425
 20
1848.92109425995
 10
1557.192023483818
 20
1849.774443647704
 10
1554.505591848457
 20
1850.591622518931
 10
1551.71989903634
 20
1851.373361437475
 10
1548.837262686742
 20
1852.120038594719
 10
1545.86041715409
 20
1852.831770915244
 10
1542.792471608005
 20
1853.508483103469
 10
1539.636872267408
 20
1854.149960361949
 10
1536.397368633388
 20
1854.755888962677
 10
1533.077983337613
 20
1855.325887725101
 10
1529.682985138382
 20
1855.859532637996
 10
1526.216864594263
 20
1856.356376271283
 10
1522.684311981587
 20
1856.815963195249
 10
1520.03676940956
 20
1857.126733148962
  0
LINE
  5
35D
330
2EF
100
AcDbEntity
  8
P-SANR-FIXT
100
AcDbLine
 10
1383.951524226189
 20
1840.442019185218
 30
0.0
 11
1378.464513667658
 21
1836.227595260108
 31
0.0
  0
LINE
  5
35E
330
2EF
100
AcDbEntity
  8
P-SANR-FIXT
100
AcDbLine
 10
1582.261799990151
 20
1836.227595260106
 30
0.0
 11
1576.77478943162
 21
1840.442019185216
 31
0.0
  0
LINE
  5
35F
330
2EF
100
AcDbEntity
  8
P-SANR-FIXT
100
AcDbLine
 10
1358.41119614565
 20
1815.650137839458
 30
0.0
 11
1358.41119614565
 21
1813.488079067757
 31
0.0
  0
LINE
  5
360
330
2EF
100
AcDbEntity
  8
P-SANR-FIXT
100
AcDbLine
 10
1602.315117512157
 20
1813.488079067754
 30
0.0
 11
1602.315117512157
 21
1815.650137839455
 31
0.0
  0
LINE
  5
361
330
2EF
100
AcDbEntity
  8
P-SANR-FIXT
100
AcDbLine
 10
1380.555097104955
 20
1795.351101235142
 30
0.0
 11
1385.846505672233
 21
1793.400518175968
 31
0.0
  0
LINE
  5
362
330
2EF
100
AcDbEntity
  8
P-SANR-FIXT
100
AcDbLine
 10
1574.879807985574
 20
1793.400518175966
 30
0.0
 11
1580.171216552853
 21
1795.351101235139
 31
0.0
  0
LINE
  5
363
330
2EF
100
AcDbEntity
  8
P-SANR-FIXT
100
AcDbLine
 10
1371.070176717291
 20
1799.513927517071
 30
0.0
 11
1376.462878946291
 21
1767.778539421662
 31
0.0
  0
LINE
  5
364
330
2EF
100
AcDbEntity
  8
P-SANR-FIXT
100
AcDbLine
 10
1584.263434711516
 20
1767.778539421659
 30
0.0
 11
1589.656136940517
 21
1799.513927517068
 31
0.0
  0
LWPOLYLINE
  5
365
330
2EF
100
AcDbEntity
  8
P-SANR-FIXT
100
AcDbPolyline
 90
        7
 70
   128
 43
0.0
 10
1428.85676283487
 20
1646.800676133189
 10
1429.220692078148
 20
1645.645021266743
 10
1429.719781535245
 20
1644.585004319224
 10
1430.322119833196
 20
1643.626538680269
 10
1431.002976086528
 20
1642.762771064399
 10
1431.746253960111
 20
1641.980990873476
 10
1431.934734432755
 20
1641.802225896396
  0
LWPOLYLINE
  5
366
330
2EF
100
AcDbEntity
  8
P-SANR-FIXT
100
AcDbPolyline
 90
        7
 70
   128
 43
0.0
 10
1531.869550822933
 20
1646.800676133187
 10
1531.505621579656
 20
1645.645021266742
 10
1531.006532122559
 20
1644.585004319222
 10
1530.404193824607
 20
1643.626538680267
 10
1529.723337571276
 20
1642.762771064398
 10
1528.980059697693
 20
1641.980990873476
 10
1528.791579225049
 20
1641.802225896395
  0
LINE
  5
367
330
2EF
100
AcDbEntity
  8
P-SANR-FIXT
100
AcDbLine
 10
1431.934734432755
 20
1641.802225896396
 30
0.0
 11
1433.519503412448
 21
1640.32743218334
 31
0.0
  0
LINE
  5
368
330
2EF
100
AcDbEntity
  8
P-SANR-FIXT
100
AcDbLine
 10
1527.206810245356
 20
1640.327432183338
 30
0.0
 11
1528.791579225049
 21
1641.802225896395
 31
0.0
  0
LWPOLYLINE
  5
369
330
2EF
100
AcDbEntity
  8
P-SANR-FIXT
100
AcDbPolyline
 90
        8
 70
   128
 43
0.0
 10
1434.670491794404
 20
1636.869230149736
 10
1434.597588955783
 20
1637.820955576948
 10
1434.400841824551
 20
1638.676187100822
 10
1434.135550479401
 20
1639.36667872941
 10
1433.867452048066
 20
1639.863735956218
 10
1433.653383591155
 20
1640.171571361745
 10
1433.533011830351
 20
1640.313244930063
 10
1433.515630027111
 20
1640.331083869338
  0
LWPOLYLINE
  5
36A
330
2EF
100
AcDbEntity
  8
P-SANR-FIXT
100
AcDbPolyline
 90
        8
 70
   128
 43
0.0
 10
1526.0558218634
 20
1636.869230149734
 10
1526.12872470202
 20
1637.820955576947
 10
1526.325471833252
 20
1638.676187100821
 10
1526.590763178402
 20
1639.366678729409
 10
1526.858861609738
 20
1639.863735956217
 10
1527.072930066649
 20
1640.171571361744
 10
1527.193301827453
 20
1640.313244930062
 10
1527.210683630693
 20
1640.331083869337
  0
LINE
  5
36B
330
2EF
100
AcDbEntity
  8
P-SANR-FIXT
100
AcDbLine
 10
1434.67851313537
 20
1636.647645893171
 30
0.0
 11
1435.568524716122
 21
1624.355733391468
 31
0.0
  0
LINE
  5
36C
330
2EF
100
AcDbEntity
  8
P-SANR-FIXT
100
AcDbLine
 10
1525.157788941681
 20
1624.355733391466
 30
0.0
 11
1526.047800522433
 21
1636.64764589317
 31
0.0
  0
LINE
  5
36D
330
2EF
100
AcDbEntity
  8
P-SANR-FIXT
100
AcDbLine
 10
1439.294702794395
 20
1610.254602262225
 30
0.0
 11
1439.417403014263
 21
1608.559994687258
 31
0.0
  0
LINE
  5
36E
330
2EF
100
AcDbEntity
  8
P-SANR-FIXT
100
AcDbLine
 10
1521.30891064354
 20
1608.559994687258
 30
0.0
 11
1521.431610863407
 21
1610.254602262225
 31
0.0
  0
LINE
  5
36F
330
2EF
100
AcDbEntity
  8
P-SANR-FIXT
100
AcDbLine
 10
1408.426881652192
 20
1732.578470439491
 30
0.0
 11
1408.679998455203
 21
1731.515723139594
 31
0.0
  0
LINE
  5
370
330
2EF
100
AcDbEntity
  8
P-SANR-FIXT
100
AcDbLine
 10
1552.046315202603
 20
1731.515723139592
 30
0.0
 11
1552.299432005613
 21
1732.578470439489
 31
0.0
  0
LWPOLYLINE
  5
371
330
2EF
100
AcDbEntity
  8
P-SANR-FIXT
100
AcDbPolyline
 90
       21
 70
   128
 43
0.0
 10
1376.462878946291
 20
1767.778539421662
 10
1377.052197390089
 20
1765.389342614744
 10
1377.942486930962
 20
1763.174688272491
 10
1379.067196838944
 20
1761.161975904394
 10
1380.36962471681
 20
1759.346938492112
 10
1381.810116194331
 20
1757.707831917969
 10
1383.364964943863
 20
1756.21722205164
 10
1385.022071375787
 20
1754.848812898781
 10
1386.776563947104
 20
1753.580303351725
 10
1388.627525370321
 20
1752.393975600641
 10
1390.575879322036
 20
1751.276272759319
 10
1392.623147819986
 20
1750.217058720817
 10
1394.77077433365
 20
1749.208873916527
 10
1397.019785993765
 20
1748.246299852847
 10
1399.370648160086
 20
1747.325454406358
 10
1401.823222978469
 20
1746.443605021937
 10
1404.376781051763
 20
1745.598877374525
 10
1407.030037910863
 20
1744.790037497317
 10
1409.781200041552
 20
1744.016329026045
 10
1412.628012600751
 20
1743.277351292016
 10
1415.292037399845
 20
1742.636673716321
  0
LWPOLYLINE
  5
372
330
2EF
100
AcDbEntity
  8
P-SANR-FIXT
100
AcDbPolyline
 90
       21
 70
   128
 43
0.0
 10
1584.263434711516
 20
1767.778539421659
 10
1583.674116267717
 20
1765.389342614741
 10
1582.783826726845
 20
1763.17468827249
 10
1581.659116818862
 20
1761.161975904391
 10
1580.356688940996
 20
1759.34693849211
 10
1578.916197463476
 20
1757.707831917967
 10
1577.361348713943
 20
1756.217222051637
 10
1575.704242282019
 20
1754.848812898779
 10
1573.949749710702
 20
1753.580303351722
 10
1572.098788287486
 20
1752.393975600639
 10
1570.15043433577
 20
1751.276272759317
 10
1568.103165837821
 20
1750.217058720815
 10
1565.955539324156
 20
1749.208873916525
 10
1563.706527664042
 20
1748.246299852845
 10
1561.35566549772
 20
1747.325454406356
 10
1558.903090679338
 20
1746.443605021935
 10
1556.349532606044
 20
1745.598877374523
 10
1553.696275746944
 20
1744.790037497315
 10
1550.945113616255
 20
1744.016329026044
 10
1548.098301057055
 20
1743.277351292014
 10
1545.434276257962
 20
1742.636673716319
  0
LWPOLYLINE
  5
373
330
2EF
100
AcDbEntity
  8
P-SANR-FIXT
100
AcDbPolyline
 90
        7
 70
   128
 43
0.0
 10
1408.426881652192
 20
1732.57847043949
 10
1407.095654718928
 20
1736.820615478241
 10
1405.454894719246
 20
1740.318014251675
 10
1403.756130009529
 20
1743.031330958659
 10
1402.19221643245
 20
1745.023317879583
 10
1400.885712799039
 20
1746.403527796823
 10
1400.092143840828
 20
1747.117909737931
  0
LWPOLYLINE
  5
374
330
2EF
100
AcDbEntity
  8
P-SANR-FIXT
100
AcDbPolyline
 90
        7
 70
   128
 43
0.0
 10
1552.299432005613
 20
1732.578470439488
 10
1553.630658938877
 20
1736.820615478238
 10
1555.271418938559
 20
1740.318014251672
 10
1556.970183648277
 20
1743.031330958657
 10
1558.534097225356
 20
1745.023317879581
 10
1559.840600858767
 20
1746.403527796821
 10
1560.609013377357
 20
1747.09526355705
  0
LWPOLYLINE
  5
375
330
2EF
100
AcDbEntity
  8
P-SANR-FIXT
100
AcDbPolyline
 90
        6
 70
   128
 43
0.0
 10
1434.754067869533
 20
1851.182705935968
 10
1433.805300617072
 20
1850.299781421692
 10
1433.092678436558
 20
1849.725982522775
 10
1432.620653867796
 20
1849.391820077171
 10
1432.382597828975
 20
1849.241520580929
 10
1432.347105392693
 20
1849.220954936435
  0
LWPOLYLINE
  5
376
330
2EF
100
AcDbEntity
  8
P-SANR-FIXT
100
AcDbPolyline
 90
        6
 70
   128
 43
0.0
 10
1525.972245788276
 20
1851.182705935967
 10
1526.921013040736
 20
1850.299781421691
 10
1527.63363522125
 20
1849.725982522773
 10
1528.105659790013
 20
1849.39182007717
 10
1528.343715828833
 20
1849.241520580928
 10
1528.379208265116
 20
1849.220954936434
  0
LINE
  5
377
330
2EF
100
AcDbEntity
  8
P-SANR-FIXT
100
AcDbLine
 10
1358.411196145651
 20
1822.02825309646
 30
0.0
 11
1358.411196145651
 21
1818.547915318325
 31
0.0
  0
LINE
  5
378
330
2EF
100
AcDbEntity
  8
P-SANR-FIXT
100
AcDbLine
 10
1602.315117512157
 20
1818.547915318323
 30
0.0
 11
1602.315117512157
 21
1822.028253096457
 31
0.0
  0
LWPOLYLINE
  5
379
330
2EF
100
AcDbEntity
  8
P-SANR-FIXT
100
AcDbPolyline
 90
        6
 70
   128
 43
0.0
 10
1445.363156828904
 20
1862.575803234563
 10
1445.336427047259
 20
1862.225730995063
 10
1445.267202842089
 20
1861.923704469307
 10
1445.183087619983
 20
1861.703645737283
 10
1445.11687230644
 20
1861.579701779611
 10
1445.096042402614
 20
1861.548502636817
  0
LWPOLYLINE
  5
37A
330
2EF
100
AcDbEntity
  8
P-SANR-FIXT
100
AcDbPolyline
 90
        6
 70
   128
 43
0.0
 10
1515.363156828905
 20
1862.575803234562
 10
1515.389886610551
 20
1862.225730995062
 10
1515.45911081572
 20
1861.923704469307
 10
1515.543226037826
 20
1861.703645737282
 10
1515.60944135137
 20
1861.57970177961
 10
1515.630271255195
 20
1861.548502636816
  0
ELLIPSE
  5
37B
330
2EF
100
AcDbEntity
  8
P-SANR-FIXT
100
AcDbEllipse
 10
1480.363156828905
 20
2119.487219623469
 30
0.0
 11
-26.84564288781326
 21
0.0000000000009137
 31
0.0
210
0.0
220
0.0
230
1.0
 40
0.2588190451024956
 41
4.970237889045572
 42
7.853981633974478
  0
ARC
  5
37C
330
2EF
100
AcDbEntity
  8
P-SANR-FIXT
100
AcDbCircle
 10
1480.363156828904
 20
1970.998183850013
 30
0.0
 40
100.0000000000047
100
AcDbArc
 50
126.522095757394
 51
128.3530667598023
  0
ARC
  5
37D
330
2EF
100
AcDbEntity
  8
P-SANR-FIXT
100
AcDbCircle
 10
1480.363156828904
 20
1970.998183850013
 30
0.0
 40
100.0000000000045
100
AcDbArc
 50
130.5733839496128
 51
133.2903867757659
  0
ARC
  5
37E
330
2EF
100
AcDbEntity
  8
P-SANR-FIXT
100
AcDbCircle
 10
1480.363156828904
 20
1970.998183850013
 30
0.0
 40
100.0000000000047
100
AcDbArc
 50
135.4702828773244
 51
145.5134838322978
  0
ARC
  5
37F
330
2EF
100
AcDbEntity
  8
P-SANR-FIXT
100
AcDbCircle
 10
1480.363156828904
 20
1970.998183850013
 30
0.0
 40
100.0000000000047
100
AcDbArc
 50
150.020493627905
 51
150.3014267618248
  0
LINE
  5
380
330
2EF
100
AcDbEntity
  8
P-SANR-FIXT
100
AcDbLine
 10
1389.713474279779
 20
2013.219446902458
 30
0.0
 11
1389.666568601937
 21
2013.118593202117
 31
0.0
  0
ARC
  5
381
330
2EF
100
AcDbEntity
  8
P-SANR-FIXT
100
AcDbCircle
 10
1480.363156828904
 20
1970.998183850013
 30
0.0
 40
100.0000000000045
100
AcDbArc
 50
159.8773126208787
 51
160.0245928449918
  0
ARC
  5
382
330
2EF
100
AcDbEntity
  8
P-SANR-FIXT
100
AcDbCircle
 10
1480.363156828904
 20
1970.998183850013
 30
0.0
 40
100.0000000000046
100
AcDbArc
 50
164.6652555504057
 51
165.0228383365048
  0
ARC
  5
383
330
2EF
100
AcDbEntity
  8
P-SANR-FIXT
100
AcDbCircle
 10
1480.363156828904
 20
1970.998183850013
 30
0.0
 40
100.0000000000046
100
AcDbArc
 50
169.4531984799326
 51
179.5407863226267
  0
ARC
  5
384
330
2EF
100
AcDbEntity
  8
P-SANR-FIXT
100
AcDbCircle
 10
1480.363156828904
 20
1970.998183850013
 30
0.0
 40
100.0000000000045
100
AcDbArc
 50
181.7385052509206
 51
184.4382740351677
  0
ARC
  5
385
330
2EF
100
AcDbEntity
  8
P-SANR-FIXT
100
AcDbCircle
 10
1480.363156828904
 20
1970.998183850013
 30
0.0
 40
100.0000000000044
100
AcDbArc
 50
186.6699554043591
 51
189.3361701448851
  0
ARC
  5
386
330
2EF
100
AcDbEntity
  8
P-SANR-FIXT
100
AcDbCircle
 10
1480.363156828904
 20
1970.998183850013
 30
0.0
 40
100.0000000000046
100
AcDbArc
 50
191.590859425839
 51
194.2345629316292
  0
ARC
  5
387
330
2EF
100
AcDbEntity
  8
P-SANR-FIXT
100
AcDbCircle
 10
1480.363156828904
 20
1970.998183850013
 30
0.0
 40
100.0000000000045
100
AcDbArc
 50
196.5050573754139
 51
199.1335673213492
  0
ARC
  5
388
330
2EF
100
AcDbEntity
  8
P-SANR-FIXT
100
AcDbCircle
 10
1480.363156828904
 20
1970.998183850013
 30
0.0
 40
100.0000000000045
100
AcDbArc
 50
201.4147256738282
 51
204.0333295629137
  0
ARC
  5
389
330
2EF
100
AcDbEntity
  8
P-SANR-FIXT
100
AcDbCircle
 10
1480.363156828904
 20
1970.998183850013
 30
0.0
 40
100.0000000000044
100
AcDbArc
 50
206.321188834089
 51
208.9340411941705
  0
ARC
  5
38A
330
2EF
100
AcDbEntity
  8
P-SANR-FIXT
100
AcDbCircle
 10
1480.363156828904
 20
1970.998183850013
 30
0.0
 40
100.0000000000043
100
AcDbArc
 50
211.2252944338638
 51
213.8359550014475
  0
ARC
  5
38B
330
2EF
100
AcDbEntity
  8
P-SANR-FIXT
100
AcDbCircle
 10
1480.363156828904
 20
1970.998183850013
 30
0.0
 40
100.0000000000045
100
AcDbArc
 50
216.1276111779801
 51
218.7394337636398
  0
ARC
  5
38C
330
2EF
100
AcDbEntity
  8
P-SANR-FIXT
100
AcDbCircle
 10
1480.363156828904
 20
1970.998183850013
 30
0.0
 40
100.0000000000044
100
AcDbArc
 50
221.02853013979
 51
223.6450104477934
  0
ARC
  5
38D
330
2EF
100
AcDbEntity
  8
P-SANR-FIXT
100
AcDbCircle
 10
1480.363156828904
 20
1970.998183850013
 30
0.0
 40
100.0000000000044
100
AcDbArc
 50
225.9283470710801
 51
228.553463763759
  0
ARC
  5
38E
330
2EF
100
AcDbEntity
  8
P-SANR-FIXT
100
AcDbCircle
 10
1480.363156828904
 20
1970.998183850013
 30
0.0
 40
100.0000000000043
100
AcDbArc
 50
230.8272931989813
 51
233.4660069705217
  0
ARC
  5
38F
330
2EF
100
AcDbEntity
  8
P-SANR-FIXT
100
AcDbCircle
 10
1480.363156828904
 20
1970.998183850013
 30
0.0
 40
100.0000000000044
100
AcDbArc
 50
235.725554050746
 51
238.3844831829818
  0
ARC
  5
390
330
2EF
100
AcDbEntity
  8
P-SANR-FIXT
100
AcDbCircle
 10
1480.363156828904
 20
1970.998183850013
 30
0.0
 40
100.0000000000043
100
AcDbArc
 50
240.6232623570471
 51
243.3120151981774
  0
ARC
  5
391
330
2EF
100
AcDbEntity
  8
P-SANR-FIXT
100
AcDbCircle
 10
1480.363156828904
 20
1970.998183850013
 30
0.0
 40
100.0000000000042
100
AcDbArc
 50
296.6879848017534
 51
299.3767376429697
  0
ARC
  5
392
330
2EF
100
AcDbEntity
  8
P-SANR-FIXT
100
AcDbCircle
 10
1480.363156828904
 20
1970.998183850013
 30
0.0
 40
100.0000000000043
100
AcDbArc
 50
301.6155168169547
 51
304.2744459492781
  0
ARC
  5
393
330
2EF
100
AcDbEntity
  8
P-SANR-FIXT
100
AcDbCircle
 10
1480.363156828904
 20
1970.998183850013
 30
0.0
 40
100.0000000000043
100
AcDbArc
 50
306.5339930294144
 51
309.1727068010462
  0
ARC
  5
394
330
2EF
100
AcDbEntity
  8
P-SANR-FIXT
100
AcDbCircle
 10
1480.363156828904
 20
1970.998183850013
 30
0.0
 40
100.0000000000042
100
AcDbArc
 50
311.4465362361813
 51
314.0716529289489
  0
ARC
  5
395
330
2EF
100
AcDbEntity
  8
P-SANR-FIXT
100
AcDbCircle
 10
1480.363156828904
 20
1970.998183850013
 30
0.0
 40
100.0000000000042
100
AcDbArc
 50
316.3549895521521
 51
318.9714698602474
  0
ARC
  5
396
330
2EF
100
AcDbEntity
  8
P-SANR-FIXT
100
AcDbCircle
 10
1480.363156828904
 20
1970.998183850013
 30
0.0
 40
100.0000000000045
100
AcDbArc
 50
321.2605662363056
 51
323.8723888220582
  0
ARC
  5
397
330
2EF
100
AcDbEntity
  8
P-SANR-FIXT
100
AcDbCircle
 10
1480.363156828904
 20
1970.998183850013
 30
0.0
 40
100.0000000000042
100
AcDbArc
 50
326.1640449985054
 51
328.7747055661836
  0
ARC
  5
398
330
2EF
100
AcDbEntity
  8
P-SANR-FIXT
100
AcDbCircle
 10
1480.363156828904
 20
1970.998183850013
 30
0.0
 40
100.0000000000043
100
AcDbArc
 50
331.0659588057812
 51
333.6788111659716
  0
ARC
  5
399
330
2EF
100
AcDbEntity
  8
P-SANR-FIXT
100
AcDbCircle
 10
1480.363156828904
 20
1970.998183850013
 30
0.0
 40
100.0000000000042
100
AcDbArc
 50
335.9666704370337
 51
338.585274326242
  0
ARC
  5
39A
330
2EF
100
AcDbEntity
  8
P-SANR-FIXT
100
AcDbCircle
 10
1480.363156828904
 20
1970.998183850013
 30
0.0
 40
100.0000000000041
100
AcDbArc
 50
340.8664326786023
 51
343.4949426246641
  0
ARC
  5
39B
330
2EF
100
AcDbEntity
  8
P-SANR-FIXT
100
AcDbCircle
 10
1480.363156828904
 20
1970.998183850013
 30
0.0
 40
100.0000000000044
100
AcDbArc
 50
345.7654370683265
 51
348.4091405742548
  0
ARC
  5
39C
330
2EF
100
AcDbEntity
  8
P-SANR-FIXT
100
AcDbCircle
 10
1480.363156828904
 20
1970.998183850013
 30
0.0
 40
100.0000000000042
100
AcDbArc
 50
350.6638298550719
 51
353.3300445957481
  0
ARC
  5
39D
330
2EF
100
AcDbEntity
  8
P-SANR-FIXT
100
AcDbCircle
 10
1480.363156828904
 20
1970.998183850013
 30
0.0
 40
100.0000000000044
100
AcDbArc
 50
355.5617259647898
 51
358.2614947492083
  0
ARC
  5
39E
330
2EF
100
AcDbEntity
  8
P-SANR-FIXT
100
AcDbCircle
 10
1480.363156828904
 20
1970.998183850013
 30
0.0
 40
100.0000000000042
100
AcDbArc
 50
0.4592136773373584
 51
10.54680152006774
  0
ARC
  5
39F
330
2EF
100
AcDbEntity
  8
P-SANR-FIXT
100
AcDbCircle
 10
1480.363156828904
 20
1970.998183850013
 30
0.0
 40
100.0000000000044
100
AcDbArc
 50
14.97716166349327
 51
15.33474444959475
  0
ARC
  5
3A0
330
2EF
100
AcDbEntity
  8
P-SANR-FIXT
100
AcDbCircle
 10
1480.363156828904
 20
1970.998183850013
 30
0.0
 40
100.0000000000042
100
AcDbArc
 50
19.97540715500629
 51
20.12268737912195
  0
LINE
  5
3A1
330
2EF
100
AcDbEntity
  8
P-SANR-FIXT
100
AcDbLine
 10
1571.059745055871
 20
2013.118593202118
 30
0.0
 11
1571.01283937803
 21
2013.219446902455
 31
0.0
  0
ARC
  5
3A2
330
2EF
100
AcDbEntity
  8
P-SANR-FIXT
100
AcDbCircle
 10
1480.363156828904
 20
1970.998183850013
 30
0.0
 40
100.0000000000044
100
AcDbArc
 50
29.6985732381761
 51
29.97950637209292
  0
ARC
  5
3A3
330
2EF
100
AcDbEntity
  8
P-SANR-FIXT
100
AcDbCircle
 10
1480.363156828904
 20
1970.998183850013
 30
0.0
 40
100.0000000000043
100
AcDbArc
 50
34.48651616770305
 51
44.52971712270083
  0
ARC
  5
3A4
330
2EF
100
AcDbEntity
  8
P-SANR-FIXT
100
AcDbCircle
 10
1480.363156828904
 20
1970.998183850013
 30
0.0
 40
100.0000000000044
100
AcDbArc
 50
46.70961322413938
 51
49.42661605041295
  0
ARC
  5
3A5
330
2EF
100
AcDbEntity
  8
P-SANR-FIXT
100
AcDbCircle
 10
1480.363156828904
 20
1970.998183850013
 30
0.0
 40
100.0000000000043
100
AcDbArc
 50
51.64693324012377
 51
53.47790424261754
  0
ARC
  5
3A6
330
2EF
100
AcDbEntity
  8
P-SANR-FIXT
100
AcDbCircle
 10
1480.363156828902
 20
1970.998183850013
 30
0.0
 40
68.99999999996926
100
AcDbArc
 50
89.99999999999916
 51
269.9999999999986
  0
ARC
  5
3A7
330
2EF
100
AcDbEntity
  8
P-SANR-FIXT
100
AcDbCircle
 10
1480.363156828893
 20
1970.998183850011
 30
0.0
 40
38.09999999999968
100
AcDbArc
 50
89.99999999998667
 51
270.0000000000106
  0
ARC
  5
3A8
330
2EF
100
AcDbEntity
  8
P-SANR-FIXT
100
AcDbCircle
 10
1480.363156828902
 20
1970.998183850013
 30
0.0
 40
68.99999999996926
100
AcDbArc
 50
269.9999999999986
 51
89.99999999999877
  0
ARC
  5
3A9
330
2EF
100
AcDbEntity
  8
P-SANR-FIXT
100
AcDbCircle
 10
1480.363156828893
 20
1970.998183850011
 30
0.0
 40
38.09999999999996
100
AcDbArc
 50
270.0000000000118
 51
89.99999999998616
  0
ARC
  5
3AA
330
2EF
100
AcDbEntity
  8
P-SANR-FIXT
100
AcDbCircle
 10
1480.363156828902
 20
1970.998183850013
 30
0.0
 40
100.0000000000038
100
AcDbArc
 50
89.99999999999909
 51
269.9999999999986
  0
ARC
  5
3AB
330
2EF
100
AcDbEntity
  8
P-SANR-FIXT
100
AcDbCircle
 10
1480.363156828902
 20
1970.998183850013
 30
0.0
 40
100.0000000000038
100
AcDbArc
 50
269.9999999999987
 51
89.99999999999889
  0
ARC
  5
3AC
330
2EF
100
AcDbEntity
  8
P-SANR-FIXT
100
AcDbCircle
 10
1480.363156828902
 20
1970.998183850013
 30
0.0
 40
100.0000000000039
100
AcDbArc
 50
96.36594020436945
 51
97.63405453702809
  0
ARC
  5
3AD
330
2EF
100
AcDbEntity
  8
P-SANR-FIXT
100
AcDbCircle
 10
1480.363156828902
 20
1970.998183850013
 30
0.0
 40
100.0000000000039
100
AcDbArc
 50
82.36594546297348
 51
83.63405979563028
  0
LINE
  5
3AE
330
2EF
100
AcDbEntity
  8
P-SANR-FIXT
100
AcDbLine
 10
1467.078605879604
 20
2070.111859526361
 30
0.0
 11
1467.078605879604
 21
2070.01613646857
 31
0.0
  0
LINE
  5
3AF
330
2EF
100
AcDbEntity
  8
P-SANR-FIXT
100
AcDbLine
 10
1493.647707778196
 20
2070.016136468571
 30
0.0
 11
1493.647707778196
 21
2070.111859526361
 31
0.0
  0
ELLIPSE
  5
3B0
330
2EF
100
AcDbEntity
  8
P-SANR-FIXT
100
AcDbEllipse
 10
1480.363156828905
 20
2119.487219623469
 30
0.0
 11
26.84564288781282
 21
0.0
 31
0.0
210
0.0
220
0.0
230
1.0
 40
0.2588190451025257
 41
4.712388980384675
 42
7.596132725314379
  0
ELLIPSE
  5
3B1
330
2EF
100
AcDbEntity
  8
P-SANR-FIXT
100
AcDbEllipse
 10
1480.363156828905
 20
2109.244828421895
 30
0.0
 11
38.84564288781322
 21
0.0
 31
0.0
210
0.0
220
0.0
230
1.0
 40
0.2588190451025195
 41
2.334456645102642
 42
4.712388980384671
  0
ELLIPSE
  5
3B2
330
2EF
100
AcDbEntity
  8
P-SANR-FIXT
100
AcDbEllipse
 10
1480.363156828905
 20
2109.244828421895
 30
0.0
 11
-38.84564288781303
 21
0.000000000000425
 31
0.0
210
0.0
220
0.0
230
1.0
 40
0.258819045102523
 41
1.570796326794894
 42
3.948728662076891
  0
ELLIPSE
  5
3B3
330
2EF
100
AcDbEntity
  8
P-SANR-FIXT
100
AcDbEllipse
 10
1480.363156828905
 20
2106.347050943028
 30
0.0
 11
-38.84564288781326
 21
0.0000000000003646
 31
0.0
210
0.0
220
0.0
230
1.0
 40
0.2588190451025214
 41
0.0
 42
1.441599129423272
  0
ELLIPSE
  5
3B4
330
2EF
100
AcDbEntity
  8
P-SANR-FIXT
100
AcDbEllipse
 10
1480.363156828905
 20
2106.347050943028
 30
0.0
 11
38.84564288781293
 21
0.0
 31
0.0
210
0.0
220
0.0
230
1.0
 40
0.258819045102519
 41
4.841586177755742
 42
6.283185307179534
  0
ELLIPSE
  5
3B5
330
2EF
100
AcDbEntity
  8
P-SANR-FIXT
100
AcDbEllipse
 10
1480.363156828905
 20
2106.347050943028
 30
0.0
 11
40.34564288781317
 21
0.0
 31
0.0
210
0.0
220
0.0
230
1.0
 40
0.2588190451025227
 41
2.869057172174011
 42
4.588020053127207
  0
ELLIPSE
  5
3B6
330
2EF
100
AcDbEntity
  8
P-SANR-FIXT
100
AcDbEllipse
 10
1480.363156828905
 20
2106.347050943028
 30
0.0
 11
40.34564288781304
 21
0.0
 31
0.0
210
0.0
220
0.0
230
1.0
 40
0.2588190451025195
 41
4.836757907641597
 42
6.555720788595244
  0
ELLIPSE
  5
3B7
330
2EF
100
AcDbEntity
  8
P-SANR-FIXT
100
AcDbEllipse
 10
1480.363156828905
 20
2101.764149242826
 30
0.0
 11
46.00000000000033
 21
0.0
 31
0.0
210
0.0
220
0.0
230
1.0
 40
0.2588190451025194
 41
2.792526803190877
 42
4.548555656889637
  0
ELLIPSE
  5
3B8
330
2EF
100
AcDbEntity
  8
P-SANR-FIXT
100
AcDbEllipse
 10
1480.363156828905
 20
2101.764149242826
 30
0.0
 11
45.99999999999986
 21
0.0
 31
0.0
210
0.0
220
0.0
230
1.0
 40
0.2588190451025168
 41
4.876222303879227
 42
6.632251157578398
  0
ELLIPSE
  5
3B9
330
2EF
100
AcDbEntity
  8
P-SANR-FIXT
100
AcDbEllipse
 10
1480.363156828904
 20
2081.45299707067
 30
0.0
 11
-46.00000000000022
 21
0.000000000000299
 31
0.0
210
0.0
220
0.0
230
1.0
 40
0.2588190451025251
 41
0.0
 42
1.282836846764772
  0
ELLIPSE
  5
3BA
330
2EF
100
AcDbEntity
  8
P-SANR-FIXT
100
AcDbEllipse
 10
1480.363156828904
 20
2081.45299707067
 30
0.0
 11
45.99999999999995
 21
0.0
 31
0.0
210
0.0
220
0.0
230
1.0
 40
0.2588190451025189
 41
5.000348460414743
 42
6.283185307179503
  0
ELLIPSE
  5
3BB
330
2EF
100
AcDbEntity
  8
P-SANR-FIXT
100
AcDbEllipse
 10
1442.059164901742
 20
2090.659409611689
 30
0.0
 11
19.99999999999995
 21
0.0
 31
0.0
210
0.0
220
0.0
230
1.0
 40
0.2588190451025256
 41
1.966116509894582
 42
3.106686068549859
  0
LINE
  5
3BC
330
2EF
100
AcDbEntity
  8
P-SANR-FIXT
100
AcDbLine
 10
1422.07134836136
 20
2090.840062699911
 30
0.0
 11
1418.898236328561
 21
2081.45299707067
 31
0.0
  0
LINE
  5
3BD
330
2EF
100
AcDbEntity
  8
P-SANR-FIXT
100
AcDbLine
 10
1418.898236328561
 20
2081.45299707067
 30
0.0
 11
1422.07134836136
 21
2072.06593144143
 31
0.0
  0
ELLIPSE
  5
3BE
330
2EF
100
AcDbEntity
  8
P-SANR-FIXT
100
AcDbEllipse
 10
1442.059164901742
 20
2072.246584529651
 30
0.0
 11
20.00000000000011
 21
0.0
 31
0.0
210
0.0
220
0.0
230
1.0
 40
0.2588190451025232
 41
3.176499238629632
 42
4.625804496199884
  0
LINE
  5
3BF
330
2EF
100
AcDbEntity
  8
P-SANR-FIXT
100
AcDbLine
 10
1440.329638116715
 20
2067.089594843458
 30
0.0
 11
1452.056190696629
 21
2066.826147486542
 31
0.0
  0
LINE
  5
3C0
330
2EF
100
AcDbEntity
  8
P-SANR-FIXT
100
AcDbLine
 10
1508.655225816039
 20
2066.830844538361
 30
0.0
 11
1519.365138690096
 21
2067.073356938984
 31
0.0
  0
ELLIPSE
  5
3C1
330
2EF
100
AcDbEntity
  8
P-SANR-FIXT
100
AcDbEllipse
 10
1518.667148756046
 20
2072.246584529651
 30
0.0
 11
20.0000000000001
 21
0.0
 31
0.0
210
0.0
220
0.0
230
0.9999999999999998
 40
0.2588190451025233
 41
4.747295565424553
 42
6.248278722139646
  0
LINE
  5
3C2
330
2EF
100
AcDbEntity
  8
P-SANR-FIXT
100
AcDbLine
 10
1538.654965296428
 20
2072.065931441428
 30
0.0
 11
1541.828077329228
 21
2081.452997070669
 31
0.0
  0
LINE
  5
3C3
330
2EF
100
AcDbEntity
  8
P-SANR-FIXT
100
AcDbLine
 10
1541.828077329228
 20
2081.452997070669
 30
0.0
 11
1537.878388044649
 21
2091.179101889398
 31
0.0
  0
ELLIPSE
  5
3C4
330
2EF
100
AcDbEntity
  8
P-SANR-FIXT
100
AcDbEllipse
 10
1513.83291615682
 20
2089.408218146554
 30
0.0
 11
24.9999999999999
 21
0.0
 31
0.0
210
0.0
220
0.0
230
1.0
 40
0.2588190451024981
 41
0.2772240806173063
 42
1.04554018204993
  0
SPLINE
  5
3C5
330
2EF
100
AcDbEntity
  8
P-SANR-FIXT
100
AcDbSpline
210
0.0
220
0.0
230
1.0
 70
     8
 71
     3
 72
    11
 73
     7
 74
     0
 42
0.000000001
 43
0.0000000001
 40
-1.0
 40
-1.0
 40
-1.0
 40
-1.0
 40
-0.9
 40
-0.8
 40
-0.7
 40
-0.6505687879996388
 40
-0.6505687879996388
 40
-0.6505687879996388
 40
-0.6505687879996388
 10
1471.037835381162
 20
1808.741404396828
 30
0.0
 10
1470.195928516243
 20
1809.043704005425
 30
0.0
 10
1468.696905865032
 20
1809.725037215989
 30
0.0
 10
1467.128845925629
 20
1810.946935679817
 30
0.0
 10
1466.462413572158
 20
1812.068307586553
 30
0.0
 10
1466.363271027182
 20
1812.761242598085
 30
0.0
 10
1466.363272646327
 20
1812.991222941619
 30
0.0
  0
SPLINE
  5
3C6
330
2EF
100
AcDbEntity
  8
P-SANR-FIXT
100
AcDbSpline
210
0.0
220
0.0
230
1.0
 70
     8
 71
     3
 72
    10
 73
     6
 74
     0
 42
0.000000001
 43
0.0000000001
 40
-0.3494312120005571
 40
-0.3494312120005571
 40
-0.3494312120005571
 40
-0.3494312120005571
 40
-0.3
 40
-0.2
 40
0.0
 40
0.0
 40
0.0
 40
0.0
 10
1494.362962676528
 20
1812.99130659884
 30
0.0
 10
1494.362950076306
 20
1812.761341440776
 30
0.0
 10
1494.263842713059
 20
1812.06836885717
 30
0.0
 10
1493.33179227542
 20
1810.495756433389
 30
0.0
 10
1491.372292006462
 20
1809.346003614021
 30
0.0
 10
1489.688478276623
 20
1808.741404396827
 30
0.0
  0
SPLINE
  5
3C7
330
2EF
100
AcDbEntity
  8
P-SANR-FIXT
100
AcDbSpline
210
0.0
220
0.0
230
1.0
 70
     8
 71
     3
 72
    23
 73
    19
 74
     0
 42
0.000000001
 43
0.0000000001
 40
0.0
 40
0.0
 40
0.0
 40
0.0
 40
0.125
 40
0.1875
 40
0.25
 40
0.3125
 40
0.375
 40
0.4375
 40
0.46875
 40
0.5
 40
0.53125
 40
0.5625
 40
0.625
 40
0.6875
 40
0.75
 40
0.8125
 40
0.875
 40
1.0
 40
1.0
 40
1.0
 40
1.0
 10
1480.363156828902
 20
1859.805272095705
 30
0.0
 10
1479.802652408529
 20
1859.829672504934
 30
0.0
 10
1478.996306653938
 20
1859.942078054611
 30
0.0
 10
1477.990822559256
 20
1860.243528179231
 30
0.0
 10
1477.273018706406
 20
1860.539988453835
 30
0.0
 10
1476.586529655615
 20
1860.925635549761
 30
0.0
 10
1475.93237883193
 20
1861.396589531915
 30
0.0
 10
1475.420461360647
 20
1861.835718649254
 30
0.0
 10
1475.033601313911
 20
1862.204704981379
 30
0.0
 10
1474.755653360663
 20
1862.485219907737
 30
0.0
 10
1474.490249532322
 20
1862.774596197593
 30
0.0
 10
1474.151864570083
 20
1863.180377335685
 30
0.0
 10
1473.756679643792
 20
1863.715024817913
 30
0.0
 10
1473.322642681338
 20
1864.387580033547
 30
0.0
 10
1472.923368690904
 20
1865.071953256037
 30
0.0
 10
1472.558013781525
 20
1865.765665879942
 30
0.0
 10
1472.120581611114
 20
1866.719396970728
 30
0.0
 10
1471.846767433843
 20
1867.461957856499
 30
0.0
 10
1471.688227882238
 20
1867.969336636242
 30
0.0
  0
SPLINE
  5
3C8
330
2EF
100
AcDbEntity
  8
P-SANR-FIXT
100
AcDbSpline
210
0.0
220
0.0
230
1.0
 70
     8
 71
     3
 72
    11
 73
     7
 74
     0
 42
0.000000001
 43
0.0000000001
 40
0.0
 40
0.0
 40
0.0
 40
0.0
 40
0.1111111111111111
 40
0.2222222222222222
 40
0.2777777777777778
 40
0.3055555555555556
 40
0.3055555555555556
 40
0.3055555555555556
 40
0.3055555555555556
 10
1471.688227882238
 20
1867.969336636242
 30
0.0
 10
1468.070253935983
 20
1868.022120915254
 30
0.0
 10
1461.124385575743
 20
1868.498672367947
 30
0.0
 10
1454.060814705429
 20
1869.824292386427
 30
0.0
 10
1450.348350556043
 20
1871.211982254218
 30
0.0
 10
1449.053014231422
 20
1871.858639018635
 30
0.0
 10
1448.655471833143
 20
1872.078310299601
 30
0.0
  0
SPLINE
  5
3C9
330
2EF
100
AcDbEntity
  8
P-SANR-FIXT
100
AcDbSpline
210
0.0
220
0.0
230
1.0
 70
     8
 71
     3
 72
    11
 73
     7
 74
     0
 42
0.000000001
 43
0.0000000001
 40
0.6944444444444445
 40
0.6944444444444445
 40
0.6944444444444445
 40
0.6944444444444445
 40
0.7222222222222223
 40
0.7777777777777778
 40
0.8888888888888889
 40
1.0
 40
1.0
 40
1.0
 40
1.0
 10
1512.065252349966
 20
1872.075132232353
 30
0.0
 10
1511.668418818176
 20
1871.856071640453
 30
0.0
 10
1510.376247684471
 20
1871.211524817911
 30
0.0
 10
1506.676960882251
 20
1869.82763004914
 30
0.0
 10
1499.593963210433
 20
1868.496880968007
 30
0.0
 10
1492.652437549581
 20
1868.021997511216
 30
0.0
 10
1489.038085775551
 20
1867.969336636244
 30
0.0
  0
SPLINE
  5
3CA
330
2EF
100
AcDbEntity
  8
P-SANR-FIXT
100
AcDbSpline
210
0.0
220
0.0
230
1.0
 70
     8
 71
     3
 72
    22
 73
    18
 74
     0
 42
0.000000001
 43
0.0000000001
 40
0.0
 40
0.0
 40
0.0
 40
0.0
 40
0.2
 40
0.3
 40
0.35
 40
0.4
 40
0.475
 40
0.55
 40
0.5875
 40
0.60625
 40
0.625
 40
0.7
 40
0.775
 40
0.8125
 40
0.85
 40
0.925
 40
1.0
 40
1.0
 40
1.0
 40
1.0
 10
1489.038085775551
 20
1867.969336636244
 30
0.0
 10
1488.779942457776
 20
1867.163270685813
 30
0.0
 10
1488.302185888403
 20
1865.999795358742
 30
0.0
 10
1487.597031385988
 20
1864.696257814084
 30
0.0
 10
1487.147134037998
 20
1863.976272453487
 30
0.0
 10
1486.720509904859
 20
1863.375656809438
 30
0.0
 10
1486.187204952346
 20
1862.713497013524
 30
0.0
 10
1485.637978220978
 20
1862.128857910084
 30
0.0
 10
1485.225743898856
 20
1861.756279070946
 30
0.0
 10
1484.982361005201
 20
1861.556801678369
 30
0.0
 10
1484.607630869264
 20
1861.263383305928
 30
0.0
 10
1484.011430959992
 20
1860.848369982029
 30
0.0
 10
1483.303183961641
 20
1860.466605959482
 30
0.0
 10
1482.720007847233
 20
1860.233201353137
 30
0.0
 10
1482.122221713381
 20
1860.039872594341
 30
0.0
 10
1481.346381848083
 20
1859.870698273342
 30
0.0
 10
1480.69581767145
 20
1859.813916018516
 30
0.0
 10
1480.363156828902
 20
1859.805272095705
 30
0.0
  0
LINE
  5
3CB
330
2EF
100
AcDbEntity
  8
P-SANR-FIXT
100
AcDbLine
 10
1491.46038029641
 20
2070.381584539762
 30
0.0
 11
1490.881844424983
 21
2070.381584539762
 31
0.0
  0
LINE
  5
3CC
330
2EF
100
AcDbEntity
  8
P-SANR-FIXT
100
AcDbLine
 10
1469.844469232822
 20
2070.381584539762
 30
0.0
 11
1469.265933361394
 21
2070.381584539762
 31
0.0
  0
LINE
  5
3CD
330
2EF
100
AcDbEntity
  8
P-SANR-FIXT
100
AcDbLine
 10
1467.078605879604
 20
2070.381584539762
 30
0.0
 11
1469.27534066243
 21
2070.381584539762
 31
0.0
  0
LINE
  5
3CE
330
2EF
100
AcDbEntity
  8
P-SANR-FIXT
100
AcDbLine
 10
1491.450972995374
 20
2070.381584539762
 30
0.0
 11
1493.647707778196
 21
2070.381584539762
 31
0.0
  0
LINE
  5
3CF
330
2EF
100
AcDbEntity
  8
P-SANR-FIXT
100
AcDbLine
 10
1493.647707778196
 20
2070.381584539762
 30
0.0
 11
1493.647707778196
 21
2070.111859526361
 31
0.0
  0
LINE
  5
3D0
330
2EF
100
AcDbEntity
  8
P-SANR-FIXT
100
AcDbLine
 10
1541.828077329228
 20
2057.304851413443
 30
0.0
 11
1539.803436450092
 21
2051.315325480655
 31
0.0
  0
LINE
  5
3D1
330
2EF
100
AcDbEntity
  8
P-SANR-FIXT
100
AcDbLine
 10
1420.9228772077
 20
2051.315325480646
 30
0.0
 11
1418.898236328561
 21
2057.304851413443
 31
0.0
  0
LINE
  5
3D2
330
2EF
100
AcDbEntity
  8
P-SANR-FIXT
100
AcDbLine
 10
1422.07134836136
 20
2072.065931441429
 30
0.0
 11
1422.07134836136
 21
2052.196578391766
 31
0.0
  0
LINE
  5
3D3
330
2EF
100
AcDbEntity
  8
P-SANR-FIXT
100
AcDbLine
 10
1519.365138690096
 20
2067.073356938985
 30
0.0
 11
1519.365138690096
 21
2062.979234279298
 31
0.0
  0
LINE
  5
3D4
330
2EF
100
AcDbEntity
  8
P-SANR-FIXT
100
AcDbLine
 10
1418.898236328561
 20
2057.304851413443
 30
0.0
 11
1418.898236328561
 21
2081.45299707067
 31
0.0
  0
LINE
  5
3D5
330
2EF
100
AcDbEntity
  8
P-SANR-FIXT
100
AcDbLine
 10
1538.654965296428
 20
2052.196578391777
 30
0.0
 11
1538.654965296428
 21
2072.065931441429
 31
0.0
  0
LINE
  5
3D6
330
2EF
100
AcDbEntity
  8
P-SANR-FIXT
100
AcDbLine
 10
1541.828077329228
 20
2057.304851413443
 30
0.0
 11
1541.828077329228
 21
2081.45299707067
 31
0.0
  0
ELLIPSE
  5
3D7
330
2EF
100
AcDbEntity
  8
P-SANR-FIXT
100
AcDbEllipse
 10
1480.363156828899
 20
1574.358600449507
 30
0.0
 11
6.302754939483065
 21
0.0
 31
0.0
210
0.0
220
0.0
230
1.0
 40
0.2588190451024976
 41
3.141592653589793
 42
4.712388980384611
  0
ELLIPSE
  5
3D8
330
2EF
100
AcDbEntity
  8
P-SANR-FIXT
100
AcDbEllipse
 10
1480.363156828899
 20
1574.358600449507
 30
0.0
 11
6.302754939482611
 21
0.0
 31
0.0
210
0.0
220
0.0
230
1.0
 40
0.2588190451025163
 41
4.712388980384683
 42
6.283185307179586
  0
ELLIPSE
  5
3D9
330
2EF
100
AcDbEntity
  8
P-SANR-FIXT
100
AcDbEllipse
 10
1480.363156828894
 20
1827.651074552737
 30
0.0
 11
8.000000000000227
 21
0.0
 31
0.0
210
0.0
220
0.0
230
1.0
 40
0.2588190451025054
 41
1.570796326794896
 42
4.712388980384683
  0
ELLIPSE
  5
3DA
330
2EF
100
AcDbEntity
  8
P-SANR-FIXT
100
AcDbEllipse
 10
1480.363156828894
 20
1827.651074552737
 30
0.0
 11
8.0
 21
0.0
 31
0.0
210
0.0
220
0.0
230
1.0
 40
0.2588190451025412
 41
4.712388980384683
 42
7.853981633974482
  0
ELLIPSE
  5
3DB
330
2EF
100
AcDbEntity
  8
P-SANR-FIXT
100
AcDbEllipse
 10
1480.363156828894
 20
1691.938495959123
 30
0.0
 11
5.999999999999544
 21
0.0
 31
0.0
210
0.0
220
0.0
230
0.9999999999999998
 40
0.2588190451025229
 41
3.141592653589793
 42
4.712388980384683
  0
ELLIPSE
  5
3DC
330
2EF
100
AcDbEntity
  8
P-SANR-FIXT
100
AcDbEllipse
 10
1480.363156828894
 20
1691.938495959123
 30
0.0
 11
5.999999999999317
 21
0.0
 31
0.0
210
0.0
220
0.0
230
1.0
 40
0.2588190451025327
 41
4.712388980384683
 42
6.283185307179586
  0
ELLIPSE
  5
3DD
330
2EF
100
AcDbEntity
  8
P-SANR-FIXT
100
AcDbEllipse
 10
1480.363156828894
 20
1700.631828395724
 30
0.0
 11
5.999999999999544
 21
0.0
 31
0.0
210
0.0
220
0.0
230
0.9999999999999998
 40
0.2588190451025229
 41
2.560924585511371
 42
4.712388980384683
  0
ELLIPSE
  5
3DE
330
2EF
100
AcDbEntity
  8
P-SANR-FIXT
100
AcDbEllipse
 10
1480.363156828894
 20
1700.631828395724
 30
0.0
 11
5.999999999999485
 21
0.0
 31
0.0
210
0.0
220
0.0
230
1.0
 40
0.2588190451025161
 41
4.712388980384683
 42
6.863853375258019
  0
ELLIPSE
  5
3DF
330
2EF
100
AcDbEntity
  8
P-SANR-FIXT
100
AcDbEllipse
 10
1480.363156828894
 20
1700.631828395724
 30
0.0
 11
4.999999999999545
 21
0.0
 31
0.0
210
0.0
220
0.0
230
1.0
 40
0.2588190451024965
 41
3.141592653589793
 42
4.712388980384683
  0
ELLIPSE
  5
3E0
330
2EF
100
AcDbEntity
  8
P-SANR-FIXT
100
AcDbEllipse
 10
1480.363156828894
 20
1700.631828395724
 30
0.0
 11
4.999999999999317
 21
0.0
 31
0.0
210
0.0
220
0.0
230
1.0
 40
0.2588190451025083
 41
4.712388980384683
 42
6.283185307179586
  0
ELLIPSE
  5
3E1
330
2EF
100
AcDbEntity
  8
P-SANR-FIXT
100
AcDbEllipse
 10
1480.363156828894
 20
1704.012568787736
 30
0.0
 11
8.499999999999545
 21
0.0
 31
0.0
210
0.0
220
0.0
230
1.0
 40
0.2588190451025216
 41
3.141592653589793
 42
4.712388980384683
  0
ELLIPSE
  5
3E2
330
2EF
100
AcDbEntity
  8
P-SANR-FIXT
100
AcDbEllipse
 10
1480.363156828894
 20
1704.012568787736
 30
0.0
 11
8.499999999999317
 21
0.0
 31
0.0
210
0.0
220
0.0
230
1.0
 40
0.2588190451025285
 41
4.712388980384683
 42
6.283185307179586
  0
ELLIPSE
  5
3E3
330
2EF
100
AcDbEntity
  8
P-SANR-FIXT
100
AcDbEllipse
 10
1480.363156828894
 20
1708.359235006037
 30
0.0
 11
8.499999999999545
 21
0.0
 31
0.0
210
0.0
220
0.0
230
1.0
 40
0.2588190451025216
 41
3.103101936561622
 42
4.712388980384683
  0
ELLIPSE
  5
3E4
330
2EF
100
AcDbEntity
  8
P-SANR-FIXT
100
AcDbEllipse
 10
1480.363156828894
 20
1708.359235006037
 30
0.0
 11
8.499999999999351
 21
0.0
 31
0.0
210
0.0
220
0.0
230
1.0
 40
0.2588190451025177
 41
4.712388980384683
 42
6.321676024207758
  0
ELLIPSE
  5
3E5
330
2EF
100
AcDbEntity
  8
P-SANR-FIXT
100
AcDbEllipse
 10
1480.363156828894
 20
1708.359235006037
 30
0.0
 11
6.499999999999544
 21
0.0
 31
0.0
210
0.0
220
0.0
230
0.9999999999999998
 40
0.2588190451025155
 41
3.498089703836967
 42
4.712388980384683
  0
ELLIPSE
  5
3E6
330
2EF
100
AcDbEntity
  8
P-SANR-FIXT
100
AcDbEllipse
 10
1480.363156828894
 20
1708.359235006037
 30
0.0
 11
6.499999999999396
 21
0.0
 31
0.0
210
0.0
220
0.0
230
1.0
 40
0.2588190451025128
 41
4.712388980384683
 42
5.926688256932371
  0
ELLIPSE
  5
3E7
330
2EF
100
AcDbEntity
  8
P-SANR-FIXT
100
AcDbEllipse
 10
1480.363156828894
 20
1709.808123745471
 30
0.0
 11
9.999999999999317
 21
0.0
 31
0.0
210
0.0
220
0.0
230
1.0
 40
0.2588190451025361
 41
3.141592653589962
 42
4.712388980384683
  0
ELLIPSE
  5
3E8
330
2EF
100
AcDbEntity
  8
P-SANR-FIXT
100
AcDbEllipse
 10
1480.363156828894
 20
1709.808123745471
 30
0.0
 11
9.999999999999317
 21
0.0
 31
0.0
210
0.0
220
0.0
230
1.0
 40
0.2588190451025361
 41
4.712388980384683
 42
6.283185307179586
  0
ELLIPSE
  5
3E9
330
2EF
100
AcDbEntity
  8
P-SANR-FIXT
100
AcDbEllipse
 10
1480.363156828894
 20
1715.603678703205
 30
0.0
 11
14.00000000000023
 21
0.0
 31
0.0
210
0.0
220
0.0
230
1.0
 40
0.2588190451025045
 41
3.129048181155063
 42
4.712388980384683
  0
ELLIPSE
  5
3EA
330
2EF
100
AcDbEntity
  8
P-SANR-FIXT
100
AcDbEllipse
 10
1480.363156828894
 20
1715.603678703205
 30
0.0
 11
14.00000000000027
 21
0.0
 31
0.0
210
0.0
220
0.0
230
1.0
 40
0.2588190451025013
 41
4.712388980384683
 42
6.295729779614253
  0
ELLIPSE
  5
3EB
330
2EF
100
AcDbEntity
  8
P-SANR-FIXT
100
AcDbEllipse
 10
1480.363156828894
 20
1821.855519595003
 30
0.0
 11
14.00000000000023
 21
0.0
 31
0.0
210
0.0
220
0.0
230
1.0
 40
0.2588190451025045
 41
2.179596642661349
 42
4.712388980384683
  0
ELLIPSE
  5
3EC
330
2EF
100
AcDbEntity
  8
P-SANR-FIXT
100
AcDbEllipse
 10
1480.363156828894
 20
1821.855519595003
 30
0.0
 11
14.00000000000017
 21
0.0
 31
0.0
210
0.0
220
0.0
230
1.0
 40
0.2588190451025144
 41
4.712388980384683
 42
7.245181318108012
  0
ELLIPSE
  5
3ED
330
2EF
100
AcDbEntity
  8
P-SANR-FIXT
100
AcDbEllipse
 10
1480.363156828894
 20
1821.855519595003
 30
0.0
 11
8.000000000000227
 21
0.0
 31
0.0
210
0.0
220
0.0
230
1.0
 40
0.2588190451024769
 41
3.141592653589793
 42
4.712388980384683
  0
ELLIPSE
  5
3EE
330
2EF
100
AcDbEntity
  8
P-SANR-FIXT
100
AcDbEllipse
 10
1480.363156828894
 20
1821.855519595003
 30
0.0
 11
8.0
 21
0.0
 31
0.0
210
0.0
220
0.0
230
1.0
 40
0.2588190451024843
 41
4.712388980384683
 42
6.283185307179586
  0
SPLINE
  5
3EF
330
2EF
100
AcDbEntity
  8
P-SANR-FIXT
100
AcDbSpline
210
0.0
220
0.0
230
1.0
 70
     8
 71
     3
 72
    12
 73
     8
 74
     0
 42
0.000000001
 43
0.0000000001
 40
-1.0
 40
-1.0
 40
-1.0
 40
-1.0
 40
-0.9285714285714286
 40
-0.8928571428571427
 40
-0.8571428571428571
 40
-0.8214285714285713
 40
-0.8179859111140366
 40
-0.8179859111140366
 40
-0.8179859111140366
 40
-0.8179859111140366
 10
1471.688227882238
 20
1867.969336636242
 30
0.0
 10
1471.92557262081
 20
1868.304839245044
 30
0.0
 10
1472.299337265613
 20
1868.871680931202
 30
0.0
 10
1472.794961293004
 20
1869.743750552295
 30
0.0
 10
1473.152630004477
 20
1870.455721618008
 30
0.0
 10
1473.400547511386
 20
1870.983499631643
 30
0.0
 10
1473.528100858789
 20
1871.26829659234
 30
0.0
 10
1473.539294183667
 20
1871.293405464857
 30
0.0
  0
SPLINE
  5
3F0
330
2EF
100
AcDbEntity
  8
P-SANR-FIXT
100
AcDbSpline
210
0.0
220
0.0
230
1.0
 70
     8
 71
     3
 72
    12
 73
     8
 74
     0
 42
0.000000001
 43
0.0000000001
 40
-0.1820140888858322
 40
-0.1820140888858322
 40
-0.1820140888858322
 40
-0.1820140888858322
 40
-0.1785714285714286
 40
-0.1428571428571428
 40
-0.1071428571428571
 40
-0.0714285714285714
 40
0.0
 40
0.0
 40
0.0
 40
0.0
 10
1487.187019474122
 20
1871.293405464857
 30
0.0
 10
1487.198212799
 20
1871.26829659234
 30
0.0
 10
1487.325766146402
 20
1870.983499631645
 30
0.0
 10
1487.573683653311
 20
1870.455721618007
 30
0.0
 10
1487.931352364784
 20
1869.743750552297
 30
0.0
 10
1488.426976392174
 20
1868.871680931204
 30
0.0
 10
1488.800741036978
 20
1868.304839245046
 30
0.0
 10
1489.038085775551
 20
1867.969336636244
 30
0.0
  0
LINE
  5
3F1
330
2EF
100
AcDbEntity
  8
P-SANR-FIXT
100
AcDbLine
 10
1467.078605879604
 20
2070.111859526361
 30
0.0
 11
1467.078605879604
 21
2070.381584539762
 31
0.0
  0
SPLINE
  5
3F2
330
2EF
100
AcDbEntity
  8
P-SANR-FIXT
100
AcDbSpline
210
0.0
220
0.0
230
1.0
 70
     8
 71
     3
 72
    17
 73
    13
 74
     0
 42
0.000000001
 43
0.0000000001
 40
0.0
 40
0.0
 40
0.0
 40
0.0
 40
0.1666666666666666
 40
0.25
 40
0.3333333333333333
 40
0.4166666666666666
 40
0.5
 40
0.5833333333333333
 40
0.6666666666666666
 40
0.75
 40
0.8333333333333332
 40
1.0
 40
1.0
 40
1.0
 40
1.0
 10
1471.037835381162
 20
1808.741404396828
 30
0.0
 10
1471.457854362916
 20
1808.54007114085
 30
0.0
 10
1472.122305647113
 20
1808.250800344074
 30
0.0
 10
1473.067496617982
 20
1807.891216177723
 30
0.0
 10
1473.803723260634
 20
1807.637823520303
 30
0.0
 10
1474.563588398685
 20
1807.389990239767
 30
0.0
 10
1475.34448684217
 20
1807.150290248569
 30
0.0
 10
1476.145118987746
 20
1806.934477230228
 30
0.0
 10
1476.964239418674
 20
1806.758365114923
 30
0.0
 10
1477.79922522652
 20
1806.624585906794
 30
0.0
 10
1478.928142096526
 20
1806.488080856892
 30
0.0
 10
1479.788183786723
 20
1806.437384711063
 30
0.0
 10
1480.3631568289
 20
1806.426316692249
 30
0.0
  0
ELLIPSE
  5
3F3
330
2EF
100
AcDbEntity
  8
P-SANR-FIXT
100
AcDbEllipse
 10
1480.363156828901
 20
1833.964206754309
 30
0.0
 11
97.89857829387132
 21
0.0
 31
0.0
210
0.0
220
0.0
230
0.9999999999999998
 40
0.2588190451025195
 41
1.988202499364312
 42
4.616989417679299
  0
ELLIPSE
  5
3F4
330
2EF
100
AcDbEntity
  8
P-SANR-FIXT
100
AcDbEllipse
 10
1480.363156828901
 20
1833.964206754309
 30
0.0
 11
97.89857829387123
 21
0.0
 31
0.0
210
0.0
220
0.0
230
1.0
 40
0.2588190451025208
 41
4.807788543089881
 42
7.007816886506502
  0
ELLIPSE
  5
3F5
330
2EF
100
AcDbEntity
  8
P-SANR-FIXT
100
AcDbEllipse
 10
1480.363156828901
 20
1833.964206754309
 30
0.0
 11
97.89857829387131
 21
0.0
 31
0.0
210
0.0
220
0.0
230
1.0
 40
0.2588190451025203
 41
0.7288033817820196
 42
0.8654220940677543
  0
ELLIPSE
  5
3F6
330
2EF
100
AcDbEntity
  8
P-SANR-FIXT
100
AcDbEllipse
 10
1480.363156828901
 20
1833.964206754309
 30
0.0
 11
97.89857829387113
 21
0.0
 31
0.0
210
0.0
220
0.0
230
1.0
 40
0.2588190451025183
 41
0.8938645288205172
 42
1.153390154225444
  0
SPLINE
  5
3F7
330
2EF
100
AcDbEntity
  8
P-SANR-FIXT
100
AcDbSpline
210
0.0
220
0.0
230
1.0
 70
     8
 71
     3
 72
    17
 73
    13
 74
     0
 42
0.000000001
 43
0.0000000001
 40
0.0
 40
0.0
 40
0.0
 40
0.0
 40
0.1666666666666666
 40
0.25
 40
0.3333333333333333
 40
0.4166666666666666
 40
0.5
 40
0.5833333333333333
 40
0.6666666666666666
 40
0.75
 40
0.8333333333333332
 40
1.0
 40
1.0
 40
1.0
 40
1.0
 10
1480.3631568289
 20
1806.426316692249
 30
0.0
 10
1480.938560881753
 20
1806.437434748258
 30
0.0
 10
1481.79911978301
 20
1806.488213973823
 30
0.0
 10
1482.928443673887
 20
1806.624819819931
 30
0.0
 10
1483.763609141267
 20
1806.758664487512
 30
0.0
 10
1484.582726834494
 20
1806.934820930075
 30
0.0
 10
1485.383194803225
 20
1807.150649680511
 30
0.0
 10
1486.163857232772
 20
1807.390339372739
 30
0.0
 10
1486.92349778011
 20
1807.638144426435
 30
0.0
 10
1487.659522782453
 20
1807.891493616987
 30
0.0
 10
1488.604408735701
 20
1808.250987598503
 30
0.0
 10
1489.268619297631
 20
1808.540156044163
 30
0.0
 10
1489.688478276623
 20
1808.741404396827
 30
0.0
  0
ELLIPSE
  5
3F8
330
2EF
100
AcDbEntity
  8
P-SANR-FIXT
100
AcDbEllipse
 10
1480.363156828901
 20
1825.379739178842
 30
0.0
 11
111.4872754397889
 21
0.0
 31
0.0
210
0.0
220
0.0
230
1.0
 40
0.2588190451025168
 41
2.652360288529477
 42
4.712388980384669
  0
ELLIPSE
  5
3F9
330
2EF
100
AcDbEntity
  8
P-SANR-FIXT
100
AcDbEllipse
 10
1480.363156828901
 20
1825.379739178842
 30
0.0
 11
-111.4872754397884
 21
0.0000000000016407
 31
0.0
210
0.0
220
0.0
230
1.0
 40
0.2588190451025198
 41
1.570796326794891
 42
3.63082501865003
  0
ELLIPSE
  5
3FA
330
2EF
100
AcDbEntity
  8
P-SANR-FIXT
100
AcDbEllipse
 10
1480.363156828901
 20
1815.650137839456
 30
0.0
 11
-121.9519606832534
 21
0.0000000000014426
 31
0.0
210
0.0
220
0.0
230
1.0
 40
0.258819045102519
 41
6.2372341341445
 42
7.85398163397448
  0
ELLIPSE
  5
3FB
330
2EF
100
AcDbEntity
  8
P-SANR-FIXT
100
AcDbEllipse
 10
1480.363156828901
 20
1815.650137839456
 30
0.0
 11
121.9519606832533
 21
0.0
 31
0.0
210
0.0
220
0.0
230
1.0
 40
0.2588190451025188
 41
4.712388980384679
 42
6.329136480214561
  0
ELLIPSE
  5
3FC
330
2EF
100
AcDbEntity
  8
P-SANR-FIXT
100
AcDbEllipse
 10
1480.363156828901
 20
1813.488079067754
 30
0.0
 11
-121.9519606832536
 21
0.0000000000013343
 31
0.0
210
0.0
220
0.0
230
1.0
 40
0.2588190451025205
 41
0.0
 42
1.570796326794886
  0
ELLIPSE
  5
3FD
330
2EF
100
AcDbEntity
  8
P-SANR-FIXT
100
AcDbEllipse
 10
1480.363156828901
 20
1813.488079067754
 30
0.0
 11
-121.9519606832534
 21
0.0000000000016322
 31
0.0
210
0.0
220
0.0
230
1.0
 40
0.258819045102521
 41
1.570796326794892
 42
3.141592653589782
  0
ELLIPSE
  5
3FE
330
2EF
100
AcDbEntity
  8
P-SANR-FIXT
100
AcDbEllipse
 10
1480.363156828899
 20
1636.869230149734
 30
0.0
 11
-45.69266503449807
 21
0.0000000000008449
 31
0.0
210
0.0
220
0.0
230
1.0
 40
0.25881904510251
 41
0.0
 42
1.570796326794893
  0
ELLIPSE
  5
3FF
330
2EF
100
AcDbEntity
  8
P-SANR-FIXT
100
AcDbEllipse
 10
1480.363156828899
 20
1636.869230149734
 30
0.0
 11
-45.69266503449807
 21
0.0000000000004289
 31
0.0
210
0.0
220
0.0
230
1.0
 40
0.25881904510251
 41
1.570796326794895
 42
3.141592653589786
  0
ELLIPSE
  5
400
330
2EF
100
AcDbEntity
  8
P-SANR-FIXT
100
AcDbEllipse
 10
1480.363156828899
 20
1624.573000824291
 30
0.0
 11
-44.80249718490449
 21
0.0000000000003012
 31
0.0
210
0.0
220
0.0
230
1.0
 40
0.2588190451025206
 41
0.0
 42
1.570796326794884
  0
ELLIPSE
  5
401
330
2EF
100
AcDbEntity
  8
P-SANR-FIXT
100
AcDbEllipse
 10
1480.363156828899
 20
1624.573000824291
 30
0.0
 11
-44.80249718490472
 21
0.0000000000006693
 31
0.0
210
0.0
220
0.0
230
0.9999999999999998
 40
0.2588190451025192
 41
1.570796326794897
 42
3.141592653589787
  0
ELLIPSE
  5
402
330
2EF
100
AcDbEntity
  8
P-SANR-FIXT
100
AcDbEllipse
 10
1480.363156828899
 20
1613.947816735112
 30
0.0
 11
-43.50000000000091
 21
0.0000000000007271
 31
0.0
210
0.0
220
0.0
230
1.0
 40
0.2588190451025161
 41
0.0
 42
1.570796326794881
  0
ELLIPSE
  5
403
330
2EF
100
AcDbEntity
  8
P-SANR-FIXT
100
AcDbEllipse
 10
1480.363156828899
 20
1613.947816735112
 30
0.0
 11
-43.50000000000068
 21
0.00000000000036
 31
0.0
210
0.0
220
0.0
230
1.0
 40
0.2588190451025175
 41
1.57079632679489
 42
3.14159265358978
  0
SPLINE
  5
404
330
2EF
100
AcDbEntity
  8
P-SANR-FIXT
100
AcDbSpline
210
0.0
220
0.0
230
1.0
 70
     8
 71
     3
 72
    19
 73
    15
 74
     0
 42
0.000000001
 43
0.0000000001
 40
0.0
 40
0.0
 40
0.0
 40
0.0
 40
0.125
 40
0.25
 40
0.3125
 40
0.375
 40
0.4375
 40
0.5
 40
0.5625
 40
0.625
 40
0.6875
 40
0.75
 40
0.875
 40
1.0
 40
1.0
 40
1.0
 40
1.0
 10
1480.3631568289
 20
1737.369673412152
 30
0.0
 10
1479.898115191841
 20
1737.362226084149
 30
0.0
 10
1478.972476155142
 20
1737.331393467227
 30
0.0
 10
1477.8372686246
 20
1737.25747323136
 30
0.0
 10
1476.949353467921
 20
1737.166550560849
 30
0.0
 10
1476.295044109442
 20
1737.08143990602
 30
0.0
 10
1475.652967332892
 20
1736.989148898943
 30
0.0
 10
1475.023285866222
 20
1736.901083449536
 30
0.0
 10
1474.40873389673
 20
1736.811340913744
 30
0.0
 10
1473.810811694285
 20
1736.713920260465
 30
0.0
 10
1473.228629258984
 20
1736.620213183039
 30
0.0
 10
1472.472475330906
 20
1736.513347019615
 30
0.0
 10
1471.568928051401
 20
1736.411283182487
 30
0.0
 10
1470.899734413042
 20
1736.348845797664
 30
0.0
 10
1470.579910922142
 20
1736.323189303898
 30
0.0
  0
SPLINE
  5
405
330
2EF
100
AcDbEntity
  8
P-SANR-FIXT
100
AcDbSpline
210
0.0
220
0.0
230
1.0
 70
     8
 71
     3
 72
    19
 73
    15
 74
     0
 42
0.000000001
 43
0.0000000001
 40
0.0
 40
0.0
 40
0.0
 40
0.0
 40
0.125
 40
0.25
 40
0.3125
 40
0.375
 40
0.4375
 40
0.5
 40
0.5625
 40
0.625
 40
0.6875
 40
0.75
 40
0.875
 40
1.0
 40
1.0
 40
1.0
 40
1.0
 10
1490.146402735643
 20
1736.323189303896
 30
0.0
 10
1489.826579244744
 20
1736.348845797663
 30
0.0
 10
1489.157385606386
 20
1736.411283182486
 30
0.0
 10
1488.253838326882
 20
1736.513347019614
 30
0.0
 10
1487.497684398806
 20
1736.620213183039
 30
0.0
 10
1486.915501963505
 20
1736.713920260464
 30
0.0
 10
1486.317579761061
 20
1736.811340913743
 30
0.0
 10
1485.70302779157
 20
1736.901083449535
 30
0.0
 10
1485.073346324901
 20
1736.989148898941
 30
0.0
 10
1484.431269548352
 20
1737.081439906019
 30
0.0
 10
1483.776960189875
 20
1737.166550560848
 30
0.0
 10
1482.889045033197
 20
1737.257473231359
 30
0.0
 10
1481.753837502655
 20
1737.331393467227
 30
0.0
 10
1480.828198465958
 20
1737.362226084148
 30
0.0
 10
1480.3631568289
 20
1737.369673412152
 30
0.0
  0
SPLINE
  5
406
330
2EF
100
AcDbEntity
  8
P-SANR-FIXT
100
AcDbSpline
210
0.0
220
0.0
230
1.0
 70
     8
 71
     3
 72
    10
 73
     6
 74
     0
 42
0.000000001
 43
0.0000000001
 40
0.0
 40
0.0
 40
0.0
 40
0.0
 40
0.1111111111111111
 40
0.2222222222222222
 40
0.3111215721456774
 40
0.3111215721456774
 40
0.3111215721456774
 40
0.3111215721456774
 10
1470.579910922142
 20
1736.323189303898
 30
0.0
 10
1469.554184516051
 20
1736.279025208219
 30
0.0
 10
1467.866287924879
 20
1736.074718111211
 30
0.0
 10
1466.58443657618
 20
1735.367205079252
 30
0.0
 10
1466.363143330846
 20
1734.610541246377
 30
0.0
 10
1466.363197816986
 20
1734.218710705409
 30
0.0
  0
SPLINE
  5
407
330
2EF
100
AcDbEntity
  8
P-SANR-FIXT
100
AcDbSpline
210
0.0
220
0.0
230
1.0
 70
     8
 71
     3
 72
    10
 73
     6
 74
     0
 42
0.000000001
 43
0.0000000001
 40
0.6888784278542187
 40
0.6888784278542187
 40
0.6888784278542187
 40
0.6888784278542187
 40
0.75
 40
0.8333333333333332
 40
1.0
 40
1.0
 40
1.0
 40
1.0
 10
1494.363044301768
 20
1734.219013046799
 30
0.0
 10
1494.362992807312
 20
1734.488736081257
 30
0.0
 10
1494.25278897861
 20
1735.064218336674
 30
0.0
 10
1493.374995162053
 20
1735.960597266228
 30
0.0
 10
1491.684992344781
 20
1736.25694316038
 30
0.0
 10
1490.146402735643
 20
1736.323189303896
 30
0.0
  0
ELLIPSE
  5
408
330
2EF
100
AcDbEntity
  8
P-SANR-FIXT
100
AcDbEllipse
 10
1480.363156828901
 20
1822.028253096457
 30
0.0
 11
121.9519606832531
 21
0.0
 31
0.0
210
0.0
220
0.0
230
0.9999999999999998
 40
0.2588190451025172
 41
2.451687838264545
 42
4.712388980384666
  0
ELLIPSE
  5
409
330
2EF
100
AcDbEntity
  8
P-SANR-FIXT
100
AcDbEllipse
 10
1480.363156828901
 20
1822.028253096457
 30
0.0
 11
-121.9519606832525
 21
0.0000000000013343
 31
0.0
210
0.0
220
0.0
230
1.0
 40
0.2588190451025191
 41
1.570796326794889
 42
3.831963875203955
  0
ELLIPSE
  5
40A
330
2EF
100
AcDbEntity
  8
P-SANR-FIXT
100
AcDbEllipse
 10
1480.363156828901
 20
1818.547915318323
 30
0.0
 11
-121.9519606832525
 21
0.0000000000013343
 31
0.0
210
0.0
220
0.0
230
1.0
 40
0.258819045102521
 41
0.0
 42
1.570796326794886
  0
ELLIPSE
  5
40B
330
2EF
100
AcDbEntity
  8
P-SANR-FIXT
100
AcDbEllipse
 10
1480.363156828901
 20
1818.547915318323
 30
0.0
 11
-121.9519606832527
 21
0.0000000000016322
 31
0.0
210
0.0
220
0.0
230
1.0
 40
0.2588190451025205
 41
1.570796326794892
 42
3.141592653589782
  0
ELLIPSE
  5
40C
330
2EF
100
AcDbEntity
  8
P-SANR-FIXT
100
AcDbEllipse
 10
1480.363156828901
 20
1815.650137839456
 30
0.0
 11
118.9519606832526
 21
0.0
 31
0.0
210
0.0
220
0.0
230
1.0
 40
0.2588190451025203
 41
3.369435072483281
 42
4.712388980384668
  0
ELLIPSE
  5
40D
330
2EF
100
AcDbEntity
  8
P-SANR-FIXT
100
AcDbEllipse
 10
1480.363156828901
 20
1815.650137839456
 30
0.0
 11
-118.9519606832527
 21
0.0000000000016977
 31
0.0
210
0.0
220
0.0
230
1.0
 40
0.258819045102519
 41
1.570796326794894
 42
2.91375023469622
  0
ENDBLK
  5
40F
330
2EF
100
AcDbEntity
  8
0
100
AcDbBlockEnd
  0
ENDSEC
  0
SECTION
  2
ENTITIES
  0
INSERT
  5
1F7
330
71
100
AcDbEntity
  8
P-SANR-FIXT
100
AcDbBlockReference
  2
Automatic flow rate regulator valve_Caleffi_121 DN15 - 1_2__-859151-Est - Idraulica
 10
0.0
 20
0.0
 30
0.0
1001
REVIT
1002
{
1070
     1
1000
863131
1002
}
1002
{
1070
     5
1000
859151
1002
}
1002
{
1070
     2
1000
-2001160
1002
}
  0
INSERT
  5
2EE
330
71
100
AcDbEntity
  8
P-SANR-FIXT
100
AcDbBlockReference
  2
Automatic flow rate regulator valve_Caleffi_121 DN15 - 1_2__-V1-Est - Idraulica
 10
0.0
 20
0.0
 30
0.0
1001
REVIT
1002
{
1070
     1
1000
863152
1002
}
1002
{
1070
     5
1000
859151
1002
}
1002
{
1070
     2
1000
-2001160
1002
}
  0
INSERT
  5
410
330
71
100
AcDbEntity
  8
P-SANR-FIXT
100
AcDbBlockReference
  2
Automatic flow rate regulator valve_Caleffi_121 DN15 - 1_2__-V2-Est - Idraulica
 10
0.0
 20
0.0
 30
0.0
1001
REVIT
1002
{
1070
     1
1000
863172
1002
}
1002
{
1070
     5
1000
859151
1002
}
1002
{
1070
     2
1000
-2001160
1002
}
  0
ENDSEC
  0
SECTION
  2
OBJECTS
  0
DICTIONARY
  5
C
330
0
100
AcDbDictionary
281
     1
  3
ACAD_CIP_PREVIOUS_PRODUCT_INFO
350
7A
  3
ACAD_COLOR
350
63
  3
ACAD_DETAILVIEWSTYLE
350
6B
  3
ACAD_GROUP
350
D
  3
ACAD_IMAGE_VARS
350
7B
  3
ACAD_LAYOUT
350
62
  3
ACAD_MATERIAL
350
10
  3
ACAD_MLEADERSTYLE
350
66
  3
ACAD_MLINESTYLE
350
5F
  3
ACAD_PLOTSETTINGS
350
61
  3
ACAD_PLOTSTYLENAME
350
E
  3
ACAD_SCALELIST
350
42
  3
ACAD_SECTIONVIEWSTYLE
350
68
  3
ACAD_TABLESTYLE
350
64
  3
ACAD_VISUALSTYLE
350
29
  3
ACDB_RECOMPOSE_DATA
350
41A
  3
AcDbVariableDictionary
350
7C
  3
REVIT_DICTIONARY
350
412
  0
DICTIONARY
  5
416
330
71
100
AcDbDictionary
280
     1
281
     1
  3
ACAD_SORTENTS
360
417
  0
XRECORD
  5
7A
102
{ACAD_REACTORS
330
C
102
}
330
C
100
AcDbXrecord
280
     1
300
RVT
300
2013
300
RVT2013
  0
DICTIONARY
  5
63
102
{ACAD_REACTORS
330
C
102
}
330
C
100
AcDbDictionary
281
     1
  0
DICTIONARY
  5
6B
102
{ACAD_REACTORS
330
C
102
}
330
C
100
AcDbDictionary
281
     1
  3
Imperial24
350
6C
  0
DICTIONARY
  5
D
102
{ACAD_REACTORS
330
C
102
}
330
C
100
AcDbDictionary
281
     1
  0
RASTERVARIABLES
  5
7B
102
{ACAD_REACTORS
330
C
102
}
330
C
100
AcDbRasterVariables
 90
        0
 70
     0
 71
     1
 72
     1
  0
DICTIONARY
  5
62
102
{ACAD_REACTORS
330
C
102
}
330
C
100
AcDbDictionary
281
     1
  3
Layout1
350
70
  3
Layout2
350
78
  3
Model
350
74
  0
DICTIONARY
  5
10
102
{ACAD_REACTORS
330
C
102
}
330
C
100
AcDbDictionary
281
     1
  3
ByBlock
350
19
  3
ByLayer
350
11
  3
Global
350
21
  0
DICTIONARY
  5
66
102
{ACAD_REACTORS
330
C
102
}
330
C
100
AcDbDictionary
281
     1
  3
Standard
350
67
  0
DICTIONARY
  5
5F
102
{ACAD_REACTORS
330
C
102
}
330
C
100
AcDbDictionary
281
     1
  3
Standard
350
60
  0
DICTIONARY
  5
61
102
{ACAD_REACTORS
330
C
102
}
330
C
100
AcDbDictionary
281
     1
  0
ACDBDICTIONARYWDFLT
  5
E
102
{ACAD_REACTORS
330
C
102
}
330
C
100
AcDbDictionary
281
     1
  3
Normal
350
F
100
AcDbDictionaryWithDefault
340
F
  0
DICTIONARY
  5
42
102
{ACAD_REACTORS
330
C
102
}
330
C
100
AcDbDictionary
281
     1
  3
A0
350
43
  3
A1
350
44
  3
A2
350
45
  3
A3
350
46
  3
A4
350
47
  3
A5
350
48
  3
A6
350
49
  3
A7
350
4A
  3
A8
350
4B
  3
A9
350
4C
  3
B0
350
4D
  3
B1
350
4E
  3
B2
350
4F
  3
B3
350
50
  3
B4
350
51
  3
B5
350
52
  3
B6
350
53
  0
DICTIONARY
  5
68
102
{ACAD_REACTORS
330
C
102
}
330
C
100
AcDbDictionary
281
     1
  3
Imperial24
350
6A
  0
DICTIONARY
  5
64
102
{ACAD_REACTORS
330
C
102
}
330
C
100
AcDbDictionary
281
     1
  3
Standard
350
65
  0
DICTIONARY
  5
29
102
{ACAD_REACTORS
330
C
102
}
330
C
100
AcDbDictionary
281
     1
  3
2dWireframe
350
2F
  3
Basic
350
2E
  3
Brighten
350
35
  3
ColorChange
350
39
  3
Conceptual
350
32
  3
Dim
350
34
  3
EdgeColorOff
350
41
  3
Facepattern
350
38
  3
Flat
350
2A
  3
FlatWithEdges
350
2B
  3
Gouraud
350
2C
  3
GouraudWithEdges
350
2D
  3
Hidden
350
31
  3
JitterOff
350
3F
  3
Linepattern
350
37
  3
OverhangOff
350
40
  3
Realistic
350
33
  3
Shaded
350
3E
  3
Shaded with edges
350
3D
  3
Shades of Gray
350
3A
  3
Sketchy
350
3B
  3
Thicken
350
36
  3
Wireframe
350
30
  3
X-Ray
350
3C
  0
XRECORD
  5
41A
102
{ACAD_REACTORS
330
C
102
}
330
C
100
AcDbXrecord
280
     1
 90
        1
330
65
  0
DICTIONARY
  5
7C
102
{ACAD_REACTORS
330
C
102
}
330
C
100
AcDbDictionary
281
     1
  3
CANNOSCALE
350
81
  3
CMLEADERSTYLE
350
7E
  3
CTABLESTYLE
350
7D
  3
CVIEWDETAILSTYLE
350
7F
  3
CVIEWSECTIONSTYLE
350
80
  0
DICTIONARY
  5
412
102
{ACAD_REACTORS
330
C
102
}
330
C
100
AcDbDictionary
281
     1
  3
DRAWING_TOOL
350
415
  3
REVIT_CATEGORY_MAPPING
350
414
  3
REVIT_TYPE_MAPPING
350
413
  0
SORTENTSTABLE
  5
417
102
{ACAD_REACTORS
330
416
102
}
330
416
100
AcDbSortentsTable
330
71
  0
ACDBDETAILVIEWSTYLE
  5
6C
102
{ACAD_REACTORS
330
6B
102
}
330
6B
100
AcDbModelDocViewStyle
 70
     0
  3
Imperial24
290
     1
100
AcDbDetailViewStyle
 70
     0
 71
     0
 90
        3
 71
     1
340
55
 62
   256
 40
0.24
340
0
 62
   256
 40
0.24
300

 40
0.36
280
     3
 71
     2
340
5D
 90
       25
 62
   256
 71
     3
340
55
 62
   256
 40
0.24
 90
        1
 40
0.75
 90
        1
300
%<\AcVar ViewType \f "%tc1">% %<\AcVar ViewDetailId>%\PSCALA %<\AcVar ViewScale \f "%sn">%
 71
     4
340
5D
 90
       25
 62
   256
340
5D
 90
       25
 62
   256
280
     0
  0
LAYOUT
  5
70
102
{ACAD_REACTORS
330
62
102
}
330
62
100
AcDbPlotSettings
  1

  2

  4

  6

 40
0.0
 41
0.0
 42
0.0
 43
0.0
 44
0.0
 45
0.0
 46
0.0
 47
0.0
 48
0.0
 49
0.0
140
0.0
141
0.0
142
1.0
143
1.0
 70
   688
 72
     0
 73
     0
 74
     5
  7

 75
    16
147
1.0
 76
     0
 77
     2
 78
   300
148
0.0
149
0.0
100
AcDbLayout
  1
Layout1
 70
     1
 71
     1
 10
0.0
 20
0.0
 11
12.0
 21
9.0
 12
0.0
 22
0.0
 32
0.0
 14
0.0
 24
0.0
 34
0.0
 15
0.0
 25
0.0
 35
0.0
146
0.0
 13
0.0
 23
0.0
 33
0.0
 16
1.0
 26
0.0
 36
0.0
 17
0.0
 27
1.0
 37
0.0
 76
     0
330
6D
  0
LAYOUT
  5
78
102
{ACAD_REACTORS
330
62
102
}
330
62
100
AcDbPlotSettings
  1

  2

  4

  6

 40
0.0
 41
0.0
 42
0.0
 43
0.0
 44
0.0
 45
0.0
 46
0.0
 47
0.0
 48
0.0
 49
0.0
140
0.0
141
0.0
142
1.0
143
1.0
 70
   688
 72
     0
 73
     0
 74
     5
  7

 75
    16
147
1.0
 76
     0
 77
     2
 78
   300
148
0.0
149
0.0
100
AcDbLayout
  1
Layout2
 70
     1
 71
     2
 10
0.0
 20
0.0
 11
12.0
 21
9.0
 12
0.0
 22
0.0
 32
0.0
 14
0.0
 24
0.0
 34
0.0
 15
0.0
 25
0.0
 35
0.0
146
0.0
 13
0.0
 23
0.0
 33
0.0
 16
1.0
 26
0.0
 36
0.0
 17
0.0
 27
1.0
 37
0.0
 76
     0
330
75
  0
LAYOUT
  5
74
102
{ACAD_REACTORS
330
62
102
}
330
62
100
AcDbPlotSettings
  1

  2

  4

  6

 40
0.0
 41
0.0
 42
0.0
 43
0.0
 44
0.0
 45
0.0
 46
0.0
 47
0.0
 48
0.0
 49
0.0
140
0.0
141
0.0
142
1.0
143
1.0
 70
  1712
 72
     0
 73
     0
 74
     0
  7

 75
     0
147
1.0
 76
     0
 77
     2
 78
   300
148
0.0
149
0.0
100
AcDbLayout
  1
Model
 70
     1
 71
     0
 10
0.0
 20
0.0
 11
12.0
 21
9.0
 12
0.0
 22
0.0
 32
0.0
 14
0.0
 24
0.0
 34
0.0
 15
0.0
 25
0.0
 35
0.0
146
0.0
 13
0.0
 23
0.0
 33
0.0
 16
1.0
 26
0.0
 36
0.0
 17
0.0
 27
1.0
 37
0.0
 76
     0
330
71
  0
MATERIAL
  5
19
102
{ACAD_XDICTIONARY
360
1A
102
}
102
{ACAD_REACTORS
330
10
102
}
330
10
100
AcDbMaterial
  1
ByBlock
 72
     0
 43
0.0208333333333333
 43
0.0
 43
0.0
 43
0.0
 43
0.0
 43
0.0208333333333333
 43
0.0
 43
0.0
 43
0.0
 43
0.0
 43
1.0
 43
0.0
 43
0.0
 43
0.0
 43
0.0
 43
1.0
 77
     0
 47
0.0208333333333333
 47
0.0
 47
0.0
 47
0.0
 47
0.0
 47
0.0208333333333333
 47
0.0
 47
0.0
 47
0.0
 47
0.0
 47
1.0
 47
0.0
 47
0.0
 47
0.0
 47
0.0
 47
1.0
171
     0
 49
0.0208333333333333
 49
0.0
 49
0.0
 49
0.0
 49
0.0
 49
0.0208333333333333
 49
0.0
 49
0.0
 49
0.0
 49
0.0
 49
1.0
 49
0.0
 49
0.0
 49
0.0
 49
0.0
 49
1.0
175
     0
142
0.0208333333333333
142
0.0
142
0.0
142
0.0
142
0.0
142
0.0208333333333333
142
0.0
142
0.0
142
0.0
142
0.0
142
1.0
142
0.0
142
0.0
142
0.0
142
0.0
142
1.0
179
     0
144
0.0208333333333333
144
0.0
144
0.0
144
0.0
144
0.0
144
0.0208333333333333
144
0.0
144
0.0
144
0.0
144
0.0
144
1.0
144
0.0
144
0.0
144
0.0
144
0.0
144
1.0
147
0.0208333333333333
147
0.0
147
0.0
147
0.0
147
0.0
147
0.0208333333333333
147
0.0
147
0.0
147
0.0
147
0.0
147
1.0
147
0.0
147
0.0
147
0.0
147
0.0
147
1.0
  0
MATERIAL
  5
11
102
{ACAD_XDICTIONARY
360
12
102
}
102
{ACAD_REACTORS
330
10
102
}
330
10
100
AcDbMaterial
  1
ByLayer
 72
     0
 43
0.0208333333333333
 43
0.0
 43
0.0
 43
0.0
 43
0.0
 43
0.0208333333333333
 43
0.0
 43
0.0
 43
0.0
 43
0.0
 43
1.0
 43
0.0
 43
0.0
 43
0.0
 43
0.0
 43
1.0
 77
     0
 47
0.0208333333333333
 47
0.0
 47
0.0
 47
0.0
 47
0.0
 47
0.0208333333333333
 47
0.0
 47
0.0
 47
0.0
 47
0.0
 47
1.0
 47
0.0
 47
0.0
 47
0.0
 47
0.0
 47
1.0
171
     0
 49
0.0208333333333333
 49
0.0
 49
0.0
 49
0.0
 49
0.0
 49
0.0208333333333333
 49
0.0
 49
0.0
 49
0.0
 49
0.0
 49
1.0
 49
0.0
 49
0.0
 49
0.0
 49
0.0
 49
1.0
175
     0
142
0.0208333333333333
142
0.0
142
0.0
142
0.0
142
0.0
142
0.0208333333333333
142
0.0
142
0.0
142
0.0
142
0.0
142
1.0
142
0.0
142
0.0
142
0.0
142
0.0
142
1.0
179
     0
144
0.0208333333333333
144
0.0
144
0.0
144
0.0
144
0.0
144
0.0208333333333333
144
0.0
144
0.0
144
0.0
144
0.0
144
1.0
144
0.0
144
0.0
144
0.0
144
0.0
144
1.0
147
0.0208333333333333
147
0.0
147
0.0
147
0.0
147
0.0
147
0.0208333333333333
147
0.0
147
0.0
147
0.0
147
0.0
147
1.0
147
0.0
147
0.0
147
0.0
147
0.0
147
1.0
  0
MATERIAL
  5
21
102
{ACAD_XDICTIONARY
360
22
102
}
102
{ACAD_REACTORS
330
10
102
}
330
10
100
AcDbMaterial
  1
Global
 72
     0
 43
0.0208333333333333
 43
0.0
 43
0.0
 43
0.0
 43
0.0
 43
0.0208333333333333
 43
0.0
 43
0.0
 43
0.0
 43
0.0
 43
1.0
 43
0.0
 43
0.0
 43
0.0
 43
0.0
 43
1.0
 77
     0
 47
0.0208333333333333
 47
0.0
 47
0.0
 47
0.0
 47
0.0
 47
0.0208333333333333
 47
0.0
 47
0.0
 47
0.0
 47
0.0
 47
1.0
 47
0.0
 47
0.0
 47
0.0
 47
0.0
 47
1.0
171
     0
 49
0.0208333333333333
 49
0.0
 49
0.0
 49
0.0
 49
0.0
 49
0.0208333333333333
 49
0.0
 49
0.0
 49
0.0
 49
0.0
 49
1.0
 49
0.0
 49
0.0
 49
0.0
 49
0.0
 49
1.0
175
     0
142
0.0208333333333333
142
0.0
142
0.0
142
0.0
142
0.0
142
0.0208333333333333
142
0.0
142
0.0
142
0.0
142
0.0
142
1.0
142
0.0
142
0.0
142
0.0
142
0.0
142
1.0
179
     0
144
0.0208333333333333
144
0.0
144
0.0
144
0.0
144
0.0
144
0.0208333333333333
144
0.0
144
0.0
144
0.0
144
0.0
144
1.0
144
0.0
144
0.0
144
0.0
144
0.0
144
1.0
147
0.0208333333333333
147
0.0
147
0.0
147
0.0
147
0.0
147
0.0208333333333333
147
0.0
147
0.0
147
0.0
147
0.0
147
1.0
147
0.0
147
0.0
147
0.0
147
0.0
147
1.0
  0
MLEADERSTYLE
  5
67
102
{ACAD_REACTORS
330
66
102
}
330
66
100
AcDbMLeaderStyle
179
     2
170
     2
171
     1
172
     0
 90
        2
 40
0.0
 41
0.0
173
     1
 91
-1056964608
340
5B
 92
       -2
290
     1
 42
0.09
291
     1
 43
0.36
  3
Standard
 44
0.18
300

342
55
174
     1
178
     6
175
     1
176
     0
 93
-1056964608
 45
0.18
292
     0
297
     0
 46
0.18
 94
-1056964608
 47
1.0
 49
1.0
140
1.0
293
     1
141
0.0
294
     1
177
     0
142
1.0
295
     1
296
     0
143
0.125
271
     0
272
     9
273
     9
298
     1
  0
MLINESTYLE
  5
60
102
{ACAD_REACTORS
330
5F
102
}
330
5F
100
AcDbMlineStyle
  2
STANDARD
 70
     0
  3

 62
   256
 51
90.0
 52
90.0
 71
     2
 49
0.5
 62
   256
  6
BYLAYER
 49
-0.5
 62
   256
  6
BYLAYER
  0
ACDBPLACEHOLDER
  5
F
102
{ACAD_REACTORS
330
E
102
}
330
E
  0
SCALE
  5
43
102
{ACAD_REACTORS
330
42
102
}
330
42
100
AcDbScale
 70
     0
300
1:1
140
1.0
141
1.0
290
     1
  0
SCALE
  5
44
102
{ACAD_REACTORS
330
42
102
}
330
42
100
AcDbScale
 70
     0
300
1/128" = 1'-0"
140
0.0078125
141
12.0
290
     0
  0
SCALE
  5
45
102
{ACAD_REACTORS
330
42
102
}
330
42
100
AcDbScale
 70
     0
300
1/64" = 1'-0"
140
0.015625
141
12.0
290
     0
  0
SCALE
  5
46
102
{ACAD_REACTORS
330
42
102
}
330
42
100
AcDbScale
 70
     0
300
1/32" = 1'-0"
140
0.03125
141
12.0
290
     0
  0
SCALE
  5
47
102
{ACAD_REACTORS
330
42
102
}
330
42
100
AcDbScale
 70
     0
300
1/16" = 1'-0"
140
0.0625
141
12.0
290
     0
  0
SCALE
  5
48
102
{ACAD_REACTORS
330
42
102
}
330
42
100
AcDbScale
 70
     0
300
3/32" = 1'-0"
140
0.09375
141
12.0
290
     0
  0
SCALE
  5
49
102
{ACAD_REACTORS
330
42
102
}
330
42
100
AcDbScale
 70
     0
300
1/8" = 1'-0"
140
0.125
141
12.0
290
     0
  0
SCALE
  5
4A
102
{ACAD_REACTORS
330
42
102
}
330
42
100
AcDbScale
 70
     0
300
3/16" = 1'-0"
140
0.1875
141
12.0
290
     0
  0
SCALE
  5
4B
102
{ACAD_REACTORS
330
42
102
}
330
42
100
AcDbScale
 70
     0
300
1/4" = 1'-0"
140
0.25
141
12.0
290
     0
  0
SCALE
  5
4C
102
{ACAD_REACTORS
330
42
102
}
330
42
100
AcDbScale
 70
     0
300
3/8" = 1'-0"
140
0.375
141
12.0
290
     0
  0
SCALE
  5
4D
102
{ACAD_REACTORS
330
42
102
}
330
42
100
AcDbScale
 70
     0
300
1/2" = 1'-0"
140
0.5
141
12.0
290
     0
  0
SCALE
  5
4E
102
{ACAD_REACTORS
330
42
102
}
330
42
100
AcDbScale
 70
     0
300
3/4" = 1'-0"
140
0.75
141
12.0
290
     0
  0
SCALE
  5
4F
102
{ACAD_REACTORS
330
42
102
}
330
42
100
AcDbScale
 70
     0
300
1" = 1'-0"
140
1.0
141
12.0
290
     0
  0
SCALE
  5
50
102
{ACAD_REACTORS
330
42
102
}
330
42
100
AcDbScale
 70
     0
300
1-1/2" = 1'-0"
140
1.5
141
12.0
290
     0
  0
SCALE
  5
51
102
{ACAD_REACTORS
330
42
102
}
330
42
100
AcDbScale
 70
     0
300
3" = 1'-0"
140
3.0
141
12.0
290
     0
  0
SCALE
  5
52
102
{ACAD_REACTORS
330
42
102
}
330
42
100
AcDbScale
 70
     0
300
6" = 1'-0"
140
6.0
141
12.0
290
     0
  0
SCALE
  5
53
102
{ACAD_REACTORS
330
42
102
}
330
42
100
AcDbScale
 70
     0
300
1'-0" = 1'-0"
140
12.0
141
12.0
290
     0
  0
ACDBSECTIONVIEWSTYLE
  5
6A
102
{ACAD_REACTORS
330
68
102
}
330
68
100
AcDbModelDocViewStyle
 70
     0
  3
Imperial24
290
     1
100
AcDbSectionViewStyle
 70
     0
 71
     0
 90
       78
 71
     1
340
55
 62
   256
 40
0.24
340
0
340
0
 62
   256
 40
0.24
300
I, O, Q, S, X, Z
 40
0.48
 90
        3
 40
0.18
 90
        1
 71
     2
340
69
 90
       25
 62
   256
340
5D
 90
       50
 62
   256
 40
0.24
 40
0.0
 40
0.24
 71
     3
340
55
 62
   256
 40
0.24
 90
        1
 40
0.75
 90
        1
300
%<\AcVar ViewType \f "%tc1">% %<\AcVar ViewSectionStartId>%-%<\AcVar ViewSectionEndId>%\PSCALA %<\AcVar ViewScale \f "%sn">%
 71
     4
 62
   256
 62
   257
300
ANSI31
 40
1.0
 90
        0
290
     0
290
     0
 90
        6
 40
0.0
 40
1.570796326794896
 40
0.2617993877991494
 40
1.308996938995747
 40
-0.2617993877991494
 40
1.832595714594046
  0
TABLESTYLE
  5
65
102
{ACAD_XDICTIONARY
360
418
102
}
102
{ACAD_REACTORS
330
64
102
}
330
64
100
AcDbTableStyle
280
     0
  3
Standard
 70
     0
 71
     0
 40
0.06
 41
0.06
280
     0
281
     0
  7
Standard
140
0.18
170
     2
 62
     0
 63
     7
283
     0
 90
      512
 91
        0
  1

274
    -2
284
     1
 64
     0
275
    -2
285
     1
 65
     0
276
    -2
286
     1
 66
     0
277
    -2
287
     1
 67
     0
278
    -2
288
     1
 68
     0
279
    -2
289
     1
 69
     0
  7
Standard
140
0.25
170
     5
 62
     0
 63
     7
283
     0
 90
      512
 91
        0
  1

274
    -2
284
     1
 64
     0
275
    -2
285
     1
 65
     0
276
    -2
286
     1
 66
     0
277
    -2
287
     1
 67
     0
278
    -2
288
     1
 68
     0
279
    -2
289
     1
 69
     0
  7
Standard
140
0.18
170
     5
 62
     0
 63
     7
283
     0
 90
      512
 91
        0
  1

274
    -2
284
     1
 64
     0
275
    -2
285
     1
 65
     0
276
    -2
286
     1
 66
     0
277
    -2
287
     1
 67
     0
278
    -2
288
     1
 68
     0
279
    -2
289
     1
 69
     0
  0
VISUALSTYLE
  5
2F
102
{ACAD_REACTORS
330
29
102
}
330
29
100
AcDbVisualStyle
  2
2dWireframe
 70
     4
177
     3
291
     0
 70
    58
 90
        0
176
     1
 90
        2
176
     1
 90
        0
176
     1
 90
        0
176
     1
 40
0.6
176
     1
 40
30.0
176
     1
 62
     7
420
 16777215
176
     1
 90
        1
176
     1
 90
        4
176
     1
 62
     7
176
     1
 62
   257
176
     1
 90
        1
176
     1
 90
        1
176
     1
 40
1.0
176
     1
 90
        0
176
     1
 62
   257
176
     1
 40
1.0
176
     1
 90
        1
176
     1
 90
        6
176
     1
 90
        2
176
     1
 62
     7
176
     1
 90
        5
176
     1
 90
        0
176
     1
 90
        0
176
     1
290
     0
176
     1
 90
        1
176
     1
 40
0.0
176
     1
 90
        0
176
     1
290
     1
176
     1
290
     1
176
     1
290
     0
176
     1
290
     0
176
     1
290
     0
176
     1
290
     0
176
     1
290
     0
176
     1
290
     0
176
     1
290
     0
176
     1
 90
       50
176
     1
 40
0.0
176
     1
 40
1.0
176
     1
 90
        0
176
     1
 62
    18
420
        0
176
     1
 90
       50
176
     1
 90
        3
176
     1
 62
     5
420
      255
176
     1
290
     0
176
     1
 90
       50
176
     1
 90
       50
176
     1
 90
       50
176
     1
290
     0
176
     1
 90
       50
176
     1
 62
   256
176
     0
 40
1.0
176
     0
 90
        2
176
     1
  1
strokes_ogs.tif
176
     1
290
     0
176
     1
 40
1.0
176
     1
 40
1.0
176
     1
  0
VISUALSTYLE
  5
2E
102
{ACAD_REACTORS
330
29
102
}
330
29
100
AcDbVisualStyle
  2
Basic
 70
     7
177
     3
291
     1
 70
    58
 90
        1
176
     1
 90
        0
176
     1
 90
        1
176
     1
 90
        0
176
     1
 40
0.6
176
     1
 40
30.0
176
     1
 62
     7
420
 16777215
176
     1
 90
        0
176
     1
 90
        4
176
     1
 62
     7
176
     1
 62
   257
176
     1
 90
        1
176
     1
 90
        1
176
     1
 40
1.0
176
     1
 90
        8
176
     1
 62
     7
176
     1
 40
1.0
176
     1
 90
        1
176
     1
 90
        6
176
     1
 90
        2
176
     1
 62
     7
176
     1
 90
        5
176
     1
 90
        0
176
     1
 90
        0
176
     1
290
     0
176
     1
 90
        1
176
     1
 40
0.0
176
     1
 90
        0
176
     1
290
     0
176
     1
290
     1
176
     1
290
     1
176
     1
290
     0
176
     1
290
     0
176
     1
290
     0
176
     1
290
     0
176
     1
290
     0
176
     1
290
     0
176
     1
 90
       50
176
     1
 40
0.0
176
     1
 40
1.0
176
     1
 90
        0
176
     1
 62
    18
420
        0
176
     1
 90
       50
176
     1
 90
        3
176
     1
 62
     5
420
      255
176
     1
290
     0
176
     1
 90
       50
176
     1
 90
       50
176
     1
 90
       50
176
     1
290
     0
176
     1
 90
       50
176
     1
 62
   256
176
     0
 40
1.0
176
     0
 90
        2
176
     1
  1
strokes_ogs.tif
176
     1
290
     0
176
     1
 40
1.0
176
     1
 40
1.0
176
     1
  0
VISUALSTYLE
  5
35
102
{ACAD_REACTORS
330
29
102
}
330
29
100
AcDbVisualStyle
  2
Brighten
 70
    12
177
     3
291
     1
 70
    58
 90
        2
176
     1
 90
        2
176
     1
 90
        0
176
     1
 90
        0
176
     1
 40
0.6
176
     1
 40
30.0
176
     1
 62
     7
420
 16777215
176
     1
 90
        1
176
     1
 90
        4
176
     1
 62
     7
176
     1
 62
   257
176
     1
 90
        1
176
     1
 90
        1
176
     1
 40
1.0
176
     1
 90
        8
176
     1
 62
     7
176
     1
 40
1.0
176
     1
 90
        1
176
     1
 90
        6
176
     1
 90
        2
176
     1
 62
     7
176
     1
 90
        5
176
     1
 90
        0
176
     1
 90
        0
176
     1
290
     0
176
     1
 90
        1
176
     1
 40
50.0
176
     1
 90
        0
176
     1
290
     0
176
     1
290
     1
176
     1
290
     1
176
     1
290
     0
176
     1
290
     0
176
     1
290
     0
176
     1
290
     0
176
     1
290
     0
176
     1
290
     0
176
     1
 90
       50
176
     1
 40
0.0
176
     1
 40
1.0
176
     1
 90
        0
176
     1
 62
    18
420
        0
176
     1
 90
       50
176
     1
 90
        3
176
     1
 62
     5
420
      255
176
     1
290
     0
176
     1
 90
       50
176
     1
 90
       50
176
     1
 90
       50
176
     1
290
     0
176
     1
 90
       50
176
     1
 62
   256
176
     0
 40
1.0
176
     0
 90
        2
176
     1
  1
strokes_ogs.tif
176
     1
290
     0
176
     1
 40
1.0
176
     1
 40
1.0
176
     1
  0
VISUALSTYLE
  5
39
102
{ACAD_REACTORS
330
29
102
}
330
29
100
AcDbVisualStyle
  2
ColorChange
 70
    16
177
     3
291
     1
 70
    58
 90
        2
176
     1
 90
        2
176
     1
 90
        3
176
     1
 90
        0
176
     1
 40
0.6
176
     1
 40
30.0
176
     1
 62
     8
420
  8421504
176
     1
 90
        1
176
     1
 90
        4
176
     1
 62
     7
176
     1
 62
   257
176
     1
 90
        1
176
     1
 90
        1
176
     1
 40
1.0
176
     1
 90
        8
176
     1
 62
     8
420
  8421504
176
     1
 40
1.0
176
     1
 90
        1
176
     1
 90
        6
176
     1
 90
        2
176
     1
 62
     7
176
     1
 90
        5
176
     1
 90
        0
176
     1
 90
        0
176
     1
290
     0
176
     1
 90
        1
176
     1
 40
0.0
176
     1
 90
        0
176
     1
290
     0
176
     1
290
     1
176
     1
290
     1
176
     1
290
     0
176
     1
290
     0
176
     1
290
     0
176
     1
290
     0
176
     1
290
     0
176
     1
290
     0
176
     1
 90
       50
176
     1
 40
0.0
176
     1
 40
1.0
176
     1
 90
        0
176
     1
 62
    18
420
        0
176
     1
 90
       50
176
     1
 90
        3
176
     1
 62
     5
420
      255
176
     1
290
     0
176
     1
 90
       50
176
     1
 90
       50
176
     1
 90
       50
176
     1
290
     0
176
     1
 90
       50
176
     1
 62
   256
176
     0
 40
1.0
176
     0
 90
        2
176
     1
  1
strokes_ogs.tif
176
     1
290
     0
176
     1
 40
1.0
176
     1
 40
1.0
176
     1
  0
VISUALSTYLE
  5
32
102
{ACAD_REACTORS
330
29
102
}
330
29
100
AcDbVisualStyle
  2
Conceptual
 70
     9
177
     3
291
     0
 70
    58
 90
        3
176
     1
 90
        2
176
     1
 90
        0
176
     1
 90
        0
176
     1
 40
0.6
176
     1
 40
30.0
176
     1
 62
     7
420
 16777215
176
     1
 90
        2
176
     1
 90
        2
176
     1
 62
     7
176
     1
 62
   257
176
     1
 90
        1
176
     1
 90
        1
176
     1
 40
179.0
176
     1
 90
        8
176
     1
 62
     7
176
     1
 40
1.0
176
     1
 90
        1
176
     1
 90
        6
176
     1
 90
        2
176
     1
 62
     7
176
     1
 90
        3
176
     1
 90
        0
176
     1
 90
        0
176
     1
290
     0
176
     1
 90
        1
176
     1
 40
0.0
176
     1
 90
        0
176
     1
290
     0
176
     1
290
     1
176
     1
290
     1
176
     1
290
     0
176
     1
290
     0
176
     1
290
     0
176
     1
290
     0
176
     1
290
     0
176
     1
290
     0
176
     1
 90
       50
176
     1
 40
0.0
176
     1
 40
1.0
176
     1
 90
        0
176
     1
 62
    18
420
        0
176
     1
 90
       50
176
     1
 90
        3
176
     1
 62
     5
420
      255
176
     1
290
     0
176
     1
 90
       50
176
     1
 90
       50
176
     1
 90
       50
176
     1
290
     0
176
     1
 90
       50
176
     1
 62
   256
176
     0
 40
1.0
176
     0
 90
        2
176
     1
  1
strokes_ogs.tif
176
     1
290
     0
176
     1
 40
1.0
176
     1
 40
1.0
176
     1
  0
VISUALSTYLE
  5
34
102
{ACAD_REACTORS
330
29
102
}
330
29
100
AcDbVisualStyle
  2
Dim
 70
    11
177
     3
291
     1
 70
    58
 90
        2
176
     1
 90
        2
176
     1
 90
        0
176
     1
 90
        0
176
     1
 40
0.6
176
     1
 40
30.0
176
     1
 62
     7
420
 16777215
176
     1
 90
        1
176
     1
 90
        4
176
     1
 62
     7
176
     1
 62
   257
176
     1
 90
        1
176
     1
 90
        1
176
     1
 40
1.0
176
     1
 90
        8
176
     1
 62
     7
176
     1
 40
1.0
176
     1
 90
        1
176
     1
 90
        6
176
     1
 90
        2
176
     1
 62
     7
176
     1
 90
        5
176
     1
 90
        0
176
     1
 90
        0
176
     1
290
     0
176
     1
 90
        1
176
     1
 40
-50.0
176
     1
 90
        0
176
     1
290
     0
176
     1
290
     1
176
     1
290
     1
176
     1
290
     0
176
     1
290
     0
176
     1
290
     0
176
     1
290
     0
176
     1
290
     0
176
     1
290
     0
176
     1
 90
       50
176
     1
 40
0.0
176
     1
 40
1.0
176
     1
 90
        0
176
     1
 62
    18
420
        0
176
     1
 90
       50
176
     1
 90
        3
176
     1
 62
     5
420
      255
176
     1
290
     0
176
     1
 90
       50
176
     1
 90
       50
176
     1
 90
       50
176
     1
290
     0
176
     1
 90
       50
176
     1
 62
   256
176
     0
 40
1.0
176
     0
 90
        2
176
     1
  1
strokes_ogs.tif
176
     1
290
     0
176
     1
 40
1.0
176
     1
 40
1.0
176
     1
  0
VISUALSTYLE
  5
41
102
{ACAD_REACTORS
330
29
102
}
330
29
100
AcDbVisualStyle
  2
EdgeColorOff
 70
    22
177
     3
291
     1
 70
    58
 90
        2
176
     0
 90
        2
176
     0
 90
        0
176
     0
 90
        0
176
     0
 40
0.6
176
     0
 40
30.0
176
     0
 62
     7
420
 16777215
176
     0
 90
        1
176
     0
 90
        4
176
     0
 62
     7
176
     0
 62
   257
176
     0
 90
        1
176
     0
 90
        1
176
     0
 40
1.0
176
     0
 90
        8
176
     2
 62
     7
176
     0
 40
1.0
176
     0
 90
        1
176
     0
 90
        6
176
     0
 90
        2
176
     0
 62
     7
176
     0
 90
        5
176
     0
 90
        0
176
     0
 90
        0
176
     0
290
     0
176
     0
 90
        1
176
     0
 40
0.0
176
     0
 90
        0
176
     0
290
     0
176
     0
290
     1
176
     0
290
     1
176
     0
290
     0
176
     0
290
     0
176
     0
290
     0
176
     0
290
     0
176
     0
290
     0
176
     0
290
     0
176
     0
 90
       50
176
     0
 40
0.0
176
     0
 40
1.0
176
     0
 90
        0
176
     0
 62
    18
420
        0
176
     0
 90
       50
176
     0
 90
        3
176
     0
 62
     5
420
      255
176
     0
290
     0
176
     0
 90
       50
176
     0
 90
       50
176
     0
 90
       50
176
     0
290
     0
176
     0
 90
       50
176
     0
 62
   256
176
     0
 40
1.0
176
     0
 90
        2
176
     0
  1
strokes_ogs.tif
176
     0
290
     0
176
     0
 40
1.0
176
     0
 40
1.0
176
     0
  0
VISUALSTYLE
  5
38
102
{ACAD_REACTORS
330
29
102
}
330
29
100
AcDbVisualStyle
  2
Facepattern
 70
    15
177
     3
291
     1
 70
    58
 90
        2
176
     1
 90
        2
176
     1
 90
        0
176
     1
 90
        0
176
     1
 40
0.6
176
     1
 40
30.0
176
     1
 62
     7
420
 16777215
176
     1
 90
        1
176
     1
 90
        4
176
     1
 62
     7
176
     1
 62
   257
176
     1
 90
        1
176
     1
 90
        1
176
     1
 40
1.0
176
     1
 90
        8
176
     1
 62
     7
176
     1
 40
1.0
176
     1
 90
        1
176
     1
 90
        6
176
     1
 90
        2
176
     1
 62
     7
176
     1
 90
        5
176
     1
 90
        0
176
     1
 90
        0
176
     1
290
     0
176
     1
 90
        1
176
     1
 40
0.0
176
     1
 90
        0
176
     1
290
     0
176
     1
290
     1
176
     1
290
     1
176
     1
290
     0
176
     1
290
     0
176
     1
290
     0
176
     1
290
     0
176
     1
290
     0
176
     1
290
     0
176
     1
 90
       50
176
     1
 40
0.0
176
     1
 40
1.0
176
     1
 90
        0
176
     1
 62
    18
420
        0
176
     1
 90
       50
176
     1
 90
        3
176
     1
 62
     5
420
      255
176
     1
290
     0
176
     1
 90
       50
176
     1
 90
       50
176
     1
 90
       50
176
     1
290
     0
176
     1
 90
       50
176
     1
 62
   256
176
     0
 40
1.0
176
     0
 90
        2
176
     1
  1
strokes_ogs.tif
176
     1
290
     0
176
     1
 40
1.0
176
     1
 40
1.0
176
     1
  0
VISUALSTYLE
  5
2A
102
{ACAD_REACTORS
330
29
102
}
330
29
100
AcDbVisualStyle
  2
Flat
 70
     0
177
     3
291
     1
 70
    58
 90
        2
176
     1
 90
        1
176
     1
 90
        1
176
     1
 90
        2
176
     1
 40
0.6
176
     1
 40
30.0
176
     1
 62
     7
420
 16777215
176
     1
 90
        0
176
     1
 90
        0
176
     1
 62
     7
176
     1
 62
   257
176
     1
 90
        1
176
     1
 90
        1
176
     1
 40
1.0
176
     1
 90
        8
176
     1
 62
     7
176
     1
 40
1.0
176
     1
 90
        1
176
     1
 90
        6
176
     1
 90
        2
176
     1
 62
     7
176
     1
 90
        5
176
     1
 90
        0
176
     1
 90
        0
176
     1
290
     0
176
     1
 90
       13
176
     1
 40
0.0
176
     1
 90
        0
176
     1
290
     0
176
     1
290
     1
176
     1
290
     1
176
     1
290
     0
176
     1
290
     0
176
     1
290
     0
176
     1
290
     0
176
     1
290
     0
176
     1
290
     0
176
     1
 90
       50
176
     1
 40
0.0
176
     1
 40
1.0
176
     1
 90
        0
176
     1
 62
    18
420
        0
176
     1
 90
       50
176
     1
 90
        3
176
     1
 62
     5
420
      255
176
     1
290
     0
176
     1
 90
       50
176
     1
 90
       50
176
     1
 90
       50
176
     1
290
     0
176
     1
 90
       50
176
     1
 62
   256
176
     0
 40
1.0
176
     0
 90
        2
176
     1
  1
strokes_ogs.tif
176
     1
290
     0
176
     1
 40
1.0
176
     1
 40
1.0
176
     1
  0
VISUALSTYLE
  5
2B
102
{ACAD_REACTORS
330
29
102
}
330
29
100
AcDbVisualStyle
  2
FlatWithEdges
 70
     1
177
     3
291
     1
 70
    58
 90
        2
176
     1
 90
        1
176
     1
 90
        1
176
     1
 90
        2
176
     1
 40
0.6
176
     1
 40
30.0
176
     1
 62
     7
420
 16777215
176
     1
 90
        1
176
     1
 90
        0
176
     1
 62
     7
176
     1
 62
   257
176
     1
 90
        1
176
     1
 90
        1
176
     1
 40
1.0
176
     1
 90
        0
176
     1
 62
   257
176
     1
 40
1.0
176
     1
 90
        1
176
     1
 90
        6
176
     1
 90
        2
176
     1
 62
     7
176
     1
 90
        5
176
     1
 90
        0
176
     1
 90
        0
176
     1
290
     0
176
     1
 90
       13
176
     1
 40
0.0
176
     1
 90
        0
176
     1
290
     0
176
     1
290
     1
176
     1
290
     1
176
     1
290
     0
176
     1
290
     0
176
     1
290
     0
176
     1
290
     0
176
     1
290
     0
176
     1
290
     0
176
     1
 90
       50
176
     1
 40
0.0
176
     1
 40
1.0
176
     1
 90
        0
176
     1
 62
    18
420
        0
176
     1
 90
       50
176
     1
 90
        3
176
     1
 62
     5
420
      255
176
     1
290
     0
176
     1
 90
       50
176
     1
 90
       50
176
     1
 90
       50
176
     1
290
     0
176
     1
 90
       50
176
     1
 62
   256
176
     0
 40
1.0
176
     0
 90
        2
176
     1
  1
strokes_ogs.tif
176
     1
290
     0
176
     1
 40
1.0
176
     1
 40
1.0
176
     1
  0
VISUALSTYLE
  5
2C
102
{ACAD_REACTORS
330
29
102
}
330
29
100
AcDbVisualStyle
  2
Gouraud
 70
     2
177
     3
291
     1
 70
    58
 90
        2
176
     1
 90
        2
176
     1
 90
        1
176
     1
 90
        2
176
     1
 40
0.6
176
     1
 40
30.0
176
     1
 62
     7
420
 16777215
176
     1
 90
        0
176
     1
 90
        0
176
     1
 62
     7
176
     1
 62
   257
176
     1
 90
        1
176
     1
 90
        1
176
     1
 40
1.0
176
     1
 90
        0
176
     1
 62
     7
176
     1
 40
1.0
176
     1
 90
        1
176
     1
 90
        6
176
     1
 90
        2
176
     1
 62
     7
176
     1
 90
        5
176
     1
 90
        0
176
     1
 90
        0
176
     1
290
     0
176
     1
 90
       13
176
     1
 40
0.0
176
     1
 90
        0
176
     1
290
     0
176
     1
290
     1
176
     1
290
     1
176
     1
290
     0
176
     1
290
     0
176
     1
290
     0
176
     1
290
     0
176
     1
290
     0
176
     1
290
     0
176
     1
 90
       50
176
     1
 40
0.0
176
     1
 40
1.0
176
     1
 90
        0
176
     1
 62
    18
420
        0
176
     1
 90
       50
176
     1
 90
        3
176
     1
 62
     5
420
      255
176
     1
290
     0
176
     1
 90
       50
176
     1
 90
       50
176
     1
 90
       50
176
     1
290
     0
176
     1
 90
       50
176
     1
 62
   256
176
     0
 40
1.0
176
     0
 90
        2
176
     1
  1
strokes_ogs.tif
176
     1
290
     0
176
     1
 40
1.0
176
     1
 40
1.0
176
     1
  0
VISUALSTYLE
  5
2D
102
{ACAD_REACTORS
330
29
102
}
330
29
100
AcDbVisualStyle
  2
GouraudWithEdges
 70
     3
177
     3
291
     1
 70
    58
 90
        2
176
     1
 90
        2
176
     1
 90
        1
176
     1
 90
        2
176
     1
 40
0.6
176
     1
 40
30.0
176
     1
 62
     7
420
 16777215
176
     1
 90
        1
176
     1
 90
        0
176
     1
 62
     7
176
     1
 62
   257
176
     1
 90
        1
176
     1
 90
        1
176
     1
 40
1.0
176
     1
 90
        0
176
     1
 62
   257
176
     1
 40
1.0
176
     1
 90
        1
176
     1
 90
        6
176
     1
 90
        2
176
     1
 62
     7
176
     1
 90
        5
176
     1
 90
        0
176
     1
 90
        0
176
     1
290
     0
176
     1
 90
       13
176
     1
 40
0.0
176
     1
 90
        0
176
     1
290
     0
176
     1
290
     1
176
     1
290
     1
176
     1
290
     0
176
     1
290
     0
176
     1
290
     0
176
     1
290
     0
176
     1
290
     0
176
     1
290
     0
176
     1
 90
       50
176
     1
 40
0.0
176
     1
 40
1.0
176
     1
 90
        0
176
     1
 62
    18
420
        0
176
     1
 90
       50
176
     1
 90
        3
176
     1
 62
     5
420
      255
176
     1
290
     0
176
     1
 90
       50
176
     1
 90
       50
176
     1
 90
       50
176
     1
290
     0
176
     1
 90
       50
176
     1
 62
   256
176
     0
 40
1.0
176
     0
 90
        2
176
     1
  1
strokes_ogs.tif
176
     1
290
     0
176
     1
 40
1.0
176
     1
 40
1.0
176
     1
  0
VISUALSTYLE
  5
31
102
{ACAD_REACTORS
330
29
102
}
330
29
100
AcDbVisualStyle
  2
Hidden
 70
     6
177
     3
291
     0
 70
    58
 90
        1
176
     1
 90
        2
176
     1
 90
        2
176
     1
 90
        0
176
     1
 40
0.6
176
     1
 40
30.0
176
     1
 62
     7
420
 16777215
176
     1
 90
        2
176
     1
 90
        2
176
     1
 62
     7
176
     1
 62
   257
176
     1
 90
        2
176
     1
 90
        1
176
     1
 40
40.0
176
     1
 90
        0
176
     1
 62
   257
176
     1
 40
1.0
176
     1
 90
        1
176
     1
 90
        6
176
     1
 90
        2
176
     1
 62
     7
176
     1
 90
        3
176
     1
 90
        0
176
     1
 90
        0
176
     1
290
     0
176
     1
 90
        1
176
     1
 40
0.0
176
     1
 90
        0
176
     1
290
     0
176
     1
290
     1
176
     1
290
     1
176
     1
290
     0
176
     1
290
     0
176
     1
290
     0
176
     1
290
     0
176
     1
290
     0
176
     1
290
     0
176
     1
 90
       50
176
     1
 40
0.0
176
     1
 40
1.0
176
     1
 90
        0
176
     1
 62
    18
420
        0
176
     1
 90
       50
176
     1
 90
        3
176
     1
 62
     5
420
      255
176
     1
290
     0
176
     1
 90
       50
176
     1
 90
       50
176
     1
 90
       50
176
     1
290
     0
176
     1
 90
       50
176
     1
 62
   256
176
     0
 40
1.0
176
     0
 90
        2
176
     1
  1
strokes_ogs.tif
176
     1
290
     0
176
     1
 40
1.0
176
     1
 40
1.0
176
     1
  0
VISUALSTYLE
  5
3F
102
{ACAD_REACTORS
330
29
102
}
330
29
100
AcDbVisualStyle
  2
JitterOff
 70
    20
177
     3
291
     1
 70
    58
 90
        2
176
     0
 90
        2
176
     0
 90
        0
176
     0
 90
        0
176
     0
 40
0.6
176
     0
 40
30.0
176
     0
 62
     7
420
 16777215
176
     0
 90
        1
176
     0
 90
        4
176
     0
 62
     7
176
     0
 62
   257
176
     0
 90
        1
176
     0
 90
        1
176
     0
 40
1.0
176
     0
 90
       10
176
     2
 62
     7
176
     0
 40
1.0
176
     0
 90
        1
176
     0
 90
        6
176
     0
 90
        2
176
     0
 62
     7
176
     0
 90
        5
176
     0
 90
        0
176
     0
 90
        0
176
     0
290
     0
176
     0
 90
        1
176
     0
 40
0.0
176
     0
 90
        0
176
     0
290
     0
176
     0
290
     1
176
     0
290
     1
176
     0
290
     0
176
     0
290
     0
176
     0
290
     0
176
     0
290
     0
176
     0
290
     0
176
     0
290
     0
176
     0
 90
       50
176
     0
 40
0.0
176
     0
 40
1.0
176
     0
 90
        0
176
     0
 62
    18
420
        0
176
     0
 90
       50
176
     0
 90
        3
176
     0
 62
     5
420
      255
176
     0
290
     0
176
     0
 90
       50
176
     0
 90
       50
176
     0
 90
       50
176
     0
290
     0
176
     0
 90
       50
176
     0
 62
   256
176
     0
 40
1.0
176
     0
 90
        2
176
     0
  1
strokes_ogs.tif
176
     0
290
     0
176
     0
 40
1.0
176
     0
 40
1.0
176
     0
  0
VISUALSTYLE
  5
37
102
{ACAD_REACTORS
330
29
102
}
330
29
100
AcDbVisualStyle
  2
Linepattern
 70
    14
177
     3
291
     1
 70
    58
 90
        2
176
     1
 90
        2
176
     1
 90
        0
176
     1
 90
        0
176
     1
 40
0.6
176
     1
 40
30.0
176
     1
 62
     7
420
 16777215
176
     1
 90
        1
176
     1
 90
        4
176
     1
 62
     7
176
     1
 62
   257
176
     1
 90
        7
176
     1
 90
        7
176
     1
 40
1.0
176
     1
 90
        8
176
     1
 62
     7
176
     1
 40
1.0
176
     1
 90
        1
176
     1
 90
        6
176
     1
 90
        2
176
     1
 62
     7
176
     1
 90
        5
176
     1
 90
        0
176
     1
 90
        0
176
     1
290
     0
176
     1
 90
        1
176
     1
 40
0.0
176
     1
 90
        0
176
     1
290
     0
176
     1
290
     1
176
     1
290
     1
176
     1
290
     0
176
     1
290
     0
176
     1
290
     0
176
     1
290
     0
176
     1
290
     0
176
     1
290
     0
176
     1
 90
       50
176
     1
 40
0.0
176
     1
 40
1.0
176
     1
 90
        0
176
     1
 62
    18
420
        0
176
     1
 90
       50
176
     1
 90
        3
176
     1
 62
     5
420
      255
176
     1
290
     0
176
     1
 90
       50
176
     1
 90
       50
176
     1
 90
       50
176
     1
290
     0
176
     1
 90
       50
176
     1
 62
   256
176
     0
 40
1.0
176
     0
 90
        2
176
     1
  1
strokes_ogs.tif
176
     1
290
     0
176
     1
 40
1.0
176
     1
 40
1.0
176
     1
  0
VISUALSTYLE
  5
40
102
{ACAD_REACTORS
330
29
102
}
330
29
100
AcDbVisualStyle
  2
OverhangOff
 70
    21
177
     3
291
     1
 70
    58
 90
        2
176
     0
 90
        2
176
     0
 90
        0
176
     0
 90
        0
176
     0
 40
0.6
176
     0
 40
30.0
176
     0
 62
     7
420
 16777215
176
     0
 90
        1
176
     0
 90
        4
176
     0
 62
     7
176
     0
 62
   257
176
     0
 90
        1
176
     0
 90
        1
176
     0
 40
1.0
176
     0
 90
        9
176
     2
 62
     7
176
     0
 40
1.0
176
     0
 90
        1
176
     0
 90
        6
176
     0
 90
        2
176
     0
 62
     7
176
     0
 90
        5
176
     0
 90
        0
176
     0
 90
        0
176
     0
290
     0
176
     0
 90
        1
176
     0
 40
0.0
176
     0
 90
        0
176
     0
290
     0
176
     0
290
     1
176
     0
290
     1
176
     0
290
     0
176
     0
290
     0
176
     0
290
     0
176
     0
290
     0
176
     0
290
     0
176
     0
290
     0
176
     0
 90
       50
176
     0
 40
0.0
176
     0
 40
1.0
176
     0
 90
        0
176
     0
 62
    18
420
        0
176
     0
 90
       50
176
     0
 90
        3
176
     0
 62
     5
420
      255
176
     0
290
     0
176
     0
 90
       50
176
     0
 90
       50
176
     0
 90
       50
176
     0
290
     0
176
     0
 90
       50
176
     0
 62
   256
176
     0
 40
1.0
176
     0
 90
        2
176
     0
  1
strokes_ogs.tif
176
     0
290
     0
176
     0
 40
1.0
176
     0
 40
1.0
176
     0
  0
VISUALSTYLE
  5
33
102
{ACAD_REACTORS
330
29
102
}
330
29
100
AcDbVisualStyle
  2
Realistic
 70
     8
177
     3
291
     0
 70
    58
 90
        2
176
     1
 90
        3
176
     1
 90
        0
176
     1
 90
        2
176
     1
 40
0.6
176
     1
 40
30.0
176
     1
 62
     7
420
 16777215
176
     1
 90
        0
176
     1
 90
        0
176
     1
 62
     7
176
     1
 62
   257
176
     1
 90
        1
176
     1
 90
        1
176
     1
 40
1.0
176
     1
 90
        8
176
     1
 62
   257
176
     1
 40
1.0
176
     1
 90
        1
176
     1
 90
        6
176
     1
 90
        2
176
     1
 62
     7
176
     1
 90
        3
176
     1
 90
        0
176
     1
 90
        0
176
     1
290
     0
176
     1
 90
       13
176
     1
 40
0.0
176
     1
 90
        0
176
     1
290
     0
176
     1
290
     1
176
     1
290
     1
176
     1
290
     0
176
     1
290
     0
176
     1
290
     0
176
     1
290
     0
176
     1
290
     0
176
     1
290
     0
176
     1
 90
       50
176
     1
 40
0.0
176
     1
 40
1.0
176
     1
 90
        0
176
     1
 62
    18
420
        0
176
     1
 90
       50
176
     1
 90
        3
176
     1
 62
     5
420
      255
176
     1
290
     0
176
     1
 90
       50
176
     1
 90
       50
176
     1
 90
       50
176
     1
290
     0
176
     1
 90
       50
176
     1
 62
   256
176
     0
 40
1.0
176
     0
 90
        2
176
     1
  1
strokes_ogs.tif
176
     1
290
     0
176
     1
 40
1.0
176
     1
 40
1.0
176
     1
  0
VISUALSTYLE
  5
3E
102
{ACAD_REACTORS
330
29
102
}
330
29
100
AcDbVisualStyle
  2
Shaded
 70
    27
177
     3
291
     0
 70
    58
 90
        2
176
     1
 90
        2
176
     1
 90
        1
176
     1
 90
        2
176
     1
 40
0.6
176
     1
 40
30.0
176
     1
 62
     7
420
 16777215
176
     1
 90
        0
176
     1
 90
        4
176
     1
 62
     7
176
     1
 62
   257
176
     1
 90
        1
176
     1
 90
        1
176
     1
 40
1.0
176
     1
 90
        8
176
     1
 62
   257
176
     1
 40
1.0
176
     1
 90
        1
176
     1
 90
        6
176
     1
 90
        2
176
     1
 62
     8
420
  7895160
176
     1
 90
        3
176
     1
 90
        0
176
     1
 90
        0
176
     1
290
     0
176
     1
 90
        5
176
     1
 40
0.0
176
     1
 90
        0
176
     1
290
     0
176
     1
290
     1
176
     1
290
     1
176
     1
290
     0
176
     1
290
     0
176
     1
290
     0
176
     1
290
     0
176
     1
290
     0
176
     1
290
     0
176
     1
 90
       50
176
     1
 40
0.0
176
     1
 40
1.0
176
     1
 90
        0
176
     1
 62
    18
420
        0
176
     1
 90
       50
176
     1
 90
        3
176
     1
 62
     5
420
      255
176
     1
290
     0
176
     1
 90
       50
176
     1
 90
       50
176
     1
 90
       50
176
     1
290
     0
176
     1
 90
       50
176
     1
 62
   256
176
     0
 40
1.0
176
     0
 90
        2
176
     1
  1
strokes_ogs.tif
176
     1
290
     0
176
     1
 40
1.0
176
     1
 40
1.0
176
     1
  0
VISUALSTYLE
  5
3D
102
{ACAD_REACTORS
330
29
102
}
330
29
100
AcDbVisualStyle
  2
Shaded with edges
 70
    26
177
     3
291
     0
 70
    58
 90
        2
176
     1
 90
        2
176
     1
 90
        1
176
     1
 90
        2
176
     1
 40
0.6
176
     1
 40
30.0
176
     1
 62
     7
420
 16777215
176
     1
 90
        1
176
     1
 90
       10
176
     1
 62
     7
176
     1
 62
   257
176
     1
 90
        2
176
     1
 90
        1
176
     1
 40
1.0
176
     1
 90
        8
176
     1
 62
   257
176
     1
 40
1.0
176
     1
 90
        1
176
     1
 90
        6
176
     1
 90
        2
176
     1
 62
     7
176
     1
 90
        3
176
     1
 90
        0
176
     1
 90
        0
176
     1
290
     0
176
     1
 90
        5
176
     1
 40
0.0
176
     1
 90
        0
176
     1
290
     0
176
     1
290
     1
176
     1
290
     1
176
     1
290
     0
176
     1
290
     0
176
     1
290
     0
176
     1
290
     0
176
     1
290
     0
176
     1
290
     0
176
     1
 90
       50
176
     1
 40
0.0
176
     1
 40
1.0
176
     1
 90
        0
176
     1
 62
    18
420
        0
176
     1
 90
       50
176
     1
 90
        3
176
     1
 62
     5
420
      255
176
     1
290
     0
176
     1
 90
       50
176
     1
 90
       50
176
     1
 90
       50
176
     1
290
     0
176
     1
 90
       50
176
     1
 62
   256
176
     0
 40
1.0
176
     0
 90
        2
176
     1
  1
strokes_ogs.tif
176
     1
290
     0
176
     1
 40
1.0
176
     1
 40
1.0
176
     1
  0
VISUALSTYLE
  5
3A
102
{ACAD_REACTORS
330
29
102
}
330
29
100
AcDbVisualStyle
  2
Shades of Gray
 70
    23
177
     3
291
     0
 70
    58
 90
        2
176
     1
 90
        2
176
     1
 90
        3
176
     1
 90
        0
176
     1
 40
0.6
176
     1
 40
30.0
176
     1
 62
     7
420
 16777215
176
     1
 90
        2
176
     1
 90
        2
176
     1
 62
     7
176
     1
 62
     7
176
     1
 90
        1
176
     1
 90
        1
176
     1
 40
40.0
176
     1
 90
        8
176
     1
 62
     7
176
     1
 40
1.0
176
     1
 90
        1
176
     1
 90
        6
176
     1
 90
        2
176
     1
 62
     7
176
     1
 90
        3
176
     1
 90
        0
176
     1
 90
        0
176
     1
290
     0
176
     1
 90
        1
176
     1
 40
0.0
176
     1
 90
        0
176
     1
290
     0
176
     1
290
     1
176
     1
290
     1
176
     1
290
     0
176
     1
290
     0
176
     1
290
     0
176
     1
290
     0
176
     1
290
     0
176
     1
290
     0
176
     1
 90
       50
176
     1
 40
0.0
176
     1
 40
1.0
176
     1
 90
        0
176
     1
 62
    18
420
        0
176
     1
 90
       50
176
     1
 90
        3
176
     1
 62
     5
420
      255
176
     1
290
     0
176
     1
 90
       50
176
     1
 90
       50
176
     1
 90
       50
176
     1
290
     0
176
     1
 90
       50
176
     1
 62
   256
176
     0
 40
1.0
176
     0
 90
        2
176
     1
  1
strokes_ogs.tif
176
     1
290
     0
176
     1
 40
1.0
176
     1
 40
1.0
176
     1
  0
VISUALSTYLE
  5
3B
102
{ACAD_REACTORS
330
29
102
}
330
29
100
AcDbVisualStyle
  2
Sketchy
 70
    24
177
     3
291
     0
 70
    58
 90
        1
176
     1
 90
        2
176
     1
 90
        2
176
     1
 90
        0
176
     1
 40
0.6
176
     1
 40
30.0
176
     1
 62
     7
420
 16777215
176
     1
 90
        2
176
     1
 90
        2
176
     1
 62
     7
176
     1
 62
     7
176
     1
 90
        1
176
     1
 90
        1
176
     1
 40
40.0
176
     1
 90
       11
176
     1
 62
     7
176
     1
 40
1.0
176
     1
 90
        1
176
     1
 90
        6
176
     1
 90
        2
176
     1
 62
     7
176
     1
 90
        6
176
     1
 90
        0
176
     1
 90
        0
176
     1
290
     0
176
     1
 90
        1
176
     1
 40
0.0
176
     1
 90
        0
176
     1
290
     0
176
     1
290
     1
176
     1
290
     1
176
     1
290
     0
176
     1
290
     0
176
     1
290
     0
176
     1
290
     0
176
     1
290
     0
176
     1
290
     0
176
     1
 90
       50
176
     1
 40
0.0
176
     1
 40
1.0
176
     1
 90
        0
176
     1
 62
    18
420
        0
176
     1
 90
       50
176
     1
 90
        3
176
     1
 62
     5
420
      255
176
     1
290
     0
176
     1
 90
       50
176
     1
 90
       50
176
     1
 90
       50
176
     1
290
     0
176
     1
 90
       50
176
     1
 62
   256
176
     0
 40
1.0
176
     0
 90
        2
176
     1
  1
strokes_ogs.tif
176
     1
290
     0
176
     1
 40
1.0
176
     1
 40
1.0
176
     1
  0
VISUALSTYLE
  5
36
102
{ACAD_REACTORS
330
29
102
}
330
29
100
AcDbVisualStyle
  2
Thicken
 70
    13
177
     3
291
     1
 70
    58
 90
        2
176
     1
 90
        2
176
     1
 90
        0
176
     1
 90
        0
176
     1
 40
0.6
176
     1
 40
30.0
176
     1
 62
     7
420
 16777215
176
     1
 90
        1
176
     1
 90
        4
176
     1
 62
     7
176
     1
 62
   257
176
     1
 90
        1
176
     1
 90
        1
176
     1
 40
1.0
176
     1
 90
       12
176
     1
 62
     7
176
     1
 40
1.0
176
     1
 90
        1
176
     1
 90
        6
176
     1
 90
        2
176
     1
 62
     7
176
     1
 90
        5
176
     1
 90
        0
176
     1
 90
        0
176
     1
290
     0
176
     1
 90
        1
176
     1
 40
0.0
176
     1
 90
        0
176
     1
290
     0
176
     1
290
     1
176
     1
290
     1
176
     1
290
     0
176
     1
290
     0
176
     1
290
     0
176
     1
290
     0
176
     1
290
     0
176
     1
290
     0
176
     1
 90
       50
176
     1
 40
0.0
176
     1
 40
1.0
176
     1
 90
        0
176
     1
 62
    18
420
        0
176
     1
 90
       50
176
     1
 90
        3
176
     1
 62
     5
420
      255
176
     1
290
     0
176
     1
 90
       50
176
     1
 90
       50
176
     1
 90
       50
176
     1
290
     0
176
     1
 90
       50
176
     1
 62
   256
176
     0
 40
1.0
176
     0
 90
        2
176
     1
  1
strokes_ogs.tif
176
     1
290
     0
176
     1
 40
1.0
176
     1
 40
1.0
176
     1
  0
VISUALSTYLE
  5
30
102
{ACAD_REACTORS
330
29
102
}
330
29
100
AcDbVisualStyle
  2
Wireframe
 70
     5
177
     3
291
     0
 70
    58
 90
        0
176
     1
 90
        2
176
     1
 90
        0
176
     1
 90
        0
176
     1
 40
0.6
176
     1
 40
30.0
176
     1
 62
     7
420
 16777215
176
     1
 90
        1
176
     1
 90
        4
176
     1
 62
     7
176
     1
 62
   257
176
     1
 90
        1
176
     1
 90
        1
176
     1
 40
1.0
176
     1
 90
        0
176
     1
 62
   257
176
     1
 40
1.0
176
     1
 90
        1
176
     1
 90
        6
176
     1
 90
        2
176
     1
 62
     7
176
     1
 90
        3
176
     1
 90
        0
176
     1
 90
        0
176
     1
290
     0
176
     1
 90
        1
176
     1
 40
0.0
176
     1
 90
        0
176
     1
290
     0
176
     1
290
     1
176
     1
290
     1
176
     1
290
     0
176
     1
290
     0
176
     1
290
     0
176
     1
290
     0
176
     1
290
     0
176
     1
290
     0
176
     1
 90
       50
176
     1
 40
0.0
176
     1
 40
1.0
176
     1
 90
        0
176
     1
 62
    18
420
        0
176
     1
 90
       50
176
     1
 90
        3
176
     1
 62
     5
420
      255
176
     1
290
     0
176
     1
 90
       50
176
     1
 90
       50
176
     1
 90
       50
176
     1
290
     0
176
     1
 90
       50
176
     1
 62
   256
176
     0
 40
1.0
176
     0
 90
        2
176
     1
  1
strokes_ogs.tif
176
     1
290
     0
176
     1
 40
1.0
176
     1
 40
1.0
176
     1
  0
VISUALSTYLE
  5
3C
102
{ACAD_REACTORS
330
29
102
}
330
29
100
AcDbVisualStyle
  2
X-Ray
 70
    25
177
     3
291
     0
 70
    58
 90
        2
176
     1
 90
        2
176
     1
 90
        1
176
     1
 90
        1
176
     1
 40
0.5
176
     1
 40
30.0
176
     1
 62
     7
420
 16777215
176
     1
 90
        1
176
     1
 90
        0
176
     1
 62
     7
176
     1
 62
   257
176
     1
 90
        1
176
     1
 90
        1
176
     1
 40
1.0
176
     1
 90
        8
176
     1
 62
     7
176
     1
 40
1.0
176
     1
 90
        1
176
     1
 90
        6
176
     1
 90
        2
176
     1
 62
     7
176
     1
 90
        3
176
     1
 90
        0
176
     1
 90
        0
176
     1
290
     0
176
     1
 90
       13
176
     1
 40
0.0
176
     1
 90
        0
176
     1
290
     0
176
     1
290
     1
176
     1
290
     1
176
     1
290
     0
176
     1
290
     0
176
     1
290
     0
176
     1
290
     0
176
     1
290
     0
176
     1
290
     0
176
     1
 90
       50
176
     1
 40
0.0
176
     1
 40
1.0
176
     1
 90
        0
176
     1
 62
    18
420
        0
176
     1
 90
       50
176
     1
 90
        3
176
     1
 62
     5
420
      255
176
     1
290
     0
176
     1
 90
       50
176
     1
 90
       50
176
     1
 90
       50
176
     1
290
     0
176
     1
 90
       50
176
     1
 62
   256
176
     0
 40
1.0
176
     0
 90
        2
176
     1
  1
strokes_ogs.tif
176
     1
290
     0
176
     1
 40
1.0
176
     1
 40
1.0
176
     1
  0
DICTIONARYVAR
  5
81
102
{ACAD_REACTORS
330
7C
102
}
330
7C
100
DictionaryVariables
280
     0
  1
1:1
  0
DICTIONARYVAR
  5
7E
102
{ACAD_REACTORS
330
7C
102
}
330
7C
100
DictionaryVariables
280
     0
  1
STANDARD
  0
DICTIONARYVAR
  5
7D
102
{ACAD_REACTORS
330
7C
102
}
330
7C
100
DictionaryVariables
280
     0
  1
STANDARD
  0
DICTIONARYVAR
  5
7F
102
{ACAD_REACTORS
330
7C
102
}
330
7C
100
DictionaryVariables
280
     0
  1
Imperial24
  0
DICTIONARYVAR
  5
80
102
{ACAD_REACTORS
330
7C
102
}
330
7C
100
DictionaryVariables
280
     0
  1
Imperial24
  0
XRECORD
  5
415
102
{ACAD_REACTORS
330
412
102
}
330
412
100
AcDbXrecord
280
     1
  1
BUILDING_ID
  1
Progetto per messa in tavola DXF, DWG
  1
FLOOR_ID
  1
694395
  0
XRECORD
  5
414
102
{ACAD_REACTORS
330
412
102
}
330
412
100
AcDbXrecord
280
     1
  1
-2001160
  1
Apparecchi idraulici
  0
XRECORD
  5
413
102
{ACAD_REACTORS
330
412
102
}
330
412
100
AcDbXrecord
280
     1
  1
859151
  1
Automatic flow rate regulator valve_Caleffi_121 DN15 : 1/2''
  0
DICTIONARY
  5
1A
330
19
100
AcDbDictionary
280
     1
281
     1
  3
BUMPTILE
360
1C
  3
DIFFUSETILE
360
1B
  3
OPACITYTILE
360
1F
  3
REFLECTIONTILE
360
1E
  3
REFRACTIONTILE
360
20
  3
SPECULARTILE
360
1D
  0
DICTIONARY
  5
12
330
11
100
AcDbDictionary
280
     1
281
     1
  3
BUMPTILE
360
14
  3
DIFFUSETILE
360
13
  3
OPACITYTILE
360
17
  3
REFLECTIONTILE
360
16
  3
REFRACTIONTILE
360
18
  3
SPECULARTILE
360
15
  0
DICTIONARY
  5
22
330
21
100
AcDbDictionary
280
     1
281
     1
  3
BUMPTILE
360
24
  3
DIFFUSETILE
360
23
  3
OPACITYTILE
360
27
  3
REFLECTIONTILE
360
26
  3
REFRACTIONTILE
360
28
  3
SPECULARTILE
360
25
  0
DICTIONARY
  5
418
330
65
100
AcDbDictionary
280
     1
281
     1
  3
ACAD_ROUNDTRIP_2008_TABLESTYLE_CELLSTYLEMAP
360
419
  0
XRECORD
  5
1C
102
{ACAD_REACTORS
330
1A
102
}
330
1A
100
AcDbXrecord
280
     1
270
     1
271
     1
  0
XRECORD
  5
1B
102
{ACAD_REACTORS
330
1A
102
}
330
1A
100
AcDbXrecord
280
     1
270
     1
271
     1
  0
XRECORD
  5
1F
102
{ACAD_REACTORS
330
1A
102
}
330
1A
100
AcDbXrecord
280
     1
270
     1
271
     1
  0
XRECORD
  5
1E
102
{ACAD_REACTORS
330
1A
102
}
330
1A
100
AcDbXrecord
280
     1
270
     1
271
     1
  0
XRECORD
  5
20
102
{ACAD_REACTORS
330
1A
102
}
330
1A
100
AcDbXrecord
280
     1
270
     1
271
     1
  0
XRECORD
  5
1D
102
{ACAD_REACTORS
330
1A
102
}
330
1A
100
AcDbXrecord
280
     1
270
     1
271
     1
  0
XRECORD
  5
14
102
{ACAD_REACTORS
330
12
102
}
330
12
100
AcDbXrecord
280
     1
270
     1
271
     1
  0
XRECORD
  5
13
102
{ACAD_REACTORS
330
12
102
}
330
12
100
AcDbXrecord
280
     1
270
     1
271
     1
  0
XRECORD
  5
17
102
{ACAD_REACTORS
330
12
102
}
330
12
100
AcDbXrecord
280
     1
270
     1
271
     1
  0
XRECORD
  5
16
102
{ACAD_REACTORS
330
12
102
}
330
12
100
AcDbXrecord
280
     1
270
     1
271
     1
  0
XRECORD
  5
18
102
{ACAD_REACTORS
330
12
102
}
330
12
100
AcDbXrecord
280
     1
270
     1
271
     1
  0
XRECORD
  5
15
102
{ACAD_REACTORS
330
12
102
}
330
12
100
AcDbXrecord
280
     1
270
     1
271
     1
  0
XRECORD
  5
24
102
{ACAD_REACTORS
330
22
102
}
330
22
100
AcDbXrecord
280
     1
270
     1
271
     1
  0
XRECORD
  5
23
102
{ACAD_REACTORS
330
22
102
}
330
22
100
AcDbXrecord
280
     1
270
     1
271
     1
  0
XRECORD
  5
27
102
{ACAD_REACTORS
330
22
102
}
330
22
100
AcDbXrecord
280
     1
270
     1
271
     1
  0
XRECORD
  5
26
102
{ACAD_REACTORS
330
22
102
}
330
22
100
AcDbXrecord
280
     1
270
     1
271
     1
  0
XRECORD
  5
28
102
{ACAD_REACTORS
330
22
102
}
330
22
100
AcDbXrecord
280
     1
270
     1
271
     1
  0
XRECORD
  5
25
102
{ACAD_REACTORS
330
22
102
}
330
22
100
AcDbXrecord
280
     1
270
     1
271
     1
  0
CELLSTYLEMAP
  5
419
102
{ACAD_REACTORS
330
418
102
}
330
418
100
AcDbCellStyleMap
 90
        3
300
CELLSTYLE
  1
TABLEFORMAT_BEGIN
 90
        5
170
     1
 91
        0
 92
    32768
 62
   257
 93
        1
300
CONTENTFORMAT
  1
CONTENTFORMAT_BEGIN
 90
        0
 91
        0
 92
      512
 93
        0
300

 40
0.0
140
1.0
 94
        5
 62
     0
340
55
144
0.25
309
CONTENTFORMAT_END
171
     0
 94
        0
309
TABLEFORMAT_END
  1
CELLSTYLE_BEGIN
 90
        1
 91
        1
300
_TITLE
309
CELLSTYLE_END
300
CELLSTYLE
  1
TABLEFORMAT_BEGIN
 90
        5
170
     1
 91
        0
 92
        0
 62
   257
 93
        1
300
CONTENTFORMAT
  1
CONTENTFORMAT_BEGIN
 90
        0
 91
        0
 92
      512
 93
        0
300

 40
0.0
140
1.0
 94
        5
 62
     0
340
55
144
0.18
309
CONTENTFORMAT_END
171
     0
 94
        0
309
TABLEFORMAT_END
  1
CELLSTYLE_BEGIN
 90
        2
 91
        1
300
_HEADER
309
CELLSTYLE_END
300
CELLSTYLE
  1
TABLEFORMAT_BEGIN
 90
        5
170
     1
 91
        0
 92
        0
 62
   257
 93
        1
300
CONTENTFORMAT
  1
CONTENTFORMAT_BEGIN
 90
        0
 91
        0
 92
      512
 93
        0
300

 40
0.0
140
1.0
 94
        2
 62
     0
340
55
144
0.18
309
CONTENTFORMAT_END
171
     0
 94
        0
309
TABLEFORMAT_END
  1
CELLSTYLE_BEGIN
 90
        3
 91
        2
300
_DATA
309
CELLSTYLE_END
  0
ENDSEC
  0
EOF
