  0
SECTION
  2
HEADER
  9
$ACADVER
  1
AC1027
  9
$ACADMAINTVER
 70
    20
  9
$DWGCODEPAGE
  3
ANSI_1252
  9
$REQUIREDVERSIONS
160
                 0
  9
$INSBASE
 10
0.0
 20
0.0
 30
0.0
  9
$EXTMIN
 10
715.6664074431953
 20
1266.747075834246
 30
-0.00000001
  9
$EXTMAX
 10
1520.363156838902
 20
2144.204379356211
 30
0.00000001
  9
$LIMMIN
 10
0.0
 20
0.0
  9
$LIMMAX
 10
12.0
 20
9.0
  9
$ORTHOMODE
 70
     0
  9
$REGENMODE
 70
     1
  9
$FILLMODE
 70
     1
  9
$QTEXTMODE
 70
     0
  9
$MIRRTEXT
 70
     0
  9
$LTSCALE
 40
1.0
  9
$ATTMODE
 70
     1
  9
$TEXTSIZE
 40
0.2
  9
$TRACEWID
 40
0.05
  9
$TEXTSTYLE
  7
Standard
  9
$CLAYER
  8
0
  9
$CELTYPE
  6
ByLayer
  9
$CECOLOR
 62
   256
  9
$CELTSCALE
 40
1.0
  9
$DISPSILH
 70
     0
  9
$DIMSCALE
 40
1.0
  9
$DIMASZ
 40
0.18
  9
$DIMEXO
 40
0.0625
  9
$DIMDLI
 40
0.38
  9
$DIMRND
 40
0.0
  9
$DIMDLE
 40
0.0
  9
$DIMEXE
 40
0.18
  9
$DIMTP
 40
0.0
  9
$DIMTM
 40
0.0
  9
$DIMTXT
 40
0.18
  9
$DIMCEN
 40
0.09
  9
$DIMTSZ
 40
0.0
  9
$DIMTOL
 70
     0
  9
$DIMLIM
 70
     0
  9
$DIMTIH
 70
     1
  9
$DIMTOH
 70
     1
  9
$DIMSE1
 70
     0
  9
$DIMSE2
 70
     0
  9
$DIMTAD
 70
     0
  9
$DIMZIN
 70
     0
  9
$DIMBLK
  1

  9
$DIMASO
 70
     1
  9
$DIMSHO
 70
     1
  9
$DIMPOST
  1

  9
$DIMAPOST
  1

  9
$DIMALT
 70
     0
  9
$DIMALTD
 70
     2
  9
$DIMALTF
 40
25.4
  9
$DIMLFAC
 40
1.0
  9
$DIMTOFL
 70
     0
  9
$DIMTVP
 40
0.0
  9
$DIMTIX
 70
     0
  9
$DIMSOXD
 70
     0
  9
$DIMSAH
 70
     0
  9
$DIMBLK1
  1

  9
$DIMBLK2
  1

  9
$DIMSTYLE
  2
Standard
  9
$DIMCLRD
 70
     0
  9
$DIMCLRE
 70
     0
  9
$DIMCLRT
 70
     0
  9
$DIMTFAC
 40
1.0
  9
$DIMGAP
 40
0.09
  9
$DIMJUST
 70
     0
  9
$DIMSD1
 70
     0
  9
$DIMSD2
 70
     0
  9
$DIMTOLJ
 70
     1
  9
$DIMTZIN
 70
     0
  9
$DIMALTZ
 70
     0
  9
$DIMALTTZ
 70
     0
  9
$DIMUPT
 70
     0
  9
$DIMDEC
 70
     4
  9
$DIMTDEC
 70
     4
  9
$DIMALTU
 70
     2
  9
$DIMALTTD
 70
     2
  9
$DIMTXSTY
  7
Standard
  9
$DIMAUNIT
 70
     0
  9
$DIMADEC
 70
     0
  9
$DIMALTRND
 40
0.0
  9
$DIMAZIN
 70
     0
  9
$DIMDSEP
 70
    46
  9
$DIMATFIT
 70
     3
  9
$DIMFRAC
 70
     0
  9
$DIMLDRBLK
  1

  9
$DIMLUNIT
 70
     2
  9
$DIMLWD
 70
    -2
  9
$DIMLWE
 70
    -2
  9
$DIMTMOVE
 70
     0
  9
$DIMFXL
 40
1.0
  9
$DIMFXLON
 70
     0
  9
$DIMJOGANG
 40
0.7853981633974483
  9
$DIMTFILL
 70
     0
  9
$DIMTFILLCLR
 70
     0
  9
$DIMARCSYM
 70
     0
  9
$DIMLTYPE
  6

  9
$DIMLTEX1
  6

  9
$DIMLTEX2
  6

  9
$DIMTXTDIRECTION
 70
     0
  9
$LUNITS
 70
     2
  9
$LUPREC
 70
     4
  9
$SKETCHINC
 40
0.1
  9
$FILLETRAD
 40
0.0
  9
$AUNITS
 70
     0
  9
$AUPREC
 70
     0
  9
$MENU
  1
.
  9
$ELEVATION
 40
0.0
  9
$PELEVATION
 40
0.0
  9
$THICKNESS
 40
0.0
  9
$LIMCHECK
 70
     0
  9
$CHAMFERA
 40
0.0
  9
$CHAMFERB
 40
0.0
  9
$CHAMFERC
 40
0.0
  9
$CHAMFERD
 40
0.0
  9
$SKPOLY
 70
     0
  9
$TDCREATE
 40
2457569.606291783
  9
$TDUCREATE
 40
2457569.522958449
  9
$TDUPDATE
 40
2457569.606291783
  9
$TDUUPDATE
 40
2457569.522958449
  9
$TDINDWG
 40
0.0000524306
  9
$TDUSRTIMER
 40
0.0000524306
  9
$USRTIMER
 70
     1
  9
$ANGBASE
 50
0.0
  9
$ANGDIR
 70
     0
  9
$PDMODE
 70
     0
  9
$PDSIZE
 40
0.0
  9
$PLINEWID
 40
0.0
  9
$SPLFRAME
 70
     0
  9
$SPLINETYPE
 70
     6
  9
$SPLINESEGS
 70
     8
  9
$HANDSEED
  5
3BA
  9
$SURFTAB1
 70
     6
  9
$SURFTAB2
 70
     6
  9
$SURFTYPE
 70
     6
  9
$SURFU
 70
     6
  9
$SURFV
 70
     6
  9
$UCSBASE
  2

  9
$UCSNAME
  2

  9
$UCSORG
 10
0.0
 20
0.0
 30
0.0
  9
$UCSXDIR
 10
1.0
 20
0.0
 30
0.0
  9
$UCSYDIR
 10
0.0
 20
1.0
 30
0.0
  9
$UCSORTHOREF
  2

  9
$UCSORTHOVIEW
 70
     0
  9
$UCSORGTOP
 10
0.0
 20
0.0
 30
0.0
  9
$UCSORGBOTTOM
 10
0.0
 20
0.0
 30
0.0
  9
$UCSORGLEFT
 10
0.0
 20
0.0
 30
0.0
  9
$UCSORGRIGHT
 10
0.0
 20
0.0
 30
0.0
  9
$UCSORGFRONT
 10
0.0
 20
0.0
 30
0.0
  9
$UCSORGBACK
 10
0.0
 20
0.0
 30
0.0
  9
$PUCSBASE
  2

  9
$PUCSNAME
  2

  9
$PUCSORG
 10
0.0
 20
0.0
 30
0.0
  9
$PUCSXDIR
 10
1.0
 20
0.0
 30
0.0
  9
$PUCSYDIR
 10
0.0
 20
1.0
 30
0.0
  9
$PUCSORTHOREF
  2

  9
$PUCSORTHOVIEW
 70
     0
  9
$PUCSORGTOP
 10
0.0
 20
0.0
 30
0.0
  9
$PUCSORGBOTTOM
 10
0.0
 20
0.0
 30
0.0
  9
$PUCSORGLEFT
 10
0.0
 20
0.0
 30
0.0
  9
$PUCSORGRIGHT
 10
0.0
 20
0.0
 30
0.0
  9
$PUCSORGFRONT
 10
0.0
 20
0.0
 30
0.0
  9
$PUCSORGBACK
 10
0.0
 20
0.0
 30
0.0
  9
$USERI1
 70
     0
  9
$USERI2
 70
     0
  9
$USERI3
 70
     0
  9
$USERI4
 70
     0
  9
$USERI5
 70
     0
  9
$USERR1
 40
0.0
  9
$USERR2
 40
0.0
  9
$USERR3
 40
0.0
  9
$USERR4
 40
0.0
  9
$USERR5
 40
0.0
  9
$WORLDVIEW
 70
     1
  9
$SHADEDGE
 70
     3
  9
$SHADEDIF
 70
    70
  9
$TILEMODE
 70
     1
  9
$MAXACTVP
 70
    64
  9
$PINSBASE
 10
0.0
 20
0.0
 30
0.0
  9
$PLIMCHECK
 70
     0
  9
$PEXTMIN
 10
1.000000000000000E+20
 20
1.000000000000000E+20
 30
1.000000000000000E+20
  9
$PEXTMAX
 10
-1.000000000000000E+20
 20
-1.000000000000000E+20
 30
-1.000000000000000E+20
  9
$PLIMMIN
 10
0.0
 20
0.0
  9
$PLIMMAX
 10
12.0
 20
9.0
  9
$UNITMODE
 70
     0
  9
$VISRETAIN
 70
     1
  9
$PLINEGEN
 70
     0
  9
$PSLTSCALE
 70
     1
  9
$TREEDEPTH
 70
  3020
  9
$CMLSTYLE
  2
Standard
  9
$CMLJUST
 70
     0
  9
$CMLSCALE
 40
1.0
  9
$PROXYGRAPHICS
 70
     1
  9
$MEASUREMENT
 70
     1
  9
$CELWEIGHT
370
    -1
  9
$ENDCAPS
280
     0
  9
$JOINSTYLE
280
     0
  9
$LWDISPLAY
290
     0
  9
$INSUNITS
 70
     4
  9
$HYPERLINKBASE
  1

  9
$STYLESHEET
  1

  9
$XEDIT
290
     1
  9
$CEPSNTYPE
380
     0
  9
$PSTYLEMODE
290
     1
  9
$FINGERPRINTGUID
  2
{BDA8882D-7BA9-435C-A363-986D4F17A82E}
  9
$VERSIONGUID
  2
{818D06F2-3046-4FA8-8684-BDD7F2C6C315}
  9
$EXTNAMES
290
     1
  9
$PSVPSCALE
 40
0.0
  9
$OLESTARTUP
290
     0
  9
$SORTENTS
280
   127
  9
$INDEXCTL
280
     0
  9
$HIDETEXT
280
     1
  9
$XCLIPFRAME
280
     2
  9
$HALOGAP
280
     0
  9
$OBSCOLOR
 70
   257
  9
$OBSLTYPE
280
     0
  9
$INTERSECTIONDISPLAY
280
     0
  9
$INTERSECTIONCOLOR
 70
   257
  9
$DIMASSOC
280
     2
  9
$PROJECTNAME
  1

  9
$CAMERADISPLAY
290
     0
  9
$LENSLENGTH
 40
50.0
  9
$CAMERAHEIGHT
 40
0.0
  9
$STEPSPERSEC
 40
2.0
  9
$STEPSIZE
 40
6.0
  9
$3DDWFPREC
 40
2.0
  9
$PSOLWIDTH
 40
0.25
  9
$PSOLHEIGHT
 40
4.0
  9
$LOFTANG1
 40
1.570796326794896
  9
$LOFTANG2
 40
1.570796326794896
  9
$LOFTMAG1
 40
0.0
  9
$LOFTMAG2
 40
0.0
  9
$LOFTPARAM
 70
     7
  9
$LOFTNORMALS
280
     1
  9
$LATITUDE
 40
37.795
  9
$LONGITUDE
 40
-122.394
  9
$NORTHDIRECTION
 40
0.0
  9
$TIMEZONE
 70
 -8000
  9
$LIGHTGLYPHDISPLAY
280
     1
  9
$TILEMODELIGHTSYNCH
280
     1
  9
$CMATERIAL
347
11
  9
$SOLIDHIST
280
     0
  9
$SHOWHIST
280
     1
  9
$DWFFRAME
280
     2
  9
$DGNFRAME
280
     0
  9
$REALWORLDSCALE
290
     1
  9
$INTERFERECOLOR
 62
     1
  9
$INTERFEREOBJVS
345
33
  9
$INTERFEREVPVS
346
30
  9
$CSHADOW
280
     0
  9
$SHADOWPLANELOCATION
 40
0.0
  0
ENDSEC
  0
SECTION
  2
CLASSES
  0
CLASS
  1
ACDBDICTIONARYWDFLT
  2
AcDbDictionaryWithDefault
  3
ObjectDBX Classes
 90
        0
 91
        1
280
     0
281
     0
  0
CLASS
  1
MATERIAL
  2
AcDbMaterial
  3
ObjectDBX Classes
 90
     1153
 91
        3
280
     0
281
     0
  0
CLASS
  1
VISUALSTYLE
  2
AcDbVisualStyle
  3
ObjectDBX Classes
 90
     4095
 91
       24
280
     0
281
     0
  0
CLASS
  1
SCALE
  2
AcDbScale
  3
ObjectDBX Classes
 90
     1153
 91
       17
280
     0
281
     0
  0
CLASS
  1
TABLESTYLE
  2
AcDbTableStyle
  3
ObjectDBX Classes
 90
     4095
 91
        1
280
     0
281
     0
  0
CLASS
  1
MLEADERSTYLE
  2
AcDbMLeaderStyle
  3
ACDB_MLEADERSTYLE_CLASS
 90
     4095
 91
        1
280
     0
281
     0
  0
CLASS
  1
ACDBSECTIONVIEWSTYLE
  2
AcDbSectionViewStyle
  3
ObjectDBX Classes
 90
     1025
 91
        1
280
     0
281
     0
  0
CLASS
  1
ACDBDETAILVIEWSTYLE
  2
AcDbDetailViewStyle
  3
ObjectDBX Classes
 90
     1025
 91
        1
280
     0
281
     0
  0
CLASS
  1
RASTERVARIABLES
  2
AcDbRasterVariables
  3
ISM
 90
        0
 91
        1
280
     0
281
     0
  0
CLASS
  1
DICTIONARYVAR
  2
AcDbDictionaryVar
  3
ObjectDBX Classes
 90
        0
 91
        5
280
     0
281
     0
  0
CLASS
  1
CELLSTYLEMAP
  2
AcDbCellStyleMap
  3
ObjectDBX Classes
 90
     1152
 91
        2
280
     0
281
     0
  0
CLASS
  1
SORTENTSTABLE
  2
AcDbSortentsTable
  3
ObjectDBX Classes
 90
        0
 91
        1
280
     0
281
     0
  0
ENDSEC
  0
SECTION
  2
TABLES
  0
TABLE
  2
VPORT
  5
8
330
0
100
AcDbSymbolTable
 70
     1
  0
VPORT
  5
57
330
8
100
AcDbSymbolTableRecord
100
AcDbViewportTableRecord
  2
*Active
 70
     0
 10
0.0
 20
0.0
 11
1.0
 21
1.0
 12
1118.014782141049
 22
1705.475727595228
 13
0.0
 23
0.0
 14
1.0
 24
1.0
 15
0.0
 25
0.0
 16
0.0
 26
0.0
 36
1.0
 17
0.0
 27
0.0
 37
0.0
 40
877.4573035219651
 41
0.917077954865485
 42
50.0
 43
0.0
 44
0.0
 50
0.0
 51
0.0
 71
     0
 72
  1000
 73
     1
 74
     1
 75
     0
 76
     0
 77
     0
 78
     0
281
     0
 65
     1
110
0.0
120
0.0
130
0.0
111
1.0
121
0.0
131
0.0
112
0.0
122
1.0
132
0.0
 79
     0
146
0.0
 60
     3
 61
     5
292
     1
282
     1
141
0.0
142
0.0
 63
   250
421
  3355443
  0
ENDTAB
  0
TABLE
  2
LTYPE
  5
5
330
0
100
AcDbSymbolTable
 70
     3
  0
LTYPE
  5
5B
330
5
100
AcDbSymbolTableRecord
100
AcDbLinetypeTableRecord
  2
ByBlock
 70
     0
  3

 72
    65
 73
     0
 40
0.0
  0
LTYPE
  5
5C
330
5
100
AcDbSymbolTableRecord
100
AcDbLinetypeTableRecord
  2
ByLayer
 70
     0
  3

 72
    65
 73
     0
 40
0.0
  0
LTYPE
  5
5D
330
5
100
AcDbSymbolTableRecord
100
AcDbLinetypeTableRecord
  2
Continuous
 70
     0
  3
Solid line
 72
    65
 73
     0
 40
0.0
  0
LTYPE
  5
69
330
5
100
AcDbSymbolTableRecord
100
AcDbLinetypeTableRecord
  2
PHANTOM2
 70
     0
  3
___ _ _ ___ _ _ ___ _ _ ___ _ _
 72
    65
 73
     6
 40
1.25
 49
0.625
 74
     0
 49
-0.125
 74
     0
 49
0.125
 74
     0
 49
-0.125
 74
     0
 49
0.125
 74
     0
 49
-0.125
 74
     0
  0
LTYPE
  5
86
330
5
100
AcDbSymbolTableRecord
100
AcDbLinetypeTableRecord
  2
Nascosto 1_5 mm
 70
     0
  3

 72
    65
 73
     2
 40
2.2
 49
1.5
 74
     0
 49
-0.7000000000000001
 74
     0
  0
ENDTAB
  0
TABLE
  2
LAYER
  5
2
330
0
100
AcDbSymbolTable
 70
     3
  0
LAYER
  5
54
330
2
100
AcDbSymbolTableRecord
100
AcDbLayerTableRecord
  2
0
 70
     0
 62
     7
  6
Continuous
370
    -3
390
F
347
21
348
0
  0
LAYER
  5
85
330
2
100
AcDbSymbolTableRecord
100
AcDbLayerTableRecord
  2
P-SANR-FIXT
 70
     0
 62
     6
  6
Continuous
370
    18
390
F
347
21
348
0
  0
ENDTAB
  0
TABLE
  2
STYLE
  5
3
330
0
100
AcDbSymbolTable
 70
     2
  0
STYLE
  5
55
330
3
100
AcDbSymbolTableRecord
100
AcDbTextStyleTableRecord
  2
Standard
 70
     0
 40
0.0
 41
1.0
 50
0.0
 71
     0
 42
0.2
  3
txt
  4

  0
STYLE
  5
5A
330
3
100
AcDbSymbolTableRecord
100
AcDbTextStyleTableRecord
  2
Annotative
 70
     0
 40
0.0
 41
1.0
 50
0.0
 71
     0
 42
0.2
  3
txt
  4

1001
AcadAnnotative
1000
AnnotativeData
1002
{
1070
     1
1070
     1
1002
}
  0
ENDTAB
  0
TABLE
  2
VIEW
  5
6
330
0
100
AcDbSymbolTable
 70
     0
  0
ENDTAB
  0
TABLE
  2
UCS
  5
7
330
0
100
AcDbSymbolTable
 70
     0
  0
ENDTAB
  0
TABLE
  2
APPID
  5
9
330
0
100
AcDbSymbolTable
 70
     3
  0
APPID
  5
56
330
9
100
AcDbSymbolTableRecord
100
AcDbRegAppTableRecord
  2
ACAD
 70
     0
  0
APPID
  5
5E
330
9
100
AcDbSymbolTableRecord
100
AcDbRegAppTableRecord
  2
AcadAnnotative
 70
     0
  0
APPID
  5
79
330
9
100
AcDbSymbolTableRecord
100
AcDbRegAppTableRecord
  2
REVIT
 70
     0
  0
ENDTAB
  0
TABLE
  2
DIMSTYLE
  5
A
330
0
100
AcDbSymbolTable
 70
     2
100
AcDbDimStyleTable
 71
     0
  0
DIMSTYLE
105
58
330
A
100
AcDbSymbolTableRecord
100
AcDbDimStyleTableRecord
  2
Standard
 70
     0
340
55
  0
DIMSTYLE
105
59
330
A
100
AcDbSymbolTableRecord
100
AcDbDimStyleTableRecord
  2
Annotative
 70
     0
340
55
1001
AcadAnnotative
1000
AnnotativeData
1002
{
1070
     1
1070
     1
1002
}
  0
ENDTAB
  0
TABLE
  2
BLOCK_RECORD
  5
1
330
0
100
AcDbSymbolTable
 70
     4
  0
BLOCK_RECORD
  5
71
102
{ACAD_XDICTIONARY
360
3B5
102
}
330
1
100
AcDbSymbolTableRecord
100
AcDbBlockTableRecord
  2
*Model_Space
340
74
 70
     0
280
     1
281
     0
  0
BLOCK_RECORD
  5
6D
330
1
100
AcDbSymbolTableRecord
100
AcDbBlockTableRecord
  2
*Paper_Space
340
70
 70
     0
280
     1
281
     0
  0
BLOCK_RECORD
  5
75
330
1
100
AcDbSymbolTableRecord
100
AcDbBlockTableRecord
  2
*Paper_Space0
340
78
 70
     0
280
     1
281
     0
  0
BLOCK_RECORD
  5
87
330
1
100
AcDbSymbolTableRecord
100
AcDbBlockTableRecord
  2
Automatic flow rate regulator valve_Caleffi_121 DN15 - 1_2__-859151-Est - Idraulica
340
0
102
{BLKREFS
331
1DA
102
}
 70
     0
280
     1
281
     0
  0
BLOCK_RECORD
  5
1DB
330
1
100
AcDbSymbolTableRecord
100
AcDbBlockTableRecord
  2
Automatic flow rate regulator valve_Caleffi_121 DN15 - 1_2__-V1-Est - Idraulica
340
0
102
{BLKREFS
331
2C3
102
}
 70
     0
280
     1
281
     0
  0
BLOCK_RECORD
  5
2C4
330
1
100
AcDbSymbolTableRecord
100
AcDbBlockTableRecord
  2
Automatic flow rate regulator valve_Caleffi_121 DN15 - 1_2__-V2-Est - Idraulica
340
0
102
{BLKREFS
331
3AF
102
}
 70
     0
280
     1
281
     0
  0
ENDTAB
  0
ENDSEC
  0
SECTION
  2
BLOCKS
  0
BLOCK
  5
72
330
71
100
AcDbEntity
  8
0
100
AcDbBlockBegin
  2
*Model_Space
 70
     0
 10
0.0
 20
0.0
 30
0.0
  3
*Model_Space
  1

  0
ENDBLK
  5
73
330
71
100
AcDbEntity
  8
0
100
AcDbBlockEnd
  0
BLOCK
  5
6E
330
6D
100
AcDbEntity
 67
     1
  8
0
100
AcDbBlockBegin
  2
*Paper_Space
 70
     0
 10
0.0
 20
0.0
 30
0.0
  3
*Paper_Space
  1

  0
ENDBLK
  5
6F
330
6D
100
AcDbEntity
 67
     1
  8
0
100
AcDbBlockEnd
  0
BLOCK
  5
76
330
75
100
AcDbEntity
 67
     1
  8
0
100
AcDbBlockBegin
  2
*Paper_Space0
 70
     0
 10
0.0
 20
0.0
 30
0.0
  3
*Paper_Space0
  1

  0
ENDBLK
  5
77
330
75
100
AcDbEntity
 67
     1
  8
0
100
AcDbBlockEnd
  0
BLOCK
  5
1D8
330
87
100
AcDbEntity
  8
0
100
AcDbBlockBegin
  2
Automatic flow rate regulator valve_Caleffi_121 DN15 - 1_2__-859151-Est - Idraulica
 70
     0
 10
0.0
 20
0.0
 30
0.0
  3
Automatic flow rate regulator valve_Caleffi_121 DN15 - 1_2__-859151-Est - Idraulica
  1

  0
LINE
  5
88
330
87
100
AcDbEntity
  8
P-SANR-FIXT
100
AcDbLine
 10
781.6389991320164
 20
2104.450710979172
 30
0.0
 11
789.0987924812101
 21
2106.449556582791
 31
0.0
  0
LINE
  5
89
330
87
100
AcDbEntity
  8
P-SANR-FIXT
100
AcDbLine
 10
781.6362410884099
 20
2104.461004138034
 30
0.0
 11
781.6225698241959
 21
2104.512025990685
 31
0.0
  0
LINE
  5
8A
330
87
100
AcDbEntity
  8
P-SANR-FIXT
100
AcDbLine
 10
781.6012318513792
 20
2104.591660389368
 30
0.0
 11
781.5678107288508
 21
2104.716389716689
 31
0.0
  0
LINE
  5
8B
330
87
100
AcDbEntity
  8
P-SANR-FIXT
100
AcDbLine
 10
781.5201801887826
 20
2104.894149312216
 30
0.0
 11
781.4333728523317
 21
2105.21811870232
 31
0.0
  0
LINE
  5
8C
330
87
100
AcDbEntity
  8
P-SANR-FIXT
100
AcDbLine
 10
781.429873774966
 20
2105.231177436829
 30
0.0
 11
781.3164375590357
 21
2105.654527158099
 31
0.0
  0
LINE
  5
8D
330
87
100
AcDbEntity
  8
P-SANR-FIXT
100
AcDbLine
 10
781.27979297957
 20
2105.791286590487
 30
0.0
 11
781.0883692141645
 21
2106.505689808757
 31
0.0
  0
LINE
  5
8E
330
87
100
AcDbEntity
  8
P-SANR-FIXT
100
AcDbLine
 10
781.0283019688139
 20
2106.729863820275
 30
0.0
 11
780.8648198456553
 21
2107.339987410033
 31
0.0
  0
LINE
  5
8F
330
87
100
AcDbEntity
  8
P-SANR-FIXT
100
AcDbLine
 10
780.8585326743576
 20
2107.363451452751
 30
0.0
 11
780.6754093824244
 21
2108.046876882295
 31
0.0
  0
LINE
  5
90
330
87
100
AcDbEntity
  8
P-SANR-FIXT
100
AcDbLine
 10
780.6201531030339
 20
2108.253096124419
 30
0.0
 11
780.0881443624266
 21
2110.238579774435
 31
0.0
  0
LINE
  5
91
330
87
100
AcDbEntity
  8
P-SANR-FIXT
100
AcDbLine
 10
780.0780662167
 20
2110.276191926333
 30
0.0
 11
775.2004987762218
 21
2128.479521431541
 31
0.0
  0
LINE
  5
92
330
87
100
AcDbEntity
  8
P-SANR-FIXT
100
AcDbLine
 10
782.6602921254154
 20
2130.478367035161
 30
0.0
 11
787.5378595658937
 21
2112.275037529952
 31
0.0
  0
LINE
  5
93
330
87
100
AcDbEntity
  8
P-SANR-FIXT
100
AcDbLine
 10
787.5479377116204
 20
2112.237425378054
 30
0.0
 11
788.0799464522274
 21
2110.251941728038
 31
0.0
  0
LINE
  5
94
330
87
100
AcDbEntity
  8
P-SANR-FIXT
100
AcDbLine
 10
788.1352027316181
 20
2110.045722485915
 30
0.0
 11
788.3183260235511
 21
2109.362297056371
 31
0.0
  0
LINE
  5
95
330
87
100
AcDbEntity
  8
P-SANR-FIXT
100
AcDbLine
 10
788.324613194849
 20
2109.338833013651
 30
0.0
 11
788.4880953180076
 21
2108.728709423895
 31
0.0
  0
LINE
  5
96
330
87
100
AcDbEntity
  8
P-SANR-FIXT
100
AcDbLine
 10
788.5481625633582
 20
2108.504535412376
 30
0.0
 11
788.7395863287634
 21
2107.790132194107
 31
0.0
  0
LINE
  5
97
330
87
100
AcDbEntity
  8
P-SANR-FIXT
100
AcDbLine
 10
788.7762309082294
 20
2107.653372761719
 30
0.0
 11
788.8896671241597
 21
2107.230023040448
 31
0.0
  0
LINE
  5
98
330
87
100
AcDbEntity
  8
P-SANR-FIXT
100
AcDbLine
 10
788.8931662015253
 20
2107.21696430594
 30
0.0
 11
788.9799735379763
 21
2106.892994915835
 31
0.0
  0
LINE
  5
99
330
87
100
AcDbEntity
  8
P-SANR-FIXT
100
AcDbLine
 10
789.0276040780446
 20
2106.715235320308
 30
0.0
 11
789.0610252005727
 21
2106.590505992988
 31
0.0
  0
LINE
  5
9A
330
87
100
AcDbEntity
  8
P-SANR-FIXT
100
AcDbLine
 10
789.0823631733895
 20
2106.510871594304
 30
0.0
 11
789.0960344376036
 21
2106.459849741654
 31
0.0
  0
LINE
  5
9B
330
87
100
AcDbEntity
  8
P-SANR-FIXT
100
AcDbLine
 10
775.2004987762218
 20
2128.479521431541
 30
0.0
 11
782.6602921254154
 21
2130.478367035161
 31
0.0
  0
LINE
  5
9C
330
87
100
AcDbEntity
  8
P-SANR-FIXT
100
AcDbLine
 10
879.8659784571341
 20
1681.452565208528
 30
0.0
 11
883.2306260434668
 21
1668.89552946677
 31
0.0
  0
LINE
  5
9D
330
87
100
AcDbEntity
  8
P-SANR-FIXT
100
AcDbLine
 10
955.6750630151462
 20
1688.306957849458
 30
0.0
 11
952.3104154288134
 21
1700.863993591216
 31
0.0
  0
LINE
  5
9E
330
87
100
AcDbEntity
  8
P-SANR-FIXT
100
AcDbLine
 10
884.6731338331377
 20
1669.282048264087
 30
0.0
 11
885.9672290586503
 21
1664.452419132642
 31
0.0
  0
LINE
  5
9F
330
87
100
AcDbEntity
  8
P-SANR-FIXT
100
AcDbLine
 10
955.5266504509878
 20
1683.090809920695
 30
0.0
 11
954.2325552254753
 21
1687.92043905214
 31
0.0
  0
LWPOLYLINE
  5
A0
330
87
100
AcDbEntity
  8
P-SANR-FIXT
100
AcDbPolyline
 90
       41
 70
   128
 43
0.0
 10
955.5266504509878
 20
1683.090809920695
 10
955.574537269258
 20
1682.896641129209
 10
955.6146211024898
 20
1682.700712690067
 10
955.6468378251009
 20
1682.503338046976
 10
955.671135897208
 20
1682.304832957261
 10
955.6874764470782
 20
1682.105514986719
 10
955.6958333333183
 20
1681.905703001584
 10
955.6961931866926
 20
1681.705716658409
 10
955.6885554315124
 20
1681.50587589268
 10
955.6729322865571
 20
1681.306500406994
 10
955.6493487455254
 20
1681.107909159594
 10
955.6178425370527
 20
1680.910419854115
 10
955.5784640643508
 20
1680.714348431315
 10
955.5312763245764
 20
1680.520008563645
 10
955.4763548080465
 20
1680.327711153436
 10
955.4137873774719
 20
1680.137763835523
 10
955.3436741273943
 20
1679.950470485094
 10
955.2661272240571
 20
1679.766130731558
 10
955.1812707259633
 20
1679.585039479195
 10
955.0892403854083
 20
1679.407486435378
 10
954.9901834313045
 20
1679.233755647103
 10
954.8842583336478
 20
1679.064125046569
 10
954.7716345499978
 20
1678.898866006552
 10
954.6524922543838
 20
1678.738242906262
 10
954.5270220490627
 20
1678.582512708394
 10
954.3954246595978
 20
1678.431924548046
 10
954.2579106137392
 20
1678.286719334149
 10
954.1146999046258
 20
1678.147129364071
 10
953.9660216388421
 20
1678.013377951986
 10
953.8121136698974
 20
1677.885679071622
 10
953.6532222177095
 20
1677.764237013945
 10
953.489601474707
 20
1677.649246060343
 10
953.3215131991751
 20
1677.54089017181
 10
953.1492262964974
 20
1677.439342694653
 10
952.9730163889659
 20
1677.344766083174
 10
952.793165374843
 20
1677.257311639776
 10
952.6099609773849
 20
1677.177119272913
 10
952.4236962845463
 20
1677.104317273264
 10
952.2346692801017
 20
1677.039022108498
 10
952.0431823669341
 20
1676.981338236951
 10
951.9911165450551
 20
1676.967085563737
  0
LWPOLYLINE
  5
A1
330
87
100
AcDbEntity
  8
P-SANR-FIXT
100
AcDbPolyline
 90
       41
 70
   128
 43
0.0
 10
892.0909534156081
 20
1660.91688522671
 10
891.8967846241224
 20
1660.86899840844
 10
891.7008561849806
 20
1660.828914575208
 10
891.5034815418895
 20
1660.796697852597
 10
891.3049764521739
 20
1660.77239978049
 10
891.1056584816318
 20
1660.756059230619
 10
890.9058464964969
 20
1660.74770234438
 10
890.7058601533218
 20
1660.747342491005
 10
890.5060193875934
 20
1660.754980246185
 10
890.3066439019065
 20
1660.770603391141
 10
890.1080526545076
 20
1660.794186932172
 10
889.9105633490281
 20
1660.825693140645
 10
889.7144919262283
 20
1660.865071613347
 10
889.520152058558
 20
1660.912259353121
 10
889.3278546483488
 20
1660.967180869651
 10
889.1379073304356
 20
1661.029748300226
 10
888.9506139800074
 20
1661.099861550303
 10
888.7662742264708
 20
1661.177408453641
 10
888.585182974108
 20
1661.262264951734
 10
888.4076299302916
 20
1661.354295292289
 10
888.2338991420162
 20
1661.453352246393
 10
888.0642685414825
 20
1661.55927734405
 10
887.8990095014648
 20
1661.6719011277
 10
887.7383864011745
 20
1661.791043423314
 10
887.582656203307
 20
1661.916513628635
 10
887.4320680429587
 20
1662.0481110181
 10
887.2868628290623
 20
1662.185625063959
 10
887.1472728589843
 20
1662.328835773072
 10
887.0135214468994
 20
1662.477514038856
 10
886.885822566535
 20
1662.631422007801
 10
886.7643805088583
 20
1662.790313459989
 10
886.6493895552556
 20
1662.953934202991
 10
886.5410336667226
 20
1663.122022478523
 10
886.4394861895661
 20
1663.2943093812
 10
886.3449095780875
 20
1663.470519288732
 10
886.2574551346895
 20
1663.650370302855
 10
886.1772627678261
 20
1663.833574700313
 10
886.1044607681769
 20
1664.019839393152
 10
886.0391656034117
 20
1664.208866397596
 10
885.9814817318646
 20
1664.400353310764
 10
885.9672290586503
 20
1664.452419132643
  0
LWPOLYLINE
  5
A2
330
87
100
AcDbEntity
  8
P-SANR-FIXT
100
AcDbPolyline
 90
        4
 70
   128
 43
0.0
 10
951.9911165450551
 20
1676.967085563737
 10
951.9671596743084
 20
1676.960666339567
 10
951.8953273879505
 20
1676.941418936447
 10
951.8564483279341
 20
1676.931001323713
  0
LWPOLYLINE
  5
A3
330
87
100
AcDbEntity
  8
P-SANR-FIXT
100
AcDbPolyline
 90
        4
 70
   128
 43
0.0
 10
892.2252598502048
 20
1660.952872527398
 10
892.1477455960239
 20
1660.932102645588
 10
892.0979351476196
 20
1660.918755976164
 10
892.0909534156081
 20
1660.91688522671
  0
LWPOLYLINE
  5
A4
330
87
100
AcDbEntity
  8
P-SANR-FIXT
100
AcDbPolyline
 90
       80
 70
   128
 43
0.0
 10
892.0909534156081
 20
1660.91688522671
 10
892.114910286355
 20
1660.92330445088
 10
892.1867425727127
 20
1660.942551854
 10
892.3063353583465
 20
1660.974596644331
 10
892.4734973203113
 20
1661.019387557045
 10
892.6879610351271
 20
1661.076852936235
 10
892.9493834066001
 20
1661.146900849555
 10
893.2573462147031
 20
1661.229419235285
 10
893.6113567846382
 20
1661.324276081611
 10
894.0108487750119
 20
1661.431319637814
 10
894.45518308386
 20
1661.55037865704
 10
894.9436488710746
 20
1661.681262670254
 10
895.4754646955965
 20
1661.823762290957
 10
896.0497797655547
 20
1661.977649550153
 10
896.6656752993511
 20
1662.142678261056
 10
897.3221659955155
 20
1662.318584412932
 10
898.0182016089784
 20
1662.505086593462
 10
898.7526686312376
 20
1662.701886438944
 10
899.5243920717355
 20
1662.908669111605
 10
900.3321373375927
 20
1663.125103803282
 10
901.1746122086938
 20
1663.350844264637
 10
902.0504689049635
 20
1663.585529359088
 10
902.9583062425272
 20
1663.828783640547
 10
903.8966718753062
 20
1664.080217954055
 10
904.8640646184624
 20
1664.339430058348
 10
905.8589368499726
 20
1664.606005269353
 10
906.8796969864946
 20
1664.8795171236
 10
907.9247120295603
 20
1665.159528060468
 10
908.9923101780259
 20
1665.44559012219
 10
910.0807835025955
 20
1665.737245670491
 10
911.1883906781454
 20
1666.03402811871
 10
912.3133597694712
 20
1666.335462678241
 10
913.4538910660078
 20
1666.641067118091
 10
914.6081599609809
 20
1666.950352536347
 10
915.7743198703895
 20
1667.262824142319
 10
916.9505051871464
 20
1667.577982048093
 10
918.1348342656503
 20
1667.895322068251
 10
919.3254124320196
 20
1668.214336526456
 10
920.520335015164
 20
1668.534515067627
 10
921.7176903938542
 20
1668.8553454744
 10
922.9155630549062
 20
1669.176314486565
 10
924.1120366575948
 20
1669.49690862217
 10
925.3051970993901
 20
1669.81661499899
 10
926.4931355781122
 20
1670.134922155021
 10
927.6739516456087
 20
1670.451320866716
 10
928.8457562480656
 20
1670.765304963632
 10
930.0066747480904
 20
1671.076372138192
 10
931.1548499237328
 20
1671.384024749275
 10
932.2884449396426
 20
1671.687770618331
 10
933.405646285615
 20
1671.987123816768
 10
934.50466667782
 20
1672.281605443324
 10
935.5837479180756
 20
1672.570744390219
 10
936.6411637065885
 20
1672.854078096814
 10
937.6752224036675
 20
1673.131153289623
 10
938.6842697359847
 20
1673.401526707442
 10
939.6666914430602
 20
1673.66476581048
 10
940.6209158597347
 20
1673.920449472326
 10
941.5454164304987
 20
1674.168168653664
 10
942.4387141516554
 20
1674.407527056649
 10
943.2993799374107
 20
1674.638141758895
 10
944.1260369061064
 20
1674.859643826074
 10
944.9173625829368
 20
1675.071678902131
 10
945.6720910156258
 20
1675.273907776175
 10
946.3890147996815
 20
1675.466006925148
 10
947.0669870099849
 20
1675.647669031389
 10
947.7049230356259
 20
1675.818603474282
 10
948.3018023150492
 20
1675.978536795183
 10
948.8566699687352
 20
1676.127213134894
 10
949.3686383268034
 20
1676.264394642988
 10
949.8368883490952
 20
1676.389861858317
 10
950.2606709354626
 20
1676.503414060101
 10
950.6393081241698
 20
1676.604869589039
 10
950.9721941764864
 20
1676.694066137929
 10
951.2587965457408
 20
1676.77086101132
 10
951.4986567292806
 20
1676.835131353796
 10
951.6913910019791
 20
1676.886774346519
 10
951.8366910301152
 20
1676.925707371718
 10
951.9343243646394
 20
1676.951868144858
 10
951.9841348130436
 20
1676.965214814283
 10
951.9911165450551
 20
1676.967085563737
  0
LINE
  5
A5
330
87
100
AcDbEntity
  8
P-SANR-FIXT
100
AcDbLine
 10
907.5521475859956
 20
1665.059699718686
 30
0.0
 11
908.0697856762004
 21
1663.127848066108
 31
0.0
  0
LINE
  5
A6
330
87
100
AcDbEntity
  8
P-SANR-FIXT
100
AcDbLine
 10
937.0475604648728
 20
1670.892419419183
 30
0.0
 11
936.5299223746678
 21
1672.824271071761
 31
0.0
  0
LINE
  5
A7
330
87
100
AcDbEntity
  8
P-SANR-FIXT
100
AcDbLine
 10
952.3104154288118
 20
1700.863993591215
 30
0.0
 11
879.8659784571325
 21
1681.452565208527
 31
0.0
  0
LINE
  5
A8
330
87
100
AcDbEntity
  8
P-SANR-FIXT
100
AcDbLine
 10
883.2306260434654
 20
1668.895529466769
 30
0.0
 11
955.6750630151446
 21
1688.306957849458
 31
0.0
  0
LINE
  5
A9
330
87
100
AcDbEntity
  8
P-SANR-FIXT
100
AcDbLine
 10
908.069785676199
 20
1663.127848066107
 30
0.0
 11
937.0475604648712
 21
1670.892419419183
 31
0.0
  0
LINE
  5
AA
330
87
100
AcDbEntity
  8
P-SANR-FIXT
100
AcDbLine
 10
792.2468582848404
 20
2119.708269179734
 30
0.0
 11
789.0637929117824
 21
2118.855369383568
 31
0.0
  0
LINE
  5
AB
330
87
100
AcDbEntity
  8
P-SANR-FIXT
100
AcDbLine
 10
792.1696214530127
 20
2107.264259468098
 30
0.0
 11
797.1997677708356
 21
2108.61208311177
 31
0.0
  0
LINE
  5
AC
330
87
100
AcDbEntity
  8
P-SANR-FIXT
100
AcDbLine
 10
789.6397956884515
 20
2116.705697755737
 30
0.0
 11
788.7704624447916
 21
2116.472760615144
 31
0.0
  0
LINE
  5
AD
330
87
100
AcDbEntity
  8
P-SANR-FIXT
100
AcDbLine
 10
790.7242854326833
 20
2109.180993955337
 30
0.0
 11
791.5936186763434
 21
2109.413931095929
 31
0.0
  0
LINE
  5
AE
330
87
100
AcDbEntity
  8
P-SANR-FIXT
100
AcDbLine
 10
788.1944596681221
 20
2118.622432242975
 30
0.0
 11
785.9949947544252
 21
2118.033087395569
 31
0.0
  0
LINE
  5
AF
330
87
100
AcDbEntity
  8
P-SANR-FIXT
100
AcDbLine
 10
781.6410299464616
 20
2104.443131876481
 30
0.0
 11
791.3002882093524
 21
2107.031322327506
 31
0.0
  0
LINE
  5
B0
330
87
100
AcDbEntity
  8
P-SANR-FIXT
100
AcDbLine
 10
802.7632705360968
 20
2117.87117914375
 30
0.0
 11
802.7664400207719
 21
2117.859350465909
 31
0.0
  0
LINE
  5
B1
330
87
100
AcDbEntity
  8
P-SANR-FIXT
100
AcDbLine
 10
789.063792911781
 20
2118.855369383566
 30
0.0
 11
792.1696214530112
 21
2107.264259468097
 31
0.0
  0
LINE
  5
B2
330
87
100
AcDbEntity
  8
P-SANR-FIXT
100
AcDbLine
 10
788.1944596681208
 20
2118.622432242974
 30
0.0
 11
791.300288209351
 21
2107.031322327506
 31
0.0
  0
LINE
  5
B3
330
87
100
AcDbEntity
  8
P-SANR-FIXT
100
AcDbLine
 10
780.0780150853431
 20
2110.276382751155
 30
0.0
 11
780.0881156758452
 21
2110.238686834215
 31
0.0
  0
LINE
  5
B4
330
87
100
AcDbEntity
  8
P-SANR-FIXT
100
AcDbLine
 10
780.2822861860668
 20
2109.514032624736
 30
0.0
 11
780.3577764090105
 21
2109.232299277236
 31
0.0
  0
LINE
  5
B5
330
87
100
AcDbEntity
  8
P-SANR-FIXT
100
AcDbLine
 10
780.4835829384732
 20
2108.762782917357
 30
0.0
 11
780.6192436372534
 21
2108.256490296918
 31
0.0
  0
LINE
  5
B6
330
87
100
AcDbEntity
  8
P-SANR-FIXT
100
AcDbLine
 10
780.6771128271902
 20
2108.040519539882
 30
0.0
 11
780.858786655457
 21
2107.362503582384
 31
0.0
  0
LINE
  5
B7
330
87
100
AcDbEntity
  8
P-SANR-FIXT
100
AcDbLine
 10
780.8645728111528
 20
2107.340909355347
 30
0.0
 11
781.0309724040279
 21
2106.719897620379
 31
0.0
  0
LINE
  5
B8
330
87
100
AcDbEntity
  8
P-SANR-FIXT
100
AcDbLine
 10
781.1859907039446
 20
2106.141361448987
 30
0.0
 11
781.27771702349
 21
2105.799034164051
 31
0.0
  0
LINE
  5
B9
330
87
100
AcDbEntity
  8
P-SANR-FIXT
100
AcDbLine
 10
781.3200245117273
 20
2105.641140468409
 30
0.0
 11
781.4302604620004
 21
2105.22973430117
 31
0.0
  0
LINE
  5
BA
330
87
100
AcDbEntity
  8
P-SANR-FIXT
100
AcDbLine
 10
781.4329788840973
 20
2105.219589011788
 30
0.0
 11
781.5240893711382
 21
2104.879560045048
 31
0.0
  0
LINE
  5
BB
330
87
100
AcDbEntity
  8
P-SANR-FIXT
100
AcDbLine
 10
781.5328070487979
 20
2104.847025229099
 30
0.0
 11
781.5693588041175
 21
2104.71061222114
 31
0.0
  0
LINE
  5
BC
330
87
100
AcDbEntity
  8
P-SANR-FIXT
100
AcDbLine
 10
781.6029356290721
 20
2104.585301804453
 30
0.0
 11
781.6244984090306
 21
2104.504828414095
 31
0.0
  0
LINE
  5
BD
330
87
100
AcDbEntity
  8
P-SANR-FIXT
100
AcDbLine
 10
781.638245311089
 20
2104.453524277167
 30
0.0
 11
781.6410299464603
 21
2104.44313187648
 31
0.0
  0
LINE
  5
BE
330
87
100
AcDbEntity
  8
P-SANR-FIXT
100
AcDbLine
 10
977.784054502003
 20
2063.143695506197
 30
0.0
 11
977.784054502003
 21
2059.556872725778
 31
0.0
  0
LINE
  5
BF
330
87
100
AcDbEntity
  8
P-SANR-FIXT
100
AcDbLine
 10
996.7840545020031
 20
2063.404530161546
 30
0.0
 11
996.7840545020031
 21
2066.143695506197
 31
0.0
  0
LINE
  5
C0
330
87
100
AcDbEntity
  8
P-SANR-FIXT
100
AcDbLine
 10
974.7840545020032
 20
2066.143695506197
 30
0.0
 11
974.7840545020032
 21
2063.143695506197
 31
0.0
  0
LINE
  5
C1
330
87
100
AcDbEntity
  8
P-SANR-FIXT
100
AcDbLine
 10
998.4840545020031
 20
2066.143695506197
 30
0.0
 11
998.4840545020031
 21
2076.143695506197
 31
0.0
  0
LINE
  5
C2
330
87
100
AcDbEntity
  8
P-SANR-FIXT
100
AcDbLine
 10
973.0840545020033
 20
2076.143695506197
 30
0.0
 11
973.0840545020033
 21
2066.143695506197
 31
0.0
  0
LINE
  5
C3
330
87
100
AcDbEntity
  8
P-SANR-FIXT
100
AcDbLine
 10
996.7840545020031
 20
2076.143695506197
 30
0.0
 11
996.7840545020031
 21
2082.143695506197
 31
0.0
  0
LINE
  5
C4
330
87
100
AcDbEntity
  8
P-SANR-FIXT
100
AcDbLine
 10
974.7840545020032
 20
2082.143695506197
 30
0.0
 11
974.7840545020032
 21
2076.143695506197
 31
0.0
  0
LINE
  5
C5
330
87
100
AcDbEntity
  8
P-SANR-FIXT
100
AcDbLine
 10
994.2840545020031
 20
2082.143695506197
 30
0.0
 11
994.2840545020033
 21
2105.143695506197
 31
0.0
  0
LINE
  5
C6
330
87
100
AcDbEntity
  8
P-SANR-FIXT
100
AcDbLine
 10
977.2840545020034
 20
2105.143695506197
 30
0.0
 11
977.2840545020034
 21
2102.52573018999
 31
0.0
  0
LINE
  5
C7
330
87
100
AcDbEntity
  8
P-SANR-FIXT
100
AcDbLine
 10
977.2840545020031
 20
2086.52573018999
 30
0.0
 11
977.2840545020031
 21
2082.143695506197
 31
0.0
  0
LINE
  5
C8
330
87
100
AcDbEntity
  8
P-SANR-FIXT
100
AcDbLine
 10
995.0840545020033
 20
2105.143695506197
 30
0.0
 11
995.0840545020033
 21
2111.143695506197
 31
0.0
  0
LINE
  5
C9
330
87
100
AcDbEntity
  8
P-SANR-FIXT
100
AcDbLine
 10
976.4840545020033
 20
2111.143695506197
 30
0.0
 11
976.4840545020033
 21
2105.143695506197
 31
0.0
  0
LINE
  5
CA
330
87
100
AcDbEntity
  8
P-SANR-FIXT
100
AcDbLine
 10
992.5840545020033
 20
2111.143695506197
 30
0.0
 11
992.5840545020033
 21
2118.143695506197
 31
0.0
  0
LINE
  5
CB
330
87
100
AcDbEntity
  8
P-SANR-FIXT
100
AcDbLine
 10
978.9840545020034
 20
2118.143695506197
 30
0.0
 11
978.9840545020034
 21
2111.143695506197
 31
0.0
  0
LINE
  5
CC
330
87
100
AcDbEntity
  8
P-SANR-FIXT
100
AcDbLine
 10
993.5840545020035
 20
2118.143695506197
 30
0.0
 11
993.5840545020035
 21
2127.143695506197
 31
0.0
  0
LINE
  5
CD
330
87
100
AcDbEntity
  8
P-SANR-FIXT
100
AcDbLine
 10
977.9840545020034
 20
2127.143695506197
 30
0.0
 11
977.9840545020034
 21
2118.143695506197
 31
0.0
  0
LINE
  5
CE
330
87
100
AcDbEntity
  8
P-SANR-FIXT
100
AcDbLine
 10
992.5840545020033
 20
2127.143695506197
 30
0.0
 11
992.5840545020033
 21
2129.643695506197
 31
0.0
  0
LINE
  5
CF
330
87
100
AcDbEntity
  8
P-SANR-FIXT
100
AcDbLine
 10
978.9840545020034
 20
2129.643695506197
 30
0.0
 11
978.9840545020034
 21
2127.143695506197
 31
0.0
  0
LINE
  5
D0
330
87
100
AcDbEntity
  8
P-SANR-FIXT
100
AcDbLine
 10
990.5840545020033
 20
2129.643695506197
 30
0.0
 11
990.5840545020033
 21
2133.143695506197
 31
0.0
  0
LINE
  5
D1
330
87
100
AcDbEntity
  8
P-SANR-FIXT
100
AcDbLine
 10
980.9840545020033
 20
2133.143695506197
 30
0.0
 11
980.9840545020033
 21
2129.643695506197
 31
0.0
  0
LINE
  5
D2
330
87
100
AcDbEntity
  8
P-SANR-FIXT
100
AcDbLine
 10
991.5840545020035
 20
2133.143695506197
 30
0.0
 11
991.5840545020035
 21
2141.143695506197
 31
0.0
  0
LINE
  5
D3
330
87
100
AcDbEntity
  8
P-SANR-FIXT
100
AcDbLine
 10
979.9840545020034
 20
2141.143695506197
 30
0.0
 11
979.9840545020034
 21
2133.143695506197
 31
0.0
  0
LINE
  5
D4
330
87
100
AcDbEntity
  8
P-SANR-FIXT
100
AcDbLine
 10
986.7840545020033
 20
2141.143695506197
 30
0.0
 11
986.7840545020033
 21
2144.143695506197
 31
0.0
  0
LINE
  5
D5
330
87
100
AcDbEntity
  8
P-SANR-FIXT
100
AcDbLine
 10
984.7840545020034
 20
2144.143695506197
 30
0.0
 11
984.7840545020034
 21
2141.143695506197
 31
0.0
  0
LINE
  5
D6
330
87
100
AcDbEntity
  8
P-SANR-FIXT
100
AcDbLine
 10
977.2840545020034
 20
2102.52573018999
 30
0.0
 11
973.8522744569829
 21
2102.52573018999
 31
0.0
  0
LINE
  5
D7
330
87
100
AcDbEntity
  8
P-SANR-FIXT
100
AcDbLine
 10
973.8522744569829
 20
2086.52573018999
 30
0.0
 11
977.2840545020031
 21
2086.52573018999
 31
0.0
  0
LINE
  5
D8
330
87
100
AcDbEntity
  8
P-SANR-FIXT
100
AcDbLine
 10
973.8522744569829
 20
2103.52573018999
 30
0.0
 11
965.8522744569829
 21
2103.52573018999
 31
0.0
  0
LINE
  5
D9
330
87
100
AcDbEntity
  8
P-SANR-FIXT
100
AcDbLine
 10
965.8522744569829
 20
2085.52573018999
 30
0.0
 11
973.8522744569829
 21
2085.52573018999
 31
0.0
  0
LINE
  5
DA
330
87
100
AcDbEntity
  8
P-SANR-FIXT
100
AcDbLine
 10
965.8522744569829
 20
2101.52573018999
 30
0.0
 11
961.8522744569828
 21
2101.52573018999
 31
0.0
  0
LINE
  5
DB
330
87
100
AcDbEntity
  8
P-SANR-FIXT
100
AcDbLine
 10
961.8522744569828
 20
2087.52573018999
 30
0.0
 11
965.8522744569829
 21
2087.52573018999
 31
0.0
  0
LINE
  5
DC
330
87
100
AcDbEntity
  8
P-SANR-FIXT
100
AcDbLine
 10
961.8522744569828
 20
2098.52573018999
 30
0.0
 11
958.852274456983
 21
2098.52573018999
 31
0.0
  0
LINE
  5
DD
330
87
100
AcDbEntity
  8
P-SANR-FIXT
100
AcDbLine
 10
958.852274456983
 20
2090.52573018999
 30
0.0
 11
961.8522744569828
 21
2090.52573018999
 31
0.0
  0
LINE
  5
DE
330
87
100
AcDbEntity
  8
P-SANR-FIXT
100
AcDbLine
 10
958.852274456983
 20
2100.02573018999
 30
0.0
 11
949.8522744569831
 21
2100.02573018999
 31
0.0
  0
LINE
  5
DF
330
87
100
AcDbEntity
  8
P-SANR-FIXT
100
AcDbLine
 10
949.8522744569831
 20
2089.02573018999
 30
0.0
 11
958.852274456983
 21
2089.02573018999
 31
0.0
  0
LINE
  5
E0
330
87
100
AcDbEntity
  8
P-SANR-FIXT
100
AcDbLine
 10
742.1664074431985
 20
2065.384144122798
 30
0.0
 11
742.1664074431985
 21
2073.151802515629
 31
0.0
  0
LINE
  5
E1
330
87
100
AcDbEntity
  8
P-SANR-FIXT
100
AcDbLine
 10
727.1664074431988
 20
2073.151802515629
 30
0.0
 11
727.1664074431988
 21
2065.384144122798
 31
0.0
  0
LINE
  5
E2
330
87
100
AcDbEntity
  8
P-SANR-FIXT
100
AcDbLine
 10
739.6664074431988
 20
2073.151802515629
 30
0.0
 11
739.6664074431988
 21
2074.651802515629
 31
0.0
  0
LINE
  5
E3
330
87
100
AcDbEntity
  8
P-SANR-FIXT
100
AcDbLine
 10
729.6664074431987
 20
2074.651802515629
 30
0.0
 11
729.6664074431987
 21
2073.151802515629
 31
0.0
  0
LINE
  5
E4
330
87
100
AcDbEntity
  8
P-SANR-FIXT
100
AcDbLine
 10
742.1664074431985
 20
2074.651802515629
 30
0.0
 11
742.1664074431985
 21
2079.674733560105
 31
0.0
  0
LINE
  5
E5
330
87
100
AcDbEntity
  8
P-SANR-FIXT
100
AcDbLine
 10
727.1664074431988
 20
2079.674733560105
 30
0.0
 11
727.1664074431988
 21
2074.651802515629
 31
0.0
  0
LINE
  5
E6
330
87
100
AcDbEntity
  8
P-SANR-FIXT
100
AcDbLine
 10
738.6664074431985
 20
2080.651802515629
 30
0.0
 11
738.6664074431985
 21
2082.151802515628
 31
0.0
  0
LINE
  5
E7
330
87
100
AcDbEntity
  8
P-SANR-FIXT
100
AcDbLine
 10
730.6664074431986
 20
2082.151802515628
 30
0.0
 11
730.6664074431986
 21
2080.651802515629
 31
0.0
  0
LINE
  5
E8
330
87
100
AcDbEntity
  8
P-SANR-FIXT
100
AcDbLine
 10
739.6664074431988
 20
2082.151802515628
 30
0.0
 11
739.6664074431988
 21
2084.151802515629
 31
0.0
  0
LINE
  5
E9
330
87
100
AcDbEntity
  8
P-SANR-FIXT
100
AcDbLine
 10
729.6664074431987
 20
2084.151802515629
 30
0.0
 11
729.6664074431987
 21
2082.151802515628
 31
0.0
  0
LINE
  5
EA
330
87
100
AcDbEntity
  8
P-SANR-FIXT
100
AcDbLine
 10
742.1664074431985
 20
2079.674733560105
 30
0.0
 11
741.1893384876752
 21
2080.651802515629
 31
0.0
  0
LINE
  5
EB
330
87
100
AcDbEntity
  8
P-SANR-FIXT
100
AcDbLine
 10
728.143476398722
 20
2080.651802515629
 30
0.0
 11
727.1664074431988
 21
2079.674733560105
 31
0.0
  0
LINE
  5
EC
330
87
100
AcDbEntity
  8
P-SANR-FIXT
100
AcDbLine
 10
741.2880858363593
 20
2059.703654636506
 30
0.0
 11
741.2880858363593
 21
2065.384144122798
 31
0.0
  0
LINE
  5
ED
330
87
100
AcDbEntity
  8
P-SANR-FIXT
100
AcDbLine
 10
728.0447290500379
 20
2065.384144122798
 30
0.0
 11
728.0447290500379
 21
2063.411919764718
 31
0.0
  0
LINE
  5
EE
330
87
100
AcDbEntity
  8
P-SANR-FIXT
100
AcDbLine
 10
977.7840545020014
 20
2059.556872725776
 30
0.0
 11
986.6671290649478
 21
2059.556872725776
 31
0.0
  0
LINE
  5
EF
330
87
100
AcDbEntity
  8
P-SANR-FIXT
100
AcDbLine
 10
994.5109412452051
 20
2063.143695506196
 30
0.0
 11
974.7840545020014
 21
2063.143695506196
 31
0.0
  0
LINE
  5
F0
330
87
100
AcDbEntity
  8
P-SANR-FIXT
100
AcDbLine
 10
998.4840545020015
 20
2066.143695506196
 30
0.0
 11
973.0840545020017
 21
2066.143695506196
 31
0.0
  0
LINE
  5
F1
330
87
100
AcDbEntity
  8
P-SANR-FIXT
100
AcDbLine
 10
998.4840545020015
 20
2076.143695506196
 30
0.0
 11
973.0840545020017
 21
2076.143695506196
 31
0.0
  0
LINE
  5
F2
330
87
100
AcDbEntity
  8
P-SANR-FIXT
100
AcDbLine
 10
996.7840545020017
 20
2082.143695506196
 30
0.0
 11
974.7840545020016
 21
2082.143695506196
 31
0.0
  0
SPLINE
  5
F3
330
87
100
AcDbEntity
  8
P-SANR-FIXT
100
AcDbSpline
210
0.0
220
0.0
230
1.0
 70
     8
 71
     3
 72
    57
 73
    53
 74
     0
 42
0.000000001
 43
0.0000000001
 40
0.0
 40
0.0
 40
0.0
 40
0.0
 40
0.0555555555555556
 40
0.0833333333333333
 40
0.1111111111111111
 40
0.1388888888888889
 40
0.1666666666666666
 40
0.1944444444444444
 40
0.2222222222222222
 40
0.25
 40
0.2777777777777778
 40
0.3055555555555556
 40
0.3194444444444444
 40
0.3263888888888888
 40
0.3333333333333333
 40
0.3402777777777778
 40
0.3472222222222222
 40
0.3611111111111111
 40
0.3888888888888888
 40
0.4166666666666666
 40
0.4305555555555556
 40
0.4375
 40
0.4444444444444445
 40
0.4513888888888889
 40
0.4583333333333333
 40
0.4722222222222223
 40
0.5
 40
0.5277777777777778
 40
0.5416666666666668
 40
0.5486111111111112
 40
0.5555555555555556
 40
0.5625
 40
0.5694444444444445
 40
0.5833333333333334
 40
0.6111111111111112
 40
0.6388888888888889
 40
0.6527777777777777
 40
0.6597222222222222
 40
0.6666666666666666
 40
0.6736111111111112
 40
0.6805555555555556
 40
0.6944444444444445
 40
0.7222222222222223
 40
0.75
 40
0.7777777777777778
 40
0.8055555555555555
 40
0.8333333333333332
 40
0.861111111111111
 40
0.8888888888888889
 40
0.9166666666666666
 40
0.9444444444444444
 40
1.0
 40
1.0
 40
1.0
 40
1.0
 10
977.2840545020017
 20
2102.525730189989
 30
0.0
 10
977.2840545020017
 20
2102.504331488182
 30
0.0
 10
977.3593539205196
 20
2102.416767076852
 30
0.0
 10
977.5866127970212
 20
2102.187301102914
 30
0.0
 10
977.8138709332328
 20
2101.962406326227
 30
0.0
 10
978.0922480476075
 20
2101.670470587245
 30
0.0
 10
978.4154577539283
 20
2101.31440655938
 30
0.0
 10
978.7760726589551
 20
2100.91364540649
 30
0.0
 10
979.1650531768341
 20
2100.488566948359
 30
0.0
 10
979.5784893788839
 20
2100.039237890625
 30
0.0
 10
980.0116672028336
 20
2099.551859755892
 30
0.0
 10
980.3801062630787
 20
2099.120627055944
 30
0.0
 10
980.6374173700342
 20
2098.806462338865
 30
0.0
 10
980.7838864461681
 20
2098.623692781996
 30
0.0
 10
980.8925430810727
 20
2098.485032954589
 30
0.0
 10
981.0029255850142
 20
2098.34485133021
 30
0.0
 10
981.1554584766932
 20
2098.155849295932
 30
0.0
 10
981.4309017264527
 20
2097.819405182472
 30
0.0
 10
981.8325563982785
 20
2097.321458459973
 30
0.0
 10
982.1921652724931
 20
2096.79747146203
 30
0.0
 10
982.3916296727071
 20
2096.415649182509
 30
0.0
 10
982.4866029095701
 20
2096.192739842732
 30
0.0
 10
982.5464747669146
 20
2096.023743698395
 30
0.0
 10
982.5971216592288
 20
2095.850412676334
 30
0.0
 10
982.6565473958272
 20
2095.611285492251
 30
0.0
 10
982.7363772433892
 20
2095.176623210852
 30
0.0
 10
982.7820833636875
 20
2094.524110181851
 30
0.0
 10
982.7356008314687
 20
2093.871688714552
 30
0.0
 10
982.6554202649631
 20
2093.437185313682
 30
0.0
 10
982.595875111957
 20
2093.198177546227
 30
0.0
 10
982.5451872307814
 20
2093.024946149957
 30
0.0
 10
982.4853226055308
 20
2092.856077083367
 30
0.0
 10
982.3904078085757
 20
2092.633390073582
 30
0.0
 10
982.1911618760498
 20
2092.252062778904
 30
0.0
 10
981.8320916199427
 20
2091.728989615385
 30
0.0
 10
981.4310109330735
 20
2091.231955062028
 30
0.0
 10
981.1558637844003
 20
2090.896003569417
 30
0.0
 10
981.0034564944936
 20
2090.707221543047
 30
0.0
 10
980.8931399466555
 20
2090.567166498602
 30
0.0
 10
980.784530339862
 20
2090.428599968252
 30
0.0
 10
980.6381159767788
 20
2090.245927026403
 30
0.0
 10
980.3808704109011
 20
2089.931856648501
 30
0.0
 10
980.0124547031385
 20
2089.500594698771
 30
0.0
 10
979.5792146008398
 20
2089.013038425458
 30
0.0
 10
979.1656774769242
 20
2088.563569831579
 30
0.0
 10
978.7765054367413
 20
2088.138351159725
 30
0.0
 10
978.4156466950319
 20
2087.737347570709
 30
0.0
 10
978.0922475354005
 20
2087.381051494463
 30
0.0
 10
977.8137924996379
 20
2087.088968139063
 30
0.0
 10
977.5865382156302
 20
2086.864024330896
 30
0.0
 10
977.3593132739362
 20
2086.634544206736
 30
0.0
 10
977.2840545020015
 20
2086.547049373255
 30
0.0
 10
977.2840545020015
 20
2086.525730189989
 30
0.0
  0
LINE
  5
F4
330
87
100
AcDbEntity
  8
P-SANR-FIXT
100
AcDbLine
 10
995.0840545020016
 20
2105.143695506196
 30
0.0
 11
976.4840545020016
 21
2105.143695506196
 31
0.0
  0
LINE
  5
F5
330
87
100
AcDbEntity
  8
P-SANR-FIXT
100
AcDbLine
 10
995.0840545020017
 20
2111.143695506196
 30
0.0
 11
976.4840545020016
 21
2111.143695506196
 31
0.0
  0
LINE
  5
F6
330
87
100
AcDbEntity
  8
P-SANR-FIXT
100
AcDbLine
 10
993.5840545020017
 20
2118.143695506196
 30
0.0
 11
977.9840545020018
 21
2118.143695506196
 31
0.0
  0
LINE
  5
F7
330
87
100
AcDbEntity
  8
P-SANR-FIXT
100
AcDbLine
 10
993.5840545020019
 20
2127.143695506196
 30
0.0
 11
977.9840545020018
 21
2127.143695506196
 31
0.0
  0
LINE
  5
F8
330
87
100
AcDbEntity
  8
P-SANR-FIXT
100
AcDbLine
 10
992.5840545020017
 20
2129.643695506196
 30
0.0
 11
978.9840545020018
 21
2129.643695506196
 31
0.0
  0
LINE
  5
F9
330
87
100
AcDbEntity
  8
P-SANR-FIXT
100
AcDbLine
 10
991.5840545020017
 20
2133.143695506196
 30
0.0
 11
979.9840545020018
 21
2133.143695506196
 31
0.0
  0
LINE
  5
FA
330
87
100
AcDbEntity
  8
P-SANR-FIXT
100
AcDbLine
 10
991.5840545020017
 20
2141.143695506196
 30
0.0
 11
979.9840545020018
 21
2141.143695506196
 31
0.0
  0
LINE
  5
FB
330
87
100
AcDbEntity
  8
P-SANR-FIXT
100
AcDbLine
 10
986.7840545020017
 20
2144.143695506196
 30
0.0
 11
984.7840545020018
 21
2144.143695506196
 31
0.0
  0
LINE
  5
FC
330
87
100
AcDbEntity
  8
P-SANR-FIXT
100
AcDbLine
 10
973.8522744569813
 20
2103.525730189989
 30
0.0
 11
973.8522744569813
 21
2085.525730189988
 31
0.0
  0
LINE
  5
FD
330
87
100
AcDbEntity
  8
P-SANR-FIXT
100
AcDbLine
 10
965.8522744569815
 20
2103.525730189989
 30
0.0
 11
965.8522744569813
 21
2085.525730189988
 31
0.0
  0
LINE
  5
FE
330
87
100
AcDbEntity
  8
P-SANR-FIXT
100
AcDbLine
 10
961.8522744569814
 20
2101.525730189989
 30
0.0
 11
961.8522744569812
 21
2087.525730189989
 31
0.0
  0
LINE
  5
FF
330
87
100
AcDbEntity
  8
P-SANR-FIXT
100
AcDbLine
 10
958.8522744569813
 20
2100.025730189989
 30
0.0
 11
958.8522744569813
 21
2089.025730189989
 31
0.0
  0
LINE
  5
100
330
87
100
AcDbEntity
  8
P-SANR-FIXT
100
AcDbLine
 10
949.8522744569815
 20
2100.025730189989
 30
0.0
 11
949.8522744569813
 21
2089.025730189989
 31
0.0
  0
LINE
  5
101
330
87
100
AcDbEntity
  8
P-SANR-FIXT
100
AcDbLine
 10
727.1664074431973
 20
2065.384144122798
 30
0.0
 11
742.1664074431971
 21
2065.384144122798
 31
0.0
  0
LINE
  5
102
330
87
100
AcDbEntity
  8
P-SANR-FIXT
100
AcDbLine
 10
742.1664074431971
 20
2073.151802515627
 30
0.0
 11
727.1664074431973
 21
2073.151802515627
 31
0.0
  0
LINE
  5
103
330
87
100
AcDbEntity
  8
P-SANR-FIXT
100
AcDbLine
 10
742.1664074431971
 20
2074.651802515628
 30
0.0
 11
727.1664074431973
 21
2074.651802515628
 31
0.0
  0
LINE
  5
104
330
87
100
AcDbEntity
  8
P-SANR-FIXT
100
AcDbLine
 10
728.1434763987206
 20
2080.651802515628
 30
0.0
 11
741.1893384876738
 21
2080.651802515628
 31
0.0
  0
LINE
  5
105
330
87
100
AcDbEntity
  8
P-SANR-FIXT
100
AcDbLine
 10
739.6664074431972
 20
2082.151802515628
 30
0.0
 11
729.6664074431974
 21
2082.151802515628
 31
0.0
  0
LINE
  5
106
330
87
100
AcDbEntity
  8
P-SANR-FIXT
100
AcDbLine
 10
739.6664074431972
 20
2084.151802515628
 30
0.0
 11
729.6664074431974
 21
2084.151802515628
 31
0.0
  0
LINE
  5
107
330
87
100
AcDbEntity
  8
P-SANR-FIXT
100
AcDbLine
 10
742.1664074431971
 20
2079.674733560104
 30
0.0
 11
727.1664074431973
 21
2079.674733560104
 31
0.0
  0
LINE
  5
108
330
87
100
AcDbEntity
  8
P-SANR-FIXT
100
AcDbLine
 10
810.3327434615234
 20
2109.025224801077
 30
0.0
 11
809.9445148938697
 21
2110.47411354051
 31
0.0
  0
LINE
  5
109
330
87
100
AcDbEntity
  8
P-SANR-FIXT
100
AcDbLine
 10
798.3534049784006
 20
2107.36828499928
 30
0.0
 11
798.7416335460545
 21
2105.919396259847
 31
0.0
  0
LINE
  5
10A
330
87
100
AcDbEntity
  8
P-SANR-FIXT
100
AcDbLine
 10
809.9445148938697
 20
2110.47411354051
 30
0.0
 11
810.631353473447
 21
2111.160952120088
 31
0.0
  0
LINE
  5
10B
330
87
100
AcDbEntity
  8
P-SANR-FIXT
100
AcDbLine
 10
797.4151660303987
 20
2107.619685367704
 30
0.0
 11
798.3534049784006
 21
2107.36828499928
 31
0.0
  0
LINE
  5
10C
330
87
100
AcDbEntity
  8
P-SANR-FIXT
100
AcDbLine
 10
810.631353473447
 20
2111.160952120088
 30
0.0
 11
808.4313915900755
 21
2119.371321643545
 31
0.0
  0
LINE
  5
10D
330
87
100
AcDbEntity
  8
P-SANR-FIXT
100
AcDbLine
 10
797.1391529364804
 20
2108.649780257761
 30
0.0
 11
797.4151660303987
 21
2107.619685367704
 31
0.0
  0
LINE
  5
10E
330
87
100
AcDbEntity
  8
P-SANR-FIXT
100
AcDbLine
 10
809.3973174163645
 20
2119.630140688647
 30
0.0
 11
808.2326317134032
 21
2123.976806906948
 31
0.0
  0
LINE
  5
10F
330
87
100
AcDbEntity
  8
P-SANR-FIXT
100
AcDbLine
 10
793.0845926177771
 20
2119.91790206436
 30
0.0
 11
793.0953199390978
 21
2119.877867156162
 31
0.0
  0
LINE
  5
110
330
87
100
AcDbEntity
  8
P-SANR-FIXT
100
AcDbLine
 10
809.1019649570634
 20
2124.20974404754
 30
0.0
 11
805.2196792805254
 21
2138.698631441876
 31
0.0
  0
LINE
  5
111
330
87
100
AcDbEntity
  8
P-SANR-FIXT
100
AcDbLine
 10
788.3329736975793
 20
2134.173852318104
 30
0.0
 11
792.2152593741172
 21
2119.684964923768
 31
0.0
  0
LINE
  5
112
330
87
100
AcDbEntity
  8
P-SANR-FIXT
100
AcDbLine
 10
809.9445148938682
 20
2110.474113540509
 30
0.0
 11
798.3534049783992
 21
2107.368284999279
 31
0.0
  0
LINE
  5
113
330
87
100
AcDbEntity
  8
P-SANR-FIXT
100
AcDbLine
 10
810.6313534734455
 20
2111.160952120087
 30
0.0
 11
797.4151660303974
 21
2107.619685367704
 31
0.0
  0
LINE
  5
114
330
87
100
AcDbEntity
  8
P-SANR-FIXT
100
AcDbLine
 10
809.3973174163631
 20
2119.630140688647
 30
0.0
 11
796.7279588023526
 21
2116.235396279402
 31
0.0
  0
LINE
  5
115
330
87
100
AcDbEntity
  8
P-SANR-FIXT
100
AcDbLine
 10
809.1019649570618
 20
2124.20974404754
 30
0.0
 11
792.2152593741157
 21
2119.684964923767
 31
0.0
  0
LINE
  5
116
330
87
100
AcDbEntity
  8
P-SANR-FIXT
100
AcDbLine
 10
805.219679280524
 20
2138.698631441876
 30
0.0
 11
788.3329736975777
 21
2134.173852318103
 31
0.0
  0
LINE
  5
117
330
87
100
AcDbEntity
  8
P-SANR-FIXT
100
AcDbLine
 10
1002.66640744318
 20
2063.437500000004
 30
0.0
 11
996.5399719116685
 21
2063.437500000004
 31
0.0
  0
LINE
  5
118
330
87
100
AcDbEntity
  8
P-SANR-FIXT
100
AcDbLine
 10
986.6664074431799
 20
1878.437499999995
 30
0.0
 11
1002.66640744318
 21
1878.437499999995
 31
0.0
  0
LINE
  5
119
330
87
100
AcDbEntity
  8
P-SANR-FIXT
100
AcDbLine
 10
1005.66640744318
 20
2030.9375
 30
0.0
 11
1002.66640744318
 21
2030.9375
 31
0.0
  0
LINE
  5
11A
330
87
100
AcDbEntity
  8
P-SANR-FIXT
100
AcDbLine
 10
1002.66640744318
 20
1910.937499999998
 30
0.0
 11
1005.66640744318
 21
1910.937499999998
 31
0.0
  0
LINE
  5
11B
330
87
100
AcDbEntity
  8
P-SANR-FIXT
100
AcDbLine
 10
718.6664074431965
 20
2030.93749999997
 30
0.0
 11
715.6664074431975
 21
2030.93749999997
 31
0.0
  0
LINE
  5
11C
330
87
100
AcDbEntity
  8
P-SANR-FIXT
100
AcDbLine
 10
715.6664074431975
 20
1910.937500000029
 30
0.0
 11
718.6664074431965
 21
1910.937500000029
 31
0.0
  0
LINE
  5
11D
330
87
100
AcDbEntity
  8
P-SANR-FIXT
100
AcDbLine
 10
728.4239746426444
 20
2063.437500000003
 30
0.0
 11
718.6664074431968
 21
2063.437500000003
 31
0.0
  0
LINE
  5
11E
330
87
100
AcDbEntity
  8
P-SANR-FIXT
100
AcDbLine
 10
718.6664074431968
 20
1878.437499999996
 30
0.0
 11
734.6664074431966
 21
1878.437499999996
 31
0.0
  0
LINE
  5
11F
330
87
100
AcDbEntity
  8
P-SANR-FIXT
100
AcDbLine
 10
734.6664074431986
 20
1902.937499999998
 30
0.0
 11
813.4719918948686
 21
1902.937499999998
 31
0.0
  0
LINE
  5
120
330
87
100
AcDbEntity
  8
P-SANR-FIXT
100
AcDbLine
 10
922.4055479638089
 20
1902.937499999998
 30
0.0
 11
986.6664074431797
 21
1902.937499999998
 31
0.0
  0
LINE
  5
121
330
87
100
AcDbEntity
  8
P-SANR-FIXT
100
AcDbLine
 10
971.672548785021
 20
2038.937499999998
 30
0.0
 11
900.5808144850888
 21
2038.937499999998
 31
0.0
  0
LINE
  5
122
330
87
100
AcDbEntity
  8
P-SANR-FIXT
100
AcDbLine
 10
764.9255695358817
 20
2038.937499999998
 30
0.0
 11
749.6602661013557
 21
2038.937499999998
 31
0.0
  0
LINE
  5
123
330
87
100
AcDbEntity
  8
P-SANR-FIXT
100
AcDbLine
 10
775.5594137151169
 20
2099.707739177386
 30
0.0
 11
776.8535089406295
 21
2094.878110045941
 31
0.0
  0
LINE
  5
124
330
87
100
AcDbEntity
  8
P-SANR-FIXT
100
AcDbLine
 10
834.8090585179734
 20
2110.407252752092
 30
0.0
 11
833.5149632924611
 21
2115.236881883537
 31
0.0
  0
LINE
  5
125
330
87
100
AcDbEntity
  8
P-SANR-FIXT
100
AcDbLine
 10
766.5564942506733
 20
2086.942652373265
 30
0.0
 11
767.3329513859808
 21
2084.044874894398
 31
0.0
  0
LINE
  5
126
330
87
100
AcDbEntity
  8
P-SANR-FIXT
100
AcDbLine
 10
848.4694881996569
 20
2105.790274788704
 30
0.0
 11
847.6942636589551
 21
2108.683452161876
 31
0.0
  0
LINE
  5
127
330
87
100
AcDbEntity
  8
P-SANR-FIXT
100
AcDbLine
 10
765.884062646547
 20
2083.656646326744
 30
0.0
 11
764.0121854940424
 21
2080.983328702529
 31
0.0
  0
LINE
  5
128
330
87
100
AcDbEntity
  8
P-SANR-FIXT
100
AcDbLine
 10
852.8773615126368
 20
2104.79468085196
 30
0.0
 11
849.9196095336962
 21
2106.173903250663
 31
0.0
  0
LINE
  5
129
330
87
100
AcDbEntity
  8
P-SANR-FIXT
100
AcDbLine
 10
764.0121854940424
 20
2080.983328702529
 30
0.0
 11
767.0927147122597
 21
2069.486637145941
 31
0.0
  0
LINE
  5
12A
330
87
100
AcDbEntity
  8
P-SANR-FIXT
100
AcDbLine
 10
855.9578907308544
 20
2093.297989295373
 30
0.0
 11
852.8773615126368
 21
2104.79468085196
 31
0.0
  0
LINE
  5
12B
330
87
100
AcDbEntity
  8
P-SANR-FIXT
100
AcDbLine
 10
873.6624453705529
 20
2065.8607249062
 30
0.0
 11
872.0876251213079
 21
2071.738034089171
 31
0.0
  0
LINE
  5
12C
330
87
100
AcDbEntity
  8
P-SANR-FIXT
100
AcDbLine
 10
763.903932576932
 20
2042.750301037689
 30
0.0
 11
764.9255695358817
 21
2038.937499999998
 31
0.0
  0
LINE
  5
12D
330
87
100
AcDbEntity
  8
P-SANR-FIXT
100
AcDbLine
 10
831.2934411376611
 20
1872.387000600231
 30
0.0
 11
832.7920573940081
 21
1866.794088590496
 31
0.0
  0
LINE
  5
12E
330
87
100
AcDbEntity
  8
P-SANR-FIXT
100
AcDbLine
 10
900.4068652342427
 20
1884.911421747672
 30
0.0
 11
898.9082489778958
 21
1890.504333757407
 31
0.0
  0
LINE
  5
12F
330
87
100
AcDbEntity
  8
P-SANR-FIXT
100
AcDbLine
 10
832.7920573940078
 20
1866.794088590496
 30
0.0
 11
810.2611203084162
 21
1850.424404602
 31
0.0
  0
LINE
  5
130
330
87
100
AcDbEntity
  8
P-SANR-FIXT
100
AcDbLine
 10
937.714673654365
 20
1880.990213074236
 30
0.0
 11
900.406865234243
 21
1884.911421747672
 31
0.0
  0
LINE
  5
131
330
87
100
AcDbEntity
  8
P-SANR-FIXT
100
AcDbLine
 10
946.0510632620193
 20
1879.215661519445
 30
0.0
 11
941.8782292885222
 21
1880.256065880254
 31
0.0
  0
LINE
  5
132
330
87
100
AcDbEntity
  8
P-SANR-FIXT
100
AcDbLine
 10
949.751987893444
 20
1877.480198133243
 30
0.0
 11
948.9310369483547
 21
1877.99318521825
 31
0.0
  0
LINE
  5
133
330
87
100
AcDbEntity
  8
P-SANR-FIXT
100
AcDbLine
 10
970.4932752201711
 20
1874.486093595242
 30
0.0
 11
953.1551143011684
 21
1876.308407739548
 31
0.0
  0
LINE
  5
134
330
87
100
AcDbEntity
  8
P-SANR-FIXT
100
AcDbLine
 10
786.840429498569
 20
1829.647920108333
 30
0.0
 11
777.308109962357
 21
1822.722284574739
 31
0.0
  0
LINE
  5
135
330
87
100
AcDbEntity
  8
P-SANR-FIXT
100
AcDbLine
 10
777.3081099623571
 20
1822.722284574739
 30
0.0
 11
778.6022051878697
 21
1817.892655443294
 31
0.0
  0
LINE
  5
136
330
87
100
AcDbEntity
  8
P-SANR-FIXT
100
AcDbLine
 10
971.7873704456838
 20
1869.656464463798
 30
0.0
 11
970.4932752201711
 21
1874.486093595242
 31
0.0
  0
LINE
  5
137
330
87
100
AcDbEntity
  8
P-SANR-FIXT
100
AcDbLine
 10
781.3607028245065
 20
1807.597802110807
 30
0.0
 11
784.0144684688182
 21
1797.693813894854
 31
0.0
  0
LINE
  5
138
330
87
100
AcDbEntity
  8
P-SANR-FIXT
100
AcDbLine
 10
977.1996337266322
 20
1849.457622915359
 30
0.0
 11
974.5458680823203
 21
1859.36161113131
 31
0.0
  0
LINE
  5
139
330
87
100
AcDbEntity
  8
P-SANR-FIXT
100
AcDbLine
 10
796.6570843907541
 20
1790.573234289607
 30
0.0
 11
797.461357825784
 21
1790.010075967617
 31
0.0
  0
LINE
  5
13A
330
87
100
AcDbEntity
  8
P-SANR-FIXT
100
AcDbLine
 10
957.7078582764684
 20
1811.014232986497
 30
0.0
 11
969.8110969705696
 21
1836.969712126577
 31
0.0
  0
LINE
  5
13B
330
87
100
AcDbEntity
  8
P-SANR-FIXT
100
AcDbLine
 10
874.1905418362605
 20
1687.178769812142
 30
0.0
 11
882.7637559360013
 21
1682.229022343836
 31
0.0
  0
LINE
  5
13C
330
87
100
AcDbEntity
  8
P-SANR-FIXT
100
AcDbLine
 10
949.4126379499476
 20
1700.087536455909
 30
0.0
 11
954.3623854182536
 21
1708.660750555651
 31
0.0
  0
LINE
  5
13D
330
87
100
AcDbEntity
  8
P-SANR-FIXT
100
AcDbLine
 10
951.9764789436798
 20
1721.480039187904
 30
0.0
 11
957.7078582764686
 21
1811.014232986498
 31
0.0
  0
LINE
  5
13E
330
87
100
AcDbEntity
  8
P-SANR-FIXT
100
AcDbLine
 10
830.8952680992138
 20
1757.961903455227
 30
0.0
 11
869.8471531381688
 21
1699.473552663404
 31
0.0
  0
LINE
  5
13F
330
87
100
AcDbEntity
  8
P-SANR-FIXT
100
AcDbLine
 10
868.8940425973495
 20
1699.218167463694
 30
0.0
 11
869.4116806875546
 21
1697.286315811116
 31
0.0
  0
LINE
  5
140
330
87
100
AcDbEntity
  8
P-SANR-FIXT
100
AcDbLine
 10
953.4472275747043
 20
1719.803572735035
 30
0.0
 11
952.9295894844992
 21
1721.735424387614
 31
0.0
  0
LINE
  5
141
330
87
100
AcDbEntity
  8
P-SANR-FIXT
100
AcDbLine
 10
871.3435323401327
 20
1697.803953901321
 30
0.0
 11
874.1905418362604
 21
1687.178769812141
 31
0.0
  0
LINE
  5
142
330
87
100
AcDbEntity
  8
P-SANR-FIXT
100
AcDbLine
 10
954.362385418254
 20
1708.660750555651
 30
0.0
 11
951.5153759221263
 21
1719.28593464483
 31
0.0
  0
LINE
  5
143
330
87
100
AcDbEntity
  8
P-SANR-FIXT
100
AcDbLine
 10
828.7052506866356
 20
1882.046258863123
 30
0.0
 11
831.2934411376611
 21
1872.387000600231
 31
0.0
  0
LINE
  5
144
330
87
100
AcDbEntity
  8
P-SANR-FIXT
100
AcDbLine
 10
898.9082489778958
 20
1890.504333757407
 30
0.0
 11
898.3943507458933
 21
1892.42222806916
 31
0.0
  0
LWPOLYLINE
  5
145
330
87
100
AcDbEntity
  8
P-SANR-FIXT
100
AcDbPolyline
 90
        5
 70
   128
 43
0.0
 10
922.4055479638082
 20
1902.937499999998
 10
917.9039918825562
 20
1901.992422402931
 10
913.4438295898904
 20
1900.868086536646
 10
909.0321963940281
 20
1899.566291098683
 10
905.8498393146701
 20
1898.506308664127
  0
LWPOLYLINE
  5
146
330
87
100
AcDbEntity
  8
P-SANR-FIXT
100
AcDbPolyline
 90
        3
 70
   128
 43
0.0
 10
905.8498393146706
 20
1898.506308664127
 10
902.0846199472549
 20
1895.333347176144
 10
898.3943507458933
 20
1892.42222806916
  0
LWPOLYLINE
  5
147
330
87
100
AcDbEntity
  8
P-SANR-FIXT
100
AcDbPolyline
 90
        3
 70
   128
 43
0.0
 10
898.3943507458933
 20
1892.42222806916
 10
902.0846199472549
 20
1895.333347176144
 10
905.8498393146706
 20
1898.506308664127
  0
LINE
  5
148
330
87
100
AcDbEntity
  8
P-SANR-FIXT
100
AcDbLine
 10
900.5849974516264
 20
2038.938172825127
 30
0.0
 11
873.6624453705527
 21
2065.8607249062
 31
0.0
  0
LWPOLYLINE
  5
149
330
87
100
AcDbEntity
  8
P-SANR-FIXT
100
AcDbPolyline
 90
        3
 70
   128
 43
0.0
 10
828.7052506866357
 20
1882.046258863123
 10
822.5605224595037
 20
1889.934793732947
 10
820.8693678151096
 20
1892.294817430332
  0
LWPOLYLINE
  5
14A
330
87
100
AcDbEntity
  8
P-SANR-FIXT
100
AcDbPolyline
 90
        3
 70
   128
 43
0.0
 10
819.0516801520328
 20
1894.831419256502
 10
816.7361666167028
 20
1898.062742206836
 10
813.4719918948688
 20
1902.937499999998
  0
LINE
  5
14B
330
87
100
AcDbEntity
  8
P-SANR-FIXT
100
AcDbLine
 10
948.2320078806187
 20
1680.213496368258
 30
0.0
 11
948.2468599731934
 21
1680.21747597447
 31
0.0
  0
LWPOLYLINE
  5
14C
330
87
100
AcDbEntity
  8
P-SANR-FIXT
100
AcDbPolyline
 90
       34
 70
   128
 43
0.0
 10
977.1996337266322
 20
1849.457622915359
 10
977.2682755140337
 20
1849.179298036267
 10
977.3257323687237
 20
1848.898450848016
 10
977.3719123719926
 20
1848.615530646197
 10
977.4067416456855
 20
1848.330990042779
 10
977.4301644703946
 20
1848.04528424203
 10
977.4421433745972
 20
1847.758870312283
 10
977.4426591946017
 20
1847.472206454727
 10
977.4317111052061
 20
1847.185751270383
 10
977.409316621018
 20
1846.899963026437
 10
977.375511568435
 20
1846.615298923117
 10
977.3303500283299
 20
1846.332214362263
 10
977.2739042495325
 20
1846.051162218782
 10
977.2062645332482
 20
1845.77259211615
 10
977.1275390885939
 20
1845.496949707107
 10
977.0378538594872
 20
1845.224675960706
 10
976.9373523231626
 20
1844.956206456859
 10
976.8261952606396
 20
1844.691970689503
 10
976.7045604995054
 20
1844.432391379498
 10
976.5726426294305
 20
1844.177883798365
 10
976.4306526908667
 20
1843.928855103942
 10
976.2788178374252
 20
1843.685703689018
 10
976.1173809724821
 20
1843.448818543986
 10
975.9466003605838
 20
1843.218578634547
 10
975.7667492142775
 20
1842.995352295439
 10
975.5781152570316
 20
1842.779496641187
 10
975.3810002629375
 20
1842.571356994789
 10
975.1757195739367
 20
1842.37126633528
 10
974.9626015953413
 20
1842.179544765032
 10
974.7419872704538
 20
1841.996498997658
 10
974.5142295351319
 20
1841.822421867338
 10
974.2796927531674
 20
1841.657591860347
 10
974.0387521333786
 20
1841.502272669533
 10
973.8660945498732
 20
1841.399113359972
  0
LWPOLYLINE
  5
14D
330
87
100
AcDbEntity
  8
P-SANR-FIXT
100
AcDbPolyline
 90
       34
 70
   128
 43
0.0
 10
790.930652858095
 20
1792.38170949163
 10
790.6440513426545
 20
1792.387709878811
 10
790.3579190293454
 20
1792.405166470101
 10
790.0727136688305
 20
1792.434051338679
 10
789.7888915288464
 20
1792.474318274917
 10
789.5069066642713
 20
1792.525902860306
 10
789.227210190735
 20
1792.588722570513
 10
788.9502495629299
 20
1792.662676907404
 10
788.6764678587787
 20
1792.747647559816
 10
788.4063030706044
 20
1792.84349859283
 10
788.1401874044358
 20
1792.95007666524
 10
787.8785465885705
 20
1793.067211274868
 10
787.6217991925004
 20
1793.194715031324
 10
787.3703559572891
 20
1793.332383955797
 10
787.1246191384747
 20
1793.479997807377
 10
786.8849818625463
 20
1793.637320435389
 10
786.6518274980253
 20
1793.80410015719
 10
786.4255290421581
 20
1793.980070160802
 10
786.2064485241996
 20
1794.164948931759
 10
785.994936426244
 20
1794.358440703463
 10
785.7913311225278
 20
1794.560235930359
 10
785.5959583381034
 20
1794.770011783129
 10
785.4091306277486
 20
1794.987432665159
 10
785.2311468759454
 20
1795.212150749418
 10
785.0622918187289
 20
1795.44380653491
 10
784.9028355881704
 20
1795.682029421794
 10
784.753033280223
 20
1795.926438304269
 10
784.6131245466234
 20
1796.176642180261
 10
784.4833332114997
 20
1796.432240776944
 10
784.3638669133008
 20
1796.692825191086
 10
784.2549167726192
 20
1796.957978543213
 10
784.1566570864381
 20
1797.227276644526
 10
784.0692450492948
 20
1797.50028867551
 10
784.0144684688181
 20
1797.693813894854
  0
LWPOLYLINE
  5
14E
330
87
100
AcDbEntity
  8
P-SANR-FIXT
100
AcDbPolyline
 90
       17
 70
   128
 43
0.0
 10
973.8660945498734
 20
1841.399113359972
 10
973.5239694447493
 20
1841.191920019712
 10
973.190403526943
 20
1840.971211056861
 10
972.8659304307656
 20
1840.73733955868
 10
972.5510692439542
 20
1840.490679669675
 10
972.2463236772407
 20
1840.23162599305
 10
971.9521812585229
 20
1839.960592959426
 10
971.6691125529237
 20
1839.67801416384
 10
971.3975704099876
 20
1839.384341672085
 10
971.1379892392168
 20
1839.080045297499
 10
970.8907843151107
 20
1838.76561184937
 10
970.6563511128134
 20
1838.44154435414
 10
970.435064675439
 20
1838.108361250669
 10
970.2272790140817
 20
1837.766595560848
 10
970.0333265414746
 20
1837.416794036875
 10
969.8535175401998
 20
1837.059516286567
 10
969.8110969705696
 20
1836.969712126577
  0
LWPOLYLINE
  5
14F
330
87
100
AcDbEntity
  8
P-SANR-FIXT
100
AcDbPolyline
 90
       17
 70
   128
 43
0.0
 10
796.6570843907541
 20
1790.573234289607
 10
796.3249229425581
 20
1790.796051344916
 10
795.9841168824048
 20
1791.005407255192
 10
795.6352114272891
 20
1791.200967095636
 10
795.2787647515095
 20
1791.382418012223
 10
794.9153470937102
 20
1791.549469722194
 10
794.5455398446179
 20
1791.701854978446
 10
794.1699346169435
 20
1791.839329997079
 10
793.7891322989263
 20
1791.961674847388
 10
793.4037420930419
 20
1792.068693803713
 10
793.0143805414071
 20
1792.160215658552
 10
792.6216705394456
 20
1792.23609399646
 10
792.2262403393869
 20
1792.296207428285
 10
791.8287225451966
 20
1792.340459785359
 10
791.4297531005465
 20
1792.368780273349
 10
791.0299702714393
 20
1792.381123585518
 10
790.930652858095
 20
1792.38170949163
  0
LINE
  5
150
330
87
100
AcDbEntity
  8
P-SANR-FIXT
100
AcDbLine
 10
778.6022051878697
 20
1817.892655443294
 30
0.0
 11
781.1384347872054
 21
1808.427317718913
 31
0.0
  0
LINE
  5
151
330
87
100
AcDbEntity
  8
P-SANR-FIXT
100
AcDbLine
 10
974.3236000450194
 20
1860.191126739417
 30
0.0
 11
971.7873704456838
 21
1869.656464463798
 31
0.0
  0
LINE
  5
152
330
87
100
AcDbEntity
  8
P-SANR-FIXT
100
AcDbLine
 10
785.9680639186509
 20
1809.721412944425
 30
0.0
 11
786.1903319559518
 21
1808.89189733632
 31
0.0
  0
LINE
  5
153
330
87
100
AcDbEntity
  8
P-SANR-FIXT
100
AcDbLine
 10
969.7162389508749
 20
1858.067515905798
 30
0.0
 11
969.4939709135741
 21
1858.897031513904
 31
0.0
  0
LWPOLYLINE
  5
154
330
87
100
AcDbEntity
  8
P-SANR-FIXT
100
AcDbPolyline
 90
        5
 70
   128
 43
0.0
 10
937.7146736543647
 20
1880.990213074236
 10
938.9173337870248
 20
1880.839434999898
 10
940.1130024050532
 20
1880.640683953979
 10
941.2997666937231
 20
1880.394277895755
 10
941.878229288522
 20
1880.256065880254
  0
LWPOLYLINE
  5
155
330
87
100
AcDbEntity
  8
P-SANR-FIXT
100
AcDbPolyline
 90
        9
 70
   128
 43
0.0
 10
946.0510632620193
 20
1879.215661519445
 10
946.4371429454699
 20
1879.11115723326
 10
946.8187347495293
 20
1878.991297469873
 10
947.1952282087126
 20
1878.856273979337
 10
947.5660210137997
 20
1878.706302770433
 10
947.9305199754007
 20
1878.541623765104
 10
948.2881419729324
 20
1878.362500414628
 10
948.6383148874876
 20
1878.169219278155
 10
948.9310369483547
 20
1877.99318521825
  0
LWPOLYLINE
  5
156
330
87
100
AcDbEntity
  8
P-SANR-FIXT
100
AcDbPolyline
 90
       13
 70
   128
 43
0.0
 10
949.751987893444
 20
1877.480198133243
 10
950.0266819543496
 20
1877.316095969034
 10
950.3077186255913
 20
1877.163109901654
 10
950.5946483084455
 20
1877.021484676175
 10
950.8870119766289
 20
1876.891446862747
 10
951.1843419106396
 20
1876.773204494131
 10
951.4861624460101
 20
1876.666946732892
 10
951.7919907342689
 20
1876.572843568782
 10
952.1013375153946
 20
1876.491045546789
 10
952.413707900528
 20
1876.421683526299
 10
952.7286021636882
 20
1876.364868471749
 10
953.0455165412282
 20
1876.320691275104
 10
953.1551143011682
 20
1876.308407739548
  0
LINE
  5
157
330
87
100
AcDbEntity
  8
P-SANR-FIXT
100
AcDbLine
 10
971.66640744318
 20
2059.431908445456
 30
0.0
 11
971.66640744318
 21
2038.932115859548
 31
0.0
  0
LINE
  5
158
330
87
100
AcDbEntity
  8
P-SANR-FIXT
100
AcDbLine
 10
749.6664074431968
 20
2038.932115859548
 30
0.0
 11
749.6664074431968
 21
2059.703654636506
 31
0.0
  0
LWPOLYLINE
  5
159
330
87
100
AcDbEntity
  8
P-SANR-FIXT
100
AcDbPolyline
 90
       38
 70
   128
 43
0.0
 10
834.8090585179734
 20
2110.407252752092
 10
834.8646717125882
 20
2110.215154236908
 10
834.9279223142993
 20
2110.025433314671
 10
834.9987091356368
 20
2109.838393498387
 10
835.0769189327872
 20
2109.654334011858
 10
835.1624265867588
 20
2109.473549311003
 10
835.2550953035457
 20
2109.296328612776
 10
835.3547768329695
 20
2109.122955432489
 10
835.4613117058475
 20
2108.953707130247
 10
835.5745294891093
 20
2108.788854467228
 10
835.6942490584533
 20
2108.628661172526
 10
835.8202788881076
 20
2108.473383521242
 10
835.9524173572292
 20
2108.323269924492
 10
836.0904530724564
 20
2108.178560532009
 10
836.2341652060903
 20
2108.039486847951
 10
836.3833238493739
 20
2107.906271360544
 10
836.5376903802973
 20
2107.779127186153
 10
836.6970178453403
 20
2107.658257728331
 10
836.8610513545471
 20
2107.543856352429
 10
837.0295284892948
 20
2107.436106076242
 10
837.2021797221078
 20
2107.335179277228
 10
837.3787288478441
 20
2107.241237416734
 10
837.558893425564
 20
2107.154430781699
 10
837.742385230376
 20
2107.07489824422
 10
837.9289107145359
 20
2107.002767039391
 10
838.1181714770585
 20
2106.938152561752
 10
838.3098647410973
 20
2106.881158180686
 10
838.5036838383223
 20
2106.831875075041
 10
838.699318699524
 20
2106.790382087276
 10
838.8964563506572
 20
2106.756745597317
 10
839.0947814135346
 20
2106.731019416376
 10
839.2939766103621
 20
2106.713244700852
 10
839.4937232713177
 20
2106.703449886499
 10
839.6937018443543
 20
2106.701650642929
 10
839.8935924064144
 20
2106.707849848551
 10
840.0930751752401
 20
2106.722037585956
 10
840.2918310209555
 20
2106.744191157792
 10
840.3574637947356
 20
2106.75417792904
  0
LINE
  5
15A
330
87
100
AcDbEntity
  8
P-SANR-FIXT
100
AcDbLine
 10
840.8157639151182
 20
2106.842787503841
 30
0.0
 11
840.8805662139082
 21
2106.858029112295
 31
0.0
  0
LWPOLYLINE
  5
15B
330
87
100
AcDbEntity
  8
P-SANR-FIXT
100
AcDbPolyline
 90
       38
 70
   128
 43
0.0
 10
773.8932941148929
 20
2088.94678118945
 10
774.07089377493
 20
2089.022246103796
 10
774.2516784757854
 20
2089.107753757768
 10
774.4288991740127
 20
2089.200422474555
 10
774.6022723542997
 20
2089.300104003978
 10
774.7715206565422
 20
2089.406638876857
 10
774.9363733195612
 20
2089.519856660118
 10
775.096566614262
 20
2089.639576229462
 10
775.2518442655466
 20
2089.765606059117
 10
775.4019578622966
 20
2089.897744528238
 10
775.5466672547798
 20
2090.035780243466
 10
775.6857409388382
 20
2090.179492377099
 10
775.8189564262443
 20
2090.328651020383
 10
775.9461006006362
 20
2090.483017551306
 10
776.0669700584577
 20
2090.64234501635
 10
776.1813714343603
 20
2090.806378525556
 10
776.2891217105468
 20
2090.974855660304
 10
776.3900485095608
 20
2091.147506893117
 10
776.4839903700542
 20
2091.324056018853
 10
776.5707970050895
 20
2091.504220596573
 10
776.6503295425684
 20
2091.687712401386
 10
776.7224607473974
 20
2091.874237885545
 10
776.7870752250358
 20
2092.063498648068
 10
776.8440696061028
 20
2092.255191912107
 10
776.8933527117472
 20
2092.449011009332
 10
776.9348456995129
 20
2092.644645870533
 10
776.968482189471
 20
2092.841783521667
 10
776.9942083704129
 20
2093.040108584544
 10
777.0119830859369
 20
2093.239303781372
 10
777.0217779002901
 20
2093.439050442327
 10
777.023577143859
 20
2093.639029015363
 10
777.0173779382377
 20
2093.838919577423
 10
777.0031902008326
 20
2094.038402346249
 10
776.9810366289971
 20
2094.237158191965
 10
776.9509526637204
 20
2094.434869147615
 10
776.9129864329289
 20
2094.631218917849
 10
776.8671986744934
 20
2094.825893384918
 10
776.8535089406295
 20
2094.878110045941
  0
LINE
  5
15C
330
87
100
AcDbEntity
  8
P-SANR-FIXT
100
AcDbLine
 10
916.4706792977204
 20
1665.378860727694
 30
0.0
 11
918.2787302969435
 21
1658.631122535917
 31
0.0
  0
LINE
  5
15D
330
87
100
AcDbEntity
  8
P-SANR-FIXT
100
AcDbLine
 10
930.4547178425782
 20
1661.893668565821
 30
0.0
 11
928.6466668433551
 21
1668.641406757598
 31
0.0
  0
LINE
  5
15E
330
87
100
AcDbEntity
  8
P-SANR-FIXT
100
AcDbLine
 10
832.1493702147455
 20
1737.826717421557
 30
0.0
 11
829.8199988088228
 21
1746.520049858159
 31
0.0
  0
LINE
  5
15F
330
87
100
AcDbEntity
  8
P-SANR-FIXT
100
AcDbLine
 10
818.2288888933552
 20
1743.414221316929
 30
0.0
 11
820.5582602992777
 21
1734.720888880328
 31
0.0
  0
LINE
  5
160
330
87
100
AcDbEntity
  8
P-SANR-FIXT
100
AcDbLine
 10
828.8540729825339
 20
1746.261230813056
 30
0.0
 11
827.9482063246751
 21
1749.641971205068
 31
0.0
  0
LINE
  5
161
330
87
100
AcDbEntity
  8
P-SANR-FIXT
100
AcDbLine
 10
818.2889480617854
 20
1747.053780754043
 30
0.0
 11
819.1948147196441
 21
1743.673040362031
 31
0.0
  0
LINE
  5
162
330
87
100
AcDbEntity
  8
P-SANR-FIXT
100
AcDbLine
 10
831.3289467166869
 20
1750.547837862927
 30
0.0
 11
830.1642610137253
 21
1754.894504081228
 31
0.0
  0
LINE
  5
163
330
87
100
AcDbEntity
  8
P-SANR-FIXT
100
AcDbLine
 10
813.7435219668123
 20
1750.494580314485
 30
0.0
 11
814.9082076697736
 21
1746.147914096184
 31
0.0
  0
LINE
  5
164
330
87
100
AcDbEntity
  8
P-SANR-FIXT
100
AcDbLine
 10
828.2324093611475
 20
1754.376865991023
 30
0.0
 11
827.8441807934935
 21
1755.825754730456
 31
0.0
  0
LINE
  5
165
330
87
100
AcDbEntity
  8
P-SANR-FIXT
100
AcDbLine
 10
815.2871450517366
 20
1752.461107144124
 30
0.0
 11
815.6753736193904
 21
1751.01221840469
 31
0.0
  0
LINE
  5
166
330
87
100
AcDbEntity
  8
P-SANR-FIXT
100
AcDbLine
 10
831.2249211855053
 20
1756.731621388315
 30
0.0
 11
830.895268099214
 21
1757.961903455226
 31
0.0
  0
LINE
  5
167
330
87
100
AcDbEntity
  8
P-SANR-FIXT
100
AcDbLine
 10
810.35349038911
 20
1757.350795444
 30
0.0
 11
811.906404659725
 21
1751.555240486265
 31
0.0
  0
LINE
  5
168
330
87
100
AcDbEntity
  8
P-SANR-FIXT
100
AcDbLine
 10
783.1960730247267
 20
1843.248843629606
 30
0.0
 11
786.840429498569
 21
1829.647920108333
 31
0.0
  0
LINE
  5
169
330
87
100
AcDbEntity
  8
P-SANR-FIXT
100
AcDbLine
 10
797.4701385316384
 20
1789.977305927243
 30
0.0
 11
806.4897870839528
 21
1756.315519263589
 31
0.0
  0
LINE
  5
16A
330
87
100
AcDbEntity
  8
P-SANR-FIXT
100
AcDbLine
 10
804.4464412030867
 20
1848.942862621861
 30
0.0
 11
802.8935269324716
 21
1854.738417579595
 31
0.0
  0
LINE
  5
16B
330
87
100
AcDbEntity
  8
P-SANR-FIXT
100
AcDbLine
 10
787.4387137118461
 20
1850.597312857955
 30
0.0
 11
788.9916279824611
 21
1844.801757900221
 31
0.0
  0
LINE
  5
16C
330
87
100
AcDbEntity
  8
P-SANR-FIXT
100
AcDbLine
 10
986.6664074431783
 20
1878.437499999995
 30
0.0
 11
986.6664074431783
 21
2063.085509573489
 31
0.0
  0
LINE
  5
16D
330
87
100
AcDbEntity
  8
P-SANR-FIXT
100
AcDbLine
 10
1002.666407443178
 20
1878.437499999995
 30
0.0
 11
1002.666407443178
 21
2063.437500000002
 31
0.0
  0
LINE
  5
16E
330
87
100
AcDbEntity
  8
P-SANR-FIXT
100
AcDbLine
 10
1005.666407443178
 20
1910.937499999998
 30
0.0
 11
1005.666407443178
 21
2030.937499999999
 31
0.0
  0
LINE
  5
16F
330
87
100
AcDbEntity
  8
P-SANR-FIXT
100
AcDbLine
 10
715.666407443196
 20
1910.937500000028
 30
0.0
 11
715.666407443196
 21
2030.93749999997
 31
0.0
  0
LINE
  5
170
330
87
100
AcDbEntity
  8
P-SANR-FIXT
100
AcDbLine
 10
718.6664074431953
 20
1878.437499999995
 30
0.0
 11
718.6664074431956
 21
2063.437500000002
 31
0.0
  0
LINE
  5
171
330
87
100
AcDbEntity
  8
P-SANR-FIXT
100
AcDbLine
 10
734.6664074431954
 20
1878.437499999995
 30
0.0
 11
734.6664074431954
 21
2063.19999036923
 31
0.0
  0
LINE
  5
172
330
87
100
AcDbEntity
  8
P-SANR-FIXT
100
AcDbLine
 10
771.8955687480273
 20
2015.144320143416
 30
0.0
 11
767.6637989595369
 21
2030.937499999998
 31
0.0
  0
LINE
  5
173
330
87
100
AcDbEntity
  8
P-SANR-FIXT
100
AcDbLine
 10
747.3549849836493
 20
2030.937499999998
 30
0.0
 11
747.3549849836492
 21
2012.243002811862
 31
0.0
  0
SPLINE
  5
174
330
87
100
AcDbEntity
  8
P-SANR-FIXT
100
AcDbSpline
210
0.0
220
0.0
230
1.0
 70
     8
 71
     3
 72
     9
 73
     5
 74
     0
 42
0.000000001
 43
0.0000000001
 40
0.0
 40
0.0
 40
0.0
 40
0.0
 40
0.5
 40
1.0
 40
1.0
 40
1.0
 40
1.0
 10
747.3549849836492
 20
2012.243002811862
 30
0.0
 10
751.398591245594
 20
2012.371507138828
 30
0.0
 10
759.5763756535974
 20
2012.690609526895
 30
0.0
 10
767.9353038298286
 20
2013.133899383232
 30
0.0
 10
772.1600538600011
 20
2013.386591178468
 30
0.0
  0
SPLINE
  5
175
330
87
100
AcDbEntity
  8
P-SANR-FIXT
100
AcDbSpline
210
0.0
220
0.0
230
1.0
 70
     8
 71
     3
 72
     9
 73
     5
 74
     0
 42
0.000000001
 43
0.0000000001
 40
0.0
 40
0.0
 40
0.0
 40
0.0
 40
0.5
 40
1.0
 40
1.0
 40
1.0
 40
1.0
 10
772.1600538600011
 20
2013.386591178468
 30
0.0
 10
772.1491994240351
 20
2013.682802903772
 30
0.0
 10
772.0942641360734
 20
2014.271969456567
 30
0.0
 10
771.9728760160526
 20
2014.854622213738
 30
0.0
 10
771.8955687480275
 20
2015.144320143416
 30
0.0
  0
LINE
  5
176
330
87
100
AcDbEntity
  8
P-SANR-FIXT
100
AcDbLine
 10
902.9288160272612
 20
2030.937499999998
 30
0.0
 11
942.6571712823967
 21
1991.209144744862
 31
0.0
  0
LWPOLYLINE
  5
177
330
87
100
AcDbEntity
  8
P-SANR-FIXT
100
AcDbPolyline
 90
        3
 70
   128
 43
0.0
 10
942.6571712823969
 20
1991.209144744862
 10
958.3166119326946
 20
1996.442498455207
 10
973.9778299027245
 20
2001.670629496074
  0
LINE
  5
178
330
87
100
AcDbEntity
  8
P-SANR-FIXT
100
AcDbLine
 10
973.9778299027245
 20
2001.670629496074
 30
0.0
 11
973.9778299027245
 21
2030.937499999998
 31
0.0
  0
SPLINE
  5
179
330
87
100
AcDbEntity
  8
P-SANR-FIXT
100
AcDbSpline
210
0.0
220
0.0
230
1.0
 70
     8
 71
     3
 72
     9
 73
     5
 74
     0
 42
0.000000001
 43
0.0000000001
 40
0.0
 40
0.0
 40
0.0
 40
0.0
 40
0.5
 40
1.0
 40
1.0
 40
1.0
 40
1.0
 10
809.2316428526769
 20
1910.937499999997
 30
0.0
 10
806.5915515641085
 20
1915.291141258967
 30
0.0
 10
801.5906989497992
 20
1924.144958508067
 30
0.0
 10
797.1485062611457
 20
1933.291845219483
 30
0.0
 10
795.0670748982326
 20
1937.93855594077
 30
0.0
  0
SPLINE
  5
17A
330
87
100
AcDbEntity
  8
P-SANR-FIXT
100
AcDbSpline
210
0.0
220
0.0
230
1.0
 70
     8
 71
     3
 72
    10
 73
     6
 74
     0
 42
0.000000001
 43
0.0000000001
 40
0.0
 40
0.0
 40
0.0
 40
0.0
 40
0.4
 40
0.7
 40
1.0
 40
1.0
 40
1.0
 40
1.0
 10
795.0670748982326
 20
1937.93855594077
 30
0.0
 10
794.5687480036642
 20
1939.041517362594
 30
0.0
 10
793.2992275462237
 20
1940.722658770915
 30
0.0
 10
790.6867468874414
 20
1942.263412024221
 30
0.0
 10
788.9378543462882
 20
1942.622866663008
 30
0.0
 10
788.0335808590289
 20
1942.659454305531
 30
0.0
  0
SPLINE
  5
17B
330
87
100
AcDbEntity
  8
P-SANR-FIXT
100
AcDbSpline
210
0.0
220
0.0
230
1.0
 70
     8
 71
     3
 72
     9
 73
     5
 74
     0
 42
0.000000001
 43
0.0000000001
 40
0.0
 40
0.0
 40
0.0
 40
0.0
 40
0.5
 40
1.0
 40
1.0
 40
1.0
 40
1.0
 10
788.0335808590289
 20
1942.659454305531
 30
0.0
 10
787.5692487474577
 20
1942.677866754424
 30
0.0
 10
786.6575288733632
 20
1942.790936622346
 30
0.0
 10
785.7796976973645
 20
1943.05649643054
 30
0.0
 10
785.3492542838891
 20
1943.227398819706
 30
0.0
  0
SPLINE
  5
17C
330
87
100
AcDbEntity
  8
P-SANR-FIXT
100
AcDbSpline
210
0.0
220
0.0
230
1.0
 70
     8
 71
     3
 72
    25
 73
    21
 74
     0
 42
0.000000001
 43
0.0000000001
 40
0.0
 40
0.0
 40
0.0
 40
0.0
 40
0.125
 40
0.1875
 40
0.25
 40
0.3125
 40
0.375
 40
0.4375
 40
0.46875
 40
0.5
 40
0.53125
 40
0.5625
 40
0.625
 40
0.6875
 40
0.71875
 40
0.75
 40
0.78125
 40
0.8125
 40
0.875
 40
1.0
 40
1.0
 40
1.0
 40
1.0
 10
785.3492542838891
 20
1943.227398819706
 30
0.0
 10
783.2151638544583
 20
1942.646175016158
 30
0.0
 10
780.0318604991034
 20
1941.7677598318
 30
0.0
 10
775.8261562973333
 20
1940.577052008983
 30
0.0
 10
772.6851568931157
 20
1939.686934591226
 30
0.0
 10
769.5817217916422
 20
1938.749101671387
 30
0.0
 10
766.5115028756149
 20
1937.772348124514
 30
0.0
 10
763.9508333846707
 20
1936.98912299253
 30
0.0
 10
761.8880582147836
 20
1936.406042805461
 30
0.0
 10
760.3286857846439
 20
1936.006310809877
 30
0.0
 10
758.7591551014095
 20
1935.619217236791
 30
0.0
 10
756.6607927205327
 20
1935.092426123882
 30
0.0
 10
754.0242938810348
 20
1934.462854873824
 30
0.0
 10
751.3721609202677
 20
1933.94556472227
 30
0.0
 10
749.2417707117448
 20
1933.644921478667
 30
0.0
 10
747.639978062675
 20
1933.492428958218
 30
0.0
 10
746.034025890741
 20
1933.404973544305
 30
0.0
 10
743.8867119340119
 20
1933.348816271286
 30
0.0
 10
740.1133657584428
 20
1933.426076293286
 30
0.0
 10
736.8523177901474
 20
1933.787963501041
 30
0.0
 10
734.6664074431971
 20
1934.161211702469
 30
0.0
  0
SPLINE
  5
17D
330
87
100
AcDbEntity
  8
P-SANR-FIXT
100
AcDbSpline
210
0.0
220
0.0
230
1.0
 70
     8
 71
     3
 72
     9
 73
     5
 74
     0
 42
0.000000001
 43
0.0000000001
 40
0.0
 40
0.0
 40
0.0
 40
0.0
 40
0.5
 40
1.0
 40
1.0
 40
1.0
 40
1.0
 10
986.6664074431783
 20
1903.214634061206
 30
0.0
 10
981.2058227179605
 20
1903.423700837117
 30
0.0
 10
970.2607771141293
 20
1904.009327228254
 30
0.0
 10
959.2679792035069
 20
1904.575046880836
 30
0.0
 10
953.759642171498
 20
1904.801074955546
 30
0.0
  0
SPLINE
  5
17E
330
87
100
AcDbEntity
  8
P-SANR-FIXT
100
AcDbSpline
210
0.0
220
0.0
230
1.0
 70
     8
 71
     3
 72
    26
 73
    22
 74
     0
 42
0.000000001
 43
0.0000000001
 40
0.0
 40
0.0
 40
0.0
 40
0.0
 40
0.25
 40
0.3125
 40
0.375
 40
0.4375
 40
0.46875
 40
0.5
 40
0.53125
 40
0.5625
 40
0.625
 40
0.6875
 40
0.71875
 40
0.734375
 40
0.75
 40
0.765625
 40
0.78125
 40
0.8125
 40
0.875
 40
0.9375
 40
0.9583333333333328
 40
0.9583333333333328
 40
0.9583333333333328
 40
0.9583333333333328
 10
953.759642171498
 20
1904.801074955546
 30
0.0
 10
950.9996842008419
 20
1905.069946933427
 30
0.0
 10
947.5488946390477
 20
1905.291908631784
 30
0.0
 10
943.4009009359821
 20
1905.335927337613
 30
0.0
 10
941.3244632771538
 20
1905.31655859485
 30
0.0
 10
939.5957896386246
 20
1905.258563569242
 30
0.0
 10
938.2134122140323
 20
1905.186765130179
 30
0.0
 10
937.1814618282719
 20
1905.116414270532
 30
0.0
 10
936.1375782467616
 20
1905.0434508605
 30
0.0
 10
934.7201299989739
 20
1904.95115343299
 30
0.0
 10
932.9354118246524
 20
1904.818042660646
 30
0.0
 10
931.1960899101816
 20
1904.619840530121
 30
0.0
 10
930.0374616906852
 20
1904.431403482478
 30
0.0
 10
929.3967267088831
 20
1904.309348306434
 30
0.0
 10
928.9290889085759
 20
1904.210111001962
 30
0.0
 10
928.4714586182561
 20
1904.106059242721
 30
0.0
 10
927.8691191185405
 20
1903.965371467883
 30
0.0
 10
926.8391208475525
 20
1903.714975267195
 30
0.0
 10
925.4347407939214
 20
1903.365361033317
 30
0.0
 10
924.2078609750537
 20
1903.108355988477
 30
0.0
 10
923.5386934396967
 20
1903.016102212972
 30
0.0
 10
923.3733960386134
 20
1902.997118214252
 30
0.0
  0
SPLINE
  5
17F
330
87
100
AcDbEntity
  8
P-SANR-FIXT
100
AcDbSpline
210
0.0
220
0.0
230
1.0
 70
     8
 71
     3
 72
    14
 73
    10
 74
     0
 42
0.000000001
 43
0.0000000001
 40
0.0
 40
0.0
 40
0.0
 40
0.0
 40
0.2857142857142857
 40
0.4285714285714286
 40
0.5714285714285714
 40
0.6785714285714287
 40
0.7321428571428572
 40
0.7857142857142857
 40
1.0
 40
1.0
 40
1.0
 40
1.0
 10
813.471991894867
 20
1902.937499999997
 30
0.0
 10
813.470686368295
 20
1902.937499999999
 30
0.0
 10
813.2626456053724
 20
1903.415343747827
 30
0.0
 10
812.5974131399201
 20
1904.816199740139
 30
0.0
 10
811.9871829100903
 20
1906.037637680442
 30
0.0
 10
811.4267410529752
 20
1907.096561765973
 30
0.0
 10
811.0036596610996
 20
1907.879661162187
 30
0.0
 10
810.3342504079707
 20
1909.077958929309
 30
0.0
 10
809.7355470294798
 20
1910.119123482696
 30
0.0
 10
809.2316428526769
 20
1910.937499999997
 30
0.0
  0
SPLINE
  5
180
330
87
100
AcDbEntity
  8
P-SANR-FIXT
100
AcDbSpline
210
0.0
220
0.0
230
1.0
 70
     8
 71
     3
 72
     9
 73
     5
 74
     0
 42
0.000000001
 43
0.0000000001
 40
0.4816797078804676
 40
0.4816797078804676
 40
0.4816797078804676
 40
0.4816797078804676
 40
0.5
 40
0.5000493436579364
 40
0.5000493436579364
 40
0.5000493436579364
 40
0.5000493436579364
 10
749.6541870099926
 20
2038.923531157225
 30
0.0
 10
749.6584152458719
 20
2038.932782817247
 30
0.0
 10
749.6604006669114
 20
2038.937476570469
 30
0.0
 10
749.6602653144537
 20
2038.937500056547
 30
0.0
 10
749.660264935574
 20
2038.937500085937
 30
0.0
  0
SPLINE
  5
181
330
87
100
AcDbEntity
  8
P-SANR-FIXT
100
AcDbSpline
210
0.0
220
0.0
230
1.0
 70
     8
 71
     3
 72
    27
 73
    23
 74
     0
 42
0.000000001
 43
0.0000000001
 40
0.5000500384856518
 40
0.5000500384856518
 40
0.5000500384856518
 40
0.5000500384856518
 40
0.5277777777777778
 40
0.5555555555555556
 40
0.5833333333333334
 40
0.6111111111111112
 40
0.6388888888888889
 40
0.6666666666666666
 40
0.6805555555555556
 40
0.6944444444444445
 40
0.7222222222222223
 40
0.75
 40
0.7638888888888889
 40
0.7777777777777778
 40
0.7916666666666668
 40
0.8055555555555555
 40
0.8333333333333332
 40
0.861111111111111
 40
0.8888888888888889
 40
0.9166666666666666
 40
0.9444444444444444
 40
1.0
 40
1.0
 40
1.0
 40
1.0
 10
749.6602649195596
 20
2038.937500087159
 30
0.0
 10
749.6600517730975
 20
2038.937516069331
 30
0.0
 10
749.6499525141362
 20
2038.916248281808
 30
0.0
 10
749.6057989971082
 20
2038.821676244489
 30
0.0
 10
749.5244528251866
 20
2038.666181409493
 30
0.0
 10
749.4076506737448
 20
2038.450978992452
 30
0.0
 10
749.2669685362158
 20
2038.178962422449
 30
0.0
 10
749.141000908548
 20
2037.907606005694
 30
0.0
 10
749.0331049065773
 20
2037.666168860128
 30
0.0
 10
748.9135525461425
 20
2037.409402782966
 30
0.0
 10
748.751155230763
 20
2037.060169412564
 30
0.0
 10
748.5830436644462
 20
2036.674513570621
 30
0.0
 10
748.4521141485697
 20
2036.344620971565
 30
0.0
 10
748.3591537102993
 20
2036.086319941542
 30
0.0
 10
748.2666594231957
 20
2035.81815945648
 30
0.0
 10
748.1378478583096
 20
2035.449177966085
 30
0.0
 10
747.976080170265
 20
2034.966542196328
 30
0.0
 10
747.7950866489483
 20
2034.355440141491
 30
0.0
 10
747.6481011743961
 20
2033.713655812167
 30
0.0
 10
747.5375924644091
 20
2033.045062571055
 30
0.0
 10
747.420170244105
 20
2032.126876612474
 30
0.0
 10
747.3710296659425
 20
2031.415003624921
 30
0.0
 10
747.3549849836492
 20
2030.937499999998
 30
0.0
  0
SPLINE
  5
182
330
87
100
AcDbEntity
  8
P-SANR-FIXT
100
AcDbSpline
210
0.0
220
0.0
230
1.0
 70
     8
 71
     3
 72
    17
 73
    13
 74
     0
 42
0.000000001
 43
0.0000000001
 40
0.0
 40
0.0
 40
0.0
 40
0.0
 40
0.1428571428571428
 40
0.2857142857142857
 40
0.3571428571428571
 40
0.4285714285714286
 40
0.5
 40
0.5714285714285714
 40
0.6428571428571428
 40
0.7142857142857144
 40
0.8571428571428571
 40
1.0
 40
1.0
 40
1.0
 40
1.0
 10
767.6637989595372
 20
2030.937499999998
 30
0.0
 10
767.5013038645333
 20
2031.530688471697
 30
0.0
 10
767.1691783000975
 20
2032.714710227069
 30
0.0
 10
766.7231924135197
 20
2034.113234821369
 30
0.0
 10
766.3712892365707
 20
2035.149753125668
 30
0.0
 10
766.1142991001636
 20
2035.87723399292
 30
0.0
 10
765.8688446208189
 20
2036.547036720973
 30
0.0
 10
765.6406757618295
 20
2037.150211131474
 30
0.0
 10
765.4352692559138
 20
2037.679574884939
 30
0.0
 10
765.1982441525222
 20
2038.275028321249
 30
0.0
 10
764.984277929498
 20
2038.794857717803
 30
0.0
 10
764.9275454538205
 20
2038.937499999997
 30
0.0
 10
764.9255695358804
 20
2038.937499999997
 30
0.0
  0
SPLINE
  5
183
330
87
100
AcDbEntity
  8
P-SANR-FIXT
100
AcDbSpline
210
0.0
220
0.0
230
1.0
 70
     8
 71
     3
 72
     9
 73
     5
 74
     0
 42
0.000000001
 43
0.0000000001
 40
0.4822900313158833
 40
0.4822900313158833
 40
0.4822900313158833
 40
0.4822900313158833
 40
0.5
 40
0.5002036994221885
 40
0.5002036994221885
 40
0.5002036994221885
 40
0.5002036994221885
 10
900.5798804238549
 20
2038.923432169269
 30
0.0
 10
900.5805454182947
 20
2038.932693685671
 30
0.0
 10
900.5808025870155
 20
2038.937446322178
 30
0.0
 10
900.5808144105328
 20
2038.937499997603
 30
0.0
 10
900.5808145129945
 20
2038.937500000407
 30
0.0
  0
SPLINE
  5
184
330
87
100
AcDbEntity
  8
P-SANR-FIXT
100
AcDbSpline
210
0.0
220
0.0
230
1.0
 70
     8
 71
     3
 72
    31
 73
    27
 74
     0
 42
0.000000001
 43
0.0000000001
 40
0.5002045062192809
 40
0.5002045062192809
 40
0.5002045062192809
 40
0.5002045062192809
 40
0.5555555555555556
 40
0.5833333333333334
 40
0.6111111111111112
 40
0.6388888888888889
 40
0.6527777777777777
 40
0.6666666666666666
 40
0.6805555555555556
 40
0.6944444444444445
 40
0.7222222222222223
 40
0.75
 40
0.7638888888888889
 40
0.7708333333333333
 40
0.7777777777777778
 40
0.7847222222222224
 40
0.7916666666666668
 40
0.8055555555555555
 40
0.8333333333333332
 40
0.861111111111111
 40
0.875
 40
0.8888888888888889
 40
0.9027777777777776
 40
0.9166666666666666
 40
0.9444444444444444
 40
1.0
 40
1.0
 40
1.0
 40
1.0
 10
900.5808145142106
 20
2038.937500000412
 30
0.0
 10
900.5808422872098
 20
2038.937499454684
 30
0.0
 10
900.577336970238
 20
2038.870126770258
 30
0.0
 10
900.549767955237
 20
2038.647919280247
 30
0.0
 10
900.5167001906631
 20
2038.416064053707
 30
0.0
 10
900.4908270135262
 20
2038.170379871258
 30
0.0
 10
900.4753761976887
 20
2037.943529394667
 30
0.0
 10
900.4697150279309
 20
2037.75870696077
 30
0.0
 10
900.4636938649717
 20
2037.559111924182
 30
0.0
 10
900.4492572044414
 20
2037.273448784929
 30
0.0
 10
900.4318295369508
 20
2036.881710794919
 30
0.0
 10
900.4350851014512
 20
2036.44933091592
 30
0.0
 10
900.4596523684895
 20
2036.129073626323
 30
0.0
 10
900.4814386377409
 20
2035.941549748761
 30
0.0
 10
900.5025805824796
 20
2035.799023613517
 30
0.0
 10
900.5267567247944
 20
2035.653841692984
 30
0.0
 10
900.5604800880824
 20
2035.455832376264
 30
0.0
 10
900.6261198979725
 20
2035.09944469385
 30
0.0
 10
900.7427614786335
 20
2034.567566758116
 30
0.0
 10
900.9034453398122
 20
2034.023952090762
 30
0.0
 10
901.0659388821435
 20
2033.593897057452
 30
0.0
 10
901.2075761246284
 20
2033.277821987926
 30
0.0
 10
901.3676322683004
 20
2032.96776084928
 30
0.0
 10
901.601177869643
 20
2032.558569731226
 30
0.0
 10
902.0655802612944
 20
2031.859028636367
 30
0.0
 10
902.5582368107706
 20
2031.294148949779
 30
0.0
 10
902.9288160272612
 20
2030.937499999998
 30
0.0
  0
SPLINE
  5
185
330
87
100
AcDbEntity
  8
P-SANR-FIXT
100
AcDbSpline
210
0.0
220
0.0
230
1.0
 70
     8
 71
     3
 72
    27
 73
    23
 74
     0
 42
0.000000001
 43
0.0000000001
 40
0.0
 40
0.0
 40
0.0
 40
0.0
 40
0.0555555555555556
 40
0.0833333333333333
 40
0.1111111111111111
 40
0.1388888888888889
 40
0.1666666666666666
 40
0.1944444444444444
 40
0.2083333333333333
 40
0.2222222222222222
 40
0.2361111111111111
 40
0.25
 40
0.2777777777777778
 40
0.3055555555555556
 40
0.3194444444444444
 40
0.3333333333333333
 40
0.3472222222222222
 40
0.3611111111111111
 40
0.3888888888888888
 40
0.4166666666666666
 40
0.4444444444444445
 40
0.4999499615143487
 40
0.4999499615143487
 40
0.4999499615143487
 40
0.4999499615143487
 10
973.9778299027246
 20
2030.937499999998
 30
0.0
 10
973.9617852204313
 20
2031.415003624921
 30
0.0
 10
973.9126446423135
 20
2032.126876612477
 30
0.0
 10
973.7952224218899
 20
2033.045062571051
 30
0.0
 10
973.6847137122618
 20
2033.713655812182
 30
0.0
 10
973.5377282363643
 20
2034.355440141434
 30
0.0
 10
973.3567347200695
 20
2034.966542196543
 30
0.0
 10
973.1949670164064
 20
2035.449177965453
 30
0.0
 10
973.0661554833702
 20
2035.818159457574
 30
0.0
 10
972.9736610990014
 20
2036.086319937364
 30
0.0
 10
972.8807010259041
 20
2036.344620987184
 30
0.0
 10
972.7497696921247
 20
2036.674513487688
 30
0.0
 10
972.5816719833352
 20
2037.060170080868
 30
0.0
 10
972.4192268868605
 20
2037.409400860987
 30
0.0
 10
972.2997713303188
 20
2037.66617218603
 30
0.0
 10
972.2185538286268
 20
2037.847234025706
 30
0.0
 10
972.1423021750023
 20
2038.016196020883
 30
0.0
 10
972.0418911439661
 20
2038.224270919518
 30
0.0
 10
971.9253616208431
 20
2038.450990131398
 30
0.0
 10
971.8082217298977
 20
2038.666172199016
 30
0.0
 10
971.7004810408019
 20
2038.873451807249
 30
0.0
 10
971.6720985985343
 20
2038.937467762268
 30
0.0
 10
971.6725475985292
 20
2038.937499913665
 30
0.0
  0
SPLINE
  5
186
330
87
100
AcDbEntity
  8
P-SANR-FIXT
100
AcDbSpline
210
0.0
220
0.0
230
1.0
 70
     8
 71
     3
 72
     9
 73
     5
 74
     0
 42
0.000000001
 43
0.0000000001
 40
0.4999506563420606
 40
0.4999506563420606
 40
0.4999506563420606
 40
0.4999506563420606
 40
0.5
 40
0.51832029211956
 40
0.51832029211956
 40
0.51832029211956
 40
0.51832029211956
 10
971.6725476154003
 20
2038.937499914853
 30
0.0
 10
971.6725480149861
 20
2038.937499942486
 30
0.0
 10
971.6727024700496
 20
2038.937497686871
 30
0.0
 10
971.6749775577349
 20
2038.932825758116
 30
0.0
 10
971.6793516083718
 20
2038.923585233348
 30
0.0
  0
LINE
  5
187
330
87
100
AcDbEntity
  8
P-SANR-FIXT
100
AcDbLine
 10
833.5149632924593
 20
2115.236881883536
 30
0.0
 11
775.5594137151155
 21
2099.707739177385
 31
0.0
  0
LINE
  5
188
330
87
100
AcDbEntity
  8
P-SANR-FIXT
100
AcDbLine
 10
766.5564942506719
 20
2086.942652373264
 30
0.0
 11
847.6942636589535
 21
2108.683452161876
 31
0.0
  0
LINE
  5
189
330
87
100
AcDbEntity
  8
P-SANR-FIXT
100
AcDbLine
 10
765.8840626465456
 20
2083.656646326743
 30
0.0
 11
849.9196095336948
 21
2106.173903250663
 31
0.0
  0
LINE
  5
18A
330
87
100
AcDbEntity
  8
P-SANR-FIXT
100
AcDbLine
 10
764.0121854940409
 20
2080.983328702528
 30
0.0
 11
852.8773615126354
 21
2104.794680851959
 31
0.0
  0
LINE
  5
18B
330
87
100
AcDbEntity
  8
P-SANR-FIXT
100
AcDbLine
 10
754.5637928486154
 20
2066.129522650544
 30
0.0
 11
757.85975515555
 21
2067.01267308897
 31
0.0
  0
LINE
  5
18C
330
87
100
AcDbEntity
  8
P-SANR-FIXT
100
AcDbLine
 10
757.8597551555499
 20
2067.012673088971
 30
0.0
 11
776.4922968592435
 21
2072.005247591414
 31
0.0
  0
LINE
  5
18D
330
87
100
AcDbEntity
  8
P-SANR-FIXT
100
AcDbLine
 10
776.4922968592437
 20
2072.005247591414
 30
0.0
 11
811.5253027215556
 21
2081.392313220655
 31
0.0
  0
LINE
  5
18E
330
87
100
AcDbEntity
  8
P-SANR-FIXT
100
AcDbLine
 10
811.5253027215556
 20
2081.392313220655
 30
0.0
 11
847.8236200647941
 21
2091.118418039384
 31
0.0
  0
LINE
  5
18F
330
87
100
AcDbEntity
  8
P-SANR-FIXT
100
AcDbLine
 10
847.8236200647938
 20
2091.118418039386
 30
0.0
 11
865.3480272215492
 21
2095.814068784872
 31
0.0
  0
LINE
  5
190
330
87
100
AcDbEntity
  8
P-SANR-FIXT
100
AcDbLine
 10
865.3480272215494
 20
2095.814068784871
 30
0.0
 11
868.2502066854389
 21
2096.591705428512
 31
0.0
  0
LINE
  5
191
330
87
100
AcDbEntity
  8
P-SANR-FIXT
100
AcDbLine
 10
878.6550375636348
 20
2043.750433596933
 30
0.0
 11
877.5659057348237
 21
2047.815128918196
 31
0.0
  0
SPLINE
  5
192
330
87
100
AcDbEntity
  8
P-SANR-FIXT
100
AcDbSpline
210
0.0
220
0.0
230
1.0
 70
     8
 71
     3
 72
    30
 73
    26
 74
     0
 42
0.000000001
 43
0.0000000001
 40
0.0
 40
0.0
 40
0.0
 40
0.0
 40
0.1428571428571428
 40
0.2857142857142857
 40
0.3571428571428571
 40
0.3928571428571428
 40
0.4285714285714286
 40
0.4642857142857144
 40
0.5
 40
0.5357142857142857
 40
0.5535714285714287
 40
0.5714285714285714
 40
0.5982142857142857
 40
0.625
 40
0.6785714285714287
 40
0.7053571428571429
 40
0.71875
 40
0.7321428571428572
 40
0.7857142857142857
 40
0.8392857142857142
 40
0.8526785714285713
 40
0.8660714285714284
 40
0.8928571428571427
 40
0.9464285714285713
 40
1.0
 40
1.0
 40
1.0
 40
1.0
 10
877.5659057348233
 20
2047.815128918196
 30
0.0
 10
877.2818148367587
 20
2048.872682945331
 30
0.0
 10
876.7344393905149
 20
2050.982257744939
 30
0.0
 10
876.0934458707774
 20
2053.619244147577
 30
0.0
 10
875.6754035585766
 20
2055.441751820575
 30
0.0
 10
875.4447858300657
 20
2056.47547803869
 30
0.0
 10
875.278860137195
 20
2057.239862183524
 30
0.0
 10
875.117382505592
 20
2057.99869820424
 30
0.0
 10
874.9592443646687
 20
2058.75352989564
 30
0.0
 10
874.8329291828335
 20
2059.371606624317
 30
0.0
 10
874.7358570030705
 20
2059.856969837276
 30
0.0
 10
874.6540706848039
 20
2060.273775710301
 30
0.0
 10
874.562363978852
 20
2060.746381792846
 30
0.0
 10
874.4266116208397
 20
2061.451043976178
 30
0.0
 10
874.2986099591481
 20
2062.132264468007
 30
0.0
 10
874.1982859318286
 20
2062.688035493488
 30
0.0
 10
874.1455976052922
 20
2062.988815785844
 30
0.0
 10
874.0668538467444
 20
2063.438370090483
 30
0.0
 10
873.9512798082749
 20
2064.098443386695
 30
0.0
 10
873.8555062884348
 20
2064.661041022935
 30
0.0
 10
873.806433260394
 20
2064.964601667037
 30
0.0
 10
873.7780292463904
 20
2065.146115542873
 30
0.0
 10
873.7345443377316
 20
2065.427320158829
 30
0.0
 10
873.6902498481995
 20
2065.718228272636
 30
0.0
 10
873.6698433243097
 20
2065.833115366901
 30
0.0
 10
873.6624453705514
 20
2065.860724906199
 30
0.0
  0
SPLINE
  5
193
330
87
100
AcDbEntity
  8
P-SANR-FIXT
100
AcDbSpline
210
0.0
220
0.0
230
1.0
 70
     8
 71
     3
 72
     9
 73
     5
 74
     0
 42
0.000000001
 43
0.0000000001
 40
0.0
 40
0.0
 40
0.0
 40
0.0
 40
0.5
 40
1.0
 40
1.0
 40
1.0
 40
1.0
 10
903.6953692085349
 20
1981.55640620561
 30
0.0
 10
903.7875005514118
 20
1981.801792312329
 30
0.0
 10
903.9600471980536
 20
1982.257599581422
 30
0.0
 10
904.1074913747385
 20
1982.643029381708
 30
0.0
 10
904.1745238964399
 20
1982.818038997307
 30
0.0
  0
LINE
  5
194
330
87
100
AcDbEntity
  8
P-SANR-FIXT
100
AcDbLine
 10
904.1745238964406
 20
1982.818038997307
 30
0.0
 11
890.9243294092791
 21
2032.268438033563
 31
0.0
  0
SPLINE
  5
195
330
87
100
AcDbEntity
  8
P-SANR-FIXT
100
AcDbSpline
210
0.0
220
0.0
230
1.0
 70
     8
 71
     3
 72
    18
 73
    14
 74
     0
 42
0.000000001
 43
0.0000000001
 40
0.0
 40
0.0
 40
0.0
 40
0.0
 40
0.1428571428571428
 40
0.2857142857142857
 40
0.3571428571428571
 40
0.4285714285714286
 40
0.5
 40
0.5714285714285714
 40
0.6785714285714287
 40
0.7321428571428572
 40
0.7857142857142857
 40
0.8928571428571427
 40
1.0
 40
1.0
 40
1.0
 40
1.0
 10
773.0210724657125
 20
2000.676355550535
 30
0.0
 10
774.3754715955516
 20
1998.710807000265
 30
0.0
 10
777.0358370043202
 20
1994.501509285578
 30
0.0
 10
780.1028753208612
 20
1988.396794333545
 30
0.0
 10
782.0981896581543
 20
1983.125332820534
 30
0.0
 10
783.3405440656546
 20
1979.049241792771
 30
0.0
 10
784.2553063295607
 20
1974.885998037846
 30
0.0
 10
784.9837645992725
 20
1970.032164613366
 30
0.0
 10
785.2245121475365
 20
1965.610969003094
 30
0.0
 10
785.1986509867988
 20
1961.759052892195
 30
0.0
 10
785.0039024397233
 20
1958.033382589268
 30
0.0
 10
784.5492767951586
 20
1953.752029438829
 30
0.0
 10
784.0586929589817
 20
1950.79562348681
 30
0.0
 10
783.8060830249949
 20
1949.432168791586
 30
0.0
  0
LINE
  5
196
330
87
100
AcDbEntity
  8
P-SANR-FIXT
100
AcDbLine
 10
832.7920573940064
 20
1866.794088590495
 30
0.0
 11
900.4068652342414
 21
1884.911421747671
 31
0.0
  0
LINE
  5
197
330
87
100
AcDbEntity
  8
P-SANR-FIXT
100
AcDbLine
 10
810.2611203084146
 20
1850.424404601999
 30
0.0
 11
810.1833958530621
 21
1850.359040254852
 31
0.0
  0
LWPOLYLINE
  5
198
330
87
100
AcDbEntity
  8
P-SANR-FIXT
100
AcDbPolyline
 90
        6
 70
   128
 43
0.0
 10
810.1774862070724
 20
1850.354030040614
 10
809.94956403356
 20
1850.161268960677
 10
809.0426625166209
 20
1849.403712457977
 10
807.6111639888448
 20
1848.231713592833
 10
805.7458421505151
 20
1846.743946513766
 10
803.5457011610445
 20
1845.039745245338
  0
SPLINE
  5
199
330
87
100
AcDbEntity
  8
P-SANR-FIXT
100
AcDbSpline
210
0.0
220
0.0
230
1.0
 70
     8
 71
     3
 72
     9
 73
     5
 74
     0
 42
0.000000001
 43
0.0000000001
 40
-1.0
 40
-1.0
 40
-1.0
 40
-1.0
 40
-0.5
 40
0.0
 40
0.0
 40
0.0
 40
0.0
 10
800.4581571534446
 20
1842.362671758109
 30
0.0
 10
799.94775368974
 20
1841.860775031365
 30
0.0
 10
798.9083798419133
 20
1840.857389141683
 30
0.0
 10
797.8541228949007
 20
1839.860780447868
 30
0.0
 10
797.3290195802882
 20
1839.365710018219
 30
0.0
  0
SPLINE
  5
19A
330
87
100
AcDbEntity
  8
P-SANR-FIXT
100
AcDbSpline
210
0.0
220
0.0
230
1.0
 70
     8
 71
     3
 72
     9
 73
     5
 74
     0
 42
0.000000001
 43
0.0000000001
 40
-1.0
 40
-1.0
 40
-1.0
 40
-1.0
 40
-0.5
 40
0.0
 40
0.0
 40
0.0
 40
0.0
 10
795.3239611513891
 20
1836.834293306747
 30
0.0
 10
795.2404942064864
 20
1836.688955539312
 30
0.0
 10
795.0735501962354
 20
1836.399090121669
 30
0.0
 10
794.9067798360561
 20
1836.110896891406
 30
0.0
 10
794.8234877041036
 20
1835.967231622944
 30
0.0
  0
SPLINE
  5
19B
330
87
100
AcDbEntity
  8
P-SANR-FIXT
100
AcDbSpline
210
0.0
220
0.0
230
1.0
 70
     8
 71
     3
 72
     9
 73
     5
 74
     0
 42
0.000000001
 43
0.0000000001
 40
-1.0
 40
-1.0
 40
-1.0
 40
-1.0
 40
-0.5
 40
0.0
 40
0.0
 40
0.0
 40
0.0
 10
792.1842541787269
 20
1833.176395764796
 30
0.0
 10
790.5924249764626
 20
1832.093670237951
 30
0.0
 10
787.8649463163956
 20
1830.311293890426
 30
0.0
 10
786.839723269913
 20
1829.650555789557
 30
0.0
 10
786.8404294985675
 20
1829.647920108332
 30
0.0
  0
LINE
  5
19C
330
87
100
AcDbEntity
  8
P-SANR-FIXT
100
AcDbLine
 10
777.3081099623557
 20
1822.722284574738
 30
0.0
 11
970.4932752201695
 21
1874.486093595242
 31
0.0
  0
LINE
  5
19D
330
87
100
AcDbEntity
  8
P-SANR-FIXT
100
AcDbLine
 10
974.5458680823187
 20
1859.36161113131
 30
0.0
 11
781.360702824505
 21
1807.597802110807
 31
0.0
  0
SPLINE
  5
19E
330
87
100
AcDbEntity
  8
P-SANR-FIXT
100
AcDbSpline
210
0.0
220
0.0
230
1.0
 70
     8
 71
     3
 72
    30
 73
    26
 74
     0
 42
0.000000001
 43
0.0000000001
 40
-1.0
 40
-1.0
 40
-1.0
 40
-1.0
 40
-0.9375
 40
-0.90625
 40
-0.875
 40
-0.84375
 40
-0.8125
 40
-0.78125
 40
-0.75
 40
-0.734375
 40
-0.71875
 40
-0.6875
 40
-0.65625
 40
-0.625
 40
-0.59375
 40
-0.5625
 40
-0.53125
 40
-0.5
 40
-0.46875
 40
-0.4375
 40
-0.375
 40
-0.3125
 40
-0.25
 40
-0.125
 40
0.0
 40
0.0
 40
0.0
 40
0.0
 10
797.4613578257828
 20
1790.010075967616
 30
0.0
 10
797.4663928935172
 20
1789.991284839013
 30
0.0
 10
797.5808114264846
 20
1789.919045576804
 30
0.0
 10
797.9267868807013
 20
1789.727033664422
 30
0.0
 10
798.2758766507307
 20
1789.53756473466
 30
0.0
 10
798.7139341381253
 20
1789.285308067264
 30
0.0
 10
799.2344054897844
 20
1788.971998027539
 30
0.0
 10
799.8234782716751
 20
1788.617409531308
 30
0.0
 10
800.3594395054985
 20
1788.304524556536
 30
0.0
 10
800.8105205183687
 20
1788.04302833958
 30
0.0
 10
801.2782607860437
 20
1787.763901933608
 30
0.0
 10
801.8900961957529
 20
1787.391676054839
 30
0.0
 10
802.6607862999636
 20
1786.916909965103
 30
0.0
 10
803.461480711466
 20
1786.432529195064
 30
0.0
 10
804.286372009852
 20
1785.931906661766
 30
0.0
 10
805.1314746167301
 20
1785.403289260097
 30
0.0
 10
805.9937768284383
 20
1784.858652221001
 30
0.0
 10
806.872063918141
 20
1784.307689524906
 30
0.0
 10
807.7617988007188
 20
1783.746788537926
 30
0.0
 10
808.9567960644068
 20
1782.974463752553
 30
0.0
 10
810.4706214864929
 20
1781.990503053676
 30
0.0
 10
812.2989718163173
 20
1780.779658282384
 30
0.0
 10
814.7397780103581
 20
1779.1306014732
 30
0.0
 10
817.7671321844396
 20
1777.01963647539
 30
0.0
 10
820.137168110811
 20
1775.321779154519
 30
0.0
 10
821.2867911021168
 20
1774.460318206538
 30
0.0
  0
LINE
  5
19F
330
87
100
AcDbEntity
  8
P-SANR-FIXT
100
AcDbLine
 10
954.362385418252
 20
1708.66075055565
 30
0.0
 11
874.1905418362589
 21
1687.178769812141
 31
0.0
  0
LINE
  5
1A0
330
87
100
AcDbEntity
  8
P-SANR-FIXT
100
AcDbLine
 10
821.2867911021163
 20
1774.460318206538
 30
0.0
 11
957.7078582764668
 21
1811.014232986497
 31
0.0
  0
SPLINE
  5
1A1
330
87
100
AcDbEntity
  8
P-SANR-FIXT
100
AcDbSpline
210
0.0
220
0.0
230
1.0
 70
     8
 71
     3
 72
     9
 73
     5
 74
     0
 42
0.000000001
 43
0.0000000001
 40
-1.0
 40
-1.0
 40
-1.0
 40
-1.0
 40
-0.5
 40
0.0
 40
0.0
 40
0.0
 40
0.0
 10
821.2867911021168
 20
1774.460318206538
 30
0.0
 10
822.5843733560617
 20
1772.424366069835
 30
0.0
 10
825.1793773229671
 20
1768.372731422382
 30
0.0
 10
827.7088936227064
 20
1764.344174692958
 30
0.0
 10
828.9374352570085
 20
1762.330348463537
 30
0.0
  0
SPLINE
  5
1A2
330
87
100
AcDbEntity
  8
P-SANR-FIXT
100
AcDbSpline
210
0.0
220
0.0
230
1.0
 70
     8
 71
     3
 72
    21
 73
    17
 74
     0
 42
0.000000001
 43
0.0000000001
 40
-1.0
 40
-1.0
 40
-1.0
 40
-1.0
 40
-0.8333333333333332
 40
-0.75
 40
-0.7083333333333333
 40
-0.6666666666666666
 40
-0.625
 40
-0.5833333333333333
 40
-0.5
 40
-0.4166666666666666
 40
-0.375
 40
-0.3333333333333333
 40
-0.2916666666666666
 40
-0.25
 40
-0.1666666666666666
 40
0.0
 40
0.0
 40
0.0
 40
0.0
 10
828.3192427281839
 20
1762.164704274671
 30
0.0
 10
828.5111062222208
 20
1761.838411288063
 30
0.0
 10
828.7981730949262
 20
1761.365995201333
 30
0.0
 10
829.124971385433
 20
1760.843306980426
 30
0.0
 10
829.3083509636348
 20
1760.551903244355
 30
0.0
 10
829.4437128773054
 20
1760.33844439244
 30
0.0
 10
829.5774225440801
 20
1760.123722374197
 30
0.0
 10
829.7536997934692
 20
1759.832291353209
 30
0.0
 10
829.9679562226268
 20
1759.471316979635
 30
0.0
 10
830.1681556065453
 20
1759.138164856718
 30
0.0
 10
830.3153570970025
 20
1758.902120658758
 30
0.0
 10
830.4176241650813
 20
1758.745310153198
 30
0.0
 10
830.5114071236799
 20
1758.606000080208
 30
0.0
 10
830.6257684126407
 20
1758.43509377741
 30
0.0
 10
830.7944333097493
 20
1758.179604322299
 30
0.0
 10
830.8766556144732
 20
1758.031366193927
 30
0.0
 10
830.8952680992122
 20
1757.961903455226
 30
0.0
  0
LINE
  5
1A3
330
87
100
AcDbEntity
  8
P-SANR-FIXT
100
AcDbLine
 10
868.8940425973481
 20
1699.218167463694
 30
0.0
 11
952.9295894844976
 21
1721.735424387613
 31
0.0
  0
LINE
  5
1A4
330
87
100
AcDbEntity
  8
P-SANR-FIXT
100
AcDbLine
 10
869.4116806875531
 20
1697.286315811116
 30
0.0
 11
953.4472275747026
 21
1719.803572735035
 31
0.0
  0
SPLINE
  5
1A5
330
87
100
AcDbEntity
  8
P-SANR-FIXT
100
AcDbSpline
210
0.0
220
0.0
230
1.0
 70
     8
 71
     3
 72
    24
 73
    20
 74
     0
 42
0.000000001
 43
0.0000000001
 40
0.0
 40
0.0
 40
0.0
 40
0.0
 40
0.1111111111111111
 40
0.2222222222222222
 40
0.2777777777777778
 40
0.3333333333333333
 40
0.4444444444444445
 40
0.5555555555555556
 40
0.6111111111111112
 40
0.6388888888888889
 40
0.6666666666666666
 40
0.6944444444444445
 40
0.7222222222222223
 40
0.75
 40
0.7777777777777778
 40
0.8055555555555555
 40
0.8333333333333332
 40
0.8888888888888889
 40
1.0
 40
1.0
 40
1.0
 40
1.0
 10
898.3943507458917
 20
1892.42222806916
 30
0.0
 10
898.3908839805383
 20
1892.435166213597
 30
0.0
 10
897.7600794545164
 20
1892.423314217379
 30
0.0
 10
895.445517201759
 20
1892.401534664332
 30
0.0
 10
892.7828835281211
 20
1892.266947758316
 30
0.0
 10
889.6198234781993
 20
1892.035265100973
 30
0.0
 10
884.8126960893953
 20
1891.495340664739
 30
0.0
 10
879.1274766706898
 20
1890.573615620551
 30
0.0
 10
874.8430801903278
 20
1889.788156338441
 30
0.0
 10
872.32924184025
 20
1889.314952584078
 30
0.0
 10
870.4137408412165
 20
1888.97180974737
 30
0.0
 10
868.4763199401434
 20
1888.62865492504
 30
0.0
 10
866.5241302448393
 20
1888.281036590619
 30
0.0
 10
864.5601180429432
 20
1887.951088083221
 30
0.0
 10
862.5877287687742
 20
1887.662094196703
 30
0.0
 10
860.612639376149
 20
1887.406155279842
 30
0.0
 10
857.9864414786564
 20
1887.09399499911
 30
0.0
 10
853.4285173757947
 20
1886.725801801586
 30
0.0
 10
849.6542476357189
 20
1886.803026702713
 30
0.0
 10
847.2478307710451
 20
1887.014728222328
 30
0.0
  0
LWPOLYLINE
  5
1A6
330
87
100
AcDbEntity
  8
P-SANR-FIXT
100
AcDbPolyline
 90
        6
 70
   128
 43
0.0
 10
986.5892067180553
 20
2003.808437712681
 10
986.4088810485727
 20
2003.89165972117
 10
986.1290066291756
 20
2003.921155875511
 10
985.7669042403152
 20
2003.895544781636
 10
985.3482083266252
 20
2003.819152733088
 10
984.9017015608252
 20
2003.700360127674
  0
SPLINE
  5
1A7
330
87
100
AcDbEntity
  8
P-SANR-FIXT
100
AcDbSpline
210
0.0
220
0.0
230
1.0
 70
     8
 71
     3
 72
    10
 73
     6
 74
     0
 42
0.000000001
 43
0.0000000001
 40
-1.0
 40
-1.0
 40
-1.0
 40
-1.0
 40
-0.5
 40
-0.25
 40
0.0
 40
0.0
 40
0.0
 40
0.0
 10
984.9017015608252
 20
2003.700360127674
 30
0.0
 10
982.7561951010613
 20
2003.046578606933
 30
0.0
 10
979.5481207163861
 20
2002.313207133155
 30
0.0
 10
975.9997334458173
 20
2001.834118453759
 30
0.0
 10
974.5807441971624
 20
2001.703758312639
 30
0.0
 10
973.9778299027245
 20
2001.670629496074
 30
0.0
  0
SPLINE
  5
1A8
330
87
100
AcDbEntity
  8
P-SANR-FIXT
100
AcDbSpline
210
0.0
220
0.0
230
1.0
 70
     8
 71
     3
 72
     9
 73
     5
 74
     0
 42
0.000000001
 43
0.0000000001
 40
-1.0
 40
-1.0
 40
-1.0
 40
-1.0
 40
-0.5
 40
0.0
 40
0.0
 40
0.0
 40
0.0
 10
942.6571712823969
 20
1991.209144744862
 30
0.0
 10
942.5015603141426
 20
1991.133719729142
 30
0.0
 10
942.1828195495104
 20
1990.981167762334
 30
0.0
 10
941.8501036525846
 20
1990.826274448741
 30
0.0
 10
941.6805181015538
 20
1990.748508635755
 30
0.0
  0
LINE
  5
1A9
330
87
100
AcDbEntity
  8
P-SANR-FIXT
100
AcDbLine
 10
941.6805181015536
 20
1990.748508635755
 30
0.0
 11
953.7596421714987
 21
1904.801074955546
 31
0.0
  0
SPLINE
  5
1AA
330
87
100
AcDbEntity
  8
P-SANR-FIXT
100
AcDbSpline
210
0.0
220
0.0
230
1.0
 70
     8
 71
     3
 72
    10
 73
     6
 74
     0
 42
0.000000001
 43
0.0000000001
 40
-1.0
 40
-1.0
 40
-1.0
 40
-1.0
 40
-0.6666666666666666
 40
-0.3333333333333333
 40
0.0
 40
0.0
 40
0.0
 40
0.0
 10
941.6805181015538
 20
1990.748508635755
 30
0.0
 10
941.1940853183907
 20
1990.496718681587
 30
0.0
 10
940.1648482334804
 20
1989.991306703858
 30
0.0
 10
938.4912154638078
 20
1989.27633576207
 30
0.0
 10
937.3242928739545
 20
1988.845192196464
 30
0.0
 10
936.7332635318573
 20
1988.647771121162
 30
0.0
  0
SPLINE
  5
1AB
330
87
100
AcDbEntity
  8
P-SANR-FIXT
100
AcDbSpline
210
0.0
220
0.0
230
1.0
 70
     8
 71
     3
 72
     9
 73
     5
 74
     0
 42
0.000000001
 43
0.0000000001
 40
-1.0
 40
-1.0
 40
-1.0
 40
-1.0
 40
-0.5
 40
0.0
 40
0.0
 40
0.0
 40
0.0
 10
936.7332635318573
 20
1988.647771121162
 30
0.0
 10
931.4561943388635
 20
1986.869229310676
 30
0.0
 10
920.7526685399669
 20
1984.119065479547
 30
0.0
 10
909.750367915252
 20
1982.982741228106
 30
0.0
 10
904.1745238964399
 20
1982.818038997307
 30
0.0
  0
LINE
  5
1AC
330
87
100
AcDbEntity
  8
P-SANR-FIXT
100
AcDbLine
 10
895.494723047885
 20
1972.186789420572
 30
0.0
 11
905.8498393146694
 21
1898.506308664127
 31
0.0
  0
SPLINE
  5
1AD
330
87
100
AcDbEntity
  8
P-SANR-FIXT
100
AcDbSpline
210
0.0
220
0.0
230
1.0
 70
     8
 71
     3
 72
    11
 73
     7
 74
     0
 42
0.000000001
 43
0.0000000001
 40
-1.0
 40
-1.0
 40
-1.0
 40
-1.0
 40
-0.75
 40
-0.5
 40
-0.25
 40
0.0
 40
0.0
 40
0.0
 40
0.0
 10
747.3549849836492
 20
2012.243002811862
 30
0.0
 10
746.7546030660336
 20
2012.002635126514
 30
0.0
 10
745.3425835430992
 20
2011.491639526088
 30
0.0
 10
742.7161160729601
 20
2010.602476827437
 30
0.0
 10
739.7036221371455
 20
2009.686310657229
 30
0.0
 10
737.5312434258919
 20
2009.084867347028
 30
0.0
 10
736.4311133255482
 20
2008.784201188498
 30
0.0
  0
LWPOLYLINE
  5
1AE
330
87
100
AcDbEntity
  8
P-SANR-FIXT
100
AcDbPolyline
 90
        6
 70
   128
 43
0.0
 10
736.4311133255482
 20
2008.784201188498
 10
735.9456327076181
 20
2008.624015101556
 10
735.5160263587228
 20
2008.425245783908
 10
735.1621223443106
 20
2008.200680913727
 10
734.8966758447382
 20
2007.96160660459
 10
734.7289199532631
 20
2007.718325833405
  0
SPLINE
  5
1AF
330
87
100
AcDbEntity
  8
P-SANR-FIXT
100
AcDbSpline
210
0.0
220
0.0
230
1.0
 70
     8
 71
     3
 72
    14
 73
    10
 74
     0
 42
0.000000001
 43
0.0000000001
 40
-1.0
 40
-1.0
 40
-1.0
 40
-1.0
 40
-0.8
 40
-0.6
 40
-0.5
 40
-0.4
 40
-0.3
 40
-0.2
 40
0.0
 40
0.0
 40
0.0
 40
0.0
 10
773.0210724657124
 20
2000.676355550535
 30
0.0
 10
772.6723075679704
 20
2001.184169576635
 30
0.0
 10
772.0914907547784
 20
2002.227169537415
 30
0.0
 10
771.6697310476888
 20
2003.527927920542
 30
0.0
 10
771.5183703117578
 20
2004.539550090321
 30
0.0
 10
771.5020096070026
 20
2005.280213537258
 30
0.0
 10
771.5818726269986
 20
2005.99348265998
 30
0.0
 10
771.8263167492389
 20
2006.904686755438
 30
0.0
 10
772.1840367930696
 20
2007.540524559485
 30
0.0
 10
772.4918096553178
 20
2007.919311210462
 30
0.0
  0
SPLINE
  5
1B0
330
87
100
AcDbEntity
  8
P-SANR-FIXT
100
AcDbSpline
210
0.0
220
0.0
230
1.0
 70
     8
 71
     3
 72
    10
 73
     6
 74
     0
 42
0.000000001
 43
0.0000000001
 40
0.0
 40
0.0
 40
0.0
 40
0.0
 40
0.4
 40
0.7
 40
1.0
 40
1.0
 40
1.0
 40
1.0
 10
884.794093101417
 20
2038.010617368016
 30
0.0
 10
885.9652337424137
 20
2037.768141281558
 30
0.0
 10
887.8700815163986
 20
2036.917727607966
 30
0.0
 10
889.950746657138
 20
2034.747761129721
 30
0.0
 10
890.6888987559618
 20
2033.136769888214
 30
0.0
 10
890.9243294092789
 20
2032.268438033563
 30
0.0
  0
SPLINE
  5
1B1
330
87
100
AcDbEntity
  8
P-SANR-FIXT
100
AcDbSpline
210
0.0
220
0.0
230
1.0
 70
     8
 71
     3
 72
     9
 73
     5
 74
     0
 42
0.000000001
 43
0.0000000001
 40
-1.0
 40
-1.0
 40
-1.0
 40
-1.0
 40
-0.5
 40
0.0
 40
0.0
 40
0.0
 40
0.0
 10
895.494723047885
 20
1972.186789420572
 30
0.0
 10
894.5986181317538
 20
1971.785368985982
 30
0.0
 10
892.7088486718982
 20
1970.997916998307
 30
0.0
 10
890.6438322936253
 20
1970.239448984754
 30
0.0
 10
889.5720429354831
 20
1969.866603219614
 30
0.0
  0
SPLINE
  5
1B2
330
87
100
AcDbEntity
  8
P-SANR-FIXT
100
AcDbSpline
210
0.0
220
0.0
230
1.0
 70
     8
 71
     3
 72
    11
 73
     7
 74
     0
 42
0.000000001
 43
0.0000000001
 40
-1.0
 40
-1.0
 40
-1.0
 40
-1.0
 40
-0.75
 40
-0.5
 40
-0.25
 40
0.0
 40
0.0
 40
0.0
 40
0.0
 10
903.6953692085351
 20
1981.55640620561
 30
0.0
 10
903.481492069398
 20
1980.969363455322
 30
0.0
 10
902.8789812558002
 20
1979.638245917641
 30
0.0
 10
901.2944360508132
 20
1977.192937299203
 30
0.0
 10
898.873451278874
 20
1974.571096235495
 30
0.0
 10
896.7019601969518
 20
1972.93682072892
 30
0.0
 10
895.494723047885
 20
1972.186789420572
 30
0.0
  0
SPLINE
  5
1B3
330
87
100
AcDbEntity
  8
P-SANR-FIXT
100
AcDbSpline
210
0.0
220
0.0
230
1.0
 70
     8
 71
     3
 72
    10
 73
     6
 74
     0
 42
0.000000001
 43
0.0000000001
 40
-1.0
 40
-1.0
 40
-1.0
 40
-1.0
 40
-0.75
 40
-0.5
 40
0.0
 40
0.0
 40
0.0
 40
0.0
 10
785.3492542838889
 20
1943.227398819706
 30
0.0
 10
785.0680494252854
 20
1943.444514591856
 30
0.0
 10
784.5311638052375
 20
1944.001906384271
 30
0.0
 10
783.6621723544124
 20
1945.743136788122
 30
0.0
 10
783.5029998027636
 20
1947.795425885781
 30
0.0
 10
783.8060830249949
 20
1949.432168791586
 30
0.0
  0
LINE
  5
1B4
330
87
100
AcDbEntity
  8
P-SANR-FIXT
100
AcDbLine
 10
847.2478307710451
 20
1887.014728222329
 30
0.0
 11
828.7052506866341
 21
1882.046258863122
 31
0.0
  0
SPLINE
  5
1B5
330
87
100
AcDbEntity
  8
P-SANR-FIXT
100
AcDbSpline
210
0.0
220
0.0
230
1.0
 70
     8
 71
     3
 72
    41
 73
    37
 74
     0
 42
0.000000001
 43
0.0000000001
 40
-1.0
 40
-1.0
 40
-1.0
 40
-1.0
 40
-0.9
 40
-0.8
 40
-0.75
 40
-0.7
 40
-0.65
 40
-0.6
 40
-0.55
 40
-0.5
 40
-0.475
 40
-0.45
 40
-0.425
 40
-0.4125
 40
-0.4
 40
-0.3875
 40
-0.375
 40
-0.35
 40
-0.325
 40
-0.3125
 40
-0.30625
 40
-0.3
 40
-0.29375
 40
-0.2875
 40
-0.275
 40
-0.25
 40
-0.225
 40
-0.2125
 40
-0.2
 40
-0.1875
 40
-0.175
 40
-0.15
 40
-0.125
 40
-0.1
 40
-0.05
 40
0.0
 40
0.0
 40
0.0
 40
0.0
 10
837.1490080014712
 20
1949.214375931722
 30
0.0
 10
835.4047741412712
 20
1947.342036999285
 30
0.0
 10
832.3498977510109
 20
1943.397073735516
 30
0.0
 10
829.6916457819067
 20
1937.890894952401
 30
0.0
 10
828.2525323425515
 20
1933.333157923832
 30
0.0
 10
827.4875196482888
 20
1929.849682537032
 30
0.0
 10
827.0161214381843
 20
1926.368839211029
 30
0.0
 10
826.8173631836759
 20
1922.862174563573
 30
0.0
 10
826.8429546580058
 20
1919.31703644556
 30
0.0
 10
827.0738064907801
 20
1916.363663993735
 30
0.0
 10
827.356728587851
 20
1914.032460411316
 30
0.0
 10
827.61717907214
 20
1912.288841625224
 30
0.0
 10
827.8879431186187
 20
1910.841608681634
 30
0.0
 10
828.140839090973
 20
1909.686104493211
 30
0.0
 10
828.3524827415709
 20
1908.821275208054
 30
0.0
 10
828.5773917258286
 20
1907.955089064526
 30
0.0
 10
828.8875077035255
 20
1906.79693412577
 30
0.0
 10
829.31099300626
 20
1905.349703381126
 30
0.0
 10
829.8062802719648
 20
1903.914323512711
 30
0.0
 10
830.2032153843644
 20
1902.921854719792
 30
0.0
 10
830.4456835542705
 20
1902.358744096305
 30
0.0
 10
830.6365406902457
 20
1901.939410547853
 30
0.0
 10
830.8335804111379
 20
1901.520015202038
 30
0.0
 10
831.1008727382874
 20
1900.957402605757
 30
0.0
 10
831.5849105302719
 20
1899.969284125622
 30
0.0
 10
832.3299240159142
 20
1898.560753164002
 30
0.0
 10
833.1664142377851
 20
1897.196122521258
 30
0.0
 10
833.9009048045804
 20
1896.151396495079
 30
0.0
 10
834.4869558457078
 20
1895.401501714373
 30
0.0
 10
835.1108655427491
 20
1894.672130492085
 30
0.0
 10
835.9884012395628
 20
1893.708899581517
 30
0.0
 10
837.161151237124
 20
1892.547454581298
 30
0.0
 10
838.6635447205495
 20
1891.255924682696
 30
0.0
 10
840.7473787144509
 20
1889.743409028751
 30
0.0
 10
843.5159929643859
 20
1888.230454802602
 30
0.0
 10
845.9631958193838
 20
1887.359317423678
 30
0.0
 10
847.2478307710451
 20
1887.014728222328
 30
0.0
  0
SPLINE
  5
1B6
330
87
100
AcDbEntity
  8
P-SANR-FIXT
100
AcDbSpline
210
0.0
220
0.0
230
1.0
 70
     8
 71
     3
 72
    24
 73
    20
 74
     0
 42
0.000000001
 43
0.0000000001
 40
-1.0
 40
-1.0
 40
-1.0
 40
-1.0
 40
-0.8333333333333332
 40
-0.6666666666666666
 40
-0.5833333333333333
 40
-0.5416666666666666
 40
-0.5
 40
-0.4583333333333333
 40
-0.4166666666666666
 40
-0.375
 40
-0.3333333333333333
 40
-0.3125
 40
-0.2916666666666666
 40
-0.25
 40
-0.2083333333333333
 40
-0.1666666666666666
 40
-0.125
 40
-0.0833333333333333
 40
0.0
 40
0.0
 40
0.0
 40
0.0
 10
889.5720429354831
 20
1969.866603219614
 30
0.0
 10
887.1078083184261
 20
1969.013818556843
 30
0.0
 10
882.0018504243256
 20
1967.16908901698
 30
0.0
 10
875.0818800286598
 20
1964.782705061915
 30
0.0
 10
869.9881349366465
 20
1963.121899978729
 30
0.0
 10
866.9967630177238
 20
1962.17092615686
 30
0.0
 10
864.702983150892
 20
1961.430712489533
 30
0.0
 10
862.3563067083495
 20
1960.679476419068
 30
0.0
 10
859.966806815999
 20
1959.92660493048
 30
0.0
 10
857.5490993581778
 20
1959.149985955683
 30
0.0
 10
855.5319463554232
 20
1958.462250237082
 30
0.0
 10
853.9211101013762
 20
1957.894681701576
 30
0.0
 10
852.3040533597901
 20
1957.331513908345
 30
0.0
 10
850.2835903797926
 20
1956.612440124381
 30
0.0
 10
847.8867722574742
 20
1955.689292185137
 30
0.0
 10
845.5613996714827
 20
1954.647894021326
 30
0.0
 10
843.3295921234298
 20
1953.470368090753
 30
0.0
 10
840.4618674564694
 20
1951.756952238184
 30
0.0
 10
838.4470233705878
 20
1950.282789726149
 30
0.0
 10
837.1490080014723
 20
1949.214375931723
 30
0.0
  0
LINE
  5
1B7
330
87
100
AcDbEntity
  8
P-SANR-FIXT
100
AcDbLine
 10
781.1384347872039
 20
1808.427317718912
 30
0.0
 11
974.3236000450178
 21
1860.191126739416
 31
0.0
  0
SPLINE
  5
1B8
330
87
100
AcDbEntity
  8
P-SANR-FIXT
100
AcDbSpline
210
0.0
220
0.0
230
1.0
 70
     8
 71
     3
 72
     9
 73
     5
 74
     0
 42
0.000000001
 43
0.0000000001
 40
-1.0
 40
-1.0
 40
-1.0
 40
-1.0
 40
-0.5
 40
0.0
 40
0.0
 40
0.0
 40
0.0
 10
803.5457011610448
 20
1845.039745245338
 30
0.0
 10
803.0289669146341
 20
1844.64397098343
 30
0.0
 10
801.9876998518661
 20
1843.799353816343
 30
0.0
 10
800.9611596383987
 20
1842.856724651127
 30
0.0
 10
800.4581571534446
 20
1842.362671758109
 30
0.0
  0
SPLINE
  5
1B9
330
87
100
AcDbEntity
  8
P-SANR-FIXT
100
AcDbSpline
210
0.0
220
0.0
230
1.0
 70
     8
 71
     3
 72
     9
 73
     5
 74
     0
 42
0.000000001
 43
0.0000000001
 40
-1.0
 40
-1.0
 40
-1.0
 40
-1.0
 40
-0.5
 40
0.0
 40
0.0
 40
0.0
 40
0.0
 10
797.3290195802882
 20
1839.365710018219
 30
0.0
 10
796.930759954566
 20
1838.990426515908
 30
0.0
 10
796.1968343795889
 20
1838.192841106121
 30
0.0
 10
795.5930760780375
 20
1837.302553251682
 30
0.0
 10
795.3239611513891
 20
1836.834293306747
 30
0.0
  0
SPLINE
  5
1BA
330
87
100
AcDbEntity
  8
P-SANR-FIXT
100
AcDbSpline
210
0.0
220
0.0
230
1.0
 70
     8
 71
     3
 72
     9
 73
     5
 74
     0
 42
0.000000001
 43
0.0000000001
 40
-1.0
 40
-1.0
 40
-1.0
 40
-1.0
 40
-0.5
 40
0.0
 40
0.0
 40
0.0
 40
0.0
 10
794.8234877041036
 20
1835.967231622944
 30
0.0
 10
794.4663380470581
 20
1835.372506251221
 30
0.0
 10
793.6557798684063
 20
1834.309014537895
 30
0.0
 10
792.6910840660565
 20
1833.507724803061
 30
0.0
 10
792.1842541787269
 20
1833.176395764796
 30
0.0
  0
LINE
  5
1BB
330
87
100
AcDbEntity
  8
P-SANR-FIXT
100
AcDbLine
 10
984.9017015608252
 20
2059.431908445455
 30
0.0
 11
986.6664074431783
 21
2059.431908445455
 31
0.0
  0
LINE
  5
1BC
330
87
100
AcDbEntity
  8
P-SANR-FIXT
100
AcDbLine
 10
971.6664074431783
 20
2059.431908445455
 30
0.0
 11
984.9017015608252
 21
2059.431908445455
 31
0.0
  0
LINE
  5
1BD
330
87
100
AcDbEntity
  8
P-SANR-FIXT
100
AcDbLine
 10
736.4311133255482
 20
2059.703654636505
 30
0.0
 11
749.6664074431955
 21
2059.703654636505
 31
0.0
  0
LINE
  5
1BE
330
87
100
AcDbEntity
  8
P-SANR-FIXT
100
AcDbLine
 10
734.6664074431956
 20
2059.703654636505
 30
0.0
 11
736.4311133255482
 21
2059.703654636505
 31
0.0
  0
LINE
  5
1BF
330
87
100
AcDbEntity
  8
P-SANR-FIXT
100
AcDbLine
 10
874.7206828130019
 20
2072.443559771285
 30
0.0
 11
871.8185033491122
 21
2071.665923127645
 31
0.0
  0
LINE
  5
1C0
330
87
100
AcDbEntity
  8
P-SANR-FIXT
100
AcDbLine
 10
871.8185033491122
 20
2071.665923127645
 30
0.0
 11
854.2940961923571
 21
2066.970272382159
 31
0.0
  0
LINE
  5
1C1
330
87
100
AcDbEntity
  8
P-SANR-FIXT
100
AcDbLine
 10
854.2940961923571
 20
2066.970272382159
 30
0.0
 11
817.9957788491185
 21
2057.244167563429
 31
0.0
  0
LINE
  5
1C2
330
87
100
AcDbEntity
  8
P-SANR-FIXT
100
AcDbLine
 10
817.9957788491185
 20
2057.244167563429
 30
0.0
 11
782.9627729868067
 21
2047.857101934188
 31
0.0
  0
LINE
  5
1C3
330
87
100
AcDbEntity
  8
P-SANR-FIXT
100
AcDbLine
 10
782.9627729868067
 20
2047.857101934188
 30
0.0
 11
764.3302312831129
 21
2042.864527431744
 31
0.0
  0
LINE
  5
1C4
330
87
100
AcDbEntity
  8
P-SANR-FIXT
100
AcDbLine
 10
764.3302312831129
 20
2042.864527431744
 30
0.0
 11
761.0342689761783
 21
2041.981376993318
 31
0.0
  0
LINE
  5
1C5
330
87
100
AcDbEntity
  8
P-SANR-FIXT
100
AcDbLine
 10
865.3480272215492
 20
2095.814068784872
 30
0.0
 11
871.8185033491122
 21
2071.665923127645
 31
0.0
  0
LINE
  5
1C6
330
87
100
AcDbEntity
  8
P-SANR-FIXT
100
AcDbLine
 10
757.8597551555499
 20
2067.012673088971
 30
0.0
 11
764.3302312831129
 21
2042.864527431744
 31
0.0
  0
LINE
  5
1C7
330
87
100
AcDbEntity
  8
P-SANR-FIXT
100
AcDbLine
 10
847.8236200647938
 20
2091.118418039386
 30
0.0
 11
854.2940961923569
 21
2066.970272382159
 31
0.0
  0
LINE
  5
1C8
330
87
100
AcDbEntity
  8
P-SANR-FIXT
100
AcDbLine
 10
874.7206828130019
 20
2072.443559771285
 30
0.0
 11
868.2502066854389
 21
2096.591705428512
 31
0.0
  0
LINE
  5
1C9
330
87
100
AcDbEntity
  8
P-SANR-FIXT
100
AcDbLine
 10
761.0342689761783
 20
2041.981376993318
 30
0.0
 11
754.5637928486154
 21
2066.129522650544
 31
0.0
  0
LINE
  5
1CA
330
87
100
AcDbEntity
  8
P-SANR-FIXT
100
AcDbLine
 10
782.9627729868067
 20
2047.857101934188
 30
0.0
 11
776.4922968592436
 21
2072.005247591414
 31
0.0
  0
LINE
  5
1CB
330
87
100
AcDbEntity
  8
P-SANR-FIXT
100
AcDbLine
 10
817.9957788491185
 20
2057.244167563429
 30
0.0
 11
811.5253027215555
 21
2081.392313220655
 31
0.0
  0
SPLINE
  5
1CC
330
87
100
AcDbEntity
  8
P-SANR-FIXT
100
AcDbSpline
210
0.0
220
0.0
230
1.0
 70
     8
 71
     3
 72
    17
 73
    13
 74
     0
 42
0.000000001
 43
0.0000000001
 40
-1.0
 40
-1.0
 40
-1.0
 40
-1.0
 40
-0.8333333333333332
 40
-0.75
 40
-0.6666666666666666
 40
-0.5833333333333333
 40
-0.5
 40
-0.4166666666666666
 40
-0.3333333333333333
 40
-0.25
 40
-0.1666666666666666
 40
0.0
 40
0.0
 40
0.0
 40
0.0
 10
772.4918096553178
 20
2007.919311210462
 30
0.0
 10
772.7820904255076
 20
2008.30082285412
 30
0.0
 10
773.0865354925031
 20
2008.913443551832
 30
0.0
 10
773.2737197624247
 20
2009.714825761591
 30
0.0
 10
773.3224803527104
 20
2010.295132655066
 30
0.0
 10
773.2832774248671
 20
2010.826040887451
 30
0.0
 10
773.1775553240786
 20
2011.299726169386
 30
0.0
 10
773.0337247039972
 20
2011.730221145856
 30
0.0
 10
772.8722110729789
 20
2012.134461919613
 30
0.0
 10
772.699710660084
 20
2012.512649455008
 30
0.0
 10
772.4565459814116
 20
2012.958996008401
 30
0.0
 10
772.2735975766745
 20
2013.232494931355
 30
0.0
 10
772.1600538600011
 20
2013.386591178468
 30
0.0
  0
SPLINE
  5
1CD
330
87
100
AcDbEntity
  8
P-SANR-FIXT
100
AcDbSpline
210
0.0
220
0.0
230
1.0
 70
     8
 71
     3
 72
    10
 73
     6
 74
     0
 42
0.000000001
 43
0.0000000001
 40
0.0
 40
0.0
 40
0.0
 40
0.0
 40
0.4
 40
0.7
 40
1.0
 40
1.0
 40
1.0
 40
1.0
 10
878.6550375636345
 20
2043.750433596933
 30
0.0
 10
878.9682912622707
 20
2042.594470560171
 30
0.0
 10
879.9451538624859
 20
2040.748815335121
 30
0.0
 10
882.2575773862874
 20
2038.826452224125
 30
0.0
 10
883.9133203176556
 20
2038.193262917645
 30
0.0
 10
884.794093101417
 20
2038.010617368016
 30
0.0
  0
LINE
  5
1CE
330
87
100
AcDbEntity
  8
P-SANR-FIXT
100
AcDbLine
 10
918.2787302969419
 20
1658.631122535917
 30
0.0
 11
930.4547178425766
 21
1661.893668565821
 31
0.0
  0
LINE
  5
1CF
330
87
100
AcDbEntity
  8
P-SANR-FIXT
100
AcDbLine
 10
787.4387137118446
 20
1850.597312857954
 30
0.0
 11
802.8935269324701
 21
1854.738417579595
 31
0.0
  0
LINE
  5
1D0
330
87
100
AcDbEntity
  8
P-SANR-FIXT
100
AcDbLine
 10
832.149370214744
 20
1737.826717421557
 30
0.0
 11
820.5582602992762
 21
1734.720888880327
 31
0.0
  0
LINE
  5
1D1
330
87
100
AcDbEntity
  8
P-SANR-FIXT
100
AcDbLine
 10
829.8199988088214
 20
1746.520049858158
 30
0.0
 11
818.2288888933536
 21
1743.414221316928
 31
0.0
  0
LINE
  5
1D2
330
87
100
AcDbEntity
  8
P-SANR-FIXT
100
AcDbLine
 10
831.3289467166852
 20
1750.547837862926
 30
0.0
 11
814.9082076697721
 21
1746.147914096184
 31
0.0
  0
LINE
  5
1D3
330
87
100
AcDbEntity
  8
P-SANR-FIXT
100
AcDbLine
 10
830.1642610137239
 20
1754.894504081227
 30
0.0
 11
813.7435219668109
 21
1750.494580314484
 31
0.0
  0
LINE
  5
1D4
330
87
100
AcDbEntity
  8
P-SANR-FIXT
100
AcDbLine
 10
831.2249211855037
 20
1756.731621388314
 30
0.0
 11
811.9064046597234
 21
1751.555240486264
 31
0.0
  0
LINE
  5
1D5
330
87
100
AcDbEntity
  8
P-SANR-FIXT
100
AcDbLine
 10
828.9374352570085
 20
1762.330348463537
 30
0.0
 11
806.4897870839512
 21
1756.315519263588
 31
0.0
  0
LINE
  5
1D6
330
87
100
AcDbEntity
  8
P-SANR-FIXT
100
AcDbLine
 10
810.1768794046682
 20
1850.478328910251
 30
0.0
 11
810.2097796274085
 21
1850.487144498365
 31
0.0
  0
LINE
  5
1D7
330
87
100
AcDbEntity
  8
P-SANR-FIXT
100
AcDbLine
 10
810.2419961608196
 20
1850.495776892475
 30
0.0
 11
783.1960730247252
 21
1843.248843629605
 31
0.0
  0
ENDBLK
  5
1D9
330
87
100
AcDbEntity
  8
0
100
AcDbBlockEnd
  0
BLOCK
  5
2C1
330
1DB
100
AcDbEntity
  8
0
100
AcDbBlockBegin
  2
Automatic flow rate regulator valve_Caleffi_121 DN15 - 1_2__-V1-Est - Idraulica
 70
     0
 10
0.0
 20
0.0
 30
0.0
  3
Automatic flow rate regulator valve_Caleffi_121 DN15 - 1_2__-V1-Est - Idraulica
  1

  0
LINE
  5
1DC
330
1DB
100
AcDbEntity
  8
P-SANR-FIXT
100
AcDbLine
 10
775.2004987762213
 20
1360.716094180224
 30
0.0
 11
775.2004987762213
 21
1372.778057508283
 31
0.0
  0
LINE
  5
1DD
330
1DB
100
AcDbEntity
  8
P-SANR-FIXT
100
AcDbLine
 10
787.5378595658933
 20
1372.778057508283
 30
0.0
 11
782.660292125415
 21
1372.778057508283
 31
0.0
  0
LINE
  5
1DE
330
1DB
100
AcDbEntity
  8
P-SANR-FIXT
100
AcDbLine
 10
782.660292125415
 20
1372.778057508283
 30
0.0
 11
782.660292125415
 21
1360.716094180224
 31
0.0
  0
LINE
  5
1DF
330
1DB
100
AcDbEntity
  8
P-SANR-FIXT
100
AcDbLine
 10
782.660292125415
 20
1360.716094180224
 30
0.0
 11
787.5378595658933
 21
1360.716094180224
 31
0.0
  0
ELLIPSE
  5
1E0
330
1DB
100
AcDbEntity
  8
P-SANR-FIXT
100
AcDbEllipse
 10
787.5378595658933
 20
1366.747075844253
 30
0.0
 11
0.0
 21
6.030981664029241
 31
0.0
210
0.0
220
0.0
230
1.0
 40
0.2588190451025239
 41
3.141592653589788
 42
3.220193697098969
  0
ELLIPSE
  5
1E1
330
1DB
100
AcDbEntity
  8
P-SANR-FIXT
100
AcDbEllipse
 10
787.5378595658933
 20
1366.747075844253
 30
0.0
 11
0.0
 21
6.030981664029289
 31
0.0
210
0.0
220
0.0
230
1.0
 40
0.2588190451025294
 41
6.204584263670184
 42
6.283185307179588
  0
LINE
  5
1E2
330
1DB
100
AcDbEntity
  8
P-SANR-FIXT
100
AcDbLine
 10
775.2004987762213
 20
1372.778057508283
 30
0.0
 11
782.660292125415
 21
1372.778057508283
 31
0.0
  0
LINE
  5
1E3
330
1DB
100
AcDbEntity
  8
P-SANR-FIXT
100
AcDbLine
 10
775.2004987762213
 20
1360.716094180224
 30
0.0
 11
782.660292125415
 21
1360.716094180224
 31
0.0
  0
LINE
  5
1E4
330
1DB
100
AcDbEntity
  8
P-SANR-FIXT
100
AcDbLine
 10
790.652681569403
 20
1372.747075844253
 30
0.0
 11
790.6167071823971
 21
1372.747075844253
 31
0.0
  0
LINE
  5
1E5
330
1DB
100
AcDbEntity
  8
P-SANR-FIXT
100
AcDbLine
 10
790.6167071823971
 20
1360.747075844253
 30
0.0
 11
790.6526815694031
 21
1360.747075844253
 31
0.0
  0
LINE
  5
1E6
330
1DB
100
AcDbEntity
  8
P-SANR-FIXT
100
AcDbLine
 10
789.7473739387369
 20
1372.747075844253
 30
0.0
 11
787.4035648562083
 21
1372.747075844254
 31
0.0
  0
LINE
  5
1E7
330
1DB
100
AcDbEntity
  8
P-SANR-FIXT
100
AcDbLine
 10
787.4035648562083
 20
1360.747075844253
 30
0.0
 11
789.747373938737
 21
1360.747075844253
 31
0.0
  0
ELLIPSE
  5
1E8
330
1DB
100
AcDbEntity
  8
P-SANR-FIXT
100
AcDbEllipse
 10
790.6167071823956
 20
1366.747075844253
 30
0.0
 11
0.0000000000001216
 21
6.0
 31
0.0
210
0.0
220
0.0
230
1.0
 40
0.2588190451025222
 41
0.0000000000000051
 42
0.6889558788113397
  0
ELLIPSE
  5
1E9
330
1DB
100
AcDbEntity
  8
P-SANR-FIXT
100
AcDbEllipse
 10
790.6167071823956
 20
1366.747075844253
 30
0.0
 11
0.0
 21
5.999999999999992
 31
0.0
210
0.0
220
0.0
230
0.9999999999999998
 40
0.258819045102523
 41
2.452636774778579
 42
3.141592653589788
  0
ELLIPSE
  5
1EA
330
1DB
100
AcDbEntity
  8
P-SANR-FIXT
100
AcDbEllipse
 10
789.7473739387354
 20
1366.747075844253
 30
0.0
 11
0.0
 21
6.000000000000038
 31
0.0
210
0.0
220
0.0
230
1.0
 40
0.2588190451025081
 41
5.99850871075478
 42
7.853981633974446
  0
ELLIPSE
  5
1EB
330
1DB
100
AcDbEntity
  8
P-SANR-FIXT
100
AcDbEllipse
 10
789.7473739387354
 20
1366.747075844253
 30
0.0
 11
0.0
 21
6.0
 31
0.0
210
0.0
220
0.0
230
1.0
 40
0.2588190451025032
 41
1.57079632679486
 42
3.426269250014595
  0
LINE
  5
1EC
330
1DB
100
AcDbEntity
  8
P-SANR-FIXT
100
AcDbLine
 10
981.0531835310847
 20
1374.747075844253
 30
0.0
 11
973.8522744569825
 21
1374.747075844253
 31
0.0
  0
LINE
  5
1ED
330
1DB
100
AcDbEntity
  8
P-SANR-FIXT
100
AcDbLine
 10
973.8522744569825
 20
1358.747075844252
 30
0.0
 11
981.0531835310847
 21
1358.747075844252
 31
0.0
  0
LINE
  5
1EE
330
1DB
100
AcDbEntity
  8
P-SANR-FIXT
100
AcDbLine
 10
973.8522744569825
 20
1375.747075844253
 30
0.0
 11
965.8522744569825
 21
1375.747075844253
 31
0.0
  0
LINE
  5
1EF
330
1DB
100
AcDbEntity
  8
P-SANR-FIXT
100
AcDbLine
 10
965.8522744569825
 20
1357.747075844252
 30
0.0
 11
973.8522744569825
 21
1357.747075844252
 31
0.0
  0
LINE
  5
1F0
330
1DB
100
AcDbEntity
  8
P-SANR-FIXT
100
AcDbLine
 10
965.8522744569825
 20
1373.747075844253
 30
0.0
 11
961.8522744569824
 21
1373.747075844253
 31
0.0
  0
LINE
  5
1F1
330
1DB
100
AcDbEntity
  8
P-SANR-FIXT
100
AcDbLine
 10
961.8522744569826
 20
1359.747075844252
 30
0.0
 11
965.8522744569825
 21
1359.747075844252
 31
0.0
  0
LINE
  5
1F2
330
1DB
100
AcDbEntity
  8
P-SANR-FIXT
100
AcDbLine
 10
961.8522744569824
 20
1370.747075844252
 30
0.0
 11
958.8522744569825
 21
1370.747075844252
 31
0.0
  0
LINE
  5
1F3
330
1DB
100
AcDbEntity
  8
P-SANR-FIXT
100
AcDbLine
 10
958.8522744569825
 20
1362.747075844252
 30
0.0
 11
961.8522744569826
 21
1362.747075844252
 31
0.0
  0
LINE
  5
1F4
330
1DB
100
AcDbEntity
  8
P-SANR-FIXT
100
AcDbLine
 10
958.8522744569825
 20
1372.247075844253
 30
0.0
 11
949.8522744569825
 21
1372.247075844253
 31
0.0
  0
LINE
  5
1F5
330
1DB
100
AcDbEntity
  8
P-SANR-FIXT
100
AcDbLine
 10
949.8522744569825
 20
1361.247075844252
 30
0.0
 11
958.8522744569825
 21
1361.247075844252
 31
0.0
  0
ARC
  5
1F6
330
1DB
100
AcDbEntity
  8
P-SANR-FIXT
100
AcDbCircle
 10
985.784054502001
 20
1366.747075844252
 30
0.0
 40
12.69999999999992
100
AcDbArc
 50
0.0
 51
140.9441345017729
  0
ARC
  5
1F7
330
1DB
100
AcDbEntity
  8
P-SANR-FIXT
100
AcDbCircle
 10
985.784054502001
 20
1366.747075844252
 30
0.0
 40
12.70000000000004
100
AcDbArc
 50
219.0558654982262
 51
0.0
  0
ARC
  5
1F8
330
1DB
100
AcDbEntity
  8
P-SANR-FIXT
100
AcDbCircle
 10
985.784054502001
 20
1366.747075844252
 30
0.0
 40
11.00000000000006
100
AcDbArc
 50
0.0
 51
133.2463702070265
  0
ARC
  5
1F9
330
1DB
100
AcDbEntity
  8
P-SANR-FIXT
100
AcDbCircle
 10
985.784054502001
 20
1366.747075844252
 30
0.0
 40
11.00000000000011
100
AcDbArc
 50
226.7536297929747
 51
0.0
  0
ARC
  5
1FA
330
1DB
100
AcDbEntity
  8
P-SANR-FIXT
100
AcDbCircle
 10
985.7840545020014
 20
1366.747075844252
 30
0.0
 40
9.299999999999906
100
AcDbArc
 50
0.0000000000007061
 51
180.0000000000007
  0
ARC
  5
1FB
330
1DB
100
AcDbEntity
  8
P-SANR-FIXT
100
AcDbCircle
 10
985.7840545020014
 20
1366.747075844252
 30
0.0
 40
9.29999999999984
100
AcDbArc
 50
180.0
 51
0.0
  0
ARC
  5
1FC
330
1DB
100
AcDbEntity
  8
P-SANR-FIXT
100
AcDbCircle
 10
985.7840545020014
 20
1366.747075844252
 30
0.0
 40
7.800000000000125
100
AcDbArc
 50
0.0000000000004198
 51
180.0000000000004
  0
ARC
  5
1FD
330
1DB
100
AcDbEntity
  8
P-SANR-FIXT
100
AcDbCircle
 10
985.7840545020014
 20
1366.747075844252
 30
0.0
 40
7.79999999999984
100
AcDbArc
 50
180.0
 51
0.0
  0
ARC
  5
1FE
330
1DB
100
AcDbEntity
  8
P-SANR-FIXT
100
AcDbCircle
 10
985.7840545020014
 20
1366.747075844252
 30
0.0
 40
6.800000000000044
100
AcDbArc
 50
0.0000000000004834
 51
180.0000000000005
  0
ARC
  5
1FF
330
1DB
100
AcDbEntity
  8
P-SANR-FIXT
100
AcDbCircle
 10
985.7840545020014
 20
1366.747075844252
 30
0.0
 40
6.799999999999954
100
AcDbArc
 50
180.0
 51
0.0
  0
ARC
  5
200
330
1DB
100
AcDbEntity
  8
P-SANR-FIXT
100
AcDbCircle
 10
985.7840545020014
 20
1366.747075844252
 30
0.0
 40
5.800000000000068
100
AcDbArc
 50
0.0
 51
180.0
  0
ARC
  5
201
330
1DB
100
AcDbEntity
  8
P-SANR-FIXT
100
AcDbCircle
 10
985.7840545020014
 20
1366.747075844252
 30
0.0
 40
5.799999999999954
100
AcDbArc
 50
180.0
 51
0.0
  0
ARC
  5
202
330
1DB
100
AcDbEntity
  8
P-SANR-FIXT
100
AcDbCircle
 10
985.7840545020014
 20
1366.747075844252
 30
0.0
 40
1.000000000000113
100
AcDbArc
 50
0.0
 51
180.0
  0
ARC
  5
203
330
1DB
100
AcDbEntity
  8
P-SANR-FIXT
100
AcDbCircle
 10
985.7840545020014
 20
1366.747075844252
 30
0.0
 40
1.0
100
AcDbArc
 50
180.0
 51
0.0
  0
LINE
  5
204
330
1DB
100
AcDbEntity
  8
P-SANR-FIXT
100
AcDbLine
 10
973.8522744569809
 20
1375.747075844252
 30
0.0
 11
973.8522744569809
 21
1366.747075844252
 31
0.0
  0
LINE
  5
205
330
1DB
100
AcDbEntity
  8
P-SANR-FIXT
100
AcDbLine
 10
973.8522744569809
 20
1366.747075844252
 30
0.0
 11
973.8522744569809
 21
1357.747075844252
 31
0.0
  0
LINE
  5
206
330
1DB
100
AcDbEntity
  8
P-SANR-FIXT
100
AcDbLine
 10
965.8522744569809
 20
1375.747075844252
 30
0.0
 11
965.8522744569809
 21
1366.747075844252
 31
0.0
  0
LINE
  5
207
330
1DB
100
AcDbEntity
  8
P-SANR-FIXT
100
AcDbLine
 10
965.8522744569809
 20
1366.747075844252
 30
0.0
 11
965.8522744569809
 21
1357.747075844252
 31
0.0
  0
LINE
  5
208
330
1DB
100
AcDbEntity
  8
P-SANR-FIXT
100
AcDbLine
 10
961.852274456981
 20
1373.747075844252
 30
0.0
 11
961.852274456981
 21
1366.747075844252
 31
0.0
  0
LINE
  5
209
330
1DB
100
AcDbEntity
  8
P-SANR-FIXT
100
AcDbLine
 10
961.852274456981
 20
1366.747075844252
 30
0.0
 11
961.852274456981
 21
1359.747075844252
 31
0.0
  0
LINE
  5
20A
330
1DB
100
AcDbEntity
  8
P-SANR-FIXT
100
AcDbLine
 10
958.8522744569811
 20
1372.247075844252
 30
0.0
 11
958.8522744569811
 21
1366.747075844252
 31
0.0
  0
LINE
  5
20B
330
1DB
100
AcDbEntity
  8
P-SANR-FIXT
100
AcDbLine
 10
958.8522744569811
 20
1366.747075844252
 30
0.0
 11
958.8522744569811
 21
1361.247075844252
 31
0.0
  0
LINE
  5
20C
330
1DB
100
AcDbEntity
  8
P-SANR-FIXT
100
AcDbLine
 10
949.8522744569809
 20
1372.247075844252
 30
0.0
 11
949.8522744569809
 21
1366.747075844253
 31
0.0
  0
LINE
  5
20D
330
1DB
100
AcDbEntity
  8
P-SANR-FIXT
100
AcDbLine
 10
949.8522744569809
 20
1366.747075844253
 30
0.0
 11
949.8522744569809
 21
1361.247075844252
 31
0.0
  0
ARC
  5
20E
330
1DB
100
AcDbEntity
  8
P-SANR-FIXT
100
AcDbCircle
 10
734.6664074431969
 20
1366.747075844253
 30
0.0
 40
6.522931044476649
100
AcDbArc
 50
0.0
 51
179.999999999998
  0
ARC
  5
20F
330
1DB
100
AcDbEntity
  8
P-SANR-FIXT
100
AcDbCircle
 10
734.6664074431969
 20
1366.747075844253
 30
0.0
 40
6.522931044476763
100
AcDbArc
 50
179.999999999998
 51
0.0
  0
ARC
  5
210
330
1DB
100
AcDbEntity
  8
P-SANR-FIXT
100
AcDbCircle
 10
734.6664074431969
 20
1366.747075844253
 30
0.0
 40
4.999999999999928
100
AcDbArc
 50
0.0000000000013104
 51
179.9999999999987
  0
ARC
  5
211
330
1DB
100
AcDbEntity
  8
P-SANR-FIXT
100
AcDbCircle
 10
734.6664074431969
 20
1366.747075844253
 30
0.0
 40
4.999999999999886
100
AcDbArc
 50
179.9999999999974
 51
0.0
  0
ARC
  5
212
330
1DB
100
AcDbEntity
  8
P-SANR-FIXT
100
AcDbCircle
 10
734.6664074431969
 20
1366.747075844253
 30
0.0
 40
7.499999999999772
100
AcDbArc
 50
0.0000000000017366
 51
180.0
  0
ARC
  5
213
330
1DB
100
AcDbEntity
  8
P-SANR-FIXT
100
AcDbCircle
 10
734.6664074431969
 20
1366.747075844253
 30
0.0
 40
7.499999999999886
100
AcDbArc
 50
179.9999999999982
 51
0.0
  0
LINE
  5
214
330
1DB
100
AcDbEntity
  8
P-SANR-FIXT
100
AcDbLine
 10
800.6586121655896
 20
1375.488277872064
 30
0.0
 11
796.776326489052
 21
1375.488277872064
 31
0.0
  0
LINE
  5
215
330
1DB
100
AcDbEntity
  8
P-SANR-FIXT
100
AcDbLine
 10
796.7763264890517
 20
1358.005873816442
 30
0.0
 11
800.6586121655896
 21
1358.005873816442
 31
0.0
  0
ELLIPSE
  5
216
330
1DB
100
AcDbEntity
  8
P-SANR-FIXT
100
AcDbEllipse
 10
804.023259751921
 20
1366.747075844253
 30
0.0
 11
0.0
 21
6.841202027811258
 31
0.0
210
0.0
220
0.0
230
1.0
 40
0.9659258262890777
 41
4.712388980384685
 42
5.908121230763134
  0
ELLIPSE
  5
217
330
1DB
100
AcDbEntity
  8
P-SANR-FIXT
100
AcDbEllipse
 10
804.023259751921
 20
1366.747075844253
 30
0.0
 11
0.0
 21
6.841202027811505
 31
0.0
210
0.0
220
0.0
230
1.0
 40
0.9659258262890483
 41
3.516656730006337
 42
4.712388980384685
  0
ELLIPSE
  5
218
330
1DB
100
AcDbEntity
  8
P-SANR-FIXT
100
AcDbEllipse
 10
801.8232978685498
 20
1366.747075844253
 30
0.0
 11
0.0
 21
7.841202027811029
 31
0.0
210
0.0
220
0.0
230
0.9999999999999998
 40
0.9659258262890746
 41
4.712388980384685
 42
5.459889342100391
  0
ELLIPSE
  5
219
330
1DB
100
AcDbEntity
  8
P-SANR-FIXT
100
AcDbEllipse
 10
801.8232978685498
 20
1366.747075844253
 30
0.0
 11
0.0
 21
7.841202027811277
 31
0.0
210
0.0
220
0.0
230
1.0
 40
0.9659258262890389
 41
3.964888618668997
 42
4.712388980384685
  0
ELLIPSE
  5
21A
330
1DB
100
AcDbEntity
  8
P-SANR-FIXT
100
AcDbEllipse
 10
800.6586121655882
 20
1366.747075844253
 30
0.0
 11
0.0
 21
8.741202027810913
 31
0.0
210
0.0
220
0.0
230
1.0
 40
0.9659258262891004
 41
4.712388980384685
 42
6.283185307179588
  0
ELLIPSE
  5
21B
330
1DB
100
AcDbEntity
  8
P-SANR-FIXT
100
AcDbEllipse
 10
800.6586121655882
 20
1366.747075844253
 30
0.0
 11
0.0
 21
8.741202027811141
 31
0.0
210
0.0
220
0.0
230
1.0
 40
0.9659258262890752
 41
3.141592653589788
 42
4.712388980384685
  0
ELLIPSE
  5
21C
330
1DB
100
AcDbEntity
  8
P-SANR-FIXT
100
AcDbEllipse
 10
796.7763264890505
 20
1366.747075844253
 30
0.0
 11
0.0
 21
8.741202027810913
 31
0.0
210
0.0
220
0.0
230
1.0
 40
0.9659258262891004
 41
4.712388980384685
 42
7.853981633974458
  0
ELLIPSE
  5
21D
330
1DB
100
AcDbEntity
  8
P-SANR-FIXT
100
AcDbEllipse
 10
796.7763264890505
 20
1366.747075844253
 30
0.0
 11
0.0
 21
8.741202027811141
 31
0.0
210
0.0
220
0.0
230
1.0
 40
0.9659258262890492
 41
1.570796326794872
 42
4.712388980384685
  0
LINE
  5
21E
330
1DB
100
AcDbEntity
  8
P-SANR-FIXT
100
AcDbLine
 10
805.8312837292998
 20
1396.747075844243
 30
0.0
 11
804.5371885037871
 21
1396.747075844243
 31
0.0
  0
LINE
  5
21F
330
1DB
100
AcDbEntity
  8
P-SANR-FIXT
100
AcDbLine
 10
1002.66640744318
 20
1459.247075844248
 30
0.0
 11
986.6664074431799
 21
1459.247075844248
 31
0.0
  0
LINE
  5
220
330
1DB
100
AcDbEntity
  8
P-SANR-FIXT
100
AcDbLine
 10
986.6664074431794
 20
1274.247075844239
 30
0.0
 11
1002.666407443179
 21
1274.247075844239
 31
0.0
  0
LINE
  5
221
330
1DB
100
AcDbEntity
  8
P-SANR-FIXT
100
AcDbLine
 10
1005.66640744318
 20
1426.747075844244
 30
0.0
 11
1002.66640744318
 21
1426.747075844244
 31
0.0
  0
LINE
  5
222
330
1DB
100
AcDbEntity
  8
P-SANR-FIXT
100
AcDbLine
 10
1002.666407443179
 20
1306.747075844243
 30
0.0
 11
1005.666407443179
 21
1306.747075844243
 31
0.0
  0
LINE
  5
223
330
1DB
100
AcDbEntity
  8
P-SANR-FIXT
100
AcDbLine
 10
718.6664074431965
 20
1426.747075844216
 30
0.0
 11
715.6664074431971
 21
1426.747075844216
 31
0.0
  0
LINE
  5
224
330
1DB
100
AcDbEntity
  8
P-SANR-FIXT
100
AcDbLine
 10
715.6664074431967
 20
1306.747075844274
 30
0.0
 11
718.6664074431962
 21
1306.747075844274
 31
0.0
  0
LINE
  5
225
330
1DB
100
AcDbEntity
  8
P-SANR-FIXT
100
AcDbLine
 10
734.6664074431966
 20
1459.247075844249
 30
0.0
 11
718.6664074431966
 21
1459.247075844249
 31
0.0
  0
LINE
  5
226
330
1DB
100
AcDbEntity
  8
P-SANR-FIXT
100
AcDbLine
 10
718.666407443196
 20
1274.247075844242
 30
0.0
 11
734.666407443196
 21
1274.247075844241
 31
0.0
  0
LINE
  5
227
330
1DB
100
AcDbEntity
  8
P-SANR-FIXT
100
AcDbLine
 10
965.8522744569825
 20
1374.747075844252
 30
0.0
 11
902.9288160272621
 21
1374.747075844253
 31
0.0
  0
LINE
  5
228
330
1DB
100
AcDbEntity
  8
P-SANR-FIXT
100
AcDbLine
 10
755.2345433795538
 20
1374.747075844253
 30
0.0
 11
747.3549849836416
 21
1374.747075844253
 31
0.0
  0
LINE
  5
229
330
1DB
100
AcDbEntity
  8
P-SANR-FIXT
100
AcDbLine
 10
747.3549849836501
 20
1358.747075844253
 30
0.0
 11
755.2398533254741
 21
1358.747075844253
 31
0.0
  0
LINE
  5
22A
330
1DB
100
AcDbEntity
  8
P-SANR-FIXT
100
AcDbLine
 10
902.9288160272624
 20
1358.747075844253
 30
0.0
 11
965.8522744569825
 21
1358.747075844252
 31
0.0
  0
LINE
  5
22B
330
1DB
100
AcDbEntity
  8
P-SANR-FIXT
100
AcDbLine
 10
804.53718850379
 20
1336.747075844243
 30
0.0
 11
805.8312837293025
 21
1336.747075844243
 31
0.0
  0
LINE
  5
22C
330
1DB
100
AcDbEntity
  8
P-SANR-FIXT
100
AcDbLine
 10
807.9018360901196
 20
1408.747075844243
 30
0.0
 11
807.1253789548119
 21
1408.747075844243
 31
0.0
  0
LINE
  5
22D
330
1DB
100
AcDbEntity
  8
P-SANR-FIXT
100
AcDbLine
 10
807.1253789548155
 20
1324.747075844243
 30
0.0
 11
807.901836090123
 21
1324.747075844243
 31
0.0
  0
LINE
  5
22E
330
1DB
100
AcDbEntity
  8
P-SANR-FIXT
100
AcDbLine
 10
811.5253027215548
 20
1412.747075844244
 30
0.0
 11
808.4447735033373
 21
1412.747075844244
 31
0.0
  0
LINE
  5
22F
330
1DB
100
AcDbEntity
  8
P-SANR-FIXT
100
AcDbLine
 10
808.444773503341
 20
1320.747075844243
 30
0.0
 11
811.5253027215583
 21
1320.747075844243
 31
0.0
  0
LINE
  5
230
330
1DB
100
AcDbEntity
  8
P-SANR-FIXT
100
AcDbLine
 10
842.6585031956923
 20
1431.503238117458
 30
0.0
 11
829.124997788525
 21
1431.503238117457
 31
0.0
  0
LINE
  5
231
330
1DB
100
AcDbEntity
  8
P-SANR-FIXT
100
AcDbLine
 10
829.1249977885307
 20
1301.990913571031
 30
0.0
 11
842.6585031956978
 21
1301.990913571031
 31
0.0
  0
LINE
  5
232
330
1DB
100
AcDbEntity
  8
P-SANR-FIXT
100
AcDbLine
 10
875.1947878167722
 20
1466.747075844246
 30
0.0
 11
873.9006925912594
 21
1466.747075844246
 31
0.0
  0
LINE
  5
233
330
1DB
100
AcDbEntity
  8
P-SANR-FIXT
100
AcDbLine
 10
873.9006925912679
 20
1266.747075844246
 30
0.0
 11
875.1947878167806
 21
1266.747075844246
 31
0.0
  0
LINE
  5
234
330
1DB
100
AcDbEntity
  8
P-SANR-FIXT
100
AcDbLine
 10
880.6070510977205
 20
1466.747075844246
 30
0.0
 11
877.9532854534085
 21
1466.747075844246
 31
0.0
  0
LINE
  5
235
330
1DB
100
AcDbEntity
  8
P-SANR-FIXT
100
AcDbLine
 10
877.9532854534171
 20
1266.747075844246
 30
0.0
 11
880.6070510977288
 21
1266.747075844246
 31
0.0
  0
LINE
  5
236
330
1DB
100
AcDbEntity
  8
P-SANR-FIXT
100
AcDbLine
 10
986.664175473936
 20
1417.91039439278
 30
0.0
 11
947.5242970276813
 21
1410.710498624015
 31
0.0
  0
LINE
  5
237
330
1DB
100
AcDbEntity
  8
P-SANR-FIXT
100
AcDbLine
 10
947.5242970276815
 20
1322.78365306449
 30
0.0
 11
986.6641896925994
 21
1315.583754680159
 31
0.0
  0
LWPOLYLINE
  5
238
330
1DB
100
AcDbEntity
  8
P-SANR-FIXT
100
AcDbPolyline
 90
        3
 70
   128
 43
0.0
 10
899.9999305885994
 20
1409.973185314032
 10
931.6996195693663
 20
1408.192879494116
 10
947.4823500150479
 20
1410.701748311156
  0
LWPOLYLINE
  5
239
330
1DB
100
AcDbEntity
  8
P-SANR-FIXT
100
AcDbPolyline
 90
        3
 70
   128
 43
0.0
 10
899.9999305886104
 20
1323.520966374475
 10
931.6996195693777
 20
1325.301272194388
 10
947.4823500150559
 20
1322.792403377346
  0
LINE
  5
23A
330
1DB
100
AcDbEntity
  8
P-SANR-FIXT
100
AcDbLine
 10
900.1446152141264
 20
1409.923338374024
 30
0.0
 11
876.1117235442181
 21
1421.491546204352
 31
0.0
  0
LWPOLYLINE
  5
23B
330
1DB
100
AcDbEntity
  8
P-SANR-FIXT
100
AcDbPolyline
 90
        4
 70
   128
 43
0.0
 10
873.5734355455228
 20
1310.41603850513
 10
875.828760189351
 20
1311.045337525334
 10
896.2346824645225
 20
1321.045915578471
 10
900.2232284198131
 20
1323.584214886414
  0
LINE
  5
23C
330
1DB
100
AcDbEntity
  8
P-SANR-FIXT
100
AcDbLine
 10
754.7508184000676
 20
1406.137768342178
 30
0.0
 11
757.8365726850059
 21
1405.781318060249
 31
0.0
  0
LWPOLYLINE
  5
23D
330
1DB
100
AcDbEntity
  8
P-SANR-FIXT
100
AcDbPolyline
 90
        3
 70
   128
 43
0.0
 10
754.7508184000676
 20
1406.137768342178
 10
740.1684644435573
 20
1406.51529490875
 10
734.6675233108498
 20
1405.657282774097
  0
LWPOLYLINE
  5
23E
330
1DB
100
AcDbEntity
  8
P-SANR-FIXT
100
AcDbPolyline
 90
        3
 70
   128
 43
0.0
 10
754.7508184000671
 20
1327.356383346328
 10
740.168464443557
 20
1326.978856779756
 10
734.6664074431962
 20
1327.837215347176
  0
LINE
  5
23F
330
1DB
100
AcDbEntity
  8
P-SANR-FIXT
100
AcDbLine
 10
754.7508184000671
 20
1327.356383346328
 30
0.0
 11
757.8597551555508
 21
1327.715511546652
 31
0.0
  0
LINE
  5
240
330
1DB
100
AcDbEntity
  8
P-SANR-FIXT
100
AcDbLine
 10
936.7332635318582
 20
1376.747075844252
 30
0.0
 11
877.56590573482
 21
1376.747075844252
 31
0.0
  0
LINE
  5
241
330
1DB
100
AcDbEntity
  8
P-SANR-FIXT
100
AcDbLine
 10
877.5659057348248
 20
1356.747075844252
 30
0.0
 11
936.7332635318584
 21
1356.747075844252
 31
0.0
  0
LWPOLYLINE
  5
242
330
1DB
100
AcDbEntity
  8
P-SANR-FIXT
100
AcDbPolyline
 90
       10
 70
   128
 43
0.0
 10
829.1249977885234
 20
1431.503238117458
 10
826.6015117649677
 20
1431.450981247147
 10
824.0821764763349
 20
1431.294301306593
 10
821.5711341884013
 20
1431.033470040061
 10
819.0725102769798
 20
1430.668939468237
 10
816.5904049027867
 20
1430.20134056931
 10
814.1288848274145
 20
1429.631481453641
 10
811.6919754130465
 20
1428.960345052426
 10
809.2836528449703
 20
1428.189086345601
 10
808.6301632140424
 20
1427.949769288078
  0
LWPOLYLINE
  5
243
330
1DB
100
AcDbEntity
  8
P-SANR-FIXT
100
AcDbPolyline
 90
       10
 70
   128
 43
0.0
 10
808.6131979962287
 20
1305.545919023834
 10
810.6817217247247
 20
1304.844045541987
 10
813.1071639144133
 20
1304.130913109992
 10
815.5588850177194
 20
1303.518595995985
 10
818.0328792938347
 20
1303.008149401009
 10
820.5250963227637
 20
1302.600454809421
 10
823.0314489170119
 20
1302.296217481655
 10
825.5478212338172
 20
1302.09596442299
 10
828.0700770466895
 20
1302.000042850836
 10
829.1249977885291
 20
1301.990913571031
  0
LWPOLYLINE
  5
244
330
1DB
100
AcDbEntity
  8
P-SANR-FIXT
100
AcDbPolyline
 90
       33
 70
   128
 43
0.0
 10
902.5573404479414
 20
1386.27236814681
 10
901.7549247179484
 20
1388.717521264267
 10
900.8584209175811
 20
1391.128255111188
 10
899.8691745286823
 20
1393.500762371094
 10
898.788673892524
 20
1395.831286481625
 10
897.6185490325836
 20
1398.116127021372
 10
896.3605703268513
 20
1400.351645136903
 10
895.0166470187912
 20
1402.534269011439
 10
893.5888255548105
 20
1404.66049937553
 10
892.0792877348558
 20
1406.726915058792
 10
890.4903486616081
 20
1408.730178580195
 10
888.8244544727083
 20
1410.667041772499
 10
887.0841798396078
 20
1412.534351434344
 10
885.2722252160354
 20
1414.329055001072
 10
883.3914138187749
 20
1416.048206222711
 10
881.4446883235353
 20
1417.6889708347
 10
879.4351072591943
 20
1419.248632203896
 10
877.3658410846941
 20
1420.724596929267
 10
875.240167934395
 20
1422.114400373543
 10
873.0614690197752
 20
1423.415712098991
 10
870.8332236780284
 20
1424.626341177598
 10
868.5590040613508
 20
1425.744241343262
 10
866.2424694644791
 20
1426.767515951401
 10
863.887360292327
 20
1427.694422709613
 10
861.4974916742534
 20
1428.523378141908
 10
859.076746736512
 20
1429.252961748595
 10
856.6290695496487
 20
1429.881919824265
 10
854.1584577728784
 20
1430.409168897482
 10
851.6689550226733
 20
1430.83379875784
 10
849.1646429977047
 20
1431.155075038924
 10
846.6496333968285
 20
1431.372441329432
 10
844.1280596707462
 20
1431.485520789124
 10
842.6585031956909
 20
1431.503238117458
  0
LWPOLYLINE
  5
245
330
1DB
100
AcDbEntity
  8
P-SANR-FIXT
100
AcDbPolyline
 90
       33
 70
   128
 43
0.0
 10
842.6585031956966
 20
1301.990913571031
 10
845.1819892192522
 20
1302.04317044134
 10
847.7013245078849
 20
1302.199850381895
 10
850.2123667958185
 20
1302.460681648427
 10
852.7109907072402
 20
1302.825212220251
 10
855.1930960814333
 20
1303.292811119178
 10
857.6546161568055
 20
1303.862670234847
 10
860.0915255711734
 20
1304.533806636061
 10
862.4998481392498
 20
1305.305065342887
 10
864.8756643724771
 20
1306.175122530089
 10
867.2151187110811
 20
1307.14248912918
 10
869.5144264432567
 20
1308.205514793739
 10
871.7698802916604
 20
1309.362392191049
 10
873.9778566526307
 20
1310.611161582236
 10
876.1348214787185
 20
1311.949715653076
 10
878.2373357999942
 20
1313.375804558399
 10
880.2820608841338
 20
1314.887041144366
 10
882.2657630393553
 20
1316.480906314911
 10
884.1853180678427
 20
1318.154754511028
 10
886.0377153802827
 20
1319.905819274347
 10
887.8200617845694
 20
1321.731218869468
 10
889.5295849635742
 20
1323.627961942613
 10
891.1636366581818
 20
1325.59295319733
 10
892.719695572577
 20
1327.622999071072
 10
894.1953700190815
 20
1329.714813399444
 10
895.5884003197724
 20
1331.865023057678
 10
896.8966609816636
 20
1334.070173571468
 10
898.1181626615379
 20
1336.326734691571
 10
899.2510539355803
 20
1338.631105928602
 10
900.293622887874
 20
1340.979622046203
 10
901.2442985306332
 20
1343.368558512197
 10
902.1016520677848
 20
1345.794136908602
 10
902.5573404479471
 20
1347.221783541696
  0
LWPOLYLINE
  5
246
330
1DB
100
AcDbEntity
  8
P-SANR-FIXT
100
AcDbPolyline
 90
       29
 70
   128
 43
0.0
 10
965.891288416218
 20
1414.077330159781
 10
964.6959586110893
 20
1416.342547891701
 10
962.7107341711523
 20
1419.771226601659
 10
960.594103006635
 20
1423.115852787535
 10
958.3493586915222
 20
1426.371065615436
 10
955.9800011719365
 20
1429.531636453787
 10
953.4897324575245
 20
1432.59247738963
 10
950.8824519807571
 20
1435.548649671267
 10
948.1622516133253
 20
1438.395372065317
 10
945.3334103285577
 20
1441.128029114248
 10
942.4003884988183
 20
1443.742179278125
 10
939.3678218172253
 20
1446.233562941965
 10
936.2405148338002
 20
1448.598110267468
 10
933.0234340973724
 20
1450.831948865328
 10
929.7217008962467
 20
1452.931411261699
 10
926.3405835928445
 20
1454.893042129906
 10
922.8854895502143
 20
1456.71360525615
 10
919.3619566515184
 20
1458.390090205945
 10
915.7756444172555
 20
1459.919718656372
 10
912.1323247290717
 20
1461.299950358083
 10
908.4378721734218
 20
1462.528488690419
 10
904.6982540230164
 20
1463.603285773057
 10
900.919519878786
 20
1464.522547098442
 10
897.1077909998953
 20
1465.284735650782
 10
893.269249354004
 20
1465.888575479726
 10
889.4101264243611
 20
1466.333054699924
 10
885.5366918142797
 20
1466.617427891494
 10
881.6552416929535
 20
1466.741217880821
 10
880.6070510977185
 20
1466.747075844246
  0
LWPOLYLINE
  5
247
330
1DB
100
AcDbEntity
  8
P-SANR-FIXT
100
AcDbPolyline
 90
       28
 70
   128
 43
0.0
 10
880.6070510977269
 20
1266.747075844246
 10
884.4895834285956
 20
1266.827476253028
 10
888.3658026776988
 20
1267.068542521484
 10
892.2294075013009
 20
1267.469870100971
 10
896.0741199817881
 20
1268.03078582426
 10
899.8936972167717
 20
1268.750349516207
 10
903.6819427618924
 20
1269.627356228788
 10
907.4327178825653
 20
1270.660339081251
 10
911.1399525731298
 20
1271.847572681522
 10
914.7976563057039
 20
1273.187077101044
 10
918.3999284753298
 20
1274.676622371911
 10
921.940968512597
 20
1276.313733472652
 10
925.4150856397101
 20
1278.095695767226
 10
928.8167082507833
 20
1280.019560860831
 10
932.1403929018522
 20
1282.08215283581
 10
935.3808329005948
 20
1284.280074831384
 10
938.5328664899324
 20
1286.609715931945
 10
941.5914846234654
 20
1289.067258330129
 10
944.5518383340255
 20
1291.648684732878
 10
947.4092456994622
 20
1294.349785980893
 10
950.1591984121105
 20
1297.166168854405
 10
952.7973679602082
 20
1300.093264040711
 10
955.3196114308708
 20
1303.126334241597
 10
957.7219769451176
 20
1306.260482401319
 10
960.000708735923
 20
1309.490660038253
 10
962.1522518803862
 20
1312.811675665704
 10
964.1732566969354
 20
1316.218203289384
 10
965.9033796229499
 20
1319.414378668975
  0
LINE
  5
248
330
1DB
100
AcDbEntity
  8
P-SANR-FIXT
100
AcDbLine
 10
877.7310174161078
 20
1466.747075844246
 30
0.0
 11
875.1947878167722
 21
1466.747075844246
 31
0.0
  0
LINE
  5
249
330
1DB
100
AcDbEntity
  8
P-SANR-FIXT
100
AcDbLine
 10
875.1947878167806
 20
1266.747075844246
 30
0.0
 11
877.731017416116
 21
1266.747075844246
 31
0.0
  0
ELLIPSE
  5
24A
330
1DB
100
AcDbEntity
  8
P-SANR-FIXT
100
AcDbEllipse
 10
804.5371885037871
 20
1366.747075844243
 30
0.0
 11
0.0
 21
29.99999999999998
 31
0.0
210
0.0
220
0.0
230
1.0
 40
0.9659258262890716
 41
4.712388980384685
 42
7.651418323333339
  0
LINE
  5
24B
330
1DB
100
AcDbEntity
  8
P-SANR-FIXT
100
AcDbLine
 10
986.6664074431779
 20
1379.415150772012
 30
0.0
 11
986.6664074431783
 21
1459.247075844247
 31
0.0
  0
LINE
  5
24C
330
1DB
100
AcDbEntity
  8
P-SANR-FIXT
100
AcDbLine
 10
986.6664074431774
 20
1274.247075844239
 30
0.0
 11
986.6664074431779
 21
1354.079000916492
 31
0.0
  0
LINE
  5
24D
330
1DB
100
AcDbEntity
  8
P-SANR-FIXT
100
AcDbLine
 10
1002.666407443178
 20
1366.747075844242
 30
0.0
 11
1002.666407443178
 21
1459.247075844247
 31
0.0
  0
LINE
  5
24E
330
1DB
100
AcDbEntity
  8
P-SANR-FIXT
100
AcDbLine
 10
1002.666407443177
 20
1274.247075844239
 30
0.0
 11
1002.666407443178
 21
1366.747075844242
 31
0.0
  0
LINE
  5
24F
330
1DB
100
AcDbEntity
  8
P-SANR-FIXT
100
AcDbLine
 10
1005.666407443178
 20
1366.747075844242
 30
0.0
 11
1005.666407443178
 21
1426.747075844244
 31
0.0
  0
LINE
  5
250
330
1DB
100
AcDbEntity
  8
P-SANR-FIXT
100
AcDbLine
 10
1005.666407443177
 20
1306.747075844242
 30
0.0
 11
1005.666407443178
 21
1366.747075844242
 31
0.0
  0
LINE
  5
251
330
1DB
100
AcDbEntity
  8
P-SANR-FIXT
100
AcDbLine
 10
715.6664074431956
 20
1366.747075844244
 30
0.0
 11
715.6664074431959
 21
1426.747075844215
 31
0.0
  0
LINE
  5
252
330
1DB
100
AcDbEntity
  8
P-SANR-FIXT
100
AcDbLine
 10
715.6664074431953
 20
1306.747075844274
 30
0.0
 11
715.6664074431956
 21
1366.747075844244
 31
0.0
  0
LINE
  5
253
330
1DB
100
AcDbEntity
  8
P-SANR-FIXT
100
AcDbLine
 10
718.6664074431951
 20
1366.747075844244
 30
0.0
 11
718.6664074431953
 21
1459.247075844248
 31
0.0
  0
LINE
  5
254
330
1DB
100
AcDbEntity
  8
P-SANR-FIXT
100
AcDbLine
 10
718.6664074431945
 20
1274.247075844241
 30
0.0
 11
718.6664074431951
 21
1366.747075844243
 31
0.0
  0
LINE
  5
255
330
1DB
100
AcDbEntity
  8
P-SANR-FIXT
100
AcDbLine
 10
734.666407443195
 20
1374.248357285628
 30
0.0
 11
734.6664074431954
 21
1459.247075844248
 31
0.0
  0
LINE
  5
256
330
1DB
100
AcDbEntity
  8
P-SANR-FIXT
100
AcDbLine
 10
734.6664074431945
 20
1274.247075844241
 30
0.0
 11
734.666407443195
 21
1359.245794402879
 31
0.0
  0
SPLINE
  5
257
330
1DB
100
AcDbEntity
  8
P-SANR-FIXT
100
AcDbSpline
210
0.0
220
0.0
230
1.0
 70
    24
 71
     3
 72
     8
 73
     4
 74
     0
 42
0.000000001
 43
0.0000000001
 40
0.7556114235183508
 40
0.7556114235183508
 40
0.7556114235183508
 40
0.7556114235183508
 40
0.7560023873275071
 40
0.7560023873275071
 40
0.7560023873275071
 40
0.7560023873275071
 10
747.3512171531239
 20
1358.747075844253
 30
0.0
 10
747.3445254151341
 20
1358.747075844253
 30
0.0
 10
747.3378335827982
 20
1358.747075844253
 30
0.0
 10
747.3311416552664
 20
1358.747075844253
 30
0.0
  0
SPLINE
  5
258
330
1DB
100
AcDbEntity
  8
P-SANR-FIXT
100
AcDbSpline
210
0.0
220
0.0
230
1.0
 70
    24
 71
     3
 72
     8
 73
     4
 74
     0
 42
0.000000001
 43
0.0000000001
 40
0.2439976126724834
 40
0.2439976126724834
 40
0.2439976126724834
 40
0.2439976126724834
 40
0.2443885764814657
 40
0.2443885764814657
 40
0.2443885764814657
 40
0.2443885764814657
 10
747.3311416082534
 20
1374.747075844253
 30
0.0
 10
747.3378335668817
 20
1374.747075844253
 30
0.0
 10
747.3445254151283
 20
1374.747075844253
 30
0.0
 10
747.3512171531151
 20
1374.747075844253
 30
0.0
  0
SPLINE
  5
259
330
1DB
100
AcDbEntity
  8
P-SANR-FIXT
100
AcDbSpline
210
0.0
220
0.0
230
1.0
 70
     8
 71
     3
 72
     8
 73
     4
 74
     0
 42
0.000000001
 43
0.0000000001
 40
0.1481481481481481
 40
0.1481481481481481
 40
0.1481481481481481
 40
0.1481481481481481
 40
0.1602955543756673
 40
0.1602955543756673
 40
0.1602955543756673
 40
0.1602955543756673
 10
747.8567969599111
 20
1373.88188712685
 30
0.0
 10
747.8821466155694
 20
1373.836388187219
 30
0.0
 10
747.9083566451273
 20
1373.789264415128
 30
0.0
 10
747.9351377505651
 20
1373.740539391389
 30
0.0
  0
SPLINE
  5
25A
330
1DB
100
AcDbEntity
  8
P-SANR-FIXT
100
AcDbSpline
210
0.0
220
0.0
230
1.0
 70
     8
 71
     3
 72
     9
 73
     5
 74
     0
 42
0.000000001
 43
0.0000000001
 40
0.2222222222222222
 40
0.2222222222222222
 40
0.2222222222222222
 40
0.2222222222222222
 40
0.2361111111111111
 40
0.2361727303868593
 40
0.2361727303868593
 40
0.2361727303868593
 40
0.2361727303868593
 10
748.3583138211705
 20
1372.873387927119
 30
0.0
 10
748.3892197585774
 20
1372.799684666673
 30
0.0
 10
748.4203501649566
 20
1372.723783973133
 30
0.0
 10
748.4523686663548
 20
1372.646185385774
 30
0.0
 10
748.4525101090787
 20
1372.645842600349
 30
0.0
  0
SPLINE
  5
25B
330
1DB
100
AcDbEntity
  8
P-SANR-FIXT
100
AcDbSpline
210
0.0
220
0.0
230
1.0
 70
     8
 71
     3
 72
     8
 73
     4
 74
     0
 42
0.000000001
 43
0.0000000001
 40
0.2962962962962963
 40
0.2962962962962963
 40
0.2962962962962963
 40
0.2962962962962963
 40
0.2983392942220724
 40
0.2983392942220724
 40
0.2983392942220724
 40
0.2983392942220724
 10
748.8795336163462
 20
1371.549036317415
 30
0.0
 10
748.8842129783854
 20
1371.535576981611
 30
0.0
 10
748.8888776452839
 20
1371.522083131879
 30
0.0
 10
748.8935266679312
 20
1371.508554828607
 30
0.0
  0
SPLINE
  5
25C
330
1DB
100
AcDbEntity
  8
P-SANR-FIXT
100
AcDbSpline
210
0.0
220
0.0
230
1.0
 70
     8
 71
     3
 72
     8
 73
     4
 74
     0
 42
0.000000001
 43
0.0000000001
 40
0.4040143964947939
 40
0.4040143964947939
 40
0.4040143964947939
 40
0.4040143964947939
 40
0.4074074074074074
 40
0.4074074074074074
 40
0.4074074074074074
 40
0.4074074074074074
 10
749.4696627742504
 20
1369.159458804721
 30
0.0
 10
749.4743081862196
 20
1369.13213376307
 30
0.0
 10
749.4788787949426
 20
1369.104757409587
 30
0.0
 10
749.4833704842359
 20
1369.077331937335
 30
0.0
  0
SPLINE
  5
25D
330
1DB
100
AcDbEntity
  8
P-SANR-FIXT
100
AcDbSpline
210
0.0
220
0.0
230
1.0
 70
     8
 71
     3
 72
     8
 73
     4
 74
     0
 42
0.000000001
 43
0.0000000001
 40
0.4444444444444445
 40
0.4444444444444445
 40
0.4444444444444445
 40
0.4444444444444445
 40
0.4526048339092795
 40
0.4526048339092795
 40
0.4526048339092795
 40
0.4526048339092795
 10
749.5993803127215
 20
1368.163522552733
 30
0.0
 10
749.6055895710528
 20
1368.095318213567
 30
0.0
 10
749.611296828495
 20
1368.02688187916
 30
0.0
 10
749.6165143474827
 20
1367.958245535512
 30
0.0
  0
SPLINE
  5
25E
330
1DB
100
AcDbEntity
  8
P-SANR-FIXT
100
AcDbSpline
210
0.0
220
0.0
230
1.0
 70
     8
 71
     3
 72
     8
 73
     4
 74
     0
 42
0.000000001
 43
0.0000000001
 40
0.5474900332455355
 40
0.5474900332455355
 40
0.5474900332455355
 40
0.5474900332455355
 40
0.5555555555555556
 40
0.5555555555555556
 40
0.5555555555555556
 40
0.5555555555555556
 10
749.6162948977399
 20
1365.535826324921
 30
0.0
 10
749.6112316216939
 20
1365.46801968828
 30
0.0
 10
749.605679249738
 20
1365.400403252671
 30
0.0
 10
749.5996046426974
 20
1365.332996143247
 30
0.0
  0
SPLINE
  5
25F
330
1DB
100
AcDbEntity
  8
P-SANR-FIXT
100
AcDbSpline
210
0.0
220
0.0
230
1.0
 70
     8
 71
     3
 72
     8
 73
     4
 74
     0
 42
0.000000001
 43
0.0000000001
 40
0.5925925925925926
 40
0.5925925925925926
 40
0.5925925925925926
 40
0.5925925925925926
 40
0.5960606501124887
 40
0.5960606501124887
 40
0.5960606501124887
 40
0.5960606501124887
 10
749.4836204548152
 20
1364.418654346702
 30
0.0
 10
749.479032226753
 20
1364.390600692431
 30
0.0
 10
749.4743619112881
 20
1364.362598542279
 30
0.0
 10
749.4696132631045
 20
1364.334650249857
 30
0.0
  0
SPLINE
  5
260
330
1DB
100
AcDbEntity
  8
P-SANR-FIXT
100
AcDbSpline
210
0.0
220
0.0
230
1.0
 70
     8
 71
     3
 72
     8
 73
     4
 74
     0
 42
0.000000001
 43
0.0000000001
 40
0.7017255999377489
 40
0.7017255999377489
 40
0.7017255999377489
 40
0.7017255999377489
 40
0.7037037037037035
 40
0.7037037037037035
 40
0.7037037037037035
 40
0.7037037037037035
 10
748.8935419068432
 20
1361.985632335688
 30
0.0
 10
748.8890444417681
 20
1361.972547456239
 30
0.0
 10
748.8845325287175
 20
1361.959494961469
 30
0.0
 10
748.8800070027465
 20
1361.946474887459
 30
0.0
  0
SPLINE
  5
261
330
1DB
100
AcDbEntity
  8
P-SANR-FIXT
100
AcDbSpline
210
0.0
220
0.0
230
1.0
 70
     8
 71
     3
 72
     8
 73
     4
 74
     0
 42
0.000000001
 43
0.0000000001
 40
0.763946854816996
 40
0.763946854816996
 40
0.763946854816996
 40
0.763946854816996
 40
0.7777777777777778
 40
0.7777777777777778
 40
0.7777777777777778
 40
0.7777777777777778
 10
748.4525880746801
 20
1360.848426794424
 30
0.0
 10
748.4208686873378
 20
1360.771514287363
 30
0.0
 10
748.3900118224974
 20
1360.696252438718
 30
0.0
 10
748.35923140216
 20
1360.622814906892
 30
0.0
  0
SPLINE
  5
262
330
1DB
100
AcDbEntity
  8
P-SANR-FIXT
100
AcDbSpline
210
0.0
220
0.0
230
1.0
 70
     8
 71
     3
 72
     8
 73
     4
 74
     0
 42
0.000000001
 43
0.0000000001
 40
0.8397774484075268
 40
0.8397774484075268
 40
0.8397774484075268
 40
0.8397774484075268
 40
0.8518518518518513
 40
0.8518518518518513
 40
0.8518518518518513
 40
0.8518518518518513
 10
747.9351537403299
 20
1359.753623505689
 30
0.0
 10
747.9085006981967
 20
1359.70512806801
 30
0.0
 10
747.8824482217992
 20
1359.658290774874
 30
0.0
 10
747.8572233461071
 20
1359.613014654244
 30
0.0
  0
SPLINE
  5
263
330
1DB
100
AcDbEntity
  8
P-SANR-FIXT
100
AcDbSpline
210
0.0
220
0.0
230
1.0
 70
     8
 71
     3
 72
    55
 73
    51
 74
     0
 42
0.000000001
 43
0.0000000001
 40
0.0
 40
0.0
 40
0.0
 40
0.0
 40
0.0555555555555556
 40
0.0833333333333333
 40
0.0972222222222222
 40
0.1111111111111111
 40
0.125
 40
0.1388888888888889
 40
0.1666666666666666
 40
0.1944444444444444
 40
0.2083333333333333
 40
0.2152777777777778
 40
0.2222222222222222
 40
0.2291666666666666
 40
0.2361111111111111
 40
0.25
 40
0.2777777777777778
 40
0.3055555555555556
 40
0.3194444444444444
 40
0.3333333333333333
 40
0.3472222222222222
 40
0.3611111111111111
 40
0.3888888888888888
 40
0.4166666666666666
 40
0.4444444444444445
 40
0.5
 40
0.5555555555555556
 40
0.5833333333333334
 40
0.6111111111111112
 40
0.6388888888888889
 40
0.6527777777777777
 40
0.6666666666666666
 40
0.6805555555555556
 40
0.6944444444444445
 40
0.7222222222222223
 40
0.75
 40
0.7638888888888889
 40
0.7708333333333333
 40
0.7777777777777778
 40
0.7847222222222224
 40
0.7916666666666668
 40
0.8055555555555555
 40
0.8333333333333332
 40
0.861111111111111
 40
0.875
 40
0.8888888888888889
 40
0.9027777777777776
 40
0.9166666666666666
 40
0.9444444444444444
 40
1.0
 40
1.0
 40
1.0
 40
1.0
 10
902.9288160272606
 20
1374.747075844252
 30
0.0
 10
902.5587123850607
 20
1374.747075844252
 30
0.0
 10
902.066621746885
 20
1374.711368004767
 30
0.0
 10
901.6026228504776
 20
1374.586385224634
 30
0.0
 10
901.3692329758089
 20
1374.488085988447
 30
0.0
 10
901.2092603016768
 20
1374.400464197456
 30
0.0
 10
901.0676564487329
 20
1374.29715039675
 30
0.0
 10
900.9051315716094
 20
1374.136306290809
 30
0.0
 10
900.7443015938878
 20
1373.891912277683
 30
0.0
 10
900.6274346899804
 20
1373.591899762904
 30
0.0
 10
900.5616314129234
 20
1373.356933830547
 30
0.0
 10
900.5278171266976
 20
1373.216380149497
 30
0.0
 10
900.5035775634381
 20
1373.108238142111
 30
0.0
 10
900.4823688922517
 20
1372.996934913508
 30
0.0
 10
900.4604788524698
 20
1372.843462663477
 30
0.0
 10
900.4357044498515
 20
1372.562433781709
 30
0.0
 10
900.4321063275547
 20
1372.12665171206
 30
0.0
 10
900.4492121401895
 20
1371.650804346279
 30
0.0
 10
900.463451346274
 20
1371.250223441861
 30
0.0
 10
900.4693692264043
 20
1370.941235240168
 30
0.0
 10
900.4749736896378
 20
1370.624126863928
 30
0.0
 10
900.4903893501426
 20
1370.190280933816
 30
0.0
 10
900.5162841022439
 20
1369.629444777484
 30
0.0
 10
900.5494402136738
 20
1368.932133998344
 30
0.0
 10
900.5771612041572
 20
1367.977617018516
 30
0.0
 10
900.5831738464312
 20
1366.752519246954
 30
0.0
 10
900.5773878061189
 20
1365.527265074229
 30
0.0
 10
900.5497679552366
 20
1364.572343861354
 30
0.0
 10
900.5167001906626
 20
1363.874594952388
 30
0.0
 10
900.4908270135258
 20
1363.313354101126
 30
0.0
 10
900.4753761976884
 20
1362.879195088069
 30
0.0
 10
900.4697150279303
 20
1362.561846860237
 30
0.0
 10
900.4636938649714
 20
1362.252688135447
 30
0.0
 10
900.449257204441
 20
1361.851986618444
 30
0.0
 10
900.4318295369502
 20
1361.376007745292
 30
0.0
 10
900.4350851014507
 20
1360.93983024449
 30
0.0
 10
900.4596523684892
 20
1360.65828556995
 30
0.0
 10
900.4814386377406
 20
1360.504443485983
 30
0.0
 10
900.5025805824791
 20
1360.392825665376
 30
0.0
 10
900.5267567247939
 20
1360.284325722736
 30
0.0
 10
900.5604800880819
 20
1360.14324350258
 30
0.0
 10
900.626119897972
 20
1359.907257889666
 30
0.0
 10
900.7427614786331
 20
1359.605705413051
 30
0.0
 10
900.9034453398117
 20
1359.360040214444
 30
0.0
 10
901.0659388821432
 20
1359.198448478623
 30
0.0
 10
901.2075761246281
 20
1359.094723683178
 30
0.0
 10
901.3676322683
 20
1359.006797972751
 30
0.0
 10
901.6011778696427
 20
1358.908172922854
 30
0.0
 10
902.0655802612941
 20
1358.782833470787
 30
0.0
 10
902.5582368107702
 20
1358.747075844252
 30
0.0
 10
902.9288160272608
 20
1358.747075844252
 30
0.0
  0
ELLIPSE
  5
264
330
1DB
100
AcDbEntity
  8
P-SANR-FIXT
100
AcDbEllipse
 10
804.5371885037871
 20
1366.747075844243
 30
0.0
 11
0.0
 21
30.0
 31
0.0
210
0.0
220
0.0
230
1.0
 40
0.965925826289064
 41
1.773359637435309
 42
4.712388980384685
  0
ELLIPSE
  5
265
330
1DB
100
AcDbEntity
  8
P-SANR-FIXT
100
AcDbEllipse
 10
807.1253789548123
 20
1366.747075844243
 30
0.0
 11
0.0
 21
42.0
 31
0.0
210
0.0
220
0.0
230
1.0
 40
0.9659258262890674
 41
4.712388980384668
 42
7.853981633974473
  0
ELLIPSE
  5
266
330
1DB
100
AcDbEntity
  8
P-SANR-FIXT
100
AcDbEllipse
 10
807.1253789548123
 20
1366.747075844243
 30
0.0
 11
0.0
 21
42.00000000000023
 31
0.0
210
0.0
220
0.0
230
1.0
 40
0.965925826289062
 41
1.570796326794892
 42
4.712388980384669
  0
ELLIPSE
  5
267
330
1DB
100
AcDbEntity
  8
P-SANR-FIXT
100
AcDbEllipse
 10
807.9018360901198
 20
1366.747075844243
 30
0.0
 11
0.0
 21
42.0
 31
0.0
210
0.0
220
0.0
230
1.0
 40
0.96592582628907
 41
4.712388980384668
 42
6.195918844579855
  0
ELLIPSE
  5
268
330
1DB
100
AcDbEntity
  8
P-SANR-FIXT
100
AcDbEllipse
 10
807.9018360901198
 20
1366.747075844243
 30
0.0
 11
0.0
 21
42.00000000000003
 31
0.0
210
0.0
220
0.0
230
0.9999999999999998
 40
0.9659258262890663
 41
3.228859116189502
 42
4.712388980384668
  0
ELLIPSE
  5
269
330
1DB
100
AcDbEntity
  8
P-SANR-FIXT
100
AcDbEllipse
 10
807.9018360901198
 20
1366.747075844243
 30
0.0
 11
0.0
 21
43.5
 31
0.0
210
0.0
220
0.0
230
1.0
 40
0.9659258262890734
 41
4.712388980384669
 42
7.853981633974473
  0
ELLIPSE
  5
26A
330
1DB
100
AcDbEntity
  8
P-SANR-FIXT
100
AcDbEllipse
 10
807.9018360901198
 20
1366.747075844243
 30
0.0
 11
0.0
 21
43.50000000000021
 31
0.0
210
0.0
220
0.0
230
0.9999999999999998
 40
0.9659258262890658
 41
1.570796326794893
 42
4.712388980384669
  0
ELLIPSE
  5
26B
330
1DB
100
AcDbEntity
  8
P-SANR-FIXT
100
AcDbEllipse
 10
808.4447735033378
 20
1366.747075844243
 30
0.0
 11
0.0
 21
46.0
 31
0.0
210
0.0
220
0.0
230
1.0
 40
0.9659258262890697
 41
4.71238898038467
 42
7.853981633974474
  0
ELLIPSE
  5
26C
330
1DB
100
AcDbEntity
  8
P-SANR-FIXT
100
AcDbEllipse
 10
808.4447735033378
 20
1366.747075844243
 30
0.0
 11
0.0000000000001152
 21
46.00000000000022
 31
0.0
210
0.0
220
0.0
230
1.0
 40
0.9659258262890674
 41
1.570796326794894
 42
4.712388980384671
  0
ELLIPSE
  5
26D
330
1DB
100
AcDbEntity
  8
P-SANR-FIXT
100
AcDbEllipse
 10
811.5253027215551
 20
1366.747075844243
 30
0.0
 11
0.0000000000018107
 21
46.0
 31
0.0
210
0.0
220
0.0
230
1.0
 40
0.9659258262890697
 41
4.712388980384716
 42
6.283185307179619
  0
ELLIPSE
  5
26E
330
1DB
100
AcDbEntity
  8
P-SANR-FIXT
100
AcDbEllipse
 10
811.5253027215551
 20
1366.747075844243
 30
0.0
 11
0.0
 21
45.99999999999977
 31
0.0
210
0.0
220
0.0
230
1.0
 40
0.9659258262890745
 41
3.141592653589826
 42
4.712388980384679
  0
LINE
  5
26F
330
1DB
100
AcDbEntity
  8
P-SANR-FIXT
100
AcDbLine
 10
868.2502066854386
 20
1366.747075844253
 30
0.0
 11
864.5914704854428
 21
1410.041855826091
 31
0.0
  0
ELLIPSE
  5
270
330
1DB
100
AcDbEntity
  8
P-SANR-FIXT
100
AcDbEllipse
 10
845.8841020800777
 20
1405.051067771405
 30
0.0
 11
0.0
 21
20.00000000000041
 31
0.0
210
0.0
220
0.0
230
1.0
 40
0.9659258262890475
 41
4.964593561909066
 42
6.248278722139689
  0
LINE
  5
271
330
1DB
100
AcDbEntity
  8
P-SANR-FIXT
100
AcDbLine
 10
846.5583085838664
 20
1425.038884311787
 30
0.0
 11
811.5253027215548
 21
1428.211996344586
 31
0.0
  0
LINE
  5
272
330
1DB
100
AcDbEntity
  8
P-SANR-FIXT
100
AcDbLine
 10
811.5253027215548
 20
1428.211996344586
 30
0.0
 11
776.4922968592435
 21
1425.038884311787
 31
0.0
  0
ELLIPSE
  5
273
330
1DB
100
AcDbEntity
  8
P-SANR-FIXT
100
AcDbEllipse
 10
777.1665033630324
 20
1405.051067771405
 30
0.0
 11
0.0
 21
19.99999999999989
 31
0.0
210
0.0
220
0.0
230
1.0
 40
0.9659258262890709
 41
0.0349065850398873
 42
1.484211842610119
  0
LINE
  5
274
330
1DB
100
AcDbEntity
  8
P-SANR-FIXT
100
AcDbLine
 10
757.9203558400505
 20
1406.780594556432
 30
0.0
 11
754.563792848615
 21
1366.747075844253
 31
0.0
  0
LINE
  5
275
330
1DB
100
AcDbEntity
  8
P-SANR-FIXT
100
AcDbLine
 10
754.563792848615
 20
1366.747075844253
 30
0.0
 11
757.8597551555494
 21
1327.745093983051
 31
0.0
  0
ELLIPSE
  5
276
330
1DB
100
AcDbEntity
  8
P-SANR-FIXT
100
AcDbEllipse
 10
777.1665033630322
 20
1328.443083917101
 30
0.0
 11
0.0
 21
19.99999999999987
 31
0.0
210
0.0
220
0.0
230
0.9999999999999998
 40
0.9659258262890768
 41
1.605702911834762
 42
3.106686068549873
  0
LINE
  5
277
330
1DB
100
AcDbEntity
  8
P-SANR-FIXT
100
AcDbLine
 10
776.4922968592433
 20
1308.455267376719
 30
0.0
 11
811.5253027215551
 21
1305.282155343919
 31
0.0
  0
LINE
  5
278
330
1DB
100
AcDbEntity
  8
P-SANR-FIXT
100
AcDbLine
 10
811.5253027215551
 20
1305.282155343919
 30
0.0
 11
847.8236200647938
 21
1309.231844628498
 31
0.0
  0
ELLIPSE
  5
279
330
1DB
100
AcDbEntity
  8
P-SANR-FIXT
100
AcDbEllipse
 10
841.2145919621956
 20
1333.277316516327
 30
0.0
 11
0.0
 21
25.00000000000005
 31
0.0
210
0.0
220
0.0
230
1.0
 40
0.9659258262890663
 41
3.41881673420711
 42
4.677482395344771
  0
LINE
  5
27A
330
1DB
100
AcDbEntity
  8
P-SANR-FIXT
100
AcDbLine
 10
865.3480272215489
 20
1332.404829098764
 30
0.0
 11
868.2502066854386
 21
1366.747075844253
 31
0.0
  0
SPLINE
  5
27B
330
1DB
100
AcDbEntity
  8
P-SANR-FIXT
100
AcDbSpline
210
0.0
220
0.0
230
1.0
 70
     8
 71
     3
 72
    19
 73
    15
 74
     0
 42
0.000000001
 43
0.0000000001
 40
0.3053088585897103
 40
0.3053088585897103
 40
0.3053088585897103
 40
0.3053088585897103
 40
0.3214285714285714
 40
0.3571428571428571
 40
0.3928571428571428
 40
0.4285714285714286
 40
0.4642857142857144
 40
0.5
 40
0.5357142857142857
 40
0.5714285714285714
 40
0.6428571428571428
 40
0.7142857142857143
 40
0.8571428571428571
 40
1.0
 40
1.0
 40
1.0
 40
1.0
 10
874.2186403143051
 20
1372.658373719473
 30
0.0
 10
874.2356258553483
 20
1372.734431419173
 30
0.0
 10
874.2919539442382
 20
1372.973542065784
 30
0.0
 10
874.394036495148
 20
1373.350175101121
 30
0.0
 10
874.5279600048439
 20
1373.770995002964
 30
0.0
 10
874.6650563114776
 20
1374.161340472022
 30
0.0
 10
874.8073994397902
 20
1374.517489315965
 30
0.0
 10
874.959302739537
 20
1374.834962642191
 30
0.0
 10
875.1174157127607
 20
1375.121423995025
 30
0.0
 10
875.3324200072356
 20
1375.472556385529
 30
0.0
 10
875.6151635820817
 20
1375.840425553955
 30
0.0
 10
876.093746718557
 20
1376.299469436319
 30
0.0
 10
876.7343299913147
 20
1376.656550639105
 30
0.0
 10
877.2818148367534
 20
1376.750908660099
 30
0.0
 10
877.5659057348184
 20
1376.747075844252
 30
0.0
  0
SPLINE
  5
27C
330
1DB
100
AcDbEntity
  8
P-SANR-FIXT
100
AcDbSpline
210
0.0
220
0.0
230
1.0
 70
     8
 71
     3
 72
    21
 73
    17
 74
     0
 42
0.000000001
 43
0.0000000001
 40
0.0
 40
0.0
 40
0.0
 40
0.0
 40
0.1428571428571428
 40
0.2857142857142857
 40
0.3571428571428571
 40
0.3928571428571428
 40
0.4285714285714286
 40
0.4642857142857144
 40
0.5
 40
0.5357142857142857
 40
0.5535714285714287
 40
0.5714285714285714
 40
0.5982142857142857
 40
0.625
 40
0.6785714285714287
 40
0.6946911414114155
 40
0.6946911414114155
 40
0.6946911414114155
 40
0.6946911414114155
 10
877.5659057348232
 20
1356.747075844253
 30
0.0
 10
877.2818148367584
 20
1356.743243028406
 30
0.0
 10
876.7344393905146
 20
1356.837849623286
 30
0.0
 10
876.0934458707771
 20
1357.193998673996
 30
0.0
 10
875.6754035585762
 20
1357.597293337196
 30
0.0
 10
875.4447858300654
 20
1357.872785297737
 30
0.0
 10
875.2788601371946
 20
1358.109815767415
 30
0.0
 10
875.1173825055916
 20
1358.372640564087
 30
0.0
 10
874.9592443646681
 20
1358.65910019706
 30
0.0
 10
874.8329291828332
 20
1358.924104115282
 30
0.0
 10
874.7358570030701
 20
1359.154117429547
 30
0.0
 10
874.6540706848035
 20
1359.36766277933
 30
0.0
 10
874.5623639788517
 20
1359.625258139741
 30
0.0
 10
874.4266116208391
 20
1360.033608709922
 30
0.0
 10
874.311352440962
 20
1360.438233144354
 30
0.0
 10
874.2356221433203
 20
1360.759715796967
 30
0.0
 10
874.2186030232756
 20
1360.83576252494
 30
0.0
  0
SPLINE
  5
27D
330
1DB
100
AcDbEntity
  8
P-SANR-FIXT
100
AcDbSpline
210
0.0
220
0.0
230
1.0
 70
     8
 71
     3
 72
     9
 73
     5
 74
     0
 42
0.000000001
 43
0.0000000001
 40
0.0
 40
0.0
 40
0.0
 40
0.0
 40
0.5
 40
1.0
 40
1.0
 40
1.0
 40
1.0
 10
904.174523896437
 20
1376.747075844252
 30
0.0
 10
904.1074913747351
 20
1377.451132188113
 30
0.0
 10
903.9600471980497
 20
1378.848212812304
 30
0.0
 10
903.7875005514077
 20
1380.221974533151
 30
0.0
 10
903.6953692085306
 20
1380.90273707798
 30
0.0
  0
SPLINE
  5
27E
330
1DB
100
AcDbEntity
  8
P-SANR-FIXT
100
AcDbSpline
210
0.0
220
0.0
230
1.0
 70
     8
 71
     3
 72
     9
 73
     5
 74
     0
 42
0.000000001
 43
0.0000000001
 40
0.0
 40
0.0
 40
0.0
 40
0.0
 40
0.5
 40
1.0
 40
1.0
 40
1.0
 40
1.0
 10
903.6953692085344
 20
1352.591414610526
 30
0.0
 10
903.7875005514115
 20
1353.272177155355
 30
0.0
 10
903.9600471980532
 20
1354.645938876201
 30
0.0
 10
904.107491374738
 20
1356.043019500392
 30
0.0
 10
904.1745238964395
 20
1356.747075844252
 30
0.0
  0
ELLIPSE
  5
27F
330
1DB
100
AcDbEntity
  8
P-SANR-FIXT
100
AcDbEllipse
 10
873.9006925912622
 20
1366.747075844245
 30
0.0
 11
0.0
 21
99.99999999999984
 31
0.0
210
0.0
220
0.0
230
1.0
 40
0.9659258262890702
 41
5.19262516764454
 42
7.208106044587245
  0
ELLIPSE
  5
280
330
1DB
100
AcDbEntity
  8
P-SANR-FIXT
100
AcDbEllipse
 10
873.9006925912622
 20
1366.747075844245
 30
0.0
 11
0.0
 21
100.0000000000001
 31
0.0
210
0.0
220
0.0
230
1.0
 40
0.9659258262890663
 41
2.216671916181923
 42
4.232151282910213
  0
ELLIPSE
  5
281
330
1DB
100
AcDbEntity
  8
P-SANR-FIXT
100
AcDbEllipse
 10
877.9532854534114
 20
1366.747075844246
 30
0.0
 11
0.0
 21
99.99999999999982
 31
0.0
210
0.0
220
0.0
230
1.0
 40
0.9659258262890707
 41
5.200302724218034
 42
6.285489318454664
  0
ELLIPSE
  5
282
330
1DB
100
AcDbEntity
  8
P-SANR-FIXT
100
AcDbEllipse
 10
877.9532854534114
 20
1366.747075844246
 30
0.0
 11
0.0
 21
100.0000000000003
 31
0.0
210
0.0
220
0.0
230
1.0
 40
0.9659258262890634
 41
3.139288642314712
 42
4.224473260789459
  0
ELLIPSE
  5
283
330
1DB
100
AcDbEntity
  8
P-SANR-FIXT
100
AcDbEllipse
 10
947.680939252136
 20
1366.747075844252
 30
0.0
 11
0.0
 21
43.97782781876041
 31
0.0
210
0.0
220
0.0
230
0.9999999999999998
 40
0.1391731009600659
 41
0.0255957102347186
 42
1.372359642523235
  0
SPLINE
  5
284
330
1DB
100
AcDbEntity
  8
P-SANR-FIXT
100
AcDbSpline
210
0.0
220
0.0
230
1.0
 70
     8
 71
     3
 72
     9
 73
     5
 74
     0
 42
0.000000001
 43
0.0000000001
 40
-1.0
 40
-1.0
 40
-1.0
 40
-1.0
 40
-0.5
 40
0.0
 40
0.0
 40
0.0
 40
0.0
 10
941.6805181015527
 20
1375.416730035159
 30
0.0
 10
941.8501036525839
 20
1375.316187936405
 30
0.0
 10
942.18281954951
 20
1375.103899225758
 30
0.0
 10
942.5015603141423
 20
1374.869601177476
 30
0.0
 10
942.6571712823964
 20
1374.747075844252
 30
0.0
  0
SPLINE
  5
285
330
1DB
100
AcDbEntity
  8
P-SANR-FIXT
100
AcDbSpline
210
0.0
220
0.0
230
1.0
 70
     8
 71
     3
 72
     8
 73
     4
 74
     0
 42
0.000000001
 43
0.0000000001
 40
-1.0
 40
-1.0
 40
-1.0
 40
-1.0
 40
-0.9971764824639443
 40
-0.9971764824639443
 40
-0.9971764824639443
 40
-0.9971764824639443
 10
973.9778299027326
 20
1374.747075844252
 30
0.0
 10
973.9846392590649
 20
1374.75787597498
 30
0.0
 10
973.9914622103601
 20
1374.768667019403
 30
0.0
 10
973.9982987310046
 20
1374.779448948936
 30
0.0
  0
SPLINE
  5
286
330
1DB
100
AcDbEntity
  8
P-SANR-FIXT
100
AcDbSpline
210
0.0
220
0.0
230
1.0
 70
     8
 71
     3
 72
     8
 73
     4
 74
     0
 42
0.000000001
 43
0.0000000001
 40
-0.9074805095634307
 40
-0.9074805095634307
 40
-0.9074805095634307
 40
-0.9074805095634307
 40
-0.875
 40
-0.875
 40
-0.875
 40
-0.875
 10
974.6900956312483
 20
1375.778480536679
 30
0.0
 10
974.7783601627697
 20
1375.895517412385
 30
0.0
 10
974.8686518588673
 20
1376.010533355244
 30
0.0
 10
974.9607218599397
 20
1376.123914619032
 30
0.0
  0
SPLINE
  5
287
330
1DB
100
AcDbEntity
  8
P-SANR-FIXT
100
AcDbSpline
210
0.0
220
0.0
230
1.0
 70
     8
 71
     3
 72
     8
 73
     4
 74
     0
 42
0.000000001
 43
0.0000000001
 40
-0.75
 40
-0.75
 40
-0.75
 40
-0.75
 40
-0.7297152898084523
 40
-0.7297152898084523
 40
-0.7297152898084523
 40
-0.7297152898084523
 10
976.0885345424828
 20
1377.382328774794
 30
0.0
 10
976.1533073318721
 20
1377.446749409544
 30
0.0
 10
976.2183792045451
 20
1377.511285798376
 30
0.0
 10
976.2838046833175
 20
1377.575752823086
 30
0.0
  0
SPLINE
  5
288
330
1DB
100
AcDbEntity
  8
P-SANR-FIXT
100
AcDbSpline
210
0.0
220
0.0
230
1.0
 70
     8
 71
     3
 72
     8
 73
     4
 74
     0
 42
0.000000001
 43
0.0000000001
 40
-0.639718119239875
 40
-0.639718119239875
 40
-0.639718119239875
 40
-0.639718119239875
 40
-0.625
 40
-0.625
 40
-0.625
 40
-0.625
 10
977.1944179332152
 20
1378.378101358613
 30
0.0
 10
977.2457066407522
 20
1378.419877270555
 30
0.0
 10
977.2971297639264
 20
1378.461692531031
 30
0.0
 10
977.3487228157168
 20
1378.503420808886
 30
0.0
  0
SPLINE
  5
289
330
1DB
100
AcDbEntity
  8
P-SANR-FIXT
100
AcDbSpline
210
0.0
220
0.0
230
1.0
 70
     8
 71
     3
 72
     8
 73
     4
 74
     0
 42
0.000000001
 43
0.0000000001
 40
-0.5
 40
-0.5
 40
-0.5
 40
-0.5
 40
-0.459720232319368
 40
-0.459720232319368
 40
-0.459720232319368
 40
-0.459720232319368
 10
978.7217776689445
 20
1379.470395291243
 30
0.0
 10
978.8744944748405
 20
1379.565653970963
 30
0.0
 10
979.0301654492438
 20
1379.652458373092
 30
0.0
 10
979.1883342883791
 20
1379.732132904804
 30
0.0
  0
SPLINE
  5
28A
330
1DB
100
AcDbEntity
  8
P-SANR-FIXT
100
AcDbSpline
210
0.0
220
0.0
230
1.0
 70
     8
 71
     3
 72
     8
 73
     4
 74
     0
 42
0.000000001
 43
0.0000000001
 40
-0.375
 40
-0.375
 40
-0.375
 40
-0.375
 40
-0.3684549283833612
 40
-0.3684549283833612
 40
-0.3684549283833612
 40
-0.3684549283833612
 10
980.1854278646334
 20
1380.27295828415
 30
0.0
 10
980.2116401520654
 20
1380.285485204973
 30
0.0
 10
980.2379155553124
 20
1380.297776255753
 30
0.0
 10
980.264251890231
 20
1380.309839622453
 30
0.0
  0
SPLINE
  5
28B
330
1DB
100
AcDbEntity
  8
P-SANR-FIXT
100
AcDbSpline
210
0.0
220
0.0
230
1.0
 70
     8
 71
     3
 72
     8
 73
     4
 74
     0
 42
0.000000001
 43
0.0000000001
 40
-0.277636610215994
 40
-0.277636610215994
 40
-0.277636610215994
 40
-0.277636610215994
 40
-0.25
 40
-0.25
 40
-0.25
 40
-0.25
 10
981.3743987819467
 20
1380.779943697967
 30
0.0
 10
981.4885452117158
 20
1380.822962745824
 30
0.0
 10
981.6034754145698
 20
1380.861967694923
 30
0.0
 10
981.7190413106725
 20
1380.897729648576
 30
0.0
  0
SPLINE
  5
28C
330
1DB
100
AcDbEntity
  8
P-SANR-FIXT
100
AcDbSpline
210
0.0
220
0.0
230
1.0
 70
     8
 71
     3
 72
     8
 73
     4
 74
     0
 42
0.000000001
 43
0.0000000001
 40
-0.125
 40
-0.125
 40
-0.125
 40
-0.125
 40
-0.0926470612119637
 40
-0.0926470612119637
 40
-0.0926470612119637
 40
-0.0926470612119637
 10
983.2975358928358
 20
1381.362505492069
 30
0.0
 10
983.4351877670025
 20
1381.394394542898
 30
0.0
 10
983.5732933031668
 20
1381.421334157065
 30
0.0
 10
983.7116503140554
 20
1381.445620474588
 30
0.0
  0
SPLINE
  5
28D
330
1DB
100
AcDbEntity
  8
P-SANR-FIXT
100
AcDbSpline
210
0.0
220
0.0
230
1.0
 70
     8
 71
     3
 72
     8
 73
     4
 74
     0
 42
0.000000001
 43
0.0000000001
 40
-0.9073529387881434
 40
-0.9073529387881434
 40
-0.9073529387881434
 40
-0.9073529387881434
 40
-0.875
 40
-0.875
 40
-0.875
 40
-0.875
 10
983.7112545861479
 20
1352.041928670425
 30
0.0
 10
983.573115330302
 20
1352.069848133641
 30
0.0
 10
983.4355854053168
 20
1352.10036975091
 30
0.0
 10
983.2986340636402
 20
1352.133338048663
 30
0.0
  0
SPLINE
  5
28E
330
1DB
100
AcDbEntity
  8
P-SANR-FIXT
100
AcDbSpline
210
0.0
220
0.0
230
1.0
 70
     8
 71
     3
 72
     8
 73
     4
 74
     0
 42
0.000000001
 43
0.0000000001
 40
-0.75
 40
-0.75
 40
-0.75
 40
-0.75
 40
-0.7223633897843401
 40
-0.7223633897843401
 40
-0.7223633897843401
 40
-0.7223633897843401
 10
981.718062633347
 20
1352.589393039103
 30
0.0
 10
981.6031131256952
 20
1352.629581982957
 30
0.0
 10
981.4888952489152
 20
1352.671650973067
 30
0.0
 10
981.3753328074492
 20
1352.715440854274
 30
0.0
  0
SPLINE
  5
28F
330
1DB
100
AcDbEntity
  8
P-SANR-FIXT
100
AcDbSpline
210
0.0
220
0.0
230
1.0
 70
     8
 71
     3
 72
     8
 73
     4
 74
     0
 42
0.000000001
 43
0.0000000001
 40
-0.6315450716170595
 40
-0.6315450716170595
 40
-0.6315450716170595
 40
-0.6315450716170595
 40
-0.625
 40
-0.625
 40
-0.625
 40
-0.625
 10
980.2641587621454
 20
1353.183846804543
 30
0.0
 10
980.2378839611863
 20
1353.196217590673
 30
0.0
 10
980.2116635191035
 20
1353.208694512774
 30
0.0
 10
980.1854944778478
 20
1353.221273308294
 30
0.0
  0
SPLINE
  5
290
330
1DB
100
AcDbEntity
  8
P-SANR-FIXT
100
AcDbSpline
210
0.0
220
0.0
230
1.0
 70
     8
 71
     3
 72
     8
 73
     4
 74
     0
 42
0.000000001
 43
0.0000000001
 40
-0.5402797676811733
 40
-0.5402797676811733
 40
-0.5402797676811733
 40
-0.5402797676811733
 40
-0.5
 40
-0.5
 40
-0.5
 40
-0.5
 10
979.1845359699765
 20
1353.746693626828
 30
0.0
 10
979.028788409419
 20
1353.836137343245
 30
0.0
 10
978.8754754659638
 20
1353.929535866188
 30
0.0
 10
978.7217776689379
 20
1354.023756397251
 30
0.0
  0
SPLINE
  5
291
330
1DB
100
AcDbEntity
  8
P-SANR-FIXT
100
AcDbSpline
210
0.0
220
0.0
230
1.0
 70
     8
 71
     3
 72
     8
 73
     4
 74
     0
 42
0.000000001
 43
0.0000000001
 40
-0.375
 40
-0.375
 40
-0.375
 40
-0.375
 40
-0.3602818807609061
 40
-0.3602818807609061
 40
-0.3602818807609061
 40
-0.3602818807609061
 10
977.3490730306367
 20
1354.991768151337
 30
0.0
 10
977.2972602475773
 20
1355.032845625876
 30
0.0
 10
977.2453967036584
 20
1355.073989439582
 30
0.0
 10
977.1935976025272
 20
1355.115296059101
 30
0.0
  0
SPLINE
  5
292
330
1DB
100
AcDbEntity
  8
P-SANR-FIXT
100
AcDbSpline
210
0.0
220
0.0
230
1.0
 70
     8
 71
     3
 72
     8
 73
     4
 74
     0
 42
0.000000001
 43
0.0000000001
 40
-0.270284710192377
 40
-0.270284710192377
 40
-0.270284710192377
 40
-0.270284710192377
 40
-0.25
 40
-0.25
 40
-0.25
 40
-0.25
 10
976.28459179749
 20
1355.920370801781
 30
0.0
 10
976.2186647442977
 20
1355.983581245336
 30
0.0
 10
976.1527124518119
 20
1356.046908091771
 30
0.0
 10
976.0885345424744
 20
1356.111822913705
 30
0.0
  0
SPLINE
  5
293
330
1DB
100
AcDbEntity
  8
P-SANR-FIXT
100
AcDbSpline
210
0.0
220
0.0
230
1.0
 70
     8
 71
     3
 72
     8
 73
     4
 74
     0
 42
0.000000001
 43
0.0000000001
 40
-0.125
 40
-0.125
 40
-0.125
 40
-0.125
 40
-0.0925194904375795
 40
-0.0925194904375795
 40
-0.0925194904375795
 40
-0.0925194904375795
 10
974.9599141876441
 20
1357.368583119725
 30
0.0
 10
974.8683126784795
 20
1357.482923760324
 30
0.0
 10
974.7809411101775
 20
1357.600505958913
 30
0.0
 10
974.6958265417914
 20
1357.719827163154
 30
0.0
  0
SPLINE
  5
294
330
1DB
100
AcDbEntity
  8
P-SANR-FIXT
100
AcDbSpline
210
0.0
220
0.0
230
1.0
 70
     8
 71
     3
 72
     8
 73
     4
 74
     0
 42
0.000000001
 43
0.0000000001
 40
-0.002823517537241
 40
-0.002823517537241
 40
-0.002823517537241
 40
-0.002823517537241
 40
0.0
 40
0.0
 40
0.0
 40
0.0
 10
973.9982987310048
 20
1358.714702739554
 30
0.0
 10
973.9914622103572
 20
1358.725484669091
 30
0.0
 10
973.9846392590592
 20
1358.736275713519
 30
0.0
 10
973.9778299027241
 20
1358.747075844252
 30
0.0
  0
SPLINE
  5
295
330
1DB
100
AcDbEntity
  8
P-SANR-FIXT
100
AcDbSpline
210
0.0
220
0.0
230
1.0
 70
     8
 71
     3
 72
     9
 73
     5
 74
     0
 42
0.000000001
 43
0.0000000001
 40
-1.0
 40
-1.0
 40
-1.0
 40
-1.0
 40
-0.5
 40
0.0
 40
0.0
 40
0.0
 40
0.0
 10
942.6571712823964
 20
1358.747075844252
 30
0.0
 10
942.5015603141423
 20
1358.624550511027
 30
0.0
 10
942.1828195495098
 20
1358.390252462746
 30
0.0
 10
941.8501036525841
 20
1358.177963752099
 30
0.0
 10
941.6805181015533
 20
1358.077421653345
 30
0.0
  0
ELLIPSE
  5
296
330
1DB
100
AcDbEntity
  8
P-SANR-FIXT
100
AcDbEllipse
 10
947.6809392521365
 20
1366.747075844252
 30
0.0
 11
0.0
 21
43.97782781876027
 31
0.0
210
0.0
220
0.0
230
1.0
 40
0.1391731009600632
 41
1.769233011066545
 42
3.115996943354978
  0
ELLIPSE
  5
297
330
1DB
100
AcDbEntity
  8
P-SANR-FIXT
100
AcDbEllipse
 10
899.8315722825816
 20
1366.747075844252
 30
0.0
 11
0.0
 21
43.24303324831023
 31
0.0
210
0.0
220
0.0
230
1.0
 40
0.1391731009600648
 41
6.230393681057188
 42
6.951215524389071
  0
SPLINE
  5
298
330
1DB
100
AcDbEntity
  8
P-SANR-FIXT
100
AcDbSpline
210
0.0
220
0.0
230
1.0
 70
     8
 71
     3
 72
    10
 73
     6
 74
     0
 42
0.000000001
 43
0.0000000001
 40
-1.0
 40
-1.0
 40
-1.0
 40
-1.0
 40
-0.6666666666666666
 40
-0.3333333333333333
 40
0.0
 40
0.0
 40
0.0
 40
0.0
 10
936.7332635318568
 20
1376.747075844252
 30
0.0
 10
937.3242928739539
 20
1376.747075844252
 30
0.0
 10
938.4912154638072
 20
1376.653588931286
 30
0.0
 10
940.1648482334801
 20
1376.214818655613
 30
0.0
 10
941.1940853183898
 20
1375.716798982234
 30
0.0
 10
941.6805181015527
 20
1375.416730035159
 30
0.0
  0
SPLINE
  5
299
330
1DB
100
AcDbEntity
  8
P-SANR-FIXT
100
AcDbSpline
210
0.0
220
0.0
230
1.0
 70
     8
 71
     3
 72
    10
 73
     6
 74
     0
 42
0.000000001
 43
0.0000000001
 40
-1.0
 40
-1.0
 40
-1.0
 40
-1.0
 40
-0.6666666666666666
 40
-0.3333333333333333
 40
0.0
 40
0.0
 40
0.0
 40
0.0
 10
941.6805181015533
 20
1358.077421653345
 30
0.0
 10
941.1940853183901
 20
1357.77735270627
 30
0.0
 10
940.1648482334801
 20
1357.279333032891
 30
0.0
 10
938.4912154638074
 20
1356.840562757218
 30
0.0
 10
937.3242928739541
 20
1356.747075844252
 30
0.0
 10
936.733263531857
 20
1356.747075844252
 30
0.0
  0
ELLIPSE
  5
29A
330
1DB
100
AcDbEntity
  8
P-SANR-FIXT
100
AcDbEllipse
 10
899.8315722825823
 20
1366.747075844252
 30
0.0
 11
0.0
 21
43.24303324830965
 31
0.0
210
0.0
220
0.0
230
1.0
 40
0.1391731009600651
 41
2.473866646769201
 42
3.194924129963634
  0
SPLINE
  5
29B
330
1DB
100
AcDbEntity
  8
P-SANR-FIXT
100
AcDbSpline
210
0.0
220
0.0
230
1.0
 70
     8
 71
     3
 72
     8
 73
     4
 74
     0
 42
0.000000001
 43
0.0000000001
 40
-0.9093059664296724
 40
-0.9093059664296724
 40
-0.9093059664296724
 40
-0.9093059664296724
 40
-0.875
 40
-0.875
 40
-0.875
 40
-0.875
 10
737.6216195827206
 20
1381.452989907816
 30
0.0
 10
737.7707068030399
 20
1381.423019370529
 30
0.0
 10
737.9195402884398
 20
1381.391067519756
 30
0.0
 10
738.0679249443014
 20
1381.356967164673
 30
0.0
  0
SPLINE
  5
29C
330
1DB
100
AcDbEntity
  8
P-SANR-FIXT
100
AcDbSpline
210
0.0
220
0.0
230
1.0
 70
     8
 71
     3
 72
     8
 73
     4
 74
     0
 42
0.000000001
 43
0.0000000001
 40
-0.75
 40
-0.75
 40
-0.75
 40
-0.75
 40
-0.7264604335006957
 40
-0.7264604335006957
 40
-0.7264604335006957
 40
-0.7264604335006957
 10
739.6626097819638
 20
1380.890553570395
 30
0.0
 10
739.7610218359861
 20
1380.855791901165
 30
0.0
 10
739.8588120736359
 20
1380.819667016702
 30
0.0
 10
739.9560339609834
 20
1380.782281717736
 30
0.0
  0
SPLINE
  5
29D
330
1DB
100
AcDbEntity
  8
P-SANR-FIXT
100
AcDbSpline
210
0.0
220
0.0
230
1.0
 70
     8
 71
     3
 72
     8
 73
     4
 74
     0
 42
0.000000001
 43
0.0000000001
 40
-0.6356196744409109
 40
-0.6356196744409109
 40
-0.6356196744409109
 40
-0.6356196744409109
 40
-0.625
 40
-0.625
 40
-0.625
 40
-0.625
 10
741.0691932883503
 20
1380.311807461444
 30
0.0
 10
741.1117894967949
 20
1380.291699619234
 30
0.0
 10
741.1542315763397
 20
1380.271319032251
 30
0.0
 10
741.1965320378242
 20
1380.250683403211
 30
0.0
  0
SPLINE
  5
29E
330
1DB
100
AcDbEntity
  8
P-SANR-FIXT
100
AcDbSpline
210
0.0
220
0.0
230
1.0
 70
     8
 71
     3
 72
     8
 73
     4
 74
     0
 42
0.000000001
 43
0.0000000001
 40
-0.375
 40
-0.375
 40
-0.375
 40
-0.375
 40
-0.3628137044278067
 40
-0.3628137044278067
 40
-0.3628137044278067
 40
-0.3628137044278067
 10
744.0107151277837
 20
1378.480967064936
 30
0.0
 10
744.0531423820857
 20
1378.447180927125
 30
0.0
 10
744.0956005852373
 20
1378.413357589406
 30
0.0
 10
744.1380265227534
 20
1378.379440782441
 30
0.0
  0
SPLINE
  5
29F
330
1DB
100
AcDbEntity
  8
P-SANR-FIXT
100
AcDbSpline
210
0.0
220
0.0
230
1.0
 70
     8
 71
     3
 72
     8
 73
     4
 74
     0
 42
0.000000001
 43
0.0000000001
 40
-0.271859927958339
 40
-0.271859927958339
 40
-0.271859927958339
 40
-0.271859927958339
 40
-0.25
 40
-0.25
 40
-0.25
 40
-0.25
 10
745.0484850867113
 20
1377.573572807227
 30
0.0
 10
745.1189101412193
 20
1377.506033224829
 30
0.0
 10
745.1893701702484
 20
1377.438354906741
 30
0.0
 10
745.2578438454675
 20
1377.368821225143
 30
0.0
  0
SPLINE
  5
2A0
330
1DB
100
AcDbEntity
  8
P-SANR-FIXT
100
AcDbSpline
210
0.0
220
0.0
230
1.0
 70
     8
 71
     3
 72
     8
 73
     4
 74
     0
 42
0.000000001
 43
0.0000000001
 40
-0.125
 40
-0.125
 40
-0.125
 40
-0.125
 40
-0.0929841301409899
 40
-0.0929841301409899
 40
-0.0929841301409899
 40
-0.0929841301409899
 10
746.3778022426066
 20
1376.119301638884
 30
0.0
 10
746.4675475570047
 20
1376.007162823958
 30
0.0
 10
746.553249356052
 20
1375.891845963268
 30
0.0
 10
746.6367712569784
 20
1375.774805870157
 30
0.0
  0
SPLINE
  5
2A1
330
1DB
100
AcDbEntity
  8
P-SANR-FIXT
100
AcDbSpline
210
0.0
220
0.0
230
1.0
 70
     8
 71
     3
 72
     8
 73
     4
 74
     0
 42
0.000000001
 43
0.0000000001
 40
-0.0028376974493598
 40
-0.0028376974493598
 40
-0.0028376974493598
 40
-0.0028376974493598
 40
0.0
 40
0.0
 40
0.0
 40
0.0
 10
747.3344997599427
 20
1374.779474555578
 30
0.0
 10
747.3413417566135
 20
1374.76868420381
 30
0.0
 10
747.3481701746952
 20
1374.757884623218
 30
0.0
 10
747.3549849836402
 20
1374.747075844253
 30
0.0
  0
SPLINE
  5
2A2
330
1DB
100
AcDbEntity
  8
P-SANR-FIXT
100
AcDbSpline
210
0.0
220
0.0
230
1.0
 70
     8
 71
     3
 72
     8
 73
     4
 74
     0
 42
0.000000001
 43
0.0000000001
 40
-1.0
 40
-1.0
 40
-1.0
 40
-1.0
 40
-0.9971623025494178
 40
-0.9971623025494178
 40
-0.9971623025494178
 40
-0.9971623025494178
 10
747.3549849836488
 20
1358.747075844253
 30
0.0
 10
747.3481701747008
 20
1358.736267065283
 30
0.0
 10
747.3413417566161
 20
1358.725467484687
 30
0.0
 10
747.3344997599424
 20
1358.714677132914
 30
0.0
  0
SPLINE
  5
2A3
330
1DB
100
AcDbEntity
  8
P-SANR-FIXT
100
AcDbSpline
210
0.0
220
0.0
230
1.0
 70
     8
 71
     3
 72
     8
 73
     4
 74
     0
 42
0.000000001
 43
0.0000000001
 40
-0.9070158698579691
 40
-0.9070158698579691
 40
-0.9070158698579691
 40
-0.9070158698579691
 40
-0.875
 40
-0.875
 40
-0.875
 40
-0.875
 10
746.6423112007084
 20
1357.715247590307
 30
0.0
 10
746.5557318333161
 20
1357.600469288183
 30
0.0
 10
746.4676889204058
 20
1357.48672502905
 30
0.0
 10
746.3781398599104
 20
1357.374219932999
 30
0.0
  0
SPLINE
  5
2A4
330
1DB
100
AcDbEntity
  8
P-SANR-FIXT
100
AcDbSpline
210
0.0
220
0.0
230
1.0
 70
     8
 71
     3
 72
     8
 73
     4
 74
     0
 42
0.000000001
 43
0.0000000001
 40
-0.75
 40
-0.75
 40
-0.75
 40
-0.75
 40
-0.7281400720407927
 40
-0.7281400720407927
 40
-0.7281400720407927
 40
-0.7281400720407927
 10
745.257843845476
 20
1356.125330463357
 30
0.0
 10
745.1887009406379
 20
1356.056371940233
 30
0.0
 10
745.1187599197712
 20
1355.988445741037
 30
0.0
 10
745.04807382832
 20
1355.921474862261
 30
0.0
  0
SPLINE
  5
2A5
330
1DB
100
AcDbEntity
  8
P-SANR-FIXT
100
AcDbSpline
210
0.0
220
0.0
230
1.0
 70
     8
 71
     3
 72
     8
 73
     4
 74
     0
 42
0.000000001
 43
0.0000000001
 40
-0.6371862955713869
 40
-0.6371862955713869
 40
-0.6371862955713869
 40
-0.6371862955713869
 40
-0.625
 40
-0.625
 40
-0.625
 40
-0.625
 10
744.1374631949189
 20
1355.115246005268
 30
0.0
 10
744.0953925254723
 20
1355.080991732884
 30
0.0
 10
744.0530962815088
 20
1355.047083691504
 30
0.0
 10
744.0105891114271
 20
1355.013493319118
 30
0.0
  0
SPLINE
  5
2A6
330
1DB
100
AcDbEntity
  8
P-SANR-FIXT
100
AcDbSpline
210
0.0
220
0.0
230
1.0
 70
     8
 71
     3
 72
     8
 73
     4
 74
     0
 42
0.000000001
 43
0.0000000001
 40
-0.375
 40
-0.375
 40
-0.375
 40
-0.375
 40
-0.3643803255586453
 40
-0.3643803255586453
 40
-0.3643803255586453
 40
-0.3643803255586453
 10
741.1967003426204
 20
1353.243269743864
 30
0.0
 10
741.1542924441854
 20
1353.222760853249
 30
0.0
 10
741.1118480591412
 20
1353.202245743123
 30
0.0
 10
741.0693540494712
 20
1353.181777835433
 30
0.0
  0
SPLINE
  5
2A7
330
1DB
100
AcDbEntity
  8
P-SANR-FIXT
100
AcDbSpline
210
0.0
220
0.0
230
1.0
 70
     8
 71
     3
 72
     8
 73
     4
 74
     0
 42
0.000000001
 43
0.0000000001
 40
-0.2735395664989745
 40
-0.2735395664989745
 40
-0.2735395664989745
 40
-0.2735395664989745
 40
-0.25
 40
-0.25
 40
-0.25
 40
-0.25
 10
739.9567356528748
 20
1352.710968487587
 30
0.0
 10
739.8590702835299
 20
1352.67415294233
 30
0.0
 10
739.7612444738175
 20
1352.637392101767
 30
0.0
 10
739.6626097819673
 20
1352.603598118098
 30
0.0
  0
SPLINE
  5
2A8
330
1DB
100
AcDbEntity
  8
P-SANR-FIXT
100
AcDbSpline
210
0.0
220
0.0
230
1.0
 70
     8
 71
     3
 72
     8
 73
     4
 74
     0
 42
0.000000001
 43
0.0000000001
 40
-0.125
 40
-0.125
 40
-0.125
 40
-0.125
 40
-0.0906940335701994
 40
-0.0906940335701994
 40
-0.0906940335701994
 40
-0.0906940335701994
 10
738.067468966218
 20
1352.13785173012
 30
0.0
 10
737.9193465816954
 20
1352.103367608588
 30
0.0
 10
737.7701916962528
 20
1352.074449253076
 30
0.0
 10
737.6204983720257
 20
1352.048381610062
 30
0.0
  0
SPLINE
  5
2A9
330
1DB
100
AcDbEntity
  8
P-SANR-FIXT
100
AcDbSpline
210
0.0
220
0.0
230
1.0
 70
     8
 71
     3
 72
     9
 73
     5
 74
     0
 42
0.000000001
 43
0.0000000001
 40
-0.3333333333333334
 40
-0.3333333333333334
 40
-0.3333333333333334
 40
-0.3333333333333334
 40
-0.25
 40
0.0
 40
0.0
 40
0.0
 40
0.0
 10
902.3120175983075
 20
1387.029029751623
 30
0.0
 10
902.4764320261986
 20
1386.547128848344
 30
0.0
 10
903.0798181936612
 20
1384.586135174564
 30
0.0
 10
903.481492069393
 20
1382.503181192156
 30
0.0
 10
903.6953692085306
 20
1380.90273707798
 30
0.0
  0
SPLINE
  5
2AA
330
1DB
100
AcDbEntity
  8
P-SANR-FIXT
100
AcDbSpline
210
0.0
220
0.0
230
1.0
 70
     8
 71
     3
 72
     9
 73
     5
 74
     0
 42
0.000000001
 43
0.0000000001
 40
-1.0
 40
-1.0
 40
-1.0
 40
-1.0
 40
-0.75
 40
-0.7099099052334936
 40
-0.7099099052334936
 40
-0.7099099052334936
 40
-0.7099099052334936
 10
903.6953692085344
 20
1352.591414610526
 30
0.0
 10
903.4814920693973
 20
1350.990970496349
 30
0.0
 10
903.1319272313686
 20
1349.178237541895
 30
0.0
 10
902.6295914807752
 20
1347.457873711236
 30
0.0
 10
902.5571445566788
 20
1347.221966413481
 30
0.0
  0
ELLIPSE
  5
2AB
330
1DB
100
AcDbEntity
  8
P-SANR-FIXT
100
AcDbEllipse
 10
877.7310174161103
 20
1366.747075844246
 30
0.0
 11
0.0
 21
99.99999999999985
 31
0.0
210
0.0
220
0.0
230
1.0
 40
0.9659258262890697
 41
5.19988164184215
 42
6.283185307179575
  0
ELLIPSE
  5
2AC
330
1DB
100
AcDbEntity
  8
P-SANR-FIXT
100
AcDbEllipse
 10
877.7310174161103
 20
1366.747075844246
 30
0.0
 11
0.0
 21
100.0000000000002
 31
0.0
210
0.0
220
0.0
230
1.0
 40
0.9659258262890661
 41
3.141592653589825
 42
4.224894368698682
  0
ARC
  5
2AD
330
1DB
100
AcDbEntity
  8
P-SANR-FIXT
100
AcDbCircle
 10
984.6664074431778
 20
1349.865132828111
 30
0.0
 40
1.999999999999948
100
AcDbArc
 50
0.0
 51
83.24367296941151
  0
ARC
  5
2AE
330
1DB
100
AcDbEntity
  8
P-SANR-FIXT
100
AcDbCircle
 10
984.666407443178
 20
1383.629018860379
 30
0.0
 40
2.0
100
AcDbArc
 50
276.7563270305884
 51
0.0
  0
ARC
  5
2AF
330
1DB
100
AcDbEntity
  8
P-SANR-FIXT
100
AcDbCircle
 10
986.6664074431779
 20
1366.747075844245
 30
0.0
 40
14.99999999999998
100
AcDbArc
 50
96.75632703058736
 51
147.7682120317163
  0
ARC
  5
2B0
330
1DB
100
AcDbEntity
  8
P-SANR-FIXT
100
AcDbCircle
 10
986.6664074431779
 20
1366.747075844245
 30
0.0
 40
15.00000000000006
100
AcDbArc
 50
212.2317879682237
 51
263.2436729694106
  0
ARC
  5
2B1
330
1DB
100
AcDbEntity
  8
P-SANR-FIXT
100
AcDbCircle
 10
734.666407443195
 20
1366.747075844246
 30
0.0
 40
14.99999999999995
100
AcDbArc
 50
276.7563270305861
 51
83.24367296941169
  0
ARC
  5
2B2
330
1DB
100
AcDbEntity
  8
P-SANR-FIXT
100
AcDbCircle
 10
736.6664074431952
 20
1383.62901886038
 30
0.0
 40
1.999999999999974
100
AcDbArc
 50
180.0
 51
263.2436729694047
  0
ARC
  5
2B3
330
1DB
100
AcDbEntity
  8
P-SANR-FIXT
100
AcDbCircle
 10
736.666407443195
 20
1349.865132828112
 30
0.0
 40
2.0
100
AcDbArc
 50
96.75632703059127
 51
180.0
  0
LINE
  5
2B4
330
1DB
100
AcDbEntity
  8
P-SANR-FIXT
100
AcDbLine
 10
874.7206828130016
 20
1366.747075844253
 30
0.0
 11
871.8185033491119
 21
1332.404829098764
 31
0.0
  0
ELLIPSE
  5
2B5
330
1DB
100
AcDbEntity
  8
P-SANR-FIXT
100
AcDbEllipse
 10
847.6850680897586
 20
1333.277316516327
 30
0.0
 11
0.0
 21
25.00000000000004
 31
0.0
210
0.0
220
0.0
230
1.0
 40
0.9659258262890638
 41
3.418816734207117
 42
4.67748239534478
  0
LINE
  5
2B6
330
1DB
100
AcDbEntity
  8
P-SANR-FIXT
100
AcDbLine
 10
854.2940961923564
 20
1309.231844628498
 30
0.0
 11
817.9957788491179
 21
1305.282155343919
 31
0.0
  0
LINE
  5
2B7
330
1DB
100
AcDbEntity
  8
P-SANR-FIXT
100
AcDbLine
 10
817.9957788491181
 20
1428.211996344586
 30
0.0
 11
853.0287847114296
 21
1425.038884311787
 31
0.0
  0
ELLIPSE
  5
2B8
330
1DB
100
AcDbEntity
  8
P-SANR-FIXT
100
AcDbEllipse
 10
852.3545782076407
 20
1405.051067771405
 30
0.0
 11
0.0
 21
20.0000000000001
 31
0.0
210
0.0
220
0.0
230
0.9999999999999998
 40
0.9659258262890606
 41
4.96459356190908
 42
6.248278722139696
  0
LINE
  5
2B9
330
1DB
100
AcDbEntity
  8
P-SANR-FIXT
100
AcDbLine
 10
871.061946613006
 20
1410.041855826091
 30
0.0
 11
874.7206828130016
 21
1366.747075844253
 31
0.0
  0
LINE
  5
2BA
330
1DB
100
AcDbEntity
  8
P-SANR-FIXT
100
AcDbLine
 10
865.3480272215487
 20
1332.404829098764
 30
0.0
 11
871.8185033491119
 21
1332.404829098764
 31
0.0
  0
LINE
  5
2BB
330
1DB
100
AcDbEntity
  8
P-SANR-FIXT
100
AcDbLine
 10
864.5914704854428
 20
1410.041855826091
 30
0.0
 11
871.061946613006
 21
1410.041855826091
 31
0.0
  0
LINE
  5
2BC
330
1DB
100
AcDbEntity
  8
P-SANR-FIXT
100
AcDbLine
 10
847.8236200647932
 20
1309.231844628498
 30
0.0
 11
854.2940961923564
 21
1309.231844628498
 31
0.0
  0
LINE
  5
2BD
330
1DB
100
AcDbEntity
  8
P-SANR-FIXT
100
AcDbLine
 10
853.0287847114296
 20
1425.038884311787
 30
0.0
 11
846.5583085838664
 21
1425.038884311787
 31
0.0
  0
LINE
  5
2BE
330
1DB
100
AcDbEntity
  8
P-SANR-FIXT
100
AcDbLine
 10
817.9957788491181
 20
1428.211996344586
 30
0.0
 11
811.5253027215549
 21
1428.211996344586
 31
0.0
  0
LINE
  5
2BF
330
1DB
100
AcDbEntity
  8
P-SANR-FIXT
100
AcDbLine
 10
874.7206828130016
 20
1366.747075844253
 30
0.0
 11
868.2502066854386
 21
1366.747075844253
 31
0.0
  0
LINE
  5
2C0
330
1DB
100
AcDbEntity
  8
P-SANR-FIXT
100
AcDbLine
 10
817.9957788491179
 20
1305.282155343919
 30
0.0
 11
811.5253027215549
 21
1305.282155343919
 31
0.0
  0
ENDBLK
  5
2C2
330
1DB
100
AcDbEntity
  8
0
100
AcDbBlockEnd
  0
BLOCK
  5
3AD
330
2C4
100
AcDbEntity
  8
0
100
AcDbBlockBegin
  2
Automatic flow rate regulator valve_Caleffi_121 DN15 - 1_2__-V2-Est - Idraulica
 70
     0
 10
0.0
 20
0.0
 30
0.0
  3
Automatic flow rate regulator valve_Caleffi_121 DN15 - 1_2__-V2-Est - Idraulica
  1

  0
ELLIPSE
  5
2C5
330
2C4
100
AcDbEntity
  8
P-SANR-FIXT
100
AcDbEllipse
 10
1420.363156828894
 20
2110.336875776347
 30
0.0
 11
-6.030981664029241
 21
0.0000000000067885
 31
0.0
210
0.0
220
0.0
230
1.0
 40
0.9659258262890235
 41
0.0000000000010889
 42
3.141592653590953
  0
LINE
  5
2C6
330
2C4
100
AcDbEntity
  8
P-SANR-FIXT
100
AcDbLine
 10
1426.394138492924
 20
2110.336875776347
 30
0.0
 11
1426.394138492924
 21
2128.540205281556
 31
0.0
  0
LINE
  5
2C7
330
2C4
100
AcDbEntity
  8
P-SANR-FIXT
100
AcDbLine
 10
1426.394138492924
 20
2128.540205281556
 30
0.0
 11
1414.332175164865
 21
2128.540205281556
 31
0.0
  0
LINE
  5
2C8
330
2C4
100
AcDbEntity
  8
P-SANR-FIXT
100
AcDbLine
 10
1414.332175164865
 20
2128.540205281556
 30
0.0
 11
1414.332175164865
 21
2110.336875776347
 31
0.0
  0
LINE
  5
2C9
330
2C4
100
AcDbEntity
  8
P-SANR-FIXT
100
AcDbLine
 10
1414.332175164865
 20
2130.539050885175
 30
0.0
 11
1426.394138492924
 21
2130.539050885175
 31
0.0
  0
LINE
  5
2CA
330
2C4
100
AcDbEntity
  8
P-SANR-FIXT
100
AcDbLine
 10
1414.332175164865
 20
2128.540205281556
 30
0.0
 11
1414.332175164865
 21
2130.539050885175
 31
0.0
  0
LINE
  5
2CB
330
2C4
100
AcDbEntity
  8
P-SANR-FIXT
100
AcDbLine
 10
1426.394138492924
 20
2128.540205281556
 30
0.0
 11
1426.394138492924
 21
2130.539050885175
 31
0.0
  0
LINE
  5
2CC
330
2C4
100
AcDbEntity
  8
P-SANR-FIXT
100
AcDbLine
 10
1457.863156828897
 20
1678.661927508128
 30
0.0
 11
1457.863156828897
 21
1691.218963249886
 31
0.0
  0
LINE
  5
2CD
330
2C4
100
AcDbEntity
  8
P-SANR-FIXT
100
AcDbLine
 10
1382.863156828898
 20
1691.218963249886
 30
0.0
 11
1382.863156828898
 21
1678.661927508128
 31
0.0
  0
LINE
  5
2CE
330
2C4
100
AcDbEntity
  8
P-SANR-FIXT
100
AcDbLine
 10
1384.356550783601
 20
1675.972914230833
 30
0.0
 11
1384.356550783601
 21
1673.832298376683
 31
0.0
  0
LINE
  5
2CF
330
2C4
100
AcDbEntity
  8
P-SANR-FIXT
100
AcDbLine
 10
1456.369762874195
 20
1673.832298376683
 30
0.0
 11
1456.369762874195
 21
1675.972914230834
 31
0.0
  0
LWPOLYLINE
  5
2D0
330
2C4
100
AcDbEntity
  8
P-SANR-FIXT
100
AcDbPolyline
 90
       41
 70
   128
 43
0.0
 10
1384.356550783601
 20
1673.832298376683
 10
1384.440078276449
 20
1672.747307673124
 10
1384.679604751004
 20
1671.711538396078
 10
1385.047254353376
 20
1670.76008645741
 10
1385.509782563541
 20
1669.908268910849
 10
1386.038245354876
 20
1669.154944599745
 10
1386.612135170739
 20
1668.489542454767
 10
1387.219121918827
 20
1667.898175388337
 10
1387.852950814184
 20
1667.367293068964
 10
1388.511215812665
 20
1666.885267808145
 10
1389.193661188402
 20
1666.442768186856
 10
1389.901072474985
 20
1666.032578770786
 10
1390.634618800028
 20
1665.649236855466
 10
1391.395491585323
 20
1665.288657321784
 10
1392.184722013513
 20
1664.947808966306
 10
1393.003100374663
 20
1664.624456197587
 10
1393.851150732639
 20
1664.316960652058
 10
1394.729134005621
 20
1664.024131677378
 10
1395.637064440205
 20
1663.745114556
 10
1396.574731364309
 20
1663.479307090263
 10
1397.541722011363
 20
1663.22629722096
 10
1398.537443371525
 20
1662.985816163962
 10
1399.561142195853
 20
1662.757702991771
 10
1400.611922892844
 20
1662.541877678744
 10
1401.688763362482
 20
1662.338320434464
 10
1402.790528951518
 20
1662.147055736676
 10
1403.915984763624
 20
1661.968139900503
 10
1405.063806562889
 20
1661.801651328368
 10
1406.23259049267
 20
1661.64768280822
 10
1407.420861806739
 20
1661.506335389919
 10
1408.627082782722
 20
1661.37771348837
 10
1409.84965996209
 20
1661.261920949195
 10
1411.086950838006
 20
1661.159057877352
 10
1412.33727009248
 20
1661.069218077199
 10
1413.598895467583
 20
1660.992486988645
 10
1414.870073341637
 20
1660.928940031451
 10
1416.149024070038
 20
1660.87864129067
 10
1417.433947141297
 20
1660.841642492538
 10
1418.723026191783
 20
1660.817982232921
 10
1420.01443391718
 20
1660.807685430775
 10
1420.363156828898
 20
1660.807198208169
  0
LWPOLYLINE
  5
2D1
330
2C4
100
AcDbEntity
  8
P-SANR-FIXT
100
AcDbPolyline
 90
       41
 70
   128
 43
0.0
 10
1456.369762874195
 20
1673.832298376683
 10
1456.286235381347
 20
1672.747307673124
 10
1456.046708906792
 20
1671.711538396078
 10
1455.679059304421
 20
1670.760086457411
 10
1455.216531094255
 20
1669.908268910849
 10
1454.68806830292
 20
1669.154944599745
 10
1454.114178487057
 20
1668.489542454767
 10
1453.507191738969
 20
1667.898175388337
 10
1452.873362843613
 20
1667.367293068964
 10
1452.215097845131
 20
1666.885267808146
 10
1451.532652469394
 20
1666.442768186857
 10
1450.825241182811
 20
1666.032578770786
 10
1450.091694857768
 20
1665.649236855466
 10
1449.330822072473
 20
1665.288657321784
 10
1448.541591644283
 20
1664.947808966307
 10
1447.723213283133
 20
1664.624456197587
 10
1446.875162925157
 20
1664.316960652058
 10
1445.997179652174
 20
1664.024131677378
 10
1445.08924921759
 20
1663.745114556001
 10
1444.151582293486
 20
1663.479307090263
 10
1443.184591646433
 20
1663.22629722096
 10
1442.188870286272
 20
1662.985816163962
 10
1441.165171461943
 20
1662.757702991771
 10
1440.114390764951
 20
1662.541877678744
 10
1439.037550295314
 20
1662.338320434464
 10
1437.935784706278
 20
1662.147055736677
 10
1436.810328894172
 20
1661.968139900503
 10
1435.662507094907
 20
1661.801651328368
 10
1434.493723165127
 20
1661.64768280822
 10
1433.305451851057
 20
1661.50633538992
 10
1432.099230875074
 20
1661.37771348837
 10
1430.876653695706
 20
1661.261920949195
 10
1429.63936281979
 20
1661.159057877352
 10
1428.389043565316
 20
1661.069218077199
 10
1427.127418190213
 20
1660.992486988646
 10
1425.856240316159
 20
1660.928940031451
 10
1424.577289587758
 20
1660.87864129067
 10
1423.292366516499
 20
1660.841642492538
 10
1422.003287466013
 20
1660.817982232922
 10
1420.711879740617
 20
1660.807685430776
 10
1420.363156828898
 20
1660.807198208169
  0
ELLIPSE
  5
2D2
330
2C4
100
AcDbEntity
  8
P-SANR-FIXT
100
AcDbEllipse
 10
1420.363156828896
 20
1691.218963249886
 30
0.0
 11
37.49999999999938
 21
0.0
 31
0.0
210
0.0
220
0.0
230
1.0
 40
0.2588190451025133
 41
4.712388980384683
 42
6.412516957487359
  0
ELLIPSE
  5
2D3
330
2C4
100
AcDbEntity
  8
P-SANR-FIXT
100
AcDbEllipse
 10
1420.363156828896
 20
1678.661927508128
 30
0.0
 11
37.49999999999932
 21
0.0
 31
0.0
210
0.0
220
0.0
230
1.0
 40
0.2588190451025171
 41
3.141592653589793
 42
4.712388980384677
  0
ELLIPSE
  5
2D4
330
2C4
100
AcDbEntity
  8
P-SANR-FIXT
100
AcDbEllipse
 10
1420.363156828896
 20
1691.218963249886
 30
0.0
 11
37.49999999999932
 21
0.0
 31
0.0
210
0.0
220
0.0
230
1.0
 40
0.2588190451025171
 41
3.012261003281384
 42
4.712388980384677
  0
ELLIPSE
  5
2D5
330
2C4
100
AcDbEntity
  8
P-SANR-FIXT
100
AcDbEllipse
 10
1420.363156828896
 20
1678.661927508128
 30
0.0
 11
37.49999999999932
 21
0.0
 31
0.0
210
0.0
220
0.0
230
1.0
 40
0.2588190451025171
 41
4.712388980384677
 42
6.283185307179586
  0
LINE
  5
2D6
330
2C4
100
AcDbEntity
  8
P-SANR-FIXT
100
AcDbLine
 10
1414.363156828897
 20
2110.838070464355
 30
0.0
 11
1414.363156828897
 21
2110.299370684229
 31
0.0
  0
LINE
  5
2D7
330
2C4
100
AcDbEntity
  8
P-SANR-FIXT
100
AcDbLine
 10
1426.363156828897
 20
2110.299370684229
 30
0.0
 11
1426.363156828897
 21
2110.838070464354
 31
0.0
  0
ELLIPSE
  5
2D8
330
2C4
100
AcDbEntity
  8
P-SANR-FIXT
100
AcDbEllipse
 10
1420.363156828894
 20
2110.299370684229
 30
0.0
 11
6.0
 21
0.0
 31
0.0
210
0.0
220
0.0
230
1.0
 40
0.9659258262890944
 41
1.570796326794896
 42
4.712388980384683
  0
ELLIPSE
  5
2D9
330
2C4
100
AcDbEntity
  8
P-SANR-FIXT
100
AcDbEllipse
 10
1420.363156828894
 20
2110.299370684229
 30
0.0
 11
6.0
 21
0.0
 31
0.0
210
0.0
220
0.0
230
1.0
 40
0.9659258262890185
 41
4.712388980384683
 42
7.853981633974482
  0
LINE
  5
2DA
330
2C4
100
AcDbEntity
  8
P-SANR-FIXT
100
AcDbLine
 10
1414.563156828898
 20
2141.20437935621
 30
0.0
 11
1414.563156828898
 21
2138.183147083105
 31
0.0
  0
LINE
  5
2DB
330
2C4
100
AcDbEntity
  8
P-SANR-FIXT
100
AcDbLine
 10
1426.163156828898
 20
2138.183147083104
 30
0.0
 11
1426.163156828898
 21
2141.20437935621
 31
0.0
  0
LINE
  5
2DC
330
2C4
100
AcDbEntity
  8
P-SANR-FIXT
100
AcDbLine
 10
1419.363156828898
 20
2144.204379356211
 30
0.0
 11
1419.363156828898
 21
2141.20437935621
 31
0.0
  0
LINE
  5
2DD
330
2C4
100
AcDbEntity
  8
P-SANR-FIXT
100
AcDbLine
 10
1421.363156828898
 20
2141.20437935621
 30
0.0
 11
1421.363156828898
 21
2144.204379356211
 31
0.0
  0
LINE
  5
2DE
330
2C4
100
AcDbEntity
  8
P-SANR-FIXT
100
AcDbLine
 10
1412.863156828897
 20
2073.212486365642
 30
0.0
 11
1412.863156828897
 21
2065.444827972812
 31
0.0
  0
LINE
  5
2DF
330
2C4
100
AcDbEntity
  8
P-SANR-FIXT
100
AcDbLine
 10
1427.863156828896
 20
2065.444827972812
 30
0.0
 11
1427.863156828896
 21
2073.212486365642
 31
0.0
  0
LINE
  5
2E0
330
2C4
100
AcDbEntity
  8
P-SANR-FIXT
100
AcDbLine
 10
1415.363156828896
 20
2074.712486365643
 30
0.0
 11
1415.363156828896
 21
2073.212486365642
 31
0.0
  0
LINE
  5
2E1
330
2C4
100
AcDbEntity
  8
P-SANR-FIXT
100
AcDbLine
 10
1425.363156828897
 20
2073.212486365642
 30
0.0
 11
1425.363156828897
 21
2074.712486365643
 31
0.0
  0
LINE
  5
2E2
330
2C4
100
AcDbEntity
  8
P-SANR-FIXT
100
AcDbLine
 10
1412.863156828897
 20
2079.73541741012
 30
0.0
 11
1412.863156828897
 21
2074.712486365643
 31
0.0
  0
LINE
  5
2E3
330
2C4
100
AcDbEntity
  8
P-SANR-FIXT
100
AcDbLine
 10
1427.863156828896
 20
2074.712486365643
 30
0.0
 11
1427.863156828896
 21
2079.73541741012
 31
0.0
  0
LINE
  5
2E4
330
2C4
100
AcDbEntity
  8
P-SANR-FIXT
100
AcDbLine
 10
1416.363156828896
 20
2082.212486365643
 30
0.0
 11
1416.363156828896
 21
2080.712486365642
 31
0.0
  0
LINE
  5
2E5
330
2C4
100
AcDbEntity
  8
P-SANR-FIXT
100
AcDbLine
 10
1424.363156828896
 20
2080.712486365642
 30
0.0
 11
1424.363156828896
 21
2082.212486365643
 31
0.0
  0
LINE
  5
2E6
330
2C4
100
AcDbEntity
  8
P-SANR-FIXT
100
AcDbLine
 10
1415.363156828896
 20
2084.212486365643
 30
0.0
 11
1415.363156828896
 21
2082.212486365643
 31
0.0
  0
LINE
  5
2E7
330
2C4
100
AcDbEntity
  8
P-SANR-FIXT
100
AcDbLine
 10
1425.363156828897
 20
2082.212486365643
 30
0.0
 11
1425.363156828897
 21
2084.212486365643
 31
0.0
  0
LINE
  5
2E8
330
2C4
100
AcDbEntity
  8
P-SANR-FIXT
100
AcDbLine
 10
1413.84022578442
 20
2080.712486365642
 30
0.0
 11
1412.863156828897
 21
2079.73541741012
 31
0.0
  0
LINE
  5
2E9
330
2C4
100
AcDbEntity
  8
P-SANR-FIXT
100
AcDbLine
 10
1427.863156828896
 20
2079.73541741012
 30
0.0
 11
1426.886087873373
 21
2080.712486365642
 31
0.0
  0
LINE
  5
2EA
330
2C4
100
AcDbEntity
  8
P-SANR-FIXT
100
AcDbLine
 10
1413.741478435736
 20
2065.444827972812
 30
0.0
 11
1413.741478435736
 21
2063.209075127734
 31
0.0
  0
LINE
  5
2EB
330
2C4
100
AcDbEntity
  8
P-SANR-FIXT
100
AcDbLine
 10
1426.984835222057
 20
2063.209075127734
 30
0.0
 11
1426.984835222057
 21
2065.444827972812
 31
0.0
  0
LINE
  5
2EC
330
2C4
100
AcDbEntity
  8
P-SANR-FIXT
100
AcDbLine
 10
1420.363156828896
 20
2141.20437935621
 30
0.0
 11
1414.563156828896
 21
2141.20437935621
 31
0.0
  0
LINE
  5
2ED
330
2C4
100
AcDbEntity
  8
P-SANR-FIXT
100
AcDbLine
 10
1426.163156828896
 20
2141.20437935621
 30
0.0
 11
1420.363156828896
 21
2141.20437935621
 31
0.0
  0
LINE
  5
2EE
330
2C4
100
AcDbEntity
  8
P-SANR-FIXT
100
AcDbLine
 10
1420.363156828896
 20
2144.20437935621
 30
0.0
 11
1419.363156828896
 21
2144.20437935621
 31
0.0
  0
LINE
  5
2EF
330
2C4
100
AcDbEntity
  8
P-SANR-FIXT
100
AcDbLine
 10
1421.363156828896
 20
2144.20437935621
 30
0.0
 11
1420.363156828896
 21
2144.20437935621
 31
0.0
  0
LINE
  5
2F0
330
2C4
100
AcDbEntity
  8
P-SANR-FIXT
100
AcDbLine
 10
1412.863156828894
 20
2065.444827972811
 30
0.0
 11
1420.363156828894
 21
2065.444827972811
 31
0.0
  0
LINE
  5
2F1
330
2C4
100
AcDbEntity
  8
P-SANR-FIXT
100
AcDbLine
 10
1420.363156828894
 20
2065.444827972811
 30
0.0
 11
1427.863156828894
 21
2065.444827972811
 31
0.0
  0
LINE
  5
2F2
330
2C4
100
AcDbEntity
  8
P-SANR-FIXT
100
AcDbLine
 10
1420.363156828894
 20
2073.212486365642
 30
0.0
 11
1412.863156828894
 21
2073.212486365642
 31
0.0
  0
LINE
  5
2F3
330
2C4
100
AcDbEntity
  8
P-SANR-FIXT
100
AcDbLine
 10
1427.863156828894
 20
2073.212486365642
 30
0.0
 11
1420.363156828894
 21
2073.212486365642
 31
0.0
  0
LINE
  5
2F4
330
2C4
100
AcDbEntity
  8
P-SANR-FIXT
100
AcDbLine
 10
1420.363156828894
 20
2074.712486365642
 30
0.0
 11
1412.863156828894
 21
2074.712486365642
 31
0.0
  0
LINE
  5
2F5
330
2C4
100
AcDbEntity
  8
P-SANR-FIXT
100
AcDbLine
 10
1427.863156828894
 20
2074.712486365642
 30
0.0
 11
1420.363156828894
 21
2074.712486365642
 31
0.0
  0
LINE
  5
2F6
330
2C4
100
AcDbEntity
  8
P-SANR-FIXT
100
AcDbLine
 10
1413.840225784418
 20
2080.712486365642
 30
0.0
 11
1420.363156828894
 21
2080.712486365642
 31
0.0
  0
LINE
  5
2F7
330
2C4
100
AcDbEntity
  8
P-SANR-FIXT
100
AcDbLine
 10
1420.363156828894
 20
2080.712486365642
 30
0.0
 11
1426.886087873371
 21
2080.712486365642
 31
0.0
  0
LINE
  5
2F8
330
2C4
100
AcDbEntity
  8
P-SANR-FIXT
100
AcDbLine
 10
1420.363156828894
 20
2082.212486365642
 30
0.0
 11
1415.363156828894
 21
2082.212486365642
 31
0.0
  0
LINE
  5
2F9
330
2C4
100
AcDbEntity
  8
P-SANR-FIXT
100
AcDbLine
 10
1425.363156828894
 20
2082.212486365642
 30
0.0
 11
1420.363156828894
 21
2082.212486365642
 31
0.0
  0
LINE
  5
2FA
330
2C4
100
AcDbEntity
  8
P-SANR-FIXT
100
AcDbLine
 10
1420.363156828894
 20
2084.212486365642
 30
0.0
 11
1415.363156828894
 21
2084.212486365642
 31
0.0
  0
LINE
  5
2FB
330
2C4
100
AcDbEntity
  8
P-SANR-FIXT
100
AcDbLine
 10
1425.363156828894
 20
2084.212486365642
 30
0.0
 11
1420.363156828894
 21
2084.212486365642
 31
0.0
  0
LINE
  5
2FC
330
2C4
100
AcDbEntity
  8
P-SANR-FIXT
100
AcDbLine
 10
1420.363156828894
 20
2079.735417410118
 30
0.0
 11
1412.863156828894
 21
2079.735417410118
 31
0.0
  0
LINE
  5
2FD
330
2C4
100
AcDbEntity
  8
P-SANR-FIXT
100
AcDbLine
 10
1427.863156828894
 20
2079.735417410118
 30
0.0
 11
1420.363156828894
 21
2079.735417410118
 31
0.0
  0
LINE
  5
2FE
330
2C4
100
AcDbEntity
  8
P-SANR-FIXT
100
AcDbLine
 10
1414.363156828897
 20
2108.607505476443
 30
0.0
 11
1414.363156828897
 21
2107.532994380475
 31
0.0
  0
LINE
  5
2FF
330
2C4
100
AcDbEntity
  8
P-SANR-FIXT
100
AcDbLine
 10
1426.363156828897
 20
2107.532994380475
 30
0.0
 11
1426.363156828897
 21
2108.607505476443
 31
0.0
  0
LINE
  5
300
330
2C4
100
AcDbEntity
  8
P-SANR-FIXT
100
AcDbLine
 10
1414.303343448692
 20
2108.629248784203
 30
0.0
 11
1414.671901368998
 21
2108.447188283291
 31
0.0
  0
LINE
  5
301
330
2C4
100
AcDbEntity
  8
P-SANR-FIXT
100
AcDbLine
 10
1426.061066806427
 20
2108.450475486595
 30
0.0
 11
1426.422970209102
 21
2108.629248784203
 31
0.0
  0
LINE
  5
302
330
2C4
100
AcDbEntity
  8
P-SANR-FIXT
100
AcDbLine
 10
1413.521954801086
 20
2116.673161459514
 30
0.0
 11
1413.521954801086
 21
2109.45100259391
 31
0.0
  0
LINE
  5
303
330
2C4
100
AcDbEntity
  8
P-SANR-FIXT
100
AcDbLine
 10
1427.204358856708
 20
2109.45100259391
 30
0.0
 11
1427.204358856708
 21
2116.673161459514
 31
0.0
  0
LINE
  5
304
330
2C4
100
AcDbEntity
  8
P-SANR-FIXT
100
AcDbLine
 10
1412.521954801086
 20
2121.019125290984
 30
0.0
 11
1412.521954801086
 21
2117.661372117368
 31
0.0
  0
LINE
  5
305
330
2C4
100
AcDbEntity
  8
P-SANR-FIXT
100
AcDbLine
 10
1428.204358856708
 20
2117.661372117368
 30
0.0
 11
1428.204358856708
 21
2121.019125290984
 31
0.0
  0
LINE
  5
306
330
2C4
100
AcDbEntity
  8
P-SANR-FIXT
100
AcDbLine
 10
1411.621954801086
 20
2136.496925730004
 30
0.0
 11
1411.621954801086
 21
2122.008038335668
 31
0.0
  0
LINE
  5
307
330
2C4
100
AcDbEntity
  8
P-SANR-FIXT
100
AcDbLine
 10
1429.104358856708
 20
2122.008038335668
 30
0.0
 11
1429.104358856708
 21
2136.496925730004
 31
0.0
  0
ELLIPSE
  5
308
330
2C4
100
AcDbEntity
  8
P-SANR-FIXT
100
AcDbEllipse
 10
1420.363156828895
 20
2107.532994380475
 30
0.0
 11
6.0
 21
0.0
 31
0.0
210
0.0
220
0.0
230
1.0
 40
0.2588190451025032
 41
3.141592653589793
 42
3.839724354387394
  0
ELLIPSE
  5
309
330
2C4
100
AcDbEntity
  8
P-SANR-FIXT
100
AcDbEllipse
 10
1420.363156828895
 20
2107.532994380475
 30
0.0
 11
5.999999999999885
 21
0.0
 31
0.0
210
0.0
220
0.0
230
1.0
 40
0.2588190451025491
 41
5.585053606382035
 42
6.283185307179586
  0
ELLIPSE
  5
30A
330
2C4
100
AcDbEntity
  8
P-SANR-FIXT
100
AcDbEllipse
 10
1420.363156828895
 20
2109.451002593909
 30
0.0
 11
6.841202027811451
 21
0.0
 31
0.0
210
0.0
220
0.0
230
1.0
 40
0.2588190451024972
 41
3.141592653589793
 42
3.721426423029123
  0
ELLIPSE
  5
30B
330
2C4
100
AcDbEntity
  8
P-SANR-FIXT
100
AcDbEllipse
 10
1420.363156828895
 20
2109.451002593909
 30
0.0
 11
6.841202027811277
 21
0.0
 31
0.0
210
0.0
220
0.0
230
1.0
 40
0.2588190451025369
 41
5.70335153773981
 42
6.283185307179586
  0
ELLIPSE
  5
30C
330
2C4
100
AcDbEntity
  8
P-SANR-FIXT
100
AcDbEllipse
 10
1420.363156828895
 20
2117.661372117366
 30
0.0
 11
7.841202027811712
 21
0.0
 31
0.0
210
0.0
220
0.0
230
1.0
 40
0.2588190451024885
 41
3.141592653589793
 42
3.832840723364544
  0
ELLIPSE
  5
30D
330
2C4
100
AcDbEntity
  8
P-SANR-FIXT
100
AcDbEllipse
 10
1420.363156828895
 20
2117.661372117366
 30
0.0
 11
7.84120202781105
 21
0.0
 31
0.0
210
0.0
220
0.0
230
1.0
 40
0.2588190451025305
 41
5.591937237404809
 42
6.283185307179586
  0
ELLIPSE
  5
30E
330
2C4
100
AcDbEntity
  8
P-SANR-FIXT
100
AcDbEllipse
 10
1420.363156828895
 20
2122.008038335667
 30
0.0
 11
8.741202027811542
 21
0.0
 31
0.0
210
0.0
220
0.0
230
1.0
 40
0.2588190451025011
 41
3.141592653589793
 42
3.949828472403862
  0
ELLIPSE
  5
30F
330
2C4
100
AcDbEntity
  8
P-SANR-FIXT
100
AcDbEllipse
 10
1420.363156828895
 20
2122.008038335667
 30
0.0
 11
8.741202027810913
 21
0.0
 31
0.0
210
0.0
220
0.0
230
1.0
 40
0.2588190451025239
 41
5.474949488365454
 42
6.283185307179586
  0
ELLIPSE
  5
310
330
2C4
100
AcDbEntity
  8
P-SANR-FIXT
100
AcDbEllipse
 10
1420.363156828894
 20
2136.496925730003
 30
0.0
 11
8.741202027810913
 21
0.0
 31
0.0
210
0.0
220
0.0
230
1.0
 40
0.2588190451025239
 41
1.570796326794844
 42
4.712388980384683
  0
ELLIPSE
  5
311
330
2C4
100
AcDbEntity
  8
P-SANR-FIXT
100
AcDbEllipse
 10
1420.363156828894
 20
2136.496925730003
 30
0.0
 11
8.741202027811141
 21
0.0
 31
0.0
210
0.0
220
0.0
230
1.0
 40
0.2588190451025171
 41
4.712388980384683
 42
7.853981633974431
  0
LINE
  5
312
330
2C4
100
AcDbEntity
  8
P-SANR-FIXT
100
AcDbLine
 10
1390.363156828908
 20
2107.532994380476
 30
0.0
 11
1390.363156828908
 21
2102.703365249031
 31
0.0
  0
LINE
  5
313
330
2C4
100
AcDbEntity
  8
P-SANR-FIXT
100
AcDbLine
 10
1450.363156828907
 20
2102.70336524903
 30
0.0
 11
1450.363156828907
 21
2107.532994380475
 31
0.0
  0
LINE
  5
314
330
2C4
100
AcDbEntity
  8
P-SANR-FIXT
100
AcDbLine
 10
1378.363156828907
 20
2097.873736117586
 30
0.0
 11
1378.363156828907
 21
2094.975958638718
 31
0.0
  0
LINE
  5
315
330
2C4
100
AcDbEntity
  8
P-SANR-FIXT
100
AcDbLine
 10
1462.363156828907
 20
2094.975958638717
 30
0.0
 11
1462.363156828907
 21
2097.873736117584
 31
0.0
  0
LINE
  5
316
330
2C4
100
AcDbEntity
  8
P-SANR-FIXT
100
AcDbLine
 10
1378.382587664775
 20
2097.988920766608
 30
0.0
 11
1376.771543133268
 21
2096.751521176143
 31
0.0
  0
LINE
  5
317
330
2C4
100
AcDbEntity
  8
P-SANR-FIXT
100
AcDbLine
 10
1463.954770524547
 20
2096.751521176142
 30
0.0
 11
1462.343725993039
 21
2097.988920766607
 31
0.0
  0
LINE
  5
318
330
2C4
100
AcDbEntity
  8
P-SANR-FIXT
100
AcDbLine
 10
1374.363156828907
 20
2092.949688627259
 30
0.0
 11
1374.363156828907
 21
2081.452997070671
 31
0.0
  0
LINE
  5
319
330
2C4
100
AcDbEntity
  8
P-SANR-FIXT
100
AcDbLine
 10
1466.363156828907
 20
2081.45299707067
 30
0.0
 11
1466.363156828907
 21
2092.949688627258
 31
0.0
  0
LINE
  5
31A
330
2C4
100
AcDbEntity
  8
P-SANR-FIXT
100
AcDbLine
 10
1364.363156828906
 20
2045.695247407828
 30
0.0
 11
1364.363156828906
 21
2044.510599453415
 31
0.0
  0
LINE
  5
31B
330
2C4
100
AcDbEntity
  8
P-SANR-FIXT
100
AcDbLine
 10
1476.363156828907
 20
2044.510599453412
 30
0.0
 11
1476.363156828907
 21
2045.695471390804
 31
0.0
  0
LINE
  5
31C
330
2C4
100
AcDbEntity
  8
P-SANR-FIXT
100
AcDbLine
 10
1385.363156828905
 20
1881.506351028833
 30
0.0
 11
1385.363156828904
 21
1875.913439019098
 31
0.0
  0
LINE
  5
31D
330
2C4
100
AcDbEntity
  8
P-SANR-FIXT
100
AcDbLine
 10
1455.363156828904
 20
1875.913439019097
 30
0.0
 11
1455.363156828904
 21
1881.506351028833
 31
0.0
  0
LINE
  5
31E
330
2C4
100
AcDbEntity
  8
P-SANR-FIXT
100
AcDbLine
 10
1385.363156828905
 20
1879.598163778299
 30
0.0
 11
1370.222930783092
 21
1875.578337850388
 31
0.0
  0
LINE
  5
31F
330
2C4
100
AcDbEntity
  8
P-SANR-FIXT
100
AcDbLine
 10
1470.503382874716
 20
1875.578337850387
 30
0.0
 11
1455.363156828904
 21
1879.598163778297
 31
0.0
  0
LINE
  5
320
330
2C4
100
AcDbEntity
  8
P-SANR-FIXT
100
AcDbLine
 10
1355.711670077674
 20
1870.44198632587
 30
0.0
 11
1352.418952640072
 21
1868.898657635124
 31
0.0
  0
LINE
  5
321
330
2C4
100
AcDbEntity
  8
P-SANR-FIXT
100
AcDbLine
 10
1488.307361017736
 20
1868.898657635122
 30
0.0
 11
1485.014643580135
 21
1870.441986325868
 31
0.0
  0
LINE
  5
322
330
2C4
100
AcDbEntity
  8
P-SANR-FIXT
100
AcDbLine
 10
1342.823100497931
 20
1862.506398864233
 30
0.0
 11
1342.183835200448
 21
1861.865233407486
 31
0.0
  0
LINE
  5
323
330
2C4
100
AcDbEntity
  8
P-SANR-FIXT
100
AcDbLine
 10
1498.54247845736
 20
1861.865233407485
 30
0.0
 11
1497.903213159877
 21
1862.506398864232
 31
0.0
  0
LINE
  5
324
330
2C4
100
AcDbEntity
  8
P-SANR-FIXT
100
AcDbLine
 10
1320.363156828904
 20
1848.664872935006
 30
0.0
 11
1320.363156828904
 21
1843.83524380356
 31
0.0
  0
LINE
  5
325
330
2C4
100
AcDbEntity
  8
P-SANR-FIXT
100
AcDbLine
 10
1520.363156828904
 20
1843.835243803558
 30
0.0
 11
1520.363156828904
 21
1848.664872935003
 31
0.0
  0
LINE
  5
326
330
2C4
100
AcDbEntity
  8
P-SANR-FIXT
100
AcDbLine
 10
1320.363156828904
 20
1833.540390471074
 30
0.0
 11
1320.363156828904
 21
1823.636402255122
 31
0.0
  0
LINE
  5
327
330
2C4
100
AcDbEntity
  8
P-SANR-FIXT
100
AcDbLine
 10
1520.363156828904
 20
1823.636402255119
 30
0.0
 11
1520.363156828904
 21
1833.540390471072
 31
0.0
  0
LINE
  5
328
330
2C4
100
AcDbEntity
  8
P-SANR-FIXT
100
AcDbLine
 10
1335.492771936938
 20
1805.850461817742
 30
0.0
 11
1350.964185701576
 21
1788.49660496948
 31
0.0
  0
LINE
  5
329
330
2C4
100
AcDbEntity
  8
P-SANR-FIXT
100
AcDbLine
 10
1489.762127956231
 20
1788.496604969478
 30
0.0
 11
1505.204966169971
 21
1805.818409412758
 31
0.0
  0
LINE
  5
32A
330
2C4
100
AcDbEntity
  8
P-SANR-FIXT
100
AcDbLine
 10
1380.380685502808
 20
1695.102404337889
 30
0.0
 11
1387.225464112155
 21
1688.732620104551
 31
0.0
  0
LINE
  5
32B
330
2C4
100
AcDbEntity
  8
P-SANR-FIXT
100
AcDbLine
 10
1453.500849545649
 20
1688.73262010455
 30
0.0
 11
1460.345628154997
 21
1695.102404337887
 31
0.0
  0
LINE
  5
32C
330
2C4
100
AcDbEntity
  8
P-SANR-FIXT
100
AcDbLine
 10
1349.830826760698
 20
1789.839621652881
 30
0.0
 11
1378.024349926245
 21
1709.541670963091
 31
0.0
  0
LINE
  5
32D
330
2C4
100
AcDbEntity
  8
P-SANR-FIXT
100
AcDbLine
 10
1462.701963731561
 20
1709.54167096309
 30
0.0
 11
1490.895486897108
 21
1789.839621652879
 31
0.0
  0
LINE
  5
32E
330
2C4
100
AcDbEntity
  8
P-SANR-FIXT
100
AcDbLine
 10
1376.863156828902
 20
1710.537479775668
 30
0.0
 11
1376.863156828902
 21
1708.60562812309
 31
0.0
  0
LINE
  5
32F
330
2C4
100
AcDbEntity
  8
P-SANR-FIXT
100
AcDbLine
 10
1463.863156828903
 20
1708.605628123089
 30
0.0
 11
1463.863156828903
 21
1710.537479775667
 31
0.0
  0
LINE
  5
330
330
2C4
100
AcDbEntity
  8
P-SANR-FIXT
100
AcDbLine
 10
1378.863156828902
 20
1705.266656414992
 30
0.0
 11
1378.863156828902
 21
1697.98044403391
 31
0.0
  0
LINE
  5
331
330
2C4
100
AcDbEntity
  8
P-SANR-FIXT
100
AcDbLine
 10
1461.863156828903
 20
1697.98044403391
 30
0.0
 11
1461.863156828903
 21
1705.266656414991
 31
0.0
  0
LINE
  5
332
330
2C4
100
AcDbEntity
  8
P-SANR-FIXT
100
AcDbLine
 10
1385.363156828905
 20
1885.469673278123
 30
0.0
 11
1385.363156828905
 21
1881.506351028833
 31
0.0
  0
LINE
  5
333
330
2C4
100
AcDbEntity
  8
P-SANR-FIXT
100
AcDbLine
 10
1455.363156828904
 20
1881.506351028833
 30
0.0
 11
1455.363156828904
 21
1885.469673278123
 31
0.0
  0
LWPOLYLINE
  5
334
330
2C4
100
AcDbEntity
  8
P-SANR-FIXT
100
AcDbPolyline
 90
       39
 70
   128
 43
0.0
 10
1320.363156828904
 20
1823.636402255122
 10
1320.521591420247
 20
1821.580347134802
 10
1320.980985408855
 20
1819.595648042728
 10
1321.701195407755
 20
1817.733411970215
 10
1322.634259048847
 20
1816.016391992359
 10
1323.738255416661
 20
1814.443745865952
 10
1324.983234319392
 20
1813.001109242607
 10
1326.350845912532
 20
1811.669358168732
 10
1327.831328511894
 20
1810.429843783868
 10
1329.420318268298
 20
1809.266664319303
 10
1331.116416083326
 20
1808.16719943596
 10
1332.919599517209
 20
1807.121850592524
 10
1334.830281917168
 20
1806.123519159128
 10
1336.848796543734
 20
1805.167067508238
 10
1338.975137123318
 20
1804.248853912253
 10
1341.208844612919
 20
1803.366361161502
 10
1343.5489734331
 20
1802.517911097486
 10
1345.994098598136
 20
1801.702449220804
 10
1348.542342208283
 20
1800.91938342551
 10
1351.191407667671
 20
1800.168463417992
 10
1353.938615591847
 20
1799.449690317838
 10
1356.780938469591
 20
1798.763248536355
 10
1359.715032820738
 20
1798.109454095772
 10
1362.737268470922
 20
1797.488715117211
 10
1365.843755002139
 20
1796.901501360355
 10
1369.030365636486
 20
1796.348320539098
 10
1372.292758881762
 20
1795.829699746933
 10
1375.62639827438
 20
1795.346170766932
 10
1379.026570531208
 20
1794.898258360941
 10
1382.488402385938
 20
1794.486470865154
 10
1386.006876346692
 20
1794.111292589349
 10
1389.576845574618
 20
1793.773177642018
 10
1393.193048050156
 20
1793.472544896099
 10
1396.850120165055
 20
1793.209773878975
 10
1400.542609854193
 20
1792.985201422065
 10
1404.264989361318
 20
1792.799118944578
 10
1408.011667716554
 20
1792.651770275951
 10
1411.777002990517
 20
1792.543349944753
 10
1412.202660893503
 20
1792.533570035286
  0
LWPOLYLINE
  5
335
330
2C4
100
AcDbEntity
  8
P-SANR-FIXT
100
AcDbPolyline
 90
       39
 70
   128
 43
0.0
 10
1520.363156828904
 20
1823.63640225512
 10
1520.20472223756
 20
1821.5803471348
 10
1519.745328248953
 20
1819.595648042725
 10
1519.025118250053
 20
1817.733411970213
 10
1518.09205460896
 20
1816.016391992358
 10
1516.988058241146
 20
1814.443745865949
 10
1515.743079338416
 20
1813.001109242605
 10
1514.375467745276
 20
1811.66935816873
 10
1512.894985145914
 20
1810.429843783866
 10
1511.30599538951
 20
1809.266664319301
 10
1509.609897574482
 20
1808.167199435958
 10
1507.806714140599
 20
1807.121850592522
 10
1505.896031740639
 20
1806.123519159126
 10
1503.877517114074
 20
1805.167067508236
 10
1501.751176534488
 20
1804.248853912251
 10
1499.517469044889
 20
1803.3663611615
 10
1497.177340224708
 20
1802.517911097485
 10
1494.732215059672
 20
1801.702449220801
 10
1492.183971449524
 20
1800.919383425508
 10
1489.534905990137
 20
1800.168463417991
 10
1486.78769806596
 20
1799.449690317837
 10
1483.945375188217
 20
1798.763248536354
 10
1481.011280837069
 20
1798.109454095771
 10
1477.989045186885
 20
1797.48871511721
 10
1474.882558655668
 20
1796.901501360354
 10
1471.695948021321
 20
1796.348320539097
 10
1468.433554776044
 20
1795.829699746932
 10
1465.099915383428
 20
1795.346170766931
 10
1461.6997431266
 20
1794.89825836094
 10
1458.237911271869
 20
1794.486470865153
 10
1454.719437311115
 20
1794.111292589349
 10
1451.149468083189
 20
1793.773177642017
 10
1447.533265607651
 20
1793.472544896098
 10
1443.876193492753
 20
1793.209773878974
 10
1440.183703803614
 20
1792.985201422064
 10
1436.46132429649
 20
1792.799118944577
 10
1432.714645941253
 20
1792.651770275951
 10
1428.949310667291
 20
1792.543349944753
 10
1428.523652764307
 20
1792.533570035285
  0
LINE
  5
336
330
2C4
100
AcDbEntity
  8
P-SANR-FIXT
100
AcDbLine
 10
1320.363156828904
 20
1843.83524380356
 30
0.0
 11
1320.363156828904
 21
1834.36990607918
 31
0.0
  0
LINE
  5
337
330
2C4
100
AcDbEntity
  8
P-SANR-FIXT
100
AcDbLine
 10
1520.363156828904
 20
1834.369906079178
 30
0.0
 11
1520.363156828904
 21
1843.835243803558
 31
0.0
  0
LWPOLYLINE
  5
338
330
2C4
100
AcDbEntity
  8
P-SANR-FIXT
100
AcDbPolyline
 90
        8
 70
   128
 43
0.0
 10
1355.711670077674
 20
1870.44198632587
 10
1357.848667762264
 20
1871.398455089428
 10
1359.984459569308
 20
1872.271751263027
 10
1362.127258604766
 20
1873.074884253975
 10
1364.283937274683
 20
1873.817783028008
 10
1366.4600958601
 20
1874.508051815359
 10
1368.660178086724
 20
1875.151533501965
 10
1370.222930783093
 20
1875.578337850388
  0
LWPOLYLINE
  5
339
330
2C4
100
AcDbEntity
  8
P-SANR-FIXT
100
AcDbPolyline
 90
        8
 70
   128
 43
0.0
 10
1485.014643580135
 20
1870.441986325868
 10
1482.877645895545
 20
1871.398455089426
 10
1480.741854088501
 20
1872.271751263026
 10
1478.599055053043
 20
1873.074884253973
 10
1476.442376383125
 20
1873.817783028007
 10
1474.266217797709
 20
1874.508051815358
 10
1472.066135571085
 20
1875.151533501964
 10
1470.503382874716
 20
1875.578337850387
  0
LWPOLYLINE
  5
33A
330
2C4
100
AcDbEntity
  8
P-SANR-FIXT
100
AcDbPolyline
 90
        7
 70
   128
 43
0.0
 10
1342.823100497932
 20
1862.506398864233
 10
1344.170587149788
 20
1863.755643398131
 10
1345.586078181644
 20
1864.890408971853
 10
1347.066204944358
 20
1865.932349241844
 10
1348.611060957662
 20
1866.898566690135
 10
1350.222302638234
 20
1867.802144964291
 10
1351.902050852379
 20
1868.652906707986
  0
LWPOLYLINE
  5
33B
330
2C4
100
AcDbEntity
  8
P-SANR-FIXT
100
AcDbPolyline
 90
        7
 70
   128
 43
0.0
 10
1497.903213159877
 20
1862.506398864232
 10
1496.55572650802
 20
1863.755643398129
 10
1495.140235476164
 20
1864.890408971851
 10
1493.66010871345
 20
1865.932349241842
 10
1492.115252700146
 20
1866.898566690133
 10
1490.504011019575
 20
1867.802144964289
 10
1488.82426280543
 20
1868.652906707985
  0
LWPOLYLINE
  5
33C
330
2C4
100
AcDbEntity
  8
P-SANR-FIXT
100
AcDbPolyline
 90
        7
 70
   128
 43
0.0
 10
1390.363156828908
 20
2102.703365249031
 10
1390.332427580566
 20
2102.301543003088
 10
1390.251211373605
 20
2101.947849259861
 10
1390.147130799254
 20
2101.676288755863
 10
1390.05300872332
 20
2101.501090863561
 10
1389.9971998012
 20
2101.420031979198
 10
1389.990157575207
 20
2101.411320762926
  0
LWPOLYLINE
  5
33D
330
2C4
100
AcDbEntity
  8
P-SANR-FIXT
100
AcDbPolyline
 90
        7
 70
   128
 43
0.0
 10
1450.363156828907
 20
2102.70336524903
 10
1450.393886077249
 20
2102.301543003088
 10
1450.47510228421
 20
2101.947849259861
 10
1450.57918285856
 20
2101.676288755862
 10
1450.673304934494
 20
2101.501090863561
 10
1450.729113856614
 20
2101.420031979198
 10
1450.736156082607
 20
2101.411320762924
  0
LINE
  5
33E
330
2C4
100
AcDbEntity
  8
P-SANR-FIXT
100
AcDbLine
 10
1414.060401889419
 20
1660.975323155624
 30
0.0
 11
1414.060401889419
 21
1660.323079400883
 31
0.0
  0
LINE
  5
33F
330
2C4
100
AcDbEntity
  8
P-SANR-FIXT
100
AcDbLine
 10
1426.665911768385
 20
1660.323079400883
 30
0.0
 11
1426.665911768385
 21
1661.003282918077
 31
0.0
  0
LINE
  5
340
330
2C4
100
AcDbEntity
  8
P-SANR-FIXT
100
AcDbLine
 10
1414.363156828898
 20
1745.027819437558
 30
0.0
 11
1414.363156828898
 21
1736.334487000956
 31
0.0
  0
LINE
  5
341
330
2C4
100
AcDbEntity
  8
P-SANR-FIXT
100
AcDbLine
 10
1426.363156828896
 20
1736.334487000956
 30
0.0
 11
1426.363156828896
 21
1745.027819437558
 31
0.0
  0
LINE
  5
342
330
2C4
100
AcDbEntity
  8
P-SANR-FIXT
100
AcDbLine
 10
1415.363156828898
 20
1746.63303996898
 30
0.0
 11
1415.363156828898
 21
1745.027819437558
 31
0.0
  0
LINE
  5
343
330
2C4
100
AcDbEntity
  8
P-SANR-FIXT
100
AcDbLine
 10
1425.363156828897
 20
1745.027819437558
 30
0.0
 11
1425.363156828897
 21
1746.63303996898
 31
0.0
  0
LINE
  5
344
330
2C4
100
AcDbEntity
  8
P-SANR-FIXT
100
AcDbLine
 10
1411.863156828898
 20
1752.75522604787
 30
0.0
 11
1411.863156828898
 21
1748.408559829569
 31
0.0
  0
LINE
  5
345
330
2C4
100
AcDbEntity
  8
P-SANR-FIXT
100
AcDbLine
 10
1428.863156828897
 20
1748.408559829569
 30
0.0
 11
1428.863156828897
 21
1752.75522604787
 31
0.0
  0
LINE
  5
346
330
2C4
100
AcDbEntity
  8
P-SANR-FIXT
100
AcDbLine
 10
1410.363156828898
 20
1757.469075022099
 30
0.0
 11
1410.363156828898
 21
1754.204114787304
 31
0.0
  0
LINE
  5
347
330
2C4
100
AcDbEntity
  8
P-SANR-FIXT
100
AcDbLine
 10
1430.363156828896
 20
1754.204114787304
 30
0.0
 11
1430.363156828896
 21
1757.469075022099
 31
0.0
  0
LINE
  5
348
330
2C4
100
AcDbEntity
  8
P-SANR-FIXT
100
AcDbLine
 10
1406.363156828896
 20
1846.932994111055
 30
0.0
 11
1406.363156828896
 21
1840.48387835296
 31
0.0
  0
LINE
  5
349
330
2C4
100
AcDbEntity
  8
P-SANR-FIXT
100
AcDbLine
 10
1406.363156828897
 20
1779.071650715428
 30
0.0
 11
1406.363156828897
 21
1759.999669745038
 31
0.0
  0
LINE
  5
34A
330
2C4
100
AcDbEntity
  8
P-SANR-FIXT
100
AcDbLine
 10
1434.363156828897
 20
1759.999669745038
 30
0.0
 11
1434.363156828897
 21
1779.071650715426
 31
0.0
  0
LINE
  5
34B
330
2C4
100
AcDbEntity
  8
P-SANR-FIXT
100
AcDbLine
 10
1434.363156828897
 20
1840.483878352961
 30
0.0
 11
1434.363156828897
 21
1846.932994111055
 31
0.0
  0
LINE
  5
34C
330
2C4
100
AcDbEntity
  8
P-SANR-FIXT
100
AcDbLine
 10
1412.363156828897
 20
1852.728549068789
 30
0.0
 11
1412.363156828896
 21
1846.932994111055
 31
0.0
  0
LINE
  5
34D
330
2C4
100
AcDbEntity
  8
P-SANR-FIXT
100
AcDbLine
 10
1428.363156828897
 20
1846.932994111055
 30
0.0
 11
1428.363156828897
 21
1852.728549068789
 31
0.0
  0
ELLIPSE
  5
34E
330
2C4
100
AcDbEntity
  8
P-SANR-FIXT
100
AcDbEllipse
 10
1420.363156828905
 20
2107.532994380475
 30
0.0
 11
-30.0
 21
0.0000000000004215
 31
0.0
210
0.0
220
0.0
230
1.0
 40
0.2588190451025184
 41
4.942495820381094
 42
7.85398163397448
  0
ARC
  5
34F
330
2C4
100
AcDbEntity
  8
P-SANR-FIXT
100
AcDbCircle
 10
1420.363156828902
 20
1970.998183850013
 30
0.0
 40
59.99999999997056
100
AcDbArc
 50
89.99999999999902
 51
269.9999999999984
  0
ARC
  5
350
330
2C4
100
AcDbEntity
  8
P-SANR-FIXT
100
AcDbCircle
 10
1420.363156828894
 20
1970.998183850011
 30
0.0
 40
31.75000000000011
100
AcDbArc
 50
89.99999999998461
 51
270.000000000013
  0
ARC
  5
351
330
2C4
100
AcDbEntity
  8
P-SANR-FIXT
100
AcDbCircle
 10
1420.363156828902
 20
1970.998183850013
 30
0.0
 40
59.99999999997077
100
AcDbArc
 50
269.9999999999987
 51
89.99999999999904
  0
ARC
  5
352
330
2C4
100
AcDbEntity
  8
P-SANR-FIXT
100
AcDbCircle
 10
1420.363156828894
 20
1970.998183850011
 30
0.0
 40
31.74999999999973
100
AcDbArc
 50
270.0000000000138
 51
89.99999999998378
  0
ARC
  5
353
330
2C4
100
AcDbEntity
  8
P-SANR-FIXT
100
AcDbCircle
 10
1420.363156828902
 20
1970.998183850013
 30
0.0
 40
92.50000000000364
100
AcDbArc
 50
89.99999999999916
 51
269.9999999999987
  0
ARC
  5
354
330
2C4
100
AcDbEntity
  8
P-SANR-FIXT
100
AcDbCircle
 10
1420.363156828902
 20
1970.998183850013
 30
0.0
 40
92.50000000000364
100
AcDbArc
 50
269.9999999999987
 51
89.99999999999888
  0
ELLIPSE
  5
355
330
2C4
100
AcDbEntity
  8
P-SANR-FIXT
100
AcDbEllipse
 10
1420.363156828905
 20
2107.532994380475
 30
0.0
 11
29.9999999999998
 21
0.0
 31
0.0
210
0.0
220
0.0
230
1.0
 40
0.2588190451025136
 41
4.712388980384683
 42
7.623874793978774
  0
ELLIPSE
  5
356
330
2C4
100
AcDbEntity
  8
P-SANR-FIXT
100
AcDbEllipse
 10
1420.363156828905
 20
2097.873736117584
 30
0.0
 11
41.99999999999977
 21
0.0
 31
0.0
210
0.0
220
0.0
230
1.0
 40
0.2588190451025191
 41
2.366824027847254
 42
4.712388980384667
  0
ELLIPSE
  5
357
330
2C4
100
AcDbEntity
  8
P-SANR-FIXT
100
AcDbEllipse
 10
1420.363156828905
 20
2097.873736117584
 30
0.0
 11
-42.00000000000023
 21
0.000000000000357
 31
0.0
210
0.0
220
0.0
230
1.0
 40
0.2588190451025235
 41
1.570796326794889
 42
3.916361279332287
  0
ELLIPSE
  5
358
330
2C4
100
AcDbEntity
  8
P-SANR-FIXT
100
AcDbEllipse
 10
1420.363156828905
 20
2094.975958638717
 30
0.0
 11
-42.0
 21
0.000000000000357
 31
0.0
210
0.0
220
0.0
230
1.0
 40
0.2588190451025141
 41
0.0
 42
1.451352584956994
  0
ELLIPSE
  5
359
330
2C4
100
AcDbEntity
  8
P-SANR-FIXT
100
AcDbEllipse
 10
1420.363156828905
 20
2094.975958638717
 30
0.0
 11
41.99999999999994
 21
0.0
 31
0.0
210
0.0
220
0.0
230
1.0
 40
0.2588190451025095
 41
4.83200689163219
 42
6.283185307179538
  0
LINE
  5
35A
330
2C4
100
AcDbEntity
  8
P-SANR-FIXT
100
AcDbLine
 10
1378.361333255626
 20
2097.905269075463
 30
0.0
 11
1378.345383385331
 21
2097.889906106406
 31
0.0
  0
ELLIPSE
  5
35B
330
2C4
100
AcDbEntity
  8
P-SANR-FIXT
100
AcDbEllipse
 10
1420.363156828905
 20
2094.975958638717
 30
0.0
 11
43.50000000000014
 21
0.0
 31
0.0
210
0.0
220
0.0
230
1.0
 40
0.2588190451025119
 41
2.881264834462699
 42
4.597087065638535
  0
ELLIPSE
  5
35C
330
2C4
100
AcDbEntity
  8
P-SANR-FIXT
100
AcDbEllipse
 10
1420.363156828905
 20
2094.975958638717
 30
0.0
 11
43.49999999999992
 21
0.0
 31
0.0
210
0.0
220
0.0
230
1.0
 40
0.2588190451025149
 41
4.827859058698723
 42
6.543513126306597
  0
LINE
  5
35D
330
2C4
100
AcDbEntity
  8
P-SANR-FIXT
100
AcDbLine
 10
1462.380930272479
 20
2097.889906106405
 30
0.0
 11
1462.364980402184
 21
2097.905269075462
 31
0.0
  0
ELLIPSE
  5
35E
330
2C4
100
AcDbEntity
  8
P-SANR-FIXT
100
AcDbEllipse
 10
1420.363156828905
 20
2092.949688627257
 30
0.0
 11
46.00000000000012
 21
0.0
 31
0.0
210
0.0
220
0.0
230
1.0
 40
0.2588190451025114
 41
2.792526803190865
 42
4.625122517784953
  0
ELLIPSE
  5
35F
330
2C4
100
AcDbEntity
  8
P-SANR-FIXT
100
AcDbEllipse
 10
1420.363156828905
 20
2092.949688627257
 30
0.0
 11
45.99999999999986
 21
0.0
 31
0.0
210
0.0
220
0.0
230
1.0
 40
0.2588190451025199
 41
4.799655442984386
 42
6.632251157578393
  0
ELLIPSE
  5
360
330
2C4
100
AcDbEntity
  8
P-SANR-FIXT
100
AcDbEllipse
 10
1420.363156828905
 20
2081.45299707067
 30
0.0
 11
-46.00000000000022
 21
0.000000000000299
 31
0.0
210
0.0
220
0.0
230
1.0
 40
0.2588190451025251
 41
0.0
 42
1.406963003299865
  0
ELLIPSE
  5
361
330
2C4
100
AcDbEntity
  8
P-SANR-FIXT
100
AcDbEllipse
 10
1420.363156828905
 20
2081.45299707067
 30
0.0
 11
45.99999999999993
 21
0.0
 31
0.0
210
0.0
220
0.0
230
1.0
 40
0.2588190451025181
 41
4.876222303879238
 42
6.283185307179503
  0
ELLIPSE
  5
362
330
2C4
100
AcDbEntity
  8
P-SANR-FIXT
100
AcDbEllipse
 10
1382.059164901743
 20
2090.659409611689
 30
0.0
 11
19.99999999999984
 21
0.0
 31
0.0
210
0.0
220
0.0
230
1.0
 40
0.2588190451025338
 41
1.904012620756357
 42
3.10668606854986
  0
LINE
  5
363
330
2C4
100
AcDbEntity
  8
P-SANR-FIXT
100
AcDbLine
 10
1362.071348361361
 20
2090.840062699911
 30
0.0
 11
1358.898236328561
 21
2081.45299707067
 31
0.0
  0
LINE
  5
364
330
2C4
100
AcDbEntity
  8
P-SANR-FIXT
100
AcDbLine
 10
1358.898236328561
 20
2081.45299707067
 30
0.0
 11
1362.07134836136
 21
2072.06593144143
 31
0.0
  0
ELLIPSE
  5
365
330
2C4
100
AcDbEntity
  8
P-SANR-FIXT
100
AcDbEllipse
 10
1382.059164901743
 20
2072.246584529651
 30
0.0
 11
20.00000000000011
 21
0.0
 31
0.0
210
0.0
220
0.0
230
1.0
 40
0.2588190451025232
 41
3.176499238629632
 42
4.625804496199884
  0
LINE
  5
366
330
2C4
100
AcDbEntity
  8
P-SANR-FIXT
100
AcDbLine
 10
1380.329638116716
 20
2067.089594843458
 30
0.0
 11
1412.863156828894
 21
2066.358700622203
 31
0.0
  0
LINE
  5
367
330
2C4
100
AcDbEntity
  8
P-SANR-FIXT
100
AcDbLine
 10
1427.863156828894
 20
2066.360034493191
 30
0.0
 11
1459.365138690097
 21
2067.073356938984
 31
0.0
  0
ELLIPSE
  5
368
330
2C4
100
AcDbEntity
  8
P-SANR-FIXT
100
AcDbEllipse
 10
1458.667148756047
 20
2072.246584529651
 30
0.0
 11
20.0000000000001
 21
0.0
 31
0.0
210
0.0
220
0.0
230
0.9999999999999998
 40
0.2588190451025233
 41
4.747295565424553
 42
6.248278722139646
  0
LINE
  5
369
330
2C4
100
AcDbEntity
  8
P-SANR-FIXT
100
AcDbLine
 10
1478.654965296429
 20
2072.065931441428
 30
0.0
 11
1481.828077329228
 21
2081.452997070669
 31
0.0
  0
LINE
  5
36A
330
2C4
100
AcDbEntity
  8
P-SANR-FIXT
100
AcDbLine
 10
1481.828077329228
 20
2081.452997070669
 30
0.0
 11
1477.87838804465
 21
2091.179101889398
 31
0.0
  0
ELLIPSE
  5
36B
330
2C4
100
AcDbEntity
  8
P-SANR-FIXT
100
AcDbEllipse
 10
1453.832916156821
 20
2089.408218146554
 30
0.0
 11
24.99999999999968
 21
0.0
 31
0.0
210
0.0
220
0.0
230
0.9999999999999998
 40
0.2588190451025004
 41
0.2772240806173064
 42
1.08109263411127
  0
ELLIPSE
  5
36C
330
2C4
100
AcDbEntity
  8
P-SANR-FIXT
100
AcDbEllipse
 10
1420.363156828902
 20
1875.913439019097
 30
0.0
 11
-35.00000000000023
 21
0.0000000000005384
 31
0.0
210
0.0
220
0.0
230
1.0
 40
0.2588190451025103
 41
0.0
 42
1.570796326794882
  0
ELLIPSE
  5
36D
330
2C4
100
AcDbEntity
  8
P-SANR-FIXT
100
AcDbEllipse
 10
1420.363156828902
 20
1875.913439019097
 30
0.0
 11
-35.0
 21
0.0000000000004218
 31
0.0
210
0.0
220
0.0
230
1.0
 40
0.2588190451025119
 41
1.570796326794894
 42
3.141592653589785
  0
SPLINE
  5
36E
330
2C4
100
AcDbEntity
  8
P-SANR-FIXT
100
AcDbSpline
210
0.0
220
0.0
230
1.0
 70
     8
 71
     3
 72
     8
 73
     4
 74
     0
 42
0.000000001
 43
0.0000000001
 40
-1.0
 40
-1.0
 40
-1.0
 40
-1.0
 40
-0.5
 40
-0.5
 40
-0.5
 40
-0.5
 10
1406.428752307487
 20
1839.426393868235
 30
0.0
 10
1406.367032078569
 20
1839.921464297883
 30
0.0
 10
1406.348971416267
 20
1840.41976864479
 30
0.0
 10
1406.374154649425
 20
1840.919767290665
 30
0.0
  0
SPLINE
  5
36F
330
2C4
100
AcDbEntity
  8
P-SANR-FIXT
100
AcDbSpline
210
0.0
220
0.0
230
1.0
 70
     8
 71
     3
 72
     8
 73
     4
 74
     0
 42
0.000000001
 43
0.0000000001
 40
-0.5
 40
-0.5
 40
-0.5
 40
-0.5
 40
0.0
 40
0.0
 40
0.0
 40
0.0
 10
1434.352159008365
 20
1840.919767290663
 30
0.0
 10
1434.377342241523
 20
1840.419768644789
 30
0.0
 10
1434.35928157922
 20
1839.921464297882
 30
0.0
 10
1434.297561350302
 20
1839.426393868233
 30
0.0
  0
SPLINE
  5
370
330
2C4
100
AcDbEntity
  8
P-SANR-FIXT
100
AcDbSpline
210
0.0
220
0.0
230
1.0
 70
     8
 71
     3
 72
     9
 73
     5
 74
     0
 42
0.000000001
 43
0.0000000001
 40
-1.0
 40
-1.0
 40
-1.0
 40
-1.0
 40
-0.5
 40
0.0
 40
0.0
 40
0.0
 40
0.0
 10
1407.159147176134
 20
1836.027915472959
 30
0.0
 10
1407.117689048654
 20
1836.171580741422
 30
0.0
 10
1407.038165610644
 20
1836.459773971684
 30
0.0
 10
1406.96537105992
 20
1836.749639389327
 30
0.0
 10
1406.93064039824
 20
1836.894977156761
 30
0.0
  0
SPLINE
  5
371
330
2C4
100
AcDbEntity
  8
P-SANR-FIXT
100
AcDbSpline
210
0.0
220
0.0
230
1.0
 70
     8
 71
     3
 72
     9
 73
     5
 74
     0
 42
0.000000001
 43
0.0000000001
 40
-1.0
 40
-1.0
 40
-1.0
 40
-1.0
 40
-0.5
 40
0.0
 40
0.0
 40
0.0
 40
0.0
 10
1433.795673259548
 20
1836.894977156761
 30
0.0
 10
1433.760942597869
 20
1836.749639389326
 30
0.0
 10
1433.688148047145
 20
1836.459773971684
 30
0.0
 10
1433.608624609134
 20
1836.171580741421
 30
0.0
 10
1433.567166481654
 20
1836.027915472958
 30
0.0
  0
SPLINE
  5
372
330
2C4
100
AcDbEntity
  8
P-SANR-FIXT
100
AcDbSpline
210
0.0
220
0.0
230
1.0
 70
     8
 71
     3
 72
     9
 73
     5
 74
     0
 42
0.000000001
 43
0.0000000001
 40
-1.0
 40
-1.0
 40
-1.0
 40
-1.0
 40
-0.5
 40
0.0
 40
0.0
 40
0.0
 40
0.0
 10
1420.363156828901
 20
1829.708603958346
 30
0.0
 10
1418.064362636183
 20
1829.711239639569
 30
0.0
 10
1413.490382948862
 20
1830.371977740438
 30
0.0
 10
1410.070458522463
 20
1832.154354087964
 30
0.0
 10
1408.822187273838
 20
1833.237079614811
 30
0.0
  0
SPLINE
  5
373
330
2C4
100
AcDbEntity
  8
P-SANR-FIXT
100
AcDbSpline
210
0.0
220
0.0
230
1.0
 70
     8
 71
     3
 72
     9
 73
     5
 74
     0
 42
0.000000001
 43
0.0000000001
 40
-1.0
 40
-1.0
 40
-1.0
 40
-1.0
 40
-0.5
 40
0.0
 40
0.0
 40
0.0
 40
0.0
 10
1431.90412638395
 20
1833.23707961481
 30
0.0
 10
1430.655855135325
 20
1832.154354087965
 30
0.0
 10
1427.235930708931
 20
1830.37197774044
 30
0.0
 10
1422.661951021617
 20
1829.711239639571
 30
0.0
 10
1420.363156828901
 20
1829.708603958346
 30
0.0
  0
ELLIPSE
  5
374
330
2C4
100
AcDbEntity
  8
P-SANR-FIXT
100
AcDbEllipse
 10
1420.363156828902
 20
1848.664872935004
 30
0.0
 11
100.0000000000001
 21
0.0
 31
0.0
210
0.0
220
0.0
230
1.0
 40
0.2588190451025178
 41
2.379151609224829
 42
4.71238898038467
  0
ELLIPSE
  5
375
330
2C4
100
AcDbEntity
  8
P-SANR-FIXT
100
AcDbEllipse
 10
1420.363156828902
 20
1848.664872935004
 30
0.0
 11
-100.0
 21
0.0000000000012052
 31
0.0
210
0.0
220
0.0
230
1.0
 40
0.2588190451025184
 41
1.570796326794892
 42
3.904033697990473
  0
ELLIPSE
  5
376
330
2C4
100
AcDbEntity
  8
P-SANR-FIXT
100
AcDbEllipse
 10
1420.363156828902
 20
1833.540390471072
 30
0.0
 11
-99.99999999999955
 21
0.0000000000012718
 31
0.0
210
0.0
220
0.0
230
1.0
 40
0.2588190451025196
 41
6.267139938537512
 42
7.853981633974481
  0
ELLIPSE
  5
377
330
2C4
100
AcDbEntity
  8
P-SANR-FIXT
100
AcDbEllipse
 10
1420.363156828902
 20
1833.540390471072
 30
0.0
 11
100.0000000000002
 21
0.0
 31
0.0
210
0.0
220
0.0
230
1.0
 40
0.2588190451025172
 41
4.712388980384683
 42
6.299230675821624
  0
SPLINE
  5
378
330
2C4
100
AcDbEntity
  8
P-SANR-FIXT
100
AcDbSpline
210
0.0
220
0.0
230
1.0
 70
     8
 71
     3
 72
    28
 73
    24
 74
     0
 42
0.000000001
 43
0.0000000001
 40
-0.776502991160855
 40
-0.776502991160855
 40
-0.776502991160855
 40
-0.776502991160855
 40
-0.75
 40
-0.6875
 40
-0.625
 40
-0.5625
 40
-0.53125
 40
-0.5
 40
-0.46875
 40
-0.4375
 40
-0.40625
 40
-0.375
 40
-0.34375
 40
-0.3125
 40
-0.28125
 40
-0.25
 40
-0.21875
 40
-0.1875
 40
-0.15625
 40
-0.125
 40
-0.09375
 40
-0.0625
 40
0.0
 40
0.0
 40
0.0
 40
0.0
 10
1406.362962154433
 20
1779.069889553605
 30
0.0
 10
1406.363054281462
 20
1779.247198444737
 30
0.0
 10
1406.378182933572
 20
1779.840993975589
 30
0.0
 10
1406.489207823022
 20
1780.840342130781
 30
0.0
 10
1406.782599860963
 20
1782.051186909878
 30
0.0
 10
1407.164355305505
 20
1783.03514758434
 30
0.0
 10
1407.555478831947
 20
1783.807472419525
 30
0.0
 10
1407.895846667093
 20
1784.36837325438
 30
0.0
 10
1408.283089903787
 20
1784.919336521614
 30
0.0
 10
1408.716594977112
 20
1785.463971428283
 30
0.0
 10
1409.200056367049
 20
1785.992596788523
 30
0.0
 10
1409.738203617074
 20
1786.493189619963
 30
0.0
 10
1410.330872936268
 20
1786.977681238862
 30
0.0
 10
1410.976103690386
 20
1787.452033635017
 30
0.0
 10
1411.677893184886
 20
1787.900248615003
 30
0.0
 10
1412.438802943407
 20
1788.303849067167
 30
0.0
 10
1413.261856851564
 20
1788.677767111655
 30
0.0
 10
1414.143136783836
 20
1789.032769300674
 30
0.0
 10
1415.077653159041
 20
1789.345968494485
 30
0.0
 10
1416.058198736934
 20
1789.59825485275
 30
0.0
 10
1417.080170622289
 20
1789.787715864946
 30
0.0
 10
1418.49568539144
 20
1789.979730416515
 30
0.0
 10
1419.607864237474
 20
1790.051968689028
 30
0.0
 10
1420.363156828901
 20
1790.070759817631
 30
0.0
  0
SPLINE
  5
379
330
2C4
100
AcDbEntity
  8
P-SANR-FIXT
100
AcDbSpline
210
0.0
220
0.0
230
1.0
 70
     8
 71
     3
 72
    29
 73
    25
 74
     0
 42
0.000000001
 43
0.0000000001
 40
-1.0
 40
-1.0
 40
-1.0
 40
-1.0
 40
-0.9375
 40
-0.90625
 40
-0.875
 40
-0.84375
 40
-0.8125
 40
-0.78125
 40
-0.75
 40
-0.734375
 40
-0.71875
 40
-0.6875
 40
-0.65625
 40
-0.625
 40
-0.59375
 40
-0.5625
 40
-0.53125
 40
-0.5
 40
-0.46875
 40
-0.4375
 40
-0.375
 40
-0.3125
 40
-0.25
 40
-0.2234970088391328
 40
-0.2234970088391328
 40
-0.2234970088391328
 40
-0.2234970088391328
 10
1420.363156828901
 20
1790.070759817631
 30
0.0
 10
1421.118449420327
 20
1790.051968689027
 30
0.0
 10
1422.230628265223
 20
1789.979729426818
 30
0.0
 10
1423.646143037404
 20
1789.787717514436
 30
0.0
 10
1424.668114913669
 20
1789.598248584674
 30
0.0
 10
1425.648660525649
 20
1789.345991917278
 30
0.0
 10
1426.583176773593
 20
1789.032681877553
 30
0.0
 10
1427.464457180815
 20
1788.678093381322
 30
0.0
 10
1428.150333960491
 20
1788.36520840655
 30
0.0
 10
1428.667967503301
 20
1788.103712189595
 30
0.0
 10
1429.16538428612
 20
1787.824585783622
 30
0.0
 10
1429.750210341991
 20
1787.452359904853
 30
0.0
 10
1430.395440621156
 20
1786.977593815117
 30
0.0
 10
1430.988110067613
 20
1786.493213045078
 30
0.0
 10
1431.526257283537
 20
1785.99259051178
 30
0.0
 10
1432.009718682611
 20
1785.463973110111
 30
0.0
 10
1432.443223753487
 20
1784.919336071015
 30
0.0
 10
1432.830466990837
 20
1784.36837337492
 30
0.0
 10
1433.170834825808
 20
1783.80747238794
 30
0.0
 10
1433.561958352306
 20
1783.035147602568
 30
0.0
 10
1433.94371379682
 20
1782.05118690369
 30
0.0
 10
1434.237105834769
 20
1780.840342132397
 30
0.0
 10
1434.348130724218
 20
1779.840993975655
 30
0.0
 10
1434.363259376327
 20
1779.247198444498
 30
0.0
 10
1434.363351503357
 20
1779.069889553315
 30
0.0
  0
ELLIPSE
  5
37A
330
2C4
100
AcDbEntity
  8
P-SANR-FIXT
100
AcDbEllipse
 10
1420.3631568289
 20
1697.98044403391
 30
0.0
 11
-41.5
 21
0.000000000000666
 31
0.0
210
0.0
220
0.0
230
1.0
 40
0.2588190451025151
 41
0.0000000000000002
 42
1.570796326794896
  0
ELLIPSE
  5
37B
330
2C4
100
AcDbEntity
  8
P-SANR-FIXT
100
AcDbEllipse
 10
1420.3631568289
 20
1697.98044403391
 30
0.0
 11
-41.50000000000045
 21
0.0000000000004909
 31
0.0
210
0.0
220
0.0
230
1.0
 40
0.2588190451025123
 41
1.570796326794894
 42
3.141592653589791
  0
ELLIPSE
  5
37C
330
2C4
100
AcDbEntity
  8
P-SANR-FIXT
100
AcDbEllipse
 10
1420.363156828901
 20
1792.641175010238
 30
0.0
 11
71.22250922056801
 21
0.0
 31
0.0
210
0.0
220
0.0
230
1.0
 40
0.2588190451025207
 41
3.326444929051887
 42
4.51446401664273
  0
ELLIPSE
  5
37D
330
2C4
100
AcDbEntity
  8
P-SANR-FIXT
100
AcDbEllipse
 10
1420.363156828901
 20
1792.641175010238
 30
0.0
 11
71.22250922056851
 21
0.0
 31
0.0
210
0.0
220
0.0
230
1.0
 40
0.2588190451025161
 41
4.910313944126439
 42
6.098333031717253
  0
ELLIPSE
  5
37E
330
2C4
100
AcDbEntity
  8
P-SANR-FIXT
100
AcDbEllipse
 10
1420.3631568289
 20
1710.537479775667
 30
0.0
 11
42.51326735979215
 21
0.0
 31
0.0
210
0.0
220
0.0
230
0.9999999999999998
 40
0.2588190451025231
 41
3.228859116189444
 42
4.712388980384672
  0
ELLIPSE
  5
37F
330
2C4
100
AcDbEntity
  8
P-SANR-FIXT
100
AcDbEllipse
 10
1420.3631568289
 20
1710.537479775667
 30
0.0
 11
-42.51326735979228
 21
0.0000000000006634
 31
0.0
210
0.0
220
0.0
230
1.0
 40
0.2588190451025183
 41
1.570796326794896
 42
3.054326190990086
  0
ELLIPSE
  5
380
330
2C4
100
AcDbEntity
  8
P-SANR-FIXT
100
AcDbEllipse
 10
1420.3631568289
 20
1710.537479775667
 30
0.0
 11
43.50000000000033
 21
0.0
 31
0.0
210
0.0
220
0.0
230
1.0
 40
0.2588190451025181
 41
3.022858388140573
 42
4.712388980384672
  0
ELLIPSE
  5
381
330
2C4
100
AcDbEntity
  8
P-SANR-FIXT
100
AcDbEllipse
 10
1420.3631568289
 20
1710.537479775667
 30
0.0
 11
-43.50000000000045
 21
0.0000000000006691
 31
0.0
210
0.0
220
0.0
230
1.0
 40
0.2588190451025136
 41
1.570796326794896
 42
3.260662250359549
  0
ELLIPSE
  5
382
330
2C4
100
AcDbEntity
  8
P-SANR-FIXT
100
AcDbEllipse
 10
1420.3631568289
 20
1708.605628123089
 30
0.0
 11
-43.50000000000021
 21
0.00000000000036
 31
0.0
210
0.0
220
0.0
230
0.9999999999999998
 40
0.2588190451025202
 41
0.0
 42
1.57079632679489
  0
ELLIPSE
  5
383
330
2C4
100
AcDbEntity
  8
P-SANR-FIXT
100
AcDbEllipse
 10
1420.3631568289
 20
1708.605628123089
 30
0.0
 11
-43.50000000000045
 21
0.0000000000009106
 31
0.0
210
0.0
220
0.0
230
1.0
 40
0.2588190451025189
 41
1.570796326794892
 42
3.141592653589788
  0
LINE
  5
384
330
2C4
100
AcDbEntity
  8
P-SANR-FIXT
100
AcDbLine
 10
1389.70791051227
 20
1979.339709912123
 30
0.0
 11
1389.734948133924
 21
1979.365717126075
 31
0.0
  0
LINE
  5
385
330
2C4
100
AcDbEntity
  8
P-SANR-FIXT
100
AcDbLine
 10
1450.991365523863
 20
1979.36571712608
 30
0.0
 11
1451.018403145517
 21
1979.339709912128
 31
0.0
  0
ELLIPSE
  5
386
330
2C4
100
AcDbEntity
  8
P-SANR-FIXT
100
AcDbEllipse
 10
1420.363156828902
 20
1834.369906079179
 30
0.0
 11
-99.99999999999955
 21
0.0000000000012052
 31
0.0
210
0.0
220
0.0
230
1.0
 40
0.2588190451025242
 41
0.0
 42
1.570796326794887
  0
ELLIPSE
  5
387
330
2C4
100
AcDbEntity
  8
P-SANR-FIXT
100
AcDbEllipse
 10
1420.363156828902
 20
1834.369906079179
 30
0.0
 11
-100.0000000000004
 21
0.0000000000017603
 31
0.0
210
0.0
220
0.0
230
1.0
 40
0.2588190451025218
 41
1.570796326794895
 42
3.141592653589786
  0
SPLINE
  5
388
330
2C4
100
AcDbEntity
  8
P-SANR-FIXT
100
AcDbSpline
210
0.0
220
0.0
230
1.0
 70
     8
 71
     3
 72
     9
 73
     5
 74
     0
 42
0.000000001
 43
0.0000000001
 40
-1.0
 40
-1.0
 40
-1.0
 40
-1.0
 40
-0.5
 40
0.0
 40
0.0
 40
0.0
 40
0.0
 10
1406.93064039824
 20
1836.894977156761
 30
0.0
 10
1406.818687273472
 20
1837.363237101697
 30
0.0
 10
1406.61486610946
 20
1838.253524956136
 30
0.0
 10
1406.475558451933
 20
1839.051110365923
 30
0.0
 10
1406.428752307487
 20
1839.426393868235
 30
0.0
  0
SPLINE
  5
389
330
2C4
100
AcDbEntity
  8
P-SANR-FIXT
100
AcDbSpline
210
0.0
220
0.0
230
1.0
 70
     8
 71
     3
 72
     9
 73
     5
 74
     0
 42
0.000000001
 43
0.0000000001
 40
-1.0
 40
-1.0
 40
-1.0
 40
-1.0
 40
-0.5
 40
0.0
 40
0.0
 40
0.0
 40
0.0
 10
1434.297561350302
 20
1839.426393868233
 30
0.0
 10
1434.250755205856
 20
1839.051110365922
 30
0.0
 10
1434.111447548329
 20
1838.253524956135
 30
0.0
 10
1433.907626384317
 20
1837.363237101697
 30
0.0
 10
1433.795673259548
 20
1836.894977156761
 30
0.0
  0
SPLINE
  5
38A
330
2C4
100
AcDbEntity
  8
P-SANR-FIXT
100
AcDbSpline
210
0.0
220
0.0
230
1.0
 70
     8
 71
     3
 72
     9
 73
     5
 74
     0
 42
0.000000001
 43
0.0000000001
 40
-1.0
 40
-1.0
 40
-1.0
 40
-1.0
 40
-0.5
 40
0.0
 40
0.0
 40
0.0
 40
0.0
 10
1408.822187273838
 20
1833.237079614811
 30
0.0
 10
1408.427126828803
 20
1833.568408653076
 30
0.0
 10
1407.771155755651
 20
1834.36969838791
 30
0.0
 10
1407.334973356705
 20
1835.433190101236
 30
0.0
 10
1407.159147176134
 20
1836.027915472959
 30
0.0
  0
SPLINE
  5
38B
330
2C4
100
AcDbEntity
  8
P-SANR-FIXT
100
AcDbSpline
210
0.0
220
0.0
230
1.0
 70
     8
 71
     3
 72
     9
 73
     5
 74
     0
 42
0.000000001
 43
0.0000000001
 40
-1.0
 40
-1.0
 40
-1.0
 40
-1.0
 40
-0.5
 40
0.0
 40
0.0
 40
0.0
 40
0.0
 10
1433.567166481654
 20
1836.027915472958
 30
0.0
 10
1433.391340301083
 20
1835.433190101235
 30
0.0
 10
1432.955157902137
 20
1834.369698387909
 30
0.0
 10
1432.299186828984
 20
1833.568408653075
 30
0.0
 10
1431.90412638395
 20
1833.23707961481
 30
0.0
  0
LINE
  5
38C
330
2C4
100
AcDbEntity
  8
P-SANR-FIXT
100
AcDbLine
 10
1481.828077329228
 20
2057.304851413443
 30
0.0
 11
1478.654965296429
 21
2047.917785784202
 31
0.0
  0
ELLIPSE
  5
38D
330
2C4
100
AcDbEntity
  8
P-SANR-FIXT
100
AcDbEllipse
 10
1458.667148756047
 20
2048.098438872424
 30
0.0
 11
20.00000000000012
 21
0.0
 31
0.0
210
0.0
220
0.0
230
1.0
 40
0.2588190451025121
 41
5.703140015712259
 42
6.248278722139688
  0
ELLIPSE
  5
38E
330
2C4
100
AcDbEntity
  8
P-SANR-FIXT
100
AcDbEllipse
 10
1382.059164901743
 20
2048.098438872424
 30
0.0
 11
20.00000000000007
 21
0.0
 31
0.0
210
0.0
220
0.0
230
1.0
 40
0.258819045102523
 41
3.176499238629676
 42
3.721863890822582
  0
LINE
  5
38F
330
2C4
100
AcDbEntity
  8
P-SANR-FIXT
100
AcDbLine
 10
1362.07134836136
 20
2047.917785784202
 30
0.0
 11
1358.898236328561
 21
2057.304851413443
 31
0.0
  0
LINE
  5
390
330
2C4
100
AcDbEntity
  8
P-SANR-FIXT
100
AcDbLine
 10
1362.07134836136
 20
2072.065931441429
 30
0.0
 11
1362.07134836136
 21
2047.917785784202
 31
0.0
  0
LINE
  5
391
330
2C4
100
AcDbEntity
  8
P-SANR-FIXT
100
AcDbLine
 10
1459.365138690096
 20
2067.073356938985
 30
0.0
 11
1459.365138690096
 21
2054.869019258628
 31
0.0
  0
LINE
  5
392
330
2C4
100
AcDbEntity
  8
P-SANR-FIXT
100
AcDbLine
 10
1358.898236328561
 20
2057.304851413443
 30
0.0
 11
1358.898236328561
 21
2081.45299707067
 31
0.0
  0
LINE
  5
393
330
2C4
100
AcDbEntity
  8
P-SANR-FIXT
100
AcDbLine
 10
1478.654965296429
 20
2047.917785784202
 30
0.0
 11
1478.654965296429
 21
2072.065931441429
 31
0.0
  0
LINE
  5
394
330
2C4
100
AcDbEntity
  8
P-SANR-FIXT
100
AcDbLine
 10
1481.828077329228
 20
2057.304851413443
 30
0.0
 11
1481.828077329228
 21
2081.45299707067
 31
0.0
  0
ELLIPSE
  5
395
330
2C4
100
AcDbEntity
  8
P-SANR-FIXT
100
AcDbEllipse
 10
1420.3631568289
 20
1660.323079400883
 30
0.0
 11
6.302754939482611
 21
0.0
 31
0.0
210
0.0
220
0.0
230
1.0
 40
0.2588190451025163
 41
3.141592653589793
 42
4.712388980384683
  0
ELLIPSE
  5
396
330
2C4
100
AcDbEntity
  8
P-SANR-FIXT
100
AcDbEllipse
 10
1420.3631568289
 20
1660.323079400883
 30
0.0
 11
-6.302754939482837
 21
0.0000000000002439
 31
0.0
210
0.0
220
0.0
230
0.9999999999999998
 40
0.258819045102507
 41
1.570796326794901
 42
3.141592653589798
  0
ELLIPSE
  5
397
330
2C4
100
AcDbEntity
  8
P-SANR-FIXT
100
AcDbEllipse
 10
1420.363156828894
 20
1852.728549068789
 30
0.0
 11
8.0
 21
0.0
 31
0.0
210
0.0
220
0.0
230
1.0
 40
0.2588190451025127
 41
1.570796326794839
 42
4.712388980384683
  0
ELLIPSE
  5
398
330
2C4
100
AcDbEntity
  8
P-SANR-FIXT
100
AcDbEllipse
 10
1420.363156828894
 20
1852.728549068789
 30
0.0
 11
8.000000000000227
 21
0.0
 31
0.0
210
0.0
220
0.0
230
1.0
 40
0.2588190451025054
 41
4.712388980384683
 42
7.853981633974425
  0
ELLIPSE
  5
399
330
2C4
100
AcDbEntity
  8
P-SANR-FIXT
100
AcDbEllipse
 10
1420.363156828895
 20
1736.334487000955
 30
0.0
 11
5.999999999999544
 21
0.0
 31
0.0
210
0.0
220
0.0
230
0.9999999999999998
 40
0.2588190451024471
 41
3.141592653589793
 42
4.712388980384683
  0
ELLIPSE
  5
39A
330
2C4
100
AcDbEntity
  8
P-SANR-FIXT
100
AcDbEllipse
 10
1420.363156828895
 20
1736.334487000955
 30
0.0
 11
5.999999999999317
 21
0.0
 31
0.0
210
0.0
220
0.0
230
1.0
 40
0.2588190451024569
 41
4.712388980384683
 42
6.283185307179586
  0
ELLIPSE
  5
39B
330
2C4
100
AcDbEntity
  8
P-SANR-FIXT
100
AcDbEllipse
 10
1420.363156828895
 20
1745.027819437557
 30
0.0
 11
5.999999999999544
 21
0.0
 31
0.0
210
0.0
220
0.0
230
0.9999999999999998
 40
0.2588190451024471
 41
2.560924585511115
 42
4.712388980384683
  0
ELLIPSE
  5
39C
330
2C4
100
AcDbEntity
  8
P-SANR-FIXT
100
AcDbEllipse
 10
1420.363156828895
 20
1745.027819437557
 30
0.0
 11
5.999999999999355
 21
0.0
 31
0.0
210
0.0
220
0.0
230
1.0
 40
0.2588190451025281
 41
4.712388980384683
 42
6.861743966548944
  0
ELLIPSE
  5
39D
330
2C4
100
AcDbEntity
  8
P-SANR-FIXT
100
AcDbEllipse
 10
1420.363156828895
 20
1745.027819437557
 30
0.0
 11
4.999999999999545
 21
0.0
 31
0.0
210
0.0
220
0.0
230
1.0
 40
0.2588190451024965
 41
3.141592653589793
 42
4.712388980384683
  0
ELLIPSE
  5
39E
330
2C4
100
AcDbEntity
  8
P-SANR-FIXT
100
AcDbEllipse
 10
1420.363156828895
 20
1745.027819437557
 30
0.0
 11
4.999999999999317
 21
0.0
 31
0.0
210
0.0
220
0.0
230
1.0
 40
0.2588190451025083
 41
4.712388980384683
 42
6.283185307179586
  0
ELLIPSE
  5
39F
330
2C4
100
AcDbEntity
  8
P-SANR-FIXT
100
AcDbEllipse
 10
1420.363156828895
 20
1748.408559829569
 30
0.0
 11
8.499999999999545
 21
0.0
 31
0.0
210
0.0
220
0.0
230
1.0
 40
0.2588190451025216
 41
3.141592653589793
 42
4.712388980384683
  0
ELLIPSE
  5
3A0
330
2C4
100
AcDbEntity
  8
P-SANR-FIXT
100
AcDbEllipse
 10
1420.363156828895
 20
1748.408559829569
 30
0.0
 11
8.499999999999317
 21
0.0
 31
0.0
210
0.0
220
0.0
230
1.0
 40
0.2588190451025285
 41
4.712388980384683
 42
6.283185307179586
  0
ELLIPSE
  5
3A1
330
2C4
100
AcDbEntity
  8
P-SANR-FIXT
100
AcDbEllipse
 10
1420.363156828895
 20
1752.75522604787
 30
0.0
 11
8.499999999999545
 21
0.0
 31
0.0
210
0.0
220
0.0
230
1.0
 40
0.2588190451024948
 41
3.103101936561722
 42
4.712388980384683
  0
ELLIPSE
  5
3A2
330
2C4
100
AcDbEntity
  8
P-SANR-FIXT
100
AcDbEllipse
 10
1420.363156828895
 20
1752.75522604787
 30
0.0
 11
8.499999999999351
 21
0.0
 31
0.0
210
0.0
220
0.0
230
1.0
 40
0.2588190451025167
 41
4.712388980384683
 42
6.321676024207654
  0
ELLIPSE
  5
3A3
330
2C4
100
AcDbEntity
  8
P-SANR-FIXT
100
AcDbEllipse
 10
1420.363156828895
 20
1752.75522604787
 30
0.0
 11
6.499999999999772
 21
0.0
 31
0.0
210
0.0
220
0.0
230
1.0
 40
0.2588190451025065
 41
3.498089703836851
 42
4.712388980384683
  0
ELLIPSE
  5
3A4
330
2C4
100
AcDbEntity
  8
P-SANR-FIXT
100
AcDbEllipse
 10
1420.363156828895
 20
1752.75522604787
 30
0.0
 11
6.499999999999396
 21
0.0
 31
0.0
210
0.0
220
0.0
230
1.0
 40
0.2588190451025251
 41
4.712388980384683
 42
5.92668825693226
  0
ELLIPSE
  5
3A5
330
2C4
100
AcDbEntity
  8
P-SANR-FIXT
100
AcDbEllipse
 10
1420.363156828895
 20
1754.204114787303
 30
0.0
 11
9.999999999999545
 21
0.0
 31
0.0
210
0.0
220
0.0
230
1.0
 40
0.2588190451025301
 41
3.141592653589793
 42
4.712388980384683
  0
ELLIPSE
  5
3A6
330
2C4
100
AcDbEntity
  8
P-SANR-FIXT
100
AcDbEllipse
 10
1420.363156828895
 20
1754.204114787303
 30
0.0
 11
9.999999999999317
 21
0.0
 31
0.0
210
0.0
220
0.0
230
1.0
 40
0.2588190451025361
 41
4.712388980384683
 42
6.283185307179586
  0
ELLIPSE
  5
3A7
330
2C4
100
AcDbEntity
  8
P-SANR-FIXT
100
AcDbEllipse
 10
1420.363156828895
 20
1759.999669745038
 30
0.0
 11
14.00000000000045
 21
0.0
 31
0.0
210
0.0
220
0.0
230
1.0
 40
0.2588190451025003
 41
3.141592653589793
 42
4.712388980384683
  0
ELLIPSE
  5
3A8
330
2C4
100
AcDbEntity
  8
P-SANR-FIXT
100
AcDbEllipse
 10
1420.363156828895
 20
1759.999669745038
 30
0.0
 11
14.00000000000023
 21
0.0
 31
0.0
210
0.0
220
0.0
230
1.0
 40
0.2588190451025045
 41
4.712388980384683
 42
6.283185307179649
  0
ELLIPSE
  5
3A9
330
2C4
100
AcDbEntity
  8
P-SANR-FIXT
100
AcDbEllipse
 10
1420.363156828894
 20
1846.932994111054
 30
0.0
 11
14.00000000000023
 21
0.0
 31
0.0
210
0.0
220
0.0
230
1.0
 40
0.2588190451025045
 41
2.179596642661349
 42
4.712388980384683
  0
ELLIPSE
  5
3AA
330
2C4
100
AcDbEntity
  8
P-SANR-FIXT
100
AcDbEllipse
 10
1420.363156828894
 20
1846.932994111054
 30
0.0
 11
14.00000000000035
 21
0.0
 31
0.0
210
0.0
220
0.0
230
1.0
 40
0.2588190451025109
 41
4.712388980384683
 42
7.245181318108018
  0
ELLIPSE
  5
3AB
330
2C4
100
AcDbEntity
  8
P-SANR-FIXT
100
AcDbEllipse
 10
1420.363156828894
 20
1846.932994111054
 30
0.0
 11
8.0
 21
0.0
 31
0.0
210
0.0
220
0.0
230
1.0
 40
0.2588190451024843
 41
3.141592653589793
 42
4.712388980384683
  0
ELLIPSE
  5
3AC
330
2C4
100
AcDbEntity
  8
P-SANR-FIXT
100
AcDbEllipse
 10
1420.363156828894
 20
1846.932994111054
 30
0.0
 11
8.000000000000227
 21
0.0
 31
0.0
210
0.0
220
0.0
230
1.0
 40
0.2588190451024769
 41
4.712388980384683
 42
6.283185307179586
  0
ENDBLK
  5
3AE
330
2C4
100
AcDbEntity
  8
0
100
AcDbBlockEnd
  0
ENDSEC
  0
SECTION
  2
ENTITIES
  0
INSERT
  5
1DA
330
71
100
AcDbEntity
  8
P-SANR-FIXT
100
AcDbBlockReference
  2
Automatic flow rate regulator valve_Caleffi_121 DN15 - 1_2__-859151-Est - Idraulica
 10
0.0
 20
0.0
 30
0.0
1001
REVIT
1002
{
1070
     1
1000
863131
1002
}
1002
{
1070
     5
1000
859151
1002
}
1002
{
1070
     2
1000
-2001160
1002
}
  0
INSERT
  5
2C3
330
71
100
AcDbEntity
  8
P-SANR-FIXT
100
AcDbBlockReference
  2
Automatic flow rate regulator valve_Caleffi_121 DN15 - 1_2__-V1-Est - Idraulica
 10
0.0
 20
0.0
 30
0.0
1001
REVIT
1002
{
1070
     1
1000
863152
1002
}
1002
{
1070
     5
1000
859151
1002
}
1002
{
1070
     2
1000
-2001160
1002
}
  0
INSERT
  5
3AF
330
71
100
AcDbEntity
  8
P-SANR-FIXT
100
AcDbBlockReference
  2
Automatic flow rate regulator valve_Caleffi_121 DN15 - 1_2__-V2-Est - Idraulica
 10
0.0
 20
0.0
 30
0.0
1001
REVIT
1002
{
1070
     1
1000
863172
1002
}
1002
{
1070
     5
1000
859151
1002
}
1002
{
1070
     2
1000
-2001160
1002
}
  0
ENDSEC
  0
SECTION
  2
OBJECTS
  0
DICTIONARY
  5
C
330
0
100
AcDbDictionary
281
     1
  3
ACAD_CIP_PREVIOUS_PRODUCT_INFO
350
7A
  3
ACAD_COLOR
350
63
  3
ACAD_DETAILVIEWSTYLE
350
6B
  3
ACAD_GROUP
350
D
  3
ACAD_IMAGE_VARS
350
7B
  3
ACAD_LAYOUT
350
62
  3
ACAD_MATERIAL
350
10
  3
ACAD_MLEADERSTYLE
350
66
  3
ACAD_MLINESTYLE
350
5F
  3
ACAD_PLOTSETTINGS
350
61
  3
ACAD_PLOTSTYLENAME
350
E
  3
ACAD_SCALELIST
350
42
  3
ACAD_SECTIONVIEWSTYLE
350
68
  3
ACAD_TABLESTYLE
350
64
  3
ACAD_VISUALSTYLE
350
29
  3
ACDB_RECOMPOSE_DATA
350
3B9
  3
AcDbVariableDictionary
350
7C
  3
REVIT_DICTIONARY
350
3B1
  0
DICTIONARY
  5
3B5
330
71
100
AcDbDictionary
280
     1
281
     1
  3
ACAD_SORTENTS
360
3B6
  0
XRECORD
  5
7A
102
{ACAD_REACTORS
330
C
102
}
330
C
100
AcDbXrecord
280
     1
300
RVT
300
2013
300
RVT2013
  0
DICTIONARY
  5
63
102
{ACAD_REACTORS
330
C
102
}
330
C
100
AcDbDictionary
281
     1
  0
DICTIONARY
  5
6B
102
{ACAD_REACTORS
330
C
102
}
330
C
100
AcDbDictionary
281
     1
  3
Imperial24
350
6C
  0
DICTIONARY
  5
D
102
{ACAD_REACTORS
330
C
102
}
330
C
100
AcDbDictionary
281
     1
  0
RASTERVARIABLES
  5
7B
102
{ACAD_REACTORS
330
C
102
}
330
C
100
AcDbRasterVariables
 90
        0
 70
     0
 71
     1
 72
     1
  0
DICTIONARY
  5
62
102
{ACAD_REACTORS
330
C
102
}
330
C
100
AcDbDictionary
281
     1
  3
Layout1
350
70
  3
Layout2
350
78
  3
Model
350
74
  0
DICTIONARY
  5
10
102
{ACAD_REACTORS
330
C
102
}
330
C
100
AcDbDictionary
281
     1
  3
ByBlock
350
19
  3
ByLayer
350
11
  3
Global
350
21
  0
DICTIONARY
  5
66
102
{ACAD_REACTORS
330
C
102
}
330
C
100
AcDbDictionary
281
     1
  3
Standard
350
67
  0
DICTIONARY
  5
5F
102
{ACAD_REACTORS
330
C
102
}
330
C
100
AcDbDictionary
281
     1
  3
Standard
350
60
  0
DICTIONARY
  5
61
102
{ACAD_REACTORS
330
C
102
}
330
C
100
AcDbDictionary
281
     1
  0
ACDBDICTIONARYWDFLT
  5
E
102
{ACAD_REACTORS
330
C
102
}
330
C
100
AcDbDictionary
281
     1
  3
Normal
350
F
100
AcDbDictionaryWithDefault
340
F
  0
DICTIONARY
  5
42
102
{ACAD_REACTORS
330
C
102
}
330
C
100
AcDbDictionary
281
     1
  3
A0
350
43
  3
A1
350
44
  3
A2
350
45
  3
A3
350
46
  3
A4
350
47
  3
A5
350
48
  3
A6
350
49
  3
A7
350
4A
  3
A8
350
4B
  3
A9
350
4C
  3
B0
350
4D
  3
B1
350
4E
  3
B2
350
4F
  3
B3
350
50
  3
B4
350
51
  3
B5
350
52
  3
B6
350
53
  0
DICTIONARY
  5
68
102
{ACAD_REACTORS
330
C
102
}
330
C
100
AcDbDictionary
281
     1
  3
Imperial24
350
6A
  0
DICTIONARY
  5
64
102
{ACAD_REACTORS
330
C
102
}
330
C
100
AcDbDictionary
281
     1
  3
Standard
350
65
  0
DICTIONARY
  5
29
102
{ACAD_REACTORS
330
C
102
}
330
C
100
AcDbDictionary
281
     1
  3
2dWireframe
350
2F
  3
Basic
350
2E
  3
Brighten
350
35
  3
ColorChange
350
39
  3
Conceptual
350
32
  3
Dim
350
34
  3
EdgeColorOff
350
41
  3
Facepattern
350
38
  3
Flat
350
2A
  3
FlatWithEdges
350
2B
  3
Gouraud
350
2C
  3
GouraudWithEdges
350
2D
  3
Hidden
350
31
  3
JitterOff
350
3F
  3
Linepattern
350
37
  3
OverhangOff
350
40
  3
Realistic
350
33
  3
Shaded
350
3E
  3
Shaded with edges
350
3D
  3
Shades of Gray
350
3A
  3
Sketchy
350
3B
  3
Thicken
350
36
  3
Wireframe
350
30
  3
X-Ray
350
3C
  0
XRECORD
  5
3B9
102
{ACAD_REACTORS
330
C
102
}
330
C
100
AcDbXrecord
280
     1
 90
        1
330
65
  0
DICTIONARY
  5
7C
102
{ACAD_REACTORS
330
C
102
}
330
C
100
AcDbDictionary
281
     1
  3
CANNOSCALE
350
81
  3
CMLEADERSTYLE
350
7E
  3
CTABLESTYLE
350
7D
  3
CVIEWDETAILSTYLE
350
7F
  3
CVIEWSECTIONSTYLE
350
80
  0
DICTIONARY
  5
3B1
102
{ACAD_REACTORS
330
C
102
}
330
C
100
AcDbDictionary
281
     1
  3
DRAWING_TOOL
350
3B4
  3
REVIT_CATEGORY_MAPPING
350
3B3
  3
REVIT_TYPE_MAPPING
350
3B2
  0
SORTENTSTABLE
  5
3B6
102
{ACAD_REACTORS
330
3B5
102
}
330
3B5
100
AcDbSortentsTable
330
71
  0
ACDBDETAILVIEWSTYLE
  5
6C
102
{ACAD_REACTORS
330
6B
102
}
330
6B
100
AcDbModelDocViewStyle
 70
     0
  3
Imperial24
290
     1
100
AcDbDetailViewStyle
 70
     0
 71
     0
 90
        3
 71
     1
340
55
 62
   256
 40
0.24
340
0
 62
   256
 40
0.24
300

 40
0.36
280
     3
 71
     2
340
5D
 90
       25
 62
   256
 71
     3
340
55
 62
   256
 40
0.24
 90
        1
 40
0.75
 90
        1
300
%<\AcVar ViewType \f "%tc1">% %<\AcVar ViewDetailId>%\PSCALA %<\AcVar ViewScale \f "%sn">%
 71
     4
340
5D
 90
       25
 62
   256
340
5D
 90
       25
 62
   256
280
     0
  0
LAYOUT
  5
70
102
{ACAD_REACTORS
330
62
102
}
330
62
100
AcDbPlotSettings
  1

  2

  4

  6

 40
0.0
 41
0.0
 42
0.0
 43
0.0
 44
0.0
 45
0.0
 46
0.0
 47
0.0
 48
0.0
 49
0.0
140
0.0
141
0.0
142
1.0
143
1.0
 70
   688
 72
     0
 73
     0
 74
     5
  7

 75
    16
147
1.0
 76
     0
 77
     2
 78
   300
148
0.0
149
0.0
100
AcDbLayout
  1
Layout1
 70
     1
 71
     1
 10
0.0
 20
0.0
 11
12.0
 21
9.0
 12
0.0
 22
0.0
 32
0.0
 14
0.0
 24
0.0
 34
0.0
 15
0.0
 25
0.0
 35
0.0
146
0.0
 13
0.0
 23
0.0
 33
0.0
 16
1.0
 26
0.0
 36
0.0
 17
0.0
 27
1.0
 37
0.0
 76
     0
330
6D
  0
LAYOUT
  5
78
102
{ACAD_REACTORS
330
62
102
}
330
62
100
AcDbPlotSettings
  1

  2

  4

  6

 40
0.0
 41
0.0
 42
0.0
 43
0.0
 44
0.0
 45
0.0
 46
0.0
 47
0.0
 48
0.0
 49
0.0
140
0.0
141
0.0
142
1.0
143
1.0
 70
   688
 72
     0
 73
     0
 74
     5
  7

 75
    16
147
1.0
 76
     0
 77
     2
 78
   300
148
0.0
149
0.0
100
AcDbLayout
  1
Layout2
 70
     1
 71
     2
 10
0.0
 20
0.0
 11
12.0
 21
9.0
 12
0.0
 22
0.0
 32
0.0
 14
0.0
 24
0.0
 34
0.0
 15
0.0
 25
0.0
 35
0.0
146
0.0
 13
0.0
 23
0.0
 33
0.0
 16
1.0
 26
0.0
 36
0.0
 17
0.0
 27
1.0
 37
0.0
 76
     0
330
75
  0
LAYOUT
  5
74
102
{ACAD_REACTORS
330
62
102
}
330
62
100
AcDbPlotSettings
  1

  2

  4

  6

 40
0.0
 41
0.0
 42
0.0
 43
0.0
 44
0.0
 45
0.0
 46
0.0
 47
0.0
 48
0.0
 49
0.0
140
0.0
141
0.0
142
1.0
143
1.0
 70
  1712
 72
     0
 73
     0
 74
     0
  7

 75
     0
147
1.0
 76
     0
 77
     2
 78
   300
148
0.0
149
0.0
100
AcDbLayout
  1
Model
 70
     1
 71
     0
 10
0.0
 20
0.0
 11
12.0
 21
9.0
 12
0.0
 22
0.0
 32
0.0
 14
0.0
 24
0.0
 34
0.0
 15
0.0
 25
0.0
 35
0.0
146
0.0
 13
0.0
 23
0.0
 33
0.0
 16
1.0
 26
0.0
 36
0.0
 17
0.0
 27
1.0
 37
0.0
 76
     0
330
71
  0
MATERIAL
  5
19
102
{ACAD_XDICTIONARY
360
1A
102
}
102
{ACAD_REACTORS
330
10
102
}
330
10
100
AcDbMaterial
  1
ByBlock
 72
     0
 43
0.0208333333333333
 43
0.0
 43
0.0
 43
0.0
 43
0.0
 43
0.0208333333333333
 43
0.0
 43
0.0
 43
0.0
 43
0.0
 43
1.0
 43
0.0
 43
0.0
 43
0.0
 43
0.0
 43
1.0
 77
     0
 47
0.0208333333333333
 47
0.0
 47
0.0
 47
0.0
 47
0.0
 47
0.0208333333333333
 47
0.0
 47
0.0
 47
0.0
 47
0.0
 47
1.0
 47
0.0
 47
0.0
 47
0.0
 47
0.0
 47
1.0
171
     0
 49
0.0208333333333333
 49
0.0
 49
0.0
 49
0.0
 49
0.0
 49
0.0208333333333333
 49
0.0
 49
0.0
 49
0.0
 49
0.0
 49
1.0
 49
0.0
 49
0.0
 49
0.0
 49
0.0
 49
1.0
175
     0
142
0.0208333333333333
142
0.0
142
0.0
142
0.0
142
0.0
142
0.0208333333333333
142
0.0
142
0.0
142
0.0
142
0.0
142
1.0
142
0.0
142
0.0
142
0.0
142
0.0
142
1.0
179
     0
144
0.0208333333333333
144
0.0
144
0.0
144
0.0
144
0.0
144
0.0208333333333333
144
0.0
144
0.0
144
0.0
144
0.0
144
1.0
144
0.0
144
0.0
144
0.0
144
0.0
144
1.0
147
0.0208333333333333
147
0.0
147
0.0
147
0.0
147
0.0
147
0.0208333333333333
147
0.0
147
0.0
147
0.0
147
0.0
147
1.0
147
0.0
147
0.0
147
0.0
147
0.0
147
1.0
  0
MATERIAL
  5
11
102
{ACAD_XDICTIONARY
360
12
102
}
102
{ACAD_REACTORS
330
10
102
}
330
10
100
AcDbMaterial
  1
ByLayer
 72
     0
 43
0.0208333333333333
 43
0.0
 43
0.0
 43
0.0
 43
0.0
 43
0.0208333333333333
 43
0.0
 43
0.0
 43
0.0
 43
0.0
 43
1.0
 43
0.0
 43
0.0
 43
0.0
 43
0.0
 43
1.0
 77
     0
 47
0.0208333333333333
 47
0.0
 47
0.0
 47
0.0
 47
0.0
 47
0.0208333333333333
 47
0.0
 47
0.0
 47
0.0
 47
0.0
 47
1.0
 47
0.0
 47
0.0
 47
0.0
 47
0.0
 47
1.0
171
     0
 49
0.0208333333333333
 49
0.0
 49
0.0
 49
0.0
 49
0.0
 49
0.0208333333333333
 49
0.0
 49
0.0
 49
0.0
 49
0.0
 49
1.0
 49
0.0
 49
0.0
 49
0.0
 49
0.0
 49
1.0
175
     0
142
0.0208333333333333
142
0.0
142
0.0
142
0.0
142
0.0
142
0.0208333333333333
142
0.0
142
0.0
142
0.0
142
0.0
142
1.0
142
0.0
142
0.0
142
0.0
142
0.0
142
1.0
179
     0
144
0.0208333333333333
144
0.0
144
0.0
144
0.0
144
0.0
144
0.0208333333333333
144
0.0
144
0.0
144
0.0
144
0.0
144
1.0
144
0.0
144
0.0
144
0.0
144
0.0
144
1.0
147
0.0208333333333333
147
0.0
147
0.0
147
0.0
147
0.0
147
0.0208333333333333
147
0.0
147
0.0
147
0.0
147
0.0
147
1.0
147
0.0
147
0.0
147
0.0
147
0.0
147
1.0
  0
MATERIAL
  5
21
102
{ACAD_XDICTIONARY
360
22
102
}
102
{ACAD_REACTORS
330
10
102
}
330
10
100
AcDbMaterial
  1
Global
 72
     0
 43
0.0208333333333333
 43
0.0
 43
0.0
 43
0.0
 43
0.0
 43
0.0208333333333333
 43
0.0
 43
0.0
 43
0.0
 43
0.0
 43
1.0
 43
0.0
 43
0.0
 43
0.0
 43
0.0
 43
1.0
 77
     0
 47
0.0208333333333333
 47
0.0
 47
0.0
 47
0.0
 47
0.0
 47
0.0208333333333333
 47
0.0
 47
0.0
 47
0.0
 47
0.0
 47
1.0
 47
0.0
 47
0.0
 47
0.0
 47
0.0
 47
1.0
171
     0
 49
0.0208333333333333
 49
0.0
 49
0.0
 49
0.0
 49
0.0
 49
0.0208333333333333
 49
0.0
 49
0.0
 49
0.0
 49
0.0
 49
1.0
 49
0.0
 49
0.0
 49
0.0
 49
0.0
 49
1.0
175
     0
142
0.0208333333333333
142
0.0
142
0.0
142
0.0
142
0.0
142
0.0208333333333333
142
0.0
142
0.0
142
0.0
142
0.0
142
1.0
142
0.0
142
0.0
142
0.0
142
0.0
142
1.0
179
     0
144
0.0208333333333333
144
0.0
144
0.0
144
0.0
144
0.0
144
0.0208333333333333
144
0.0
144
0.0
144
0.0
144
0.0
144
1.0
144
0.0
144
0.0
144
0.0
144
0.0
144
1.0
147
0.0208333333333333
147
0.0
147
0.0
147
0.0
147
0.0
147
0.0208333333333333
147
0.0
147
0.0
147
0.0
147
0.0
147
1.0
147
0.0
147
0.0
147
0.0
147
0.0
147
1.0
  0
MLEADERSTYLE
  5
67
102
{ACAD_REACTORS
330
66
102
}
330
66
100
AcDbMLeaderStyle
179
     2
170
     2
171
     1
172
     0
 90
        2
 40
0.0
 41
0.0
173
     1
 91
-1056964608
340
5B
 92
       -2
290
     1
 42
0.09
291
     1
 43
0.36
  3
Standard
 44
0.18
300

342
55
174
     1
178
     6
175
     1
176
     0
 93
-1056964608
 45
0.18
292
     0
297
     0
 46
0.18
 94
-1056964608
 47
1.0
 49
1.0
140
1.0
293
     1
141
0.0
294
     1
177
     0
142
1.0
295
     1
296
     0
143
0.125
271
     0
272
     9
273
     9
298
     1
  0
MLINESTYLE
  5
60
102
{ACAD_REACTORS
330
5F
102
}
330
5F
100
AcDbMlineStyle
  2
STANDARD
 70
     0
  3

 62
   256
 51
90.0
 52
90.0
 71
     2
 49
0.5
 62
   256
  6
BYLAYER
 49
-0.5
 62
   256
  6
BYLAYER
  0
ACDBPLACEHOLDER
  5
F
102
{ACAD_REACTORS
330
E
102
}
330
E
  0
SCALE
  5
43
102
{ACAD_REACTORS
330
42
102
}
330
42
100
AcDbScale
 70
     0
300
1:1
140
1.0
141
1.0
290
     1
  0
SCALE
  5
44
102
{ACAD_REACTORS
330
42
102
}
330
42
100
AcDbScale
 70
     0
300
1/128" = 1'-0"
140
0.0078125
141
12.0
290
     0
  0
SCALE
  5
45
102
{ACAD_REACTORS
330
42
102
}
330
42
100
AcDbScale
 70
     0
300
1/64" = 1'-0"
140
0.015625
141
12.0
290
     0
  0
SCALE
  5
46
102
{ACAD_REACTORS
330
42
102
}
330
42
100
AcDbScale
 70
     0
300
1/32" = 1'-0"
140
0.03125
141
12.0
290
     0
  0
SCALE
  5
47
102
{ACAD_REACTORS
330
42
102
}
330
42
100
AcDbScale
 70
     0
300
1/16" = 1'-0"
140
0.0625
141
12.0
290
     0
  0
SCALE
  5
48
102
{ACAD_REACTORS
330
42
102
}
330
42
100
AcDbScale
 70
     0
300
3/32" = 1'-0"
140
0.09375
141
12.0
290
     0
  0
SCALE
  5
49
102
{ACAD_REACTORS
330
42
102
}
330
42
100
AcDbScale
 70
     0
300
1/8" = 1'-0"
140
0.125
141
12.0
290
     0
  0
SCALE
  5
4A
102
{ACAD_REACTORS
330
42
102
}
330
42
100
AcDbScale
 70
     0
300
3/16" = 1'-0"
140
0.1875
141
12.0
290
     0
  0
SCALE
  5
4B
102
{ACAD_REACTORS
330
42
102
}
330
42
100
AcDbScale
 70
     0
300
1/4" = 1'-0"
140
0.25
141
12.0
290
     0
  0
SCALE
  5
4C
102
{ACAD_REACTORS
330
42
102
}
330
42
100
AcDbScale
 70
     0
300
3/8" = 1'-0"
140
0.375
141
12.0
290
     0
  0
SCALE
  5
4D
102
{ACAD_REACTORS
330
42
102
}
330
42
100
AcDbScale
 70
     0
300
1/2" = 1'-0"
140
0.5
141
12.0
290
     0
  0
SCALE
  5
4E
102
{ACAD_REACTORS
330
42
102
}
330
42
100
AcDbScale
 70
     0
300
3/4" = 1'-0"
140
0.75
141
12.0
290
     0
  0
SCALE
  5
4F
102
{ACAD_REACTORS
330
42
102
}
330
42
100
AcDbScale
 70
     0
300
1" = 1'-0"
140
1.0
141
12.0
290
     0
  0
SCALE
  5
50
102
{ACAD_REACTORS
330
42
102
}
330
42
100
AcDbScale
 70
     0
300
1-1/2" = 1'-0"
140
1.5
141
12.0
290
     0
  0
SCALE
  5
51
102
{ACAD_REACTORS
330
42
102
}
330
42
100
AcDbScale
 70
     0
300
3" = 1'-0"
140
3.0
141
12.0
290
     0
  0
SCALE
  5
52
102
{ACAD_REACTORS
330
42
102
}
330
42
100
AcDbScale
 70
     0
300
6" = 1'-0"
140
6.0
141
12.0
290
     0
  0
SCALE
  5
53
102
{ACAD_REACTORS
330
42
102
}
330
42
100
AcDbScale
 70
     0
300
1'-0" = 1'-0"
140
12.0
141
12.0
290
     0
  0
ACDBSECTIONVIEWSTYLE
  5
6A
102
{ACAD_REACTORS
330
68
102
}
330
68
100
AcDbModelDocViewStyle
 70
     0
  3
Imperial24
290
     1
100
AcDbSectionViewStyle
 70
     0
 71
     0
 90
       78
 71
     1
340
55
 62
   256
 40
0.24
340
0
340
0
 62
   256
 40
0.24
300
I, O, Q, S, X, Z
 40
0.48
 90
        3
 40
0.18
 90
        1
 71
     2
340
69
 90
       25
 62
   256
340
5D
 90
       50
 62
   256
 40
0.24
 40
0.0
 40
0.24
 71
     3
340
55
 62
   256
 40
0.24
 90
        1
 40
0.75
 90
        1
300
%<\AcVar ViewType \f "%tc1">% %<\AcVar ViewSectionStartId>%-%<\AcVar ViewSectionEndId>%\PSCALA %<\AcVar ViewScale \f "%sn">%
 71
     4
 62
   256
 62
   257
300
ANSI31
 40
1.0
 90
        0
290
     0
290
     0
 90
        6
 40
0.0
 40
1.570796326794896
 40
0.2617993877991494
 40
1.308996938995747
 40
-0.2617993877991494
 40
1.832595714594046
  0
TABLESTYLE
  5
65
102
{ACAD_XDICTIONARY
360
3B7
102
}
102
{ACAD_REACTORS
330
64
102
}
330
64
100
AcDbTableStyle
280
     0
  3
Standard
 70
     0
 71
     0
 40
0.06
 41
0.06
280
     0
281
     0
  7
Standard
140
0.18
170
     2
 62
     0
 63
     7
283
     0
 90
      512
 91
        0
  1

274
    -2
284
     1
 64
     0
275
    -2
285
     1
 65
     0
276
    -2
286
     1
 66
     0
277
    -2
287
     1
 67
     0
278
    -2
288
     1
 68
     0
279
    -2
289
     1
 69
     0
  7
Standard
140
0.25
170
     5
 62
     0
 63
     7
283
     0
 90
      512
 91
        0
  1

274
    -2
284
     1
 64
     0
275
    -2
285
     1
 65
     0
276
    -2
286
     1
 66
     0
277
    -2
287
     1
 67
     0
278
    -2
288
     1
 68
     0
279
    -2
289
     1
 69
     0
  7
Standard
140
0.18
170
     5
 62
     0
 63
     7
283
     0
 90
      512
 91
        0
  1

274
    -2
284
     1
 64
     0
275
    -2
285
     1
 65
     0
276
    -2
286
     1
 66
     0
277
    -2
287
     1
 67
     0
278
    -2
288
     1
 68
     0
279
    -2
289
     1
 69
     0
  0
VISUALSTYLE
  5
2F
102
{ACAD_REACTORS
330
29
102
}
330
29
100
AcDbVisualStyle
  2
2dWireframe
 70
     4
177
     3
291
     0
 70
    58
 90
        0
176
     1
 90
        2
176
     1
 90
        0
176
     1
 90
        0
176
     1
 40
0.6
176
     1
 40
30.0
176
     1
 62
     7
420
 16777215
176
     1
 90
        1
176
     1
 90
        4
176
     1
 62
     7
176
     1
 62
   257
176
     1
 90
        1
176
     1
 90
        1
176
     1
 40
1.0
176
     1
 90
        0
176
     1
 62
   257
176
     1
 40
1.0
176
     1
 90
        1
176
     1
 90
        6
176
     1
 90
        2
176
     1
 62
     7
176
     1
 90
        5
176
     1
 90
        0
176
     1
 90
        0
176
     1
290
     0
176
     1
 90
        1
176
     1
 40
0.0
176
     1
 90
        0
176
     1
290
     1
176
     1
290
     1
176
     1
290
     0
176
     1
290
     0
176
     1
290
     0
176
     1
290
     0
176
     1
290
     0
176
     1
290
     0
176
     1
290
     0
176
     1
 90
       50
176
     1
 40
0.0
176
     1
 40
1.0
176
     1
 90
        0
176
     1
 62
    18
420
        0
176
     1
 90
       50
176
     1
 90
        3
176
     1
 62
     5
420
      255
176
     1
290
     0
176
     1
 90
       50
176
     1
 90
       50
176
     1
 90
       50
176
     1
290
     0
176
     1
 90
       50
176
     1
 62
   256
176
     0
 40
1.0
176
     0
 90
        2
176
     1
  1
strokes_ogs.tif
176
     1
290
     0
176
     1
 40
1.0
176
     1
 40
1.0
176
     1
  0
VISUALSTYLE
  5
2E
102
{ACAD_REACTORS
330
29
102
}
330
29
100
AcDbVisualStyle
  2
Basic
 70
     7
177
     3
291
     1
 70
    58
 90
        1
176
     1
 90
        0
176
     1
 90
        1
176
     1
 90
        0
176
     1
 40
0.6
176
     1
 40
30.0
176
     1
 62
     7
420
 16777215
176
     1
 90
        0
176
     1
 90
        4
176
     1
 62
     7
176
     1
 62
   257
176
     1
 90
        1
176
     1
 90
        1
176
     1
 40
1.0
176
     1
 90
        8
176
     1
 62
     7
176
     1
 40
1.0
176
     1
 90
        1
176
     1
 90
        6
176
     1
 90
        2
176
     1
 62
     7
176
     1
 90
        5
176
     1
 90
        0
176
     1
 90
        0
176
     1
290
     0
176
     1
 90
        1
176
     1
 40
0.0
176
     1
 90
        0
176
     1
290
     0
176
     1
290
     1
176
     1
290
     1
176
     1
290
     0
176
     1
290
     0
176
     1
290
     0
176
     1
290
     0
176
     1
290
     0
176
     1
290
     0
176
     1
 90
       50
176
     1
 40
0.0
176
     1
 40
1.0
176
     1
 90
        0
176
     1
 62
    18
420
        0
176
     1
 90
       50
176
     1
 90
        3
176
     1
 62
     5
420
      255
176
     1
290
     0
176
     1
 90
       50
176
     1
 90
       50
176
     1
 90
       50
176
     1
290
     0
176
     1
 90
       50
176
     1
 62
   256
176
     0
 40
1.0
176
     0
 90
        2
176
     1
  1
strokes_ogs.tif
176
     1
290
     0
176
     1
 40
1.0
176
     1
 40
1.0
176
     1
  0
VISUALSTYLE
  5
35
102
{ACAD_REACTORS
330
29
102
}
330
29
100
AcDbVisualStyle
  2
Brighten
 70
    12
177
     3
291
     1
 70
    58
 90
        2
176
     1
 90
        2
176
     1
 90
        0
176
     1
 90
        0
176
     1
 40
0.6
176
     1
 40
30.0
176
     1
 62
     7
420
 16777215
176
     1
 90
        1
176
     1
 90
        4
176
     1
 62
     7
176
     1
 62
   257
176
     1
 90
        1
176
     1
 90
        1
176
     1
 40
1.0
176
     1
 90
        8
176
     1
 62
     7
176
     1
 40
1.0
176
     1
 90
        1
176
     1
 90
        6
176
     1
 90
        2
176
     1
 62
     7
176
     1
 90
        5
176
     1
 90
        0
176
     1
 90
        0
176
     1
290
     0
176
     1
 90
        1
176
     1
 40
50.0
176
     1
 90
        0
176
     1
290
     0
176
     1
290
     1
176
     1
290
     1
176
     1
290
     0
176
     1
290
     0
176
     1
290
     0
176
     1
290
     0
176
     1
290
     0
176
     1
290
     0
176
     1
 90
       50
176
     1
 40
0.0
176
     1
 40
1.0
176
     1
 90
        0
176
     1
 62
    18
420
        0
176
     1
 90
       50
176
     1
 90
        3
176
     1
 62
     5
420
      255
176
     1
290
     0
176
     1
 90
       50
176
     1
 90
       50
176
     1
 90
       50
176
     1
290
     0
176
     1
 90
       50
176
     1
 62
   256
176
     0
 40
1.0
176
     0
 90
        2
176
     1
  1
strokes_ogs.tif
176
     1
290
     0
176
     1
 40
1.0
176
     1
 40
1.0
176
     1
  0
VISUALSTYLE
  5
39
102
{ACAD_REACTORS
330
29
102
}
330
29
100
AcDbVisualStyle
  2
ColorChange
 70
    16
177
     3
291
     1
 70
    58
 90
        2
176
     1
 90
        2
176
     1
 90
        3
176
     1
 90
        0
176
     1
 40
0.6
176
     1
 40
30.0
176
     1
 62
     8
420
  8421504
176
     1
 90
        1
176
     1
 90
        4
176
     1
 62
     7
176
     1
 62
   257
176
     1
 90
        1
176
     1
 90
        1
176
     1
 40
1.0
176
     1
 90
        8
176
     1
 62
     8
420
  8421504
176
     1
 40
1.0
176
     1
 90
        1
176
     1
 90
        6
176
     1
 90
        2
176
     1
 62
     7
176
     1
 90
        5
176
     1
 90
        0
176
     1
 90
        0
176
     1
290
     0
176
     1
 90
        1
176
     1
 40
0.0
176
     1
 90
        0
176
     1
290
     0
176
     1
290
     1
176
     1
290
     1
176
     1
290
     0
176
     1
290
     0
176
     1
290
     0
176
     1
290
     0
176
     1
290
     0
176
     1
290
     0
176
     1
 90
       50
176
     1
 40
0.0
176
     1
 40
1.0
176
     1
 90
        0
176
     1
 62
    18
420
        0
176
     1
 90
       50
176
     1
 90
        3
176
     1
 62
     5
420
      255
176
     1
290
     0
176
     1
 90
       50
176
     1
 90
       50
176
     1
 90
       50
176
     1
290
     0
176
     1
 90
       50
176
     1
 62
   256
176
     0
 40
1.0
176
     0
 90
        2
176
     1
  1
strokes_ogs.tif
176
     1
290
     0
176
     1
 40
1.0
176
     1
 40
1.0
176
     1
  0
VISUALSTYLE
  5
32
102
{ACAD_REACTORS
330
29
102
}
330
29
100
AcDbVisualStyle
  2
Conceptual
 70
     9
177
     3
291
     0
 70
    58
 90
        3
176
     1
 90
        2
176
     1
 90
        0
176
     1
 90
        0
176
     1
 40
0.6
176
     1
 40
30.0
176
     1
 62
     7
420
 16777215
176
     1
 90
        2
176
     1
 90
        2
176
     1
 62
     7
176
     1
 62
   257
176
     1
 90
        1
176
     1
 90
        1
176
     1
 40
179.0
176
     1
 90
        8
176
     1
 62
     7
176
     1
 40
1.0
176
     1
 90
        1
176
     1
 90
        6
176
     1
 90
        2
176
     1
 62
     7
176
     1
 90
        3
176
     1
 90
        0
176
     1
 90
        0
176
     1
290
     0
176
     1
 90
        1
176
     1
 40
0.0
176
     1
 90
        0
176
     1
290
     0
176
     1
290
     1
176
     1
290
     1
176
     1
290
     0
176
     1
290
     0
176
     1
290
     0
176
     1
290
     0
176
     1
290
     0
176
     1
290
     0
176
     1
 90
       50
176
     1
 40
0.0
176
     1
 40
1.0
176
     1
 90
        0
176
     1
 62
    18
420
        0
176
     1
 90
       50
176
     1
 90
        3
176
     1
 62
     5
420
      255
176
     1
290
     0
176
     1
 90
       50
176
     1
 90
       50
176
     1
 90
       50
176
     1
290
     0
176
     1
 90
       50
176
     1
 62
   256
176
     0
 40
1.0
176
     0
 90
        2
176
     1
  1
strokes_ogs.tif
176
     1
290
     0
176
     1
 40
1.0
176
     1
 40
1.0
176
     1
  0
VISUALSTYLE
  5
34
102
{ACAD_REACTORS
330
29
102
}
330
29
100
AcDbVisualStyle
  2
Dim
 70
    11
177
     3
291
     1
 70
    58
 90
        2
176
     1
 90
        2
176
     1
 90
        0
176
     1
 90
        0
176
     1
 40
0.6
176
     1
 40
30.0
176
     1
 62
     7
420
 16777215
176
     1
 90
        1
176
     1
 90
        4
176
     1
 62
     7
176
     1
 62
   257
176
     1
 90
        1
176
     1
 90
        1
176
     1
 40
1.0
176
     1
 90
        8
176
     1
 62
     7
176
     1
 40
1.0
176
     1
 90
        1
176
     1
 90
        6
176
     1
 90
        2
176
     1
 62
     7
176
     1
 90
        5
176
     1
 90
        0
176
     1
 90
        0
176
     1
290
     0
176
     1
 90
        1
176
     1
 40
-50.0
176
     1
 90
        0
176
     1
290
     0
176
     1
290
     1
176
     1
290
     1
176
     1
290
     0
176
     1
290
     0
176
     1
290
     0
176
     1
290
     0
176
     1
290
     0
176
     1
290
     0
176
     1
 90
       50
176
     1
 40
0.0
176
     1
 40
1.0
176
     1
 90
        0
176
     1
 62
    18
420
        0
176
     1
 90
       50
176
     1
 90
        3
176
     1
 62
     5
420
      255
176
     1
290
     0
176
     1
 90
       50
176
     1
 90
       50
176
     1
 90
       50
176
     1
290
     0
176
     1
 90
       50
176
     1
 62
   256
176
     0
 40
1.0
176
     0
 90
        2
176
     1
  1
strokes_ogs.tif
176
     1
290
     0
176
     1
 40
1.0
176
     1
 40
1.0
176
     1
  0
VISUALSTYLE
  5
41
102
{ACAD_REACTORS
330
29
102
}
330
29
100
AcDbVisualStyle
  2
EdgeColorOff
 70
    22
177
     3
291
     1
 70
    58
 90
        2
176
     0
 90
        2
176
     0
 90
        0
176
     0
 90
        0
176
     0
 40
0.6
176
     0
 40
30.0
176
     0
 62
     7
420
 16777215
176
     0
 90
        1
176
     0
 90
        4
176
     0
 62
     7
176
     0
 62
   257
176
     0
 90
        1
176
     0
 90
        1
176
     0
 40
1.0
176
     0
 90
        8
176
     2
 62
     7
176
     0
 40
1.0
176
     0
 90
        1
176
     0
 90
        6
176
     0
 90
        2
176
     0
 62
     7
176
     0
 90
        5
176
     0
 90
        0
176
     0
 90
        0
176
     0
290
     0
176
     0
 90
        1
176
     0
 40
0.0
176
     0
 90
        0
176
     0
290
     0
176
     0
290
     1
176
     0
290
     1
176
     0
290
     0
176
     0
290
     0
176
     0
290
     0
176
     0
290
     0
176
     0
290
     0
176
     0
290
     0
176
     0
 90
       50
176
     0
 40
0.0
176
     0
 40
1.0
176
     0
 90
        0
176
     0
 62
    18
420
        0
176
     0
 90
       50
176
     0
 90
        3
176
     0
 62
     5
420
      255
176
     0
290
     0
176
     0
 90
       50
176
     0
 90
       50
176
     0
 90
       50
176
     0
290
     0
176
     0
 90
       50
176
     0
 62
   256
176
     0
 40
1.0
176
     0
 90
        2
176
     0
  1
strokes_ogs.tif
176
     0
290
     0
176
     0
 40
1.0
176
     0
 40
1.0
176
     0
  0
VISUALSTYLE
  5
38
102
{ACAD_REACTORS
330
29
102
}
330
29
100
AcDbVisualStyle
  2
Facepattern
 70
    15
177
     3
291
     1
 70
    58
 90
        2
176
     1
 90
        2
176
     1
 90
        0
176
     1
 90
        0
176
     1
 40
0.6
176
     1
 40
30.0
176
     1
 62
     7
420
 16777215
176
     1
 90
        1
176
     1
 90
        4
176
     1
 62
     7
176
     1
 62
   257
176
     1
 90
        1
176
     1
 90
        1
176
     1
 40
1.0
176
     1
 90
        8
176
     1
 62
     7
176
     1
 40
1.0
176
     1
 90
        1
176
     1
 90
        6
176
     1
 90
        2
176
     1
 62
     7
176
     1
 90
        5
176
     1
 90
        0
176
     1
 90
        0
176
     1
290
     0
176
     1
 90
        1
176
     1
 40
0.0
176
     1
 90
        0
176
     1
290
     0
176
     1
290
     1
176
     1
290
     1
176
     1
290
     0
176
     1
290
     0
176
     1
290
     0
176
     1
290
     0
176
     1
290
     0
176
     1
290
     0
176
     1
 90
       50
176
     1
 40
0.0
176
     1
 40
1.0
176
     1
 90
        0
176
     1
 62
    18
420
        0
176
     1
 90
       50
176
     1
 90
        3
176
     1
 62
     5
420
      255
176
     1
290
     0
176
     1
 90
       50
176
     1
 90
       50
176
     1
 90
       50
176
     1
290
     0
176
     1
 90
       50
176
     1
 62
   256
176
     0
 40
1.0
176
     0
 90
        2
176
     1
  1
strokes_ogs.tif
176
     1
290
     0
176
     1
 40
1.0
176
     1
 40
1.0
176
     1
  0
VISUALSTYLE
  5
2A
102
{ACAD_REACTORS
330
29
102
}
330
29
100
AcDbVisualStyle
  2
Flat
 70
     0
177
     3
291
     1
 70
    58
 90
        2
176
     1
 90
        1
176
     1
 90
        1
176
     1
 90
        2
176
     1
 40
0.6
176
     1
 40
30.0
176
     1
 62
     7
420
 16777215
176
     1
 90
        0
176
     1
 90
        0
176
     1
 62
     7
176
     1
 62
   257
176
     1
 90
        1
176
     1
 90
        1
176
     1
 40
1.0
176
     1
 90
        8
176
     1
 62
     7
176
     1
 40
1.0
176
     1
 90
        1
176
     1
 90
        6
176
     1
 90
        2
176
     1
 62
     7
176
     1
 90
        5
176
     1
 90
        0
176
     1
 90
        0
176
     1
290
     0
176
     1
 90
       13
176
     1
 40
0.0
176
     1
 90
        0
176
     1
290
     0
176
     1
290
     1
176
     1
290
     1
176
     1
290
     0
176
     1
290
     0
176
     1
290
     0
176
     1
290
     0
176
     1
290
     0
176
     1
290
     0
176
     1
 90
       50
176
     1
 40
0.0
176
     1
 40
1.0
176
     1
 90
        0
176
     1
 62
    18
420
        0
176
     1
 90
       50
176
     1
 90
        3
176
     1
 62
     5
420
      255
176
     1
290
     0
176
     1
 90
       50
176
     1
 90
       50
176
     1
 90
       50
176
     1
290
     0
176
     1
 90
       50
176
     1
 62
   256
176
     0
 40
1.0
176
     0
 90
        2
176
     1
  1
strokes_ogs.tif
176
     1
290
     0
176
     1
 40
1.0
176
     1
 40
1.0
176
     1
  0
VISUALSTYLE
  5
2B
102
{ACAD_REACTORS
330
29
102
}
330
29
100
AcDbVisualStyle
  2
FlatWithEdges
 70
     1
177
     3
291
     1
 70
    58
 90
        2
176
     1
 90
        1
176
     1
 90
        1
176
     1
 90
        2
176
     1
 40
0.6
176
     1
 40
30.0
176
     1
 62
     7
420
 16777215
176
     1
 90
        1
176
     1
 90
        0
176
     1
 62
     7
176
     1
 62
   257
176
     1
 90
        1
176
     1
 90
        1
176
     1
 40
1.0
176
     1
 90
        0
176
     1
 62
   257
176
     1
 40
1.0
176
     1
 90
        1
176
     1
 90
        6
176
     1
 90
        2
176
     1
 62
     7
176
     1
 90
        5
176
     1
 90
        0
176
     1
 90
        0
176
     1
290
     0
176
     1
 90
       13
176
     1
 40
0.0
176
     1
 90
        0
176
     1
290
     0
176
     1
290
     1
176
     1
290
     1
176
     1
290
     0
176
     1
290
     0
176
     1
290
     0
176
     1
290
     0
176
     1
290
     0
176
     1
290
     0
176
     1
 90
       50
176
     1
 40
0.0
176
     1
 40
1.0
176
     1
 90
        0
176
     1
 62
    18
420
        0
176
     1
 90
       50
176
     1
 90
        3
176
     1
 62
     5
420
      255
176
     1
290
     0
176
     1
 90
       50
176
     1
 90
       50
176
     1
 90
       50
176
     1
290
     0
176
     1
 90
       50
176
     1
 62
   256
176
     0
 40
1.0
176
     0
 90
        2
176
     1
  1
strokes_ogs.tif
176
     1
290
     0
176
     1
 40
1.0
176
     1
 40
1.0
176
     1
  0
VISUALSTYLE
  5
2C
102
{ACAD_REACTORS
330
29
102
}
330
29
100
AcDbVisualStyle
  2
Gouraud
 70
     2
177
     3
291
     1
 70
    58
 90
        2
176
     1
 90
        2
176
     1
 90
        1
176
     1
 90
        2
176
     1
 40
0.6
176
     1
 40
30.0
176
     1
 62
     7
420
 16777215
176
     1
 90
        0
176
     1
 90
        0
176
     1
 62
     7
176
     1
 62
   257
176
     1
 90
        1
176
     1
 90
        1
176
     1
 40
1.0
176
     1
 90
        0
176
     1
 62
     7
176
     1
 40
1.0
176
     1
 90
        1
176
     1
 90
        6
176
     1
 90
        2
176
     1
 62
     7
176
     1
 90
        5
176
     1
 90
        0
176
     1
 90
        0
176
     1
290
     0
176
     1
 90
       13
176
     1
 40
0.0
176
     1
 90
        0
176
     1
290
     0
176
     1
290
     1
176
     1
290
     1
176
     1
290
     0
176
     1
290
     0
176
     1
290
     0
176
     1
290
     0
176
     1
290
     0
176
     1
290
     0
176
     1
 90
       50
176
     1
 40
0.0
176
     1
 40
1.0
176
     1
 90
        0
176
     1
 62
    18
420
        0
176
     1
 90
       50
176
     1
 90
        3
176
     1
 62
     5
420
      255
176
     1
290
     0
176
     1
 90
       50
176
     1
 90
       50
176
     1
 90
       50
176
     1
290
     0
176
     1
 90
       50
176
     1
 62
   256
176
     0
 40
1.0
176
     0
 90
        2
176
     1
  1
strokes_ogs.tif
176
     1
290
     0
176
     1
 40
1.0
176
     1
 40
1.0
176
     1
  0
VISUALSTYLE
  5
2D
102
{ACAD_REACTORS
330
29
102
}
330
29
100
AcDbVisualStyle
  2
GouraudWithEdges
 70
     3
177
     3
291
     1
 70
    58
 90
        2
176
     1
 90
        2
176
     1
 90
        1
176
     1
 90
        2
176
     1
 40
0.6
176
     1
 40
30.0
176
     1
 62
     7
420
 16777215
176
     1
 90
        1
176
     1
 90
        0
176
     1
 62
     7
176
     1
 62
   257
176
     1
 90
        1
176
     1
 90
        1
176
     1
 40
1.0
176
     1
 90
        0
176
     1
 62
   257
176
     1
 40
1.0
176
     1
 90
        1
176
     1
 90
        6
176
     1
 90
        2
176
     1
 62
     7
176
     1
 90
        5
176
     1
 90
        0
176
     1
 90
        0
176
     1
290
     0
176
     1
 90
       13
176
     1
 40
0.0
176
     1
 90
        0
176
     1
290
     0
176
     1
290
     1
176
     1
290
     1
176
     1
290
     0
176
     1
290
     0
176
     1
290
     0
176
     1
290
     0
176
     1
290
     0
176
     1
290
     0
176
     1
 90
       50
176
     1
 40
0.0
176
     1
 40
1.0
176
     1
 90
        0
176
     1
 62
    18
420
        0
176
     1
 90
       50
176
     1
 90
        3
176
     1
 62
     5
420
      255
176
     1
290
     0
176
     1
 90
       50
176
     1
 90
       50
176
     1
 90
       50
176
     1
290
     0
176
     1
 90
       50
176
     1
 62
   256
176
     0
 40
1.0
176
     0
 90
        2
176
     1
  1
strokes_ogs.tif
176
     1
290
     0
176
     1
 40
1.0
176
     1
 40
1.0
176
     1
  0
VISUALSTYLE
  5
31
102
{ACAD_REACTORS
330
29
102
}
330
29
100
AcDbVisualStyle
  2
Hidden
 70
     6
177
     3
291
     0
 70
    58
 90
        1
176
     1
 90
        2
176
     1
 90
        2
176
     1
 90
        0
176
     1
 40
0.6
176
     1
 40
30.0
176
     1
 62
     7
420
 16777215
176
     1
 90
        2
176
     1
 90
        2
176
     1
 62
     7
176
     1
 62
   257
176
     1
 90
        2
176
     1
 90
        1
176
     1
 40
40.0
176
     1
 90
        0
176
     1
 62
   257
176
     1
 40
1.0
176
     1
 90
        1
176
     1
 90
        6
176
     1
 90
        2
176
     1
 62
     7
176
     1
 90
        3
176
     1
 90
        0
176
     1
 90
        0
176
     1
290
     0
176
     1
 90
        1
176
     1
 40
0.0
176
     1
 90
        0
176
     1
290
     0
176
     1
290
     1
176
     1
290
     1
176
     1
290
     0
176
     1
290
     0
176
     1
290
     0
176
     1
290
     0
176
     1
290
     0
176
     1
290
     0
176
     1
 90
       50
176
     1
 40
0.0
176
     1
 40
1.0
176
     1
 90
        0
176
     1
 62
    18
420
        0
176
     1
 90
       50
176
     1
 90
        3
176
     1
 62
     5
420
      255
176
     1
290
     0
176
     1
 90
       50
176
     1
 90
       50
176
     1
 90
       50
176
     1
290
     0
176
     1
 90
       50
176
     1
 62
   256
176
     0
 40
1.0
176
     0
 90
        2
176
     1
  1
strokes_ogs.tif
176
     1
290
     0
176
     1
 40
1.0
176
     1
 40
1.0
176
     1
  0
VISUALSTYLE
  5
3F
102
{ACAD_REACTORS
330
29
102
}
330
29
100
AcDbVisualStyle
  2
JitterOff
 70
    20
177
     3
291
     1
 70
    58
 90
        2
176
     0
 90
        2
176
     0
 90
        0
176
     0
 90
        0
176
     0
 40
0.6
176
     0
 40
30.0
176
     0
 62
     7
420
 16777215
176
     0
 90
        1
176
     0
 90
        4
176
     0
 62
     7
176
     0
 62
   257
176
     0
 90
        1
176
     0
 90
        1
176
     0
 40
1.0
176
     0
 90
       10
176
     2
 62
     7
176
     0
 40
1.0
176
     0
 90
        1
176
     0
 90
        6
176
     0
 90
        2
176
     0
 62
     7
176
     0
 90
        5
176
     0
 90
        0
176
     0
 90
        0
176
     0
290
     0
176
     0
 90
        1
176
     0
 40
0.0
176
     0
 90
        0
176
     0
290
     0
176
     0
290
     1
176
     0
290
     1
176
     0
290
     0
176
     0
290
     0
176
     0
290
     0
176
     0
290
     0
176
     0
290
     0
176
     0
290
     0
176
     0
 90
       50
176
     0
 40
0.0
176
     0
 40
1.0
176
     0
 90
        0
176
     0
 62
    18
420
        0
176
     0
 90
       50
176
     0
 90
        3
176
     0
 62
     5
420
      255
176
     0
290
     0
176
     0
 90
       50
176
     0
 90
       50
176
     0
 90
       50
176
     0
290
     0
176
     0
 90
       50
176
     0
 62
   256
176
     0
 40
1.0
176
     0
 90
        2
176
     0
  1
strokes_ogs.tif
176
     0
290
     0
176
     0
 40
1.0
176
     0
 40
1.0
176
     0
  0
VISUALSTYLE
  5
37
102
{ACAD_REACTORS
330
29
102
}
330
29
100
AcDbVisualStyle
  2
Linepattern
 70
    14
177
     3
291
     1
 70
    58
 90
        2
176
     1
 90
        2
176
     1
 90
        0
176
     1
 90
        0
176
     1
 40
0.6
176
     1
 40
30.0
176
     1
 62
     7
420
 16777215
176
     1
 90
        1
176
     1
 90
        4
176
     1
 62
     7
176
     1
 62
   257
176
     1
 90
        7
176
     1
 90
        7
176
     1
 40
1.0
176
     1
 90
        8
176
     1
 62
     7
176
     1
 40
1.0
176
     1
 90
        1
176
     1
 90
        6
176
     1
 90
        2
176
     1
 62
     7
176
     1
 90
        5
176
     1
 90
        0
176
     1
 90
        0
176
     1
290
     0
176
     1
 90
        1
176
     1
 40
0.0
176
     1
 90
        0
176
     1
290
     0
176
     1
290
     1
176
     1
290
     1
176
     1
290
     0
176
     1
290
     0
176
     1
290
     0
176
     1
290
     0
176
     1
290
     0
176
     1
290
     0
176
     1
 90
       50
176
     1
 40
0.0
176
     1
 40
1.0
176
     1
 90
        0
176
     1
 62
    18
420
        0
176
     1
 90
       50
176
     1
 90
        3
176
     1
 62
     5
420
      255
176
     1
290
     0
176
     1
 90
       50
176
     1
 90
       50
176
     1
 90
       50
176
     1
290
     0
176
     1
 90
       50
176
     1
 62
   256
176
     0
 40
1.0
176
     0
 90
        2
176
     1
  1
strokes_ogs.tif
176
     1
290
     0
176
     1
 40
1.0
176
     1
 40
1.0
176
     1
  0
VISUALSTYLE
  5
40
102
{ACAD_REACTORS
330
29
102
}
330
29
100
AcDbVisualStyle
  2
OverhangOff
 70
    21
177
     3
291
     1
 70
    58
 90
        2
176
     0
 90
        2
176
     0
 90
        0
176
     0
 90
        0
176
     0
 40
0.6
176
     0
 40
30.0
176
     0
 62
     7
420
 16777215
176
     0
 90
        1
176
     0
 90
        4
176
     0
 62
     7
176
     0
 62
   257
176
     0
 90
        1
176
     0
 90
        1
176
     0
 40
1.0
176
     0
 90
        9
176
     2
 62
     7
176
     0
 40
1.0
176
     0
 90
        1
176
     0
 90
        6
176
     0
 90
        2
176
     0
 62
     7
176
     0
 90
        5
176
     0
 90
        0
176
     0
 90
        0
176
     0
290
     0
176
     0
 90
        1
176
     0
 40
0.0
176
     0
 90
        0
176
     0
290
     0
176
     0
290
     1
176
     0
290
     1
176
     0
290
     0
176
     0
290
     0
176
     0
290
     0
176
     0
290
     0
176
     0
290
     0
176
     0
290
     0
176
     0
 90
       50
176
     0
 40
0.0
176
     0
 40
1.0
176
     0
 90
        0
176
     0
 62
    18
420
        0
176
     0
 90
       50
176
     0
 90
        3
176
     0
 62
     5
420
      255
176
     0
290
     0
176
     0
 90
       50
176
     0
 90
       50
176
     0
 90
       50
176
     0
290
     0
176
     0
 90
       50
176
     0
 62
   256
176
     0
 40
1.0
176
     0
 90
        2
176
     0
  1
strokes_ogs.tif
176
     0
290
     0
176
     0
 40
1.0
176
     0
 40
1.0
176
     0
  0
VISUALSTYLE
  5
33
102
{ACAD_REACTORS
330
29
102
}
330
29
100
AcDbVisualStyle
  2
Realistic
 70
     8
177
     3
291
     0
 70
    58
 90
        2
176
     1
 90
        3
176
     1
 90
        0
176
     1
 90
        2
176
     1
 40
0.6
176
     1
 40
30.0
176
     1
 62
     7
420
 16777215
176
     1
 90
        0
176
     1
 90
        0
176
     1
 62
     7
176
     1
 62
   257
176
     1
 90
        1
176
     1
 90
        1
176
     1
 40
1.0
176
     1
 90
        8
176
     1
 62
   257
176
     1
 40
1.0
176
     1
 90
        1
176
     1
 90
        6
176
     1
 90
        2
176
     1
 62
     7
176
     1
 90
        3
176
     1
 90
        0
176
     1
 90
        0
176
     1
290
     0
176
     1
 90
       13
176
     1
 40
0.0
176
     1
 90
        0
176
     1
290
     0
176
     1
290
     1
176
     1
290
     1
176
     1
290
     0
176
     1
290
     0
176
     1
290
     0
176
     1
290
     0
176
     1
290
     0
176
     1
290
     0
176
     1
 90
       50
176
     1
 40
0.0
176
     1
 40
1.0
176
     1
 90
        0
176
     1
 62
    18
420
        0
176
     1
 90
       50
176
     1
 90
        3
176
     1
 62
     5
420
      255
176
     1
290
     0
176
     1
 90
       50
176
     1
 90
       50
176
     1
 90
       50
176
     1
290
     0
176
     1
 90
       50
176
     1
 62
   256
176
     0
 40
1.0
176
     0
 90
        2
176
     1
  1
strokes_ogs.tif
176
     1
290
     0
176
     1
 40
1.0
176
     1
 40
1.0
176
     1
  0
VISUALSTYLE
  5
3E
102
{ACAD_REACTORS
330
29
102
}
330
29
100
AcDbVisualStyle
  2
Shaded
 70
    27
177
     3
291
     0
 70
    58
 90
        2
176
     1
 90
        2
176
     1
 90
        1
176
     1
 90
        2
176
     1
 40
0.6
176
     1
 40
30.0
176
     1
 62
     7
420
 16777215
176
     1
 90
        0
176
     1
 90
        4
176
     1
 62
     7
176
     1
 62
   257
176
     1
 90
        1
176
     1
 90
        1
176
     1
 40
1.0
176
     1
 90
        8
176
     1
 62
   257
176
     1
 40
1.0
176
     1
 90
        1
176
     1
 90
        6
176
     1
 90
        2
176
     1
 62
     8
420
  7895160
176
     1
 90
        3
176
     1
 90
        0
176
     1
 90
        0
176
     1
290
     0
176
     1
 90
        5
176
     1
 40
0.0
176
     1
 90
        0
176
     1
290
     0
176
     1
290
     1
176
     1
290
     1
176
     1
290
     0
176
     1
290
     0
176
     1
290
     0
176
     1
290
     0
176
     1
290
     0
176
     1
290
     0
176
     1
 90
       50
176
     1
 40
0.0
176
     1
 40
1.0
176
     1
 90
        0
176
     1
 62
    18
420
        0
176
     1
 90
       50
176
     1
 90
        3
176
     1
 62
     5
420
      255
176
     1
290
     0
176
     1
 90
       50
176
     1
 90
       50
176
     1
 90
       50
176
     1
290
     0
176
     1
 90
       50
176
     1
 62
   256
176
     0
 40
1.0
176
     0
 90
        2
176
     1
  1
strokes_ogs.tif
176
     1
290
     0
176
     1
 40
1.0
176
     1
 40
1.0
176
     1
  0
VISUALSTYLE
  5
3D
102
{ACAD_REACTORS
330
29
102
}
330
29
100
AcDbVisualStyle
  2
Shaded with edges
 70
    26
177
     3
291
     0
 70
    58
 90
        2
176
     1
 90
        2
176
     1
 90
        1
176
     1
 90
        2
176
     1
 40
0.6
176
     1
 40
30.0
176
     1
 62
     7
420
 16777215
176
     1
 90
        1
176
     1
 90
       10
176
     1
 62
     7
176
     1
 62
   257
176
     1
 90
        2
176
     1
 90
        1
176
     1
 40
1.0
176
     1
 90
        8
176
     1
 62
   257
176
     1
 40
1.0
176
     1
 90
        1
176
     1
 90
        6
176
     1
 90
        2
176
     1
 62
     7
176
     1
 90
        3
176
     1
 90
        0
176
     1
 90
        0
176
     1
290
     0
176
     1
 90
        5
176
     1
 40
0.0
176
     1
 90
        0
176
     1
290
     0
176
     1
290
     1
176
     1
290
     1
176
     1
290
     0
176
     1
290
     0
176
     1
290
     0
176
     1
290
     0
176
     1
290
     0
176
     1
290
     0
176
     1
 90
       50
176
     1
 40
0.0
176
     1
 40
1.0
176
     1
 90
        0
176
     1
 62
    18
420
        0
176
     1
 90
       50
176
     1
 90
        3
176
     1
 62
     5
420
      255
176
     1
290
     0
176
     1
 90
       50
176
     1
 90
       50
176
     1
 90
       50
176
     1
290
     0
176
     1
 90
       50
176
     1
 62
   256
176
     0
 40
1.0
176
     0
 90
        2
176
     1
  1
strokes_ogs.tif
176
     1
290
     0
176
     1
 40
1.0
176
     1
 40
1.0
176
     1
  0
VISUALSTYLE
  5
3A
102
{ACAD_REACTORS
330
29
102
}
330
29
100
AcDbVisualStyle
  2
Shades of Gray
 70
    23
177
     3
291
     0
 70
    58
 90
        2
176
     1
 90
        2
176
     1
 90
        3
176
     1
 90
        0
176
     1
 40
0.6
176
     1
 40
30.0
176
     1
 62
     7
420
 16777215
176
     1
 90
        2
176
     1
 90
        2
176
     1
 62
     7
176
     1
 62
     7
176
     1
 90
        1
176
     1
 90
        1
176
     1
 40
40.0
176
     1
 90
        8
176
     1
 62
     7
176
     1
 40
1.0
176
     1
 90
        1
176
     1
 90
        6
176
     1
 90
        2
176
     1
 62
     7
176
     1
 90
        3
176
     1
 90
        0
176
     1
 90
        0
176
     1
290
     0
176
     1
 90
        1
176
     1
 40
0.0
176
     1
 90
        0
176
     1
290
     0
176
     1
290
     1
176
     1
290
     1
176
     1
290
     0
176
     1
290
     0
176
     1
290
     0
176
     1
290
     0
176
     1
290
     0
176
     1
290
     0
176
     1
 90
       50
176
     1
 40
0.0
176
     1
 40
1.0
176
     1
 90
        0
176
     1
 62
    18
420
        0
176
     1
 90
       50
176
     1
 90
        3
176
     1
 62
     5
420
      255
176
     1
290
     0
176
     1
 90
       50
176
     1
 90
       50
176
     1
 90
       50
176
     1
290
     0
176
     1
 90
       50
176
     1
 62
   256
176
     0
 40
1.0
176
     0
 90
        2
176
     1
  1
strokes_ogs.tif
176
     1
290
     0
176
     1
 40
1.0
176
     1
 40
1.0
176
     1
  0
VISUALSTYLE
  5
3B
102
{ACAD_REACTORS
330
29
102
}
330
29
100
AcDbVisualStyle
  2
Sketchy
 70
    24
177
     3
291
     0
 70
    58
 90
        1
176
     1
 90
        2
176
     1
 90
        2
176
     1
 90
        0
176
     1
 40
0.6
176
     1
 40
30.0
176
     1
 62
     7
420
 16777215
176
     1
 90
        2
176
     1
 90
        2
176
     1
 62
     7
176
     1
 62
     7
176
     1
 90
        1
176
     1
 90
        1
176
     1
 40
40.0
176
     1
 90
       11
176
     1
 62
     7
176
     1
 40
1.0
176
     1
 90
        1
176
     1
 90
        6
176
     1
 90
        2
176
     1
 62
     7
176
     1
 90
        6
176
     1
 90
        0
176
     1
 90
        0
176
     1
290
     0
176
     1
 90
        1
176
     1
 40
0.0
176
     1
 90
        0
176
     1
290
     0
176
     1
290
     1
176
     1
290
     1
176
     1
290
     0
176
     1
290
     0
176
     1
290
     0
176
     1
290
     0
176
     1
290
     0
176
     1
290
     0
176
     1
 90
       50
176
     1
 40
0.0
176
     1
 40
1.0
176
     1
 90
        0
176
     1
 62
    18
420
        0
176
     1
 90
       50
176
     1
 90
        3
176
     1
 62
     5
420
      255
176
     1
290
     0
176
     1
 90
       50
176
     1
 90
       50
176
     1
 90
       50
176
     1
290
     0
176
     1
 90
       50
176
     1
 62
   256
176
     0
 40
1.0
176
     0
 90
        2
176
     1
  1
strokes_ogs.tif
176
     1
290
     0
176
     1
 40
1.0
176
     1
 40
1.0
176
     1
  0
VISUALSTYLE
  5
36
102
{ACAD_REACTORS
330
29
102
}
330
29
100
AcDbVisualStyle
  2
Thicken
 70
    13
177
     3
291
     1
 70
    58
 90
        2
176
     1
 90
        2
176
     1
 90
        0
176
     1
 90
        0
176
     1
 40
0.6
176
     1
 40
30.0
176
     1
 62
     7
420
 16777215
176
     1
 90
        1
176
     1
 90
        4
176
     1
 62
     7
176
     1
 62
   257
176
     1
 90
        1
176
     1
 90
        1
176
     1
 40
1.0
176
     1
 90
       12
176
     1
 62
     7
176
     1
 40
1.0
176
     1
 90
        1
176
     1
 90
        6
176
     1
 90
        2
176
     1
 62
     7
176
     1
 90
        5
176
     1
 90
        0
176
     1
 90
        0
176
     1
290
     0
176
     1
 90
        1
176
     1
 40
0.0
176
     1
 90
        0
176
     1
290
     0
176
     1
290
     1
176
     1
290
     1
176
     1
290
     0
176
     1
290
     0
176
     1
290
     0
176
     1
290
     0
176
     1
290
     0
176
     1
290
     0
176
     1
 90
       50
176
     1
 40
0.0
176
     1
 40
1.0
176
     1
 90
        0
176
     1
 62
    18
420
        0
176
     1
 90
       50
176
     1
 90
        3
176
     1
 62
     5
420
      255
176
     1
290
     0
176
     1
 90
       50
176
     1
 90
       50
176
     1
 90
       50
176
     1
290
     0
176
     1
 90
       50
176
     1
 62
   256
176
     0
 40
1.0
176
     0
 90
        2
176
     1
  1
strokes_ogs.tif
176
     1
290
     0
176
     1
 40
1.0
176
     1
 40
1.0
176
     1
  0
VISUALSTYLE
  5
30
102
{ACAD_REACTORS
330
29
102
}
330
29
100
AcDbVisualStyle
  2
Wireframe
 70
     5
177
     3
291
     0
 70
    58
 90
        0
176
     1
 90
        2
176
     1
 90
        0
176
     1
 90
        0
176
     1
 40
0.6
176
     1
 40
30.0
176
     1
 62
     7
420
 16777215
176
     1
 90
        1
176
     1
 90
        4
176
     1
 62
     7
176
     1
 62
   257
176
     1
 90
        1
176
     1
 90
        1
176
     1
 40
1.0
176
     1
 90
        0
176
     1
 62
   257
176
     1
 40
1.0
176
     1
 90
        1
176
     1
 90
        6
176
     1
 90
        2
176
     1
 62
     7
176
     1
 90
        3
176
     1
 90
        0
176
     1
 90
        0
176
     1
290
     0
176
     1
 90
        1
176
     1
 40
0.0
176
     1
 90
        0
176
     1
290
     0
176
     1
290
     1
176
     1
290
     1
176
     1
290
     0
176
     1
290
     0
176
     1
290
     0
176
     1
290
     0
176
     1
290
     0
176
     1
290
     0
176
     1
 90
       50
176
     1
 40
0.0
176
     1
 40
1.0
176
     1
 90
        0
176
     1
 62
    18
420
        0
176
     1
 90
       50
176
     1
 90
        3
176
     1
 62
     5
420
      255
176
     1
290
     0
176
     1
 90
       50
176
     1
 90
       50
176
     1
 90
       50
176
     1
290
     0
176
     1
 90
       50
176
     1
 62
   256
176
     0
 40
1.0
176
     0
 90
        2
176
     1
  1
strokes_ogs.tif
176
     1
290
     0
176
     1
 40
1.0
176
     1
 40
1.0
176
     1
  0
VISUALSTYLE
  5
3C
102
{ACAD_REACTORS
330
29
102
}
330
29
100
AcDbVisualStyle
  2
X-Ray
 70
    25
177
     3
291
     0
 70
    58
 90
        2
176
     1
 90
        2
176
     1
 90
        1
176
     1
 90
        1
176
     1
 40
0.5
176
     1
 40
30.0
176
     1
 62
     7
420
 16777215
176
     1
 90
        1
176
     1
 90
        0
176
     1
 62
     7
176
     1
 62
   257
176
     1
 90
        1
176
     1
 90
        1
176
     1
 40
1.0
176
     1
 90
        8
176
     1
 62
     7
176
     1
 40
1.0
176
     1
 90
        1
176
     1
 90
        6
176
     1
 90
        2
176
     1
 62
     7
176
     1
 90
        3
176
     1
 90
        0
176
     1
 90
        0
176
     1
290
     0
176
     1
 90
       13
176
     1
 40
0.0
176
     1
 90
        0
176
     1
290
     0
176
     1
290
     1
176
     1
290
     1
176
     1
290
     0
176
     1
290
     0
176
     1
290
     0
176
     1
290
     0
176
     1
290
     0
176
     1
290
     0
176
     1
 90
       50
176
     1
 40
0.0
176
     1
 40
1.0
176
     1
 90
        0
176
     1
 62
    18
420
        0
176
     1
 90
       50
176
     1
 90
        3
176
     1
 62
     5
420
      255
176
     1
290
     0
176
     1
 90
       50
176
     1
 90
       50
176
     1
 90
       50
176
     1
290
     0
176
     1
 90
       50
176
     1
 62
   256
176
     0
 40
1.0
176
     0
 90
        2
176
     1
  1
strokes_ogs.tif
176
     1
290
     0
176
     1
 40
1.0
176
     1
 40
1.0
176
     1
  0
DICTIONARYVAR
  5
81
102
{ACAD_REACTORS
330
7C
102
}
330
7C
100
DictionaryVariables
280
     0
  1
1:1
  0
DICTIONARYVAR
  5
7E
102
{ACAD_REACTORS
330
7C
102
}
330
7C
100
DictionaryVariables
280
     0
  1
STANDARD
  0
DICTIONARYVAR
  5
7D
102
{ACAD_REACTORS
330
7C
102
}
330
7C
100
DictionaryVariables
280
     0
  1
STANDARD
  0
DICTIONARYVAR
  5
7F
102
{ACAD_REACTORS
330
7C
102
}
330
7C
100
DictionaryVariables
280
     0
  1
Imperial24
  0
DICTIONARYVAR
  5
80
102
{ACAD_REACTORS
330
7C
102
}
330
7C
100
DictionaryVariables
280
     0
  1
Imperial24
  0
XRECORD
  5
3B4
102
{ACAD_REACTORS
330
3B1
102
}
330
3B1
100
AcDbXrecord
280
     1
  1
BUILDING_ID
  1
Progetto per messa in tavola DXF, DWG
  1
FLOOR_ID
  1
694395
  0
XRECORD
  5
3B3
102
{ACAD_REACTORS
330
3B1
102
}
330
3B1
100
AcDbXrecord
280
     1
  1
-2001160
  1
Apparecchi idraulici
  0
XRECORD
  5
3B2
102
{ACAD_REACTORS
330
3B1
102
}
330
3B1
100
AcDbXrecord
280
     1
  1
859151
  1
Automatic flow rate regulator valve_Caleffi_121 DN15 : 1/2''
  0
DICTIONARY
  5
1A
330
19
100
AcDbDictionary
280
     1
281
     1
  3
BUMPTILE
360
1C
  3
DIFFUSETILE
360
1B
  3
OPACITYTILE
360
1F
  3
REFLECTIONTILE
360
1E
  3
REFRACTIONTILE
360
20
  3
SPECULARTILE
360
1D
  0
DICTIONARY
  5
12
330
11
100
AcDbDictionary
280
     1
281
     1
  3
BUMPTILE
360
14
  3
DIFFUSETILE
360
13
  3
OPACITYTILE
360
17
  3
REFLECTIONTILE
360
16
  3
REFRACTIONTILE
360
18
  3
SPECULARTILE
360
15
  0
DICTIONARY
  5
22
330
21
100
AcDbDictionary
280
     1
281
     1
  3
BUMPTILE
360
24
  3
DIFFUSETILE
360
23
  3
OPACITYTILE
360
27
  3
REFLECTIONTILE
360
26
  3
REFRACTIONTILE
360
28
  3
SPECULARTILE
360
25
  0
DICTIONARY
  5
3B7
330
65
100
AcDbDictionary
280
     1
281
     1
  3
ACAD_ROUNDTRIP_2008_TABLESTYLE_CELLSTYLEMAP
360
3B8
  0
XRECORD
  5
1C
102
{ACAD_REACTORS
330
1A
102
}
330
1A
100
AcDbXrecord
280
     1
270
     1
271
     1
  0
XRECORD
  5
1B
102
{ACAD_REACTORS
330
1A
102
}
330
1A
100
AcDbXrecord
280
     1
270
     1
271
     1
  0
XRECORD
  5
1F
102
{ACAD_REACTORS
330
1A
102
}
330
1A
100
AcDbXrecord
280
     1
270
     1
271
     1
  0
XRECORD
  5
1E
102
{ACAD_REACTORS
330
1A
102
}
330
1A
100
AcDbXrecord
280
     1
270
     1
271
     1
  0
XRECORD
  5
20
102
{ACAD_REACTORS
330
1A
102
}
330
1A
100
AcDbXrecord
280
     1
270
     1
271
     1
  0
XRECORD
  5
1D
102
{ACAD_REACTORS
330
1A
102
}
330
1A
100
AcDbXrecord
280
     1
270
     1
271
     1
  0
XRECORD
  5
14
102
{ACAD_REACTORS
330
12
102
}
330
12
100
AcDbXrecord
280
     1
270
     1
271
     1
  0
XRECORD
  5
13
102
{ACAD_REACTORS
330
12
102
}
330
12
100
AcDbXrecord
280
     1
270
     1
271
     1
  0
XRECORD
  5
17
102
{ACAD_REACTORS
330
12
102
}
330
12
100
AcDbXrecord
280
     1
270
     1
271
     1
  0
XRECORD
  5
16
102
{ACAD_REACTORS
330
12
102
}
330
12
100
AcDbXrecord
280
     1
270
     1
271
     1
  0
XRECORD
  5
18
102
{ACAD_REACTORS
330
12
102
}
330
12
100
AcDbXrecord
280
     1
270
     1
271
     1
  0
XRECORD
  5
15
102
{ACAD_REACTORS
330
12
102
}
330
12
100
AcDbXrecord
280
     1
270
     1
271
     1
  0
XRECORD
  5
24
102
{ACAD_REACTORS
330
22
102
}
330
22
100
AcDbXrecord
280
     1
270
     1
271
     1
  0
XRECORD
  5
23
102
{ACAD_REACTORS
330
22
102
}
330
22
100
AcDbXrecord
280
     1
270
     1
271
     1
  0
XRECORD
  5
27
102
{ACAD_REACTORS
330
22
102
}
330
22
100
AcDbXrecord
280
     1
270
     1
271
     1
  0
XRECORD
  5
26
102
{ACAD_REACTORS
330
22
102
}
330
22
100
AcDbXrecord
280
     1
270
     1
271
     1
  0
XRECORD
  5
28
102
{ACAD_REACTORS
330
22
102
}
330
22
100
AcDbXrecord
280
     1
270
     1
271
     1
  0
XRECORD
  5
25
102
{ACAD_REACTORS
330
22
102
}
330
22
100
AcDbXrecord
280
     1
270
     1
271
     1
  0
CELLSTYLEMAP
  5
3B8
102
{ACAD_REACTORS
330
3B7
102
}
330
3B7
100
AcDbCellStyleMap
 90
        3
300
CELLSTYLE
  1
TABLEFORMAT_BEGIN
 90
        5
170
     1
 91
        0
 92
    32768
 62
   257
 93
        1
300
CONTENTFORMAT
  1
CONTENTFORMAT_BEGIN
 90
        0
 91
        0
 92
      512
 93
        0
300

 40
0.0
140
1.0
 94
        5
 62
     0
340
55
144
0.25
309
CONTENTFORMAT_END
171
     0
 94
        0
309
TABLEFORMAT_END
  1
CELLSTYLE_BEGIN
 90
        1
 91
        1
300
_TITLE
309
CELLSTYLE_END
300
CELLSTYLE
  1
TABLEFORMAT_BEGIN
 90
        5
170
     1
 91
        0
 92
        0
 62
   257
 93
        1
300
CONTENTFORMAT
  1
CONTENTFORMAT_BEGIN
 90
        0
 91
        0
 92
      512
 93
        0
300

 40
0.0
140
1.0
 94
        5
 62
     0
340
55
144
0.18
309
CONTENTFORMAT_END
171
     0
 94
        0
309
TABLEFORMAT_END
  1
CELLSTYLE_BEGIN
 90
        2
 91
        1
300
_HEADER
309
CELLSTYLE_END
300
CELLSTYLE
  1
TABLEFORMAT_BEGIN
 90
        5
170
     1
 91
        0
 92
        0
 62
   257
 93
        1
300
CONTENTFORMAT
  1
CONTENTFORMAT_BEGIN
 90
        0
 91
        0
 92
      512
 93
        0
300

 40
0.0
140
1.0
 94
        2
 62
     0
340
55
144
0.18
309
CONTENTFORMAT_END
171
     0
 94
        0
309
TABLEFORMAT_END
  1
CELLSTYLE_BEGIN
 90
        3
 91
        2
300
_DATA
309
CELLSTYLE_END
  0
ENDSEC
  0
EOF
