  0
SECTION
  2
HEADER
  9
$ACADVER
  1
AC1027
  9
$ACADMAINTVER
 70
    20
  9
$DWGCODEPAGE
  3
ANSI_1252
  9
$REQUIREDVERSIONS
160
                 0
  9
$INSBASE
 10
0.0
 20
0.0
 30
0.0
  9
$EXTMIN
 10
746.3624518080584
 20
1682.443120209091
 30
-0.00000001
  9
$EXTMAX
 10
1194.667112454057
 20
2146.419060616105
 30
0.00000001
  9
$LIMMIN
 10
0.0
 20
0.0
  9
$LIMMAX
 10
12.0
 20
9.0
  9
$ORTHOMODE
 70
     0
  9
$REGENMODE
 70
     1
  9
$FILLMODE
 70
     1
  9
$QTEXTMODE
 70
     0
  9
$MIRRTEXT
 70
     0
  9
$LTSCALE
 40
1.0
  9
$ATTMODE
 70
     1
  9
$TEXTSIZE
 40
0.2
  9
$TRACEWID
 40
0.05
  9
$TEXTSTYLE
  7
Standard
  9
$CLAYER
  8
0
  9
$CELTYPE
  6
ByLayer
  9
$CECOLOR
 62
   256
  9
$CELTSCALE
 40
1.0
  9
$DISPSILH
 70
     0
  9
$DIMSCALE
 40
1.0
  9
$DIMASZ
 40
0.18
  9
$DIMEXO
 40
0.0625
  9
$DIMDLI
 40
0.38
  9
$DIMRND
 40
0.0
  9
$DIMDLE
 40
0.0
  9
$DIMEXE
 40
0.18
  9
$DIMTP
 40
0.0
  9
$DIMTM
 40
0.0
  9
$DIMTXT
 40
0.18
  9
$DIMCEN
 40
0.09
  9
$DIMTSZ
 40
0.0
  9
$DIMTOL
 70
     0
  9
$DIMLIM
 70
     0
  9
$DIMTIH
 70
     1
  9
$DIMTOH
 70
     1
  9
$DIMSE1
 70
     0
  9
$DIMSE2
 70
     0
  9
$DIMTAD
 70
     0
  9
$DIMZIN
 70
     0
  9
$DIMBLK
  1

  9
$DIMASO
 70
     1
  9
$DIMSHO
 70
     1
  9
$DIMPOST
  1

  9
$DIMAPOST
  1

  9
$DIMALT
 70
     0
  9
$DIMALTD
 70
     2
  9
$DIMALTF
 40
25.4
  9
$DIMLFAC
 40
1.0
  9
$DIMTOFL
 70
     0
  9
$DIMTVP
 40
0.0
  9
$DIMTIX
 70
     0
  9
$DIMSOXD
 70
     0
  9
$DIMSAH
 70
     0
  9
$DIMBLK1
  1

  9
$DIMBLK2
  1

  9
$DIMSTYLE
  2
Standard
  9
$DIMCLRD
 70
     0
  9
$DIMCLRE
 70
     0
  9
$DIMCLRT
 70
     0
  9
$DIMTFAC
 40
1.0
  9
$DIMGAP
 40
0.09
  9
$DIMJUST
 70
     0
  9
$DIMSD1
 70
     0
  9
$DIMSD2
 70
     0
  9
$DIMTOLJ
 70
     1
  9
$DIMTZIN
 70
     0
  9
$DIMALTZ
 70
     0
  9
$DIMALTTZ
 70
     0
  9
$DIMUPT
 70
     0
  9
$DIMDEC
 70
     4
  9
$DIMTDEC
 70
     4
  9
$DIMALTU
 70
     2
  9
$DIMALTTD
 70
     2
  9
$DIMTXSTY
  7
Standard
  9
$DIMAUNIT
 70
     0
  9
$DIMADEC
 70
     0
  9
$DIMALTRND
 40
0.0
  9
$DIMAZIN
 70
     0
  9
$DIMDSEP
 70
    46
  9
$DIMATFIT
 70
     3
  9
$DIMFRAC
 70
     0
  9
$DIMLDRBLK
  1

  9
$DIMLUNIT
 70
     2
  9
$DIMLWD
 70
    -2
  9
$DIMLWE
 70
    -2
  9
$DIMTMOVE
 70
     0
  9
$DIMFXL
 40
1.0
  9
$DIMFXLON
 70
     0
  9
$DIMJOGANG
 40
0.7853981633974483
  9
$DIMTFILL
 70
     0
  9
$DIMTFILLCLR
 70
     0
  9
$DIMARCSYM
 70
     0
  9
$DIMLTYPE
  6

  9
$DIMLTEX1
  6

  9
$DIMLTEX2
  6

  9
$DIMTXTDIRECTION
 70
     0
  9
$LUNITS
 70
     2
  9
$LUPREC
 70
     4
  9
$SKETCHINC
 40
0.1
  9
$FILLETRAD
 40
0.0
  9
$AUNITS
 70
     0
  9
$AUPREC
 70
     0
  9
$MENU
  1
.
  9
$ELEVATION
 40
0.0
  9
$PELEVATION
 40
0.0
  9
$THICKNESS
 40
0.0
  9
$LIMCHECK
 70
     0
  9
$CHAMFERA
 40
0.0
  9
$CHAMFERB
 40
0.0
  9
$CHAMFERC
 40
0.0
  9
$CHAMFERD
 40
0.0
  9
$SKPOLY
 70
     0
  9
$TDCREATE
 40
2457569.599651748
  9
$TDUCREATE
 40
2457569.516318415
  9
$TDUPDATE
 40
2457569.599651748
  9
$TDUUPDATE
 40
2457569.516318415
  9
$TDINDWG
 40
0.0000099537
  9
$TDUSRTIMER
 40
0.0000099537
  9
$USRTIMER
 70
     1
  9
$ANGBASE
 50
0.0
  9
$ANGDIR
 70
     0
  9
$PDMODE
 70
     0
  9
$PDSIZE
 40
0.0
  9
$PLINEWID
 40
0.0
  9
$SPLFRAME
 70
     0
  9
$SPLINETYPE
 70
     6
  9
$SPLINESEGS
 70
     8
  9
$HANDSEED
  5
23A
  9
$SURFTAB1
 70
     6
  9
$SURFTAB2
 70
     6
  9
$SURFTYPE
 70
     6
  9
$SURFU
 70
     6
  9
$SURFV
 70
     6
  9
$UCSBASE
  2

  9
$UCSNAME
  2

  9
$UCSORG
 10
0.0
 20
0.0
 30
0.0
  9
$UCSXDIR
 10
1.0
 20
0.0
 30
0.0
  9
$UCSYDIR
 10
0.0
 20
1.0
 30
0.0
  9
$UCSORTHOREF
  2

  9
$UCSORTHOVIEW
 70
     0
  9
$UCSORGTOP
 10
0.0
 20
0.0
 30
0.0
  9
$UCSORGBOTTOM
 10
0.0
 20
0.0
 30
0.0
  9
$UCSORGLEFT
 10
0.0
 20
0.0
 30
0.0
  9
$UCSORGRIGHT
 10
0.0
 20
0.0
 30
0.0
  9
$UCSORGFRONT
 10
0.0
 20
0.0
 30
0.0
  9
$UCSORGBACK
 10
0.0
 20
0.0
 30
0.0
  9
$PUCSBASE
  2

  9
$PUCSNAME
  2

  9
$PUCSORG
 10
0.0
 20
0.0
 30
0.0
  9
$PUCSXDIR
 10
1.0
 20
0.0
 30
0.0
  9
$PUCSYDIR
 10
0.0
 20
1.0
 30
0.0
  9
$PUCSORTHOREF
  2

  9
$PUCSORTHOVIEW
 70
     0
  9
$PUCSORGTOP
 10
0.0
 20
0.0
 30
0.0
  9
$PUCSORGBOTTOM
 10
0.0
 20
0.0
 30
0.0
  9
$PUCSORGLEFT
 10
0.0
 20
0.0
 30
0.0
  9
$PUCSORGRIGHT
 10
0.0
 20
0.0
 30
0.0
  9
$PUCSORGFRONT
 10
0.0
 20
0.0
 30
0.0
  9
$PUCSORGBACK
 10
0.0
 20
0.0
 30
0.0
  9
$USERI1
 70
     0
  9
$USERI2
 70
     0
  9
$USERI3
 70
     0
  9
$USERI4
 70
     0
  9
$USERI5
 70
     0
  9
$USERR1
 40
0.0
  9
$USERR2
 40
0.0
  9
$USERR3
 40
0.0
  9
$USERR4
 40
0.0
  9
$USERR5
 40
0.0
  9
$WORLDVIEW
 70
     1
  9
$SHADEDGE
 70
     3
  9
$SHADEDIF
 70
    70
  9
$TILEMODE
 70
     1
  9
$MAXACTVP
 70
    64
  9
$PINSBASE
 10
0.0
 20
0.0
 30
0.0
  9
$PLIMCHECK
 70
     0
  9
$PEXTMIN
 10
1.000000000000000E+20
 20
1.000000000000000E+20
 30
1.000000000000000E+20
  9
$PEXTMAX
 10
-1.000000000000000E+20
 20
-1.000000000000000E+20
 30
-1.000000000000000E+20
  9
$PLIMMIN
 10
0.0
 20
0.0
  9
$PLIMMAX
 10
12.0
 20
9.0
  9
$UNITMODE
 70
     0
  9
$VISRETAIN
 70
     1
  9
$PLINEGEN
 70
     0
  9
$PSLTSCALE
 70
     1
  9
$TREEDEPTH
 70
  3020
  9
$CMLSTYLE
  2
Standard
  9
$CMLJUST
 70
     0
  9
$CMLSCALE
 40
1.0
  9
$PROXYGRAPHICS
 70
     1
  9
$MEASUREMENT
 70
     1
  9
$CELWEIGHT
370
    -1
  9
$ENDCAPS
280
     0
  9
$JOINSTYLE
280
     0
  9
$LWDISPLAY
290
     0
  9
$INSUNITS
 70
     4
  9
$HYPERLINKBASE
  1

  9
$STYLESHEET
  1

  9
$XEDIT
290
     1
  9
$CEPSNTYPE
380
     0
  9
$PSTYLEMODE
290
     1
  9
$FINGERPRINTGUID
  2
{085E1EE4-4771-4075-8BD8-00A2FC4804DC}
  9
$VERSIONGUID
  2
{1B5A8958-0DD8-43D9-AD2B-3687B6ED166A}
  9
$EXTNAMES
290
     1
  9
$PSVPSCALE
 40
0.0
  9
$OLESTARTUP
290
     0
  9
$SORTENTS
280
   127
  9
$INDEXCTL
280
     0
  9
$HIDETEXT
280
     1
  9
$XCLIPFRAME
280
     2
  9
$HALOGAP
280
     0
  9
$OBSCOLOR
 70
   257
  9
$OBSLTYPE
280
     0
  9
$INTERSECTIONDISPLAY
280
     0
  9
$INTERSECTIONCOLOR
 70
   257
  9
$DIMASSOC
280
     2
  9
$PROJECTNAME
  1

  9
$CAMERADISPLAY
290
     0
  9
$LENSLENGTH
 40
50.0
  9
$CAMERAHEIGHT
 40
0.0
  9
$STEPSPERSEC
 40
2.0
  9
$STEPSIZE
 40
6.0
  9
$3DDWFPREC
 40
2.0
  9
$PSOLWIDTH
 40
0.25
  9
$PSOLHEIGHT
 40
4.0
  9
$LOFTANG1
 40
1.570796326794896
  9
$LOFTANG2
 40
1.570796326794896
  9
$LOFTMAG1
 40
0.0
  9
$LOFTMAG2
 40
0.0
  9
$LOFTPARAM
 70
     7
  9
$LOFTNORMALS
280
     1
  9
$LATITUDE
 40
37.795
  9
$LONGITUDE
 40
-122.394
  9
$NORTHDIRECTION
 40
0.0
  9
$TIMEZONE
 70
 -8000
  9
$LIGHTGLYPHDISPLAY
280
     1
  9
$TILEMODELIGHTSYNCH
280
     1
  9
$CMATERIAL
347
11
  9
$SOLIDHIST
280
     0
  9
$SHOWHIST
280
     1
  9
$DWFFRAME
280
     2
  9
$DGNFRAME
280
     0
  9
$REALWORLDSCALE
290
     1
  9
$INTERFERECOLOR
 62
     1
  9
$INTERFEREOBJVS
345
33
  9
$INTERFEREVPVS
346
30
  9
$CSHADOW
280
     0
  9
$SHADOWPLANELOCATION
 40
0.0
  0
ENDSEC
  0
SECTION
  2
CLASSES
  0
CLASS
  1
ACDBDICTIONARYWDFLT
  2
AcDbDictionaryWithDefault
  3
ObjectDBX Classes
 90
        0
 91
        1
280
     0
281
     0
  0
CLASS
  1
MATERIAL
  2
AcDbMaterial
  3
ObjectDBX Classes
 90
     1153
 91
        3
280
     0
281
     0
  0
CLASS
  1
VISUALSTYLE
  2
AcDbVisualStyle
  3
ObjectDBX Classes
 90
     4095
 91
       24
280
     0
281
     0
  0
CLASS
  1
SCALE
  2
AcDbScale
  3
ObjectDBX Classes
 90
     1153
 91
       17
280
     0
281
     0
  0
CLASS
  1
TABLESTYLE
  2
AcDbTableStyle
  3
ObjectDBX Classes
 90
     4095
 91
        1
280
     0
281
     0
  0
CLASS
  1
MLEADERSTYLE
  2
AcDbMLeaderStyle
  3
ACDB_MLEADERSTYLE_CLASS
 90
     4095
 91
        1
280
     0
281
     0
  0
CLASS
  1
ACDBSECTIONVIEWSTYLE
  2
AcDbSectionViewStyle
  3
ObjectDBX Classes
 90
     1025
 91
        1
280
     0
281
     0
  0
CLASS
  1
ACDBDETAILVIEWSTYLE
  2
AcDbDetailViewStyle
  3
ObjectDBX Classes
 90
     1025
 91
        1
280
     0
281
     0
  0
CLASS
  1
RASTERVARIABLES
  2
AcDbRasterVariables
  3
ISM
 90
        0
 91
        1
280
     0
281
     0
  0
CLASS
  1
DICTIONARYVAR
  2
AcDbDictionaryVar
  3
ObjectDBX Classes
 90
        0
 91
        5
280
     0
281
     0
  0
CLASS
  1
CELLSTYLEMAP
  2
AcDbCellStyleMap
  3
ObjectDBX Classes
 90
     1152
 91
        2
280
     0
281
     0
  0
CLASS
  1
SORTENTSTABLE
  2
AcDbSortentsTable
  3
ObjectDBX Classes
 90
        0
 91
        1
280
     0
281
     0
  0
ENDSEC
  0
SECTION
  2
TABLES
  0
TABLE
  2
VPORT
  5
8
330
0
100
AcDbSymbolTable
 70
     1
  0
VPORT
  5
57
330
8
100
AcDbSymbolTableRecord
100
AcDbViewportTableRecord
  2
*Active
 70
     0
 10
0.0
 20
0.0
 11
1.0
 21
1.0
 12
970.5147821310577
 22
1914.431090412598
 13
0.0
 23
0.0
 14
1.0
 24
1.0
 15
0.0
 25
0.0
 16
0.0
 26
0.0
 36
1.0
 17
0.0
 27
0.0
 37
0.0
 40
463.9759404070139
 41
0.9662239387946103
 42
50.0
 43
0.0
 44
0.0
 50
0.0
 51
0.0
 71
     0
 72
  1000
 73
     1
 74
     1
 75
     0
 76
     0
 77
     0
 78
     0
281
     0
 65
     1
110
0.0
120
0.0
130
0.0
111
1.0
121
0.0
131
0.0
112
0.0
122
1.0
132
0.0
 79
     0
146
0.0
 60
     3
 61
     5
292
     1
282
     1
141
0.0
142
0.0
 63
   250
421
  3355443
  0
ENDTAB
  0
TABLE
  2
LTYPE
  5
5
330
0
100
AcDbSymbolTable
 70
     3
  0
LTYPE
  5
5B
330
5
100
AcDbSymbolTableRecord
100
AcDbLinetypeTableRecord
  2
ByBlock
 70
     0
  3

 72
    65
 73
     0
 40
0.0
  0
LTYPE
  5
5C
330
5
100
AcDbSymbolTableRecord
100
AcDbLinetypeTableRecord
  2
ByLayer
 70
     0
  3

 72
    65
 73
     0
 40
0.0
  0
LTYPE
  5
5D
330
5
100
AcDbSymbolTableRecord
100
AcDbLinetypeTableRecord
  2
Continuous
 70
     0
  3
Solid line
 72
    65
 73
     0
 40
0.0
  0
LTYPE
  5
69
330
5
100
AcDbSymbolTableRecord
100
AcDbLinetypeTableRecord
  2
PHANTOM2
 70
     0
  3
___ _ _ ___ _ _ ___ _ _ ___ _ _
 72
    65
 73
     6
 40
1.25
 49
0.625
 74
     0
 49
-0.125
 74
     0
 49
0.125
 74
     0
 49
-0.125
 74
     0
 49
0.125
 74
     0
 49
-0.125
 74
     0
  0
LTYPE
  5
86
330
5
100
AcDbSymbolTableRecord
100
AcDbLinetypeTableRecord
  2
Nascosto 1_5 mm
 70
     0
  3

 72
    65
 73
     2
 40
2.2
 49
1.5
 74
     0
 49
-0.7000000000000001
 74
     0
  0
ENDTAB
  0
TABLE
  2
LAYER
  5
2
330
0
100
AcDbSymbolTable
 70
     4
  0
LAYER
  5
54
330
2
100
AcDbSymbolTableRecord
100
AcDbLayerTableRecord
  2
0
 70
     0
 62
     7
  6
Continuous
370
    -3
390
F
347
21
348
0
  0
LAYER
  5
85
330
2
100
AcDbSymbolTableRecord
100
AcDbLayerTableRecord
  2
P-SANR-FIXT
 70
     0
 62
     6
  6
Continuous
370
    18
390
F
347
21
348
0
  0
LAYER
  5
88
330
2
100
AcDbSymbolTableRecord
100
AcDbLayerTableRecord
  2
M-PIPE
 70
     0
 62
     3
  6
Continuous
370
    18
390
F
347
21
348
0
  0
ENDTAB
  0
TABLE
  2
STYLE
  5
3
330
0
100
AcDbSymbolTable
 70
     2
  0
STYLE
  5
55
330
3
100
AcDbSymbolTableRecord
100
AcDbTextStyleTableRecord
  2
Standard
 70
     0
 40
0.0
 41
1.0
 50
0.0
 71
     0
 42
0.2
  3
txt
  4

  0
STYLE
  5
5A
330
3
100
AcDbSymbolTableRecord
100
AcDbTextStyleTableRecord
  2
Annotative
 70
     0
 40
0.0
 41
1.0
 50
0.0
 71
     0
 42
0.2
  3
txt
  4

1001
AcadAnnotative
1000
AnnotativeData
1002
{
1070
     1
1070
     1
1002
}
  0
ENDTAB
  0
TABLE
  2
VIEW
  5
6
330
0
100
AcDbSymbolTable
 70
     0
  0
ENDTAB
  0
TABLE
  2
UCS
  5
7
330
0
100
AcDbSymbolTable
 70
     0
  0
ENDTAB
  0
TABLE
  2
APPID
  5
9
330
0
100
AcDbSymbolTable
 70
     3
  0
APPID
  5
56
330
9
100
AcDbSymbolTableRecord
100
AcDbRegAppTableRecord
  2
ACAD
 70
     0
  0
APPID
  5
5E
330
9
100
AcDbSymbolTableRecord
100
AcDbRegAppTableRecord
  2
AcadAnnotative
 70
     0
  0
APPID
  5
79
330
9
100
AcDbSymbolTableRecord
100
AcDbRegAppTableRecord
  2
REVIT
 70
     0
  0
ENDTAB
  0
TABLE
  2
DIMSTYLE
  5
A
330
0
100
AcDbSymbolTable
 70
     2
100
AcDbDimStyleTable
 71
     0
  0
DIMSTYLE
105
58
330
A
100
AcDbSymbolTableRecord
100
AcDbDimStyleTableRecord
  2
Standard
 70
     0
340
55
  0
DIMSTYLE
105
59
330
A
100
AcDbSymbolTableRecord
100
AcDbDimStyleTableRecord
  2
Annotative
 70
     0
340
55
1001
AcadAnnotative
1000
AnnotativeData
1002
{
1070
     1
1070
     1
1002
}
  0
ENDTAB
  0
TABLE
  2
BLOCK_RECORD
  5
1
330
0
100
AcDbSymbolTable
 70
     4
  0
BLOCK_RECORD
  5
71
102
{ACAD_XDICTIONARY
360
235
102
}
330
1
100
AcDbSymbolTableRecord
100
AcDbBlockTableRecord
  2
*Model_Space
340
74
 70
     0
280
     1
281
     0
  0
BLOCK_RECORD
  5
6D
330
1
100
AcDbSymbolTableRecord
100
AcDbBlockTableRecord
  2
*Paper_Space
340
70
 70
     0
280
     1
281
     0
  0
BLOCK_RECORD
  5
75
330
1
100
AcDbSymbolTableRecord
100
AcDbBlockTableRecord
  2
*Paper_Space0
340
78
 70
     0
280
     1
281
     0
  0
BLOCK_RECORD
  5
87
330
1
100
AcDbSymbolTableRecord
100
AcDbBlockTableRecord
  2
Automatic flow rate regulator valve_Caleffi_121 DN15 - 1_2__-859151-Est - Idraulica
340
0
102
{BLKREFS
331
13F
102
}
 70
     0
280
     1
281
     0
  0
BLOCK_RECORD
  5
140
330
1
100
AcDbSymbolTableRecord
100
AcDbBlockTableRecord
  2
Automatic flow rate regulator valve_Caleffi_121 DN15 - 1_2__-V1-Est - Idraulica
340
0
102
{BLKREFS
331
192
102
}
 70
     0
280
     1
281
     0
  0
BLOCK_RECORD
  5
193
330
1
100
AcDbSymbolTableRecord
100
AcDbBlockTableRecord
  2
Automatic flow rate regulator valve_Caleffi_121 DN15 - 1_2__-V2-Est - Idraulica
340
0
102
{BLKREFS
331
22E
102
}
 70
     0
280
     1
281
     0
  0
ENDTAB
  0
ENDSEC
  0
SECTION
  2
BLOCKS
  0
BLOCK
  5
72
330
71
100
AcDbEntity
  8
0
100
AcDbBlockBegin
  2
*Model_Space
 70
     0
 10
0.0
 20
0.0
 30
0.0
  3
*Model_Space
  1

  0
ENDBLK
  5
73
330
71
100
AcDbEntity
  8
0
100
AcDbBlockEnd
  0
BLOCK
  5
6E
330
6D
100
AcDbEntity
 67
     1
  8
0
100
AcDbBlockBegin
  2
*Paper_Space
 70
     0
 10
0.0
 20
0.0
 30
0.0
  3
*Paper_Space
  1

  0
ENDBLK
  5
6F
330
6D
100
AcDbEntity
 67
     1
  8
0
100
AcDbBlockEnd
  0
BLOCK
  5
76
330
75
100
AcDbEntity
 67
     1
  8
0
100
AcDbBlockBegin
  2
*Paper_Space0
 70
     0
 10
0.0
 20
0.0
 30
0.0
  3
*Paper_Space0
  1

  0
ENDBLK
  5
77
330
75
100
AcDbEntity
 67
     1
  8
0
100
AcDbBlockEnd
  0
BLOCK
  5
13D
330
87
100
AcDbEntity
  8
0
100
AcDbBlockBegin
  2
Automatic flow rate regulator valve_Caleffi_121 DN15 - 1_2__-859151-Est - Idraulica
 70
     0
 10
0.0
 20
0.0
 30
0.0
  3
Automatic flow rate regulator valve_Caleffi_121 DN15 - 1_2__-859151-Est - Idraulica
  1

  0
LINE
  5
89
330
87
100
AcDbEntity
  8
M-PIPE
100
AcDbLine
 10
846.1664074432192
 20
2090.358376766076
 30
0.0
 11
846.1664074432194
 21
2142.858376766091
 31
0.0
1001
REVIT
1002
{
1070
     3
1000
938184
1002
}
  0
LINE
  5
8A
330
87
100
AcDbEntity
  8
M-PIPE
100
AcDbLine
 10
785.1664074431595
 20
2142.858376766092
 30
0.0
 11
785.1664074431592
 21
2090.358376766076
 31
0.0
1001
REVIT
1002
{
1070
     3
1000
938184
1002
}
  0
LINE
  5
8B
330
87
100
AcDbEntity
  8
M-PIPE
100
AcDbLine
 10
794.5370311383339
 20
2146.358376766092
 30
0.0
 11
789.227377333611
 21
2146.358376766092
 31
0.0
1001
REVIT
1002
{
1070
     3
1000
938184
1002
}
  0
LWPOLYLINE
  5
8C
330
87
100
AcDbEntity
  8
M-PIPE
100
AcDbPolyline
 90
       41
 70
   128
 43
0.0
 10
785.1664074431592
 20
2142.858376766092
 10
785.1692070698459
 20
2142.998339435745
 10
785.1776014711001
 20
2143.138078194984
 10
785.1915772176709
 20
2143.277369491602
 10
785.2111119513448
 20
2143.415990489241
 10
785.2361744207151
 20
2143.553719423874
 10
785.2667245311773
 20
2143.690335958587
 10
785.3027134090717
 20
2143.825621536066
 10
785.344083479871
 20
2143.959359728248
 10
785.3907685602867
 20
2144.091336582554
 10
785.4426939641492
 20
2144.221340964172
 10
785.4997766218896
 20
2144.349164893823
 10
785.561925213432
 20
2144.474603880487
 10
785.6290403142876
 20
2144.597457248544
 10
785.7010145546125
 20
2144.717528458815
 10
785.7777327909756
 20
2144.834625422974
 10
785.8590722905644
 20
2144.94856081086
 10
785.9449029275313
 20
2145.059152350156
 10
786.0350873911662
 20
2145.166223117992
 10
786.1294814055662
 20
2145.269601823978
 10
786.2279339604444
 20
2145.36912308424
 10
786.3302875527149
 20
2145.464627685989
 10
786.4363784384643
 20
2145.555962842238
 10
786.5460368949072
 20
2145.642982436219
 10
786.6590874919059
 20
2145.725547255145
 10
786.7753493726208
 20
2145.803525212919
 10
786.8946365428446
 20
2145.876791561443
 10
787.0167581685513
 20
2145.945229090189
 10
787.1415188811909
 20
2146.008728313709
 10
787.2687190902374
 20
2146.067187646793
 10
787.398155302491
 20
2146.120513566977
 10
787.5296204476237
 20
2146.168620764165
 10
787.6629042094475
 20
2146.211432277103
 10
787.7977933623761
 20
2146.248879616505
 10
787.9340721125394
 20
2146.280902874615
 10
788.0715224430087
 20
2146.307450821051
 10
788.2099244625759
 20
2146.328480984763
 10
788.3490567575344
 20
2146.343959721973
 10
788.488696745892
 20
2146.353862270006
 10
788.6286210334556
 20
2146.358172786897
 10
788.6664074431593
 20
2146.358376766092
1001
REVIT
1002
{
1070
     3
1000
938184
1002
}
  0
LWPOLYLINE
  5
8D
330
87
100
AcDbEntity
  8
M-PIPE
100
AcDbPolyline
 90
       41
 70
   128
 43
0.0
 10
842.6664074432194
 20
2146.358376766091
 10
842.8063701128728
 20
2146.355577139404
 10
842.9461088721115
 20
2146.34718273815
 10
843.0854001687306
 20
2146.33320699158
 10
843.2240211663694
 20
2146.313672257906
 10
843.3617501010022
 20
2146.288609788536
 10
843.4983666357144
 20
2146.258059678074
 10
843.6336522131938
 20
2146.222070800179
 10
843.7673904053758
 20
2146.18070072938
 10
843.8993672596824
 20
2146.134015648964
 10
844.0293716412996
 20
2146.082090245101
 10
844.1571955709505
 20
2146.025007587361
 10
844.2826345576147
 20
2145.962858995819
 10
844.4054879256725
 20
2145.895743894963
 10
844.5255591359424
 20
2145.823769654638
 10
844.6426561001022
 20
2145.747051418275
 10
844.7565914879879
 20
2145.665711918686
 10
844.8671830272841
 20
2145.57988128172
 10
844.9742537951195
 20
2145.489696818084
 10
845.0776325011064
 20
2145.395302803684
 10
845.1771537613678
 20
2145.296850248806
 10
845.2726583631173
 20
2145.194496656536
 10
845.3639935193658
 20
2145.088405770787
 10
845.4510131133467
 20
2144.978747314343
 10
845.5335779322728
 20
2144.865696717345
 10
845.6115558900471
 20
2144.749434836629
 10
845.6848222385712
 20
2144.630147666406
 10
845.7532597673168
 20
2144.508026040699
 10
845.8167589908374
 20
2144.38326532806
 10
845.8752183239207
 20
2144.256065119014
 10
845.9285442441046
 20
2144.126628906759
 10
845.976651441293
 20
2143.995163761627
 10
846.0194629542316
 20
2143.861879999803
 10
846.0569102936336
 20
2143.726990846875
 10
846.0889335517432
 20
2143.590712096711
 10
846.1154814981792
 20
2143.453261766242
 10
846.1365116618905
 20
2143.314859746675
 10
846.1519903991012
 20
2143.175727451716
 10
846.1618929471342
 20
2143.036087463359
 10
846.1662034640244
 20
2142.896163175795
 10
846.1664074432194
 20
2142.858376766091
1001
REVIT
1002
{
1070
     3
1000
938184
1002
}
  0
LINE
  5
8E
330
87
100
AcDbEntity
  8
M-PIPE
100
AcDbLine
 10
842.1054375527678
 20
2146.358376766091
 30
0.0
 11
836.795783748078
 21
2146.358376766091
 31
0.0
1001
REVIT
1002
{
1070
     3
1000
938184
1002
}
  0
LINE
  5
8F
330
87
100
AcDbEntity
  8
M-PIPE
100
AcDbLine
 10
786.1674667842121
 20
2090.358376766075
 30
0.0
 11
785.166407443158
 21
2090.358376766075
 31
0.0
1001
REVIT
1002
{
1070
     3
1000
938184
1002
}
  0
LINE
  5
90
330
87
100
AcDbEntity
  8
M-PIPE
100
AcDbLine
 10
846.166407443218
 20
2090.358376766075
 30
0.0
 11
845.1653481021638
 21
2090.358376766075
 31
0.0
1001
REVIT
1002
{
1070
     3
1000
938184
1002
}
  0
LINE
  5
91
330
87
100
AcDbEntity
  8
M-PIPE
100
AcDbLine
 10
845.165348102164
 20
2090.358376766075
 30
0.0
 11
844.8013025173645
 21
2090.358376766075
 31
0.0
1001
REVIT
1002
{
1070
     3
1000
938184
1002
}
  0
LINE
  5
92
330
87
100
AcDbEntity
  8
M-PIPE
100
AcDbLine
 10
786.5315123690142
 20
2090.358376766075
 30
0.0
 11
786.1674667842121
 21
2090.358376766075
 31
0.0
1001
REVIT
1002
{
1070
     3
1000
938184
1002
}
  0
LINE
  5
93
330
87
100
AcDbEntity
  8
M-PIPE
100
AcDbLine
 10
791.7314306836316
 20
2142.858376766091
 30
0.0
 11
791.7314306836312
 21
2098.208458444524
 31
0.0
1001
REVIT
1002
{
1070
     3
1000
938184
1002
}
  0
LINE
  5
94
330
87
100
AcDbEntity
  8
M-PIPE
100
AcDbLine
 10
839.6013842027791
 20
2098.208458444524
 30
0.0
 11
839.6013842027793
 21
2142.85837676609
 31
0.0
1001
REVIT
1002
{
1070
     3
1000
938184
1002
}
  0
LINE
  5
95
330
87
100
AcDbEntity
  8
M-PIPE
100
AcDbLine
 10
844.8013025173645
 20
2098.208458444524
 30
0.0
 11
844.8013025173645
 21
2090.358376766075
 31
0.0
1001
REVIT
1002
{
1070
     3
1000
938184
1002
}
  0
LINE
  5
96
330
87
100
AcDbEntity
  8
M-PIPE
100
AcDbLine
 10
845.1653481021638
 20
2090.358376766075
 30
0.0
 11
845.165348102164
 21
2142.85837676609
 31
0.0
1001
REVIT
1002
{
1070
     3
1000
938184
1002
}
  0
LINE
  5
97
330
87
100
AcDbEntity
  8
M-PIPE
100
AcDbLine
 10
786.1674667842121
 20
2090.358376766075
 30
0.0
 11
786.1674667842123
 21
2142.85837676609
 31
0.0
1001
REVIT
1002
{
1070
     3
1000
938184
1002
}
  0
LINE
  5
98
330
87
100
AcDbEntity
  8
M-PIPE
100
AcDbLine
 10
786.531512369014
 20
2090.358376766075
 30
0.0
 11
786.5315123690142
 21
2098.208458444524
 31
0.0
1001
REVIT
1002
{
1070
     3
1000
938184
1002
}
  0
SPLINE
  5
99
330
87
100
AcDbEntity
  8
M-PIPE
100
AcDbSpline
210
0.0
220
0.0
230
1.0
 70
     8
 71
     3
 72
    14
 73
    10
 74
     0
 42
0.000000001
 43
0.0000000001
 40
0.0
 40
0.0
 40
0.0
 40
0.0
 40
0.1428571428571428
 40
0.2857142857142857
 40
0.4285714285714286
 40
0.5714285714285714
 40
0.6785714285714287
 40
0.7857142857142857
 40
1.0
 40
1.0
 40
1.0
 40
1.0
 10
789.2273773336098
 20
2146.35837676609
 30
0.0
 10
789.0054029981406
 20
2146.35837676609
 30
0.0
 10
788.5651645425855
 20
2146.305282958758
 30
0.0
 10
787.9284287808531
 20
2146.064658188186
 30
0.0
 10
787.3479658048899
 20
2145.667072063697
 30
0.0
 10
786.8924822362227
 20
2145.167692134767
 30
0.0
 10
786.5604582405453
 20
2144.620438623474
 30
0.0
 10
786.2627923749434
 20
2143.884856995342
 30
0.0
 10
786.1681539418277
 20
2143.270567637632
 30
0.0
 10
786.1674667842123
 20
2142.85837676609
 30
0.0
1001
REVIT
1002
{
1070
     3
1000
938184
1002
}
  0
SPLINE
  5
9A
330
87
100
AcDbEntity
  8
M-PIPE
100
AcDbSpline
210
0.0
220
0.0
230
1.0
 70
     8
 71
     3
 72
     8
 73
     4
 74
     0
 42
0.000000001
 43
0.0000000001
 40
0.0
 40
0.0
 40
0.0
 40
0.0
 40
0.0527943524398256
 40
0.0527943524398256
 40
0.0527943524398256
 40
0.0527943524398256
 10
795.4492833782848
 20
2146.35837676609
 30
0.0
 10
795.3769893715966
 20
2146.35837676609
 30
0.0
 10
795.3049190042165
 20
2146.354568448319
 30
0.0
 10
795.2331940413221
 20
2146.346953906869
 30
0.0
1001
REVIT
1002
{
1070
     3
1000
938184
1002
}
  0
SPLINE
  5
9B
330
87
100
AcDbEntity
  8
M-PIPE
100
AcDbSpline
210
0.0
220
0.0
230
1.0
 70
     8
 71
     3
 72
     8
 73
     4
 74
     0
 42
0.000000001
 43
0.0000000001
 40
-1.0
 40
-1.0
 40
-1.0
 40
-1.0
 40
-0.948618624141056
 40
-0.948618624141056
 40
-0.948618624141056
 40
-0.948618624141056
 10
835.8835315081281
 20
2146.35837676609
 30
0.0
 10
835.9568724207916
 20
2146.35837676609
 30
0.0
 10
836.0297936267468
 20
2146.354581111681
 30
0.0
 10
836.1021091895334
 20
2146.347022392136
 30
0.0
1001
REVIT
1002
{
1070
     3
1000
938184
1002
}
  0
SPLINE
  5
9C
330
87
100
AcDbEntity
  8
M-PIPE
100
AcDbSpline
210
0.0
220
0.0
230
1.0
 70
     8
 71
     3
 72
    13
 73
     9
 74
     0
 42
0.000000001
 43
0.0000000001
 40
-1.0
 40
-1.0
 40
-1.0
 40
-1.0
 40
-0.8333333333333332
 40
-0.6666666666666666
 40
-0.5
 40
-0.3333333333333333
 40
-0.1666666666666666
 40
0.0
 40
0.0
 40
0.0
 40
0.0
 10
842.1054375527665
 20
2146.35837676609
 30
0.0
 10
842.3854373076297
 20
2146.35837676609
 30
0.0
 10
842.9299703777761
 20
2146.277956927206
 30
0.0
 10
843.6629128245963
 20
2145.924288554255
 30
0.0
 10
844.3017588814726
 20
2145.361682931786
 30
0.0
 10
844.7932262927553
 20
2144.628482720056
 30
0.0
 10
845.0898409053996
 20
2143.77464678453
 30
0.0
 10
845.1622273587757
 20
2143.163809385189
 30
0.0
 10
845.165348102164
 20
2142.85837676609
 30
0.0
1001
REVIT
1002
{
1070
     3
1000
938184
1002
}
  0
SPLINE
  5
9D
330
87
100
AcDbEntity
  8
M-PIPE
100
AcDbSpline
210
0.0
220
0.0
230
1.0
 70
     8
 71
     3
 72
    10
 73
     6
 74
     0
 42
0.000000001
 43
0.0000000001
 40
0.0
 40
0.0
 40
0.0
 40
0.0
 40
0.1666666666666666
 40
0.25
 40
0.3333333333333333
 40
0.3333333333333333
 40
0.3333333333333333
 40
0.3333333333333333
 10
791.7314306836316
 20
2142.85837676609
 30
0.0
 10
791.7292082558778
 20
2143.155932957164
 30
0.0
 10
791.771330572331
 20
2143.60522848347
 30
0.0
 10
791.9197030536332
 20
2144.180649557242
 30
0.0
 10
792.0226911290567
 20
2144.454865423594
 30
0.0
 10
792.0826241881248
 20
2144.587873479764
 30
0.0
1001
REVIT
1002
{
1070
     3
1000
938184
1002
}
  0
SPLINE
  5
9E
330
87
100
AcDbEntity
  8
M-PIPE
100
AcDbSpline
210
0.0
220
0.0
230
1.0
 70
     8
 71
     3
 72
    11
 73
     7
 74
     0
 42
0.000000001
 43
0.0000000001
 40
0.3340264336878351
 40
0.3340264336878351
 40
0.3340264336878351
 40
0.3340264336878351
 40
0.5
 40
0.6666666666666666
 40
0.8333333333333332
 40
1.0
 40
1.0
 40
1.0
 40
1.0
 10
792.0841213651945
 20
2144.59119139351
 30
0.0
 10
792.2037684188372
 20
2144.855965197868
 30
0.0
 10
792.5105685034885
 20
2145.353917257477
 30
0.0
 10
793.1112277742506
 20
2145.926240931236
 30
0.0
 10
793.786609862581
 20
2146.278707550355
 30
0.0
 10
794.2835523532148
 20
2146.35837676609
 30
0.0
 10
794.5370311383326
 20
2146.35837676609
 30
0.0
1001
REVIT
1002
{
1070
     3
1000
938184
1002
}
  0
SPLINE
  5
9F
330
87
100
AcDbEntity
  8
M-PIPE
100
AcDbSpline
210
0.0
220
0.0
230
1.0
 70
     8
 71
     3
 72
    13
 73
     9
 74
     0
 42
0.000000001
 43
0.0000000001
 40
0.0
 40
0.0
 40
0.0
 40
0.0
 40
0.1428571428571428
 40
0.2857142857142857
 40
0.4285714285714286
 40
0.5714285714285714
 40
0.7857142857142857
 40
1.0
 40
1.0
 40
1.0
 40
1.0
 10
836.7957837480767
 20
2146.35837676609
 30
0.0
 10
837.0022783499971
 20
2146.35837676609
 30
0.0
 10
837.4116929806252
 20
2146.30365534975
 30
0.0
 10
838.0014901068129
 20
2146.056729784724
 30
0.0
 10
838.5352117244199
 20
2145.651577388363
 30
0.0
 10
839.0634265629422
 20
2145.010338642853
 30
0.0
 10
839.4889835603072
 20
2144.072030775443
 30
0.0
 10
839.600950735827
 20
2143.263947875986
 30
0.0
 10
839.6013842027793
 20
2142.85837676609
 30
0.0
1001
REVIT
1002
{
1070
     3
1000
938184
1002
}
  0
LINE
  5
A0
330
87
100
AcDbEntity
  8
M-PIPE
100
AcDbLine
 10
844.8013025173645
 20
2090.358376766075
 30
0.0
 11
786.5315123690142
 21
2090.358376766075
 31
0.0
1001
REVIT
1002
{
1070
     3
1000
938184
1002
}
  0
LINE
  5
A1
330
87
100
AcDbEntity
  8
M-PIPE
100
AcDbLine
 10
844.8013025173647
 20
2098.208458444524
 30
0.0
 11
786.5315123690143
 21
2098.208458444524
 31
0.0
1001
REVIT
1002
{
1070
     3
1000
938184
1002
}
  0
LINE
  5
A2
330
87
100
AcDbEntity
  8
M-PIPE
100
AcDbLine
 10
746.36245181806
 20
2039.258376766139
 30
0.0
 11
746.36245181806
 21
2022.258376766139
 31
0.0
1001
REVIT
1002
{
1070
     3
1000
790271
1002
}
  0
LINE
  5
A3
330
87
100
AcDbEntity
  8
M-PIPE
100
AcDbLine
 10
764.8158831790734
 20
2039.258376766138
 30
0.0
 11
764.8158831790734
 21
2022.258376766139
 31
0.0
1001
REVIT
1002
{
1070
     3
1000
790271
1002
}
  0
LINE
  5
A4
330
87
100
AcDbEntity
  8
M-PIPE
100
AcDbLine
 10
866.4916175594393
 20
2022.258376766139
 30
0.0
 11
866.4916175594395
 21
2039.258376766137
 31
0.0
1001
REVIT
1002
{
1070
     3
1000
790271
1002
}
  0
LINE
  5
A5
330
87
100
AcDbEntity
  8
M-PIPE
100
AcDbLine
 10
884.9724246024859
 20
2022.258376766139
 30
0.0
 11
884.9724246024859
 21
2039.258376766137
 31
0.0
1001
REVIT
1002
{
1070
     3
1000
790271
1002
}
  0
LINE
  5
A6
330
87
100
AcDbEntity
  8
M-PIPE
100
AcDbLine
 10
758.1624518180599
 20
2041.758376766139
 30
0.0
 11
758.1624518180599
 21
2039.258376766139
 31
0.0
1001
REVIT
1002
{
1070
     3
1000
790271
1002
}
  0
LINE
  5
A7
330
87
100
AcDbEntity
  8
M-PIPE
100
AcDbLine
 10
873.1703630683183
 20
2039.258376766138
 30
0.0
 11
873.1703630683183
 21
2041.758376766138
 31
0.0
1001
REVIT
1002
{
1070
     3
1000
790271
1002
}
  0
LINE
  5
A8
330
87
100
AcDbEntity
  8
M-PIPE
100
AcDbLine
 10
766.7615529299252
 20
2044.758376766139
 30
0.0
 11
758.1624518180599
 21
2041.758376766139
 31
0.0
1001
REVIT
1002
{
1070
     3
1000
790271
1002
}
  0
LINE
  5
A9
330
87
100
AcDbEntity
  8
M-PIPE
100
AcDbLine
 10
873.1703630683183
 20
2041.758376766138
 30
0.0
 11
864.5712619564532
 21
2044.758376766138
 31
0.0
1001
REVIT
1002
{
1070
     3
1000
790271
1002
}
  0
LINE
  5
AA
330
87
100
AcDbEntity
  8
M-PIPE
100
AcDbLine
 10
852.1664074431894
 20
2062.108376766139
 30
0.0
 11
843.3282431919819
 21
2062.108376766139
 31
0.0
1001
REVIT
1002
{
1070
     3
1000
790271
1002
}
  0
LINE
  5
AB
330
87
100
AcDbEntity
  8
M-PIPE
100
AcDbLine
 10
843.3282431919769
 20
2048.108376766139
 30
0.0
 11
852.1664074431894
 21
2048.108376766139
 31
0.0
1001
REVIT
1002
{
1070
     3
1000
790271
1002
}
  0
LINE
  5
AC
330
87
100
AcDbEntity
  8
M-PIPE
100
AcDbLine
 10
843.1664074431822
 20
2044.758376766138
 30
0.0
 11
843.3282431919769
 21
2048.108376766139
 31
0.0
1001
REVIT
1002
{
1070
     3
1000
790271
1002
}
  0
LINE
  5
AD
330
87
100
AcDbEntity
  8
M-PIPE
100
AcDbLine
 10
787.6664074431894
 20
2055.108376766139
 30
0.0
 11
788.1664074431963
 21
2044.758376766139
 31
0.0
1001
REVIT
1002
{
1070
     3
1000
790271
1002
}
  0
LINE
  5
AE
330
87
100
AcDbEntity
  8
M-PIPE
100
AcDbLine
 10
788.1664074431896
 20
2065.458376766139
 30
0.0
 11
787.6664074431894
 21
2055.108376766139
 31
0.0
1001
REVIT
1002
{
1070
     3
1000
790271
1002
}
  0
LINE
  5
AF
330
87
100
AcDbEntity
  8
M-PIPE
100
AcDbLine
 10
843.3282431919819
 20
2062.108376766139
 30
0.0
 11
843.1664074431894
 21
2065.458376766139
 31
0.0
1001
REVIT
1002
{
1070
     3
1000
790271
1002
}
  0
LINE
  5
B0
330
87
100
AcDbEntity
  8
M-PIPE
100
AcDbLine
 10
843.1664074431896
 20
2065.458376766139
 30
0.0
 11
843.1664074431896
 21
2069.458376766076
 31
0.0
1001
REVIT
1002
{
1070
     3
1000
790271
1002
}
  0
LINE
  5
B1
330
87
100
AcDbEntity
  8
M-PIPE
100
AcDbLine
 10
788.1664074431896
 20
2069.458376766076
 30
0.0
 11
788.1664074431894
 21
2065.458376766139
 31
0.0
1001
REVIT
1002
{
1070
     3
1000
790271
1002
}
  0
LINE
  5
B2
330
87
100
AcDbEntity
  8
M-PIPE
100
AcDbLine
 10
839.6664074431896
 20
2072.958376766075
 30
0.0
 11
839.6664074431898
 21
2085.358376766076
 31
0.0
1001
REVIT
1002
{
1070
     3
1000
790271
1002
}
  0
LINE
  5
B3
330
87
100
AcDbEntity
  8
M-PIPE
100
AcDbLine
 10
791.66640744319
 20
2085.358376766076
 30
0.0
 11
791.6664074431897
 21
2072.958376766076
 31
0.0
1001
REVIT
1002
{
1070
     3
1000
790271
1002
}
  0
LINE
  5
B4
330
87
100
AcDbEntity
  8
M-PIPE
100
AcDbLine
 10
843.1664074431896
 20
2069.458376766076
 30
0.0
 11
839.6664074431898
 21
2072.958376766075
 31
0.0
1001
REVIT
1002
{
1070
     3
1000
790271
1002
}
  0
LINE
  5
B5
330
87
100
AcDbEntity
  8
M-PIPE
100
AcDbLine
 10
791.6664074431897
 20
2072.958376766076
 30
0.0
 11
788.1664074431896
 21
2069.458376766076
 31
0.0
1001
REVIT
1002
{
1070
     3
1000
790271
1002
}
  0
LINE
  5
B6
330
87
100
AcDbEntity
  8
M-PIPE
100
AcDbLine
 10
839.6664074431898
 20
2085.358376766076
 30
0.0
 11
844.6664074431899
 21
2090.358376766076
 31
0.0
1001
REVIT
1002
{
1070
     3
1000
790271
1002
}
  0
LINE
  5
B7
330
87
100
AcDbEntity
  8
M-PIPE
100
AcDbLine
 10
786.6664074431899
 20
2090.358376766076
 30
0.0
 11
791.6664074431897
 21
2085.358376766076
 31
0.0
1001
REVIT
1002
{
1070
     3
1000
790271
1002
}
  0
LINE
  5
B8
330
87
100
AcDbEntity
  8
M-PIPE
100
AcDbLine
 10
749.5124518180589
 20
2039.258376766138
 30
0.0
 11
746.3624518180588
 21
2039.258376766138
 31
0.0
1001
REVIT
1002
{
1070
     3
1000
790271
1002
}
  0
LINE
  5
B9
330
87
100
AcDbEntity
  8
M-PIPE
100
AcDbLine
 10
755.304498924665
 20
2039.258376766138
 30
0.0
 11
749.5124518180588
 21
2039.258376766138
 31
0.0
1001
REVIT
1002
{
1070
     3
1000
790271
1002
}
  0
LINE
  5
BA
330
87
100
AcDbEntity
  8
M-PIPE
100
AcDbLine
 10
779.2066322788006
 20
2039.258376766137
 30
0.0
 11
772.7464431632182
 21
2039.258376766137
 31
0.0
1001
REVIT
1002
{
1070
     3
1000
790271
1002
}
  0
LINE
  5
BB
330
87
100
AcDbEntity
  8
M-PIPE
100
AcDbLine
 10
806.8664074431984
 20
2039.258376766136
 30
0.0
 11
779.2066322788
 21
2039.258376766137
 31
0.0
1001
REVIT
1002
{
1070
     3
1000
790271
1002
}
  0
LINE
  5
BC
330
87
100
AcDbEntity
  8
M-PIPE
100
AcDbLine
 10
779.2066322788002
 20
2022.258376766138
 30
0.0
 11
779.2066322788005
 21
2039.258376766137
 31
0.0
1001
REVIT
1002
{
1070
     3
1000
790271
1002
}
  0
LINE
  5
BD
330
87
100
AcDbEntity
  8
M-PIPE
100
AcDbLine
 10
766.761552929924
 20
2044.758376766138
 30
0.0
 11
864.571261956452
 21
2044.758376766137
 31
0.0
1001
REVIT
1002
{
1070
     3
1000
790271
1002
}
  0
LINE
  5
BE
330
87
100
AcDbEntity
  8
M-PIPE
100
AcDbLine
 10
884.9724246024846
 20
2022.258376766138
 30
0.0
 11
881.8224246024845
 21
2022.258376766138
 31
0.0
1001
REVIT
1002
{
1070
     3
1000
790271
1002
}
  0
LINE
  5
BF
330
87
100
AcDbEntity
  8
M-PIPE
100
AcDbLine
 10
881.8224246024845
 20
2022.258376766138
 30
0.0
 11
876.0258710495479
 21
2022.258376766138
 31
0.0
1001
REVIT
1002
{
1070
     3
1000
790271
1002
}
  0
LINE
  5
C0
330
87
100
AcDbEntity
  8
M-PIPE
100
AcDbLine
 10
876.0258710495479
 20
2022.258376766138
 30
0.0
 11
866.5290171339973
 21
2022.258376766138
 31
0.0
1001
REVIT
1002
{
1070
     3
1000
790271
1002
}
  0
LINE
  5
C1
330
87
100
AcDbEntity
  8
M-PIPE
100
AcDbLine
 10
866.4916175594381
 20
2022.258376766138
 30
0.0
 11
858.5610575752923
 21
2022.258376766138
 31
0.0
1001
REVIT
1002
{
1070
     3
1000
790271
1002
}
  0
LINE
  5
C2
330
87
100
AcDbEntity
  8
M-PIPE
100
AcDbLine
 10
858.5610575752923
 20
2022.258376766138
 30
0.0
 11
852.085985393813
 21
2022.258376766138
 31
0.0
1001
REVIT
1002
{
1070
     3
1000
790271
1002
}
  0
LINE
  5
C3
330
87
100
AcDbEntity
  8
M-PIPE
100
AcDbLine
 10
852.085985393813
 20
2022.258376766138
 30
0.0
 11
824.4664074431996
 21
2022.258376766138
 31
0.0
1001
REVIT
1002
{
1070
     3
1000
790271
1002
}
  0
LINE
  5
C4
330
87
100
AcDbEntity
  8
M-PIPE
100
AcDbLine
 10
824.4664074432
 20
2022.258376766138
 30
0.0
 11
821.1223674870421
 21
2022.258376766138
 31
0.0
1001
REVIT
1002
{
1070
     3
1000
790271
1002
}
  0
LINE
  5
C5
330
87
100
AcDbEntity
  8
M-PIPE
100
AcDbLine
 10
821.1223674870421
 20
2022.258376766138
 30
0.0
 11
810.2104473993581
 21
2022.258376766138
 31
0.0
1001
REVIT
1002
{
1070
     3
1000
790271
1002
}
  0
LINE
  5
C6
330
87
100
AcDbEntity
  8
M-PIPE
100
AcDbLine
 10
810.2104473993581
 20
2022.258376766138
 30
0.0
 11
806.8664074431991
 21
2022.258376766138
 31
0.0
1001
REVIT
1002
{
1070
     3
1000
790271
1002
}
  0
LINE
  5
C7
330
87
100
AcDbEntity
  8
M-PIPE
100
AcDbLine
 10
779.2066322788002
 20
2022.258376766138
 30
0.0
 11
806.8664074431987
 21
2022.258376766138
 31
0.0
1001
REVIT
1002
{
1070
     3
1000
790271
1002
}
  0
LINE
  5
C8
330
87
100
AcDbEntity
  8
M-PIPE
100
AcDbLine
 10
772.7464431632181
 20
2022.258376766138
 30
0.0
 11
779.2066322788007
 21
2022.258376766138
 31
0.0
1001
REVIT
1002
{
1070
     3
1000
790271
1002
}
  0
LINE
  5
C9
330
87
100
AcDbEntity
  8
M-PIPE
100
AcDbLine
 10
772.7464431632182
 20
2022.258376766138
 30
0.0
 11
764.8158831790722
 21
2022.258376766138
 31
0.0
1001
REVIT
1002
{
1070
     3
1000
790271
1002
}
  0
LINE
  5
CA
330
87
100
AcDbEntity
  8
M-PIPE
100
AcDbLine
 10
764.7786071627035
 20
2022.258376766138
 30
0.0
 11
755.3044989246652
 21
2022.258376766138
 31
0.0
1001
REVIT
1002
{
1070
     3
1000
790271
1002
}
  0
LINE
  5
CB
330
87
100
AcDbEntity
  8
M-PIPE
100
AcDbLine
 10
749.5124518180588
 20
2022.258376766138
 30
0.0
 11
755.3044989246651
 21
2022.258376766138
 31
0.0
1001
REVIT
1002
{
1070
     3
1000
790271
1002
}
  0
LINE
  5
CC
330
87
100
AcDbEntity
  8
M-PIPE
100
AcDbLine
 10
746.3624518180588
 20
2022.258376766138
 30
0.0
 11
749.5124518180588
 21
2022.258376766138
 31
0.0
1001
REVIT
1002
{
1070
     3
1000
790271
1002
}
  0
LINE
  5
CD
330
87
100
AcDbEntity
  8
M-PIPE
100
AcDbLine
 10
764.7786071627035
 20
2039.258376766138
 30
0.0
 11
755.3044989246652
 21
2039.258376766138
 31
0.0
1001
REVIT
1002
{
1070
     3
1000
790271
1002
}
  0
LINE
  5
CE
330
87
100
AcDbEntity
  8
M-PIPE
100
AcDbLine
 10
755.3044989246652
 20
2022.258376766138
 30
0.0
 11
755.3044989246652
 21
2039.258376766138
 31
0.0
1001
REVIT
1002
{
1070
     3
1000
790271
1002
}
  0
LINE
  5
CF
330
87
100
AcDbEntity
  8
M-PIPE
100
AcDbLine
 10
772.7464431632182
 20
2039.258376766137
 30
0.0
 11
764.8158831790724
 21
2039.258376766137
 31
0.0
1001
REVIT
1002
{
1070
     3
1000
790271
1002
}
  0
LINE
  5
D0
330
87
100
AcDbEntity
  8
M-PIPE
100
AcDbLine
 10
810.2104473993581
 20
2039.258376766136
 30
0.0
 11
806.8664074431993
 21
2039.258376766136
 31
0.0
1001
REVIT
1002
{
1070
     3
1000
790271
1002
}
  0
LINE
  5
D1
330
87
100
AcDbEntity
  8
M-PIPE
100
AcDbLine
 10
806.8664074431991
 20
2022.258376766138
 30
0.0
 11
806.8664074431993
 21
2039.258376766136
 31
0.0
1001
REVIT
1002
{
1070
     3
1000
790271
1002
}
  0
LINE
  5
D2
330
87
100
AcDbEntity
  8
M-PIPE
100
AcDbLine
 10
821.1223674870421
 20
2039.258376766136
 30
0.0
 11
810.2104473993581
 21
2039.258376766136
 31
0.0
1001
REVIT
1002
{
1070
     3
1000
790271
1002
}
  0
LINE
  5
D3
330
87
100
AcDbEntity
  8
M-PIPE
100
AcDbLine
 10
824.4664074431998
 20
2039.258376766136
 30
0.0
 11
821.1223674870421
 21
2039.258376766136
 31
0.0
1001
REVIT
1002
{
1070
     3
1000
790271
1002
}
  0
LINE
  5
D4
330
87
100
AcDbEntity
  8
M-PIPE
100
AcDbLine
 10
852.0859853938125
 20
2039.258376766136
 30
0.0
 11
824.4664074431989
 21
2039.258376766136
 31
0.0
1001
REVIT
1002
{
1070
     3
1000
790271
1002
}
  0
LINE
  5
D5
330
87
100
AcDbEntity
  8
M-PIPE
100
AcDbLine
 10
824.4664074431993
 20
2022.258376766138
 30
0.0
 11
824.4664074431993
 21
2039.258376766136
 31
0.0
1001
REVIT
1002
{
1070
     3
1000
790271
1002
}
  0
LINE
  5
D6
330
87
100
AcDbEntity
  8
M-PIPE
100
AcDbLine
 10
858.5610575752923
 20
2039.258376766136
 30
0.0
 11
852.0859853938132
 21
2039.258376766136
 31
0.0
1001
REVIT
1002
{
1070
     3
1000
790271
1002
}
  0
LINE
  5
D7
330
87
100
AcDbEntity
  8
M-PIPE
100
AcDbLine
 10
852.085985393813
 20
2022.258376766138
 30
0.0
 11
852.0859853938132
 21
2039.258376766136
 31
0.0
1001
REVIT
1002
{
1070
     3
1000
790271
1002
}
  0
LINE
  5
D8
330
87
100
AcDbEntity
  8
M-PIPE
100
AcDbLine
 10
866.4916175594381
 20
2039.258376766136
 30
0.0
 11
858.5610575752923
 21
2039.258376766136
 31
0.0
1001
REVIT
1002
{
1070
     3
1000
790271
1002
}
  0
LINE
  5
D9
330
87
100
AcDbEntity
  8
M-PIPE
100
AcDbLine
 10
876.0258710495479
 20
2039.258376766136
 30
0.0
 11
866.5290171339975
 21
2039.258376766136
 31
0.0
1001
REVIT
1002
{
1070
     3
1000
790271
1002
}
  0
LINE
  5
DA
330
87
100
AcDbEntity
  8
M-PIPE
100
AcDbLine
 10
881.8224246024845
 20
2039.258376766136
 30
0.0
 11
876.0258710495481
 21
2039.258376766136
 31
0.0
1001
REVIT
1002
{
1070
     3
1000
790271
1002
}
  0
LINE
  5
DB
330
87
100
AcDbEntity
  8
M-PIPE
100
AcDbLine
 10
876.0258710495479
 20
2022.258376766138
 30
0.0
 11
876.0258710495481
 21
2039.258376766136
 31
0.0
1001
REVIT
1002
{
1070
     3
1000
790271
1002
}
  0
LINE
  5
DC
330
87
100
AcDbEntity
  8
M-PIPE
100
AcDbLine
 10
884.9724246024846
 20
2039.258376766136
 30
0.0
 11
881.8224246024847
 21
2039.258376766136
 31
0.0
1001
REVIT
1002
{
1070
     3
1000
790271
1002
}
  0
LINE
  5
DD
330
87
100
AcDbEntity
  8
M-PIPE
100
AcDbLine
 10
873.1703630683169
 20
2041.758376766137
 30
0.0
 11
758.1624518180589
 21
2041.758376766138
 31
0.0
1001
REVIT
1002
{
1070
     3
1000
790271
1002
}
  0
LINE
  5
DE
330
87
100
AcDbEntity
  8
M-PIPE
100
AcDbLine
 10
852.1664074431882
 20
2062.108376766138
 30
0.0
 11
852.1664074431882
 21
2048.108376766137
 31
0.0
1001
REVIT
1002
{
1070
     3
1000
790271
1002
}
  0
SPLINE
  5
DF
330
87
100
AcDbEntity
  8
M-PIPE
100
AcDbSpline
210
0.0
220
0.0
230
1.0
 70
     8
 71
     3
 72
    17
 73
    13
 74
     0
 42
0.000000001
 43
0.0000000001
 40
0.0
 40
0.0
 40
0.0
 40
0.0
 40
0.1428571428571428
 40
0.2857142857142857
 40
0.3571428571428571
 40
0.4285714285714286
 40
0.5
 40
0.5714285714285714
 40
0.6428571428571428
 40
0.7142857142857144
 40
0.8571428571428571
 40
1.0
 40
1.0
 40
1.0
 40
1.0
 10
842.7772908666401
 20
2055.108376766138
 30
0.0
 10
842.7521770481227
 20
2054.584206276816
 30
0.0
 10
842.7293145635836
 20
2053.536042109579
 30
0.0
 10
842.7762622659338
 20
2052.290363558439
 30
0.0
 10
842.8463326444164
 20
2051.373210978158
 30
0.0
 10
842.9102338432683
 20
2050.732621981965
 30
0.0
 10
842.9820552697396
 20
2050.14762194546
 30
0.0
 10
843.0567544783082
 20
2049.624770842556
 30
0.0
 10
843.1292269917967
 20
2049.170397053773
 30
0.0
 10
843.2183887342677
 20
2048.663358700906
 30
0.0
 10
843.3041801270983
 20
2048.227085711062
 30
0.0
 10
843.3268498526649
 20
2048.108376766137
 30
0.0
 10
843.3282431919757
 20
2048.108376766137
 30
0.0
1001
REVIT
1002
{
1070
     3
1000
790271
1002
}
  0
LINE
  5
E0
330
87
100
AcDbEntity
  8
M-PIPE
100
AcDbLine
 10
842.7772908666401
 20
2055.108376766137
 30
0.0
 11
787.6664074431881
 21
2055.108376766138
 31
0.0
1001
REVIT
1002
{
1070
     3
1000
790271
1002
}
  0
SPLINE
  5
E1
330
87
100
AcDbEntity
  8
M-PIPE
100
AcDbSpline
210
0.0
220
0.0
230
1.0
 70
     8
 71
     3
 72
    17
 73
    13
 74
     0
 42
0.000000001
 43
0.0000000001
 40
0.0
 40
0.0
 40
0.0
 40
0.0
 40
0.1428571428571428
 40
0.2857142857142857
 40
0.3571428571428571
 40
0.4285714285714286
 40
0.5
 40
0.5714285714285714
 40
0.6428571428571428
 40
0.7142857142857144
 40
0.8571428571428572
 40
1.0
 40
1.0
 40
1.0
 40
1.0
 10
843.3282431919804
 20
2062.108376766138
 30
0.0
 10
843.3268498526699
 20
2062.108376766138
 30
0.0
 10
843.3041801271032
 20
2061.989667821213
 30
0.0
 10
843.2183887342723
 20
2061.553394831369
 30
0.0
 10
843.129226991801
 20
2061.046356478502
 30
0.0
 10
843.0567544783121
 20
2060.591982689719
 30
0.0
 10
842.9820552697432
 20
2060.069131586815
 30
0.0
 10
842.9102338432715
 20
2059.48413155031
 30
0.0
 10
842.8463326444191
 20
2058.843542554118
 30
0.0
 10
842.7762622659358
 20
2057.926389973836
 30
0.0
 10
842.7293145635848
 20
2056.680711422696
 30
0.0
 10
842.7521770481231
 20
2055.632547255459
 30
0.0
 10
842.7772908666401
 20
2055.108376766138
 30
0.0
1001
REVIT
1002
{
1070
     3
1000
790271
1002
}
  0
LINE
  5
E2
330
87
100
AcDbEntity
  8
M-PIPE
100
AcDbLine
 10
843.1664074431882
 20
2065.458376766137
 30
0.0
 11
788.1664074431884
 21
2065.458376766139
 31
0.0
1001
REVIT
1002
{
1070
     3
1000
790271
1002
}
  0
LINE
  5
E3
330
87
100
AcDbEntity
  8
M-PIPE
100
AcDbLine
 10
791.6664074431885
 20
2072.958376766075
 30
0.0
 11
839.6664074431882
 21
2072.958376766074
 31
0.0
1001
REVIT
1002
{
1070
     3
1000
790271
1002
}
  0
LINE
  5
E4
330
87
100
AcDbEntity
  8
M-PIPE
100
AcDbLine
 10
843.1664074431882
 20
2069.458376766075
 30
0.0
 11
788.1664074431884
 21
2069.458376766076
 31
0.0
1001
REVIT
1002
{
1070
     3
1000
790271
1002
}
  0
LINE
  5
E5
330
87
100
AcDbEntity
  8
M-PIPE
100
AcDbLine
 10
839.6664074431885
 20
2085.358376766075
 30
0.0
 11
791.6664074431886
 21
2085.358376766075
 31
0.0
1001
REVIT
1002
{
1070
     3
1000
790271
1002
}
  0
ARC
  5
E6
330
87
100
AcDbEntity
  8
P-SANR-FIXT
100
AcDbCircle
 10
781.6664074431877
 20
1970.779253532283
 30
0.0
 40
9.000000000000056
100
AcDbArc
 50
179.9999999999996
 51
359.9999999999978
  0
ARC
  5
E7
330
87
100
AcDbEntity
  8
P-SANR-FIXT
100
AcDbCircle
 10
781.6664074431877
 20
1970.779253532283
 30
0.0
 40
9.0
100
AcDbArc
 50
0.0
 51
180.0
  0
ARC
  5
E8
330
87
100
AcDbEntity
  8
P-SANR-FIXT
100
AcDbCircle
 10
849.6664074431876
 20
1970.779253532283
 30
0.0
 40
9.0
100
AcDbArc
 50
180.0
 51
0.0
  0
ARC
  5
E9
330
87
100
AcDbEntity
  8
P-SANR-FIXT
100
AcDbCircle
 10
849.6664074431876
 20
1970.779253532283
 30
0.0
 40
8.999999999999886
100
AcDbArc
 50
0.0
 51
180.0
  0
LINE
  5
EA
330
87
100
AcDbEntity
  8
P-SANR-FIXT
100
AcDbLine
 10
841.6664074431889
 20
2001.974768402354
 30
0.0
 11
841.6664074431889
 21
2011.558376766141
 31
0.0
  0
LINE
  5
EB
330
87
100
AcDbEntity
  8
P-SANR-FIXT
100
AcDbLine
 10
789.666407443189
 20
2011.558376766141
 30
0.0
 11
789.666407443189
 21
2001.974768402354
 31
0.0
  0
LINE
  5
EC
330
87
100
AcDbEntity
  8
P-SANR-FIXT
100
AcDbLine
 10
842.4785142183988
 20
2001.858376766141
 30
0.0
 11
841.7827990794021
 21
2001.858376766141
 31
0.0
  0
LINE
  5
ED
330
87
100
AcDbEntity
  8
P-SANR-FIXT
100
AcDbLine
 10
815.9455916730218
 20
1939.858376766141
 30
0.0
 11
842.4785142183988
 21
1939.858376766141
 31
0.0
  0
LINE
  5
EE
330
87
100
AcDbEntity
  8
P-SANR-FIXT
100
AcDbLine
 10
843.1664074431894
 20
2011.558376766141
 30
0.0
 11
843.1664074431894
 21
2016.758376766141
 31
0.0
  0
LINE
  5
EF
330
87
100
AcDbEntity
  8
P-SANR-FIXT
100
AcDbLine
 10
788.1664074431886
 20
2016.758376766141
 30
0.0
 11
788.1664074431886
 21
2011.558376766141
 31
0.0
  0
LINE
  5
F0
330
87
100
AcDbEntity
  8
P-SANR-FIXT
100
AcDbLine
 10
875.6664074431892
 20
2009.158376766141
 30
0.0
 11
849.7785142183987
 21
2009.158376766141
 31
0.0
  0
LINE
  5
F1
330
87
100
AcDbEntity
  8
P-SANR-FIXT
100
AcDbLine
 10
849.7785142183987
 20
1932.558376766141
 30
0.0
 11
875.6664074431892
 21
1932.558376766141
 31
0.0
  0
LINE
  5
F2
330
87
100
AcDbEntity
  8
P-SANR-FIXT
100
AcDbLine
 10
864.57126195645
 20
2016.758376766141
 30
0.0
 11
873.1703630683153
 21
2019.758376766141
 31
0.0
  0
LINE
  5
F3
330
87
100
AcDbEntity
  8
P-SANR-FIXT
100
AcDbLine
 10
758.162451818063
 20
2019.758376766141
 30
0.0
 11
766.761552929928
 21
2016.758376766141
 31
0.0
  0
LWPOLYLINE
  5
F4
330
87
100
AcDbEntity
  8
P-SANR-FIXT
100
AcDbPolyline
 90
       17
 70
   128
 43
0.0
 10
815.945591673022
 20
1939.858376766141
 10
814.7259169803296
 20
1939.882773512981
 10
813.5081935069621
 20
1939.955924723911
 10
812.2943693507099
 20
1940.077713372598
 10
811.0863863712873
 20
1940.247944623184
 10
809.8861770837725
 20
1940.466346141982
 10
808.6956615669944
 20
1940.732568533154
 10
807.5167443918164
 20
1941.046185897662
 10
806.3513115742303
 20
1941.406696514626
 10
805.2012275581317
 20
1941.813523643963
 10
804.0683322326081
 20
1942.266016449053
 10
802.9544379885088
 20
1942.763451037931
 10
801.8613268190065
 20
1943.305031621372
 10
800.7907474687879
 20
1943.889891785972
 10
799.7444126364349
 20
1944.517095880231
 10
798.7239962344732
 20
1945.185640511395
 10
798.666407443189
 20
1945.225135981246
  0
LINE
  5
F5
330
87
100
AcDbEntity
  8
P-SANR-FIXT
100
AcDbLine
 10
849.7785142183987
 20
2009.158376766141
 30
0.0
 11
842.4785142183988
 21
2001.858376766141
 31
0.0
  0
LINE
  5
F6
330
87
100
AcDbEntity
  8
P-SANR-FIXT
100
AcDbLine
 10
842.4785142183988
 20
1939.858376766141
 30
0.0
 11
849.7785142183987
 21
1932.558376766141
 31
0.0
  0
LINE
  5
F7
330
87
100
AcDbEntity
  8
P-SANR-FIXT
100
AcDbLine
 10
783.6664074431888
 20
1939.858376766141
 30
0.0
 11
798.6664074431887
 21
1939.858376766141
 31
0.0
  0
LINE
  5
F8
330
87
100
AcDbEntity
  8
P-SANR-FIXT
100
AcDbLine
 10
789.5500158069757
 20
2001.858376766141
 30
0.0
 11
783.666407443189
 21
2001.858376766141
 31
0.0
  0
LINE
  5
F9
330
87
100
AcDbEntity
  8
P-SANR-FIXT
100
AcDbLine
 10
783.666407443189
 20
2001.858376766141
 30
0.0
 11
776.3664074431891
 21
2009.158376766141
 31
0.0
  0
LINE
  5
FA
330
87
100
AcDbEntity
  8
P-SANR-FIXT
100
AcDbLine
 10
776.366407443189
 20
1932.558376766141
 30
0.0
 11
783.6664074431888
 21
1939.858376766141
 31
0.0
  0
LINE
  5
FB
330
87
100
AcDbEntity
  8
P-SANR-FIXT
100
AcDbLine
 10
776.3664074431891
 20
2009.158376766141
 30
0.0
 11
755.6664074431889
 21
2009.158376766141
 31
0.0
  0
LINE
  5
FC
330
87
100
AcDbEntity
  8
P-SANR-FIXT
100
AcDbLine
 10
755.6664074431887
 20
1932.558376766141
 30
0.0
 11
776.366407443189
 21
1932.558376766141
 31
0.0
  0
LINE
  5
FD
330
87
100
AcDbEntity
  8
P-SANR-FIXT
100
AcDbLine
 10
841.7827990794021
 20
2001.858376766141
 30
0.0
 11
841.6664074431889
 21
2001.974768402354
 31
0.0
  0
LINE
  5
FE
330
87
100
AcDbEntity
  8
P-SANR-FIXT
100
AcDbLine
 10
789.666407443189
 20
2001.974768402354
 30
0.0
 11
789.5500158069757
 21
2001.858376766141
 31
0.0
  0
LINE
  5
FF
330
87
100
AcDbEntity
  8
P-SANR-FIXT
100
AcDbLine
 10
873.1703630683153
 20
2019.758376766141
 30
0.0
 11
873.1703630683153
 21
2022.258376766139
 31
0.0
  0
LINE
  5
100
330
87
100
AcDbEntity
  8
P-SANR-FIXT
100
AcDbLine
 10
758.162451818063
 20
2022.258376766139
 30
0.0
 11
758.162451818063
 21
2019.758376766141
 31
0.0
  0
LINE
  5
101
330
87
100
AcDbEntity
  8
P-SANR-FIXT
100
AcDbLine
 10
789.6664074431879
 20
2001.974768402354
 30
0.0
 11
841.6664074431876
 21
2001.974768402354
 31
0.0
  0
LINE
  5
102
330
87
100
AcDbEntity
  8
P-SANR-FIXT
100
AcDbLine
 10
842.4785142183974
 20
1939.85837676614
 30
0.0
 11
842.4785142183973
 21
1965.296612490926
 31
0.0
  0
LINE
  5
103
330
87
100
AcDbEntity
  8
P-SANR-FIXT
100
AcDbLine
 10
842.4785142183973
 20
1976.261296884775
 30
0.0
 11
842.4785142183974
 21
2001.85837676614
 31
0.0
  0
SPLINE
  5
104
330
87
100
AcDbEntity
  8
P-SANR-FIXT
100
AcDbSpline
210
0.0
220
0.0
230
1.0
 70
     8
 71
     3
 72
    13
 73
     9
 74
     0
 42
0.000000001
 43
0.0000000001
 40
0.0
 40
0.0
 40
0.0
 40
0.0
 40
0.1666666666666666
 40
0.3333333333333333
 40
0.5
 40
0.6666666666666666
 40
0.8333333333333332
 40
1.0
 40
1.0
 40
1.0
 40
1.0
 10
841.7827990794009
 20
2001.85837676614
 30
0.0
 10
841.7733178801091
 20
2001.85837676614
 30
0.0
 10
841.7478165327345
 20
2001.775123923395
 30
0.0
 10
841.7087921686292
 20
2001.401859456515
 30
0.0
 10
841.6124619514896
 20
2000.78786570447
 30
0.0
 10
841.5436261463023
 20
1999.935737791649
 30
0.0
 10
841.587085018053
 20
1998.840876843606
 30
0.0
 10
841.6532317105184
 20
1997.955415248809
 30
0.0
 10
841.6987393351309
 20
1997.474768402353
 30
0.0
  0
SPLINE
  5
105
330
87
100
AcDbEntity
  8
P-SANR-FIXT
100
AcDbSpline
210
0.0
220
0.0
230
1.0
 70
     8
 71
     3
 72
    10
 73
     6
 74
     0
 42
0.000000001
 43
0.0000000001
 40
0.0
 40
0.0
 40
0.0
 40
0.0
 40
0.25
 40
0.5
 40
1.0
 40
1.0
 40
1.0
 40
1.0
 10
841.6987393351309
 20
1997.474768402353
 30
0.0
 10
840.7747695070222
 20
1996.590083610638
 30
0.0
 10
838.7871616800252
 20
1994.621609613895
 30
0.0
 10
834.1719123906568
 20
1990.168024195723
 30
0.0
 10
830.2650307976954
 20
1986.42957156618
 30
0.0
 10
827.5003032140977
 20
1983.927083248297
 30
0.0
  0
SPLINE
  5
106
330
87
100
AcDbEntity
  8
P-SANR-FIXT
100
AcDbSpline
210
0.0
220
0.0
230
1.0
 70
     8
 71
     3
 72
     9
 73
     5
 74
     0
 42
0.000000001
 43
0.0000000001
 40
0.0
 40
0.0
 40
0.0
 40
0.0
 40
0.5
 40
1.0
 40
1.0
 40
1.0
 40
1.0
 10
827.5003032140977
 20
1983.927083248297
 30
0.0
 10
826.7526206306534
 20
1983.243885904445
 30
0.0
 10
825.2241983578906
 20
1981.886397359522
 30
0.0
 10
823.6296618733801
 20
1980.559447560542
 30
0.0
 10
822.8158650781878
 20
1979.906290585064
 30
0.0
  0
LINE
  5
107
330
87
100
AcDbEntity
  8
P-SANR-FIXT
100
AcDbLine
 10
843.1664074431882
 20
2011.55837676614
 30
0.0
 11
788.1664074431873
 21
2011.55837676614
 31
0.0
  0
SPLINE
  5
108
330
87
100
AcDbEntity
  8
P-SANR-FIXT
100
AcDbSpline
210
0.0
220
0.0
230
1.0
 70
     8
 71
     3
 72
     9
 73
     5
 74
     0
 42
0.000000001
 43
0.0000000001
 40
0.0
 40
0.0
 40
0.0
 40
0.0
 40
0.5
 40
1.0
 40
1.0
 40
1.0
 40
1.0
 10
798.6664074431875
 20
1988.739931508388
 30
0.0
 10
800.1638161033243
 20
1987.26518703064
 30
0.0
 10
803.3366258201294
 20
1984.318169065673
 30
0.0
 10
806.7654566578573
 20
1981.376093081758
 30
0.0
 10
808.5169498081866
 20
1979.906290585064
 30
0.0
  0
LINE
  5
109
330
87
100
AcDbEntity
  8
P-SANR-FIXT
100
AcDbLine
 10
822.8158650781878
 20
1979.906290585064
 30
0.0
 11
808.5169498081867
 21
1979.906290585064
 31
0.0
  0
LINE
  5
10A
330
87
100
AcDbEntity
  8
P-SANR-FIXT
100
AcDbLine
 10
875.6664074431878
 20
2009.05250235122
 30
0.0
 11
875.6664074431878
 21
1992.420004042186
 31
0.0
  0
LINE
  5
10B
330
87
100
AcDbEntity
  8
P-SANR-FIXT
100
AcDbLine
 10
875.6664074431878
 20
1987.490875075174
 30
0.0
 11
875.6664074431878
 21
1954.225878457106
 31
0.0
  0
LINE
  5
10C
330
87
100
AcDbEntity
  8
P-SANR-FIXT
100
AcDbLine
 10
875.6664074431878
 20
1949.296749490094
 30
0.0
 11
875.6664074431878
 21
1932.66425118106
 31
0.0
  0
LINE
  5
10D
330
87
100
AcDbEntity
  8
P-SANR-FIXT
100
AcDbLine
 10
849.7785142183973
 20
2009.05250235122
 30
0.0
 11
875.6664074431878
 21
2009.05250235122
 31
0.0
  0
LINE
  5
10E
330
87
100
AcDbEntity
  8
P-SANR-FIXT
100
AcDbLine
 10
875.6664074431878
 20
2009.15837676614
 30
0.0
 11
875.6664074431878
 21
2009.05250235122
 31
0.0
  0
LINE
  5
10F
330
87
100
AcDbEntity
  8
P-SANR-FIXT
100
AcDbLine
 10
875.6664074431878
 20
1932.66425118106
 30
0.0
 11
875.6664074431878
 21
1932.55837676614
 31
0.0
  0
LINE
  5
110
330
87
100
AcDbEntity
  8
P-SANR-FIXT
100
AcDbLine
 10
875.6664074431878
 20
1932.66425118106
 30
0.0
 11
849.7785142183973
 21
1932.66425118106
 31
0.0
  0
LINE
  5
111
330
87
100
AcDbEntity
  8
P-SANR-FIXT
100
AcDbLine
 10
875.6664074431878
 20
1992.420004042187
 30
0.0
 11
875.6664074431878
 21
1987.490875075174
 31
0.0
  0
LINE
  5
112
330
87
100
AcDbEntity
  8
P-SANR-FIXT
100
AcDbLine
 10
875.6664074431878
 20
1992.420004042186
 30
0.0
 11
849.7785142183973
 21
1992.420004042186
 31
0.0
  0
LINE
  5
113
330
87
100
AcDbEntity
  8
P-SANR-FIXT
100
AcDbLine
 10
849.7785142183973
 20
1987.490875075174
 30
0.0
 11
875.6664074431878
 21
1987.490875075174
 31
0.0
  0
LINE
  5
114
330
87
100
AcDbEntity
  8
P-SANR-FIXT
100
AcDbLine
 10
875.6664074431878
 20
1954.225878457107
 30
0.0
 11
875.6664074431878
 21
1949.296749490094
 31
0.0
  0
LINE
  5
115
330
87
100
AcDbEntity
  8
P-SANR-FIXT
100
AcDbLine
 10
875.6664074431878
 20
1954.225878457106
 30
0.0
 11
849.7785142183973
 21
1954.225878457106
 31
0.0
  0
LINE
  5
116
330
87
100
AcDbEntity
  8
P-SANR-FIXT
100
AcDbLine
 10
849.7785142183973
 20
1949.296749490094
 30
0.0
 11
875.6664074431878
 21
1949.296749490094
 31
0.0
  0
LINE
  5
117
330
87
100
AcDbEntity
  8
P-SANR-FIXT
100
AcDbLine
 10
864.5712619564489
 20
2016.75837676614
 30
0.0
 11
766.7615529299268
 21
2016.75837676614
 31
0.0
  0
LINE
  5
118
330
87
100
AcDbEntity
  8
P-SANR-FIXT
100
AcDbLine
 10
849.7785142183976
 20
1932.66425118106
 30
0.0
 11
849.7785142183976
 21
1932.55837676614
 31
0.0
  0
SPLINE
  5
119
330
87
100
AcDbEntity
  8
P-SANR-FIXT
100
AcDbSpline
210
0.0
220
0.0
230
1.0
 70
     8
 71
     3
 72
    10
 73
     6
 74
     0
 42
0.000000001
 43
0.0000000001
 40
-1.0
 40
-1.0
 40
-1.0
 40
-1.0
 40
-0.6666666666666666
 40
-0.3333333333333333
 40
0.0
 40
0.0
 40
0.0
 40
0.0
 10
849.7785142183973
 20
1932.66425118106
 30
0.0
 10
848.1157842384201
 20
1934.44626804145
 30
0.0
 10
845.8985444705941
 20
1938.057357453296
 30
0.0
 10
845.8757620389208
 20
1943.860590227482
 30
0.0
 10
848.1057919438264
 20
1947.496281348114
 30
0.0
 10
849.7785142183973
 20
1949.296749490094
 30
0.0
  0
LINE
  5
11A
330
87
100
AcDbEntity
  8
P-SANR-FIXT
100
AcDbLine
 10
849.7785142183973
 20
1954.225878457107
 30
0.0
 11
849.7785142183973
 21
1949.296749490094
 31
0.0
  0
SPLINE
  5
11B
330
87
100
AcDbEntity
  8
P-SANR-FIXT
100
AcDbSpline
210
0.0
220
0.0
230
1.0
 70
     8
 71
     3
 72
     8
 73
     4
 74
     0
 42
0.000000001
 43
0.0000000001
 40
-1.0
 40
-1.0
 40
-1.0
 40
-1.0
 40
-0.7583056045868159
 40
-0.7583056045868159
 40
-0.7583056045868159
 40
-0.7583056045868159
 10
849.7785142183973
 20
1954.225878457106
 30
0.0
 10
848.5728966666593
 20
1956.810099383235
 30
0.0
 10
847.6586000747856
 20
1959.419059633165
 30
0.0
 10
847.0342531466986
 20
1962.083946142083
 30
0.0
  0
SPLINE
  5
11C
330
87
100
AcDbEntity
  8
P-SANR-FIXT
100
AcDbSpline
210
0.0
220
0.0
230
1.0
 70
     8
 71
     3
 72
     8
 73
     4
 74
     0
 42
0.000000001
 43
0.0000000001
 40
-0.2451408088200874
 40
-0.2451408088200874
 40
-0.2451408088200874
 40
-0.2451408088200874
 40
0.0
 40
0.0
 40
0.0
 40
0.0
 10
846.9943741607538
 20
1979.457315949532
 30
0.0
 10
847.619833125875
 20
1982.175659456771
 30
0.0
 10
848.5483567444383
 20
1984.842665775696
 30
0.0
 10
849.7785142183973
 20
1987.490875075174
 30
0.0
  0
LINE
  5
11D
330
87
100
AcDbEntity
  8
P-SANR-FIXT
100
AcDbLine
 10
849.7785142183973
 20
1992.420004042187
 30
0.0
 11
849.7785142183973
 21
1987.490875075174
 31
0.0
  0
SPLINE
  5
11E
330
87
100
AcDbEntity
  8
P-SANR-FIXT
100
AcDbSpline
210
0.0
220
0.0
230
1.0
 70
     8
 71
     3
 72
    10
 73
     6
 74
     0
 42
0.000000001
 43
0.0000000001
 40
-1.0
 40
-1.0
 40
-1.0
 40
-1.0
 40
-0.6666666666666666
 40
-0.3333333333333333
 40
0.0
 40
0.0
 40
0.0
 40
0.0
 10
849.7785142183973
 20
1992.420004042186
 30
0.0
 10
848.1157842384199
 20
1994.202020902576
 30
0.0
 10
845.8985444705939
 20
1997.813110314422
 30
0.0
 10
845.8757620389212
 20
2003.616343088609
 30
0.0
 10
848.1057919438265
 20
2007.252034209241
 30
0.0
 10
849.7785142183973
 20
2009.05250235122
 30
0.0
  0
LINE
  5
11F
330
87
100
AcDbEntity
  8
P-SANR-FIXT
100
AcDbLine
 10
849.7785142183973
 20
2009.15837676614
 30
0.0
 11
849.7785142183973
 21
2009.05250235122
 31
0.0
  0
LINE
  5
120
330
87
100
AcDbEntity
  8
P-SANR-FIXT
100
AcDbLine
 10
755.6664074431876
 20
1932.55837676614
 30
0.0
 11
755.6664074431876
 21
1932.66425118106
 31
0.0
  0
LINE
  5
121
330
87
100
AcDbEntity
  8
P-SANR-FIXT
100
AcDbLine
 10
755.6664074431876
 20
1932.66425118106
 30
0.0
 11
755.6664074431875
 21
1949.296749490094
 31
0.0
  0
LINE
  5
122
330
87
100
AcDbEntity
  8
P-SANR-FIXT
100
AcDbLine
 10
755.6664074431875
 20
1949.296749490094
 30
0.0
 11
755.6664074431875
 21
1954.225878457107
 31
0.0
  0
LINE
  5
123
330
87
100
AcDbEntity
  8
P-SANR-FIXT
100
AcDbLine
 10
755.6664074431875
 20
1954.225878457107
 30
0.0
 11
755.6664074431876
 21
1987.490875075173
 31
0.0
  0
LINE
  5
124
330
87
100
AcDbEntity
  8
P-SANR-FIXT
100
AcDbLine
 10
755.6664074431876
 20
1987.490875075173
 30
0.0
 11
755.6664074431876
 21
1992.420004042187
 31
0.0
  0
LINE
  5
125
330
87
100
AcDbEntity
  8
P-SANR-FIXT
100
AcDbLine
 10
755.6664074431876
 20
1992.420004042187
 30
0.0
 11
755.6664074431878
 21
2009.05250235122
 31
0.0
  0
LINE
  5
126
330
87
100
AcDbEntity
  8
P-SANR-FIXT
100
AcDbLine
 10
755.6664074431878
 20
2009.05250235122
 30
0.0
 11
755.6664074431878
 21
2009.15837676614
 31
0.0
  0
LINE
  5
127
330
87
100
AcDbEntity
  8
P-SANR-FIXT
100
AcDbLine
 10
798.6664074431875
 20
1970.85837676614
 30
0.0
 11
798.6664074431875
 21
1939.85837676614
 31
0.0
  0
SPLINE
  5
128
330
87
100
AcDbEntity
  8
P-SANR-FIXT
100
AcDbSpline
210
0.0
220
0.0
230
1.0
 70
     8
 71
     3
 72
     9
 73
     5
 74
     0
 42
0.000000001
 43
0.0000000001
 40
-1.0
 40
-1.0
 40
-1.0
 40
-1.0
 40
-0.5
 40
0.0
 40
0.0
 40
0.0
 40
0.0
 10
789.6340755512444
 20
1997.474768402353
 30
0.0
 10
790.8954966328951
 20
1996.283637748615
 30
0.0
 10
793.662306363203
 20
1993.538741932635
 30
0.0
 10
796.9170512275239
 20
1990.367639578628
 30
0.0
 10
798.6664074431875
 20
1988.739931508388
 30
0.0
  0
SPLINE
  5
129
330
87
100
AcDbEntity
  8
P-SANR-FIXT
100
AcDbSpline
210
0.0
220
0.0
230
1.0
 70
     8
 71
     3
 72
    13
 73
     9
 74
     0
 42
0.000000001
 43
0.0000000001
 40
0.0
 40
0.0
 40
0.0
 40
0.0
 40
0.1666666666666666
 40
0.3333333333333333
 40
0.5
 40
0.6666666666666666
 40
0.8333333333333332
 40
1.0
 40
1.0
 40
1.0
 40
1.0
 10
789.6340755512444
 20
1997.474768402353
 30
0.0
 10
789.6795831758567
 20
1997.955415248809
 30
0.0
 10
789.7457298683224
 20
1998.840876843606
 30
0.0
 10
789.7891887400732
 20
1999.935737791649
 30
0.0
 10
789.7203529348859
 20
2000.78786570447
 30
0.0
 10
789.6240227177464
 20
2001.401859456515
 30
0.0
 10
789.584998353641
 20
2001.775123923395
 30
0.0
 10
789.5594970062663
 20
2001.85837676614
 30
0.0
 10
789.5500158069745
 20
2001.85837676614
 30
0.0
  0
SPLINE
  5
12A
330
87
100
AcDbEntity
  8
P-SANR-FIXT
100
AcDbSpline
210
0.0
220
0.0
230
1.0
 70
     8
 71
     3
 72
    10
 73
     6
 74
     0
 42
0.000000001
 43
0.0000000001
 40
-1.0
 40
-1.0
 40
-1.0
 40
-1.0
 40
-0.6666666666666666
 40
-0.3333333333333333
 40
0.0
 40
0.0
 40
0.0
 40
0.0
 10
776.366407443188
 20
2009.05250235122
 30
0.0
 10
778.0391297177588
 20
2007.252034209241
 30
0.0
 10
780.2691596226638
 20
2003.616343088609
 30
0.0
 10
780.2463771909907
 20
1997.813110314423
 30
0.0
 10
778.029137423165
 20
1994.202020902577
 30
0.0
 10
776.3664074431877
 20
1992.420004042187
 30
0.0
  0
SPLINE
  5
12B
330
87
100
AcDbEntity
  8
P-SANR-FIXT
100
AcDbSpline
210
0.0
220
0.0
230
1.0
 70
     8
 71
     3
 72
     8
 73
     4
 74
     0
 42
0.000000001
 43
0.0000000001
 40
-1.0
 40
-1.0
 40
-1.0
 40
-1.0
 40
-0.7559224678410655
 40
-0.7559224678410655
 40
-0.7559224678410655
 40
-0.7559224678410655
 10
776.3664074431877
 20
1987.490875075173
 30
0.0
 10
777.5912292174813
 20
1984.854152150223
 30
0.0
 10
778.5170280822455
 20
1982.198794913026
 30
0.0
 10
779.1423917766791
 20
1979.492684781169
 30
0.0
  0
SPLINE
  5
12C
330
87
100
AcDbEntity
  8
P-SANR-FIXT
100
AcDbSpline
210
0.0
220
0.0
230
1.0
 70
     8
 71
     3
 72
     8
 73
     4
 74
     0
 42
0.000000001
 43
0.0000000001
 40
-0.2414926149333889
 40
-0.2414926149333889
 40
-0.2414926149333889
 40
-0.2414926149333889
 40
0.0
 40
0.0
 40
0.0
 40
0.0
 10
779.1091041856812
 20
1962.077271854196
 30
0.0
 10
778.4847947682536
 20
1959.414703428163
 30
0.0
 10
777.5710184755663
 20
1956.807941925933
 30
0.0
 10
776.3664074431877
 20
1954.225878457107
 30
0.0
  0
SPLINE
  5
12D
330
87
100
AcDbEntity
  8
P-SANR-FIXT
100
AcDbSpline
210
0.0
220
0.0
230
1.0
 70
     8
 71
     3
 72
    10
 73
     6
 74
     0
 42
0.000000001
 43
0.0000000001
 40
-1.0
 40
-1.0
 40
-1.0
 40
-1.0
 40
-0.6666666666666666
 40
-0.3333333333333333
 40
0.0
 40
0.0
 40
0.0
 40
0.0
 10
776.3664074431877
 20
1949.296749490094
 30
0.0
 10
778.0391297177584
 20
1947.496281348115
 30
0.0
 10
780.2691596226638
 20
1943.860590227482
 30
0.0
 10
780.2463771909908
 20
1938.057357453297
 30
0.0
 10
778.0291374231651
 20
1934.44626804145
 30
0.0
 10
776.3664074431877
 20
1932.66425118106
 30
0.0
  0
LINE
  5
12E
330
87
100
AcDbEntity
  8
P-SANR-FIXT
100
AcDbLine
 10
783.6664074431874
 20
1962.012867003558
 30
0.0
 11
783.6664074431876
 21
1939.85837676614
 31
0.0
  0
LINE
  5
12F
330
87
100
AcDbEntity
  8
P-SANR-FIXT
100
AcDbLine
 10
783.6664074431878
 20
2001.85837676614
 30
0.0
 11
783.6664074431876
 21
1979.544682100697
 31
0.0
  0
LINE
  5
130
330
87
100
AcDbEntity
  8
P-SANR-FIXT
100
AcDbLine
 10
755.6664074431875
 20
1949.296749490094
 30
0.0
 11
776.3664074431877
 21
1949.296749490094
 31
0.0
  0
LINE
  5
131
330
87
100
AcDbEntity
  8
P-SANR-FIXT
100
AcDbLine
 10
776.3664074431877
 20
1954.225878457107
 30
0.0
 11
776.3664074431877
 21
1949.296749490094
 31
0.0
  0
LINE
  5
132
330
87
100
AcDbEntity
  8
P-SANR-FIXT
100
AcDbLine
 10
776.3664074431877
 20
1954.225878457107
 30
0.0
 11
755.6664074431875
 21
1954.225878457107
 31
0.0
  0
LINE
  5
133
330
87
100
AcDbEntity
  8
P-SANR-FIXT
100
AcDbLine
 10
755.6664074431876
 20
1987.490875075173
 30
0.0
 11
776.3664074431877
 21
1987.490875075173
 31
0.0
  0
LINE
  5
134
330
87
100
AcDbEntity
  8
P-SANR-FIXT
100
AcDbLine
 10
776.3664074431877
 20
1992.420004042187
 30
0.0
 11
776.3664074431877
 21
1987.490875075174
 31
0.0
  0
LINE
  5
135
330
87
100
AcDbEntity
  8
P-SANR-FIXT
100
AcDbLine
 10
776.3664074431877
 20
1992.420004042187
 30
0.0
 11
755.6664074431876
 21
1992.420004042187
 31
0.0
  0
LINE
  5
136
330
87
100
AcDbEntity
  8
P-SANR-FIXT
100
AcDbLine
 10
755.6664074431878
 20
2009.05250235122
 30
0.0
 11
776.366407443188
 21
2009.05250235122
 31
0.0
  0
LINE
  5
137
330
87
100
AcDbEntity
  8
P-SANR-FIXT
100
AcDbLine
 10
776.366407443188
 20
2009.15837676614
 30
0.0
 11
776.366407443188
 21
2009.05250235122
 31
0.0
  0
LINE
  5
138
330
87
100
AcDbEntity
  8
P-SANR-FIXT
100
AcDbLine
 10
776.3664074431877
 20
1932.66425118106
 30
0.0
 11
776.3664074431877
 21
1932.55837676614
 31
0.0
  0
LINE
  5
139
330
87
100
AcDbEntity
  8
P-SANR-FIXT
100
AcDbLine
 10
776.3664074431877
 20
1932.66425118106
 30
0.0
 11
755.6664074431876
 21
1932.66425118106
 31
0.0
  0
LINE
  5
13A
330
87
100
AcDbEntity
  8
P-SANR-FIXT
100
AcDbLine
 10
841.6987393351309
 20
1997.474768402353
 30
0.0
 11
789.6340755512444
 21
1997.474768402353
 31
0.0
  0
LINE
  5
13B
330
87
100
AcDbEntity
  8
P-SANR-FIXT
100
AcDbLine
 10
815.9455916730204
 20
1970.85837676614
 30
0.0
 11
798.6664074431875
 21
1970.85837676614
 31
0.0
  0
LINE
  5
13C
330
87
100
AcDbEntity
  8
P-SANR-FIXT
100
AcDbLine
 10
873.1703630683139
 20
2019.75837676614
 30
0.0
 11
758.1624518180618
 21
2019.75837676614
 31
0.0
  0
ENDBLK
  5
13E
330
87
100
AcDbEntity
  8
0
100
AcDbBlockEnd
  0
BLOCK
  5
190
330
140
100
AcDbEntity
  8
0
100
AcDbBlockBegin
  2
Automatic flow rate regulator valve_Caleffi_121 DN15 - 1_2__-V1-Est - Idraulica
 70
     0
 10
0.0
 20
0.0
 30
0.0
  3
Automatic flow rate regulator valve_Caleffi_121 DN15 - 1_2__-V1-Est - Idraulica
  1

  0
LINE
  5
141
330
140
100
AcDbEntity
  8
M-PIPE
100
AcDbLine
 10
786.1674667842132
 20
1743.997075844252
 30
0.0
 11
791.7314306836326
 21
1740.78471978916
 31
0.0
1001
REVIT
1002
{
1070
     3
1000
938184
1002
}
  0
LWPOLYLINE
  5
142
330
140
100
AcDbEntity
  8
M-PIPE
100
AcDbPolyline
 90
       14
 70
   128
 43
0.0
 10
786.1674667842137
 20
1759.497075844252
 10
785.8811454504084
 20
1758.311233674712
 10
785.6424741819413
 20
1757.114890252922
 10
785.4518348019281
 20
1755.909959473152
 10
785.3095322927089
 20
1754.698368967609
 10
785.2157943079427
 20
1753.482057022645
 10
785.1707708084084
 20
1752.262969477905
 10
785.1745338221008
 20
1751.043056613403
 10
785.2270773290009
 20
1749.824270029487
 10
785.3283172707062
 20
1748.608559524698
 10
785.4780916849064
 20
1747.397869976506
 10
785.6761609644894
 20
1746.194138229921
 10
785.9222082408605
 20
1744.999289998956
 10
786.1674667842132
 20
1743.997075844252
1001
REVIT
1002
{
1070
     3
1000
938184
1002
}
  0
LINE
  5
143
330
140
100
AcDbEntity
  8
M-PIPE
100
AcDbLine
 10
792.8098807102757
 20
1763.332075312532
 30
0.0
 11
786.1674667842137
 21
1759.497075844252
 31
0.0
1001
REVIT
1002
{
1070
     3
1000
938184
1002
}
  0
LWPOLYLINE
  5
144
330
140
100
AcDbEntity
  8
M-PIPE
100
AcDbPolyline
 90
       55
 70
   128
 43
0.0
 10
838.522934176141
 20
1763.33207531251
 10
838.0090752926989
 20
1764.236179754632
 10
837.4594729068791
 20
1765.119012135019
 10
836.8750062652571
 20
1765.979160110189
 10
836.256610389779
 20
1766.81524762687
 10
835.6052745819292
 20
1767.625937123391
 10
834.9220408400553
 20
1768.409931669497
 10
834.208002192396
 20
1769.165977041156
 10
833.4643009484672
 20
1769.892863727054
 10
832.6921268716114
 20
1770.589428863556
 10
831.8927152756298
 20
1771.254558095035
 10
831.0673450485444
 20
1771.887187356608
 10
830.2173366066481
 20
1772.48630457641
 10
829.3440497821233
 20
1773.050951294694
 10
828.4488816475976
 20
1773.580224197163
 10
827.5332642811273
 20
1774.073276560077
 10
826.5986624751771
 20
1774.529319604836
 10
825.646571393266
 20
1774.947623759852
 10
824.6785141780229
 20
1775.327519827709
 10
823.6960395144844
 20
1775.668400055741
 10
822.7007191525286
 20
1775.969719108298
 10
821.6941453924111
 20
1776.230994939175
 10
820.6779285374235
 20
1776.451809562778
 10
819.6536943177527
 20
1776.631809722815
 10
818.6230812896585
 20
1776.770707457427
 10
817.5877382141335
 20
1776.868280559869
 10
816.549321419237
 20
1776.924372933991
 10
815.5094921503236
 20
1776.93889484396
 10
814.4699139124057
 20
1776.911823057819
 10
813.4322498088984
 20
1776.84320088465
 10
812.3981598810113
 20
1776.733138105291
 10
811.3692984520344
 20
1776.581810796711
 10
810.3473114807762
 20
1776.389461050323
 10
809.3338339283777
 20
1776.156396584687
 10
808.3304871427257
 20
1775.882990253231
 10
807.3388762646418
 20
1775.569679447762
 10
806.3605876599984
 20
1775.216965398733
 10
805.3971863818727
 20
1774.82541237338
 10
804.4502136667944
 20
1774.395646773017
 10
803.521184469098
 20
1773.928356130927
 10
802.6115850373175
 20
1773.424288012452
 10
801.7228705365063
 20
1772.884248819055
 10
800.8564627202829
 20
1772.309102498241
 10
800.0137476563303
 20
1771.699769161434
 10
799.1960735089803
 20
1771.057223611987
 10
798.4047483824415
 20
1770.382493785711
 10
797.6410382281089
 20
1769.676659106394
 10
796.9061648193136
 20
1768.940848758952
 10
796.2013037967446
 20
1768.176239882976
 10
795.527582787676
 20
1767.384055689561
 10
794.8860796020028
 20
1766.565563504424
 10
794.2778205079754
 20
1765.722072740462
 10
793.7037785903888
 20
1764.854932802959
 10
793.1648721938564
 20
1763.965530930837
 10
792.8098807102757
 20
1763.332075312532
1001
REVIT
1002
{
1070
     3
1000
938184
1002
}
  0
LINE
  5
145
330
140
100
AcDbEntity
  8
M-PIPE
100
AcDbLine
 10
845.1653481021649
 20
1759.497075844251
 30
0.0
 11
838.522934176141
 21
1763.33207531251
 31
0.0
1001
REVIT
1002
{
1070
     3
1000
938184
1002
}
  0
LWPOLYLINE
  5
146
330
140
100
AcDbEntity
  8
M-PIPE
100
AcDbPolyline
 90
       14
 70
   128
 43
0.0
 10
845.1653481021649
 20
1743.997075844251
 10
845.4516694359702
 20
1745.182918013791
 10
845.6903407044373
 20
1746.37926143558
 10
845.8809800844504
 20
1747.584192215351
 10
846.0232825936694
 20
1748.795782720893
 10
846.1170205784357
 20
1750.012094665857
 10
846.1620440779702
 20
1751.231182210597
 10
846.1582810642777
 20
1752.4510950751
 10
846.1057375573776
 20
1753.669881659015
 10
846.0044976156725
 20
1754.885592163805
 10
845.8547232014719
 20
1756.096281711997
 10
845.656653921889
 20
1757.300013458581
 10
845.410606645518
 20
1758.494861689547
 10
845.1653481021649
 20
1759.497075844251
1001
REVIT
1002
{
1070
     3
1000
938184
1002
}
  0
LINE
  5
147
330
140
100
AcDbEntity
  8
M-PIPE
100
AcDbLine
 10
839.6013842027803
 20
1740.78471978918
 30
0.0
 11
845.1653481021649
 21
1743.997075844251
 31
0.0
1001
REVIT
1002
{
1070
     3
1000
938184
1002
}
  0
LWPOLYLINE
  5
148
330
140
100
AcDbEntity
  8
M-PIPE
100
AcDbPolyline
 90
       60
 70
   128
 43
0.0
 10
791.7314306836328
 20
1740.78471978916
 10
792.1566537472052
 20
1739.835698640521
 10
792.6194874015443
 20
1738.904440994771
 10
793.1191912115362
 20
1737.992436665484
 10
793.6549657576827
 20
1737.101144665038
 10
794.2259539150021
 20
1736.231990870501
 10
794.831242224247
 20
1735.386365742534
 10
795.4698623532443
 20
1734.565622100951
 10
796.1407926460188
 20
1733.771072960498
 10
796.8429597572264
 20
1733.003989430303
 10
797.5752403692771
 20
1732.26559868038
 10
798.3364629894031
 20
1731.557081978413
 10
799.1254098237971
 20
1730.879572799982
 10
799.9408187258243
 20
1730.234155015247
 10
800.7813852151862
 20
1729.621861154981
 10
801.6457645648106
 20
1729.043670758744
 10
802.5325739521298
 20
1728.50050880783
 10
803.4403946712993
 20
1727.993244245492
 10
804.367774402827
 20
1727.522688586819
 10
805.3132295369728
 20
1727.089594620484
 10
806.2752475472084
 20
1726.694655204446
 10
807.2522894099373
 20
1726.338502157522
 10
808.2427920666029
 20
1726.021705248611
 10
809.2451709242512
 20
1725.744771285186
 10
810.2578223905389
 20
1725.508143302515
 10
811.2791264391409
 20
1725.312199854891
 10
812.307449201446
 20
1725.157254410031
 10
813.3411455803985
 20
1725.043554847594
 10
814.378561882302
 20
1724.971283062625
 10
815.4180384623774
 20
1724.940554674563
 10
816.4579123798393
 20
1724.951418842273
 10
817.496520058248
 20
1725.003858185406
 10
818.532199946876
 20
1725.097788812198
 10
819.5632951788347
 20
1725.233060453684
 10
820.5881562217076
 20
1725.409456704094
 10
821.6051435164523
 20
1725.626695367056
 10
822.6126301003425
 20
1725.884428907052
 10
823.6090042097632
 20
1726.182245005399
 10
824.5926718586876
 20
1726.519667219868
 10
825.5620593887154
 20
1726.896155746897
 10
826.5156159865902
 20
1727.311108285156
 10
827.4518161651698
 20
1727.763860999101
 10
828.3691622038812
 20
1728.253689580973
 10
829.2661865447517
 20
1728.779810409532
 10
830.1414541401909
 20
1729.341381803686
 10
830.9935647487604
 20
1729.937505368998
 10
831.8211551752604
 20
1730.567227434932
 10
832.6229014515515
 20
1731.229540580514
 10
833.3975209546215
 20
1731.923385245999
 10
834.1437744585089
 20
1732.647651427933
 10
834.8604681168003
 20
1733.401180454927
 10
835.5464553725282
 20
1734.182766841283
 10
836.2006387924198
 20
1734.991160215512
 10
836.8219718225555
 20
1735.825067320662
 10
837.4094604626302
 20
1736.683154083257
 10
837.9621648561444
 20
1737.564047747525
 10
838.4792007939728
 20
1738.466339071518
 10
838.9597411289095
 20
1739.388584581595
 10
839.4030170989285
 20
1740.329308881675
 10
839.6013842027803
 20
1740.78471978918
1001
REVIT
1002
{
1070
     3
1000
938184
1002
}
  0
SPLINE
  5
149
330
140
100
AcDbEntity
  8
M-PIPE
100
AcDbSpline
210
0.0
220
0.0
230
1.0
 70
     8
 71
     3
 72
    14
 73
    10
 74
     0
 42
0.000000001
 43
0.0000000001
 40
0.0
 40
0.0
 40
0.0
 40
0.0
 40
0.1428571428571428
 40
0.2857142857142857
 40
0.4285714285714286
 40
0.5714285714285714
 40
0.6785714285714287
 40
0.7857142857142857
 40
1.0
 40
1.0
 40
1.0
 40
1.0
 10
789.2273773336095
 20
1746.271887549187
 30
0.0
 10
789.0054029981402
 20
1746.113367249811
 30
0.0
 10
788.5651645425852
 20
1745.790433213368
 30
0.0
 10
787.9284287808529
 20
1745.322616706062
 30
0.0
 10
787.3479658048895
 20
1744.890049691654
 30
0.0
 10
786.8924822362222
 20
1744.547491636624
 30
0.0
 10
786.5604582405447
 20
1744.296535009723
 30
0.0
 10
786.262792374943
 20
1744.069758339435
 30
0.0
 10
786.1681539418273
 20
1743.996679113617
 30
0.0
 10
786.1674667842119
 20
1743.997075844251
 30
0.0
1001
REVIT
1002
{
1070
     3
1000
938184
1002
}
  0
SPLINE
  5
14A
330
140
100
AcDbEntity
  8
M-PIPE
100
AcDbSpline
210
0.0
220
0.0
230
1.0
 70
     8
 71
     3
 72
    13
 73
     9
 74
     0
 42
0.000000001
 43
0.0000000001
 40
-1.0
 40
-1.0
 40
-1.0
 40
-1.0
 40
-0.8333333333333332
 40
-0.6666666666666666
 40
-0.5
 40
-0.3333333333333333
 40
-0.1666666666666666
 40
0.0
 40
0.0
 40
0.0
 40
0.0
 10
789.2273773336096
 20
1757.222264139314
 30
0.0
 10
788.9473775787463
 20
1757.413289415183
 30
0.0
 10
788.4028445085999
 20
1757.804237374432
 30
0.0
 10
787.6699020617796
 20
1758.3669976699
 30
0.0
 10
787.0310560049034
 20
1758.844786406217
 30
0.0
 10
786.5395885936208
 20
1759.210678579174
 30
0.0
 10
786.2429739809764
 20
1759.447809113372
 30
0.0
 10
786.1705875276006
 20
1759.498877606286
 30
0.0
 10
786.1674667842121
 20
1759.497075844251
 30
0.0
1001
REVIT
1002
{
1070
     3
1000
938184
1002
}
  0
SPLINE
  5
14B
330
140
100
AcDbEntity
  8
M-PIPE
100
AcDbSpline
210
0.0
220
0.0
230
1.0
 70
     8
 71
     3
 72
    13
 73
     9
 74
     0
 42
0.000000001
 43
0.0000000001
 40
0.0
 40
0.0
 40
0.0
 40
0.0
 40
0.1428571428571428
 40
0.2857142857142857
 40
0.4285714285714286
 40
0.5714285714285714
 40
0.7857142857142857
 40
1.0
 40
1.0
 40
1.0
 40
1.0
 10
795.4492833782843
 20
1760.814483269079
 30
0.0
 10
795.2536617868852
 20
1760.995472034267
 30
0.0
 10
794.8656935725389
 20
1761.361636386243
 30
0.0
 10
794.3080411318122
 20
1761.888967884953
 30
0.0
 10
793.8052363336423
 20
1762.369686382465
 30
0.0
 10
793.3100339178801
 20
1762.846355150832
 30
0.0
 10
792.9139301095577
 20
1763.230582447399
 30
0.0
 10
792.8102022058233
 20
1763.332260928073
 30
0.0
 10
792.8098807102742
 20
1763.332075312531
 30
0.0
1001
REVIT
1002
{
1070
     3
1000
938184
1002
}
  0
SPLINE
  5
14C
330
140
100
AcDbEntity
  8
M-PIPE
100
AcDbSpline
210
0.0
220
0.0
230
1.0
 70
     8
 71
     3
 72
    11
 73
     7
 74
     0
 42
0.000000001
 43
0.0000000001
 40
-1.0
 40
-1.0
 40
-1.0
 40
-1.0
 40
-0.8333333333333332
 40
-0.6666666666666666
 40
-0.5
 40
-0.3333333333333333
 40
-0.3333333333333333
 40
-0.3333333333333333
 40
-0.3333333333333333
 10
835.8835315081277
 20
1760.814483269059
 30
0.0
 10
836.1214287080295
 20
1761.028144126941
 30
0.0
 10
836.588391049125
 20
1761.462571338366
 30
0.0
 10
837.2242629500767
 20
1762.082747996627
 30
0.0
 10
837.7862905997099
 20
1762.615895987313
 30
0.0
 10
838.0727269026875
 20
1762.885229290426
 30
0.0
 10
838.1862379801122
 20
1762.995005913624
 30
0.0
1001
REVIT
1002
{
1070
     3
1000
938184
1002
}
  0
SPLINE
  5
14D
330
140
100
AcDbEntity
  8
M-PIPE
100
AcDbSpline
210
0.0
220
0.0
230
1.0
 70
     8
 71
     3
 72
     9
 73
     5
 74
     0
 42
0.000000001
 43
0.0000000001
 40
-0.3325048870486646
 40
-0.3325048870486646
 40
-0.3325048870486646
 40
-0.3325048870486646
 40
-0.1666666666666666
 40
0.0
 40
0.0
 40
0.0
 40
0.0
 10
838.1879284593173
 20
1762.99664106094
 30
0.0
 10
838.3005814959137
 20
1763.105625728365
 30
0.0
 10
838.4674972035433
 20
1763.274697520922
 30
0.0
 10
838.5237434542849
 20
1763.331608075554
 30
0.0
 10
838.5229341761395
 20
1763.332075312509
 30
0.0
1001
REVIT
1002
{
1070
     3
1000
938184
1002
}
  0
SPLINE
  5
14E
330
140
100
AcDbEntity
  8
M-PIPE
100
AcDbSpline
210
0.0
220
0.0
230
1.0
 70
     8
 71
     3
 72
    14
 73
    10
 74
     0
 42
0.000000001
 43
0.0000000001
 40
0.0
 40
0.0
 40
0.0
 40
0.0
 40
0.1428571428571428
 40
0.2857142857142857
 40
0.4285714285714286
 40
0.5714285714285714
 40
0.6785714285714287
 40
0.7857142857142857
 40
1.0
 40
1.0
 40
1.0
 40
1.0
 10
842.1054375527662
 20
1757.222264139313
 30
0.0
 10
842.3274118882353
 20
1757.380784438689
 30
0.0
 10
842.7676503437904
 20
1757.703718475133
 30
0.0
 10
843.4043861055227
 20
1758.171534982439
 30
0.0
 10
843.984849081486
 20
1758.604101996846
 30
0.0
 10
844.4403326501532
 20
1758.946660051877
 30
0.0
 10
844.7723566458305
 20
1759.197616678777
 30
0.0
 10
845.0700225114324
 20
1759.424393349066
 30
0.0
 10
845.164660944548
 20
1759.497472574884
 30
0.0
 10
845.1653481021635
 20
1759.49707584425
 30
0.0
1001
REVIT
1002
{
1070
     3
1000
938184
1002
}
  0
SPLINE
  5
14F
330
140
100
AcDbEntity
  8
M-PIPE
100
AcDbSpline
210
0.0
220
0.0
230
1.0
 70
     8
 71
     3
 72
    13
 73
     9
 74
     0
 42
0.000000001
 43
0.0000000001
 40
-1.0
 40
-1.0
 40
-1.0
 40
-1.0
 40
-0.8333333333333332
 40
-0.6666666666666666
 40
-0.5
 40
-0.3333333333333333
 40
-0.1666666666666666
 40
0.0
 40
0.0
 40
0.0
 40
0.0
 10
842.1054375527662
 20
1746.271887549187
 30
0.0
 10
842.3854373076293
 20
1746.080862273318
 30
0.0
 10
842.9299703777756
 20
1745.689914314069
 30
0.0
 10
843.6629128245959
 20
1745.127154018601
 30
0.0
 10
844.3017588814722
 20
1744.649365282284
 30
0.0
 10
844.7932262927549
 20
1744.283473109326
 30
0.0
 10
845.0898409053992
 20
1744.046342575128
 30
0.0
 10
845.1622273587751
 20
1743.995274082215
 30
0.0
 10
845.1653481021635
 20
1743.99707584425
 30
0.0
1001
REVIT
1002
{
1070
     3
1000
938184
1002
}
  0
SPLINE
  5
150
330
140
100
AcDbEntity
  8
M-PIPE
100
AcDbSpline
210
0.0
220
0.0
230
1.0
 70
     8
 71
     3
 72
    10
 73
     6
 74
     0
 42
0.000000001
 43
0.0000000001
 40
0.0
 40
0.0
 40
0.0
 40
0.0
 40
0.1666666666666666
 40
0.25
 40
0.3304009551247757
 40
0.3304009551247757
 40
0.3304009551247757
 40
0.3304009551247757
 10
791.7314306836312
 20
1740.78471978916
 30
0.0
 10
791.7292082558774
 20
1740.786002908421
 30
0.0
 10
791.7713305723306
 20
1740.827762288422
 30
0.0
 10
791.91839780094
 20
1740.962085869206
 30
0.0
 10
792.0190760450464
 20
1741.05377834546
 30
0.0
 10
792.0763286123186
 20
1741.104297959548
 30
0.0
1001
REVIT
1002
{
1070
     3
1000
938184
1002
}
  0
SPLINE
  5
151
330
140
100
AcDbEntity
  8
M-PIPE
100
AcDbSpline
210
0.0
220
0.0
230
1.0
 70
     8
 71
     3
 72
    11
 73
     7
 74
     0
 42
0.000000001
 43
0.0000000001
 40
0.3333333333333333
 40
0.3333333333333333
 40
0.3333333333333333
 40
0.3333333333333333
 40
0.5
 40
0.6666666666666666
 40
0.8333333333333332
 40
1.0
 40
1.0
 40
1.0
 40
1.0
 10
792.0826241881243
 20
1741.109847502235
 30
0.0
 10
792.2024903062601
 20
1741.215401078686
 30
0.0
 10
792.5097347133806
 20
1741.473551758688
 30
0.0
 10
793.1112277742502
 20
1741.987763247384
 30
0.0
 10
793.7866098625806
 20
1742.585652459646
 30
0.0
 10
794.2835523532144
 20
1743.002294059756
 30
0.0
 10
794.5370311383323
 20
1743.206357495727
 30
0.0
1001
REVIT
1002
{
1070
     3
1000
938184
1002
}
  0
SPLINE
  5
152
330
140
100
AcDbEntity
  8
M-PIPE
100
AcDbSpline
210
0.0
220
0.0
230
1.0
 70
     8
 71
     3
 72
    13
 73
     9
 74
     0
 42
0.000000001
 43
0.0000000001
 40
0.0
 40
0.0
 40
0.0
 40
0.0
 40
0.1428571428571428
 40
0.2857142857142857
 40
0.4285714285714286
 40
0.5714285714285714
 40
0.7857142857142857
 40
1.0
 40
1.0
 40
1.0
 40
1.0
 10
836.7957837480762
 20
1743.206357495745
 30
0.0
 10
837.0022783499965
 20
1743.03445807625
 30
0.0
 10
837.4116929806248
 20
1742.685663489807
 30
0.0
 10
838.0014901068125
 20
1742.181861320779
 30
0.0
 10
838.5352117244194
 20
1741.719985198946
 30
0.0
 10
839.0634265629417
 20
1741.259120979513
 30
0.0
 10
839.4889835603066
 20
1740.884388713422
 30
0.0
 10
839.6009507358266
 20
1740.784469526917
 30
0.0
 10
839.6013842027787
 20
1740.784719789179
 30
0.0
1001
REVIT
1002
{
1070
     3
1000
938184
1002
}
  0
ARC
  5
153
330
140
100
AcDbEntity
  8
M-PIPE
100
AcDbCircle
 10
815.6664074431887
 20
1750.939368356156
 30
0.0
 40
30.0
100
AcDbArc
 50
17.61983641288926
 51
162.3801635871067
1001
REVIT
1002
{
1070
     3
1000
938184
1002
}
  0
ARC
  5
154
330
140
100
AcDbEntity
  8
M-PIPE
100
AcDbCircle
 10
815.6664074431887
 20
1750.939368356156
 30
0.0
 40
30.00000000000014
100
AcDbArc
 50
193.7930590902101
 51
346.206940909792
1001
REVIT
1002
{
1070
     3
1000
938184
1002
}
  0
LINE
  5
155
330
140
100
AcDbEntity
  8
M-PIPE
100
AcDbLine
 10
852.1664074431894
 20
1758.74707584425
 30
0.0
 11
845.3284194192322
 21
1758.74707584425
 31
0.0
1001
REVIT
1002
{
1070
     3
1000
790271
1002
}
  0
LINE
  5
156
330
140
100
AcDbEntity
  8
M-PIPE
100
AcDbLine
 10
845.3284194192319
 20
1744.74707584425
 30
0.0
 11
852.1664074431892
 21
1744.74707584425
 31
0.0
1001
REVIT
1002
{
1070
     3
1000
790271
1002
}
  0
ARC
  5
157
330
140
100
AcDbEntity
  8
M-PIPE
100
AcDbCircle
 10
752.6624518180585
 20
1751.747075844233
 30
0.0
 40
6.299999999999993
100
AcDbArc
 50
179.9999999998469
 51
239.9999999999996
1001
REVIT
1002
{
1070
     3
1000
790271
1002
}
  0
ARC
  5
158
330
140
100
AcDbEntity
  8
M-PIPE
100
AcDbCircle
 10
752.6624518180585
 20
1751.747075844233
 30
0.0
 40
6.300000000000044
100
AcDbArc
 50
119.9999999999989
 51
179.9999999998474
1001
REVIT
1002
{
1070
     3
1000
790271
1002
}
  0
LINE
  5
159
330
140
100
AcDbEntity
  8
M-PIPE
100
AcDbLine
 10
755.3044989246646
 20
1742.947075844233
 30
0.0
 11
749.5124518180585
 21
1746.291115800391
 31
0.0
1001
REVIT
1002
{
1070
     3
1000
790271
1002
}
  0
LINE
  5
15A
330
140
100
AcDbEntity
  8
M-PIPE
100
AcDbLine
 10
779.2066322788
 20
1702.84222133099
 30
0.0
 11
772.7464431632177
 21
1701.111218874518
 31
0.0
1001
REVIT
1002
{
1070
     3
1000
790271
1002
}
  0
ARC
  5
15B
330
140
100
AcDbEntity
  8
M-PIPE
100
AcDbCircle
 10
815.6664074431999
 20
1751.747075844233
 30
0.0
 40
61.00000000000005
100
AcDbArc
 50
233.2945626726638
 51
261.7054373273054
1001
REVIT
1002
{
1070
     3
1000
790271
1002
}
  0
ARC
  5
15C
330
140
100
AcDbEntity
  8
M-PIPE
100
AcDbCircle
 10
815.6664074431876
 20
1751.74707584425
 30
0.0
 40
48.90485451326415
100
AcDbArc
 50
359.9999999999992
 51
179.9999999999989
1001
REVIT
1002
{
1070
     3
1000
790271
1002
}
  0
ARC
  5
15D
330
140
100
AcDbEntity
  8
M-PIPE
100
AcDbCircle
 10
815.6664074431876
 20
1751.74707584425
 30
0.0
 40
48.90485451326414
100
AcDbArc
 50
180.0000000000002
 51
359.9999999999993
1001
REVIT
1002
{
1070
     3
1000
790271
1002
}
  0
LINE
  5
15E
330
140
100
AcDbEntity
  8
M-PIPE
100
AcDbLine
 10
749.5124518180586
 20
1757.203035888075
 30
0.0
 11
755.3044989246649
 21
1760.547075844234
 31
0.0
1001
REVIT
1002
{
1070
     3
1000
790271
1002
}
  0
ARC
  5
15F
330
140
100
AcDbEntity
  8
M-PIPE
100
AcDbCircle
 10
815.6664074431999
 20
1751.747075844233
 30
0.0
 40
60.99999999999983
100
AcDbArc
 50
188.2945626726909
 51
216.7054373272835
1001
REVIT
1002
{
1070
     3
1000
790271
1002
}
  0
LINE
  5
160
330
140
100
AcDbEntity
  8
M-PIPE
100
AcDbLine
 10
765.0305504734506
 20
1708.827111564285
 30
0.0
 11
766.7615529299255
 21
1715.287300679877
 31
0.0
1001
REVIT
1002
{
1070
     3
1000
790271
1002
}
  0
ARC
  5
161
330
140
100
AcDbEntity
  8
M-PIPE
100
AcDbCircle
 10
771.1158831790718
 20
1707.196551580139
 30
0.0
 40
6.300000000000087
100
AcDbArc
 50
165.0000000000032
 51
284.9999999999993
1001
REVIT
1002
{
1070
     3
1000
790271
1002
}
  0
LINE
  5
162
330
140
100
AcDbEntity
  8
M-PIPE
100
AcDbLine
 10
810.2104473993577
 20
1685.593120219091
 30
0.0
 11
806.8664074431987
 21
1691.385167325698
 31
0.0
1001
REVIT
1002
{
1070
     3
1000
790271
1002
}
  0
ARC
  5
163
330
140
100
AcDbEntity
  8
M-PIPE
100
AcDbCircle
 10
815.6664074431995
 20
1688.743120219092
 30
0.0
 40
6.300000000000077
100
AcDbArc
 50
210.0000000000024
 51
330.0000000000026
1001
REVIT
1002
{
1070
     3
1000
790271
1002
}
  0
LINE
  5
164
330
140
100
AcDbEntity
  8
M-PIPE
100
AcDbLine
 10
824.4664074431993
 20
1691.385167325698
 30
0.0
 11
821.1223674870417
 21
1685.593120219092
 31
0.0
1001
REVIT
1002
{
1070
     3
1000
790271
1002
}
  0
ARC
  5
165
330
140
100
AcDbEntity
  8
M-PIPE
100
AcDbCircle
 10
815.6664074431999
 20
1751.747075844233
 30
0.0
 40
60.99999999999982
100
AcDbArc
 50
278.2945626726904
 51
306.6583576303663
1001
REVIT
1002
{
1070
     3
1000
790271
1002
}
  0
LINE
  5
166
330
140
100
AcDbEntity
  8
M-PIPE
100
AcDbLine
 10
858.5610575752918
 20
1701.077288640974
 30
0.0
 11
852.0859853938127
 21
1702.812279002934
 31
0.0
1001
REVIT
1002
{
1070
     3
1000
790271
1002
}
  0
ARC
  5
167
330
140
100
AcDbEntity
  8
M-PIPE
100
AcDbCircle
 10
860.1916175594377
 20
1707.162621346595
 30
0.0
 40
6.300000000000007
100
AcDbArc
 50
254.9999999999998
 51
15.00000000000087
1001
REVIT
1002
{
1070
     3
1000
790271
1002
}
  0
LINE
  5
168
330
140
100
AcDbEntity
  8
M-PIPE
100
AcDbLine
 10
864.545947808584
 20
1715.253370446331
 30
0.0
 11
866.2769502650588
 21
1708.79318133074
 31
0.0
1001
REVIT
1002
{
1070
     3
1000
790271
1002
}
  0
ARC
  5
169
330
140
100
AcDbEntity
  8
M-PIPE
100
AcDbCircle
 10
815.6664074431999
 20
1751.747075844233
 30
0.0
 40
60.99999999999996
100
AcDbArc
 50
323.2548005183458
 51
351.6895339267376
1001
REVIT
1002
{
1070
     3
1000
790271
1002
}
  0
LINE
  5
16A
330
140
100
AcDbEntity
  8
M-PIPE
100
AcDbLine
 10
881.8224246024842
 20
1746.276963481713
 30
0.0
 11
876.0258710495477
 21
1742.930321727553
 31
0.0
1001
REVIT
1002
{
1070
     3
1000
790271
1002
}
  0
ARC
  5
16B
330
140
100
AcDbEntity
  8
M-PIPE
100
AcDbCircle
 10
878.6724246024842
 20
1751.732923525555
 30
0.0
 40
6.299999999999936
100
AcDbArc
 50
0.1287093354779144
 51
60.0000000000011
1001
REVIT
1002
{
1070
     3
1000
790271
1002
}
  0
ARC
  5
16C
330
140
100
AcDbEntity
  8
M-PIPE
100
AcDbCircle
 10
878.6724246024842
 20
1751.732923525555
 30
0.0
 40
6.300000000000065
100
AcDbArc
 50
300.0000000000003
 51
0.1287093354779144
1001
REVIT
1002
{
1070
     3
1000
790271
1002
}
  0
LINE
  5
16D
330
140
100
AcDbEntity
  8
M-PIPE
100
AcDbLine
 10
876.0303774958781
 20
1760.532923525555
 30
0.0
 11
881.8224246024842
 21
1757.188883569397
 31
0.0
1001
REVIT
1002
{
1070
     3
1000
790271
1002
}
  0
ARC
  5
16E
330
140
100
AcDbEntity
  8
M-PIPE
100
AcDbCircle
 10
815.6664074431999
 20
1751.747075844233
 30
0.0
 40
60.99999999999997
100
AcDbArc
 50
8.281129461247681
 51
36.70543732732754
1001
REVIT
1002
{
1070
     3
1000
790271
1002
}
  0
LINE
  5
16F
330
140
100
AcDbEntity
  8
M-PIPE
100
AcDbLine
 10
866.3022644129206
 20
1794.667040124212
 30
0.0
 11
864.5712619564475
 21
1788.206851008627
 31
0.0
1001
REVIT
1002
{
1070
     3
1000
790271
1002
}
  0
ARC
  5
170
330
140
100
AcDbEntity
  8
M-PIPE
100
AcDbCircle
 10
860.2169317072995
 20
1796.297600108357
 30
0.0
 40
6.300000000000007
100
AcDbArc
 50
345.0000000000008
 51
105.0000000000008
1001
REVIT
1002
{
1070
     3
1000
790271
1002
}
  0
LINE
  5
171
330
140
100
AcDbEntity
  8
M-PIPE
100
AcDbLine
 10
852.1261826075626
 20
1800.651930357503
 30
0.0
 11
858.5863717231536
 21
1802.382932813978
 31
0.0
1001
REVIT
1002
{
1070
     3
1000
790271
1002
}
  0
ARC
  5
172
330
140
100
AcDbEntity
  8
M-PIPE
100
AcDbCircle
 10
815.6664074431999
 20
1751.747075844233
 30
0.0
 40
61.00000000000004
100
AcDbArc
 50
53.29456267270885
 51
81.70543732730738
1001
REVIT
1002
{
1070
     3
1000
790271
1002
}
  0
LINE
  5
173
330
140
100
AcDbEntity
  8
M-PIPE
100
AcDbLine
 10
821.1223674870424
 20
1817.901031469375
 30
0.0
 11
824.4664074432009
 21
1812.108984362768
 31
0.0
1001
REVIT
1002
{
1070
     3
1000
790271
1002
}
  0
ARC
  5
174
330
140
100
AcDbEntity
  8
M-PIPE
100
AcDbCircle
 10
815.6664074432002
 20
1814.751031469375
 30
0.0
 40
6.30000000000005
100
AcDbArc
 50
29.99999999999992
 51
150.0000000000001
1001
REVIT
1002
{
1070
     3
1000
790271
1002
}
  0
LINE
  5
175
330
140
100
AcDbEntity
  8
M-PIPE
100
AcDbLine
 10
806.8664074432005
 20
1812.108984362768
 30
0.0
 11
810.2104473993582
 21
1817.901031469375
 31
0.0
1001
REVIT
1002
{
1070
     3
1000
790271
1002
}
  0
ARC
  5
176
330
140
100
AcDbEntity
  8
M-PIPE
100
AcDbCircle
 10
815.6664074431999
 20
1751.747075844233
 30
0.0
 40
60.9999999999999
100
AcDbArc
 50
98.29456267269193
 51
126.7054373273071
1001
REVIT
1002
{
1070
     3
1000
790271
1002
}
  0
LINE
  5
177
330
140
100
AcDbEntity
  8
M-PIPE
100
AcDbLine
 10
772.7464431632325
 20
1802.382932813969
 30
0.0
 11
779.2066322788242
 21
1800.651930357494
 31
0.0
1001
REVIT
1002
{
1070
     3
1000
790271
1002
}
  0
ARC
  5
178
330
140
100
AcDbEntity
  8
M-PIPE
100
AcDbCircle
 10
771.1158831790868
 20
1796.297600108347
 30
0.0
 40
6.300000000000007
100
AcDbArc
 50
75.00000000000113
 51
195.0000000000005
1001
REVIT
1002
{
1070
     3
1000
790271
1002
}
  0
LINE
  5
179
330
140
100
AcDbEntity
  8
M-PIPE
100
AcDbLine
 10
766.7615529299403
 20
1788.206851008611
 30
0.0
 11
765.0305504734657
 21
1794.667040124202
 31
0.0
1001
REVIT
1002
{
1070
     3
1000
790271
1002
}
  0
ARC
  5
17A
330
140
100
AcDbEntity
  8
M-PIPE
100
AcDbCircle
 10
815.6664074431999
 20
1751.747075844233
 30
0.0
 40
60.99999999999993
100
AcDbArc
 50
143.2945626726919
 51
170.6344724451225
1001
REVIT
1002
{
1070
     3
1000
790271
1002
}
  0
ARC
  5
17B
330
140
100
AcDbEntity
  8
M-PIPE
100
AcDbCircle
 10
815.6664074431999
 20
1751.747075844233
 30
0.0
 40
60.99999999999986
100
AcDbArc
 50
170.6344724451227
 51
171.7054373273084
1001
REVIT
1002
{
1070
     3
1000
790271
1002
}
  0
ARC
  5
17C
330
140
100
AcDbEntity
  8
M-PIPE
100
AcDbCircle
 10
815.6664074431875
 20
1751.74707584425
 30
0.0
 40
57.50395562512903
100
AcDbArc
 50
0.0000000000000382
 51
179.9999999999996
1001
REVIT
1002
{
1070
     3
1000
790271
1002
}
  0
ARC
  5
17D
330
140
100
AcDbEntity
  8
M-PIPE
100
AcDbCircle
 10
815.6664074431875
 20
1751.74707584425
 30
0.0
 40
57.50395562512927
100
AcDbArc
 50
179.9999999999995
 51
0.0
1001
REVIT
1002
{
1070
     3
1000
790271
1002
}
  0
LINE
  5
17E
330
140
100
AcDbEntity
  8
M-PIPE
100
AcDbLine
 10
852.1664074431877
 20
1758.74707584425
 30
0.0
 11
852.1664074431878
 21
1751.74707584425
 31
0.0
1001
REVIT
1002
{
1070
     3
1000
790271
1002
}
  0
LINE
  5
17F
330
140
100
AcDbEntity
  8
M-PIPE
100
AcDbLine
 10
852.1664074431878
 20
1751.747075844249
 30
0.0
 11
852.1664074431877
 21
1744.74707584425
 31
0.0
1001
REVIT
1002
{
1070
     3
1000
790271
1002
}
  0
LINE
  5
180
330
140
100
AcDbEntity
  8
P-SANR-FIXT
100
AcDbLine
 10
875.6664074431876
 20
1783.401241908273
 30
0.0
 11
875.6664074431874
 21
1762.468470441308
 31
0.0
  0
LINE
  5
181
330
140
100
AcDbEntity
  8
P-SANR-FIXT
100
AcDbLine
 10
875.6664074431874
 20
1741.02427263306
 30
0.0
 11
875.6664074431872
 21
1720.092909780223
 31
0.0
  0
LINE
  5
182
330
140
100
AcDbEntity
  8
P-SANR-FIXT
100
AcDbLine
 10
875.6664074431876
 20
1786.247075844249
 30
0.0
 11
875.6664074431876
 21
1783.401241908273
 31
0.0
  0
LINE
  5
183
330
140
100
AcDbEntity
  8
P-SANR-FIXT
100
AcDbLine
 10
875.6664074431876
 20
1786.247075844248
 30
0.0
 11
865.9099724373234
 21
1786.247075844248
 31
0.0
  0
LINE
  5
184
330
140
100
AcDbEntity
  8
P-SANR-FIXT
100
AcDbLine
 10
867.7800884036271
 20
1783.401241908273
 30
0.0
 11
875.6664074431876
 21
1783.401241908273
 31
0.0
  0
LINE
  5
185
330
140
100
AcDbEntity
  8
P-SANR-FIXT
100
AcDbLine
 10
875.6664074431872
 20
1720.092909780223
 30
0.0
 11
875.6664074431872
 21
1717.247075844248
 31
0.0
  0
LINE
  5
186
330
140
100
AcDbEntity
  8
P-SANR-FIXT
100
AcDbLine
 10
875.6664074431872
 20
1720.092909780223
 30
0.0
 11
867.7787291035194
 21
1720.092909780223
 31
0.0
  0
LINE
  5
187
330
140
100
AcDbEntity
  8
P-SANR-FIXT
100
AcDbLine
 10
865.9098216098028
 20
1717.247075844248
 30
0.0
 11
875.6664074431872
 21
1717.247075844248
 31
0.0
  0
LINE
  5
188
330
140
100
AcDbEntity
  8
P-SANR-FIXT
100
AcDbLine
 10
755.6664074431873
 20
1762.580658590218
 30
0.0
 11
755.6664074431875
 21
1783.401241908273
 31
0.0
  0
LINE
  5
189
330
140
100
AcDbEntity
  8
P-SANR-FIXT
100
AcDbLine
 10
755.6664074431875
 20
1783.401241908273
 30
0.0
 11
755.6664074431875
 21
1786.247075844249
 31
0.0
  0
LINE
  5
18A
330
140
100
AcDbEntity
  8
P-SANR-FIXT
100
AcDbLine
 10
755.6664074431872
 20
1717.247075844249
 30
0.0
 11
755.6664074431872
 21
1720.092909780225
 31
0.0
  0
LINE
  5
18B
330
140
100
AcDbEntity
  8
P-SANR-FIXT
100
AcDbLine
 10
755.6664074431872
 20
1720.092909780225
 30
0.0
 11
755.6664074431873
 21
1741.024766687012
 31
0.0
  0
LINE
  5
18C
330
140
100
AcDbEntity
  8
P-SANR-FIXT
100
AcDbLine
 10
755.6664074431875
 20
1783.401241908273
 30
0.0
 11
763.5571688121457
 21
1783.401241908273
 31
0.0
  0
LINE
  5
18D
330
140
100
AcDbEntity
  8
P-SANR-FIXT
100
AcDbLine
 10
765.4183043243656
 20
1786.247075844249
 30
0.0
 11
755.6664074431875
 21
1786.247075844249
 31
0.0
  0
LINE
  5
18E
330
140
100
AcDbEntity
  8
P-SANR-FIXT
100
AcDbLine
 10
755.6664074431872
 20
1717.247075844249
 30
0.0
 11
765.4227862919366
 21
1717.247075844249
 31
0.0
  0
LINE
  5
18F
330
140
100
AcDbEntity
  8
P-SANR-FIXT
100
AcDbLine
 10
763.5527898999308
 20
1720.092909780225
 30
0.0
 11
755.6664074431872
 21
1720.092909780225
 31
0.0
  0
ENDBLK
  5
191
330
140
100
AcDbEntity
  8
0
100
AcDbBlockEnd
  0
BLOCK
  5
22C
330
193
100
AcDbEntity
  8
0
100
AcDbBlockBegin
  2
Automatic flow rate regulator valve_Caleffi_121 DN15 - 1_2__-V2-Est - Idraulica
 70
     0
 10
0.0
 20
0.0
 30
0.0
  3
Automatic flow rate regulator valve_Caleffi_121 DN15 - 1_2__-V2-Est - Idraulica
  1

  0
LINE
  5
194
330
193
100
AcDbEntity
  8
M-PIPE
100
AcDbLine
 10
1152.170864317009
 20
2098.269142294539
 30
0.0
 11
1152.170864317009
 21
2142.919060616105
 31
0.0
1001
REVIT
1002
{
1070
     3
1000
938184
1002
}
  0
LINE
  5
195
330
193
100
AcDbEntity
  8
M-PIPE
100
AcDbLine
 10
1100.170864317009
 20
2142.919060616105
 30
0.0
 11
1100.170864317009
 21
2098.26914229454
 31
0.0
1001
REVIT
1002
{
1070
     3
1000
938184
1002
}
  0
LINE
  5
196
330
193
100
AcDbEntity
  8
M-PIPE
100
AcDbLine
 10
1133.903875177421
 20
2146.419060616105
 30
0.0
 11
1130.838345123961
 21
2146.419060616105
 31
0.0
1001
REVIT
1002
{
1070
     3
1000
938184
1002
}
  0
LINE
  5
197
330
193
100
AcDbEntity
  8
M-PIPE
100
AcDbLine
 10
1119.887968533834
 20
2146.419060616105
 30
0.0
 11
1116.295749404069
 21
2146.419060616105
 31
0.0
1001
REVIT
1002
{
1070
     3
1000
938184
1002
}
  0
LWPOLYLINE
  5
198
330
193
100
AcDbEntity
  8
M-PIPE
100
AcDbPolyline
 90
       41
 70
   128
 43
0.0
 10
1100.170864317009
 20
2142.919060616105
 10
1100.173663943696
 20
2143.059023285759
 10
1100.18205834495
 20
2143.198762044997
 10
1100.196034091521
 20
2143.338053341617
 10
1100.215568825194
 20
2143.476674339255
 10
1100.240631294565
 20
2143.614403273888
 10
1100.271181405027
 20
2143.7510198086
 10
1100.307170282921
 20
2143.88630538608
 10
1100.348540353721
 20
2144.020043578262
 10
1100.395225434137
 20
2144.152020432569
 10
1100.447150837999
 20
2144.282024814186
 10
1100.504233495739
 20
2144.409848743836
 10
1100.566382087282
 20
2144.535287730501
 10
1100.633497188137
 20
2144.658141098559
 10
1100.705471428462
 20
2144.778212308828
 10
1100.782189664825
 20
2144.895309272988
 10
1100.863529164414
 20
2145.009244660874
 10
1100.949359801381
 20
2145.11983620017
 10
1101.039544265016
 20
2145.226906968006
 10
1101.133938279416
 20
2145.330285673992
 10
1101.232390834294
 20
2145.429806934254
 10
1101.334744426565
 20
2145.525311536003
 10
1101.440835312314
 20
2145.616646692252
 10
1101.550493768757
 20
2145.703666286232
 10
1101.663544365756
 20
2145.786231105159
 10
1101.779806246471
 20
2145.864209062933
 10
1101.899093416695
 20
2145.937475411457
 10
1102.021215042401
 20
2146.005912940203
 10
1102.145975755041
 20
2146.069412163723
 10
1102.273175964087
 20
2146.127871496807
 10
1102.402612176341
 20
2146.181197416991
 10
1102.534077321474
 20
2146.229304614179
 10
1102.667361083297
 20
2146.272116127118
 10
1102.802250236226
 20
2146.309563466519
 10
1102.938528986389
 20
2146.341586724629
 10
1103.075979316859
 20
2146.368134671065
 10
1103.214381336426
 20
2146.389164834776
 10
1103.353513631384
 20
2146.404643571987
 10
1103.493153619742
 20
2146.41454612002
 10
1103.633077907305
 20
2146.41885663691
 10
1103.670864317009
 20
2146.419060616105
1001
REVIT
1002
{
1070
     3
1000
938184
1002
}
  0
LWPOLYLINE
  5
199
330
193
100
AcDbEntity
  8
M-PIPE
100
AcDbPolyline
 90
       41
 70
   128
 43
0.0
 10
1148.670864317009
 20
2146.419060616105
 10
1148.810826986663
 20
2146.416260989419
 10
1148.950565745902
 20
2146.407866588164
 10
1149.089857042521
 20
2146.393890841594
 10
1149.228478040159
 20
2146.37435610792
 10
1149.366206974792
 20
2146.34929363855
 10
1149.502823509505
 20
2146.318743528087
 10
1149.638109086984
 20
2146.282754650193
 10
1149.771847279166
 20
2146.241384579394
 10
1149.903824133472
 20
2146.194699498978
 10
1150.03382851509
 20
2146.142774095116
 10
1150.16165244474
 20
2146.085691437376
 10
1150.287091431405
 20
2146.023542845833
 10
1150.409944799463
 20
2145.956427744977
 10
1150.530016009732
 20
2145.884453504653
 10
1150.647112973892
 20
2145.807735268289
 10
1150.761048361778
 20
2145.7263957687
 10
1150.871639901074
 20
2145.640565131734
 10
1150.978710668909
 20
2145.550380668099
 10
1151.082089374896
 20
2145.455986653698
 10
1151.181610635158
 20
2145.35753409882
 10
1151.277115236907
 20
2145.25518050655
 10
1151.368450393156
 20
2145.1490896208
 10
1151.455469987137
 20
2145.039431164358
 10
1151.538034806063
 20
2144.926380567359
 10
1151.616012763837
 20
2144.810118686644
 10
1151.689279112361
 20
2144.69083151642
 10
1151.757716641107
 20
2144.568709890713
 10
1151.821215864627
 20
2144.443949178074
 10
1151.879675197711
 20
2144.316748969027
 10
1151.933001117895
 20
2144.187312756774
 10
1151.981108315083
 20
2144.055847611641
 10
1152.023919828022
 20
2143.922563849817
 10
1152.061367167423
 20
2143.787674696889
 10
1152.093390425533
 20
2143.651395946725
 10
1152.119938371969
 20
2143.513945616256
 10
1152.14096853568
 20
2143.375543596689
 10
1152.156447272891
 20
2143.23641130173
 10
1152.166349820924
 20
2143.096771313373
 10
1152.170660337814
 20
2142.95684702581
 10
1152.170864317009
 20
2142.919060616105
1001
REVIT
1002
{
1070
     3
1000
938184
1002
}
  0
LINE
  5
19A
330
193
100
AcDbEntity
  8
M-PIPE
100
AcDbLine
 10
1096.170864316993
 20
2098.26914229454
 30
0.0
 11
1096.170864316993
 21
2090.41906061609
 31
0.0
1001
REVIT
1002
{
1070
     3
1000
938184
1002
}
  0
LINE
  5
19B
330
193
100
AcDbEntity
  8
M-PIPE
100
AcDbLine
 10
1156.170864316993
 20
2090.41906061609
 30
0.0
 11
1156.170864316993
 21
2098.269142294539
 31
0.0
1001
REVIT
1002
{
1070
     3
1000
938184
1002
}
  0
LINE
  5
19C
330
193
100
AcDbEntity
  8
M-PIPE
100
AcDbLine
 10
1133.113156828896
 20
2090.419060616089
 30
0.0
 11
1117.613156828896
 21
2090.419060616089
 31
0.0
1001
REVIT
1002
{
1070
     3
1000
938184
1002
}
  0
LINE
  5
19D
330
193
100
AcDbEntity
  8
M-PIPE
100
AcDbLine
 10
1117.613156828896
 20
2090.419060616089
 30
0.0
 11
1117.089867993585
 21
2090.419060616089
 31
0.0
1001
REVIT
1002
{
1070
     3
1000
938184
1002
}
  0
LINE
  5
19E
330
193
100
AcDbEntity
  8
M-PIPE
100
AcDbLine
 10
1133.323338645279
 20
2090.419060616089
 30
0.0
 11
1133.113156828896
 21
2090.419060616089
 31
0.0
1001
REVIT
1002
{
1070
     3
1000
938184
1002
}
  0
LINE
  5
19F
330
193
100
AcDbEntity
  8
M-PIPE
100
AcDbLine
 10
1136.325512883987
 20
2142.919060616105
 30
0.0
 11
1136.325512883987
 21
2098.269142294538
 31
0.0
1001
REVIT
1002
{
1070
     3
1000
938184
1002
}
  0
LINE
  5
1A0
330
193
100
AcDbEntity
  8
M-PIPE
100
AcDbLine
 10
1113.778157360615
 20
2098.269142294538
 30
0.0
 11
1113.778157360615
 21
2142.919060616105
 31
0.0
1001
REVIT
1002
{
1070
     3
1000
938184
1002
}
  0
LINE
  5
1A1
330
193
100
AcDbEntity
  8
M-PIPE
100
AcDbLine
 10
1117.089867993585
 20
2098.269142294538
 30
0.0
 11
1117.089867993585
 21
2090.419060616089
 31
0.0
1001
REVIT
1002
{
1070
     3
1000
938184
1002
}
  0
LINE
  5
1A2
330
193
100
AcDbEntity
  8
M-PIPE
100
AcDbLine
 10
1117.613156828896
 20
2090.419060616089
 30
0.0
 11
1117.613156828896
 21
2142.919060616105
 31
0.0
1001
REVIT
1002
{
1070
     3
1000
938184
1002
}
  0
LINE
  5
1A3
330
193
100
AcDbEntity
  8
M-PIPE
100
AcDbLine
 10
1133.113156828896
 20
2090.419060616089
 30
0.0
 11
1133.113156828896
 21
2142.919060616105
 31
0.0
1001
REVIT
1002
{
1070
     3
1000
938184
1002
}
  0
LINE
  5
1A4
330
193
100
AcDbEntity
  8
M-PIPE
100
AcDbLine
 10
1133.323338645279
 20
2090.419060616089
 30
0.0
 11
1133.323338645279
 21
2098.269142294538
 31
0.0
1001
REVIT
1002
{
1070
     3
1000
938184
1002
}
  0
SPLINE
  5
1A5
330
193
100
AcDbEntity
  8
M-PIPE
100
AcDbSpline
210
0.0
220
0.0
230
1.0
 70
     8
 71
     3
 72
    14
 73
    10
 74
     0
 42
0.000000001
 43
0.0000000001
 40
0.0
 40
0.0
 40
0.0
 40
0.0
 40
0.1428571428571428
 40
0.2857142857142857
 40
0.4285714285714286
 40
0.5714285714285714
 40
0.6785714285714287
 40
0.7857142857142857
 40
1.0
 40
1.0
 40
1.0
 40
1.0
 10
1130.838345123959
 20
2146.419060616105
 30
0.0
 10
1130.996865423335
 20
2146.419060616105
 30
0.0
 10
1131.319799459779
 20
2146.365966808771
 30
0.0
 10
1131.787615967084
 20
2146.1253420382
 30
0.0
 10
1132.220182981492
 20
2145.727755913711
 30
0.0
 10
1132.562741036522
 20
2145.228375984781
 30
0.0
 10
1132.813697663423
 20
2144.681122473488
 30
0.0
 10
1133.040474333712
 20
2143.945540845356
 30
0.0
 10
1133.11355355953
 20
2143.331251487646
 30
0.0
 10
1133.113156828896
 20
2142.919060616105
 30
0.0
1001
REVIT
1002
{
1070
     3
1000
938184
1002
}
  0
SPLINE
  5
1A6
330
193
100
AcDbEntity
  8
M-PIPE
100
AcDbSpline
210
0.0
220
0.0
230
1.0
 70
     8
 71
     3
 72
    13
 73
     9
 74
     0
 42
0.000000001
 43
0.0000000001
 40
-1.0
 40
-1.0
 40
-1.0
 40
-1.0
 40
-0.8333333333333332
 40
-0.6666666666666666
 40
-0.5
 40
-0.3333333333333333
 40
-0.1666666666666666
 40
0.0
 40
0.0
 40
0.0
 40
0.0
 10
1119.887968533833
 20
2146.419060616105
 30
0.0
 10
1119.696943257964
 20
2146.419060616105
 30
0.0
 10
1119.305995298715
 20
2146.33864077722
 30
0.0
 10
1118.743235003247
 20
2145.98497240427
 30
0.0
 10
1118.26544626693
 20
2145.422366781801
 30
0.0
 10
1117.899554093972
 20
2144.689166570071
 30
0.0
 10
1117.662423559774
 20
2143.835330634544
 30
0.0
 10
1117.611355066861
 20
2143.224493235204
 30
0.0
 10
1117.613156828896
 20
2142.919060616105
 30
0.0
1001
REVIT
1002
{
1070
     3
1000
938184
1002
}
  0
SPLINE
  5
1A7
330
193
100
AcDbEntity
  8
M-PIPE
100
AcDbSpline
210
0.0
220
0.0
230
1.0
 70
     8
 71
     3
 72
    13
 73
     9
 74
     0
 42
0.000000001
 43
0.0000000001
 40
0.0
 40
0.0
 40
0.0
 40
0.0
 40
0.1428571428571428
 40
0.2857142857142857
 40
0.4285714285714286
 40
0.5714285714285714
 40
0.7857142857142857
 40
1.0
 40
1.0
 40
1.0
 40
1.0
 10
1116.295749404067
 20
2146.419060616105
 30
0.0
 10
1116.11476063888
 20
2146.419060616105
 30
0.0
 10
1115.748596286904
 20
2146.363291705581
 30
0.0
 10
1115.221264788193
 20
2146.112580545976
 30
0.0
 10
1114.740546290682
 20
2145.70317388526
 30
0.0
 10
1114.263877522315
 20
2145.058782481417
 30
0.0
 10
1113.879650225747
 20
2144.122730494717
 30
0.0
 10
1113.777971745073
 20
2143.321013832328
 30
0.0
 10
1113.778157360615
 20
2142.919060616105
 30
0.0
1001
REVIT
1002
{
1070
     3
1000
938184
1002
}
  0
SPLINE
  5
1A8
330
193
100
AcDbEntity
  8
M-PIPE
100
AcDbSpline
210
0.0
220
0.0
230
1.0
 70
     8
 71
     3
 72
    14
 73
    10
 74
     0
 42
0.000000001
 43
0.0000000001
 40
0.0
 40
0.0
 40
0.0
 40
0.0
 40
0.1666666666666666
 40
0.25
 40
0.3333333333333333
 40
0.5
 40
0.6666666666666666
 40
0.8333333333333332
 40
1.0
 40
1.0
 40
1.0
 40
1.0
 10
1136.325512883987
 20
2142.919060616105
 30
0.0
 10
1136.324229764725
 20
2143.216616807178
 30
0.0
 10
1136.282470384725
 20
2143.665912333484
 30
0.0
 10
1136.146954653812
 20
2144.241333407256
 30
0.0
 10
1135.959369264462
 20
2144.789765139961
 30
0.0
 10
1135.636680914458
 20
2145.413806650732
 30
0.0
 10
1135.122469425763
 20
2145.986924781249
 30
0.0
 10
1134.524580213501
 20
2146.33939140037
 30
0.0
 10
1134.10793861339
 20
2146.419060616105
 30
0.0
 10
1133.90387517742
 20
2146.419060616105
 30
0.0
1001
REVIT
1002
{
1070
     3
1000
938184
1002
}
  0
LINE
  5
1A9
330
193
100
AcDbEntity
  8
M-PIPE
100
AcDbLine
 10
1117.089867993585
 20
2090.419060616089
 30
0.0
 11
1096.170864316991
 21
2090.419060616089
 31
0.0
1001
REVIT
1002
{
1070
     3
1000
938184
1002
}
  0
LINE
  5
1AA
330
193
100
AcDbEntity
  8
M-PIPE
100
AcDbLine
 10
1156.170864316991
 20
2090.419060616089
 30
0.0
 11
1133.323338645279
 21
2090.419060616089
 31
0.0
1001
REVIT
1002
{
1070
     3
1000
938184
1002
}
  0
LINE
  5
1AB
330
193
100
AcDbEntity
  8
M-PIPE
100
AcDbLine
 10
1117.089867993585
 20
2098.269142294538
 30
0.0
 11
1096.170864316991
 21
2098.269142294539
 31
0.0
1001
REVIT
1002
{
1070
     3
1000
938184
1002
}
  0
LINE
  5
1AC
330
193
100
AcDbEntity
  8
M-PIPE
100
AcDbLine
 10
1156.170864316991
 20
2098.269142294538
 30
0.0
 11
1133.323338645279
 21
2098.269142294538
 31
0.0
1001
REVIT
1002
{
1070
     3
1000
938184
1002
}
  0
LINE
  5
1AD
330
193
100
AcDbEntity
  8
M-PIPE
100
AcDbLine
 10
1176.213681093009
 20
2022.319060616153
 30
0.0
 11
1176.213681093009
 21
2039.319060616152
 31
0.0
1001
REVIT
1002
{
1070
     3
1000
790271
1002
}
  0
LINE
  5
1AE
330
193
100
AcDbEntity
  8
M-PIPE
100
AcDbLine
 10
1194.667112454057
 20
2022.319060616153
 30
0.0
 11
1194.667112454057
 21
2039.319060616151
 31
0.0
1001
REVIT
1002
{
1070
     3
1000
790271
1002
}
  0
LINE
  5
1AF
330
193
100
AcDbEntity
  8
M-PIPE
100
AcDbLine
 10
1056.059201203773
 20
2039.319060616153
 30
0.0
 11
1056.059201203773
 21
2022.319060616153
 31
0.0
1001
REVIT
1002
{
1070
     3
1000
790271
1002
}
  0
LINE
  5
1B0
330
193
100
AcDbEntity
  8
M-PIPE
100
AcDbLine
 10
1074.5126325648
 20
2039.319060616154
 30
0.0
 11
1074.5126325648
 21
2022.319060616153
 31
0.0
1001
REVIT
1002
{
1070
     3
1000
790271
1002
}
  0
LINE
  5
1B1
330
193
100
AcDbEntity
  8
M-PIPE
100
AcDbLine
 10
1067.859201203769
 20
2041.819060616153
 30
0.0
 11
1067.859201203769
 21
2039.319060616153
 31
0.0
1001
REVIT
1002
{
1070
     3
1000
790271
1002
}
  0
LINE
  5
1B2
330
193
100
AcDbEntity
  8
M-PIPE
100
AcDbLine
 10
1182.867112454027
 20
2039.319060616151
 30
0.0
 11
1182.867112454027
 21
2041.819060616152
 31
0.0
1001
REVIT
1002
{
1070
     3
1000
790271
1002
}
  0
LINE
  5
1B3
330
193
100
AcDbEntity
  8
M-PIPE
100
AcDbLine
 10
1076.458302315634
 20
2044.819060616153
 30
0.0
 11
1067.859201203769
 21
2041.819060616153
 31
0.0
1001
REVIT
1002
{
1070
     3
1000
790271
1002
}
  0
LINE
  5
1B4
330
193
100
AcDbEntity
  8
M-PIPE
100
AcDbLine
 10
1182.867112454027
 20
2041.819060616152
 30
0.0
 11
1174.268011342163
 21
2044.819060616152
 31
0.0
1001
REVIT
1002
{
1070
     3
1000
790271
1002
}
  0
LINE
  5
1B5
330
193
100
AcDbEntity
  8
M-PIPE
100
AcDbLine
 10
1097.363156828899
 20
2055.169060616153
 30
0.0
 11
1097.863156828905
 21
2044.819060616153
 31
0.0
1001
REVIT
1002
{
1070
     3
1000
790271
1002
}
  0
LINE
  5
1B6
330
193
100
AcDbEntity
  8
M-PIPE
100
AcDbLine
 10
1152.863156828891
 20
2044.819060616152
 30
0.0
 11
1153.363156828899
 21
2055.169060616153
 31
0.0
1001
REVIT
1002
{
1070
     3
1000
790271
1002
}
  0
LINE
  5
1B7
330
193
100
AcDbEntity
  8
M-PIPE
100
AcDbLine
 10
1097.863156828899
 20
2065.519060616153
 30
0.0
 11
1097.363156828899
 21
2055.169060616153
 31
0.0
1001
REVIT
1002
{
1070
     3
1000
790271
1002
}
  0
LINE
  5
1B8
330
193
100
AcDbEntity
  8
M-PIPE
100
AcDbLine
 10
1153.363156828899
 20
2055.169060616153
 30
0.0
 11
1152.863156828898
 21
2065.519060616153
 31
0.0
1001
REVIT
1002
{
1070
     3
1000
790271
1002
}
  0
LINE
  5
1B9
330
193
100
AcDbEntity
  8
M-PIPE
100
AcDbLine
 10
1097.863156828899
 20
2069.51906061609
 30
0.0
 11
1097.863156828899
 21
2065.519060616153
 31
0.0
1001
REVIT
1002
{
1070
     3
1000
790271
1002
}
  0
LINE
  5
1BA
330
193
100
AcDbEntity
  8
M-PIPE
100
AcDbLine
 10
1152.863156828899
 20
2065.519060616153
 30
0.0
 11
1152.863156828899
 21
2069.51906061609
 31
0.0
1001
REVIT
1002
{
1070
     3
1000
790271
1002
}
  0
LINE
  5
1BB
330
193
100
AcDbEntity
  8
M-PIPE
100
AcDbLine
 10
1101.363156828899
 20
2085.41906061609
 30
0.0
 11
1101.363156828899
 21
2073.01906061609
 31
0.0
1001
REVIT
1002
{
1070
     3
1000
790271
1002
}
  0
LINE
  5
1BC
330
193
100
AcDbEntity
  8
M-PIPE
100
AcDbLine
 10
1149.363156828899
 20
2073.01906061609
 30
0.0
 11
1149.363156828899
 21
2085.419060616089
 31
0.0
1001
REVIT
1002
{
1070
     3
1000
790271
1002
}
  0
LINE
  5
1BD
330
193
100
AcDbEntity
  8
M-PIPE
100
AcDbLine
 10
1101.363156828899
 20
2073.01906061609
 30
0.0
 11
1097.863156828899
 21
2069.51906061609
 31
0.0
1001
REVIT
1002
{
1070
     3
1000
790271
1002
}
  0
LINE
  5
1BE
330
193
100
AcDbEntity
  8
M-PIPE
100
AcDbLine
 10
1152.863156828899
 20
2069.51906061609
 30
0.0
 11
1149.363156828899
 21
2073.01906061609
 31
0.0
1001
REVIT
1002
{
1070
     3
1000
790271
1002
}
  0
LINE
  5
1BF
330
193
100
AcDbEntity
  8
M-PIPE
100
AcDbLine
 10
1096.363156828899
 20
2090.41906061609
 30
0.0
 11
1101.363156828899
 21
2085.41906061609
 31
0.0
1001
REVIT
1002
{
1070
     3
1000
790271
1002
}
  0
LINE
  5
1C0
330
193
100
AcDbEntity
  8
M-PIPE
100
AcDbLine
 10
1149.363156828899
 20
2085.419060616089
 30
0.0
 11
1154.298529963081
 21
2090.354433750271
 31
0.0
1001
REVIT
1002
{
1070
     3
1000
790271
1002
}
  0
LINE
  5
1C1
330
193
100
AcDbEntity
  8
M-PIPE
100
AcDbLine
 10
1130.819116872755
 20
2039.319060616152
 30
0.0
 11
1125.363156828896
 21
2039.319060616152
 31
0.0
1001
REVIT
1002
{
1070
     3
1000
790271
1002
}
  0
LINE
  5
1C2
330
193
100
AcDbEntity
  8
M-PIPE
100
AcDbLine
 10
1125.363156828896
 20
2039.319060616152
 30
0.0
 11
1119.907196785071
 21
2039.319060616152
 31
0.0
1001
REVIT
1002
{
1070
     3
1000
790271
1002
}
  0
LINE
  5
1C3
330
193
100
AcDbEntity
  8
M-PIPE
100
AcDbLine
 10
1134.163156828913
 20
2039.319060616152
 30
0.0
 11
1130.819116872755
 21
2039.319060616152
 31
0.0
1001
REVIT
1002
{
1070
     3
1000
790271
1002
}
  0
LINE
  5
1C4
330
193
100
AcDbEntity
  8
M-PIPE
100
AcDbLine
 10
1185.725065347448
 20
2039.319060616151
 30
0.0
 11
1176.250957109377
 21
2039.319060616151
 31
0.0
1001
REVIT
1002
{
1070
     3
1000
790271
1002
}
  0
LINE
  5
1C5
330
193
100
AcDbEntity
  8
M-PIPE
100
AcDbLine
 10
1076.458302315632
 20
2044.819060616152
 30
0.0
 11
1125.363156828896
 21
2044.819060616152
 31
0.0
1001
REVIT
1002
{
1070
     3
1000
790271
1002
}
  0
LINE
  5
1C6
330
193
100
AcDbEntity
  8
M-PIPE
100
AcDbLine
 10
1125.363156828897
 20
2044.819060616152
 30
0.0
 11
1174.26801134216
 21
2044.819060616151
 31
0.0
1001
REVIT
1002
{
1070
     3
1000
790271
1002
}
  0
LINE
  5
1C7
330
193
100
AcDbEntity
  8
M-PIPE
100
AcDbLine
 10
1116.563156828913
 20
2022.319060616152
 30
0.0
 11
1115.436483234337
 21
2022.319060616152
 31
0.0
1001
REVIT
1002
{
1070
     3
1000
790271
1002
}
  0
LINE
  5
1C8
330
193
100
AcDbEntity
  8
M-PIPE
100
AcDbLine
 10
1115.436483234337
 20
2022.319060616152
 30
0.0
 11
1088.903381664536
 21
2022.319060616152
 31
0.0
1001
REVIT
1002
{
1070
     3
1000
790271
1002
}
  0
LINE
  5
1C9
330
193
100
AcDbEntity
  8
M-PIPE
100
AcDbLine
 10
1088.903381664536
 20
2022.319060616152
 30
0.0
 11
1082.443192548945
 21
2022.319060616152
 31
0.0
1001
REVIT
1002
{
1070
     3
1000
790271
1002
}
  0
LINE
  5
1CA
330
193
100
AcDbEntity
  8
M-PIPE
100
AcDbLine
 10
1082.443192548945
 20
2022.319060616152
 30
0.0
 11
1074.512632564799
 21
2022.319060616152
 31
0.0
1001
REVIT
1002
{
1070
     3
1000
790271
1002
}
  0
LINE
  5
1CB
330
193
100
AcDbEntity
  8
M-PIPE
100
AcDbLine
 10
1074.47535654843
 20
2022.319060616152
 30
0.0
 11
1065.001248310378
 21
2022.319060616152
 31
0.0
1001
REVIT
1002
{
1070
     3
1000
790271
1002
}
  0
LINE
  5
1CC
330
193
100
AcDbEntity
  8
M-PIPE
100
AcDbLine
 10
1065.001248310378
 20
2022.319060616152
 30
0.0
 11
1059.209201203772
 21
2022.319060616152
 31
0.0
1001
REVIT
1002
{
1070
     3
1000
790271
1002
}
  0
LINE
  5
1CD
330
193
100
AcDbEntity
  8
M-PIPE
100
AcDbLine
 10
1059.209201203772
 20
2022.319060616152
 30
0.0
 11
1056.059201203772
 21
2022.319060616152
 31
0.0
1001
REVIT
1002
{
1070
     3
1000
790271
1002
}
  0
LINE
  5
1CE
330
193
100
AcDbEntity
  8
M-PIPE
100
AcDbLine
 10
1194.667112454055
 20
2022.319060616152
 30
0.0
 11
1191.517112454055
 21
2022.319060616152
 31
0.0
1001
REVIT
1002
{
1070
     3
1000
790271
1002
}
  0
LINE
  5
1CF
330
193
100
AcDbEntity
  8
M-PIPE
100
AcDbLine
 10
1191.517112454055
 20
2022.319060616152
 30
0.0
 11
1185.725065347448
 21
2022.319060616152
 31
0.0
1001
REVIT
1002
{
1070
     3
1000
790271
1002
}
  0
LINE
  5
1D0
330
193
100
AcDbEntity
  8
M-PIPE
100
AcDbLine
 10
1176.250957109377
 20
2022.319060616152
 30
0.0
 11
1185.725065347448
 21
2022.319060616152
 31
0.0
1001
REVIT
1002
{
1070
     3
1000
790271
1002
}
  0
LINE
  5
1D1
330
193
100
AcDbEntity
  8
M-PIPE
100
AcDbLine
 10
1176.213681093007
 20
2022.319060616152
 30
0.0
 11
1168.283121108862
 21
2022.319060616152
 31
0.0
1001
REVIT
1002
{
1070
     3
1000
790271
1002
}
  0
LINE
  5
1D2
330
193
100
AcDbEntity
  8
M-PIPE
100
AcDbLine
 10
1168.283121108862
 20
2022.319060616152
 30
0.0
 11
1161.82293199327
 21
2022.319060616152
 31
0.0
1001
REVIT
1002
{
1070
     3
1000
790271
1002
}
  0
LINE
  5
1D3
330
193
100
AcDbEntity
  8
M-PIPE
100
AcDbLine
 10
1161.82293199327
 20
2022.319060616152
 30
0.0
 11
1134.163156828913
 21
2022.319060616152
 31
0.0
1001
REVIT
1002
{
1070
     3
1000
790271
1002
}
  0
LINE
  5
1D4
330
193
100
AcDbEntity
  8
M-PIPE
100
AcDbLine
 10
1130.819116872755
 20
2022.319060616152
 30
0.0
 11
1134.163156828913
 21
2022.319060616152
 31
0.0
1001
REVIT
1002
{
1070
     3
1000
790271
1002
}
  0
LINE
  5
1D5
330
193
100
AcDbEntity
  8
M-PIPE
100
AcDbLine
 10
1119.907196785071
 20
2022.319060616152
 30
0.0
 11
1130.819116872755
 21
2022.319060616152
 31
0.0
1001
REVIT
1002
{
1070
     3
1000
790271
1002
}
  0
LINE
  5
1D6
330
193
100
AcDbEntity
  8
M-PIPE
100
AcDbLine
 10
1119.907196785071
 20
2022.319060616152
 30
0.0
 11
1116.563156828913
 21
2022.319060616152
 31
0.0
1001
REVIT
1002
{
1070
     3
1000
790271
1002
}
  0
LINE
  5
1D7
330
193
100
AcDbEntity
  8
M-PIPE
100
AcDbLine
 10
1119.907196785071
 20
2039.319060616152
 30
0.0
 11
1116.563156828913
 21
2039.319060616152
 31
0.0
1001
REVIT
1002
{
1070
     3
1000
790271
1002
}
  0
LINE
  5
1D8
330
193
100
AcDbEntity
  8
M-PIPE
100
AcDbLine
 10
1116.563156828913
 20
2039.319060616152
 30
0.0
 11
1116.563156828913
 21
2022.319060616152
 31
0.0
1001
REVIT
1002
{
1070
     3
1000
790271
1002
}
  0
LINE
  5
1D9
330
193
100
AcDbEntity
  8
M-PIPE
100
AcDbLine
 10
1161.822931993269
 20
2039.319060616151
 30
0.0
 11
1134.163156828912
 21
2039.319060616151
 31
0.0
1001
REVIT
1002
{
1070
     3
1000
790271
1002
}
  0
LINE
  5
1DA
330
193
100
AcDbEntity
  8
M-PIPE
100
AcDbLine
 10
1134.163156828912
 20
2022.319060616152
 30
0.0
 11
1134.163156828912
 21
2039.319060616152
 31
0.0
1001
REVIT
1002
{
1070
     3
1000
790271
1002
}
  0
LINE
  5
1DB
330
193
100
AcDbEntity
  8
M-PIPE
100
AcDbLine
 10
1168.283121108861
 20
2039.319060616151
 30
0.0
 11
1161.82293199327
 21
2039.319060616151
 31
0.0
1001
REVIT
1002
{
1070
     3
1000
790271
1002
}
  0
LINE
  5
1DC
330
193
100
AcDbEntity
  8
M-PIPE
100
AcDbLine
 10
1161.82293199327
 20
2022.319060616152
 30
0.0
 11
1161.82293199327
 21
2039.319060616151
 31
0.0
1001
REVIT
1002
{
1070
     3
1000
790271
1002
}
  0
LINE
  5
1DD
330
193
100
AcDbEntity
  8
M-PIPE
100
AcDbLine
 10
1176.213681093007
 20
2039.319060616151
 30
0.0
 11
1168.283121108862
 21
2039.319060616151
 31
0.0
1001
REVIT
1002
{
1070
     3
1000
790271
1002
}
  0
LINE
  5
1DE
330
193
100
AcDbEntity
  8
M-PIPE
100
AcDbLine
 10
1191.517112454055
 20
2039.319060616151
 30
0.0
 11
1185.725065347448
 21
2039.319060616151
 31
0.0
1001
REVIT
1002
{
1070
     3
1000
790271
1002
}
  0
LINE
  5
1DF
330
193
100
AcDbEntity
  8
M-PIPE
100
AcDbLine
 10
1185.725065347448
 20
2022.319060616152
 30
0.0
 11
1185.725065347448
 21
2039.319060616151
 31
0.0
1001
REVIT
1002
{
1070
     3
1000
790271
1002
}
  0
LINE
  5
1E0
330
193
100
AcDbEntity
  8
M-PIPE
100
AcDbLine
 10
1194.667112454055
 20
2039.319060616151
 30
0.0
 11
1191.517112454055
 21
2039.319060616151
 31
0.0
1001
REVIT
1002
{
1070
     3
1000
790271
1002
}
  0
LINE
  5
1E1
330
193
100
AcDbEntity
  8
M-PIPE
100
AcDbLine
 10
1059.209201203772
 20
2039.319060616152
 30
0.0
 11
1056.059201203772
 21
2039.319060616152
 31
0.0
1001
REVIT
1002
{
1070
     3
1000
790271
1002
}
  0
LINE
  5
1E2
330
193
100
AcDbEntity
  8
M-PIPE
100
AcDbLine
 10
1065.001248310378
 20
2039.319060616152
 30
0.0
 11
1059.209201203772
 21
2039.319060616152
 31
0.0
1001
REVIT
1002
{
1070
     3
1000
790271
1002
}
  0
LINE
  5
1E3
330
193
100
AcDbEntity
  8
M-PIPE
100
AcDbLine
 10
1074.47535654843
 20
2039.319060616152
 30
0.0
 11
1065.001248310378
 21
2039.319060616152
 31
0.0
1001
REVIT
1002
{
1070
     3
1000
790271
1002
}
  0
LINE
  5
1E4
330
193
100
AcDbEntity
  8
M-PIPE
100
AcDbLine
 10
1065.001248310378
 20
2022.319060616152
 30
0.0
 11
1065.001248310378
 21
2039.319060616152
 31
0.0
1001
REVIT
1002
{
1070
     3
1000
790271
1002
}
  0
LINE
  5
1E5
330
193
100
AcDbEntity
  8
M-PIPE
100
AcDbLine
 10
1082.443192548945
 20
2039.319060616153
 30
0.0
 11
1074.512632564799
 21
2039.319060616153
 31
0.0
1001
REVIT
1002
{
1070
     3
1000
790271
1002
}
  0
LINE
  5
1E6
330
193
100
AcDbEntity
  8
M-PIPE
100
AcDbLine
 10
1088.903381664536
 20
2039.319060616152
 30
0.0
 11
1082.443192548945
 21
2039.319060616153
 31
0.0
1001
REVIT
1002
{
1070
     3
1000
790271
1002
}
  0
LINE
  5
1E7
330
193
100
AcDbEntity
  8
M-PIPE
100
AcDbLine
 10
1115.436483234337
 20
2039.319060616152
 30
0.0
 11
1088.903381664536
 21
2039.319060616152
 31
0.0
1001
REVIT
1002
{
1070
     3
1000
790271
1002
}
  0
LINE
  5
1E8
330
193
100
AcDbEntity
  8
M-PIPE
100
AcDbLine
 10
1088.903381664536
 20
2022.319060616152
 30
0.0
 11
1088.903381664536
 21
2039.319060616152
 31
0.0
1001
REVIT
1002
{
1070
     3
1000
790271
1002
}
  0
LINE
  5
1E9
330
193
100
AcDbEntity
  8
M-PIPE
100
AcDbLine
 10
1116.563156828913
 20
2039.319060616152
 30
0.0
 11
1115.436483234338
 21
2039.319060616152
 31
0.0
1001
REVIT
1002
{
1070
     3
1000
790271
1002
}
  0
LINE
  5
1EA
330
193
100
AcDbEntity
  8
M-PIPE
100
AcDbLine
 10
1125.363156828896
 20
2041.819060616152
 30
0.0
 11
1067.859201203767
 21
2041.819060616152
 31
0.0
1001
REVIT
1002
{
1070
     3
1000
790271
1002
}
  0
LINE
  5
1EB
330
193
100
AcDbEntity
  8
M-PIPE
100
AcDbLine
 10
1182.867112454025
 20
2041.819060616151
 30
0.0
 11
1125.363156828896
 21
2041.819060616152
 31
0.0
1001
REVIT
1002
{
1070
     3
1000
790271
1002
}
  0
LINE
  5
1EC
330
193
100
AcDbEntity
  8
M-PIPE
100
AcDbLine
 10
1125.363156828896
 20
2065.519060616152
 30
0.0
 11
1097.863156828897
 21
2065.519060616152
 31
0.0
1001
REVIT
1002
{
1070
     3
1000
790271
1002
}
  0
LINE
  5
1ED
330
193
100
AcDbEntity
  8
M-PIPE
100
AcDbLine
 10
1125.363156828896
 20
2055.169060616152
 30
0.0
 11
1097.367746027475
 21
2055.169060616152
 31
0.0
1001
REVIT
1002
{
1070
     3
1000
790271
1002
}
  0
LINE
  5
1EE
330
193
100
AcDbEntity
  8
M-PIPE
100
AcDbLine
 10
1153.358567630318
 20
2055.169060616151
 30
0.0
 11
1125.363156828896
 21
2055.169060616152
 31
0.0
1001
REVIT
1002
{
1070
     3
1000
790271
1002
}
  0
LINE
  5
1EF
330
193
100
AcDbEntity
  8
M-PIPE
100
AcDbLine
 10
1152.863156828897
 20
2065.519060616152
 30
0.0
 11
1125.363156828897
 21
2065.519060616152
 31
0.0
1001
REVIT
1002
{
1070
     3
1000
790271
1002
}
  0
LINE
  5
1F0
330
193
100
AcDbEntity
  8
M-PIPE
100
AcDbLine
 10
1101.363156828897
 20
2073.019060616089
 30
0.0
 11
1125.363156828897
 21
2073.019060616089
 31
0.0
1001
REVIT
1002
{
1070
     3
1000
790271
1002
}
  0
LINE
  5
1F1
330
193
100
AcDbEntity
  8
M-PIPE
100
AcDbLine
 10
1125.363156828897
 20
2073.019060616089
 30
0.0
 11
1149.363156828897
 21
2073.019060616088
 31
0.0
1001
REVIT
1002
{
1070
     3
1000
790271
1002
}
  0
LINE
  5
1F2
330
193
100
AcDbEntity
  8
M-PIPE
100
AcDbLine
 10
1125.363156828897
 20
2069.51906061609
 30
0.0
 11
1097.863156828897
 21
2069.51906061609
 31
0.0
1001
REVIT
1002
{
1070
     3
1000
790271
1002
}
  0
LINE
  5
1F3
330
193
100
AcDbEntity
  8
M-PIPE
100
AcDbLine
 10
1152.863156828897
 20
2069.519060616089
 30
0.0
 11
1125.363156828897
 21
2069.51906061609
 31
0.0
1001
REVIT
1002
{
1070
     3
1000
790271
1002
}
  0
LINE
  5
1F4
330
193
100
AcDbEntity
  8
M-PIPE
100
AcDbLine
 10
1125.363156828897
 20
2085.419060616089
 30
0.0
 11
1101.363156828897
 21
2085.419060616089
 31
0.0
1001
REVIT
1002
{
1070
     3
1000
790271
1002
}
  0
LINE
  5
1F5
330
193
100
AcDbEntity
  8
M-PIPE
100
AcDbLine
 10
1149.363156828897
 20
2085.419060616089
 30
0.0
 11
1125.363156828897
 21
2085.419060616089
 31
0.0
1001
REVIT
1002
{
1070
     3
1000
790271
1002
}
  0
LINE
  5
1F6
330
193
100
AcDbEntity
  8
P-SANR-FIXT
100
AcDbLine
 10
1085.3631568289
 20
1961.839937382298
 30
0.0
 11
1090.863156828899
 21
1961.839937382298
 31
0.0
  0
LINE
  5
1F7
330
193
100
AcDbEntity
  8
P-SANR-FIXT
100
AcDbLine
 10
1159.863156828899
 20
1961.839937382298
 30
0.0
 11
1165.3631568289
 21
1961.839937382298
 31
0.0
  0
LINE
  5
1F8
330
193
100
AcDbEntity
  8
P-SANR-FIXT
100
AcDbLine
 10
1165.3631568289
 20
1979.839937382298
 30
0.0
 11
1159.863156828899
 21
1979.839937382298
 31
0.0
  0
LINE
  5
1F9
330
193
100
AcDbEntity
  8
P-SANR-FIXT
100
AcDbLine
 10
1090.863156828899
 20
1979.839937382298
 30
0.0
 11
1085.3631568289
 21
1979.839937382298
 31
0.0
  0
LINE
  5
1FA
330
193
100
AcDbEntity
  8
P-SANR-FIXT
100
AcDbLine
 10
1165.363156828898
 20
1970.839937382297
 30
0.0
 11
1165.363156828898
 21
1961.839937382297
 31
0.0
  0
LINE
  5
1FB
330
193
100
AcDbEntity
  8
P-SANR-FIXT
100
AcDbLine
 10
1165.363156828898
 20
1979.839937382297
 30
0.0
 11
1165.363156828898
 21
1970.839937382297
 31
0.0
  0
LINE
  5
1FC
330
193
100
AcDbEntity
  8
P-SANR-FIXT
100
AcDbLine
 10
1085.363156828898
 20
1970.839937382297
 30
0.0
 11
1085.363156828898
 21
1979.839937382297
 31
0.0
  0
LINE
  5
1FD
330
193
100
AcDbEntity
  8
P-SANR-FIXT
100
AcDbLine
 10
1085.363156828898
 20
1961.839937382297
 30
0.0
 11
1085.363156828898
 21
1970.839937382297
 31
0.0
  0
LINE
  5
1FE
330
193
100
AcDbEntity
  8
P-SANR-FIXT
100
AcDbLine
 10
1099.3631568289
 20
2011.619060616155
 30
0.0
 11
1099.3631568289
 21
2002.035452252369
 31
0.0
  0
LINE
  5
1FF
330
193
100
AcDbEntity
  8
P-SANR-FIXT
100
AcDbLine
 10
1151.3631568289
 20
2002.035452252369
 30
0.0
 11
1151.3631568289
 21
2011.619060616155
 31
0.0
  0
LINE
  5
200
330
193
100
AcDbEntity
  8
P-SANR-FIXT
100
AcDbLine
 10
1097.863156828899
 20
2016.819060616155
 30
0.0
 11
1097.863156828899
 21
2011.619060616155
 31
0.0
  0
LINE
  5
201
330
193
100
AcDbEntity
  8
P-SANR-FIXT
100
AcDbLine
 10
1152.8631568289
 20
2011.619060616155
 30
0.0
 11
1152.8631568289
 21
2016.819060616155
 31
0.0
  0
LINE
  5
202
330
193
100
AcDbEntity
  8
P-SANR-FIXT
100
AcDbLine
 10
1094.8631568289
 20
1997.535452252368
 30
0.0
 11
1094.8631568289
 21
1993.147045979956
 31
0.0
  0
LINE
  5
203
330
193
100
AcDbEntity
  8
P-SANR-FIXT
100
AcDbLine
 10
1155.8631568289
 20
1993.147045979955
 30
0.0
 11
1155.8631568289
 21
1997.535452252368
 31
0.0
  0
LINE
  5
204
330
193
100
AcDbEntity
  8
P-SANR-FIXT
100
AcDbLine
 10
1067.859201203773
 20
2019.819060616155
 30
0.0
 11
1076.458302315639
 21
2016.819060616155
 31
0.0
  0
LINE
  5
205
330
193
100
AcDbEntity
  8
P-SANR-FIXT
100
AcDbLine
 10
1174.268011342161
 20
2016.819060616155
 30
0.0
 11
1182.867112454026
 21
2019.819060616155
 31
0.0
  0
LINE
  5
206
330
193
100
AcDbEntity
  8
P-SANR-FIXT
100
AcDbLine
 10
1099.3631568289
 20
2002.035452252369
 30
0.0
 11
1094.8631568289
 21
1997.535452252368
 31
0.0
  0
LINE
  5
207
330
193
100
AcDbEntity
  8
P-SANR-FIXT
100
AcDbLine
 10
1155.8631568289
 20
1997.535452252368
 30
0.0
 11
1151.3631568289
 21
2002.035452252369
 31
0.0
  0
LINE
  5
208
330
193
100
AcDbEntity
  8
P-SANR-FIXT
100
AcDbLine
 10
1067.859201203773
 20
2022.319060616153
 30
0.0
 11
1067.859201203773
 21
2019.819060616155
 31
0.0
  0
LINE
  5
209
330
193
100
AcDbEntity
  8
P-SANR-FIXT
100
AcDbLine
 10
1182.867112454026
 20
2019.819060616155
 30
0.0
 11
1182.867112454026
 21
2022.319060616153
 31
0.0
  0
LINE
  5
20A
330
193
100
AcDbEntity
  8
P-SANR-FIXT
100
AcDbLine
 10
1099.363156828898
 20
2002.035452252368
 30
0.0
 11
1110.254090971625
 21
2002.035452252368
 31
0.0
  0
LINE
  5
20B
330
193
100
AcDbEntity
  8
P-SANR-FIXT
100
AcDbLine
 10
1140.47222268617
 20
2002.035452252368
 30
0.0
 11
1151.363156828898
 21
2002.035452252368
 31
0.0
  0
LINE
  5
20C
330
193
100
AcDbEntity
  8
P-SANR-FIXT
100
AcDbLine
 10
1125.363156828898
 20
2011.619060616154
 30
0.0
 11
1097.863156828897
 21
2011.619060616154
 31
0.0
  0
LINE
  5
20D
330
193
100
AcDbEntity
  8
P-SANR-FIXT
100
AcDbLine
 10
1152.863156828898
 20
2011.619060616154
 30
0.0
 11
1125.363156828898
 21
2011.619060616154
 31
0.0
  0
LINE
  5
20E
330
193
100
AcDbEntity
  8
P-SANR-FIXT
100
AcDbLine
 10
1125.363156828898
 20
2016.819060616154
 30
0.0
 11
1076.458302315637
 21
2016.819060616154
 31
0.0
  0
LINE
  5
20F
330
193
100
AcDbEntity
  8
P-SANR-FIXT
100
AcDbLine
 10
1174.268011342159
 20
2016.819060616154
 30
0.0
 11
1125.363156828898
 21
2016.819060616154
 31
0.0
  0
ARC
  5
210
330
193
100
AcDbEntity
  8
P-SANR-FIXT
100
AcDbCircle
 10
1125.363156828898
 20
1970.919060616154
 30
0.0
 40
38.30000000000023
100
AcDbArc
 50
150.0000000000007
 51
150.1406417328701
  0
LINE
  5
211
330
193
100
AcDbEntity
  8
P-SANR-FIXT
100
AcDbLine
 10
1092.218772727448
 20
1951.726879850657
 30
0.0
 11
1092.194383863954
 21
1951.769060616154
 31
0.0
  0
ARC
  5
212
330
193
100
AcDbEntity
  8
P-SANR-FIXT
100
AcDbCircle
 10
1125.363156828898
 20
1970.919060616154
 30
0.0
 40
38.30000000000009
100
AcDbArc
 50
330.0000000000002
 51
330.1406417328709
  0
LINE
  5
213
330
193
100
AcDbEntity
  8
P-SANR-FIXT
100
AcDbLine
 10
1158.507540930348
 20
1990.111241381652
 30
0.0
 11
1158.531929793842
 21
1990.069060616155
 31
0.0
  0
ARC
  5
214
330
193
100
AcDbEntity
  8
P-SANR-FIXT
100
AcDbCircle
 10
1125.363156828897
 20
1970.919060616154
 30
0.0
 40
38.29999999999973
100
AcDbArc
 50
90.0
 51
94.26121895945643
  0
LINE
  5
215
330
193
100
AcDbEntity
  8
P-SANR-FIXT
100
AcDbLine
 10
1122.517322892922
 20
2009.113186201235
 30
0.0
 11
1093.708990764873
 21
1992.480687892201
 31
0.0
  0
ARC
  5
216
330
193
100
AcDbEntity
  8
P-SANR-FIXT
100
AcDbCircle
 10
1125.363156828897
 20
1970.919060616154
 30
0.0
 40
38.29999999999972
100
AcDbArc
 50
145.7387810405438
 51
154.2612189594564
  0
LINE
  5
217
330
193
100
AcDbEntity
  8
P-SANR-FIXT
100
AcDbLine
 10
1090.863156828898
 20
1987.551558925187
 30
0.0
 11
1090.863156828898
 21
1954.286562307121
 31
0.0
  0
ARC
  5
218
330
193
100
AcDbEntity
  8
P-SANR-FIXT
100
AcDbCircle
 10
1125.363156828897
 20
1970.919060616154
 30
0.0
 40
38.29999999999973
100
AcDbArc
 50
205.7387810405441
 51
214.2612189594558
  0
LINE
  5
219
330
193
100
AcDbEntity
  8
P-SANR-FIXT
100
AcDbLine
 10
1093.708990764873
 20
1949.357433340107
 30
0.0
 11
1122.517322892922
 21
1932.724935031075
 31
0.0
  0
ARC
  5
21A
330
193
100
AcDbEntity
  8
P-SANR-FIXT
100
AcDbCircle
 10
1125.363156828897
 20
1970.919060616154
 30
0.0
 40
38.29999999999989
100
AcDbArc
 50
265.7387810405442
 51
269.9999999999997
  0
ARC
  5
21B
330
193
100
AcDbEntity
  8
P-SANR-FIXT
100
AcDbCircle
 10
1125.363156828897
 20
1970.919060616154
 30
0.0
 40
25.39999999999998
100
AcDbArc
 50
89.99999999999975
 51
269.9999999999999
  0
ARC
  5
21C
330
193
100
AcDbEntity
  8
P-SANR-FIXT
100
AcDbCircle
 10
1125.363156828897
 20
1970.919060616154
 30
0.0
 40
38.29999999999968
100
AcDbArc
 50
269.9999999999995
 51
274.2612189594555
  0
LINE
  5
21D
330
193
100
AcDbEntity
  8
P-SANR-FIXT
100
AcDbLine
 10
1128.208990764873
 20
1932.724935031075
 30
0.0
 11
1157.017322892922
 21
1949.357433340108
 31
0.0
  0
ARC
  5
21E
330
193
100
AcDbEntity
  8
P-SANR-FIXT
100
AcDbCircle
 10
1125.363156828897
 20
1970.919060616154
 30
0.0
 40
38.29999999999977
100
AcDbArc
 50
325.7387810405437
 51
334.2612189594561
  0
LINE
  5
21F
330
193
100
AcDbEntity
  8
P-SANR-FIXT
100
AcDbLine
 10
1159.863156828897
 20
1954.286562307121
 30
0.0
 11
1159.863156828897
 21
1987.551558925187
 31
0.0
  0
ARC
  5
220
330
193
100
AcDbEntity
  8
P-SANR-FIXT
100
AcDbCircle
 10
1125.363156828897
 20
1970.919060616154
 30
0.0
 40
38.29999999999984
100
AcDbArc
 50
25.73878104054387
 51
34.26121895945669
  0
LINE
  5
221
330
193
100
AcDbEntity
  8
P-SANR-FIXT
100
AcDbLine
 10
1157.017322892922
 20
1992.480687892201
 30
0.0
 11
1128.208990764873
 21
2009.113186201235
 31
0.0
  0
ARC
  5
222
330
193
100
AcDbEntity
  8
P-SANR-FIXT
100
AcDbCircle
 10
1125.363156828897
 20
1970.919060616154
 30
0.0
 40
38.29999999999971
100
AcDbArc
 50
85.73878104054355
 51
89.99999999999968
  0
ARC
  5
223
330
193
100
AcDbEntity
  8
P-SANR-FIXT
100
AcDbCircle
 10
1125.363156828897
 20
1970.919060616154
 30
0.0
 40
25.4000000000002
100
AcDbArc
 50
270.0000000000004
 51
89.99999999999975
  0
ARC
  5
224
330
193
100
AcDbEntity
  8
P-SANR-FIXT
100
AcDbCircle
 10
1125.363156828898
 20
1970.919060616154
 30
0.0
 40
38.29999999999992
100
AcDbArc
 50
150.0000000000005
 51
150.1406417328702
  0
LINE
  5
225
330
193
100
AcDbEntity
  8
P-SANR-FIXT
100
AcDbLine
 10
1092.218772727448
 20
1951.726879850657
 30
0.0
 11
1092.194383863954
 21
1951.769060616154
 31
0.0
  0
ARC
  5
226
330
193
100
AcDbEntity
  8
P-SANR-FIXT
100
AcDbCircle
 10
1125.363156828898
 20
1970.919060616154
 30
0.0
 40
38.2999999999997
100
AcDbArc
 50
330.0000000000006
 51
330.1406417328704
  0
LINE
  5
227
330
193
100
AcDbEntity
  8
P-SANR-FIXT
100
AcDbLine
 10
1158.507540930347
 20
1990.111241381652
 30
0.0
 11
1158.531929793841
 21
1990.069060616155
 31
0.0
  0
LINE
  5
228
330
193
100
AcDbEntity
  8
P-SANR-FIXT
100
AcDbLine
 10
1102.443514474197
 20
1997.535452252368
 30
0.0
 11
1094.863156828898
 21
1997.535452252368
 31
0.0
  0
LINE
  5
229
330
193
100
AcDbEntity
  8
P-SANR-FIXT
100
AcDbLine
 10
1155.863156828898
 20
1997.535452252368
 30
0.0
 11
1148.282799183598
 21
1997.535452252368
 31
0.0
  0
LINE
  5
22A
330
193
100
AcDbEntity
  8
P-SANR-FIXT
100
AcDbLine
 10
1125.363156828898
 20
2019.819060616154
 30
0.0
 11
1067.859201203772
 21
2019.819060616154
 31
0.0
  0
LINE
  5
22B
330
193
100
AcDbEntity
  8
P-SANR-FIXT
100
AcDbLine
 10
1182.867112454024
 20
2019.819060616154
 30
0.0
 11
1125.363156828898
 21
2019.819060616154
 31
0.0
  0
ENDBLK
  5
22D
330
193
100
AcDbEntity
  8
0
100
AcDbBlockEnd
  0
ENDSEC
  0
SECTION
  2
ENTITIES
  0
INSERT
  5
13F
330
71
100
AcDbEntity
  8
P-SANR-FIXT
100
AcDbBlockReference
  2
Automatic flow rate regulator valve_Caleffi_121 DN15 - 1_2__-859151-Est - Idraulica
 10
0.0
 20
0.0
 30
0.0
1001
REVIT
1002
{
1070
     1
1000
863131
1002
}
1002
{
1070
     5
1000
859151
1002
}
1002
{
1070
     2
1000
-2001160
1002
}
  0
INSERT
  5
192
330
71
100
AcDbEntity
  8
P-SANR-FIXT
100
AcDbBlockReference
  2
Automatic flow rate regulator valve_Caleffi_121 DN15 - 1_2__-V1-Est - Idraulica
 10
0.0
 20
0.0
 30
0.0
1001
REVIT
1002
{
1070
     1
1000
863152
1002
}
1002
{
1070
     5
1000
859151
1002
}
1002
{
1070
     2
1000
-2001160
1002
}
  0
INSERT
  5
22E
330
71
100
AcDbEntity
  8
P-SANR-FIXT
100
AcDbBlockReference
  2
Automatic flow rate regulator valve_Caleffi_121 DN15 - 1_2__-V2-Est - Idraulica
 10
0.0
 20
0.0
 30
0.0
1001
REVIT
1002
{
1070
     1
1000
863172
1002
}
1002
{
1070
     5
1000
859151
1002
}
1002
{
1070
     2
1000
-2001160
1002
}
  0
ENDSEC
  0
SECTION
  2
OBJECTS
  0
DICTIONARY
  5
C
330
0
100
AcDbDictionary
281
     1
  3
ACAD_CIP_PREVIOUS_PRODUCT_INFO
350
7A
  3
ACAD_COLOR
350
63
  3
ACAD_DETAILVIEWSTYLE
350
6B
  3
ACAD_GROUP
350
D
  3
ACAD_IMAGE_VARS
350
7B
  3
ACAD_LAYOUT
350
62
  3
ACAD_MATERIAL
350
10
  3
ACAD_MLEADERSTYLE
350
66
  3
ACAD_MLINESTYLE
350
5F
  3
ACAD_PLOTSETTINGS
350
61
  3
ACAD_PLOTSTYLENAME
350
E
  3
ACAD_SCALELIST
350
42
  3
ACAD_SECTIONVIEWSTYLE
350
68
  3
ACAD_TABLESTYLE
350
64
  3
ACAD_VISUALSTYLE
350
29
  3
ACDB_RECOMPOSE_DATA
350
239
  3
AcDbVariableDictionary
350
7C
  3
REVIT_DICTIONARY
350
230
  0
DICTIONARY
  5
235
330
71
100
AcDbDictionary
280
     1
281
     1
  3
ACAD_SORTENTS
360
236
  0
XRECORD
  5
7A
102
{ACAD_REACTORS
330
C
102
}
330
C
100
AcDbXrecord
280
     1
300
RVT
300
2013
300
RVT2013
  0
DICTIONARY
  5
63
102
{ACAD_REACTORS
330
C
102
}
330
C
100
AcDbDictionary
281
     1
  0
DICTIONARY
  5
6B
102
{ACAD_REACTORS
330
C
102
}
330
C
100
AcDbDictionary
281
     1
  3
Imperial24
350
6C
  0
DICTIONARY
  5
D
102
{ACAD_REACTORS
330
C
102
}
330
C
100
AcDbDictionary
281
     1
  0
RASTERVARIABLES
  5
7B
102
{ACAD_REACTORS
330
C
102
}
330
C
100
AcDbRasterVariables
 90
        0
 70
     0
 71
     1
 72
     1
  0
DICTIONARY
  5
62
102
{ACAD_REACTORS
330
C
102
}
330
C
100
AcDbDictionary
281
     1
  3
Layout1
350
70
  3
Layout2
350
78
  3
Model
350
74
  0
DICTIONARY
  5
10
102
{ACAD_REACTORS
330
C
102
}
330
C
100
AcDbDictionary
281
     1
  3
ByBlock
350
19
  3
ByLayer
350
11
  3
Global
350
21
  0
DICTIONARY
  5
66
102
{ACAD_REACTORS
330
C
102
}
330
C
100
AcDbDictionary
281
     1
  3
Standard
350
67
  0
DICTIONARY
  5
5F
102
{ACAD_REACTORS
330
C
102
}
330
C
100
AcDbDictionary
281
     1
  3
Standard
350
60
  0
DICTIONARY
  5
61
102
{ACAD_REACTORS
330
C
102
}
330
C
100
AcDbDictionary
281
     1
  0
ACDBDICTIONARYWDFLT
  5
E
102
{ACAD_REACTORS
330
C
102
}
330
C
100
AcDbDictionary
281
     1
  3
Normal
350
F
100
AcDbDictionaryWithDefault
340
F
  0
DICTIONARY
  5
42
102
{ACAD_REACTORS
330
C
102
}
330
C
100
AcDbDictionary
281
     1
  3
A0
350
43
  3
A1
350
44
  3
A2
350
45
  3
A3
350
46
  3
A4
350
47
  3
A5
350
48
  3
A6
350
49
  3
A7
350
4A
  3
A8
350
4B
  3
A9
350
4C
  3
B0
350
4D
  3
B1
350
4E
  3
B2
350
4F
  3
B3
350
50
  3
B4
350
51
  3
B5
350
52
  3
B6
350
53
  0
DICTIONARY
  5
68
102
{ACAD_REACTORS
330
C
102
}
330
C
100
AcDbDictionary
281
     1
  3
Imperial24
350
6A
  0
DICTIONARY
  5
64
102
{ACAD_REACTORS
330
C
102
}
330
C
100
AcDbDictionary
281
     1
  3
Standard
350
65
  0
DICTIONARY
  5
29
102
{ACAD_REACTORS
330
C
102
}
330
C
100
AcDbDictionary
281
     1
  3
2dWireframe
350
2F
  3
Basic
350
2E
  3
Brighten
350
35
  3
ColorChange
350
39
  3
Conceptual
350
32
  3
Dim
350
34
  3
EdgeColorOff
350
41
  3
Facepattern
350
38
  3
Flat
350
2A
  3
FlatWithEdges
350
2B
  3
Gouraud
350
2C
  3
GouraudWithEdges
350
2D
  3
Hidden
350
31
  3
JitterOff
350
3F
  3
Linepattern
350
37
  3
OverhangOff
350
40
  3
Realistic
350
33
  3
Shaded
350
3E
  3
Shaded with edges
350
3D
  3
Shades of Gray
350
3A
  3
Sketchy
350
3B
  3
Thicken
350
36
  3
Wireframe
350
30
  3
X-Ray
350
3C
  0
XRECORD
  5
239
102
{ACAD_REACTORS
330
C
102
}
330
C
100
AcDbXrecord
280
     1
 90
        1
330
65
  0
DICTIONARY
  5
7C
102
{ACAD_REACTORS
330
C
102
}
330
C
100
AcDbDictionary
281
     1
  3
CANNOSCALE
350
81
  3
CMLEADERSTYLE
350
7E
  3
CTABLESTYLE
350
7D
  3
CVIEWDETAILSTYLE
350
7F
  3
CVIEWSECTIONSTYLE
350
80
  0
DICTIONARY
  5
230
102
{ACAD_REACTORS
330
C
102
}
330
C
100
AcDbDictionary
281
     1
  3
DRAWING_TOOL
350
234
  3
REVIT_CATEGORY_MAPPING
350
232
  3
REVIT_SUB_CATEGORY_MAPPING
350
233
  3
REVIT_TYPE_MAPPING
350
231
  0
SORTENTSTABLE
  5
236
102
{ACAD_REACTORS
330
235
102
}
330
235
100
AcDbSortentsTable
330
71
  0
ACDBDETAILVIEWSTYLE
  5
6C
102
{ACAD_REACTORS
330
6B
102
}
330
6B
100
AcDbModelDocViewStyle
 70
     0
  3
Imperial24
290
     1
100
AcDbDetailViewStyle
 70
     0
 71
     0
 90
        3
 71
     1
340
55
 62
   256
 40
0.24
340
0
 62
   256
 40
0.24
300

 40
0.36
280
     3
 71
     2
340
5D
 90
       25
 62
   256
 71
     3
340
55
 62
   256
 40
0.24
 90
        1
 40
0.75
 90
        1
300
%<\AcVar ViewType \f "%tc1">% %<\AcVar ViewDetailId>%\PSCALA %<\AcVar ViewScale \f "%sn">%
 71
     4
340
5D
 90
       25
 62
   256
340
5D
 90
       25
 62
   256
280
     0
  0
LAYOUT
  5
70
102
{ACAD_REACTORS
330
62
102
}
330
62
100
AcDbPlotSettings
  1

  2

  4

  6

 40
0.0
 41
0.0
 42
0.0
 43
0.0
 44
0.0
 45
0.0
 46
0.0
 47
0.0
 48
0.0
 49
0.0
140
0.0
141
0.0
142
1.0
143
1.0
 70
   688
 72
     0
 73
     0
 74
     5
  7

 75
    16
147
1.0
 76
     0
 77
     2
 78
   300
148
0.0
149
0.0
100
AcDbLayout
  1
Layout1
 70
     1
 71
     1
 10
0.0
 20
0.0
 11
12.0
 21
9.0
 12
0.0
 22
0.0
 32
0.0
 14
0.0
 24
0.0
 34
0.0
 15
0.0
 25
0.0
 35
0.0
146
0.0
 13
0.0
 23
0.0
 33
0.0
 16
1.0
 26
0.0
 36
0.0
 17
0.0
 27
1.0
 37
0.0
 76
     0
330
6D
  0
LAYOUT
  5
78
102
{ACAD_REACTORS
330
62
102
}
330
62
100
AcDbPlotSettings
  1

  2

  4

  6

 40
0.0
 41
0.0
 42
0.0
 43
0.0
 44
0.0
 45
0.0
 46
0.0
 47
0.0
 48
0.0
 49
0.0
140
0.0
141
0.0
142
1.0
143
1.0
 70
   688
 72
     0
 73
     0
 74
     5
  7

 75
    16
147
1.0
 76
     0
 77
     2
 78
   300
148
0.0
149
0.0
100
AcDbLayout
  1
Layout2
 70
     1
 71
     2
 10
0.0
 20
0.0
 11
12.0
 21
9.0
 12
0.0
 22
0.0
 32
0.0
 14
0.0
 24
0.0
 34
0.0
 15
0.0
 25
0.0
 35
0.0
146
0.0
 13
0.0
 23
0.0
 33
0.0
 16
1.0
 26
0.0
 36
0.0
 17
0.0
 27
1.0
 37
0.0
 76
     0
330
75
  0
LAYOUT
  5
74
102
{ACAD_REACTORS
330
62
102
}
330
62
100
AcDbPlotSettings
  1

  2

  4

  6

 40
0.0
 41
0.0
 42
0.0
 43
0.0
 44
0.0
 45
0.0
 46
0.0
 47
0.0
 48
0.0
 49
0.0
140
0.0
141
0.0
142
1.0
143
1.0
 70
  1712
 72
     0
 73
     0
 74
     0
  7

 75
     0
147
1.0
 76
     0
 77
     2
 78
   300
148
0.0
149
0.0
100
AcDbLayout
  1
Model
 70
     1
 71
     0
 10
0.0
 20
0.0
 11
12.0
 21
9.0
 12
0.0
 22
0.0
 32
0.0
 14
0.0
 24
0.0
 34
0.0
 15
0.0
 25
0.0
 35
0.0
146
0.0
 13
0.0
 23
0.0
 33
0.0
 16
1.0
 26
0.0
 36
0.0
 17
0.0
 27
1.0
 37
0.0
 76
     0
330
71
  0
MATERIAL
  5
19
102
{ACAD_XDICTIONARY
360
1A
102
}
102
{ACAD_REACTORS
330
10
102
}
330
10
100
AcDbMaterial
  1
ByBlock
 72
     0
 43
0.0208333333333333
 43
0.0
 43
0.0
 43
0.0
 43
0.0
 43
0.0208333333333333
 43
0.0
 43
0.0
 43
0.0
 43
0.0
 43
1.0
 43
0.0
 43
0.0
 43
0.0
 43
0.0
 43
1.0
 77
     0
 47
0.0208333333333333
 47
0.0
 47
0.0
 47
0.0
 47
0.0
 47
0.0208333333333333
 47
0.0
 47
0.0
 47
0.0
 47
0.0
 47
1.0
 47
0.0
 47
0.0
 47
0.0
 47
0.0
 47
1.0
171
     0
 49
0.0208333333333333
 49
0.0
 49
0.0
 49
0.0
 49
0.0
 49
0.0208333333333333
 49
0.0
 49
0.0
 49
0.0
 49
0.0
 49
1.0
 49
0.0
 49
0.0
 49
0.0
 49
0.0
 49
1.0
175
     0
142
0.0208333333333333
142
0.0
142
0.0
142
0.0
142
0.0
142
0.0208333333333333
142
0.0
142
0.0
142
0.0
142
0.0
142
1.0
142
0.0
142
0.0
142
0.0
142
0.0
142
1.0
179
     0
144
0.0208333333333333
144
0.0
144
0.0
144
0.0
144
0.0
144
0.0208333333333333
144
0.0
144
0.0
144
0.0
144
0.0
144
1.0
144
0.0
144
0.0
144
0.0
144
0.0
144
1.0
147
0.0208333333333333
147
0.0
147
0.0
147
0.0
147
0.0
147
0.0208333333333333
147
0.0
147
0.0
147
0.0
147
0.0
147
1.0
147
0.0
147
0.0
147
0.0
147
0.0
147
1.0
  0
MATERIAL
  5
11
102
{ACAD_XDICTIONARY
360
12
102
}
102
{ACAD_REACTORS
330
10
102
}
330
10
100
AcDbMaterial
  1
ByLayer
 72
     0
 43
0.0208333333333333
 43
0.0
 43
0.0
 43
0.0
 43
0.0
 43
0.0208333333333333
 43
0.0
 43
0.0
 43
0.0
 43
0.0
 43
1.0
 43
0.0
 43
0.0
 43
0.0
 43
0.0
 43
1.0
 77
     0
 47
0.0208333333333333
 47
0.0
 47
0.0
 47
0.0
 47
0.0
 47
0.0208333333333333
 47
0.0
 47
0.0
 47
0.0
 47
0.0
 47
1.0
 47
0.0
 47
0.0
 47
0.0
 47
0.0
 47
1.0
171
     0
 49
0.0208333333333333
 49
0.0
 49
0.0
 49
0.0
 49
0.0
 49
0.0208333333333333
 49
0.0
 49
0.0
 49
0.0
 49
0.0
 49
1.0
 49
0.0
 49
0.0
 49
0.0
 49
0.0
 49
1.0
175
     0
142
0.0208333333333333
142
0.0
142
0.0
142
0.0
142
0.0
142
0.0208333333333333
142
0.0
142
0.0
142
0.0
142
0.0
142
1.0
142
0.0
142
0.0
142
0.0
142
0.0
142
1.0
179
     0
144
0.0208333333333333
144
0.0
144
0.0
144
0.0
144
0.0
144
0.0208333333333333
144
0.0
144
0.0
144
0.0
144
0.0
144
1.0
144
0.0
144
0.0
144
0.0
144
0.0
144
1.0
147
0.0208333333333333
147
0.0
147
0.0
147
0.0
147
0.0
147
0.0208333333333333
147
0.0
147
0.0
147
0.0
147
0.0
147
1.0
147
0.0
147
0.0
147
0.0
147
0.0
147
1.0
  0
MATERIAL
  5
21
102
{ACAD_XDICTIONARY
360
22
102
}
102
{ACAD_REACTORS
330
10
102
}
330
10
100
AcDbMaterial
  1
Global
 72
     0
 43
0.0208333333333333
 43
0.0
 43
0.0
 43
0.0
 43
0.0
 43
0.0208333333333333
 43
0.0
 43
0.0
 43
0.0
 43
0.0
 43
1.0
 43
0.0
 43
0.0
 43
0.0
 43
0.0
 43
1.0
 77
     0
 47
0.0208333333333333
 47
0.0
 47
0.0
 47
0.0
 47
0.0
 47
0.0208333333333333
 47
0.0
 47
0.0
 47
0.0
 47
0.0
 47
1.0
 47
0.0
 47
0.0
 47
0.0
 47
0.0
 47
1.0
171
     0
 49
0.0208333333333333
 49
0.0
 49
0.0
 49
0.0
 49
0.0
 49
0.0208333333333333
 49
0.0
 49
0.0
 49
0.0
 49
0.0
 49
1.0
 49
0.0
 49
0.0
 49
0.0
 49
0.0
 49
1.0
175
     0
142
0.0208333333333333
142
0.0
142
0.0
142
0.0
142
0.0
142
0.0208333333333333
142
0.0
142
0.0
142
0.0
142
0.0
142
1.0
142
0.0
142
0.0
142
0.0
142
0.0
142
1.0
179
     0
144
0.0208333333333333
144
0.0
144
0.0
144
0.0
144
0.0
144
0.0208333333333333
144
0.0
144
0.0
144
0.0
144
0.0
144
1.0
144
0.0
144
0.0
144
0.0
144
0.0
144
1.0
147
0.0208333333333333
147
0.0
147
0.0
147
0.0
147
0.0
147
0.0208333333333333
147
0.0
147
0.0
147
0.0
147
0.0
147
1.0
147
0.0
147
0.0
147
0.0
147
0.0
147
1.0
  0
MLEADERSTYLE
  5
67
102
{ACAD_REACTORS
330
66
102
}
330
66
100
AcDbMLeaderStyle
179
     2
170
     2
171
     1
172
     0
 90
        2
 40
0.0
 41
0.0
173
     1
 91
-1056964608
340
5B
 92
       -2
290
     1
 42
0.09
291
     1
 43
0.36
  3
Standard
 44
0.18
300

342
55
174
     1
178
     6
175
     1
176
     0
 93
-1056964608
 45
0.18
292
     0
297
     0
 46
0.18
 94
-1056964608
 47
1.0
 49
1.0
140
1.0
293
     1
141
0.0
294
     1
177
     0
142
1.0
295
     1
296
     0
143
0.125
271
     0
272
     9
273
     9
298
     1
  0
MLINESTYLE
  5
60
102
{ACAD_REACTORS
330
5F
102
}
330
5F
100
AcDbMlineStyle
  2
STANDARD
 70
     0
  3

 62
   256
 51
90.0
 52
90.0
 71
     2
 49
0.5
 62
   256
  6
BYLAYER
 49
-0.5
 62
   256
  6
BYLAYER
  0
ACDBPLACEHOLDER
  5
F
102
{ACAD_REACTORS
330
E
102
}
330
E
  0
SCALE
  5
43
102
{ACAD_REACTORS
330
42
102
}
330
42
100
AcDbScale
 70
     0
300
1:1
140
1.0
141
1.0
290
     1
  0
SCALE
  5
44
102
{ACAD_REACTORS
330
42
102
}
330
42
100
AcDbScale
 70
     0
300
1/128" = 1'-0"
140
0.0078125
141
12.0
290
     0
  0
SCALE
  5
45
102
{ACAD_REACTORS
330
42
102
}
330
42
100
AcDbScale
 70
     0
300
1/64" = 1'-0"
140
0.015625
141
12.0
290
     0
  0
SCALE
  5
46
102
{ACAD_REACTORS
330
42
102
}
330
42
100
AcDbScale
 70
     0
300
1/32" = 1'-0"
140
0.03125
141
12.0
290
     0
  0
SCALE
  5
47
102
{ACAD_REACTORS
330
42
102
}
330
42
100
AcDbScale
 70
     0
300
1/16" = 1'-0"
140
0.0625
141
12.0
290
     0
  0
SCALE
  5
48
102
{ACAD_REACTORS
330
42
102
}
330
42
100
AcDbScale
 70
     0
300
3/32" = 1'-0"
140
0.09375
141
12.0
290
     0
  0
SCALE
  5
49
102
{ACAD_REACTORS
330
42
102
}
330
42
100
AcDbScale
 70
     0
300
1/8" = 1'-0"
140
0.125
141
12.0
290
     0
  0
SCALE
  5
4A
102
{ACAD_REACTORS
330
42
102
}
330
42
100
AcDbScale
 70
     0
300
3/16" = 1'-0"
140
0.1875
141
12.0
290
     0
  0
SCALE
  5
4B
102
{ACAD_REACTORS
330
42
102
}
330
42
100
AcDbScale
 70
     0
300
1/4" = 1'-0"
140
0.25
141
12.0
290
     0
  0
SCALE
  5
4C
102
{ACAD_REACTORS
330
42
102
}
330
42
100
AcDbScale
 70
     0
300
3/8" = 1'-0"
140
0.375
141
12.0
290
     0
  0
SCALE
  5
4D
102
{ACAD_REACTORS
330
42
102
}
330
42
100
AcDbScale
 70
     0
300
1/2" = 1'-0"
140
0.5
141
12.0
290
     0
  0
SCALE
  5
4E
102
{ACAD_REACTORS
330
42
102
}
330
42
100
AcDbScale
 70
     0
300
3/4" = 1'-0"
140
0.75
141
12.0
290
     0
  0
SCALE
  5
4F
102
{ACAD_REACTORS
330
42
102
}
330
42
100
AcDbScale
 70
     0
300
1" = 1'-0"
140
1.0
141
12.0
290
     0
  0
SCALE
  5
50
102
{ACAD_REACTORS
330
42
102
}
330
42
100
AcDbScale
 70
     0
300
1-1/2" = 1'-0"
140
1.5
141
12.0
290
     0
  0
SCALE
  5
51
102
{ACAD_REACTORS
330
42
102
}
330
42
100
AcDbScale
 70
     0
300
3" = 1'-0"
140
3.0
141
12.0
290
     0
  0
SCALE
  5
52
102
{ACAD_REACTORS
330
42
102
}
330
42
100
AcDbScale
 70
     0
300
6" = 1'-0"
140
6.0
141
12.0
290
     0
  0
SCALE
  5
53
102
{ACAD_REACTORS
330
42
102
}
330
42
100
AcDbScale
 70
     0
300
1'-0" = 1'-0"
140
12.0
141
12.0
290
     0
  0
ACDBSECTIONVIEWSTYLE
  5
6A
102
{ACAD_REACTORS
330
68
102
}
330
68
100
AcDbModelDocViewStyle
 70
     0
  3
Imperial24
290
     1
100
AcDbSectionViewStyle
 70
     0
 71
     0
 90
       78
 71
     1
340
55
 62
   256
 40
0.24
340
0
340
0
 62
   256
 40
0.24
300
I, O, Q, S, X, Z
 40
0.48
 90
        3
 40
0.18
 90
        1
 71
     2
340
69
 90
       25
 62
   256
340
5D
 90
       50
 62
   256
 40
0.24
 40
0.0
 40
0.24
 71
     3
340
55
 62
   256
 40
0.24
 90
        1
 40
0.75
 90
        1
300
%<\AcVar ViewType \f "%tc1">% %<\AcVar ViewSectionStartId>%-%<\AcVar ViewSectionEndId>%\PSCALA %<\AcVar ViewScale \f "%sn">%
 71
     4
 62
   256
 62
   257
300
ANSI31
 40
1.0
 90
        0
290
     0
290
     0
 90
        6
 40
0.0
 40
1.570796326794896
 40
0.2617993877991494
 40
1.308996938995747
 40
-0.2617993877991494
 40
1.832595714594046
  0
TABLESTYLE
  5
65
102
{ACAD_XDICTIONARY
360
237
102
}
102
{ACAD_REACTORS
330
64
102
}
330
64
100
AcDbTableStyle
280
     0
  3
Standard
 70
     0
 71
     0
 40
0.06
 41
0.06
280
     0
281
     0
  7
Standard
140
0.18
170
     2
 62
     0
 63
     7
283
     0
 90
      512
 91
        0
  1

274
    -2
284
     1
 64
     0
275
    -2
285
     1
 65
     0
276
    -2
286
     1
 66
     0
277
    -2
287
     1
 67
     0
278
    -2
288
     1
 68
     0
279
    -2
289
     1
 69
     0
  7
Standard
140
0.25
170
     5
 62
     0
 63
     7
283
     0
 90
      512
 91
        0
  1

274
    -2
284
     1
 64
     0
275
    -2
285
     1
 65
     0
276
    -2
286
     1
 66
     0
277
    -2
287
     1
 67
     0
278
    -2
288
     1
 68
     0
279
    -2
289
     1
 69
     0
  7
Standard
140
0.18
170
     5
 62
     0
 63
     7
283
     0
 90
      512
 91
        0
  1

274
    -2
284
     1
 64
     0
275
    -2
285
     1
 65
     0
276
    -2
286
     1
 66
     0
277
    -2
287
     1
 67
     0
278
    -2
288
     1
 68
     0
279
    -2
289
     1
 69
     0
  0
VISUALSTYLE
  5
2F
102
{ACAD_REACTORS
330
29
102
}
330
29
100
AcDbVisualStyle
  2
2dWireframe
 70
     4
177
     3
291
     0
 70
    58
 90
        0
176
     1
 90
        2
176
     1
 90
        0
176
     1
 90
        0
176
     1
 40
0.6
176
     1
 40
30.0
176
     1
 62
     7
420
 16777215
176
     1
 90
        1
176
     1
 90
        4
176
     1
 62
     7
176
     1
 62
   257
176
     1
 90
        1
176
     1
 90
        1
176
     1
 40
1.0
176
     1
 90
        0
176
     1
 62
   257
176
     1
 40
1.0
176
     1
 90
        1
176
     1
 90
        6
176
     1
 90
        2
176
     1
 62
     7
176
     1
 90
        5
176
     1
 90
        0
176
     1
 90
        0
176
     1
290
     0
176
     1
 90
        1
176
     1
 40
0.0
176
     1
 90
        0
176
     1
290
     1
176
     1
290
     1
176
     1
290
     0
176
     1
290
     0
176
     1
290
     0
176
     1
290
     0
176
     1
290
     0
176
     1
290
     0
176
     1
290
     0
176
     1
 90
       50
176
     1
 40
0.0
176
     1
 40
1.0
176
     1
 90
        0
176
     1
 62
    18
420
        0
176
     1
 90
       50
176
     1
 90
        3
176
     1
 62
     5
420
      255
176
     1
290
     0
176
     1
 90
       50
176
     1
 90
       50
176
     1
 90
       50
176
     1
290
     0
176
     1
 90
       50
176
     1
 62
   256
176
     0
 40
1.0
176
     0
 90
        2
176
     1
  1
strokes_ogs.tif
176
     1
290
     0
176
     1
 40
1.0
176
     1
 40
1.0
176
     1
  0
VISUALSTYLE
  5
2E
102
{ACAD_REACTORS
330
29
102
}
330
29
100
AcDbVisualStyle
  2
Basic
 70
     7
177
     3
291
     1
 70
    58
 90
        1
176
     1
 90
        0
176
     1
 90
        1
176
     1
 90
        0
176
     1
 40
0.6
176
     1
 40
30.0
176
     1
 62
     7
420
 16777215
176
     1
 90
        0
176
     1
 90
        4
176
     1
 62
     7
176
     1
 62
   257
176
     1
 90
        1
176
     1
 90
        1
176
     1
 40
1.0
176
     1
 90
        8
176
     1
 62
     7
176
     1
 40
1.0
176
     1
 90
        1
176
     1
 90
        6
176
     1
 90
        2
176
     1
 62
     7
176
     1
 90
        5
176
     1
 90
        0
176
     1
 90
        0
176
     1
290
     0
176
     1
 90
        1
176
     1
 40
0.0
176
     1
 90
        0
176
     1
290
     0
176
     1
290
     1
176
     1
290
     1
176
     1
290
     0
176
     1
290
     0
176
     1
290
     0
176
     1
290
     0
176
     1
290
     0
176
     1
290
     0
176
     1
 90
       50
176
     1
 40
0.0
176
     1
 40
1.0
176
     1
 90
        0
176
     1
 62
    18
420
        0
176
     1
 90
       50
176
     1
 90
        3
176
     1
 62
     5
420
      255
176
     1
290
     0
176
     1
 90
       50
176
     1
 90
       50
176
     1
 90
       50
176
     1
290
     0
176
     1
 90
       50
176
     1
 62
   256
176
     0
 40
1.0
176
     0
 90
        2
176
     1
  1
strokes_ogs.tif
176
     1
290
     0
176
     1
 40
1.0
176
     1
 40
1.0
176
     1
  0
VISUALSTYLE
  5
35
102
{ACAD_REACTORS
330
29
102
}
330
29
100
AcDbVisualStyle
  2
Brighten
 70
    12
177
     3
291
     1
 70
    58
 90
        2
176
     1
 90
        2
176
     1
 90
        0
176
     1
 90
        0
176
     1
 40
0.6
176
     1
 40
30.0
176
     1
 62
     7
420
 16777215
176
     1
 90
        1
176
     1
 90
        4
176
     1
 62
     7
176
     1
 62
   257
176
     1
 90
        1
176
     1
 90
        1
176
     1
 40
1.0
176
     1
 90
        8
176
     1
 62
     7
176
     1
 40
1.0
176
     1
 90
        1
176
     1
 90
        6
176
     1
 90
        2
176
     1
 62
     7
176
     1
 90
        5
176
     1
 90
        0
176
     1
 90
        0
176
     1
290
     0
176
     1
 90
        1
176
     1
 40
50.0
176
     1
 90
        0
176
     1
290
     0
176
     1
290
     1
176
     1
290
     1
176
     1
290
     0
176
     1
290
     0
176
     1
290
     0
176
     1
290
     0
176
     1
290
     0
176
     1
290
     0
176
     1
 90
       50
176
     1
 40
0.0
176
     1
 40
1.0
176
     1
 90
        0
176
     1
 62
    18
420
        0
176
     1
 90
       50
176
     1
 90
        3
176
     1
 62
     5
420
      255
176
     1
290
     0
176
     1
 90
       50
176
     1
 90
       50
176
     1
 90
       50
176
     1
290
     0
176
     1
 90
       50
176
     1
 62
   256
176
     0
 40
1.0
176
     0
 90
        2
176
     1
  1
strokes_ogs.tif
176
     1
290
     0
176
     1
 40
1.0
176
     1
 40
1.0
176
     1
  0
VISUALSTYLE
  5
39
102
{ACAD_REACTORS
330
29
102
}
330
29
100
AcDbVisualStyle
  2
ColorChange
 70
    16
177
     3
291
     1
 70
    58
 90
        2
176
     1
 90
        2
176
     1
 90
        3
176
     1
 90
        0
176
     1
 40
0.6
176
     1
 40
30.0
176
     1
 62
     8
420
  8421504
176
     1
 90
        1
176
     1
 90
        4
176
     1
 62
     7
176
     1
 62
   257
176
     1
 90
        1
176
     1
 90
        1
176
     1
 40
1.0
176
     1
 90
        8
176
     1
 62
     8
420
  8421504
176
     1
 40
1.0
176
     1
 90
        1
176
     1
 90
        6
176
     1
 90
        2
176
     1
 62
     7
176
     1
 90
        5
176
     1
 90
        0
176
     1
 90
        0
176
     1
290
     0
176
     1
 90
        1
176
     1
 40
0.0
176
     1
 90
        0
176
     1
290
     0
176
     1
290
     1
176
     1
290
     1
176
     1
290
     0
176
     1
290
     0
176
     1
290
     0
176
     1
290
     0
176
     1
290
     0
176
     1
290
     0
176
     1
 90
       50
176
     1
 40
0.0
176
     1
 40
1.0
176
     1
 90
        0
176
     1
 62
    18
420
        0
176
     1
 90
       50
176
     1
 90
        3
176
     1
 62
     5
420
      255
176
     1
290
     0
176
     1
 90
       50
176
     1
 90
       50
176
     1
 90
       50
176
     1
290
     0
176
     1
 90
       50
176
     1
 62
   256
176
     0
 40
1.0
176
     0
 90
        2
176
     1
  1
strokes_ogs.tif
176
     1
290
     0
176
     1
 40
1.0
176
     1
 40
1.0
176
     1
  0
VISUALSTYLE
  5
32
102
{ACAD_REACTORS
330
29
102
}
330
29
100
AcDbVisualStyle
  2
Conceptual
 70
     9
177
     3
291
     0
 70
    58
 90
        3
176
     1
 90
        2
176
     1
 90
        0
176
     1
 90
        0
176
     1
 40
0.6
176
     1
 40
30.0
176
     1
 62
     7
420
 16777215
176
     1
 90
        2
176
     1
 90
        2
176
     1
 62
     7
176
     1
 62
   257
176
     1
 90
        1
176
     1
 90
        1
176
     1
 40
179.0
176
     1
 90
        8
176
     1
 62
     7
176
     1
 40
1.0
176
     1
 90
        1
176
     1
 90
        6
176
     1
 90
        2
176
     1
 62
     7
176
     1
 90
        3
176
     1
 90
        0
176
     1
 90
        0
176
     1
290
     0
176
     1
 90
        1
176
     1
 40
0.0
176
     1
 90
        0
176
     1
290
     0
176
     1
290
     1
176
     1
290
     1
176
     1
290
     0
176
     1
290
     0
176
     1
290
     0
176
     1
290
     0
176
     1
290
     0
176
     1
290
     0
176
     1
 90
       50
176
     1
 40
0.0
176
     1
 40
1.0
176
     1
 90
        0
176
     1
 62
    18
420
        0
176
     1
 90
       50
176
     1
 90
        3
176
     1
 62
     5
420
      255
176
     1
290
     0
176
     1
 90
       50
176
     1
 90
       50
176
     1
 90
       50
176
     1
290
     0
176
     1
 90
       50
176
     1
 62
   256
176
     0
 40
1.0
176
     0
 90
        2
176
     1
  1
strokes_ogs.tif
176
     1
290
     0
176
     1
 40
1.0
176
     1
 40
1.0
176
     1
  0
VISUALSTYLE
  5
34
102
{ACAD_REACTORS
330
29
102
}
330
29
100
AcDbVisualStyle
  2
Dim
 70
    11
177
     3
291
     1
 70
    58
 90
        2
176
     1
 90
        2
176
     1
 90
        0
176
     1
 90
        0
176
     1
 40
0.6
176
     1
 40
30.0
176
     1
 62
     7
420
 16777215
176
     1
 90
        1
176
     1
 90
        4
176
     1
 62
     7
176
     1
 62
   257
176
     1
 90
        1
176
     1
 90
        1
176
     1
 40
1.0
176
     1
 90
        8
176
     1
 62
     7
176
     1
 40
1.0
176
     1
 90
        1
176
     1
 90
        6
176
     1
 90
        2
176
     1
 62
     7
176
     1
 90
        5
176
     1
 90
        0
176
     1
 90
        0
176
     1
290
     0
176
     1
 90
        1
176
     1
 40
-50.0
176
     1
 90
        0
176
     1
290
     0
176
     1
290
     1
176
     1
290
     1
176
     1
290
     0
176
     1
290
     0
176
     1
290
     0
176
     1
290
     0
176
     1
290
     0
176
     1
290
     0
176
     1
 90
       50
176
     1
 40
0.0
176
     1
 40
1.0
176
     1
 90
        0
176
     1
 62
    18
420
        0
176
     1
 90
       50
176
     1
 90
        3
176
     1
 62
     5
420
      255
176
     1
290
     0
176
     1
 90
       50
176
     1
 90
       50
176
     1
 90
       50
176
     1
290
     0
176
     1
 90
       50
176
     1
 62
   256
176
     0
 40
1.0
176
     0
 90
        2
176
     1
  1
strokes_ogs.tif
176
     1
290
     0
176
     1
 40
1.0
176
     1
 40
1.0
176
     1
  0
VISUALSTYLE
  5
41
102
{ACAD_REACTORS
330
29
102
}
330
29
100
AcDbVisualStyle
  2
EdgeColorOff
 70
    22
177
     3
291
     1
 70
    58
 90
        2
176
     0
 90
        2
176
     0
 90
        0
176
     0
 90
        0
176
     0
 40
0.6
176
     0
 40
30.0
176
     0
 62
     7
420
 16777215
176
     0
 90
        1
176
     0
 90
        4
176
     0
 62
     7
176
     0
 62
   257
176
     0
 90
        1
176
     0
 90
        1
176
     0
 40
1.0
176
     0
 90
        8
176
     2
 62
     7
176
     0
 40
1.0
176
     0
 90
        1
176
     0
 90
        6
176
     0
 90
        2
176
     0
 62
     7
176
     0
 90
        5
176
     0
 90
        0
176
     0
 90
        0
176
     0
290
     0
176
     0
 90
        1
176
     0
 40
0.0
176
     0
 90
        0
176
     0
290
     0
176
     0
290
     1
176
     0
290
     1
176
     0
290
     0
176
     0
290
     0
176
     0
290
     0
176
     0
290
     0
176
     0
290
     0
176
     0
290
     0
176
     0
 90
       50
176
     0
 40
0.0
176
     0
 40
1.0
176
     0
 90
        0
176
     0
 62
    18
420
        0
176
     0
 90
       50
176
     0
 90
        3
176
     0
 62
     5
420
      255
176
     0
290
     0
176
     0
 90
       50
176
     0
 90
       50
176
     0
 90
       50
176
     0
290
     0
176
     0
 90
       50
176
     0
 62
   256
176
     0
 40
1.0
176
     0
 90
        2
176
     0
  1
strokes_ogs.tif
176
     0
290
     0
176
     0
 40
1.0
176
     0
 40
1.0
176
     0
  0
VISUALSTYLE
  5
38
102
{ACAD_REACTORS
330
29
102
}
330
29
100
AcDbVisualStyle
  2
Facepattern
 70
    15
177
     3
291
     1
 70
    58
 90
        2
176
     1
 90
        2
176
     1
 90
        0
176
     1
 90
        0
176
     1
 40
0.6
176
     1
 40
30.0
176
     1
 62
     7
420
 16777215
176
     1
 90
        1
176
     1
 90
        4
176
     1
 62
     7
176
     1
 62
   257
176
     1
 90
        1
176
     1
 90
        1
176
     1
 40
1.0
176
     1
 90
        8
176
     1
 62
     7
176
     1
 40
1.0
176
     1
 90
        1
176
     1
 90
        6
176
     1
 90
        2
176
     1
 62
     7
176
     1
 90
        5
176
     1
 90
        0
176
     1
 90
        0
176
     1
290
     0
176
     1
 90
        1
176
     1
 40
0.0
176
     1
 90
        0
176
     1
290
     0
176
     1
290
     1
176
     1
290
     1
176
     1
290
     0
176
     1
290
     0
176
     1
290
     0
176
     1
290
     0
176
     1
290
     0
176
     1
290
     0
176
     1
 90
       50
176
     1
 40
0.0
176
     1
 40
1.0
176
     1
 90
        0
176
     1
 62
    18
420
        0
176
     1
 90
       50
176
     1
 90
        3
176
     1
 62
     5
420
      255
176
     1
290
     0
176
     1
 90
       50
176
     1
 90
       50
176
     1
 90
       50
176
     1
290
     0
176
     1
 90
       50
176
     1
 62
   256
176
     0
 40
1.0
176
     0
 90
        2
176
     1
  1
strokes_ogs.tif
176
     1
290
     0
176
     1
 40
1.0
176
     1
 40
1.0
176
     1
  0
VISUALSTYLE
  5
2A
102
{ACAD_REACTORS
330
29
102
}
330
29
100
AcDbVisualStyle
  2
Flat
 70
     0
177
     3
291
     1
 70
    58
 90
        2
176
     1
 90
        1
176
     1
 90
        1
176
     1
 90
        2
176
     1
 40
0.6
176
     1
 40
30.0
176
     1
 62
     7
420
 16777215
176
     1
 90
        0
176
     1
 90
        0
176
     1
 62
     7
176
     1
 62
   257
176
     1
 90
        1
176
     1
 90
        1
176
     1
 40
1.0
176
     1
 90
        8
176
     1
 62
     7
176
     1
 40
1.0
176
     1
 90
        1
176
     1
 90
        6
176
     1
 90
        2
176
     1
 62
     7
176
     1
 90
        5
176
     1
 90
        0
176
     1
 90
        0
176
     1
290
     0
176
     1
 90
       13
176
     1
 40
0.0
176
     1
 90
        0
176
     1
290
     0
176
     1
290
     1
176
     1
290
     1
176
     1
290
     0
176
     1
290
     0
176
     1
290
     0
176
     1
290
     0
176
     1
290
     0
176
     1
290
     0
176
     1
 90
       50
176
     1
 40
0.0
176
     1
 40
1.0
176
     1
 90
        0
176
     1
 62
    18
420
        0
176
     1
 90
       50
176
     1
 90
        3
176
     1
 62
     5
420
      255
176
     1
290
     0
176
     1
 90
       50
176
     1
 90
       50
176
     1
 90
       50
176
     1
290
     0
176
     1
 90
       50
176
     1
 62
   256
176
     0
 40
1.0
176
     0
 90
        2
176
     1
  1
strokes_ogs.tif
176
     1
290
     0
176
     1
 40
1.0
176
     1
 40
1.0
176
     1
  0
VISUALSTYLE
  5
2B
102
{ACAD_REACTORS
330
29
102
}
330
29
100
AcDbVisualStyle
  2
FlatWithEdges
 70
     1
177
     3
291
     1
 70
    58
 90
        2
176
     1
 90
        1
176
     1
 90
        1
176
     1
 90
        2
176
     1
 40
0.6
176
     1
 40
30.0
176
     1
 62
     7
420
 16777215
176
     1
 90
        1
176
     1
 90
        0
176
     1
 62
     7
176
     1
 62
   257
176
     1
 90
        1
176
     1
 90
        1
176
     1
 40
1.0
176
     1
 90
        0
176
     1
 62
   257
176
     1
 40
1.0
176
     1
 90
        1
176
     1
 90
        6
176
     1
 90
        2
176
     1
 62
     7
176
     1
 90
        5
176
     1
 90
        0
176
     1
 90
        0
176
     1
290
     0
176
     1
 90
       13
176
     1
 40
0.0
176
     1
 90
        0
176
     1
290
     0
176
     1
290
     1
176
     1
290
     1
176
     1
290
     0
176
     1
290
     0
176
     1
290
     0
176
     1
290
     0
176
     1
290
     0
176
     1
290
     0
176
     1
 90
       50
176
     1
 40
0.0
176
     1
 40
1.0
176
     1
 90
        0
176
     1
 62
    18
420
        0
176
     1
 90
       50
176
     1
 90
        3
176
     1
 62
     5
420
      255
176
     1
290
     0
176
     1
 90
       50
176
     1
 90
       50
176
     1
 90
       50
176
     1
290
     0
176
     1
 90
       50
176
     1
 62
   256
176
     0
 40
1.0
176
     0
 90
        2
176
     1
  1
strokes_ogs.tif
176
     1
290
     0
176
     1
 40
1.0
176
     1
 40
1.0
176
     1
  0
VISUALSTYLE
  5
2C
102
{ACAD_REACTORS
330
29
102
}
330
29
100
AcDbVisualStyle
  2
Gouraud
 70
     2
177
     3
291
     1
 70
    58
 90
        2
176
     1
 90
        2
176
     1
 90
        1
176
     1
 90
        2
176
     1
 40
0.6
176
     1
 40
30.0
176
     1
 62
     7
420
 16777215
176
     1
 90
        0
176
     1
 90
        0
176
     1
 62
     7
176
     1
 62
   257
176
     1
 90
        1
176
     1
 90
        1
176
     1
 40
1.0
176
     1
 90
        0
176
     1
 62
     7
176
     1
 40
1.0
176
     1
 90
        1
176
     1
 90
        6
176
     1
 90
        2
176
     1
 62
     7
176
     1
 90
        5
176
     1
 90
        0
176
     1
 90
        0
176
     1
290
     0
176
     1
 90
       13
176
     1
 40
0.0
176
     1
 90
        0
176
     1
290
     0
176
     1
290
     1
176
     1
290
     1
176
     1
290
     0
176
     1
290
     0
176
     1
290
     0
176
     1
290
     0
176
     1
290
     0
176
     1
290
     0
176
     1
 90
       50
176
     1
 40
0.0
176
     1
 40
1.0
176
     1
 90
        0
176
     1
 62
    18
420
        0
176
     1
 90
       50
176
     1
 90
        3
176
     1
 62
     5
420
      255
176
     1
290
     0
176
     1
 90
       50
176
     1
 90
       50
176
     1
 90
       50
176
     1
290
     0
176
     1
 90
       50
176
     1
 62
   256
176
     0
 40
1.0
176
     0
 90
        2
176
     1
  1
strokes_ogs.tif
176
     1
290
     0
176
     1
 40
1.0
176
     1
 40
1.0
176
     1
  0
VISUALSTYLE
  5
2D
102
{ACAD_REACTORS
330
29
102
}
330
29
100
AcDbVisualStyle
  2
GouraudWithEdges
 70
     3
177
     3
291
     1
 70
    58
 90
        2
176
     1
 90
        2
176
     1
 90
        1
176
     1
 90
        2
176
     1
 40
0.6
176
     1
 40
30.0
176
     1
 62
     7
420
 16777215
176
     1
 90
        1
176
     1
 90
        0
176
     1
 62
     7
176
     1
 62
   257
176
     1
 90
        1
176
     1
 90
        1
176
     1
 40
1.0
176
     1
 90
        0
176
     1
 62
   257
176
     1
 40
1.0
176
     1
 90
        1
176
     1
 90
        6
176
     1
 90
        2
176
     1
 62
     7
176
     1
 90
        5
176
     1
 90
        0
176
     1
 90
        0
176
     1
290
     0
176
     1
 90
       13
176
     1
 40
0.0
176
     1
 90
        0
176
     1
290
     0
176
     1
290
     1
176
     1
290
     1
176
     1
290
     0
176
     1
290
     0
176
     1
290
     0
176
     1
290
     0
176
     1
290
     0
176
     1
290
     0
176
     1
 90
       50
176
     1
 40
0.0
176
     1
 40
1.0
176
     1
 90
        0
176
     1
 62
    18
420
        0
176
     1
 90
       50
176
     1
 90
        3
176
     1
 62
     5
420
      255
176
     1
290
     0
176
     1
 90
       50
176
     1
 90
       50
176
     1
 90
       50
176
     1
290
     0
176
     1
 90
       50
176
     1
 62
   256
176
     0
 40
1.0
176
     0
 90
        2
176
     1
  1
strokes_ogs.tif
176
     1
290
     0
176
     1
 40
1.0
176
     1
 40
1.0
176
     1
  0
VISUALSTYLE
  5
31
102
{ACAD_REACTORS
330
29
102
}
330
29
100
AcDbVisualStyle
  2
Hidden
 70
     6
177
     3
291
     0
 70
    58
 90
        1
176
     1
 90
        2
176
     1
 90
        2
176
     1
 90
        0
176
     1
 40
0.6
176
     1
 40
30.0
176
     1
 62
     7
420
 16777215
176
     1
 90
        2
176
     1
 90
        2
176
     1
 62
     7
176
     1
 62
   257
176
     1
 90
        2
176
     1
 90
        1
176
     1
 40
40.0
176
     1
 90
        0
176
     1
 62
   257
176
     1
 40
1.0
176
     1
 90
        1
176
     1
 90
        6
176
     1
 90
        2
176
     1
 62
     7
176
     1
 90
        3
176
     1
 90
        0
176
     1
 90
        0
176
     1
290
     0
176
     1
 90
        1
176
     1
 40
0.0
176
     1
 90
        0
176
     1
290
     0
176
     1
290
     1
176
     1
290
     1
176
     1
290
     0
176
     1
290
     0
176
     1
290
     0
176
     1
290
     0
176
     1
290
     0
176
     1
290
     0
176
     1
 90
       50
176
     1
 40
0.0
176
     1
 40
1.0
176
     1
 90
        0
176
     1
 62
    18
420
        0
176
     1
 90
       50
176
     1
 90
        3
176
     1
 62
     5
420
      255
176
     1
290
     0
176
     1
 90
       50
176
     1
 90
       50
176
     1
 90
       50
176
     1
290
     0
176
     1
 90
       50
176
     1
 62
   256
176
     0
 40
1.0
176
     0
 90
        2
176
     1
  1
strokes_ogs.tif
176
     1
290
     0
176
     1
 40
1.0
176
     1
 40
1.0
176
     1
  0
VISUALSTYLE
  5
3F
102
{ACAD_REACTORS
330
29
102
}
330
29
100
AcDbVisualStyle
  2
JitterOff
 70
    20
177
     3
291
     1
 70
    58
 90
        2
176
     0
 90
        2
176
     0
 90
        0
176
     0
 90
        0
176
     0
 40
0.6
176
     0
 40
30.0
176
     0
 62
     7
420
 16777215
176
     0
 90
        1
176
     0
 90
        4
176
     0
 62
     7
176
     0
 62
   257
176
     0
 90
        1
176
     0
 90
        1
176
     0
 40
1.0
176
     0
 90
       10
176
     2
 62
     7
176
     0
 40
1.0
176
     0
 90
        1
176
     0
 90
        6
176
     0
 90
        2
176
     0
 62
     7
176
     0
 90
        5
176
     0
 90
        0
176
     0
 90
        0
176
     0
290
     0
176
     0
 90
        1
176
     0
 40
0.0
176
     0
 90
        0
176
     0
290
     0
176
     0
290
     1
176
     0
290
     1
176
     0
290
     0
176
     0
290
     0
176
     0
290
     0
176
     0
290
     0
176
     0
290
     0
176
     0
290
     0
176
     0
 90
       50
176
     0
 40
0.0
176
     0
 40
1.0
176
     0
 90
        0
176
     0
 62
    18
420
        0
176
     0
 90
       50
176
     0
 90
        3
176
     0
 62
     5
420
      255
176
     0
290
     0
176
     0
 90
       50
176
     0
 90
       50
176
     0
 90
       50
176
     0
290
     0
176
     0
 90
       50
176
     0
 62
   256
176
     0
 40
1.0
176
     0
 90
        2
176
     0
  1
strokes_ogs.tif
176
     0
290
     0
176
     0
 40
1.0
176
     0
 40
1.0
176
     0
  0
VISUALSTYLE
  5
37
102
{ACAD_REACTORS
330
29
102
}
330
29
100
AcDbVisualStyle
  2
Linepattern
 70
    14
177
     3
291
     1
 70
    58
 90
        2
176
     1
 90
        2
176
     1
 90
        0
176
     1
 90
        0
176
     1
 40
0.6
176
     1
 40
30.0
176
     1
 62
     7
420
 16777215
176
     1
 90
        1
176
     1
 90
        4
176
     1
 62
     7
176
     1
 62
   257
176
     1
 90
        7
176
     1
 90
        7
176
     1
 40
1.0
176
     1
 90
        8
176
     1
 62
     7
176
     1
 40
1.0
176
     1
 90
        1
176
     1
 90
        6
176
     1
 90
        2
176
     1
 62
     7
176
     1
 90
        5
176
     1
 90
        0
176
     1
 90
        0
176
     1
290
     0
176
     1
 90
        1
176
     1
 40
0.0
176
     1
 90
        0
176
     1
290
     0
176
     1
290
     1
176
     1
290
     1
176
     1
290
     0
176
     1
290
     0
176
     1
290
     0
176
     1
290
     0
176
     1
290
     0
176
     1
290
     0
176
     1
 90
       50
176
     1
 40
0.0
176
     1
 40
1.0
176
     1
 90
        0
176
     1
 62
    18
420
        0
176
     1
 90
       50
176
     1
 90
        3
176
     1
 62
     5
420
      255
176
     1
290
     0
176
     1
 90
       50
176
     1
 90
       50
176
     1
 90
       50
176
     1
290
     0
176
     1
 90
       50
176
     1
 62
   256
176
     0
 40
1.0
176
     0
 90
        2
176
     1
  1
strokes_ogs.tif
176
     1
290
     0
176
     1
 40
1.0
176
     1
 40
1.0
176
     1
  0
VISUALSTYLE
  5
40
102
{ACAD_REACTORS
330
29
102
}
330
29
100
AcDbVisualStyle
  2
OverhangOff
 70
    21
177
     3
291
     1
 70
    58
 90
        2
176
     0
 90
        2
176
     0
 90
        0
176
     0
 90
        0
176
     0
 40
0.6
176
     0
 40
30.0
176
     0
 62
     7
420
 16777215
176
     0
 90
        1
176
     0
 90
        4
176
     0
 62
     7
176
     0
 62
   257
176
     0
 90
        1
176
     0
 90
        1
176
     0
 40
1.0
176
     0
 90
        9
176
     2
 62
     7
176
     0
 40
1.0
176
     0
 90
        1
176
     0
 90
        6
176
     0
 90
        2
176
     0
 62
     7
176
     0
 90
        5
176
     0
 90
        0
176
     0
 90
        0
176
     0
290
     0
176
     0
 90
        1
176
     0
 40
0.0
176
     0
 90
        0
176
     0
290
     0
176
     0
290
     1
176
     0
290
     1
176
     0
290
     0
176
     0
290
     0
176
     0
290
     0
176
     0
290
     0
176
     0
290
     0
176
     0
290
     0
176
     0
 90
       50
176
     0
 40
0.0
176
     0
 40
1.0
176
     0
 90
        0
176
     0
 62
    18
420
        0
176
     0
 90
       50
176
     0
 90
        3
176
     0
 62
     5
420
      255
176
     0
290
     0
176
     0
 90
       50
176
     0
 90
       50
176
     0
 90
       50
176
     0
290
     0
176
     0
 90
       50
176
     0
 62
   256
176
     0
 40
1.0
176
     0
 90
        2
176
     0
  1
strokes_ogs.tif
176
     0
290
     0
176
     0
 40
1.0
176
     0
 40
1.0
176
     0
  0
VISUALSTYLE
  5
33
102
{ACAD_REACTORS
330
29
102
}
330
29
100
AcDbVisualStyle
  2
Realistic
 70
     8
177
     3
291
     0
 70
    58
 90
        2
176
     1
 90
        3
176
     1
 90
        0
176
     1
 90
        2
176
     1
 40
0.6
176
     1
 40
30.0
176
     1
 62
     7
420
 16777215
176
     1
 90
        0
176
     1
 90
        0
176
     1
 62
     7
176
     1
 62
   257
176
     1
 90
        1
176
     1
 90
        1
176
     1
 40
1.0
176
     1
 90
        8
176
     1
 62
   257
176
     1
 40
1.0
176
     1
 90
        1
176
     1
 90
        6
176
     1
 90
        2
176
     1
 62
     7
176
     1
 90
        3
176
     1
 90
        0
176
     1
 90
        0
176
     1
290
     0
176
     1
 90
       13
176
     1
 40
0.0
176
     1
 90
        0
176
     1
290
     0
176
     1
290
     1
176
     1
290
     1
176
     1
290
     0
176
     1
290
     0
176
     1
290
     0
176
     1
290
     0
176
     1
290
     0
176
     1
290
     0
176
     1
 90
       50
176
     1
 40
0.0
176
     1
 40
1.0
176
     1
 90
        0
176
     1
 62
    18
420
        0
176
     1
 90
       50
176
     1
 90
        3
176
     1
 62
     5
420
      255
176
     1
290
     0
176
     1
 90
       50
176
     1
 90
       50
176
     1
 90
       50
176
     1
290
     0
176
     1
 90
       50
176
     1
 62
   256
176
     0
 40
1.0
176
     0
 90
        2
176
     1
  1
strokes_ogs.tif
176
     1
290
     0
176
     1
 40
1.0
176
     1
 40
1.0
176
     1
  0
VISUALSTYLE
  5
3E
102
{ACAD_REACTORS
330
29
102
}
330
29
100
AcDbVisualStyle
  2
Shaded
 70
    27
177
     3
291
     0
 70
    58
 90
        2
176
     1
 90
        2
176
     1
 90
        1
176
     1
 90
        2
176
     1
 40
0.6
176
     1
 40
30.0
176
     1
 62
     7
420
 16777215
176
     1
 90
        0
176
     1
 90
        4
176
     1
 62
     7
176
     1
 62
   257
176
     1
 90
        1
176
     1
 90
        1
176
     1
 40
1.0
176
     1
 90
        8
176
     1
 62
   257
176
     1
 40
1.0
176
     1
 90
        1
176
     1
 90
        6
176
     1
 90
        2
176
     1
 62
     8
420
  7895160
176
     1
 90
        3
176
     1
 90
        0
176
     1
 90
        0
176
     1
290
     0
176
     1
 90
        5
176
     1
 40
0.0
176
     1
 90
        0
176
     1
290
     0
176
     1
290
     1
176
     1
290
     1
176
     1
290
     0
176
     1
290
     0
176
     1
290
     0
176
     1
290
     0
176
     1
290
     0
176
     1
290
     0
176
     1
 90
       50
176
     1
 40
0.0
176
     1
 40
1.0
176
     1
 90
        0
176
     1
 62
    18
420
        0
176
     1
 90
       50
176
     1
 90
        3
176
     1
 62
     5
420
      255
176
     1
290
     0
176
     1
 90
       50
176
     1
 90
       50
176
     1
 90
       50
176
     1
290
     0
176
     1
 90
       50
176
     1
 62
   256
176
     0
 40
1.0
176
     0
 90
        2
176
     1
  1
strokes_ogs.tif
176
     1
290
     0
176
     1
 40
1.0
176
     1
 40
1.0
176
     1
  0
VISUALSTYLE
  5
3D
102
{ACAD_REACTORS
330
29
102
}
330
29
100
AcDbVisualStyle
  2
Shaded with edges
 70
    26
177
     3
291
     0
 70
    58
 90
        2
176
     1
 90
        2
176
     1
 90
        1
176
     1
 90
        2
176
     1
 40
0.6
176
     1
 40
30.0
176
     1
 62
     7
420
 16777215
176
     1
 90
        1
176
     1
 90
       10
176
     1
 62
     7
176
     1
 62
   257
176
     1
 90
        2
176
     1
 90
        1
176
     1
 40
1.0
176
     1
 90
        8
176
     1
 62
   257
176
     1
 40
1.0
176
     1
 90
        1
176
     1
 90
        6
176
     1
 90
        2
176
     1
 62
     7
176
     1
 90
        3
176
     1
 90
        0
176
     1
 90
        0
176
     1
290
     0
176
     1
 90
        5
176
     1
 40
0.0
176
     1
 90
        0
176
     1
290
     0
176
     1
290
     1
176
     1
290
     1
176
     1
290
     0
176
     1
290
     0
176
     1
290
     0
176
     1
290
     0
176
     1
290
     0
176
     1
290
     0
176
     1
 90
       50
176
     1
 40
0.0
176
     1
 40
1.0
176
     1
 90
        0
176
     1
 62
    18
420
        0
176
     1
 90
       50
176
     1
 90
        3
176
     1
 62
     5
420
      255
176
     1
290
     0
176
     1
 90
       50
176
     1
 90
       50
176
     1
 90
       50
176
     1
290
     0
176
     1
 90
       50
176
     1
 62
   256
176
     0
 40
1.0
176
     0
 90
        2
176
     1
  1
strokes_ogs.tif
176
     1
290
     0
176
     1
 40
1.0
176
     1
 40
1.0
176
     1
  0
VISUALSTYLE
  5
3A
102
{ACAD_REACTORS
330
29
102
}
330
29
100
AcDbVisualStyle
  2
Shades of Gray
 70
    23
177
     3
291
     0
 70
    58
 90
        2
176
     1
 90
        2
176
     1
 90
        3
176
     1
 90
        0
176
     1
 40
0.6
176
     1
 40
30.0
176
     1
 62
     7
420
 16777215
176
     1
 90
        2
176
     1
 90
        2
176
     1
 62
     7
176
     1
 62
     7
176
     1
 90
        1
176
     1
 90
        1
176
     1
 40
40.0
176
     1
 90
        8
176
     1
 62
     7
176
     1
 40
1.0
176
     1
 90
        1
176
     1
 90
        6
176
     1
 90
        2
176
     1
 62
     7
176
     1
 90
        3
176
     1
 90
        0
176
     1
 90
        0
176
     1
290
     0
176
     1
 90
        1
176
     1
 40
0.0
176
     1
 90
        0
176
     1
290
     0
176
     1
290
     1
176
     1
290
     1
176
     1
290
     0
176
     1
290
     0
176
     1
290
     0
176
     1
290
     0
176
     1
290
     0
176
     1
290
     0
176
     1
 90
       50
176
     1
 40
0.0
176
     1
 40
1.0
176
     1
 90
        0
176
     1
 62
    18
420
        0
176
     1
 90
       50
176
     1
 90
        3
176
     1
 62
     5
420
      255
176
     1
290
     0
176
     1
 90
       50
176
     1
 90
       50
176
     1
 90
       50
176
     1
290
     0
176
     1
 90
       50
176
     1
 62
   256
176
     0
 40
1.0
176
     0
 90
        2
176
     1
  1
strokes_ogs.tif
176
     1
290
     0
176
     1
 40
1.0
176
     1
 40
1.0
176
     1
  0
VISUALSTYLE
  5
3B
102
{ACAD_REACTORS
330
29
102
}
330
29
100
AcDbVisualStyle
  2
Sketchy
 70
    24
177
     3
291
     0
 70
    58
 90
        1
176
     1
 90
        2
176
     1
 90
        2
176
     1
 90
        0
176
     1
 40
0.6
176
     1
 40
30.0
176
     1
 62
     7
420
 16777215
176
     1
 90
        2
176
     1
 90
        2
176
     1
 62
     7
176
     1
 62
     7
176
     1
 90
        1
176
     1
 90
        1
176
     1
 40
40.0
176
     1
 90
       11
176
     1
 62
     7
176
     1
 40
1.0
176
     1
 90
        1
176
     1
 90
        6
176
     1
 90
        2
176
     1
 62
     7
176
     1
 90
        6
176
     1
 90
        0
176
     1
 90
        0
176
     1
290
     0
176
     1
 90
        1
176
     1
 40
0.0
176
     1
 90
        0
176
     1
290
     0
176
     1
290
     1
176
     1
290
     1
176
     1
290
     0
176
     1
290
     0
176
     1
290
     0
176
     1
290
     0
176
     1
290
     0
176
     1
290
     0
176
     1
 90
       50
176
     1
 40
0.0
176
     1
 40
1.0
176
     1
 90
        0
176
     1
 62
    18
420
        0
176
     1
 90
       50
176
     1
 90
        3
176
     1
 62
     5
420
      255
176
     1
290
     0
176
     1
 90
       50
176
     1
 90
       50
176
     1
 90
       50
176
     1
290
     0
176
     1
 90
       50
176
     1
 62
   256
176
     0
 40
1.0
176
     0
 90
        2
176
     1
  1
strokes_ogs.tif
176
     1
290
     0
176
     1
 40
1.0
176
     1
 40
1.0
176
     1
  0
VISUALSTYLE
  5
36
102
{ACAD_REACTORS
330
29
102
}
330
29
100
AcDbVisualStyle
  2
Thicken
 70
    13
177
     3
291
     1
 70
    58
 90
        2
176
     1
 90
        2
176
     1
 90
        0
176
     1
 90
        0
176
     1
 40
0.6
176
     1
 40
30.0
176
     1
 62
     7
420
 16777215
176
     1
 90
        1
176
     1
 90
        4
176
     1
 62
     7
176
     1
 62
   257
176
     1
 90
        1
176
     1
 90
        1
176
     1
 40
1.0
176
     1
 90
       12
176
     1
 62
     7
176
     1
 40
1.0
176
     1
 90
        1
176
     1
 90
        6
176
     1
 90
        2
176
     1
 62
     7
176
     1
 90
        5
176
     1
 90
        0
176
     1
 90
        0
176
     1
290
     0
176
     1
 90
        1
176
     1
 40
0.0
176
     1
 90
        0
176
     1
290
     0
176
     1
290
     1
176
     1
290
     1
176
     1
290
     0
176
     1
290
     0
176
     1
290
     0
176
     1
290
     0
176
     1
290
     0
176
     1
290
     0
176
     1
 90
       50
176
     1
 40
0.0
176
     1
 40
1.0
176
     1
 90
        0
176
     1
 62
    18
420
        0
176
     1
 90
       50
176
     1
 90
        3
176
     1
 62
     5
420
      255
176
     1
290
     0
176
     1
 90
       50
176
     1
 90
       50
176
     1
 90
       50
176
     1
290
     0
176
     1
 90
       50
176
     1
 62
   256
176
     0
 40
1.0
176
     0
 90
        2
176
     1
  1
strokes_ogs.tif
176
     1
290
     0
176
     1
 40
1.0
176
     1
 40
1.0
176
     1
  0
VISUALSTYLE
  5
30
102
{ACAD_REACTORS
330
29
102
}
330
29
100
AcDbVisualStyle
  2
Wireframe
 70
     5
177
     3
291
     0
 70
    58
 90
        0
176
     1
 90
        2
176
     1
 90
        0
176
     1
 90
        0
176
     1
 40
0.6
176
     1
 40
30.0
176
     1
 62
     7
420
 16777215
176
     1
 90
        1
176
     1
 90
        4
176
     1
 62
     7
176
     1
 62
   257
176
     1
 90
        1
176
     1
 90
        1
176
     1
 40
1.0
176
     1
 90
        0
176
     1
 62
   257
176
     1
 40
1.0
176
     1
 90
        1
176
     1
 90
        6
176
     1
 90
        2
176
     1
 62
     7
176
     1
 90
        3
176
     1
 90
        0
176
     1
 90
        0
176
     1
290
     0
176
     1
 90
        1
176
     1
 40
0.0
176
     1
 90
        0
176
     1
290
     0
176
     1
290
     1
176
     1
290
     1
176
     1
290
     0
176
     1
290
     0
176
     1
290
     0
176
     1
290
     0
176
     1
290
     0
176
     1
290
     0
176
     1
 90
       50
176
     1
 40
0.0
176
     1
 40
1.0
176
     1
 90
        0
176
     1
 62
    18
420
        0
176
     1
 90
       50
176
     1
 90
        3
176
     1
 62
     5
420
      255
176
     1
290
     0
176
     1
 90
       50
176
     1
 90
       50
176
     1
 90
       50
176
     1
290
     0
176
     1
 90
       50
176
     1
 62
   256
176
     0
 40
1.0
176
     0
 90
        2
176
     1
  1
strokes_ogs.tif
176
     1
290
     0
176
     1
 40
1.0
176
     1
 40
1.0
176
     1
  0
VISUALSTYLE
  5
3C
102
{ACAD_REACTORS
330
29
102
}
330
29
100
AcDbVisualStyle
  2
X-Ray
 70
    25
177
     3
291
     0
 70
    58
 90
        2
176
     1
 90
        2
176
     1
 90
        1
176
     1
 90
        1
176
     1
 40
0.5
176
     1
 40
30.0
176
     1
 62
     7
420
 16777215
176
     1
 90
        1
176
     1
 90
        0
176
     1
 62
     7
176
     1
 62
   257
176
     1
 90
        1
176
     1
 90
        1
176
     1
 40
1.0
176
     1
 90
        8
176
     1
 62
     7
176
     1
 40
1.0
176
     1
 90
        1
176
     1
 90
        6
176
     1
 90
        2
176
     1
 62
     7
176
     1
 90
        3
176
     1
 90
        0
176
     1
 90
        0
176
     1
290
     0
176
     1
 90
       13
176
     1
 40
0.0
176
     1
 90
        0
176
     1
290
     0
176
     1
290
     1
176
     1
290
     1
176
     1
290
     0
176
     1
290
     0
176
     1
290
     0
176
     1
290
     0
176
     1
290
     0
176
     1
290
     0
176
     1
 90
       50
176
     1
 40
0.0
176
     1
 40
1.0
176
     1
 90
        0
176
     1
 62
    18
420
        0
176
     1
 90
       50
176
     1
 90
        3
176
     1
 62
     5
420
      255
176
     1
290
     0
176
     1
 90
       50
176
     1
 90
       50
176
     1
 90
       50
176
     1
290
     0
176
     1
 90
       50
176
     1
 62
   256
176
     0
 40
1.0
176
     0
 90
        2
176
     1
  1
strokes_ogs.tif
176
     1
290
     0
176
     1
 40
1.0
176
     1
 40
1.0
176
     1
  0
DICTIONARYVAR
  5
81
102
{ACAD_REACTORS
330
7C
102
}
330
7C
100
DictionaryVariables
280
     0
  1
1:1
  0
DICTIONARYVAR
  5
7E
102
{ACAD_REACTORS
330
7C
102
}
330
7C
100
DictionaryVariables
280
     0
  1
STANDARD
  0
DICTIONARYVAR
  5
7D
102
{ACAD_REACTORS
330
7C
102
}
330
7C
100
DictionaryVariables
280
     0
  1
STANDARD
  0
DICTIONARYVAR
  5
7F
102
{ACAD_REACTORS
330
7C
102
}
330
7C
100
DictionaryVariables
280
     0
  1
Imperial24
  0
DICTIONARYVAR
  5
80
102
{ACAD_REACTORS
330
7C
102
}
330
7C
100
DictionaryVariables
280
     0
  1
Imperial24
  0
XRECORD
  5
234
102
{ACAD_REACTORS
330
230
102
}
330
230
100
AcDbXrecord
280
     1
  1
BUILDING_ID
  1
Progetto per messa in tavola DXF, DWG
  1
FLOOR_ID
  1
694395
  0
XRECORD
  5
232
102
{ACAD_REACTORS
330
230
102
}
330
230
100
AcDbXrecord
280
     1
  1
-2001160
  1
Apparecchi idraulici
  0
XRECORD
  5
233
102
{ACAD_REACTORS
330
230
102
}
330
230
100
AcDbXrecord
280
     1
  1
790271
  1
Body
  1
938184
  1
Handle
  0
XRECORD
  5
231
102
{ACAD_REACTORS
330
230
102
}
330
230
100
AcDbXrecord
280
     1
  1
859151
  1
Automatic flow rate regulator valve_Caleffi_121 DN15 : 1/2''
  0
DICTIONARY
  5
1A
330
19
100
AcDbDictionary
280
     1
281
     1
  3
BUMPTILE
360
1C
  3
DIFFUSETILE
360
1B
  3
OPACITYTILE
360
1F
  3
REFLECTIONTILE
360
1E
  3
REFRACTIONTILE
360
20
  3
SPECULARTILE
360
1D
  0
DICTIONARY
  5
12
330
11
100
AcDbDictionary
280
     1
281
     1
  3
BUMPTILE
360
14
  3
DIFFUSETILE
360
13
  3
OPACITYTILE
360
17
  3
REFLECTIONTILE
360
16
  3
REFRACTIONTILE
360
18
  3
SPECULARTILE
360
15
  0
DICTIONARY
  5
22
330
21
100
AcDbDictionary
280
     1
281
     1
  3
BUMPTILE
360
24
  3
DIFFUSETILE
360
23
  3
OPACITYTILE
360
27
  3
REFLECTIONTILE
360
26
  3
REFRACTIONTILE
360
28
  3
SPECULARTILE
360
25
  0
DICTIONARY
  5
237
330
65
100
AcDbDictionary
280
     1
281
     1
  3
ACAD_ROUNDTRIP_2008_TABLESTYLE_CELLSTYLEMAP
360
238
  0
XRECORD
  5
1C
102
{ACAD_REACTORS
330
1A
102
}
330
1A
100
AcDbXrecord
280
     1
270
     1
271
     1
  0
XRECORD
  5
1B
102
{ACAD_REACTORS
330
1A
102
}
330
1A
100
AcDbXrecord
280
     1
270
     1
271
     1
  0
XRECORD
  5
1F
102
{ACAD_REACTORS
330
1A
102
}
330
1A
100
AcDbXrecord
280
     1
270
     1
271
     1
  0
XRECORD
  5
1E
102
{ACAD_REACTORS
330
1A
102
}
330
1A
100
AcDbXrecord
280
     1
270
     1
271
     1
  0
XRECORD
  5
20
102
{ACAD_REACTORS
330
1A
102
}
330
1A
100
AcDbXrecord
280
     1
270
     1
271
     1
  0
XRECORD
  5
1D
102
{ACAD_REACTORS
330
1A
102
}
330
1A
100
AcDbXrecord
280
     1
270
     1
271
     1
  0
XRECORD
  5
14
102
{ACAD_REACTORS
330
12
102
}
330
12
100
AcDbXrecord
280
     1
270
     1
271
     1
  0
XRECORD
  5
13
102
{ACAD_REACTORS
330
12
102
}
330
12
100
AcDbXrecord
280
     1
270
     1
271
     1
  0
XRECORD
  5
17
102
{ACAD_REACTORS
330
12
102
}
330
12
100
AcDbXrecord
280
     1
270
     1
271
     1
  0
XRECORD
  5
16
102
{ACAD_REACTORS
330
12
102
}
330
12
100
AcDbXrecord
280
     1
270
     1
271
     1
  0
XRECORD
  5
18
102
{ACAD_REACTORS
330
12
102
}
330
12
100
AcDbXrecord
280
     1
270
     1
271
     1
  0
XRECORD
  5
15
102
{ACAD_REACTORS
330
12
102
}
330
12
100
AcDbXrecord
280
     1
270
     1
271
     1
  0
XRECORD
  5
24
102
{ACAD_REACTORS
330
22
102
}
330
22
100
AcDbXrecord
280
     1
270
     1
271
     1
  0
XRECORD
  5
23
102
{ACAD_REACTORS
330
22
102
}
330
22
100
AcDbXrecord
280
     1
270
     1
271
     1
  0
XRECORD
  5
27
102
{ACAD_REACTORS
330
22
102
}
330
22
100
AcDbXrecord
280
     1
270
     1
271
     1
  0
XRECORD
  5
26
102
{ACAD_REACTORS
330
22
102
}
330
22
100
AcDbXrecord
280
     1
270
     1
271
     1
  0
XRECORD
  5
28
102
{ACAD_REACTORS
330
22
102
}
330
22
100
AcDbXrecord
280
     1
270
     1
271
     1
  0
XRECORD
  5
25
102
{ACAD_REACTORS
330
22
102
}
330
22
100
AcDbXrecord
280
     1
270
     1
271
     1
  0
CELLSTYLEMAP
  5
238
102
{ACAD_REACTORS
330
237
102
}
330
237
100
AcDbCellStyleMap
 90
        3
300
CELLSTYLE
  1
TABLEFORMAT_BEGIN
 90
        5
170
     1
 91
        0
 92
    32768
 62
   257
 93
        1
300
CONTENTFORMAT
  1
CONTENTFORMAT_BEGIN
 90
        0
 91
        0
 92
      512
 93
        0
300

 40
0.0
140
1.0
 94
        5
 62
     0
340
55
144
0.25
309
CONTENTFORMAT_END
171
     0
 94
        0
309
TABLEFORMAT_END
  1
CELLSTYLE_BEGIN
 90
        1
 91
        1
300
_TITLE
309
CELLSTYLE_END
300
CELLSTYLE
  1
TABLEFORMAT_BEGIN
 90
        5
170
     1
 91
        0
 92
        0
 62
   257
 93
        1
300
CONTENTFORMAT
  1
CONTENTFORMAT_BEGIN
 90
        0
 91
        0
 92
      512
 93
        0
300

 40
0.0
140
1.0
 94
        5
 62
     0
340
55
144
0.18
309
CONTENTFORMAT_END
171
     0
 94
        0
309
TABLEFORMAT_END
  1
CELLSTYLE_BEGIN
 90
        2
 91
        1
300
_HEADER
309
CELLSTYLE_END
300
CELLSTYLE
  1
TABLEFORMAT_BEGIN
 90
        5
170
     1
 91
        0
 92
        0
 62
   257
 93
        1
300
CONTENTFORMAT
  1
CONTENTFORMAT_BEGIN
 90
        0
 91
        0
 92
      512
 93
        0
300

 40
0.0
140
1.0
 94
        2
 62
     0
340
55
144
0.18
309
CONTENTFORMAT_END
171
     0
 94
        0
309
TABLEFORMAT_END
  1
CELLSTYLE_BEGIN
 90
        3
 91
        2
300
_DATA
309
CELLSTYLE_END
  0
ENDSEC
  0
EOF
