  0
SECTION
  2
HEADER
  9
$ACADVER
  1
AC1027
  9
$ACADMAINTVER
 70
    20
  9
$DWGCODEPAGE
  3
ANSI_1252
  9
$REQUIREDVERSIONS
160
                 0
  9
$INSBASE
 10
0.0
 20
0.0
 30
0.0
  9
$EXTMIN
 10
740.6664074331875
 20
1682.443120209091
 30
-0.00000001
  9
$EXTMAX
 10
1194.667112454057
 20
2146.919060616106
 30
0.00000001
  9
$LIMMIN
 10
0.0
 20
0.0
  9
$LIMMAX
 10
12.0
 20
9.0
  9
$ORTHOMODE
 70
     0
  9
$REGENMODE
 70
     1
  9
$FILLMODE
 70
     1
  9
$QTEXTMODE
 70
     0
  9
$MIRRTEXT
 70
     0
  9
$LTSCALE
 40
1.0
  9
$ATTMODE
 70
     1
  9
$TEXTSIZE
 40
0.2
  9
$TRACEWID
 40
0.05
  9
$TEXTSTYLE
  7
Standard
  9
$CLAYER
  8
0
  9
$CELTYPE
  6
ByLayer
  9
$CECOLOR
 62
   256
  9
$CELTSCALE
 40
1.0
  9
$DISPSILH
 70
     0
  9
$DIMSCALE
 40
1.0
  9
$DIMASZ
 40
0.18
  9
$DIMEXO
 40
0.0625
  9
$DIMDLI
 40
0.38
  9
$DIMRND
 40
0.0
  9
$DIMDLE
 40
0.0
  9
$DIMEXE
 40
0.18
  9
$DIMTP
 40
0.0
  9
$DIMTM
 40
0.0
  9
$DIMTXT
 40
0.18
  9
$DIMCEN
 40
0.09
  9
$DIMTSZ
 40
0.0
  9
$DIMTOL
 70
     0
  9
$DIMLIM
 70
     0
  9
$DIMTIH
 70
     1
  9
$DIMTOH
 70
     1
  9
$DIMSE1
 70
     0
  9
$DIMSE2
 70
     0
  9
$DIMTAD
 70
     0
  9
$DIMZIN
 70
     0
  9
$DIMBLK
  1

  9
$DIMASO
 70
     1
  9
$DIMSHO
 70
     1
  9
$DIMPOST
  1

  9
$DIMAPOST
  1

  9
$DIMALT
 70
     0
  9
$DIMALTD
 70
     2
  9
$DIMALTF
 40
25.4
  9
$DIMLFAC
 40
1.0
  9
$DIMTOFL
 70
     0
  9
$DIMTVP
 40
0.0
  9
$DIMTIX
 70
     0
  9
$DIMSOXD
 70
     0
  9
$DIMSAH
 70
     0
  9
$DIMBLK1
  1

  9
$DIMBLK2
  1

  9
$DIMSTYLE
  2
Standard
  9
$DIMCLRD
 70
     0
  9
$DIMCLRE
 70
     0
  9
$DIMCLRT
 70
     0
  9
$DIMTFAC
 40
1.0
  9
$DIMGAP
 40
0.09
  9
$DIMJUST
 70
     0
  9
$DIMSD1
 70
     0
  9
$DIMSD2
 70
     0
  9
$DIMTOLJ
 70
     1
  9
$DIMTZIN
 70
     0
  9
$DIMALTZ
 70
     0
  9
$DIMALTTZ
 70
     0
  9
$DIMUPT
 70
     0
  9
$DIMDEC
 70
     4
  9
$DIMTDEC
 70
     4
  9
$DIMALTU
 70
     2
  9
$DIMALTTD
 70
     2
  9
$DIMTXSTY
  7
Standard
  9
$DIMAUNIT
 70
     0
  9
$DIMADEC
 70
     0
  9
$DIMALTRND
 40
0.0
  9
$DIMAZIN
 70
     0
  9
$DIMDSEP
 70
    46
  9
$DIMATFIT
 70
     3
  9
$DIMFRAC
 70
     0
  9
$DIMLDRBLK
  1

  9
$DIMLUNIT
 70
     2
  9
$DIMLWD
 70
    -2
  9
$DIMLWE
 70
    -2
  9
$DIMTMOVE
 70
     0
  9
$DIMFXL
 40
1.0
  9
$DIMFXLON
 70
     0
  9
$DIMJOGANG
 40
0.7853981633974483
  9
$DIMTFILL
 70
     0
  9
$DIMTFILLCLR
 70
     0
  9
$DIMARCSYM
 70
     0
  9
$DIMLTYPE
  6

  9
$DIMLTEX1
  6

  9
$DIMLTEX2
  6

  9
$DIMTXTDIRECTION
 70
     0
  9
$LUNITS
 70
     2
  9
$LUPREC
 70
     4
  9
$SKETCHINC
 40
0.1
  9
$FILLETRAD
 40
0.0
  9
$AUNITS
 70
     0
  9
$AUPREC
 70
     0
  9
$MENU
  1
.
  9
$ELEVATION
 40
0.0
  9
$PELEVATION
 40
0.0
  9
$THICKNESS
 40
0.0
  9
$LIMCHECK
 70
     0
  9
$CHAMFERA
 40
0.0
  9
$CHAMFERB
 40
0.0
  9
$CHAMFERC
 40
0.0
  9
$CHAMFERD
 40
0.0
  9
$SKPOLY
 70
     0
  9
$TDCREATE
 40
2457569.598025278
  9
$TDUCREATE
 40
2457569.514691944
  9
$TDUPDATE
 40
2457569.598025278
  9
$TDUUPDATE
 40
2457569.514691944
  9
$TDINDWG
 40
0.0000148958
  9
$TDUSRTIMER
 40
0.0000148958
  9
$USRTIMER
 70
     1
  9
$ANGBASE
 50
0.0
  9
$ANGDIR
 70
     0
  9
$PDMODE
 70
     0
  9
$PDSIZE
 40
0.0
  9
$PLINEWID
 40
0.0
  9
$SPLFRAME
 70
     0
  9
$SPLINETYPE
 70
     6
  9
$SPLINESEGS
 70
     8
  9
$HANDSEED
  5
277
  9
$SURFTAB1
 70
     6
  9
$SURFTAB2
 70
     6
  9
$SURFTYPE
 70
     6
  9
$SURFU
 70
     6
  9
$SURFV
 70
     6
  9
$UCSBASE
  2

  9
$UCSNAME
  2

  9
$UCSORG
 10
0.0
 20
0.0
 30
0.0
  9
$UCSXDIR
 10
1.0
 20
0.0
 30
0.0
  9
$UCSYDIR
 10
0.0
 20
1.0
 30
0.0
  9
$UCSORTHOREF
  2

  9
$UCSORTHOVIEW
 70
     0
  9
$UCSORGTOP
 10
0.0
 20
0.0
 30
0.0
  9
$UCSORGBOTTOM
 10
0.0
 20
0.0
 30
0.0
  9
$UCSORGLEFT
 10
0.0
 20
0.0
 30
0.0
  9
$UCSORGRIGHT
 10
0.0
 20
0.0
 30
0.0
  9
$UCSORGFRONT
 10
0.0
 20
0.0
 30
0.0
  9
$UCSORGBACK
 10
0.0
 20
0.0
 30
0.0
  9
$PUCSBASE
  2

  9
$PUCSNAME
  2

  9
$PUCSORG
 10
0.0
 20
0.0
 30
0.0
  9
$PUCSXDIR
 10
1.0
 20
0.0
 30
0.0
  9
$PUCSYDIR
 10
0.0
 20
1.0
 30
0.0
  9
$PUCSORTHOREF
  2

  9
$PUCSORTHOVIEW
 70
     0
  9
$PUCSORGTOP
 10
0.0
 20
0.0
 30
0.0
  9
$PUCSORGBOTTOM
 10
0.0
 20
0.0
 30
0.0
  9
$PUCSORGLEFT
 10
0.0
 20
0.0
 30
0.0
  9
$PUCSORGRIGHT
 10
0.0
 20
0.0
 30
0.0
  9
$PUCSORGFRONT
 10
0.0
 20
0.0
 30
0.0
  9
$PUCSORGBACK
 10
0.0
 20
0.0
 30
0.0
  9
$USERI1
 70
     0
  9
$USERI2
 70
     0
  9
$USERI3
 70
     0
  9
$USERI4
 70
     0
  9
$USERI5
 70
     0
  9
$USERR1
 40
0.0
  9
$USERR2
 40
0.0
  9
$USERR3
 40
0.0
  9
$USERR4
 40
0.0
  9
$USERR5
 40
0.0
  9
$WORLDVIEW
 70
     1
  9
$SHADEDGE
 70
     3
  9
$SHADEDIF
 70
    70
  9
$TILEMODE
 70
     1
  9
$MAXACTVP
 70
    64
  9
$PINSBASE
 10
0.0
 20
0.0
 30
0.0
  9
$PLIMCHECK
 70
     0
  9
$PEXTMIN
 10
1.000000000000000E+20
 20
1.000000000000000E+20
 30
1.000000000000000E+20
  9
$PEXTMAX
 10
-1.000000000000000E+20
 20
-1.000000000000000E+20
 30
-1.000000000000000E+20
  9
$PLIMMIN
 10
0.0
 20
0.0
  9
$PLIMMAX
 10
12.0
 20
9.0
  9
$UNITMODE
 70
     0
  9
$VISRETAIN
 70
     1
  9
$PLINEGEN
 70
     0
  9
$PSLTSCALE
 70
     1
  9
$TREEDEPTH
 70
  3020
  9
$CMLSTYLE
  2
Standard
  9
$CMLJUST
 70
     0
  9
$CMLSCALE
 40
1.0
  9
$PROXYGRAPHICS
 70
     1
  9
$MEASUREMENT
 70
     1
  9
$CELWEIGHT
370
    -1
  9
$ENDCAPS
280
     0
  9
$JOINSTYLE
280
     0
  9
$LWDISPLAY
290
     0
  9
$INSUNITS
 70
     4
  9
$HYPERLINKBASE
  1

  9
$STYLESHEET
  1

  9
$XEDIT
290
     1
  9
$CEPSNTYPE
380
     0
  9
$PSTYLEMODE
290
     1
  9
$FINGERPRINTGUID
  2
{6A043621-E812-41D3-9B8C-8D1A0A368C35}
  9
$VERSIONGUID
  2
{B7D3FD39-1C08-43CB-ADD9-F46B6EE343AF}
  9
$EXTNAMES
290
     1
  9
$PSVPSCALE
 40
0.0
  9
$OLESTARTUP
290
     0
  9
$SORTENTS
280
   127
  9
$INDEXCTL
280
     0
  9
$HIDETEXT
280
     1
  9
$XCLIPFRAME
280
     2
  9
$HALOGAP
280
     0
  9
$OBSCOLOR
 70
   257
  9
$OBSLTYPE
280
     0
  9
$INTERSECTIONDISPLAY
280
     0
  9
$INTERSECTIONCOLOR
 70
   257
  9
$DIMASSOC
280
     2
  9
$PROJECTNAME
  1

  9
$CAMERADISPLAY
290
     0
  9
$LENSLENGTH
 40
50.0
  9
$CAMERAHEIGHT
 40
0.0
  9
$STEPSPERSEC
 40
2.0
  9
$STEPSIZE
 40
6.0
  9
$3DDWFPREC
 40
2.0
  9
$PSOLWIDTH
 40
0.25
  9
$PSOLHEIGHT
 40
4.0
  9
$LOFTANG1
 40
1.570796326794896
  9
$LOFTANG2
 40
1.570796326794896
  9
$LOFTMAG1
 40
0.0
  9
$LOFTMAG2
 40
0.0
  9
$LOFTPARAM
 70
     7
  9
$LOFTNORMALS
280
     1
  9
$LATITUDE
 40
37.795
  9
$LONGITUDE
 40
-122.394
  9
$NORTHDIRECTION
 40
0.0
  9
$TIMEZONE
 70
 -8000
  9
$LIGHTGLYPHDISPLAY
280
     1
  9
$TILEMODELIGHTSYNCH
280
     1
  9
$CMATERIAL
347
11
  9
$SOLIDHIST
280
     0
  9
$SHOWHIST
280
     1
  9
$DWFFRAME
280
     2
  9
$DGNFRAME
280
     0
  9
$REALWORLDSCALE
290
     1
  9
$INTERFERECOLOR
 62
     1
  9
$INTERFEREOBJVS
345
33
  9
$INTERFEREVPVS
346
30
  9
$CSHADOW
280
     0
  9
$SHADOWPLANELOCATION
 40
0.0
  0
ENDSEC
  0
SECTION
  2
CLASSES
  0
CLASS
  1
ACDBDICTIONARYWDFLT
  2
AcDbDictionaryWithDefault
  3
ObjectDBX Classes
 90
        0
 91
        1
280
     0
281
     0
  0
CLASS
  1
MATERIAL
  2
AcDbMaterial
  3
ObjectDBX Classes
 90
     1153
 91
        3
280
     0
281
     0
  0
CLASS
  1
VISUALSTYLE
  2
AcDbVisualStyle
  3
ObjectDBX Classes
 90
     4095
 91
       24
280
     0
281
     0
  0
CLASS
  1
SCALE
  2
AcDbScale
  3
ObjectDBX Classes
 90
     1153
 91
       17
280
     0
281
     0
  0
CLASS
  1
TABLESTYLE
  2
AcDbTableStyle
  3
ObjectDBX Classes
 90
     4095
 91
        1
280
     0
281
     0
  0
CLASS
  1
MLEADERSTYLE
  2
AcDbMLeaderStyle
  3
ACDB_MLEADERSTYLE_CLASS
 90
     4095
 91
        1
280
     0
281
     0
  0
CLASS
  1
ACDBSECTIONVIEWSTYLE
  2
AcDbSectionViewStyle
  3
ObjectDBX Classes
 90
     1025
 91
        1
280
     0
281
     0
  0
CLASS
  1
ACDBDETAILVIEWSTYLE
  2
AcDbDetailViewStyle
  3
ObjectDBX Classes
 90
     1025
 91
        1
280
     0
281
     0
  0
CLASS
  1
RASTERVARIABLES
  2
AcDbRasterVariables
  3
ISM
 90
        0
 91
        1
280
     0
281
     0
  0
CLASS
  1
DICTIONARYVAR
  2
AcDbDictionaryVar
  3
ObjectDBX Classes
 90
        0
 91
        5
280
     0
281
     0
  0
CLASS
  1
CELLSTYLEMAP
  2
AcDbCellStyleMap
  3
ObjectDBX Classes
 90
     1152
 91
        2
280
     0
281
     0
  0
CLASS
  1
SORTENTSTABLE
  2
AcDbSortentsTable
  3
ObjectDBX Classes
 90
        0
 91
        1
280
     0
281
     0
  0
ENDSEC
  0
SECTION
  2
TABLES
  0
TABLE
  2
VPORT
  5
8
330
0
100
AcDbSymbolTable
 70
     1
  0
VPORT
  5
57
330
8
100
AcDbSymbolTableRecord
100
AcDbViewportTableRecord
  2
*Active
 70
     0
 10
0.0
 20
0.0
 11
1.0
 21
1.0
 12
967.6667599436221
 22
1914.681090412599
 13
0.0
 23
0.0
 14
1.0
 24
1.0
 15
0.0
 25
0.0
 16
0.0
 26
0.0
 36
1.0
 17
0.0
 27
0.0
 37
0.0
 40
464.4759404070139
 41
0.9774471948386278
 42
50.0
 43
0.0
 44
0.0
 50
0.0
 51
0.0
 71
     0
 72
  1000
 73
     1
 74
     1
 75
     0
 76
     0
 77
     0
 78
     0
281
     0
 65
     1
110
0.0
120
0.0
130
0.0
111
1.0
121
0.0
131
0.0
112
0.0
122
1.0
132
0.0
 79
     0
146
0.0
 60
     3
 61
     5
292
     1
282
     1
141
0.0
142
0.0
 63
   250
421
  3355443
  0
ENDTAB
  0
TABLE
  2
LTYPE
  5
5
330
0
100
AcDbSymbolTable
 70
     3
  0
LTYPE
  5
5B
330
5
100
AcDbSymbolTableRecord
100
AcDbLinetypeTableRecord
  2
ByBlock
 70
     0
  3

 72
    65
 73
     0
 40
0.0
  0
LTYPE
  5
5C
330
5
100
AcDbSymbolTableRecord
100
AcDbLinetypeTableRecord
  2
ByLayer
 70
     0
  3

 72
    65
 73
     0
 40
0.0
  0
LTYPE
  5
5D
330
5
100
AcDbSymbolTableRecord
100
AcDbLinetypeTableRecord
  2
Continuous
 70
     0
  3
Solid line
 72
    65
 73
     0
 40
0.0
  0
LTYPE
  5
69
330
5
100
AcDbSymbolTableRecord
100
AcDbLinetypeTableRecord
  2
PHANTOM2
 70
     0
  3
___ _ _ ___ _ _ ___ _ _ ___ _ _
 72
    65
 73
     6
 40
1.25
 49
0.625
 74
     0
 49
-0.125
 74
     0
 49
0.125
 74
     0
 49
-0.125
 74
     0
 49
0.125
 74
     0
 49
-0.125
 74
     0
  0
LTYPE
  5
86
330
5
100
AcDbSymbolTableRecord
100
AcDbLinetypeTableRecord
  2
Nascosto 1_5 mm
 70
     0
  3

 72
    65
 73
     2
 40
2.2
 49
1.5
 74
     0
 49
-0.7000000000000001
 74
     0
  0
ENDTAB
  0
TABLE
  2
LAYER
  5
2
330
0
100
AcDbSymbolTable
 70
     4
  0
LAYER
  5
54
330
2
100
AcDbSymbolTableRecord
100
AcDbLayerTableRecord
  2
0
 70
     0
 62
     7
  6
Continuous
370
    -3
390
F
347
21
348
0
  0
LAYER
  5
85
330
2
100
AcDbSymbolTableRecord
100
AcDbLayerTableRecord
  2
P-SANR-FIXT
 70
     0
 62
     6
  6
Continuous
370
    18
390
F
347
21
348
0
  0
LAYER
  5
88
330
2
100
AcDbSymbolTableRecord
100
AcDbLayerTableRecord
  2
M-PIPE
 70
     0
 62
     3
  6
Continuous
370
    18
390
F
347
21
348
0
  0
ENDTAB
  0
TABLE
  2
STYLE
  5
3
330
0
100
AcDbSymbolTable
 70
     2
  0
STYLE
  5
55
330
3
100
AcDbSymbolTableRecord
100
AcDbTextStyleTableRecord
  2
Standard
 70
     0
 40
0.0
 41
1.0
 50
0.0
 71
     0
 42
0.2
  3
txt
  4

  0
STYLE
  5
5A
330
3
100
AcDbSymbolTableRecord
100
AcDbTextStyleTableRecord
  2
Annotative
 70
     0
 40
0.0
 41
1.0
 50
0.0
 71
     0
 42
0.2
  3
txt
  4

1001
AcadAnnotative
1000
AnnotativeData
1002
{
1070
     1
1070
     1
1002
}
  0
ENDTAB
  0
TABLE
  2
VIEW
  5
6
330
0
100
AcDbSymbolTable
 70
     0
  0
ENDTAB
  0
TABLE
  2
UCS
  5
7
330
0
100
AcDbSymbolTable
 70
     0
  0
ENDTAB
  0
TABLE
  2
APPID
  5
9
330
0
100
AcDbSymbolTable
 70
     3
  0
APPID
  5
56
330
9
100
AcDbSymbolTableRecord
100
AcDbRegAppTableRecord
  2
ACAD
 70
     0
  0
APPID
  5
5E
330
9
100
AcDbSymbolTableRecord
100
AcDbRegAppTableRecord
  2
AcadAnnotative
 70
     0
  0
APPID
  5
79
330
9
100
AcDbSymbolTableRecord
100
AcDbRegAppTableRecord
  2
REVIT
 70
     0
  0
ENDTAB
  0
TABLE
  2
DIMSTYLE
  5
A
330
0
100
AcDbSymbolTable
 70
     2
100
AcDbDimStyleTable
 71
     0
  0
DIMSTYLE
105
58
330
A
100
AcDbSymbolTableRecord
100
AcDbDimStyleTableRecord
  2
Standard
 70
     0
340
55
  0
DIMSTYLE
105
59
330
A
100
AcDbSymbolTableRecord
100
AcDbDimStyleTableRecord
  2
Annotative
 70
     0
340
55
1001
AcadAnnotative
1000
AnnotativeData
1002
{
1070
     1
1070
     1
1002
}
  0
ENDTAB
  0
TABLE
  2
BLOCK_RECORD
  5
1
330
0
100
AcDbSymbolTable
 70
     4
  0
BLOCK_RECORD
  5
71
102
{ACAD_XDICTIONARY
360
272
102
}
330
1
100
AcDbSymbolTableRecord
100
AcDbBlockTableRecord
  2
*Model_Space
340
74
 70
     0
280
     1
281
     0
  0
BLOCK_RECORD
  5
6D
330
1
100
AcDbSymbolTableRecord
100
AcDbBlockTableRecord
  2
*Paper_Space
340
70
 70
     0
280
     1
281
     0
  0
BLOCK_RECORD
  5
75
330
1
100
AcDbSymbolTableRecord
100
AcDbBlockTableRecord
  2
*Paper_Space0
340
78
 70
     0
280
     1
281
     0
  0
BLOCK_RECORD
  5
87
330
1
100
AcDbSymbolTableRecord
100
AcDbBlockTableRecord
  2
Automatic flow rate regulator valve_Caleffi_121 DN15 - 1_2__-859151-Est - Idraulica
340
0
102
{BLKREFS
331
173
102
}
 70
     0
280
     1
281
     0
  0
BLOCK_RECORD
  5
174
330
1
100
AcDbSymbolTableRecord
100
AcDbBlockTableRecord
  2
Automatic flow rate regulator valve_Caleffi_121 DN15 - 1_2__-V1-Est - Idraulica
340
0
102
{BLKREFS
331
1CC
102
}
 70
     0
280
     1
281
     0
  0
BLOCK_RECORD
  5
1CD
330
1
100
AcDbSymbolTableRecord
100
AcDbBlockTableRecord
  2
Automatic flow rate regulator valve_Caleffi_121 DN15 - 1_2__-V2-Est - Idraulica
340
0
102
{BLKREFS
331
26B
102
}
 70
     0
280
     1
281
     0
  0
ENDTAB
  0
ENDSEC
  0
SECTION
  2
BLOCKS
  0
BLOCK
  5
72
330
71
100
AcDbEntity
  8
0
100
AcDbBlockBegin
  2
*Model_Space
 70
     0
 10
0.0
 20
0.0
 30
0.0
  3
*Model_Space
  1

  0
ENDBLK
  5
73
330
71
100
AcDbEntity
  8
0
100
AcDbBlockEnd
  0
BLOCK
  5
6E
330
6D
100
AcDbEntity
 67
     1
  8
0
100
AcDbBlockBegin
  2
*Paper_Space
 70
     0
 10
0.0
 20
0.0
 30
0.0
  3
*Paper_Space
  1

  0
ENDBLK
  5
6F
330
6D
100
AcDbEntity
 67
     1
  8
0
100
AcDbBlockEnd
  0
BLOCK
  5
76
330
75
100
AcDbEntity
 67
     1
  8
0
100
AcDbBlockBegin
  2
*Paper_Space0
 70
     0
 10
0.0
 20
0.0
 30
0.0
  3
*Paper_Space0
  1

  0
ENDBLK
  5
77
330
75
100
AcDbEntity
 67
     1
  8
0
100
AcDbBlockEnd
  0
BLOCK
  5
171
330
87
100
AcDbEntity
  8
0
100
AcDbBlockBegin
  2
Automatic flow rate regulator valve_Caleffi_121 DN15 - 1_2__-859151-Est - Idraulica
 70
     0
 10
0.0
 20
0.0
 30
0.0
  3
Automatic flow rate regulator valve_Caleffi_121 DN15 - 1_2__-859151-Est - Idraulica
  1

  0
LWPOLYLINE
  5
89
330
87
100
AcDbEntity
  8
M-PIPE
100
AcDbPolyline
 90
       41
 70
   128
 43
0.0
 10
885.1664074431891
 20
2023.858376766141
 10
885.3863487812155
 20
2023.853977352777
 10
885.6059382600196
 20
2023.840786150806
 10
885.8248245832783
 20
2023.818824263337
 10
886.0426575795674
 20
2023.788126824707
 10
886.259088762562
 20
2023.748742944268
 10
886.4737718885384
 20
2023.700735627827
 10
886.6863635102918
 20
2023.64418167685
 10
886.8965235265777
 20
2023.579171565595
 10
887.1039157262021
 20
2023.50580929637
 10
887.3082083258866
 20
2023.424212233157
 10
887.5090745010522
 20
2023.334510913851
 10
887.7061929086671
 20
2023.236848841428
 10
887.8992482013297
 20
2023.131382254368
 10
888.0879315317541
 20
2023.018279876715
 10
888.2719410468618
 20
2022.897722648144
 10
888.4509823706823
 20
2022.769903434505
 10
888.6247690752908
 20
2022.635026719271
 10
888.7930231390321
 20
2022.493308276416
 10
888.9554753912971
 20
2022.344974825216
 10
889.1118659431366
 20
2022.190263667551
 10
889.2619446030289
 20
2022.029422308268
 10
889.4054712771335
 20
2021.862708059233
 10
889.5422163533892
 20
2021.69038762768
 10
889.6719610688446
 20
2021.51273668954
 10
889.7944978596326
 20
2021.330039448416
 10
889.9096306930275
 20
2021.142588180921
 10
890.0171753810562
 20
2020.950682769097
 10
890.11695987516
 20
2020.754630220663
 10
890.208824541434
 20
2020.554744177875
 10
890.2926224160086
 20
2020.351344415763
 10
890.3682194401618
 20
2020.144756330554
 10
890.4354946747799
 20
2019.935310419117
 10
890.4943404938395
 20
2019.723341750229
 10
890.5446627565833
 20
2019.509189428544
 10
890.5863809581259
 20
2019.293196052093
 10
890.6194283582435
 20
2019.075707164201
 10
890.6437520881461
 20
2018.857070700695
 10
890.6593132350549
 20
2018.637636433276
 10
890.6660869044539
 20
2018.417755409962
 10
890.6664074431892
 20
2018.358376766141
1001
REVIT
1002
{
1070
     3
1000
939838
1002
}
  0
LWPOLYLINE
  5
8A
330
87
100
AcDbEntity
  8
M-PIPE
100
AcDbPolyline
 90
       41
 70
   128
 43
0.0
 10
890.6664074431889
 20
1923.35837676614
 10
890.6620080298241
 20
1923.138435428113
 10
890.6488168278531
 20
1922.918845949309
 10
890.6268549403849
 20
1922.699959626051
 10
890.5961575017547
 20
1922.482126629762
 10
890.5567736213155
 20
1922.265695446767
 10
890.508766304875
 20
1922.051012320791
 10
890.4522123538979
 20
1921.838420699037
 10
890.3872022426423
 20
1921.628260682751
 10
890.3138399734174
 20
1921.420868483127
 10
890.2322429102046
 20
1921.216575883442
 10
890.1425415908985
 20
1921.015709708276
 10
890.0448795184749
 20
1920.818591300662
 10
889.9394129314158
 20
1920.625536008
 10
889.8263105537624
 20
1920.436852677575
 10
889.7057533251921
 20
1920.252843162467
 10
889.5779341115526
 20
1920.073801838647
 10
889.4430573963189
 20
1919.900015134038
 10
889.3013389534637
 20
1919.731761070297
 10
889.1530055022638
 20
1919.569308818032
 10
888.998294344598
 20
1919.412918266193
 10
888.8374529853159
 20
1919.2628396063
 10
888.6707387362809
 20
1919.119312932195
 10
888.4984183047277
 20
1918.982567855939
 10
888.3207673665872
 20
1918.852823140484
 10
888.1380701254636
 20
1918.730286349697
 10
887.9506188579691
 20
1918.615153516302
 10
887.7587134461444
 20
1918.507608828273
 10
887.5626608977107
 20
1918.407824334169
 10
887.3627748549232
 20
1918.315959667895
 10
887.1593750928104
 20
1918.23216179332
 10
886.9527870076019
 20
1918.156564769168
 10
886.7433410961647
 20
1918.089289534549
 10
886.5313724272768
 20
1918.030443715489
 10
886.3172201055915
 20
1917.980121452746
 10
886.10122672914
 20
1917.938403251203
 10
885.8837378412486
 20
1917.905355851086
 10
885.6651013777424
 20
1917.881032121183
 10
885.4456671103234
 20
1917.865470974274
 10
885.2257860870093
 20
1917.858697304875
 10
885.1664074431887
 20
1917.85837676614
1001
REVIT
1002
{
1070
     3
1000
939838
1002
}
  0
LWPOLYLINE
  5
8B
330
87
100
AcDbEntity
  8
M-PIPE
100
AcDbPolyline
 90
        4
 70
   128
 43
0.0
 10
890.6664074431892
 20
2018.358376766141
 10
890.6664074431892
 20
2018.320381832538
 10
890.6664074431892
 20
2018.206457815516
 10
890.6664074431892
 20
2018.073341006562
1001
REVIT
1002
{
1070
     3
1000
939838
1002
}
  0
LWPOLYLINE
  5
8C
330
87
100
AcDbEntity
  8
M-PIPE
100
AcDbPolyline
 90
        5
 70
   128
 43
0.0
 10
890.6664074431889
 20
1923.633924402124
 10
890.6664074431889
 20
1923.603291356565
 10
890.6664074431889
 20
1923.448447591621
 10
890.6664074431889
 20
1923.369449599776
 10
890.6664074431889
 20
1923.35837676614
1001
REVIT
1002
{
1070
     3
1000
939838
1002
}
  0
LWPOLYLINE
  5
8D
330
87
100
AcDbEntity
  8
M-PIPE
100
AcDbPolyline
 90
       41
 70
   128
 43
0.0
 10
740.6664074431888
 20
2018.358376766141
 10
740.6708068565535
 20
2018.578318104168
 10
740.6839980585246
 20
2018.797907582972
 10
740.7059599459927
 20
2019.01679390623
 10
740.736657384623
 20
2019.23462690252
 10
740.7760412650621
 20
2019.451058085514
 10
740.8240485815028
 20
2019.66574121149
 10
740.8806025324797
 20
2019.878332833244
 10
740.9456126437354
 20
2020.08849284953
 10
741.0189749129604
 20
2020.295885049154
 10
741.1005719761732
 20
2020.500177648839
 10
741.190273295479
 20
2020.701043824004
 10
741.2879353679029
 20
2020.898162231619
 10
741.3934019549619
 20
2021.091217524281
 10
741.5065043326152
 20
2021.279900854706
 10
741.6270615611857
 20
2021.463910369813
 10
741.7548807748253
 20
2021.642951693634
 10
741.8897574900587
 20
2021.816738398243
 10
742.0314759329142
 20
2021.984992461984
 10
742.179809384114
 20
2022.147444714249
 10
742.3345205417795
 20
2022.303835266088
 10
742.4953619010619
 20
2022.453913925981
 10
742.6620761500968
 20
2022.597440600085
 10
742.8343965816499
 20
2022.734185676341
 10
743.0120475197906
 20
2022.863930391797
 10
743.194744760914
 20
2022.986467182585
 10
743.3821960284087
 20
2023.10160001598
 10
743.5741014402334
 20
2023.209144704008
 10
743.7701539886671
 20
2023.308929198112
 10
743.9700400314546
 20
2023.400793864386
 10
744.1734397935672
 20
2023.484591738961
 10
744.3800278787757
 20
2023.560188763113
 10
744.5894737902132
 20
2023.627463997732
 10
744.801442459101
 20
2023.686309816792
 10
745.0155947807862
 20
2023.736632079535
 10
745.2315881572375
 20
2023.778350281077
 10
745.4490770451292
 20
2023.811397681195
 10
745.6677135086352
 20
2023.835721411098
 10
745.8871477760545
 20
2023.851282558007
 10
746.1070287993684
 20
2023.858056227406
 10
746.1664074431889
 20
2023.858376766141
1001
REVIT
1002
{
1070
     3
1000
939838
1002
}
  0
LWPOLYLINE
  5
8E
330
87
100
AcDbEntity
  8
M-PIPE
100
AcDbPolyline
 90
       41
 70
   128
 43
0.0
 10
746.1664074431887
 20
1917.858376766141
 10
745.9464661051621
 20
1917.862776179505
 10
745.7268766263581
 20
1917.875967381476
 10
745.5079903030995
 20
1917.897929268945
 10
745.2901573068102
 20
1917.928626707575
 10
745.0737261238158
 20
1917.968010588014
 10
744.8590429978393
 20
1918.016017904455
 10
744.646451376086
 20
1918.072571855432
 10
744.4362913598
 20
1918.137581966687
 10
744.2288991601756
 20
1918.210944235912
 10
744.024606560491
 20
1918.292541299125
 10
743.8237403853256
 20
1918.382242618431
 10
743.6266219777105
 20
1918.479904690855
 10
743.4335666850481
 20
1918.585371277914
 10
743.2448833546236
 20
1918.698473655567
 10
743.060873839516
 20
1918.819030884138
 10
742.8818325156956
 20
1918.946850097777
 10
742.7080458110871
 20
1919.081726813011
 10
742.5397917473455
 20
1919.223445255866
 10
742.3773394950806
 20
1919.371778707066
 10
742.2209489432411
 20
1919.526489864731
 10
742.0708702833488
 20
1919.687331224014
 10
741.9273436092443
 20
1919.854045473049
 10
741.7905985329886
 20
1920.026365904602
 10
741.6608538175331
 20
1920.204016842742
 10
741.5383170267452
 20
1920.386714083866
 10
741.4231841933502
 20
1920.57416535136
 10
741.3156395053213
 20
1920.766070763185
 10
741.2158550112178
 20
1920.962123311619
 10
741.1239903449438
 20
1921.162009354406
 10
741.0401924703688
 20
1921.365409116519
 10
740.9645954462161
 20
1921.571997201727
 10
740.8973202115979
 20
1921.781443113165
 10
740.8384743925381
 20
1921.993411782053
 10
740.7881521297944
 20
1922.207564103738
 10
740.746433928252
 20
1922.423557480189
 10
740.7133865281344
 20
1922.641046368081
 10
740.6890627982317
 20
1922.859682831587
 10
740.6735016513229
 20
1923.079117099006
 10
740.666727981924
 20
1923.29899812232
 10
740.6664074431886
 20
1923.358376766141
1001
REVIT
1002
{
1070
     3
1000
939838
1002
}
  0
LWPOLYLINE
  5
8F
330
87
100
AcDbEntity
  8
M-PIPE
100
AcDbPolyline
 90
        4
 70
   128
 43
0.0
 10
740.6664074431886
 20
1923.358376766141
 10
740.6664074431886
 20
1923.396371699745
 10
740.6664074431887
 20
1923.510295716766
 10
740.6664074431887
 20
1923.64341252572
1001
REVIT
1002
{
1070
     3
1000
939838
1002
}
  0
LWPOLYLINE
  5
90
330
87
100
AcDbEntity
  8
M-PIPE
100
AcDbPolyline
 90
        5
 70
   128
 43
0.0
 10
740.6664074431888
 20
2018.082829130157
 10
740.6664074431888
 20
2018.113462175715
 10
740.6664074431888
 20
2018.26830594066
 10
740.6664074431888
 20
2018.347303932505
 10
740.6664074431888
 20
2018.358376766141
1001
REVIT
1002
{
1070
     3
1000
939838
1002
}
  0
LWPOLYLINE
  5
91
330
87
100
AcDbEntity
  8
M-PIPE
100
AcDbPolyline
 90
       80
 70
   128
 43
0.0
 10
750.1664074431888
 20
1922.716436462803
 10
750.1652076031806
 20
1922.776420464083
 10
750.161610002643
 20
1922.836308503757
 10
750.1556203969697
 20
1922.896004773736
 10
750.1472483682523
 20
1922.955413772724
 10
750.1365073099508
 20
1923.014440458996
 10
750.1234144054669
 20
1923.072990402444
 10
750.107990600655
 20
1923.13096993565
 10
750.0902605703124
 20
1923.188286303727
 10
750.0702526787058
 20
1923.244847812716
 10
750.0479989341932
 20
1923.300563976266
 10
750.0235349380188
 20
1923.355345660402
 10
749.9968998273579
 20
1923.409105226116
 10
749.9681362127054
 20
1923.461756669569
 10
749.937290109709
 20
1923.513215759685
 10
749.9044108655533
 20
1923.563400172896
 10
749.8695510800152
 20
1923.612229624847
 10
749.8327665213153
 20
1923.659625998831
 10
749.7941160369002
 20
1923.705513470761
 10
749.7536614593002
 20
1923.749818630469
 10
749.7114675072097
 20
1923.792470599152
 10
749.6676016819509
 20
1923.83340114276
 10
749.6221341594867
 20
1923.872544781152
 10
749.5751376781541
 20
1923.909838892858
 10
749.5266874222975
 20
1923.945223815255
 10
749.476860901991
 20
1923.978642940015
 10
749.4257378290382
 20
1924.010042803669
 10
749.3733999894495
 20
1924.039373173131
 10
749.319931112604
 20
1924.066587126068
 10
749.2654167372982
 20
1924.091641125961
 10
749.2099440749038
 20
1924.114495091754
 10
749.1536018698471
 20
1924.135112461977
 10
749.0964802576367
 20
1924.153460253237
 10
749.0386706206674
 20
1924.16950911298
 10
748.980265442026
 20
1924.183233366456
 10
748.9213581575391
 20
1924.194611057786
 10
748.8620430062962
 20
1924.203623985091
 10
748.8024148798854
 20
1924.210257729609
 10
748.7425691705892
 20
1924.214501678767
 10
748.6826016187762
 20
1924.216349043148
 10
748.622608159737
 20
1924.215796867365
 10
748.5626847702077
 20
1924.212846034782
 10
748.5029273148291
 20
1924.2075012661
 10
748.4434313927818
 20
1924.19977111181
 10
748.3842921848496
 20
1924.189667938509
 10
748.3256043011492
 20
1924.17720790912
 10
748.2674616297754
 20
1924.162410957032
 10
748.2099571865992
 20
1924.145300754211
 10
748.1531829664626
 20
1924.125904673331
 10
748.0972297960065
 20
1924.104253743985
 10
748.042187188368
 20
1924.080382603042
 10
747.9881431999776
 20
1924.054329439233
 10
747.9351842896873
 20
1924.026135932065
 10
747.8833951804567
 20
1923.995847185133
 10
747.8328587238128
 20
1923.963511653971
 10
747.7836557673058
 20
1923.929181068533
 10
747.7358650251699
 20
1923.89291035043
 10
747.6895629523975
 20
1923.854757525075
 10
747.644823622428
 20
1923.814783628849
 10
747.6017186086457
 20
1923.773052611459
 10
747.5603168698769
 20
1923.72963123363
 10
747.5206846400723
 20
1923.684588960305
 10
747.4828853223446
 20
1923.637997849512
 10
747.446979387539
 20
1923.58993243709
 10
747.4130242774918
 20
1923.540469617444
 10
747.3810743131354
 20
1923.489688520535
 10
747.3511806075974
 20
1923.437670385286
 10
747.3233909844296
 20
1923.384498429616
 10
747.2977499011009
 20
1923.330257717312
 10
747.2742983778747
 20
1923.275035021941
 10
747.2530739321858
 20
1923.218918688037
 10
747.2341105186194
 20
1923.161998489763
 10
747.2174384745919
 20
1923.104365487295
 10
747.2030844718172
 20
1923.046111881141
 10
747.1910714736379
 20
1922.987330864645
 10
747.181418698288
 20
1922.928116474893
 10
747.1741415881496
 20
1922.868563442278
 10
747.1692517850463
 20
1922.808767038948
 10
747.1667571116194
 20
1922.748822926392
 10
747.1664074431888
 20
1922.716436462803
1001
REVIT
1002
{
1070
     3
1000
939838
1002
}
  0
LWPOLYLINE
  5
92
330
87
100
AcDbEntity
  8
M-PIPE
100
AcDbPolyline
 90
       80
 70
   128
 43
0.0
 10
747.1664074431888
 20
2019.000317069479
 10
747.1676072831975
 20
2018.940333068199
 10
747.1712048837352
 20
2018.880445028525
 10
747.177194489408
 20
2018.820748758546
 10
747.1855665181254
 20
2018.761339759558
 10
747.1963075764269
 20
2018.702313073286
 10
747.2094004809108
 20
2018.643763129838
 10
747.2248242857226
 20
2018.585783596633
 10
747.2425543160651
 20
2018.528467228554
 10
747.2625622076718
 20
2018.471905719566
 10
747.2848159521845
 20
2018.416189556016
 10
747.3092799483588
 20
2018.36140787188
 10
747.3359150590198
 20
2018.307648306167
 10
747.3646786736725
 20
2018.254996862713
 10
747.3955247766687
 20
2018.203537772597
 10
747.4284040208242
 20
2018.153353359386
 10
747.4632638063624
 20
2018.104523907435
 10
747.5000483650624
 20
2018.057127533451
 10
747.5386988494776
 20
2018.011240061522
 10
747.5791534270776
 20
2017.966934901813
 10
747.621347379168
 20
2017.92428293313
 10
747.6652132044269
 20
2017.883352389523
 10
747.7106807268909
 20
2017.84420875113
 10
747.7576772082236
 20
2017.806914639424
 10
747.8061274640801
 20
2017.771529717027
 10
747.8559539843866
 20
2017.738110592267
 10
747.9070770573396
 20
2017.706710728614
 10
747.9594148969282
 20
2017.677380359151
 10
748.0128837737737
 20
2017.650166406214
 10
748.0673981490795
 20
2017.625112406321
 10
748.1228708114739
 20
2017.602258440528
 10
748.1792130165307
 20
2017.581641070305
 10
748.236334628741
 20
2017.563293279045
 10
748.2941442657103
 20
2017.547244419301
 10
748.3525494443518
 20
2017.533520165826
 10
748.4114567288385
 20
2017.522142474496
 10
748.4707718800816
 20
2017.513129547191
 10
748.5304000064924
 20
2017.506495802672
 10
748.5902457157886
 20
2017.502251853516
 10
748.6502132676015
 20
2017.500404489134
 10
748.7102067266408
 20
2017.500956664917
 10
748.7701301161701
 20
2017.5039074975
 10
748.8298875715486
 20
2017.509252266182
 10
748.8893834935959
 20
2017.516982420472
 10
748.9485227015282
 20
2017.527085593773
 10
749.0072105852285
 20
2017.539545623161
 10
749.0653532566024
 20
2017.55434257525
 10
749.1228576997786
 20
2017.571452778072
 10
749.1796319199153
 20
2017.590848858951
 10
749.2355850903711
 20
2017.612499788297
 10
749.2906276980096
 20
2017.63637092924
 10
749.3446716864004
 20
2017.662424093049
 10
749.3976305966905
 20
2017.690617600218
 10
749.4494197059209
 20
2017.720906347149
 10
749.4999561625648
 20
2017.753241878311
 10
749.549159119072
 20
2017.787572463749
 10
749.5969498612079
 20
2017.823843181852
 10
749.64325193398
 20
2017.861996007207
 10
749.6879912639496
 20
2017.901969903434
 10
749.7310962777321
 20
2017.943700920824
 10
749.7724980165006
 20
2017.987122298652
 10
749.8121302463054
 20
2018.032164571977
 10
749.8499295640332
 20
2018.07875568277
 10
749.8858354988388
 20
2018.126821095193
 10
749.9197906088859
 20
2018.176283914838
 10
749.9517405732423
 20
2018.227065011746
 10
749.9816342787803
 20
2018.279083146996
 10
750.0094239019482
 20
2018.332255102666
 10
750.0350649852768
 20
2018.386495814971
 10
750.058516508503
 20
2018.441718510342
 10
750.0797409541919
 20
2018.497834844245
 10
750.0987043677583
 20
2018.554755042519
 10
750.115376411786
 20
2018.612388044987
 10
750.1297304145606
 20
2018.670641651141
 10
750.1417434127398
 20
2018.729422667638
 10
750.1513961880895
 20
2018.788637057389
 10
750.1586732982279
 20
2018.848190090004
 10
750.1635631013317
 20
2018.907986493334
 10
750.1660577747583
 20
2018.96793060589
 10
750.1664074431888
 20
2019.000317069479
1001
REVIT
1002
{
1070
     3
1000
939838
1002
}
  0
LWPOLYLINE
  5
93
330
87
100
AcDbEntity
  8
M-PIPE
100
AcDbPolyline
 90
       80
 70
   128
 43
0.0
 10
884.1664074431891
 20
1922.716436462803
 10
884.1652076031808
 20
1922.776420464083
 10
884.1616100026431
 20
1922.836308503757
 10
884.15562039697
 20
1922.896004773736
 10
884.1472483682526
 20
1922.955413772724
 10
884.1365073099511
 20
1923.014440458996
 10
884.1234144054672
 20
1923.072990402444
 10
884.1079906006555
 20
1923.13096993565
 10
884.090260570313
 20
1923.188286303727
 10
884.070252678706
 20
1923.244847812716
 10
884.0479989341934
 20
1923.300563976266
 10
884.0235349380192
 20
1923.355345660402
 10
883.9968998273581
 20
1923.409105226116
 10
883.9681362127057
 20
1923.461756669569
 10
883.9372901097092
 20
1923.513215759685
 10
883.9044108655539
 20
1923.563400172896
 10
883.8695510800157
 20
1923.612229624847
 10
883.8327665213155
 20
1923.659625998831
 10
883.7941160369005
 20
1923.705513470761
 10
883.7536614593005
 20
1923.749818630469
 10
883.7114675072099
 20
1923.792470599152
 10
883.6676016819513
 20
1923.83340114276
 10
883.6221341594871
 20
1923.872544781152
 10
883.5751376781544
 20
1923.909838892858
 10
883.5266874222979
 20
1923.945223815255
 10
883.4768609019915
 20
1923.978642940015
 10
883.4257378290384
 20
1924.010042803669
 10
883.3733999894498
 20
1924.039373173131
 10
883.3199311126042
 20
1924.066587126068
 10
883.2654167372986
 20
1924.091641125961
 10
883.2099440749043
 20
1924.114495091754
 10
883.1536018698473
 20
1924.135112461977
 10
883.0964802576371
 20
1924.153460253237
 10
883.0386706206677
 20
1924.16950911298
 10
882.9802654420264
 20
1924.183233366456
 10
882.9213581575396
 20
1924.194611057786
 10
882.8620430062963
 20
1924.203623985091
 10
882.8024148798858
 20
1924.210257729609
 10
882.7425691705895
 20
1924.214501678767
 10
882.6826016187764
 20
1924.216349043148
 10
882.6226081597372
 20
1924.215796867365
 10
882.562684770208
 20
1924.212846034782
 10
882.5029273148293
 20
1924.2075012661
 10
882.4434313927822
 20
1924.19977111181
 10
882.3842921848498
 20
1924.189667938509
 10
882.3256043011495
 20
1924.17720790912
 10
882.2674616297758
 20
1924.162410957032
 10
882.2099571865994
 20
1924.145300754211
 10
882.1531829664627
 20
1924.125904673331
 10
882.097229796007
 20
1924.104253743985
 10
882.0421871883684
 20
1924.080382603042
 10
881.9881431999778
 20
1924.054329439233
 10
881.9351842896876
 20
1924.026135932065
 10
881.883395180457
 20
1923.995847185133
 10
881.8328587238132
 20
1923.963511653971
 10
881.7836557673061
 20
1923.929181068533
 10
881.7358650251703
 20
1923.89291035043
 10
881.689562952398
 20
1923.854757525075
 10
881.6448236224285
 20
1923.814783628849
 10
881.601718608646
 20
1923.773052611459
 10
881.5603168698773
 20
1923.72963123363
 10
881.5206846400725
 20
1923.684588960305
 10
881.4828853223447
 20
1923.637997849512
 10
881.4469793875394
 20
1923.58993243709
 10
881.413024277492
 20
1923.540469617444
 10
881.3810743131357
 20
1923.489688520535
 10
881.3511806075977
 20
1923.437670385286
 10
881.3233909844299
 20
1923.384498429616
 10
881.2977499011012
 20
1923.330257717312
 10
881.2742983778752
 20
1923.275035021941
 10
881.2530739321863
 20
1923.218918688037
 10
881.2341105186197
 20
1923.161998489763
 10
881.2174384745922
 20
1923.104365487295
 10
881.2030844718176
 20
1923.046111881141
 10
881.1910714736383
 20
1922.987330864645
 10
881.1814186982886
 20
1922.928116474893
 10
881.1741415881501
 20
1922.868563442278
 10
881.1692517850467
 20
1922.808767038948
 10
881.1667571116197
 20
1922.748822926392
 10
881.1664074431893
 20
1922.716436462803
1001
REVIT
1002
{
1070
     3
1000
939838
1002
}
  0
LWPOLYLINE
  5
94
330
87
100
AcDbEntity
  8
M-PIPE
100
AcDbPolyline
 90
       80
 70
   128
 43
0.0
 10
881.1664074431893
 20
2019.000317069479
 10
881.167607283198
 20
2018.940333068199
 10
881.1712048837353
 20
2018.880445028525
 10
881.1771944894084
 20
2018.820748758546
 10
881.1855665181258
 20
2018.761339759558
 10
881.1963075764273
 20
2018.702313073286
 10
881.2094004809111
 20
2018.643763129838
 10
881.2248242857229
 20
2018.585783596633
 10
881.2425543160655
 20
2018.528467228554
 10
881.2625622076721
 20
2018.471905719566
 10
881.2848159521848
 20
2018.416189556016
 10
881.3092799483593
 20
2018.36140787188
 10
881.3359150590203
 20
2018.307648306167
 10
881.3646786736727
 20
2018.254996862713
 10
881.3955247766692
 20
2018.203537772597
 10
881.4284040208248
 20
2018.153353359386
 10
881.4632638063628
 20
2018.104523907435
 10
881.5000483650628
 20
2018.057127533451
 10
881.5386988494777
 20
2018.011240061522
 10
881.5791534270777
 20
2017.966934901813
 10
881.6213473791684
 20
2017.92428293313
 10
881.6652132044271
 20
2017.883352389523
 10
881.7106807268913
 20
2017.84420875113
 10
881.757677208224
 20
2017.806914639424
 10
881.8061274640806
 20
2017.771529717027
 10
881.8559539843871
 20
2017.738110592267
 10
881.90707705734
 20
2017.706710728614
 10
881.9594148969287
 20
2017.677380359151
 10
882.012883773774
 20
2017.650166406214
 10
882.0673981490797
 20
2017.625112406321
 10
882.1228708114741
 20
2017.602258440528
 10
882.1792130165311
 20
2017.581641070305
 10
882.2363346287412
 20
2017.563293279045
 10
882.2941442657107
 20
2017.547244419301
 10
882.352549444352
 20
2017.533520165826
 10
882.4114567288388
 20
2017.522142474496
 10
882.4707718800819
 20
2017.513129547191
 10
882.5304000064926
 20
2017.506495802672
 10
882.5902457157889
 20
2017.502251853516
 10
882.6502132676019
 20
2017.500404489134
 10
882.7102067266411
 20
2017.500956664917
 10
882.7701301161702
 20
2017.5039074975
 10
882.8298875715489
 20
2017.509252266182
 10
882.8893834935964
 20
2017.516982420472
 10
882.9485227015284
 20
2017.527085593773
 10
883.0072105852288
 20
2017.539545623161
 10
883.0653532566026
 20
2017.55434257525
 10
883.1228576997787
 20
2017.571452778072
 10
883.1796319199154
 20
2017.590848858951
 10
883.2355850903715
 20
2017.612499788297
 10
883.29062769801
 20
2017.63637092924
 10
883.3446716864006
 20
2017.662424093049
 10
883.3976305966908
 20
2017.690617600218
 10
883.4494197059214
 20
2017.720906347149
 10
883.4999561625652
 20
2017.753241878311
 10
883.5491591190724
 20
2017.787572463749
 10
883.5969498612083
 20
2017.823843181852
 10
883.6432519339805
 20
2017.861996007207
 10
883.6879912639501
 20
2017.901969903434
 10
883.7310962777323
 20
2017.943700920824
 10
883.7724980165011
 20
2017.987122298652
 10
883.8121302463058
 20
2018.032164571977
 10
883.8499295640337
 20
2018.07875568277
 10
883.885835498839
 20
2018.126821095193
 10
883.9197906088863
 20
2018.176283914838
 10
883.9517405732426
 20
2018.227065011746
 10
883.9816342787807
 20
2018.279083146996
 10
884.0094239019485
 20
2018.332255102666
 10
884.0350649852771
 20
2018.386495814971
 10
884.0585165085032
 20
2018.441718510342
 10
884.0797409541922
 20
2018.497834844245
 10
884.0987043677587
 20
2018.554755042519
 10
884.1153764117862
 20
2018.612388044987
 10
884.1297304145609
 20
2018.670641651141
 10
884.1417434127404
 20
2018.729422667638
 10
884.1513961880899
 20
2018.788637057389
 10
884.1586732982284
 20
2018.848190090004
 10
884.1635631013321
 20
2018.907986493334
 10
884.1660577747587
 20
2018.96793060589
 10
884.1664074431891
 20
2019.000317069479
1001
REVIT
1002
{
1070
     3
1000
939838
1002
}
  0
LINE
  5
95
330
87
100
AcDbEntity
  8
M-PIPE
100
AcDbLine
 10
890.666407443188
 20
2018.35837676614
 30
0.0
 11
890.666407443188
 21
2002.35837676614
 31
0.0
1001
REVIT
1002
{
1070
     3
1000
939838
1002
}
  0
LINE
  5
96
330
87
100
AcDbEntity
  8
M-PIPE
100
AcDbLine
 10
890.6664074431878
 20
2002.358376766141
 30
0.0
 11
890.666407443188
 21
1970.85837676614
 31
0.0
1001
REVIT
1002
{
1070
     3
1000
939838
1002
}
  0
LINE
  5
97
330
87
100
AcDbEntity
  8
M-PIPE
100
AcDbLine
 10
890.6664074431878
 20
1970.85837676614
 30
0.0
 11
890.6664074431876
 21
1939.35837676614
 31
0.0
1001
REVIT
1002
{
1070
     3
1000
939838
1002
}
  0
LINE
  5
98
330
87
100
AcDbEntity
  8
M-PIPE
100
AcDbLine
 10
890.6664074431876
 20
1939.35837676614
 30
0.0
 11
890.6664074431876
 21
1923.358376766139
 31
0.0
1001
REVIT
1002
{
1070
     3
1000
939838
1002
}
  0
ARC
  5
99
330
87
100
AcDbEntity
  8
M-PIPE
100
AcDbCircle
 10
885.1664074431875
 20
1923.358376766139
 30
0.0
 40
5.5
100
AcDbArc
 50
269.9999999999997
 51
0.0
1001
REVIT
1002
{
1070
     3
1000
939838
1002
}
  0
ARC
  5
9A
330
87
100
AcDbEntity
  8
M-PIPE
100
AcDbCircle
 10
885.1664074431878
 20
2018.35837676614
 30
0.0
 40
5.499999999999986
100
AcDbArc
 50
0.00000000000059
 51
90.00000000000058
1001
REVIT
1002
{
1070
     3
1000
939838
1002
}
  0
LINE
  5
9B
330
87
100
AcDbEntity
  8
M-PIPE
100
AcDbLine
 10
885.1664074431875
 20
1917.85837676614
 30
0.0
 11
884.1664074431879
 21
1917.85837676614
 31
0.0
1001
REVIT
1002
{
1070
     3
1000
939838
1002
}
  0
LINE
  5
9C
330
87
100
AcDbEntity
  8
M-PIPE
100
AcDbLine
 10
884.9732911452429
 20
2023.858376766139
 30
0.0
 11
885.1664074431878
 21
2023.858376766139
 31
0.0
1001
REVIT
1002
{
1070
     3
1000
939838
1002
}
  0
LINE
  5
9D
330
87
100
AcDbEntity
  8
M-PIPE
100
AcDbLine
 10
881.1664074431877
 20
1917.85837676614
 30
0.0
 11
815.6664074431875
 21
1917.85837676614
 31
0.0
1001
REVIT
1002
{
1070
     3
1000
939838
1002
}
  0
LINE
  5
9E
330
87
100
AcDbEntity
  8
M-PIPE
100
AcDbLine
 10
746.1664074431877
 20
2023.85837676614
 30
0.0
 11
746.362451818058
 21
2023.85837676614
 31
0.0
1001
REVIT
1002
{
1070
     3
1000
939838
1002
}
  0
LINE
  5
9F
330
87
100
AcDbEntity
  8
M-PIPE
100
AcDbLine
 10
747.1664074431877
 20
1917.85837676614
 30
0.0
 11
746.1664074431874
 21
1917.85837676614
 31
0.0
1001
REVIT
1002
{
1070
     3
1000
939838
1002
}
  0
LINE
  5
A0
330
87
100
AcDbEntity
  8
M-PIPE
100
AcDbLine
 10
815.6664074431875
 20
1917.85837676614
 30
0.0
 11
750.1664074431877
 21
1917.85837676614
 31
0.0
1001
REVIT
1002
{
1070
     3
1000
939838
1002
}
  0
ARC
  5
A1
330
87
100
AcDbEntity
  8
M-PIPE
100
AcDbCircle
 10
746.1664074431874
 20
1923.35837676614
 30
0.0
 40
5.5
100
AcDbArc
 50
180.0
 51
269.9999999999997
1001
REVIT
1002
{
1070
     3
1000
939838
1002
}
  0
ARC
  5
A2
330
87
100
AcDbEntity
  8
M-PIPE
100
AcDbCircle
 10
746.1664074431877
 20
2018.35837676614
 30
0.0
 40
5.499999999999886
100
AcDbArc
 50
90.0
 51
180.0
1001
REVIT
1002
{
1070
     3
1000
939838
1002
}
  0
LINE
  5
A3
330
87
100
AcDbEntity
  8
M-PIPE
100
AcDbLine
 10
740.6664074431875
 20
1923.35837676614
 30
0.0
 11
740.6664074431875
 21
1939.35837676614
 31
0.0
1001
REVIT
1002
{
1070
     3
1000
939838
1002
}
  0
LINE
  5
A4
330
87
100
AcDbEntity
  8
M-PIPE
100
AcDbLine
 10
740.6664074431877
 20
1939.35837676614
 30
0.0
 11
740.6664074431878
 21
1970.85837676614
 31
0.0
1001
REVIT
1002
{
1070
     3
1000
939838
1002
}
  0
LINE
  5
A5
330
87
100
AcDbEntity
  8
M-PIPE
100
AcDbLine
 10
740.6664074431879
 20
1970.85837676614
 30
0.0
 11
740.6664074431878
 21
2002.358376766141
 31
0.0
1001
REVIT
1002
{
1070
     3
1000
939838
1002
}
  0
LINE
  5
A6
330
87
100
AcDbEntity
  8
M-PIPE
100
AcDbLine
 10
740.6664074431878
 20
2002.358376766141
 30
0.0
 11
740.6664074431878
 21
2018.35837676614
 31
0.0
1001
REVIT
1002
{
1070
     3
1000
939838
1002
}
  0
LINE
  5
A7
330
87
100
AcDbEntity
  8
M-PIPE
100
AcDbLine
 10
750.1664074431877
 20
2019.000317069478
 30
0.0
 11
750.1664074431877
 21
2022.758376766138
 31
0.0
1001
REVIT
1002
{
1070
     3
1000
939838
1002
}
  0
LINE
  5
A8
330
87
100
AcDbEntity
  8
M-PIPE
100
AcDbLine
 10
750.1664074431877
 20
1917.85837676614
 30
0.0
 11
750.1664074431877
 21
1922.716436462802
 31
0.0
1001
REVIT
1002
{
1070
     3
1000
939838
1002
}
  0
ARC
  5
A9
330
87
100
AcDbEntity
  8
M-PIPE
100
AcDbCircle
 10
748.6664074431877
 20
1922.716436462802
 30
0.0
 40
1.500000000000113
100
AcDbArc
 50
0.0
 51
180.0
1001
REVIT
1002
{
1070
     3
1000
939838
1002
}
  0
ARC
  5
AA
330
87
100
AcDbEntity
  8
M-PIPE
100
AcDbCircle
 10
748.6664074431877
 20
2019.000317069478
 30
0.0
 40
1.5
100
AcDbArc
 50
180.0
 51
0.0
1001
REVIT
1002
{
1070
     3
1000
939838
1002
}
  0
LINE
  5
AB
330
87
100
AcDbEntity
  8
M-PIPE
100
AcDbLine
 10
747.1664074431877
 20
1922.716436462802
 30
0.0
 11
747.1664074431877
 21
1917.85837676614
 31
0.0
1001
REVIT
1002
{
1070
     3
1000
939838
1002
}
  0
LINE
  5
AC
330
87
100
AcDbEntity
  8
M-PIPE
100
AcDbLine
 10
747.1664074431877
 20
2022.758376766138
 30
0.0
 11
747.1664074431877
 21
2019.000317069478
 31
0.0
1001
REVIT
1002
{
1070
     3
1000
939838
1002
}
  0
LINE
  5
AD
330
87
100
AcDbEntity
  8
M-PIPE
100
AcDbLine
 10
881.1664074431877
 20
1922.716436462802
 30
0.0
 11
881.1664074431877
 21
1917.85837676614
 31
0.0
1001
REVIT
1002
{
1070
     3
1000
939838
1002
}
  0
LINE
  5
AE
330
87
100
AcDbEntity
  8
M-PIPE
100
AcDbLine
 10
881.1664074431877
 20
2022.758376766137
 30
0.0
 11
881.1664074431877
 21
2019.000317069478
 31
0.0
1001
REVIT
1002
{
1070
     3
1000
939838
1002
}
  0
ARC
  5
AF
330
87
100
AcDbEntity
  8
M-PIPE
100
AcDbCircle
 10
882.6664074431878
 20
2019.000317069478
 30
0.0
 40
1.5
100
AcDbArc
 50
180.0
 51
0.0
1001
REVIT
1002
{
1070
     3
1000
939838
1002
}
  0
ARC
  5
B0
330
87
100
AcDbEntity
  8
M-PIPE
100
AcDbCircle
 10
882.6664074431878
 20
1922.716436462802
 30
0.0
 40
1.500000000000113
100
AcDbArc
 50
0.0
 51
180.0
1001
REVIT
1002
{
1070
     3
1000
939838
1002
}
  0
LINE
  5
B1
330
87
100
AcDbEntity
  8
M-PIPE
100
AcDbLine
 10
884.1664074431879
 20
2019.000317069478
 30
0.0
 11
884.1664074431879
 21
2022.758376766137
 31
0.0
1001
REVIT
1002
{
1070
     3
1000
939838
1002
}
  0
LINE
  5
B2
330
87
100
AcDbEntity
  8
M-PIPE
100
AcDbLine
 10
884.1664074431879
 20
1917.85837676614
 30
0.0
 11
884.1664074431879
 21
1922.716436462802
 31
0.0
1001
REVIT
1002
{
1070
     3
1000
939838
1002
}
  0
LINE
  5
B3
330
87
100
AcDbEntity
  8
M-PIPE
100
AcDbLine
 10
787.6664074431878
 20
2017.25837676614
 30
0.0
 11
787.6664074431878
 21
2002.358376766141
 31
0.0
1001
REVIT
1002
{
1070
     3
1000
939838
1002
}
  0
SPLINE
  5
B4
330
87
100
AcDbEntity
  8
M-PIPE
100
AcDbSpline
210
0.0
220
0.0
230
1.0
 70
     8
 71
     3
 72
    11
 73
     7
 74
     0
 42
0.000000001
 43
0.0000000001
 40
0.0
 40
0.0
 40
0.0
 40
0.0
 40
0.0555555555555556
 40
0.0833333333333333
 40
0.1111111111111111
 40
0.1131563803763929
 40
0.1131563803763929
 40
0.1131563803763929
 40
0.1131563803763929
 10
787.6664074431878
 20
2002.358376766141
 30
0.0
 10
787.6664074431878
 20
2002.289347358062
 30
0.0
 10
787.9287921219975
 20
2002.0261711592
 30
0.0
 10
788.7404191416716
 20
2001.348856959542
 30
0.0
 10
789.3086573320653
 20
2000.894804568057
 30
0.0
 10
789.6397357626876
 20
2000.62012322748
 30
0.0
 10
789.662613224107
 20
2000.601100015638
 30
0.0
1001
REVIT
1002
{
1070
     3
1000
939838
1002
}
  0
SPLINE
  5
B5
330
87
100
AcDbEntity
  8
M-PIPE
100
AcDbSpline
210
0.0
220
0.0
230
1.0
 70
     8
 71
     3
 72
    11
 73
     7
 74
     0
 42
0.000000001
 43
0.0000000001
 40
0.8868401838808564
 40
0.8868401838808564
 40
0.8868401838808564
 40
0.8868401838808564
 40
0.8888888888888889
 40
0.9166666666666666
 40
0.9444444444444444
 40
1.0
 40
1.0
 40
1.0
 40
1.0
 10
841.6702148810534
 20
2000.60110611621
 30
0.0
 10
841.6931358368987
 20
2000.620169341085
 30
0.0
 10
842.0243180755445
 20
2000.89499146203
 30
0.0
 10
842.5926027761736
 20
2001.349169807309
 30
0.0
 10
843.4041477696693
 20
2002.026543368943
 30
0.0
 10
843.6664074431877
 20
2002.289549092353
 30
0.0
 10
843.6664074431877
 20
2002.358376766141
 30
0.0
1001
REVIT
1002
{
1070
     3
1000
939838
1002
}
  0
LINE
  5
B6
330
87
100
AcDbEntity
  8
M-PIPE
100
AcDbLine
 10
843.6664074431877
 20
2002.358376766141
 30
0.0
 11
843.6664074431877
 21
2017.25837676614
 31
0.0
1001
REVIT
1002
{
1070
     3
1000
939838
1002
}
  0
LINE
  5
B7
330
87
100
AcDbEntity
  8
M-PIPE
100
AcDbLine
 10
873.170363068314
 20
2021.357528740592
 30
0.0
 11
876.1744913536801
 21
2022.758376766137
 31
0.0
1001
REVIT
1002
{
1070
     3
1000
939838
1002
}
  0
LINE
  5
B8
330
87
100
AcDbEntity
  8
M-PIPE
100
AcDbLine
 10
740.6664074431875
 20
1939.35837676614
 30
0.0
 11
765.6664074431877
 21
1939.35837676614
 31
0.0
1001
REVIT
1002
{
1070
     3
1000
939838
1002
}
  0
LINE
  5
B9
330
87
100
AcDbEntity
  8
M-PIPE
100
AcDbLine
 10
777.7455306770453
 20
1939.35837676614
 30
0.0
 11
853.6664074431877
 21
1939.35837676614
 31
0.0
1001
REVIT
1002
{
1070
     3
1000
939838
1002
}
  0
LINE
  5
BA
330
87
100
AcDbEntity
  8
M-PIPE
100
AcDbLine
 10
865.666407443188
 20
1939.35837676614
 30
0.0
 11
890.6664074431876
 21
1939.35837676614
 31
0.0
1001
REVIT
1002
{
1070
     3
1000
939838
1002
}
  0
LINE
  5
BB
330
87
100
AcDbEntity
  8
M-PIPE
100
AcDbLine
 10
890.666407443188
 20
2002.358376766141
 30
0.0
 11
865.666407443188
 21
2002.358376766141
 31
0.0
1001
REVIT
1002
{
1070
     3
1000
939838
1002
}
  0
LINE
  5
BC
330
87
100
AcDbEntity
  8
M-PIPE
100
AcDbLine
 10
853.6664074431881
 20
2002.358376766141
 30
0.0
 11
843.6664074431877
 21
2002.358376766141
 31
0.0
1001
REVIT
1002
{
1070
     3
1000
939838
1002
}
  0
LINE
  5
BD
330
87
100
AcDbEntity
  8
M-PIPE
100
AcDbLine
 10
787.6664074431878
 20
2002.358376766141
 30
0.0
 11
777.7455306770451
 21
2002.358376766141
 31
0.0
1001
REVIT
1002
{
1070
     3
1000
939838
1002
}
  0
LINE
  5
BE
330
87
100
AcDbEntity
  8
M-PIPE
100
AcDbLine
 10
765.666407443188
 20
2002.358376766141
 30
0.0
 11
740.6664074431878
 21
2002.358376766141
 31
0.0
1001
REVIT
1002
{
1070
     3
1000
939838
1002
}
  0
LINE
  5
BF
330
87
100
AcDbEntity
  8
M-PIPE
100
AcDbLine
 10
755.1583235326947
 20
2022.758376766138
 30
0.0
 11
758.1624518180618
 21
2021.357528740591
 31
0.0
1001
REVIT
1002
{
1070
     3
1000
939838
1002
}
  0
LINE
  5
C0
330
87
100
AcDbEntity
  8
M-PIPE
100
AcDbLine
 10
846.1664074432192
 20
2090.858376766076
 30
0.0
 11
846.1664074432194
 21
2143.358376766091
 31
0.0
1001
REVIT
1002
{
1070
     3
1000
938184
1002
}
  0
LINE
  5
C1
330
87
100
AcDbEntity
  8
M-PIPE
100
AcDbLine
 10
785.1664074431595
 20
2143.358376766092
 30
0.0
 11
785.1664074431592
 21
2090.858376766076
 31
0.0
1001
REVIT
1002
{
1070
     3
1000
938184
1002
}
  0
LINE
  5
C2
330
87
100
AcDbEntity
  8
M-PIPE
100
AcDbLine
 10
794.5370311383339
 20
2146.858376766092
 30
0.0
 11
789.227377333611
 21
2146.858376766092
 31
0.0
1001
REVIT
1002
{
1070
     3
1000
938184
1002
}
  0
LWPOLYLINE
  5
C3
330
87
100
AcDbEntity
  8
M-PIPE
100
AcDbPolyline
 90
       41
 70
   128
 43
0.0
 10
785.1664074431592
 20
2143.358376766092
 10
785.1692070698459
 20
2143.498339435745
 10
785.1776014711001
 20
2143.638078194984
 10
785.1915772176709
 20
2143.777369491603
 10
785.2111119513448
 20
2143.915990489241
 10
785.2361744207151
 20
2144.053719423874
 10
785.2667245311773
 20
2144.190335958587
 10
785.3027134090717
 20
2144.325621536066
 10
785.344083479871
 20
2144.459359728248
 10
785.3907685602867
 20
2144.591336582555
 10
785.4426939641492
 20
2144.721340964172
 10
785.4997766218896
 20
2144.849164893823
 10
785.561925213432
 20
2144.974603880487
 10
785.6290403142876
 20
2145.097457248545
 10
785.7010145546125
 20
2145.217528458815
 10
785.7777327909756
 20
2145.334625422974
 10
785.8590722905644
 20
2145.44856081086
 10
785.9449029275313
 20
2145.559152350156
 10
786.0350873911662
 20
2145.666223117991
 10
786.1294814055662
 20
2145.769601823979
 10
786.2279339604444
 20
2145.86912308424
 10
786.3302875527149
 20
2145.96462768599
 10
786.4363784384643
 20
2146.055962842238
 10
786.5460368949072
 20
2146.142982436219
 10
786.6590874919059
 20
2146.225547255145
 10
786.7753493726208
 20
2146.303525212919
 10
786.8946365428446
 20
2146.376791561443
 10
787.0167581685513
 20
2146.445229090188
 10
787.1415188811909
 20
2146.50872831371
 10
787.2687190902374
 20
2146.567187646793
 10
787.398155302491
 20
2146.620513566977
 10
787.5296204476237
 20
2146.668620764165
 10
787.6629042094475
 20
2146.711432277104
 10
787.7977933623761
 20
2146.748879616505
 10
787.9340721125394
 20
2146.780902874615
 10
788.0715224430087
 20
2146.807450821051
 10
788.2099244625759
 20
2146.828480984762
 10
788.3490567575344
 20
2146.843959721973
 10
788.488696745892
 20
2146.853862270006
 10
788.6286210334555
 20
2146.858172786897
 10
788.6664074431593
 20
2146.858376766092
1001
REVIT
1002
{
1070
     3
1000
938184
1002
}
  0
LWPOLYLINE
  5
C4
330
87
100
AcDbEntity
  8
M-PIPE
100
AcDbPolyline
 90
       41
 70
   128
 43
0.0
 10
842.6664074432194
 20
2146.858376766092
 10
842.8063701128728
 20
2146.855577139405
 10
842.9461088721115
 20
2146.847182738151
 10
843.0854001687306
 20
2146.83320699158
 10
843.2240211663694
 20
2146.813672257906
 10
843.3617501010022
 20
2146.788609788536
 10
843.4983666357144
 20
2146.758059678074
 10
843.6336522131938
 20
2146.722070800179
 10
843.7673904053758
 20
2146.68070072938
 10
843.8993672596824
 20
2146.634015648964
 10
844.0293716412996
 20
2146.582090245102
 10
844.1571955709505
 20
2146.525007587362
 10
844.2826345576147
 20
2146.462858995819
 10
844.4054879256725
 20
2146.395743894963
 10
844.5255591359424
 20
2146.323769654639
 10
844.6426561001022
 20
2146.247051418276
 10
844.7565914879879
 20
2146.165711918686
 10
844.8671830272841
 20
2146.07988128172
 10
844.9742537951195
 20
2145.989696818085
 10
845.0776325011064
 20
2145.895302803685
 10
845.1771537613678
 20
2145.796850248807
 10
845.2726583631173
 20
2145.694496656536
 10
845.3639935193658
 20
2145.588405770786
 10
845.4510131133467
 20
2145.478747314343
 10
845.5335779322728
 20
2145.365696717345
 10
845.6115558900471
 20
2145.24943483663
 10
845.6848222385712
 20
2145.130147666407
 10
845.7532597673168
 20
2145.0080260407
 10
845.8167589908374
 20
2144.88326532806
 10
845.8752183239207
 20
2144.756065119013
 10
845.9285442441046
 20
2144.62662890676
 10
845.976651441293
 20
2144.495163761627
 10
846.0194629542316
 20
2144.361879999803
 10
846.0569102936336
 20
2144.226990846875
 10
846.0889335517432
 20
2144.090712096712
 10
846.1154814981792
 20
2143.953261766242
 10
846.1365116618905
 20
2143.814859746675
 10
846.1519903991012
 20
2143.675727451716
 10
846.1618929471342
 20
2143.536087463359
 10
846.1662034640244
 20
2143.396163175795
 10
846.1664074432194
 20
2143.358376766091
1001
REVIT
1002
{
1070
     3
1000
938184
1002
}
  0
LINE
  5
C5
330
87
100
AcDbEntity
  8
M-PIPE
100
AcDbLine
 10
842.1054375527678
 20
2146.858376766092
 30
0.0
 11
836.795783748078
 21
2146.858376766092
 31
0.0
1001
REVIT
1002
{
1070
     3
1000
938184
1002
}
  0
LINE
  5
C6
330
87
100
AcDbEntity
  8
M-PIPE
100
AcDbLine
 10
786.538502336767
 20
2090.858376766075
 30
0.0
 11
786.1674667842121
 21
2090.858376766075
 31
0.0
1001
REVIT
1002
{
1070
     3
1000
938184
1002
}
  0
LINE
  5
C7
330
87
100
AcDbEntity
  8
M-PIPE
100
AcDbLine
 10
786.1674667842121
 20
2090.858376766075
 30
0.0
 11
785.166407443158
 21
2090.858376766075
 31
0.0
1001
REVIT
1002
{
1070
     3
1000
938184
1002
}
  0
LINE
  5
C8
330
87
100
AcDbEntity
  8
M-PIPE
100
AcDbLine
 10
846.166407443218
 20
2090.858376766075
 30
0.0
 11
845.1653481021638
 21
2090.858376766075
 31
0.0
1001
REVIT
1002
{
1070
     3
1000
938184
1002
}
  0
LINE
  5
C9
330
87
100
AcDbEntity
  8
M-PIPE
100
AcDbLine
 10
845.165348102164
 20
2090.858376766075
 30
0.0
 11
844.794312549612
 21
2090.858376766075
 31
0.0
1001
REVIT
1002
{
1070
     3
1000
938184
1002
}
  0
LINE
  5
CA
330
87
100
AcDbEntity
  8
M-PIPE
100
AcDbLine
 10
791.7314306836316
 20
2143.358376766091
 30
0.0
 11
791.7314306836312
 21
2098.708458444524
 31
0.0
1001
REVIT
1002
{
1070
     3
1000
938184
1002
}
  0
LINE
  5
CB
330
87
100
AcDbEntity
  8
M-PIPE
100
AcDbLine
 10
839.6013842027791
 20
2098.708458444524
 30
0.0
 11
839.6013842027793
 21
2143.35837676609
 31
0.0
1001
REVIT
1002
{
1070
     3
1000
938184
1002
}
  0
LINE
  5
CC
330
87
100
AcDbEntity
  8
M-PIPE
100
AcDbLine
 10
845.1653481021638
 20
2090.858376766075
 30
0.0
 11
845.165348102164
 21
2143.35837676609
 31
0.0
1001
REVIT
1002
{
1070
     3
1000
938184
1002
}
  0
LINE
  5
CD
330
87
100
AcDbEntity
  8
M-PIPE
100
AcDbLine
 10
786.1674667842121
 20
2090.858376766075
 30
0.0
 11
786.1674667842123
 21
2143.358376766091
 31
0.0
1001
REVIT
1002
{
1070
     3
1000
938184
1002
}
  0
SPLINE
  5
CE
330
87
100
AcDbEntity
  8
M-PIPE
100
AcDbSpline
210
0.0
220
0.0
230
1.0
 70
     8
 71
     3
 72
    14
 73
    10
 74
     0
 42
0.000000001
 43
0.0000000001
 40
0.0
 40
0.0
 40
0.0
 40
0.0
 40
0.1428571428571428
 40
0.2857142857142857
 40
0.4285714285714286
 40
0.5714285714285714
 40
0.6785714285714287
 40
0.7857142857142857
 40
1.0
 40
1.0
 40
1.0
 40
1.0
 10
789.2273773336098
 20
2146.85837676609
 30
0.0
 10
789.0054029981406
 20
2146.85837676609
 30
0.0
 10
788.5651645425855
 20
2146.805282958757
 30
0.0
 10
787.9284287808531
 20
2146.564658188186
 30
0.0
 10
787.3479658048899
 20
2146.167072063697
 30
0.0
 10
786.8924822362227
 20
2145.667692134767
 30
0.0
 10
786.5604582405453
 20
2145.120438623474
 30
0.0
 10
786.2627923749434
 20
2144.384856995342
 30
0.0
 10
786.1681539418277
 20
2143.770567637632
 30
0.0
 10
786.1674667842123
 20
2143.35837676609
 30
0.0
1001
REVIT
1002
{
1070
     3
1000
938184
1002
}
  0
SPLINE
  5
CF
330
87
100
AcDbEntity
  8
M-PIPE
100
AcDbSpline
210
0.0
220
0.0
230
1.0
 70
     8
 71
     3
 72
     8
 73
     4
 74
     0
 42
0.000000001
 43
0.0000000001
 40
0.0
 40
0.0
 40
0.0
 40
0.0
 40
0.0527943524398256
 40
0.0527943524398256
 40
0.0527943524398256
 40
0.0527943524398256
 10
795.4492833782848
 20
2146.85837676609
 30
0.0
 10
795.3769893715966
 20
2146.85837676609
 30
0.0
 10
795.3049190042165
 20
2146.854568448319
 30
0.0
 10
795.2331940413221
 20
2146.846953906869
 30
0.0
1001
REVIT
1002
{
1070
     3
1000
938184
1002
}
  0
SPLINE
  5
D0
330
87
100
AcDbEntity
  8
M-PIPE
100
AcDbSpline
210
0.0
220
0.0
230
1.0
 70
     8
 71
     3
 72
     8
 73
     4
 74
     0
 42
0.000000001
 43
0.0000000001
 40
-1.0
 40
-1.0
 40
-1.0
 40
-1.0
 40
-0.948618624141056
 40
-0.948618624141056
 40
-0.948618624141056
 40
-0.948618624141056
 10
835.8835315081281
 20
2146.85837676609
 30
0.0
 10
835.9568724207916
 20
2146.85837676609
 30
0.0
 10
836.0297936267468
 20
2146.854581111682
 30
0.0
 10
836.1021091895334
 20
2146.847022392135
 30
0.0
1001
REVIT
1002
{
1070
     3
1000
938184
1002
}
  0
SPLINE
  5
D1
330
87
100
AcDbEntity
  8
M-PIPE
100
AcDbSpline
210
0.0
220
0.0
230
1.0
 70
     8
 71
     3
 72
    13
 73
     9
 74
     0
 42
0.000000001
 43
0.0000000001
 40
-1.0
 40
-1.0
 40
-1.0
 40
-1.0
 40
-0.8333333333333332
 40
-0.6666666666666666
 40
-0.5
 40
-0.3333333333333333
 40
-0.1666666666666666
 40
0.0
 40
0.0
 40
0.0
 40
0.0
 10
842.1054375527665
 20
2146.85837676609
 30
0.0
 10
842.3854373076297
 20
2146.85837676609
 30
0.0
 10
842.9299703777761
 20
2146.777956927206
 30
0.0
 10
843.6629128245963
 20
2146.424288554255
 30
0.0
 10
844.3017588814726
 20
2145.861682931787
 30
0.0
 10
844.7932262927553
 20
2145.128482720056
 30
0.0
 10
845.0898409053996
 20
2144.27464678453
 30
0.0
 10
845.1622273587757
 20
2143.66380938519
 30
0.0
 10
845.165348102164
 20
2143.35837676609
 30
0.0
1001
REVIT
1002
{
1070
     3
1000
938184
1002
}
  0
SPLINE
  5
D2
330
87
100
AcDbEntity
  8
M-PIPE
100
AcDbSpline
210
0.0
220
0.0
230
1.0
 70
     8
 71
     3
 72
    10
 73
     6
 74
     0
 42
0.000000001
 43
0.0000000001
 40
0.0
 40
0.0
 40
0.0
 40
0.0
 40
0.1666666666666666
 40
0.25
 40
0.3333333333333333
 40
0.3333333333333333
 40
0.3333333333333333
 40
0.3333333333333333
 10
791.7314306836316
 20
2143.358376766091
 30
0.0
 10
791.7292082558778
 20
2143.655932957165
 30
0.0
 10
791.771330572331
 20
2144.10522848347
 30
0.0
 10
791.9197030536332
 20
2144.680649557241
 30
0.0
 10
792.0226911290567
 20
2144.954865423594
 30
0.0
 10
792.0826241881248
 20
2145.087873479763
 30
0.0
1001
REVIT
1002
{
1070
     3
1000
938184
1002
}
  0
SPLINE
  5
D3
330
87
100
AcDbEntity
  8
M-PIPE
100
AcDbSpline
210
0.0
220
0.0
230
1.0
 70
     8
 71
     3
 72
    11
 73
     7
 74
     0
 42
0.000000001
 43
0.0000000001
 40
0.3340264336878351
 40
0.3340264336878351
 40
0.3340264336878351
 40
0.3340264336878351
 40
0.5
 40
0.6666666666666666
 40
0.8333333333333332
 40
1.0
 40
1.0
 40
1.0
 40
1.0
 10
792.0841213651945
 20
2145.09119139351
 30
0.0
 10
792.2037684188372
 20
2145.355965197869
 30
0.0
 10
792.5105685034885
 20
2145.853917257477
 30
0.0
 10
793.1112277742506
 20
2146.426240931235
 30
0.0
 10
793.786609862581
 20
2146.778707550356
 30
0.0
 10
794.2835523532148
 20
2146.85837676609
 30
0.0
 10
794.5370311383326
 20
2146.85837676609
 30
0.0
1001
REVIT
1002
{
1070
     3
1000
938184
1002
}
  0
SPLINE
  5
D4
330
87
100
AcDbEntity
  8
M-PIPE
100
AcDbSpline
210
0.0
220
0.0
230
1.0
 70
     8
 71
     3
 72
    13
 73
     9
 74
     0
 42
0.000000001
 43
0.0000000001
 40
0.0
 40
0.0
 40
0.0
 40
0.0
 40
0.1428571428571428
 40
0.2857142857142857
 40
0.4285714285714286
 40
0.5714285714285714
 40
0.7857142857142857
 40
1.0
 40
1.0
 40
1.0
 40
1.0
 10
836.7957837480767
 20
2146.85837676609
 30
0.0
 10
837.0022783499971
 20
2146.85837676609
 30
0.0
 10
837.4116929806252
 20
2146.80365534975
 30
0.0
 10
838.0014901068129
 20
2146.556729784725
 30
0.0
 10
838.5352117244199
 20
2146.151577388363
 30
0.0
 10
839.0634265629422
 20
2145.510338642854
 30
0.0
 10
839.4889835603072
 20
2144.572030775442
 30
0.0
 10
839.600950735827
 20
2143.763947875986
 30
0.0
 10
839.6013842027793
 20
2143.35837676609
 30
0.0
1001
REVIT
1002
{
1070
     3
1000
938184
1002
}
  0
LINE
  5
D5
330
87
100
AcDbEntity
  8
M-PIPE
100
AcDbLine
 10
786.5328763612905
 20
2090.858376766139
 30
0.0
 11
844.7999385250883
 21
2090.858376766138
 31
0.0
1001
REVIT
1002
{
1070
     3
1000
938184
1002
}
  0
LINE
  5
D6
330
87
100
AcDbEntity
  8
M-PIPE
100
AcDbLine
 10
844.7999385250886
 20
2098.708458444524
 30
0.0
 11
786.5328763612905
 21
2098.708458444525
 31
0.0
1001
REVIT
1002
{
1070
     3
1000
938184
1002
}
  0
LINE
  5
D7
330
87
100
AcDbEntity
  8
M-PIPE
100
AcDbLine
 10
746.36245181806
 20
2039.758376766139
 30
0.0
 11
746.36245181806
 21
2022.758376766139
 31
0.0
1001
REVIT
1002
{
1070
     3
1000
790271
1002
}
  0
LINE
  5
D8
330
87
100
AcDbEntity
  8
M-PIPE
100
AcDbLine
 10
764.8158831790734
 20
2039.758376766139
 30
0.0
 11
764.8158831790734
 21
2022.758376766139
 31
0.0
1001
REVIT
1002
{
1070
     3
1000
790271
1002
}
  0
LINE
  5
D9
330
87
100
AcDbEntity
  8
M-PIPE
100
AcDbLine
 10
866.4916175594393
 20
2022.758376766139
 30
0.0
 11
866.4916175594395
 21
2039.758376766137
 31
0.0
1001
REVIT
1002
{
1070
     3
1000
790271
1002
}
  0
LINE
  5
DA
330
87
100
AcDbEntity
  8
M-PIPE
100
AcDbLine
 10
884.9724246024859
 20
2022.758376766139
 30
0.0
 11
884.9724246024859
 21
2039.758376766137
 31
0.0
1001
REVIT
1002
{
1070
     3
1000
790271
1002
}
  0
LINE
  5
DB
330
87
100
AcDbEntity
  8
M-PIPE
100
AcDbLine
 10
758.1624518180599
 20
2042.258376766139
 30
0.0
 11
758.1624518180599
 21
2039.758376766139
 31
0.0
1001
REVIT
1002
{
1070
     3
1000
790271
1002
}
  0
LINE
  5
DC
330
87
100
AcDbEntity
  8
M-PIPE
100
AcDbLine
 10
873.1703630683183
 20
2039.758376766138
 30
0.0
 11
873.1703630683183
 21
2042.258376766138
 31
0.0
1001
REVIT
1002
{
1070
     3
1000
790271
1002
}
  0
LINE
  5
DD
330
87
100
AcDbEntity
  8
M-PIPE
100
AcDbLine
 10
766.7615529299252
 20
2045.258376766139
 30
0.0
 11
758.1624518180599
 21
2042.258376766139
 31
0.0
1001
REVIT
1002
{
1070
     3
1000
790271
1002
}
  0
LINE
  5
DE
330
87
100
AcDbEntity
  8
M-PIPE
100
AcDbLine
 10
873.1703630683183
 20
2042.258376766138
 30
0.0
 11
864.5712619564532
 21
2045.258376766137
 31
0.0
1001
REVIT
1002
{
1070
     3
1000
790271
1002
}
  0
LINE
  5
DF
330
87
100
AcDbEntity
  8
M-PIPE
100
AcDbLine
 10
852.1664074431894
 20
2062.608376766139
 30
0.0
 11
843.3282431919819
 21
2062.608376766139
 31
0.0
1001
REVIT
1002
{
1070
     3
1000
790271
1002
}
  0
LINE
  5
E0
330
87
100
AcDbEntity
  8
M-PIPE
100
AcDbLine
 10
843.3282431919769
 20
2048.608376766139
 30
0.0
 11
852.1664074431894
 21
2048.608376766138
 31
0.0
1001
REVIT
1002
{
1070
     3
1000
790271
1002
}
  0
LINE
  5
E1
330
87
100
AcDbEntity
  8
M-PIPE
100
AcDbLine
 10
843.1664074431822
 20
2045.258376766138
 30
0.0
 11
843.3282431919769
 21
2048.608376766139
 31
0.0
1001
REVIT
1002
{
1070
     3
1000
790271
1002
}
  0
LINE
  5
E2
330
87
100
AcDbEntity
  8
M-PIPE
100
AcDbLine
 10
787.6664074431894
 20
2055.608376766139
 30
0.0
 11
788.1664074431963
 21
2045.258376766139
 31
0.0
1001
REVIT
1002
{
1070
     3
1000
790271
1002
}
  0
LINE
  5
E3
330
87
100
AcDbEntity
  8
M-PIPE
100
AcDbLine
 10
788.1664074431896
 20
2065.958376766139
 30
0.0
 11
787.6664074431894
 21
2055.608376766139
 31
0.0
1001
REVIT
1002
{
1070
     3
1000
790271
1002
}
  0
LINE
  5
E4
330
87
100
AcDbEntity
  8
M-PIPE
100
AcDbLine
 10
843.3282431919819
 20
2062.608376766139
 30
0.0
 11
843.1664074431894
 21
2065.958376766139
 31
0.0
1001
REVIT
1002
{
1070
     3
1000
790271
1002
}
  0
LINE
  5
E5
330
87
100
AcDbEntity
  8
M-PIPE
100
AcDbLine
 10
843.1664074431896
 20
2065.958376766139
 30
0.0
 11
843.1664074431896
 21
2069.958376766075
 31
0.0
1001
REVIT
1002
{
1070
     3
1000
790271
1002
}
  0
LINE
  5
E6
330
87
100
AcDbEntity
  8
M-PIPE
100
AcDbLine
 10
788.1664074431896
 20
2069.958376766077
 30
0.0
 11
788.1664074431894
 21
2065.958376766139
 31
0.0
1001
REVIT
1002
{
1070
     3
1000
790271
1002
}
  0
LINE
  5
E7
330
87
100
AcDbEntity
  8
M-PIPE
100
AcDbLine
 10
839.6664074431896
 20
2073.458376766076
 30
0.0
 11
839.6664074431898
 21
2085.858376766076
 31
0.0
1001
REVIT
1002
{
1070
     3
1000
790271
1002
}
  0
LINE
  5
E8
330
87
100
AcDbEntity
  8
M-PIPE
100
AcDbLine
 10
791.66640744319
 20
2085.858376766076
 30
0.0
 11
791.6664074431897
 21
2073.458376766076
 31
0.0
1001
REVIT
1002
{
1070
     3
1000
790271
1002
}
  0
LINE
  5
E9
330
87
100
AcDbEntity
  8
M-PIPE
100
AcDbLine
 10
843.1664074431896
 20
2069.958376766075
 30
0.0
 11
839.6664074431898
 21
2073.458376766076
 31
0.0
1001
REVIT
1002
{
1070
     3
1000
790271
1002
}
  0
LINE
  5
EA
330
87
100
AcDbEntity
  8
M-PIPE
100
AcDbLine
 10
791.6664074431897
 20
2073.458376766076
 30
0.0
 11
788.1664074431896
 21
2069.958376766077
 31
0.0
1001
REVIT
1002
{
1070
     3
1000
790271
1002
}
  0
LINE
  5
EB
330
87
100
AcDbEntity
  8
M-PIPE
100
AcDbLine
 10
839.6664074431898
 20
2085.858376766076
 30
0.0
 11
844.6664074431899
 21
2090.858376766076
 31
0.0
1001
REVIT
1002
{
1070
     3
1000
790271
1002
}
  0
LINE
  5
EC
330
87
100
AcDbEntity
  8
M-PIPE
100
AcDbLine
 10
786.6664074431902
 20
2090.858376766076
 30
0.0
 11
791.6664074431897
 21
2085.858376766076
 31
0.0
1001
REVIT
1002
{
1070
     3
1000
790271
1002
}
  0
LINE
  5
ED
330
87
100
AcDbEntity
  8
M-PIPE
100
AcDbLine
 10
749.5124518180589
 20
2039.758376766139
 30
0.0
 11
746.3624518180588
 21
2039.758376766139
 31
0.0
1001
REVIT
1002
{
1070
     3
1000
790271
1002
}
  0
LINE
  5
EE
330
87
100
AcDbEntity
  8
M-PIPE
100
AcDbLine
 10
755.304498924665
 20
2039.758376766138
 30
0.0
 11
749.5124518180588
 21
2039.758376766139
 31
0.0
1001
REVIT
1002
{
1070
     3
1000
790271
1002
}
  0
LINE
  5
EF
330
87
100
AcDbEntity
  8
M-PIPE
100
AcDbLine
 10
779.2066322788006
 20
2039.758376766137
 30
0.0
 11
772.7464431632182
 21
2039.758376766137
 31
0.0
1001
REVIT
1002
{
1070
     3
1000
790271
1002
}
  0
LINE
  5
F0
330
87
100
AcDbEntity
  8
M-PIPE
100
AcDbLine
 10
806.8664074431984
 20
2039.758376766137
 30
0.0
 11
779.2066322788
 21
2039.758376766137
 31
0.0
1001
REVIT
1002
{
1070
     3
1000
790271
1002
}
  0
LINE
  5
F1
330
87
100
AcDbEntity
  8
M-PIPE
100
AcDbLine
 10
779.2066322788002
 20
2022.758376766138
 30
0.0
 11
779.2066322788005
 21
2039.758376766137
 31
0.0
1001
REVIT
1002
{
1070
     3
1000
790271
1002
}
  0
LINE
  5
F2
330
87
100
AcDbEntity
  8
M-PIPE
100
AcDbLine
 10
766.761552929924
 20
2045.258376766138
 30
0.0
 11
864.571261956452
 21
2045.258376766136
 31
0.0
1001
REVIT
1002
{
1070
     3
1000
790271
1002
}
  0
LINE
  5
F3
330
87
100
AcDbEntity
  8
M-PIPE
100
AcDbLine
 10
884.9724246024846
 20
2022.758376766137
 30
0.0
 11
881.8224246024845
 21
2022.758376766137
 31
0.0
1001
REVIT
1002
{
1070
     3
1000
790271
1002
}
  0
LINE
  5
F4
330
87
100
AcDbEntity
  8
M-PIPE
100
AcDbLine
 10
881.8224246024845
 20
2022.758376766137
 30
0.0
 11
876.0258710495479
 21
2022.758376766137
 31
0.0
1001
REVIT
1002
{
1070
     3
1000
790271
1002
}
  0
LINE
  5
F5
330
87
100
AcDbEntity
  8
M-PIPE
100
AcDbLine
 10
876.0258710495479
 20
2022.758376766137
 30
0.0
 11
866.5290171339973
 21
2022.758376766137
 31
0.0
1001
REVIT
1002
{
1070
     3
1000
790271
1002
}
  0
LINE
  5
F6
330
87
100
AcDbEntity
  8
M-PIPE
100
AcDbLine
 10
866.4916175594381
 20
2022.758376766137
 30
0.0
 11
858.5610575752923
 21
2022.758376766137
 31
0.0
1001
REVIT
1002
{
1070
     3
1000
790271
1002
}
  0
LINE
  5
F7
330
87
100
AcDbEntity
  8
M-PIPE
100
AcDbLine
 10
858.5610575752923
 20
2022.758376766137
 30
0.0
 11
852.085985393813
 21
2022.758376766137
 31
0.0
1001
REVIT
1002
{
1070
     3
1000
790271
1002
}
  0
LINE
  5
F8
330
87
100
AcDbEntity
  8
M-PIPE
100
AcDbLine
 10
852.085985393813
 20
2022.758376766137
 30
0.0
 11
824.4664074431996
 21
2022.758376766138
 31
0.0
1001
REVIT
1002
{
1070
     3
1000
790271
1002
}
  0
LINE
  5
F9
330
87
100
AcDbEntity
  8
M-PIPE
100
AcDbLine
 10
824.4664074432
 20
2022.758376766138
 30
0.0
 11
821.1223674870421
 21
2022.758376766138
 31
0.0
1001
REVIT
1002
{
1070
     3
1000
790271
1002
}
  0
LINE
  5
FA
330
87
100
AcDbEntity
  8
M-PIPE
100
AcDbLine
 10
821.1223674870421
 20
2022.758376766138
 30
0.0
 11
810.2104473993581
 21
2022.758376766138
 31
0.0
1001
REVIT
1002
{
1070
     3
1000
790271
1002
}
  0
LINE
  5
FB
330
87
100
AcDbEntity
  8
M-PIPE
100
AcDbLine
 10
810.2104473993581
 20
2022.758376766138
 30
0.0
 11
806.8664074431991
 21
2022.758376766138
 31
0.0
1001
REVIT
1002
{
1070
     3
1000
790271
1002
}
  0
LINE
  5
FC
330
87
100
AcDbEntity
  8
M-PIPE
100
AcDbLine
 10
779.2066322788002
 20
2022.758376766138
 30
0.0
 11
806.8664074431987
 21
2022.758376766138
 31
0.0
1001
REVIT
1002
{
1070
     3
1000
790271
1002
}
  0
LINE
  5
FD
330
87
100
AcDbEntity
  8
M-PIPE
100
AcDbLine
 10
772.7464431632181
 20
2022.758376766138
 30
0.0
 11
779.2066322788007
 21
2022.758376766138
 31
0.0
1001
REVIT
1002
{
1070
     3
1000
790271
1002
}
  0
LINE
  5
FE
330
87
100
AcDbEntity
  8
M-PIPE
100
AcDbLine
 10
772.7464431632182
 20
2022.758376766138
 30
0.0
 11
764.8158831790722
 21
2022.758376766138
 31
0.0
1001
REVIT
1002
{
1070
     3
1000
790271
1002
}
  0
LINE
  5
FF
330
87
100
AcDbEntity
  8
M-PIPE
100
AcDbLine
 10
764.7786071627035
 20
2022.758376766138
 30
0.0
 11
755.3044989246652
 21
2022.758376766138
 31
0.0
1001
REVIT
1002
{
1070
     3
1000
790271
1002
}
  0
LINE
  5
100
330
87
100
AcDbEntity
  8
M-PIPE
100
AcDbLine
 10
749.5124518180588
 20
2022.758376766138
 30
0.0
 11
755.3044989246651
 21
2022.758376766138
 31
0.0
1001
REVIT
1002
{
1070
     3
1000
790271
1002
}
  0
LINE
  5
101
330
87
100
AcDbEntity
  8
M-PIPE
100
AcDbLine
 10
746.3624518180588
 20
2022.758376766138
 30
0.0
 11
749.5124518180588
 21
2022.758376766138
 31
0.0
1001
REVIT
1002
{
1070
     3
1000
790271
1002
}
  0
LINE
  5
102
330
87
100
AcDbEntity
  8
M-PIPE
100
AcDbLine
 10
764.7786071627035
 20
2039.758376766137
 30
0.0
 11
755.3044989246652
 21
2039.758376766138
 31
0.0
1001
REVIT
1002
{
1070
     3
1000
790271
1002
}
  0
LINE
  5
103
330
87
100
AcDbEntity
  8
M-PIPE
100
AcDbLine
 10
755.3044989246652
 20
2022.758376766138
 30
0.0
 11
755.3044989246652
 21
2039.758376766138
 31
0.0
1001
REVIT
1002
{
1070
     3
1000
790271
1002
}
  0
LINE
  5
104
330
87
100
AcDbEntity
  8
M-PIPE
100
AcDbLine
 10
772.7464431632182
 20
2039.758376766137
 30
0.0
 11
764.8158831790724
 21
2039.758376766137
 31
0.0
1001
REVIT
1002
{
1070
     3
1000
790271
1002
}
  0
LINE
  5
105
330
87
100
AcDbEntity
  8
M-PIPE
100
AcDbLine
 10
810.2104473993581
 20
2039.758376766137
 30
0.0
 11
806.8664074431993
 21
2039.758376766137
 31
0.0
1001
REVIT
1002
{
1070
     3
1000
790271
1002
}
  0
LINE
  5
106
330
87
100
AcDbEntity
  8
M-PIPE
100
AcDbLine
 10
806.8664074431991
 20
2022.758376766138
 30
0.0
 11
806.8664074431993
 21
2039.758376766137
 31
0.0
1001
REVIT
1002
{
1070
     3
1000
790271
1002
}
  0
LINE
  5
107
330
87
100
AcDbEntity
  8
M-PIPE
100
AcDbLine
 10
821.1223674870421
 20
2039.758376766136
 30
0.0
 11
810.2104473993581
 21
2039.758376766136
 31
0.0
1001
REVIT
1002
{
1070
     3
1000
790271
1002
}
  0
LINE
  5
108
330
87
100
AcDbEntity
  8
M-PIPE
100
AcDbLine
 10
824.4664074431998
 20
2039.758376766136
 30
0.0
 11
821.1223674870421
 21
2039.758376766136
 31
0.0
1001
REVIT
1002
{
1070
     3
1000
790271
1002
}
  0
LINE
  5
109
330
87
100
AcDbEntity
  8
M-PIPE
100
AcDbLine
 10
852.0859853938125
 20
2039.758376766136
 30
0.0
 11
824.4664074431989
 21
2039.758376766136
 31
0.0
1001
REVIT
1002
{
1070
     3
1000
790271
1002
}
  0
LINE
  5
10A
330
87
100
AcDbEntity
  8
M-PIPE
100
AcDbLine
 10
824.4664074431993
 20
2022.758376766138
 30
0.0
 11
824.4664074431993
 21
2039.758376766136
 31
0.0
1001
REVIT
1002
{
1070
     3
1000
790271
1002
}
  0
LINE
  5
10B
330
87
100
AcDbEntity
  8
M-PIPE
100
AcDbLine
 10
858.5610575752923
 20
2039.758376766136
 30
0.0
 11
852.0859853938132
 21
2039.758376766136
 31
0.0
1001
REVIT
1002
{
1070
     3
1000
790271
1002
}
  0
LINE
  5
10C
330
87
100
AcDbEntity
  8
M-PIPE
100
AcDbLine
 10
852.085985393813
 20
2022.758376766137
 30
0.0
 11
852.0859853938132
 21
2039.758376766136
 31
0.0
1001
REVIT
1002
{
1070
     3
1000
790271
1002
}
  0
LINE
  5
10D
330
87
100
AcDbEntity
  8
M-PIPE
100
AcDbLine
 10
866.4916175594381
 20
2039.758376766136
 30
0.0
 11
858.5610575752923
 21
2039.758376766136
 31
0.0
1001
REVIT
1002
{
1070
     3
1000
790271
1002
}
  0
LINE
  5
10E
330
87
100
AcDbEntity
  8
M-PIPE
100
AcDbLine
 10
876.0258710495479
 20
2039.758376766136
 30
0.0
 11
866.5290171339975
 21
2039.758376766137
 31
0.0
1001
REVIT
1002
{
1070
     3
1000
790271
1002
}
  0
LINE
  5
10F
330
87
100
AcDbEntity
  8
M-PIPE
100
AcDbLine
 10
881.8224246024845
 20
2039.758376766136
 30
0.0
 11
876.0258710495481
 21
2039.758376766136
 31
0.0
1001
REVIT
1002
{
1070
     3
1000
790271
1002
}
  0
LINE
  5
110
330
87
100
AcDbEntity
  8
M-PIPE
100
AcDbLine
 10
876.0258710495479
 20
2022.758376766137
 30
0.0
 11
876.0258710495481
 21
2039.758376766136
 31
0.0
1001
REVIT
1002
{
1070
     3
1000
790271
1002
}
  0
LINE
  5
111
330
87
100
AcDbEntity
  8
M-PIPE
100
AcDbLine
 10
884.9724246024846
 20
2039.758376766136
 30
0.0
 11
881.8224246024847
 21
2039.758376766137
 31
0.0
1001
REVIT
1002
{
1070
     3
1000
790271
1002
}
  0
LINE
  5
112
330
87
100
AcDbEntity
  8
M-PIPE
100
AcDbLine
 10
873.1703630683169
 20
2042.258376766137
 30
0.0
 11
758.1624518180589
 21
2042.258376766138
 31
0.0
1001
REVIT
1002
{
1070
     3
1000
790271
1002
}
  0
LINE
  5
113
330
87
100
AcDbEntity
  8
M-PIPE
100
AcDbLine
 10
852.1664074431882
 20
2062.608376766138
 30
0.0
 11
852.1664074431882
 21
2048.608376766138
 31
0.0
1001
REVIT
1002
{
1070
     3
1000
790271
1002
}
  0
SPLINE
  5
114
330
87
100
AcDbEntity
  8
M-PIPE
100
AcDbSpline
210
0.0
220
0.0
230
1.0
 70
     8
 71
     3
 72
    17
 73
    13
 74
     0
 42
0.000000001
 43
0.0000000001
 40
0.0
 40
0.0
 40
0.0
 40
0.0
 40
0.1428571428571428
 40
0.2857142857142857
 40
0.3571428571428571
 40
0.4285714285714286
 40
0.5
 40
0.5714285714285714
 40
0.6428571428571428
 40
0.7142857142857144
 40
0.8571428571428571
 40
1.0
 40
1.0
 40
1.0
 40
1.0
 10
842.7772908666401
 20
2055.608376766138
 30
0.0
 10
842.7521770481227
 20
2055.084206276816
 30
0.0
 10
842.7293145635836
 20
2054.036042109578
 30
0.0
 10
842.7762622659338
 20
2052.79036355844
 30
0.0
 10
842.8463326444164
 20
2051.873210978158
 30
0.0
 10
842.9102338432683
 20
2051.232621981965
 30
0.0
 10
842.9820552697396
 20
2050.647621945461
 30
0.0
 10
843.0567544783082
 20
2050.124770842556
 30
0.0
 10
843.1292269917967
 20
2049.670397053773
 30
0.0
 10
843.2183887342677
 20
2049.163358700907
 30
0.0
 10
843.3041801270983
 20
2048.727085711062
 30
0.0
 10
843.3268498526649
 20
2048.608376766138
 30
0.0
 10
843.3282431919757
 20
2048.608376766138
 30
0.0
1001
REVIT
1002
{
1070
     3
1000
790271
1002
}
  0
LINE
  5
115
330
87
100
AcDbEntity
  8
M-PIPE
100
AcDbLine
 10
842.7772908666401
 20
2055.608376766137
 30
0.0
 11
787.6664074431881
 21
2055.608376766138
 31
0.0
1001
REVIT
1002
{
1070
     3
1000
790271
1002
}
  0
SPLINE
  5
116
330
87
100
AcDbEntity
  8
M-PIPE
100
AcDbSpline
210
0.0
220
0.0
230
1.0
 70
     8
 71
     3
 72
    17
 73
    13
 74
     0
 42
0.000000001
 43
0.0000000001
 40
0.0
 40
0.0
 40
0.0
 40
0.0
 40
0.1428571428571428
 40
0.2857142857142857
 40
0.3571428571428571
 40
0.4285714285714286
 40
0.5
 40
0.5714285714285714
 40
0.6428571428571428
 40
0.7142857142857144
 40
0.8571428571428572
 40
1.0
 40
1.0
 40
1.0
 40
1.0
 10
843.3282431919804
 20
2062.608376766138
 30
0.0
 10
843.3268498526699
 20
2062.608376766138
 30
0.0
 10
843.3041801271032
 20
2062.489667821214
 30
0.0
 10
843.2183887342723
 20
2062.053394831369
 30
0.0
 10
843.129226991801
 20
2061.546356478503
 30
0.0
 10
843.0567544783121
 20
2061.09198268972
 30
0.0
 10
842.9820552697432
 20
2060.569131586815
 30
0.0
 10
842.9102338432715
 20
2059.984131550311
 30
0.0
 10
842.8463326444191
 20
2059.343542554117
 30
0.0
 10
842.7762622659358
 20
2058.426389973835
 30
0.0
 10
842.7293145635848
 20
2057.180711422697
 30
0.0
 10
842.7521770481231
 20
2056.132547255459
 30
0.0
 10
842.7772908666401
 20
2055.608376766138
 30
0.0
1001
REVIT
1002
{
1070
     3
1000
790271
1002
}
  0
LINE
  5
117
330
87
100
AcDbEntity
  8
M-PIPE
100
AcDbLine
 10
843.1664074431882
 20
2065.958376766138
 30
0.0
 11
788.1664074431884
 21
2065.958376766138
 31
0.0
1001
REVIT
1002
{
1070
     3
1000
790271
1002
}
  0
LINE
  5
118
330
87
100
AcDbEntity
  8
M-PIPE
100
AcDbLine
 10
791.6664074431885
 20
2073.458376766075
 30
0.0
 11
839.6664074431882
 21
2073.458376766075
 31
0.0
1001
REVIT
1002
{
1070
     3
1000
790271
1002
}
  0
LINE
  5
119
330
87
100
AcDbEntity
  8
M-PIPE
100
AcDbLine
 10
843.1664074431882
 20
2069.958376766075
 30
0.0
 11
788.1664074431884
 21
2069.958376766075
 31
0.0
1001
REVIT
1002
{
1070
     3
1000
790271
1002
}
  0
LINE
  5
11A
330
87
100
AcDbEntity
  8
M-PIPE
100
AcDbLine
 10
839.6664074431885
 20
2085.858376766075
 30
0.0
 11
791.6664074431886
 21
2085.858376766076
 31
0.0
1001
REVIT
1002
{
1070
     3
1000
790271
1002
}
  0
ARC
  5
11B
330
87
100
AcDbEntity
  8
P-SANR-FIXT
100
AcDbCircle
 10
788.1664074431877
 20
1970.85837676614
 30
0.0
 40
9.0
100
AcDbArc
 50
180.0
 51
0.0
  0
ARC
  5
11C
330
87
100
AcDbEntity
  8
P-SANR-FIXT
100
AcDbCircle
 10
788.1664074431877
 20
1970.85837676614
 30
0.0
 40
9.0
100
AcDbArc
 50
0.0
 51
180.0
  0
ARC
  5
11D
330
87
100
AcDbEntity
  8
P-SANR-FIXT
100
AcDbCircle
 10
843.1664074431875
 20
1970.85837676614
 30
0.0
 40
8.999999999999886
100
AcDbArc
 50
180.0
 51
0.0
  0
ARC
  5
11E
330
87
100
AcDbEntity
  8
P-SANR-FIXT
100
AcDbCircle
 10
843.1664074431875
 20
1970.85837676614
 30
0.0
 40
9.0
100
AcDbArc
 50
0.0
 51
180.0
  0
LINE
  5
11F
330
87
100
AcDbEntity
  8
P-SANR-FIXT
100
AcDbLine
 10
841.666407443189
 20
1996.858376766141
 30
0.0
 11
841.666407443189
 21
2011.558376766141
 31
0.0
  0
LINE
  5
120
330
87
100
AcDbEntity
  8
P-SANR-FIXT
100
AcDbLine
 10
789.666407443189
 20
2011.558376766141
 30
0.0
 11
789.666407443189
 21
1996.937499999998
 31
0.0
  0
LINE
  5
121
330
87
100
AcDbEntity
  8
P-SANR-FIXT
100
AcDbLine
 10
848.1664074431892
 20
1996.858376766141
 30
0.0
 11
841.666407443189
 21
1996.858376766141
 31
0.0
  0
LINE
  5
122
330
87
100
AcDbEntity
  8
P-SANR-FIXT
100
AcDbLine
 10
818.8693661757936
 20
1944.858376766141
 30
0.0
 11
848.1664074431892
 21
1944.858376766141
 31
0.0
  0
LWPOLYLINE
  5
123
330
87
100
AcDbEntity
  8
P-SANR-FIXT
100
AcDbPolyline
 90
       22
 70
   128
 43
0.0
 10
818.8693661757936
 20
1944.858376766141
 10
817.8496381540345
 20
1944.878774046286
 10
816.8315414795797
 20
1944.939933255424
 10
815.8167048899262
 20
1945.041756551867
 10
814.8067519071304
 20
1945.184081040062
 10
813.8032982405196
 20
1945.366679031189
 10
812.8079492019017
 20
1945.589258407414
 10
811.8222971374086
 20
1945.851463089216
 10
810.8479188800826
 20
1946.152873605038
 10
809.8863732272787
 20
1946.493007762353
 10
808.939198446923
 20
1946.871321419067
 10
808.0079098166105
 20
1947.287209354032
 10
807.0939971994857
 20
1947.740006235269
 10
806.1989226607785
 20
1948.228987684361
 10
805.3241181288111
 20
1948.753371435299
 10
804.4709831042201
 20
1949.312318585944
 10
803.6408824210527
 20
1949.904934940091
 10
802.8351440633226
 20
1950.530272437992
 10
802.0550570405211
 20
1951.187330673048
 10
801.3018693254744
 20
1951.875058492248
 10
800.5767858578559
 20
1952.592355677788
 10
799.9162373492236
 20
1953.298807378743
  0
LWPOLYLINE
  5
124
330
87
100
AcDbEntity
  8
P-SANR-FIXT
100
AcDbPolyline
 90
       41
 70
   128
 43
0.0
 10
795.766407443189
 20
1946.779253532283
 10
795.764807656511
 20
1946.69927486391
 10
795.7600108557943
 20
1946.619424144345
 10
795.7520247148968
 20
1946.539829117705
 10
795.7408620099402
 20
1946.460617119055
 10
795.7265405988716
 20
1946.381914870693
 10
795.7090833928931
 20
1946.303848279429
 10
795.6885183198107
 20
1946.226542235155
 10
795.6648782793539
 20
1946.150120411051
 10
795.6382010905451
 20
1946.074705065733
 10
795.6085294311947
 20
1946.000416847666
 10
795.5759107696289
 20
1945.927374602151
 10
795.5403972887478
 20
1945.855695181201
 10
795.5020458025444
 20
1945.785493256596
 10
795.4609176652159
 20
1945.716881136442
 10
795.4170786730084
 20
1945.649968585493
 10
795.3705989589576
 20
1945.584862649559
 10
795.3215528806907
 20
1945.521667484246
 10
795.2700189014709
 20
1945.46048418834
 10
795.216079464671
 20
1945.401410642062
 10
795.1598208618833
 20
1945.344541350484
 10
795.1013330948716
 20
1945.289967292342
 10
795.040709731586
 20
1945.237775774485
 10
794.978047756476
 20
1945.188050292211
 10
794.9134474153339
 20
1945.140870395681
 10
794.8470120549253
 20
1945.096311562668
 10
794.7788479576546
 20
1945.054445077797
 10
794.7090641715365
 20
1945.015337918514
 10
794.6377723357425
 20
1944.97905264793
 10
794.5650865020016
 20
1944.94564731474
 10
794.4911229521424
 20
1944.915175360349
 10
794.4160000120667
 20
1944.887685533385
 10
794.339837862453
 20
1944.863221811705
 10
794.2627583464938
 20
1944.841823332047
 10
794.184884774972
 20
1944.823524327413
 10
794.1063417289896
 20
1944.808354072307
 10
794.0272548606653
 20
1944.7963368359
 10
793.9477506921177
 20
1944.787491843208
 10
793.8679564130561
 20
1944.781833244332
 10
793.7879996773056
 20
1944.779370091823
 10
793.7664074431891
 20
1944.779253532283
  0
LWPOLYLINE
  5
125
330
87
100
AcDbEntity
  8
P-SANR-FIXT
100
AcDbPolyline
 90
        4
 70
   128
 43
0.0
 10
795.7664074431892
 20
1946.868499024463
 10
795.7664074431892
 20
1946.813440041802
 10
795.7664074431892
 20
1946.781381066324
 10
795.766407443189
 20
1946.779253532283
  0
LWPOLYLINE
  5
126
330
87
100
AcDbEntity
  8
P-SANR-FIXT
100
AcDbPolyline
 90
       36
 70
   128
 43
0.0
 10
795.766407443189
 20
1946.779253532283
 10
795.766407443189
 20
1946.798514262568
 10
795.766407443189
 20
1946.856265640361
 10
795.766407443189
 20
1946.952415275777
 10
795.766407443189
 20
1947.086809349913
 10
795.766407443189
 20
1947.259232860917
 10
795.766407443189
 20
1947.469409967953
 10
795.766407443189
 20
1947.717004432487
 10
795.766407443189
 20
1948.001620156192
 10
795.766407443189
 20
1948.322801814624
 10
795.766407443189
 20
1948.680035585646
 10
795.766407443189
 20
1949.07274997143
 10
795.7664074431891
 20
1949.500316712732
 10
795.7664074431891
 20
1949.962051793978
 10
795.7664074431891
 20
1950.457216537533
 10
795.7664074431891
 20
1950.985018785439
 10
795.7664074431891
 20
1951.544614166691
 10
795.7664074431891
 20
1952.135107448052
 10
795.7664074431891
 20
1952.755553966237
 10
795.7664074431891
 20
1953.404961139173
 10
795.7664074431891
 20
1954.082290053915
 10
795.7664074431891
 20
1954.786457128689
 10
795.7664074431891
 20
1955.51633584639
 10
795.7664074431891
 20
1956.270758556768
 10
795.7664074431891
 20
1957.048518344422
 10
795.7664074431891
 20
1957.848370959604
 10
795.766407443189
 20
1958.669036808758
 10
795.766407443189
 20
1959.509203001589
 10
795.766407443189
 20
1960.367525451415
 10
795.766407443189
 20
1961.242631025416
 10
795.766407443189
 20
1962.133119741353
 10
795.766407443189
 20
1963.037567007241
 10
795.766407443189
 20
1963.954525900392
 10
795.766407443189
 20
1964.882529482185
 10
795.766407443189
 20
1965.820093144853
 10
795.766407443189
 20
1966.067693073132
  0
LWPOLYLINE
  5
127
330
87
100
AcDbEntity
  8
P-SANR-FIXT
100
AcDbPolyline
 90
       17
 70
   128
 43
0.0
 10
795.7664074431892
 20
1975.649060459149
 10
795.7664074431892
 20
1976.329204003246
 10
795.7664074431892
 20
1977.262553702684
 10
795.7664074431892
 20
1978.185658085174
 10
795.7664074431892
 20
1979.097040380624
 10
795.7664074431892
 20
1979.995242571779
 10
795.7664074431892
 20
1980.878827726739
 10
795.7664074431892
 20
1981.746382297744
 10
795.7664074431892
 20
1982.59651838255
 10
795.7664074431893
 20
1983.427875944772
 10
795.7664074431893
 20
1984.239124989658
 10
795.7664074431893
 20
1985.028967691795
 10
795.7664074431893
 20
1985.796140471349
 10
795.7664074431893
 20
1986.539416015527
 10
795.7664074431893
 20
1987.257605242016
 10
795.7664074431893
 20
1987.949559201259
 10
795.7664074431893
 20
1988.173519725737
  0
LINE
  5
128
330
87
100
AcDbEntity
  8
P-SANR-FIXT
100
AcDbLine
 10
783.166407443189
 20
1944.779253532283
 30
0.0
 11
793.7664074431891
 21
1944.779253532283
 31
0.0
  0
LINE
  5
129
330
87
100
AcDbEntity
  8
P-SANR-FIXT
100
AcDbLine
 10
789.666407443189
 20
1996.937499999998
 30
0.0
 11
783.1664074431892
 21
1996.937499999998
 31
0.0
  0
LINE
  5
12A
330
87
100
AcDbEntity
  8
P-SANR-FIXT
100
AcDbLine
 10
843.1664074431894
 20
2011.558376766141
 30
0.0
 11
843.1664074431894
 21
2017.258376766141
 31
0.0
  0
LINE
  5
12B
330
87
100
AcDbEntity
  8
P-SANR-FIXT
100
AcDbLine
 10
788.1664074431886
 20
2017.258376766141
 30
0.0
 11
788.1664074431886
 21
2011.558376766141
 31
0.0
  0
LINE
  5
12C
330
87
100
AcDbEntity
  8
P-SANR-FIXT
100
AcDbLine
 10
864.57126195645
 20
2017.258376766141
 30
0.0
 11
873.1703630683153
 21
2020.258376766141
 31
0.0
  0
LINE
  5
12D
330
87
100
AcDbEntity
  8
P-SANR-FIXT
100
AcDbLine
 10
758.162451818063
 20
2020.258376766141
 30
0.0
 11
766.761552929928
 21
2017.258376766141
 31
0.0
  0
LINE
  5
12E
330
87
100
AcDbEntity
  8
P-SANR-FIXT
100
AcDbLine
 10
865.6664074431892
 20
2003.658376766141
 30
0.0
 11
854.9664074431891
 21
2003.658376766141
 31
0.0
  0
LINE
  5
12F
330
87
100
AcDbEntity
  8
P-SANR-FIXT
100
AcDbLine
 10
854.9664074431891
 20
1938.058376766141
 30
0.0
 11
865.6664074431892
 21
1938.058376766141
 31
0.0
  0
LINE
  5
130
330
87
100
AcDbEntity
  8
P-SANR-FIXT
100
AcDbLine
 10
776.4412690440005
 20
2003.662638399187
 30
0.0
 11
765.6664074431893
 21
2003.662638399187
 31
0.0
  0
LINE
  5
131
330
87
100
AcDbEntity
  8
P-SANR-FIXT
100
AcDbLine
 10
765.6664074431888
 20
1938.054115133095
 30
0.0
 11
776.4412690440004
 21
1938.054115133095
 31
0.0
  0
LINE
  5
132
330
87
100
AcDbEntity
  8
P-SANR-FIXT
100
AcDbLine
 10
795.7664074431892
 20
1953.298807378743
 30
0.0
 11
799.9162373492234
 21
1953.298807378743
 31
0.0
  0
LINE
  5
133
330
87
100
AcDbEntity
  8
P-SANR-FIXT
100
AcDbLine
 10
783.1664074431892
 20
1996.937499999998
 30
0.0
 11
776.4883019797947
 21
2003.615605463393
 31
0.0
  0
LINE
  5
134
330
87
100
AcDbEntity
  8
P-SANR-FIXT
100
AcDbLine
 10
776.4827777909276
 20
2003.62112965226
 30
0.0
 11
776.4412690440005
 21
2003.662638399187
 31
0.0
  0
LINE
  5
135
330
87
100
AcDbEntity
  8
P-SANR-FIXT
100
AcDbLine
 10
776.4412690440004
 20
1938.054115133095
 30
0.0
 11
783.166407443189
 21
1944.779253532283
 31
0.0
  0
LINE
  5
136
330
87
100
AcDbEntity
  8
P-SANR-FIXT
100
AcDbLine
 10
854.9664074431891
 20
2003.658376766141
 30
0.0
 11
854.9247875713382
 21
2003.61675689429
 31
0.0
  0
LINE
  5
137
330
87
100
AcDbEntity
  8
P-SANR-FIXT
100
AcDbLine
 10
854.9191223334364
 20
2003.611091656388
 30
0.0
 11
848.1664074431892
 21
1996.858376766141
 31
0.0
  0
LINE
  5
138
330
87
100
AcDbEntity
  8
P-SANR-FIXT
100
AcDbLine
 10
848.1664074431892
 20
1944.858376766141
 30
0.0
 11
854.9191223334364
 21
1938.105661875894
 31
0.0
  0
LINE
  5
139
330
87
100
AcDbEntity
  8
P-SANR-FIXT
100
AcDbLine
 10
854.9247942842738
 20
1938.099989925056
 30
0.0
 11
854.9664074431891
 21
1938.058376766141
 31
0.0
  0
LINE
  5
13A
330
87
100
AcDbEntity
  8
P-SANR-FIXT
100
AcDbLine
 10
873.1703630683153
 20
2020.258376766141
 30
0.0
 11
873.1703630683153
 21
2022.758376766139
 31
0.0
  0
LINE
  5
13B
330
87
100
AcDbEntity
  8
P-SANR-FIXT
100
AcDbLine
 10
758.162451818063
 20
2022.758376766139
 30
0.0
 11
758.162451818063
 21
2020.258376766141
 31
0.0
  0
LINE
  5
13C
330
87
100
AcDbEntity
  8
P-SANR-FIXT
100
AcDbLine
 10
795.7664074431879
 20
1977.955130172572
 30
0.0
 11
822.7631608496198
 21
1977.955130172572
 31
0.0
  0
LINE
  5
13D
330
87
100
AcDbEntity
  8
P-SANR-FIXT
100
AcDbLine
 10
848.1664074431877
 20
1944.85837676614
 30
0.0
 11
848.1664074431877
 21
1963.393648715891
 31
0.0
  0
LINE
  5
13E
330
87
100
AcDbEntity
  8
P-SANR-FIXT
100
AcDbLine
 10
848.1664074431877
 20
1978.323104816389
 30
0.0
 11
848.1664074431877
 21
1996.85837676614
 31
0.0
  0
SPLINE
  5
13F
330
87
100
AcDbEntity
  8
P-SANR-FIXT
100
AcDbSpline
210
0.0
220
0.0
230
1.0
 70
     8
 71
     3
 72
    24
 73
    20
 74
     0
 42
0.000000001
 43
0.0000000001
 40
-1.0
 40
-1.0
 40
-1.0
 40
-1.0
 40
-0.8333333333333332
 40
-0.75
 40
-0.6666666666666666
 40
-0.625
 40
-0.5833333333333333
 40
-0.5416666666666666
 40
-0.5
 40
-0.4583333333333333
 40
-0.4166666666666666
 40
-0.375
 40
-0.3333333333333333
 40
-0.2916666666666666
 40
-0.25
 40
-0.2083333333333333
 40
-0.1666666666666666
 40
-0.0833333333333333
 40
0.0
 40
0.0
 40
0.0
 40
0.0
 10
822.7631608496199
 20
1977.955130172572
 30
0.0
 10
824.2965560003527
 20
1979.465952269292
 30
0.0
 10
826.5311202844046
 20
1981.729318844303
 30
0.0
 10
829.4281726985916
 20
1984.617284311305
 30
0.0
 10
831.1728451653152
 20
1986.361910722276
 30
0.0
 10
832.5159178271439
 20
1987.713685470929
 30
0.0
 10
833.5070594648371
 20
1988.696394770337
 30
0.0
 10
834.4664790375398
 20
1989.64906666114
 30
0.0
 10
835.3778573278976
 20
1990.570234470814
 30
0.0
 10
836.2536441661346
 20
1991.45336390858
 30
0.0
 10
837.1003333029429
 20
1992.290442984168
 30
0.0
 10
837.896569174142
 20
1993.078035521915
 30
0.0
 10
838.6185371621257
 20
1993.810390848818
 30
0.0
 10
839.280108177863
 20
1994.483043021034
 30
0.0
 10
839.8923621527597
 20
1995.087252425691
 30
0.0
 10
840.4285224081707
 20
1995.614025263522
 30
0.0
 10
841.0103193359939
 20
1996.202651358709
 30
0.0
 10
841.4928001360287
 20
1996.713837499122
 30
0.0
 10
841.6486171368465
 20
1996.85837676614
 30
0.0
 10
841.6664074431876
 20
1996.85837676614
 30
0.0
  0
LINE
  5
140
330
87
100
AcDbEntity
  8
P-SANR-FIXT
100
AcDbLine
 10
799.9162373492222
 20
1977.955130172572
 30
0.0
 11
799.9162373492222
 21
1953.298807378742
 31
0.0
  0
SPLINE
  5
141
330
87
100
AcDbEntity
  8
P-SANR-FIXT
100
AcDbSpline
210
0.0
220
0.0
230
1.0
 70
     8
 71
     3
 72
    16
 73
    12
 74
     0
 42
0.000000001
 43
0.0000000001
 40
0.0
 40
0.0
 40
0.0
 40
0.0
 40
0.2857142857142857
 40
0.5714285714285714
 40
0.6785714285714287
 40
0.7053571428571429
 40
0.7321428571428572
 40
0.7857142857142857
 40
0.8392857142857142
 40
0.8928571428571427
 40
1.0
 40
1.0
 40
1.0
 40
1.0
 10
793.7664074431877
 20
1992.852254747222
 30
0.0
 10
794.0396321674821
 20
1992.579748913113
 30
0.0
 10
794.5724360914818
 20
1991.919613924411
 30
0.0
 10
795.1221224594847
 20
1990.888896153344
 30
0.0
 10
795.3927299259263
 20
1990.163881765392
 30
0.0
 10
795.4836586107354
 20
1989.875900399323
 30
0.0
 10
795.5402526486129
 20
1989.681433468473
 30
0.0
 10
795.6067695399335
 20
1989.432279387109
 30
0.0
 10
795.6732827961534
 20
1989.126220272147
 30
0.0
 10
795.7368133328982
 20
1988.711620251606
 30
0.0
 10
795.7610804013788
 20
1988.391200132532
 30
0.0
 10
795.7664074431878
 20
1988.173519725737
 30
0.0
  0
SPLINE
  5
142
330
87
100
AcDbEntity
  8
P-SANR-FIXT
100
AcDbSpline
210
0.0
220
0.0
230
1.0
 70
     8
 71
     3
 72
    10
 73
     6
 74
     0
 42
0.000000001
 43
0.0000000001
 40
-1.0
 40
-1.0
 40
-1.0
 40
-1.0
 40
-0.6666666666666666
 40
-0.3333333333333333
 40
0.0
 40
0.0
 40
0.0
 40
0.0
 10
789.6664074431879
 20
1996.937499999997
 30
0.0
 10
789.6816728603544
 20
1996.937499999997
 30
0.0
 10
790.0072154937518
 20
1996.587620834043
 30
0.0
 10
791.500853092263
 20
1995.121342941375
 30
0.0
 10
792.9262507544381
 20
1993.666489382313
 30
0.0
 10
793.766407443188
 20
1992.852254747221
 30
0.0
  0
LINE
  5
143
330
87
100
AcDbEntity
  8
P-SANR-FIXT
100
AcDbLine
 10
843.1664074431882
 20
2011.55837676614
 30
0.0
 11
788.1664074431873
 21
2011.55837676614
 31
0.0
  0
LINE
  5
144
330
87
100
AcDbEntity
  8
P-SANR-FIXT
100
AcDbLine
 10
864.5712619564489
 20
2017.25837676614
 30
0.0
 11
766.7615529299268
 21
2017.25837676614
 31
0.0
  0
LINE
  5
145
330
87
100
AcDbEntity
  8
P-SANR-FIXT
100
AcDbLine
 10
865.6664074431878
 20
2003.469372661374
 30
0.0
 11
865.6664074431876
 21
1990.208905097973
 31
0.0
  0
LINE
  5
146
330
87
100
AcDbEntity
  8
P-SANR-FIXT
100
AcDbLine
 10
865.6664074431876
 20
1984.118844329541
 30
0.0
 11
865.6664074431876
 21
1957.59790920274
 31
0.0
  0
LINE
  5
147
330
87
100
AcDbEntity
  8
P-SANR-FIXT
100
AcDbLine
 10
865.6664074431876
 20
1951.507848434307
 30
0.0
 11
865.6664074431878
 21
1938.247380870907
 31
0.0
  0
LINE
  5
148
330
87
100
AcDbEntity
  8
P-SANR-FIXT
100
AcDbLine
 10
865.6664074431876
 20
1990.208905097973
 30
0.0
 11
865.6664074431876
 21
1984.118844329541
 31
0.0
  0
LINE
  5
149
330
87
100
AcDbEntity
  8
P-SANR-FIXT
100
AcDbLine
 10
865.6664074431876
 20
1990.208905097973
 30
0.0
 11
854.9664074431877
 21
1990.208905097973
 31
0.0
  0
LINE
  5
14A
330
87
100
AcDbEntity
  8
P-SANR-FIXT
100
AcDbLine
 10
854.9664074431877
 20
1984.118844329541
 30
0.0
 11
865.6664074431876
 21
1984.118844329541
 31
0.0
  0
LINE
  5
14B
330
87
100
AcDbEntity
  8
P-SANR-FIXT
100
AcDbLine
 10
865.6664074431876
 20
1957.59790920274
 30
0.0
 11
865.6664074431876
 21
1951.507848434308
 31
0.0
  0
LINE
  5
14C
330
87
100
AcDbEntity
  8
P-SANR-FIXT
100
AcDbLine
 10
865.6664074431876
 20
1957.597909202739
 30
0.0
 11
854.9664074431877
 21
1957.597909202739
 31
0.0
  0
LINE
  5
14D
330
87
100
AcDbEntity
  8
P-SANR-FIXT
100
AcDbLine
 10
854.9664074431877
 20
1951.507848434307
 30
0.0
 11
865.6664074431876
 21
1951.507848434307
 31
0.0
  0
LINE
  5
14E
330
87
100
AcDbEntity
  8
P-SANR-FIXT
100
AcDbLine
 10
854.9664074431877
 20
2003.469372661374
 30
0.0
 11
865.6664074431878
 21
2003.469372661374
 31
0.0
  0
LINE
  5
14F
330
87
100
AcDbEntity
  8
P-SANR-FIXT
100
AcDbLine
 10
865.6664074431878
 20
2003.65837676614
 30
0.0
 11
865.6664074431878
 21
2003.469372661374
 31
0.0
  0
LINE
  5
150
330
87
100
AcDbEntity
  8
P-SANR-FIXT
100
AcDbLine
 10
865.6664074431878
 20
1938.247380870907
 30
0.0
 11
865.6664074431878
 21
1938.05837676614
 31
0.0
  0
LINE
  5
151
330
87
100
AcDbEntity
  8
P-SANR-FIXT
100
AcDbLine
 10
865.6664074431878
 20
1938.247380870907
 30
0.0
 11
854.9664074431877
 21
1938.247380870907
 31
0.0
  0
LINE
  5
152
330
87
100
AcDbEntity
  8
P-SANR-FIXT
100
AcDbLine
 10
765.666407443188
 20
2003.474641522453
 30
0.0
 11
776.4412690439993
 21
2003.474641522453
 31
0.0
  0
LINE
  5
153
330
87
100
AcDbEntity
  8
P-SANR-FIXT
100
AcDbLine
 10
776.4412690439993
 20
2003.474641522453
 30
0.0
 11
776.4412690439993
 21
2003.662638399186
 31
0.0
  0
LINE
  5
154
330
87
100
AcDbEntity
  8
P-SANR-FIXT
100
AcDbLine
 10
776.4412690439992
 20
1938.054115133094
 30
0.0
 11
776.4412690439992
 21
1938.242112009827
 31
0.0
  0
LINE
  5
155
330
87
100
AcDbEntity
  8
P-SANR-FIXT
100
AcDbLine
 10
776.4412690439992
 20
1938.242112009827
 30
0.0
 11
765.6664074431878
 21
1938.242112009827
 31
0.0
  0
LINE
  5
156
330
87
100
AcDbEntity
  8
P-SANR-FIXT
100
AcDbLine
 10
776.4412690439991
 20
1951.513117295387
 30
0.0
 11
776.4412690439991
 21
1957.587371480581
 31
0.0
  0
LINE
  5
157
330
87
100
AcDbEntity
  8
P-SANR-FIXT
100
AcDbLine
 10
776.4412690439991
 20
1957.587371480581
 30
0.0
 11
765.6664074431877
 21
1957.587371480581
 31
0.0
  0
LINE
  5
158
330
87
100
AcDbEntity
  8
P-SANR-FIXT
100
AcDbLine
 10
765.6664074431877
 20
1951.513117295387
 30
0.0
 11
776.4412690439991
 21
1951.513117295387
 31
0.0
  0
LINE
  5
159
330
87
100
AcDbEntity
  8
P-SANR-FIXT
100
AcDbLine
 10
776.4412690439992
 20
1984.129382051699
 30
0.0
 11
776.4412690439992
 21
1990.203636236894
 31
0.0
  0
LINE
  5
15A
330
87
100
AcDbEntity
  8
P-SANR-FIXT
100
AcDbLine
 10
776.4412690439992
 20
1990.203636236894
 30
0.0
 11
765.6664074431878
 21
1990.203636236894
 31
0.0
  0
LINE
  5
15B
330
87
100
AcDbEntity
  8
P-SANR-FIXT
100
AcDbLine
 10
765.6664074431878
 20
1984.129382051699
 30
0.0
 11
776.4412690439992
 21
1984.129382051699
 31
0.0
  0
LINE
  5
15C
330
87
100
AcDbEntity
  8
P-SANR-FIXT
100
AcDbLine
 10
765.6664074431878
 20
1938.242112009828
 30
0.0
 11
765.6664074431878
 21
1938.054115133094
 31
0.0
  0
LINE
  5
15D
330
87
100
AcDbEntity
  8
P-SANR-FIXT
100
AcDbLine
 10
765.6664074431878
 20
1938.242112009827
 30
0.0
 11
765.6664074431877
 21
1951.513117295387
 31
0.0
  0
LINE
  5
15E
330
87
100
AcDbEntity
  8
P-SANR-FIXT
100
AcDbLine
 10
765.6664074431877
 20
1957.587371480582
 30
0.0
 11
765.6664074431877
 21
1951.513117295387
 31
0.0
  0
LINE
  5
15F
330
87
100
AcDbEntity
  8
P-SANR-FIXT
100
AcDbLine
 10
765.6664074431877
 20
1957.587371480582
 30
0.0
 11
765.6664074431878
 21
1984.129382051699
 31
0.0
  0
LINE
  5
160
330
87
100
AcDbEntity
  8
P-SANR-FIXT
100
AcDbLine
 10
765.6664074431878
 20
1990.203636236894
 30
0.0
 11
765.6664074431878
 21
1984.129382051699
 31
0.0
  0
LINE
  5
161
330
87
100
AcDbEntity
  8
P-SANR-FIXT
100
AcDbLine
 10
765.6664074431878
 20
1990.203636236894
 30
0.0
 11
765.666407443188
 21
2003.474641522453
 31
0.0
  0
LINE
  5
162
330
87
100
AcDbEntity
  8
P-SANR-FIXT
100
AcDbLine
 10
765.666407443188
 20
2003.662638399186
 30
0.0
 11
765.666407443188
 21
2003.474641522453
 31
0.0
  0
LINE
  5
163
330
87
100
AcDbEntity
  8
P-SANR-FIXT
100
AcDbLine
 10
783.1664074431881
 20
1996.937499999997
 30
0.0
 11
783.1664074431877
 21
1978.323217381779
 31
0.0
  0
LINE
  5
164
330
87
100
AcDbEntity
  8
P-SANR-FIXT
100
AcDbLine
 10
783.1664074431877
 20
1963.393536150501
 30
0.0
 11
783.1664074431879
 21
1944.779253532283
 31
0.0
  0
SPLINE
  5
165
330
87
100
AcDbEntity
  8
P-SANR-FIXT
100
AcDbSpline
210
0.0
220
0.0
230
1.0
 70
     8
 71
     3
 72
    10
 73
     6
 74
     0
 42
0.000000001
 43
0.0000000001
 40
-1.0
 40
-1.0
 40
-1.0
 40
-1.0
 40
-0.6666666666666666
 40
-0.3333333333333333
 40
0.0
 40
0.0
 40
0.0
 40
0.0
 10
776.4412690439993
 20
2003.474641522453
 30
0.0
 10
777.6697830618562
 20
2002.044397137366
 30
0.0
 10
779.3080985395667
 20
1999.152603723001
 30
0.0
 10
779.3334738481177
 20
1994.578158408067
 30
0.0
 10
777.6809125831504
 20
1991.656373924147
 30
0.0
 10
776.4412690439992
 20
1990.203636236894
 30
0.0
  0
SPLINE
  5
166
330
87
100
AcDbEntity
  8
P-SANR-FIXT
100
AcDbSpline
210
0.0
220
0.0
230
1.0
 70
     8
 71
     3
 72
     9
 73
     5
 74
     0
 42
0.000000001
 43
0.0000000001
 40
-1.0
 40
-1.0
 40
-1.0
 40
-1.0
 40
-0.6666666666666666
 40
-0.540947884465674
 40
-0.540947884465674
 40
-0.540947884465674
 40
-0.540947884465674
 10
776.4412690439992
 20
1984.129382051699
 30
0.0
 10
777.6697830618561
 20
1981.268893281525
 30
0.0
 10
778.7978913407896
 20
1977.286441627868
 30
0.0
 10
779.157229845914
 20
1973.154316529019
 30
0.0
 10
779.1973358632223
 20
1972.019105255909
 30
0.0
  0
SPLINE
  5
167
330
87
100
AcDbEntity
  8
P-SANR-FIXT
100
AcDbSpline
210
0.0
220
0.0
230
1.0
 70
     8
 71
     3
 72
     9
 73
     5
 74
     0
 42
0.000000001
 43
0.0000000001
 40
-0.4554769127481326
 40
-0.4554769127481326
 40
-0.4554769127481326
 40
-0.4554769127481326
 40
-0.3333333333333333
 40
0.0
 40
0.0
 40
0.0
 40
0.0
 10
779.1980860104912
 20
1969.701224619912
 30
0.0
 10
779.1597386773698
 20
1968.597031598388
 30
0.0
 10
778.809967837792
 20
1964.485262984441
 30
0.0
 10
777.6809125831504
 20
1960.492846855087
 30
0.0
 10
776.4412690439991
 20
1957.587371480581
 30
0.0
  0
SPLINE
  5
168
330
87
100
AcDbEntity
  8
P-SANR-FIXT
100
AcDbSpline
210
0.0
220
0.0
230
1.0
 70
     8
 71
     3
 72
    10
 73
     6
 74
     0
 42
0.000000001
 43
0.0000000001
 40
-1.0
 40
-1.0
 40
-1.0
 40
-1.0
 40
-0.6666666666666666
 40
-0.3333333333333333
 40
0.0
 40
0.0
 40
0.0
 40
0.0
 10
776.4412690439991
 20
1951.513117295387
 30
0.0
 10
777.6697830618561
 20
1950.0828729103
 30
0.0
 10
779.308098539567
 20
1947.191079495935
 30
0.0
 10
779.333473848118
 20
1942.616634181
 30
0.0
 10
777.6809125831506
 20
1939.694849697081
 30
0.0
 10
776.4412690439992
 20
1938.242112009827
 30
0.0
  0
LINE
  5
169
330
87
100
AcDbEntity
  8
P-SANR-FIXT
100
AcDbLine
 10
854.9664074431879
 20
1938.247380870907
 30
0.0
 11
854.9664074431879
 21
1938.05837676614
 31
0.0
  0
SPLINE
  5
16A
330
87
100
AcDbEntity
  8
P-SANR-FIXT
100
AcDbSpline
210
0.0
220
0.0
230
1.0
 70
     8
 71
     3
 72
    10
 73
     6
 74
     0
 42
0.000000001
 43
0.0000000001
 40
-1.0
 40
-1.0
 40
-1.0
 40
-1.0
 40
-0.6666666666666666
 40
-0.3333333333333333
 40
0.0
 40
0.0
 40
0.0
 40
0.0
 10
854.9664074431877
 20
1938.247380870907
 30
0.0
 10
853.7397278140128
 20
1939.676594276804
 30
0.0
 10
852.1038589563177
 20
1942.566226078845
 30
0.0
 10
852.0785493493512
 20
1947.136611500565
 30
0.0
 10
853.7286271092026
 20
1950.056181431637
 30
0.0
 10
854.9664074431877
 20
1951.507848434307
 30
0.0
  0
LINE
  5
16B
330
87
100
AcDbEntity
  8
P-SANR-FIXT
100
AcDbLine
 10
854.9664074431877
 20
1957.59790920274
 30
0.0
 11
854.9664074431877
 21
1951.507848434308
 31
0.0
  0
SPLINE
  5
16C
330
87
100
AcDbEntity
  8
P-SANR-FIXT
100
AcDbSpline
210
0.0
220
0.0
230
1.0
 70
     8
 71
     3
 72
    10
 73
     6
 74
     0
 42
0.000000001
 43
0.0000000001
 40
-1.0
 40
-1.0
 40
-1.0
 40
-1.0
 40
-0.6666666666666666
 40
-0.3333333333333333
 40
0.0
 40
0.0
 40
0.0
 40
0.0
 10
854.9664074431877
 20
1957.59790920274
 30
0.0
 10
853.7397278140126
 20
1960.456336014536
 30
0.0
 10
852.1038589563177
 20
1966.235599618617
 30
0.0
 10
852.0785493493512
 20
1975.376370462058
 30
0.0
 10
853.7286271092026
 20
1981.215510324199
 30
0.0
 10
854.9664074431877
 20
1984.118844329541
 30
0.0
  0
LINE
  5
16D
330
87
100
AcDbEntity
  8
P-SANR-FIXT
100
AcDbLine
 10
854.9664074431877
 20
1990.208905097973
 30
0.0
 11
854.9664074431877
 21
1984.118844329541
 31
0.0
  0
SPLINE
  5
16E
330
87
100
AcDbEntity
  8
P-SANR-FIXT
100
AcDbSpline
210
0.0
220
0.0
230
1.0
 70
     8
 71
     3
 72
    10
 73
     6
 74
     0
 42
0.000000001
 43
0.0000000001
 40
-1.0
 40
-1.0
 40
-1.0
 40
-1.0
 40
-0.6666666666666666
 40
-0.3333333333333333
 40
0.0
 40
0.0
 40
0.0
 40
0.0
 10
854.9664074431877
 20
1990.208905097973
 30
0.0
 10
853.7397278140126
 20
1991.638118503871
 30
0.0
 10
852.1038589563177
 20
1994.527750305912
 30
0.0
 10
852.0785493493514
 20
1999.098135727632
 30
0.0
 10
853.7286271092028
 20
2002.017705658703
 30
0.0
 10
854.9664074431877
 20
2003.469372661374
 30
0.0
  0
LINE
  5
16F
330
87
100
AcDbEntity
  8
P-SANR-FIXT
100
AcDbLine
 10
854.9664074431877
 20
2003.65837676614
 30
0.0
 11
854.9664074431877
 21
2003.469372661374
 31
0.0
  0
LINE
  5
170
330
87
100
AcDbEntity
  8
P-SANR-FIXT
100
AcDbLine
 10
873.1703630683139
 20
2020.25837676614
 30
0.0
 11
758.1624518180618
 21
2020.25837676614
 31
0.0
  0
ENDBLK
  5
172
330
87
100
AcDbEntity
  8
0
100
AcDbBlockEnd
  0
BLOCK
  5
1CA
330
174
100
AcDbEntity
  8
0
100
AcDbBlockBegin
  2
Automatic flow rate regulator valve_Caleffi_121 DN15 - 1_2__-V1-Est - Idraulica
 70
     0
 10
0.0
 20
0.0
 30
0.0
  3
Automatic flow rate regulator valve_Caleffi_121 DN15 - 1_2__-V1-Est - Idraulica
  1

  0
LWPOLYLINE
  5
175
330
174
100
AcDbEntity
  8
M-PIPE
100
AcDbPolyline
 90
       41
 70
   128
 43
0.0
 10
885.1664074431891
 20
1804.74707584425
 10
885.3863487812155
 20
1804.742676430885
 10
885.6059382600193
 20
1804.729485228914
 10
885.8248245832779
 20
1804.707523341446
 10
886.0426575795672
 20
1804.676825902815
 10
886.2590887625618
 20
1804.637442022377
 10
886.4737718885381
 20
1804.589434705935
 10
886.6863635102916
 20
1804.532880754959
 10
886.8965235265777
 20
1804.467870643703
 10
887.1039157262019
 20
1804.394508374478
 10
887.3082083258866
 20
1804.312911311265
 10
887.5090745010519
 20
1804.223209991959
 10
887.7061929086671
 20
1804.125547919536
 10
887.8992482013297
 20
1804.020081332477
 10
888.0879315317539
 20
1803.906978954823
 10
888.2719410468618
 20
1803.786421726253
 10
888.4509823706823
 20
1803.658602512613
 10
888.6247690752908
 20
1803.523725797379
 10
888.7930231390321
 20
1803.382007354525
 10
888.9554753912969
 20
1803.233673903324
 10
889.1118659431363
 20
1803.078962745659
 10
889.2619446030288
 20
1802.918121386377
 10
889.4054712771334
 20
1802.751407137342
 10
889.542216353389
 20
1802.579086705789
 10
889.6719610688444
 20
1802.401435767648
 10
889.7944978596326
 20
1802.218738526524
 10
889.9096306930273
 20
1802.03128725903
 10
890.0171753810562
 20
1801.839381847205
 10
890.1169598751597
 20
1801.643329298771
 10
890.2088245414336
 20
1801.443443255984
 10
890.2926224160086
 20
1801.240043493871
 10
890.3682194401614
 20
1801.033455408663
 10
890.4354946747799
 20
1800.824009497225
 10
890.4943404938395
 20
1800.612040828337
 10
890.5446627565833
 20
1800.397888506653
 10
890.5863809581255
 20
1800.181895130201
 10
890.6194283582433
 20
1799.964406242309
 10
890.6437520881461
 20
1799.745769778803
 10
890.6593132350545
 20
1799.526335511384
 10
890.6660869044538
 20
1799.30645448807
 10
890.6664074431891
 20
1799.24707584425
1001
REVIT
1002
{
1070
     3
1000
939838
1002
}
  0
LWPOLYLINE
  5
176
330
174
100
AcDbEntity
  8
M-PIPE
100
AcDbPolyline
 90
       41
 70
   128
 43
0.0
 10
890.6664074431891
 20
1751.747075844249
 10
890.6664074431891
 20
1753.646569218114
 10
890.6664074431891
 20
1755.543023807785
 10
890.6664074431891
 20
1757.433405690473
 10
890.6664074431891
 20
1759.314690658426
 10
890.6664074431891
 20
1761.183869057015
 10
890.6664074431891
 20
1763.037950599538
 10
890.6664074431891
 20
1764.873969151045
 10
890.6664074431892
 20
1766.688987473515
 10
890.6664074431892
 20
1768.480101924816
 10
890.6664074431892
 20
1770.24444710391
 10
890.6664074431891
 20
1771.979200434884
 10
890.6664074431891
 20
1773.68158668247
 10
890.6664074431891
 20
1775.348882391827
 10
890.6664074431891
 20
1776.978420245492
 10
890.6664074431891
 20
1778.567593330514
 10
890.6664074431891
 20
1780.113859308963
 10
890.6664074431892
 20
1781.614744485127
 10
890.6664074431891
 20
1783.067847762894
 10
890.6664074431891
 20
1784.470844487001
 10
890.6664074431891
 20
1785.821490161977
 10
890.6664074431891
 20
1787.117624042865
 10
890.6664074431891
 20
1788.357172591951
 10
890.6664074431892
 20
1789.538152795977
 10
890.6664074431892
 20
1790.658675338547
 10
890.6664074431891
 20
1791.716947622625
 10
890.6664074431892
 20
1792.711276638308
 10
890.6664074431892
 20
1793.640071671284
 10
890.6664074431892
 20
1794.501846847634
 10
890.6664074431892
 20
1795.295223510908
 10
890.6664074431892
 20
1796.018932427693
 10
890.6664074431892
 20
1796.671815818103
 10
890.6664074431892
 20
1797.252829207988
 10
890.6664074431892
 20
1797.761043099868
 10
890.6664074431891
 20
1798.195644459927
 10
890.6664074431891
 20
1798.555938018701
 10
890.6664074431891
 20
1798.841347383355
 10
890.6664074431891
 20
1799.051415959787
 10
890.6664074431891
 20
1799.185807683089
 10
890.6664074431891
 20
1799.244307555173
 10
890.6664074431891
 20
1799.24707584425
1001
REVIT
1002
{
1070
     3
1000
939838
1002
}
  0
LWPOLYLINE
  5
177
330
174
100
AcDbEntity
  8
M-PIPE
100
AcDbPolyline
 90
       23
 70
   128
 43
0.0
 10
890.6664074431891
 20
1799.24707584425
 10
890.6664074431891
 20
1799.209080910646
 10
890.6664074431891
 20
1799.095156893624
 10
890.6664074431891
 20
1798.905486047308
 10
890.6664074431891
 20
1798.640371804592
 10
890.6664074431891
 20
1798.300238291708
 10
890.6664074431892
 20
1797.885629649721
 10
890.6664074431892
 20
1797.397209164011
 10
890.6664074431892
 20
1796.835758203165
 10
890.6664074431892
 20
1796.202174968951
 10
890.6664074431892
 20
1795.497473059386
 10
890.6664074431892
 20
1794.722779847198
 10
890.6664074431892
 20
1793.879334676265
 10
890.6664074431892
 20
1792.968486878937
 10
890.6664074431891
 20
1791.991693617387
 10
890.6664074431887
 20
1790.950517552459
 10
890.6664074431887
 20
1789.846624343753
 10
890.6664074431887
 20
1788.681779984919
 10
890.6664074431887
 20
1787.457847978442
 10
890.6664074431887
 20
1786.176786354442
 10
890.6664074431887
 20
1784.840644538239
 10
890.6664074431887
 20
1783.451560071711
 10
890.6664074431887
 20
1783.247075844249
1001
REVIT
1002
{
1070
     3
1000
939838
1002
}
  0
LINE
  5
178
330
174
100
AcDbEntity
  8
M-PIPE
100
AcDbLine
 10
885.1664074431891
 20
1804.747075844248
 30
0.0
 11
884.1664074431895
 21
1804.747075844248
 31
0.0
1001
REVIT
1002
{
1070
     3
1000
939838
1002
}
  0
LINE
  5
179
330
174
100
AcDbEntity
  8
M-PIPE
100
AcDbLine
 10
881.166407443189
 20
1804.747075844248
 30
0.0
 11
845.760430578942
 21
1804.747075844248
 31
0.0
1001
REVIT
1002
{
1070
     3
1000
939838
1002
}
  0
LINE
  5
17A
330
174
100
AcDbEntity
  8
M-PIPE
100
AcDbLine
 10
785.5723843074628
 20
1804.74707584425
 30
0.0
 11
750.1664074431892
 21
1804.74707584425
 31
0.0
1001
REVIT
1002
{
1070
     3
1000
939838
1002
}
  0
LINE
  5
17B
330
174
100
AcDbEntity
  8
M-PIPE
100
AcDbLine
 10
747.1664074431886
 20
1804.74707584425
 30
0.0
 11
746.1664074431888
 21
1804.74707584425
 31
0.0
1001
REVIT
1002
{
1070
     3
1000
939838
1002
}
  0
LWPOLYLINE
  5
17C
330
174
100
AcDbEntity
  8
M-PIPE
100
AcDbPolyline
 90
       41
 70
   128
 43
0.0
 10
740.6664074431888
 20
1799.24707584425
 10
740.6708068565534
 20
1799.467017182276
 10
740.6839980585244
 20
1799.68660666108
 10
740.7059599459925
 20
1799.905492984339
 10
740.736657384623
 20
1800.123325980628
 10
740.776041265062
 20
1800.339757163623
 10
740.8240485815028
 20
1800.554440289599
 10
740.8806025324796
 20
1800.767031911352
 10
740.9456126437354
 20
1800.977191927638
 10
741.0189749129601
 20
1801.184584127263
 10
741.100571976173
 20
1801.388876726947
 10
741.190273295479
 20
1801.589742902113
 10
741.2879353679027
 20
1801.786861309728
 10
741.3934019549617
 20
1801.97991660239
 10
741.5065043326151
 20
1802.168599932815
 10
741.6270615611856
 20
1802.352609447923
 10
741.7548807748253
 20
1802.531650771743
 10
741.8897574900587
 20
1802.705437476351
 10
742.0314759329138
 20
1802.873691540093
 10
742.1798093841139
 20
1803.036143792358
 10
742.3345205417794
 20
1803.192534344197
 10
742.4953619010615
 20
1803.34261300409
 10
742.6620761500966
 20
1803.486139678194
 10
742.8343965816497
 20
1803.62288475445
 10
743.0120475197902
 20
1803.752629469905
 10
743.194744760914
 20
1803.875166260693
 10
743.3821960284086
 20
1803.990299094088
 10
743.5741014402334
 20
1804.097843782116
 10
743.7701539886669
 20
1804.19762827622
 10
743.9700400314543
 20
1804.289492942494
 10
744.1734397935671
 20
1804.373290817069
 10
744.3800278787755
 20
1804.448887841222
 10
744.5894737902132
 20
1804.51616307584
 10
744.8014424591007
 20
1804.5750088949
 10
745.015594780786
 20
1804.625331157644
 10
745.2315881572375
 20
1804.667049359186
 10
745.4490770451292
 20
1804.700096759304
 10
745.6677135086351
 20
1804.724420489207
 10
745.8871477760541
 20
1804.739981636116
 10
746.1070287993684
 20
1804.746755305515
 10
746.1664074431888
 20
1804.74707584425
1001
REVIT
1002
{
1070
     3
1000
939838
1002
}
  0
LWPOLYLINE
  5
17D
330
174
100
AcDbEntity
  8
M-PIPE
100
AcDbPolyline
 90
       23
 70
   128
 43
0.0
 10
740.6664074431887
 20
1783.24707584425
 10
740.6664074431887
 20
1784.470844487001
 10
740.6664074431887
 20
1785.821490161977
 10
740.6664074431887
 20
1787.117624042865
 10
740.6664074431887
 20
1788.357172591951
 10
740.6664074431887
 20
1789.538152795977
 10
740.6664074431887
 20
1790.658675338547
 10
740.6664074431887
 20
1791.716947622624
 10
740.6664074431888
 20
1792.711276638308
 10
740.6664074431888
 20
1793.640071671284
 10
740.6664074431888
 20
1794.501846847634
 10
740.6664074431888
 20
1795.295223510908
 10
740.6664074431888
 20
1796.018932427693
 10
740.6664074431888
 20
1796.671815818103
 10
740.6664074431888
 20
1797.252829207988
 10
740.666407443189
 20
1797.761043099868
 10
740.6664074431888
 20
1798.195644459927
 10
740.6664074431888
 20
1798.555938018701
 10
740.6664074431888
 20
1798.841347383355
 10
740.6664074431888
 20
1799.051415959787
 10
740.6664074431888
 20
1799.18580768309
 10
740.6664074431888
 20
1799.244307555173
 10
740.6664074431888
 20
1799.24707584425
1001
REVIT
1002
{
1070
     3
1000
939838
1002
}
  0
LWPOLYLINE
  5
17E
330
174
100
AcDbEntity
  8
M-PIPE
100
AcDbPolyline
 90
       41
 70
   128
 43
0.0
 10
740.6664074431888
 20
1799.24707584425
 10
740.6664074431888
 20
1799.209080910646
 10
740.6664074431888
 20
1799.095156893624
 10
740.6664074431888
 20
1798.905486047308
 10
740.6664074431888
 20
1798.640371804592
 10
740.6664074431888
 20
1798.300238291709
 10
740.666407443189
 20
1797.885629649721
 10
740.666407443189
 20
1797.397209164011
 10
740.666407443189
 20
1796.835758203165
 10
740.666407443189
 20
1796.202174968952
 10
740.666407443189
 20
1795.497473059387
 10
740.666407443189
 20
1794.722779847198
 10
740.666407443189
 20
1793.879334676265
 10
740.666407443189
 20
1792.968486878938
 10
740.6664074431888
 20
1791.991693617387
 10
740.6664074431888
 20
1790.95051755246
 10
740.6664074431888
 20
1789.846624343754
 10
740.6664074431888
 20
1788.681779984919
 10
740.6664074431888
 20
1787.457847978442
 10
740.6664074431888
 20
1786.176786354443
 10
740.6664074431888
 20
1784.84064453824
 10
740.6664074431888
 20
1783.451560071712
 10
740.6664074431888
 20
1782.011755193682
 10
740.6664074431888
 20
1780.523533284814
 10
740.6664074431888
 20
1778.989275182691
 10
740.6664074431888
 20
1777.411435372986
 10
740.6664074431888
 20
1775.792538062807
 10
740.6664074431888
 20
1774.135173142503
 10
740.6664074431888
 20
1772.441992042393
 10
740.666407443189
 20
1770.715703491048
 10
740.666407443189
 20
1768.959069181892
 10
740.666407443189
 20
1767.174899355091
 10
740.666407443189
 20
1765.366048301768
 10
740.6664074431888
 20
1763.535409797738
 10
740.6664074431888
 20
1761.685912474092
 10
740.6664074431887
 20
1759.820515132011
 10
740.6664074431887
 20
1757.942202009312
 10
740.6664074431887
 20
1756.053978006304
 10
740.6664074431887
 20
1754.158863878595
 10
740.6664074431887
 20
1752.259891404517
 10
740.6664074431887
 20
1751.74707584425
1001
REVIT
1002
{
1070
     3
1000
939838
1002
}
  0
LWPOLYLINE
  5
17F
330
174
100
AcDbEntity
  8
M-PIPE
100
AcDbPolyline
 90
       77
 70
   128
 43
0.0
 10
747.1704693338296
 20
1799.781388557192
 10
747.1712048837351
 20
1799.769144106633
 10
747.177194489408
 20
1799.709447836654
 10
747.1855665181253
 20
1799.650038837666
 10
747.196307576427
 20
1799.591012151395
 10
747.2094004809108
 20
1799.532462207947
 10
747.2248242857228
 20
1799.474482674741
 10
747.2425543160651
 20
1799.417166306663
 10
747.2625622076719
 20
1799.360604797675
 10
747.2848159521845
 20
1799.304888634124
 10
747.309279948359
 20
1799.250106949989
 10
747.3359150590201
 20
1799.196347384275
 10
747.3646786736725
 20
1799.143695940822
 10
747.3955247766687
 20
1799.092236850706
 10
747.4284040208243
 20
1799.042052437495
 10
747.4632638063624
 20
1798.993222985544
 10
747.5000483650624
 20
1798.94582661156
 10
747.5386988494777
 20
1798.89993913963
 10
747.5791534270776
 20
1798.855633979921
 10
747.621347379168
 20
1798.812982011238
 10
747.665213204427
 20
1798.772051467631
 10
747.7106807268909
 20
1798.732907829239
 10
747.7576772082237
 20
1798.695613717532
 10
747.8061274640801
 20
1798.660228795136
 10
747.8559539843866
 20
1798.626809670375
 10
747.9070770573397
 20
1798.595409806722
 10
747.9594148969282
 20
1798.56607943726
 10
748.0128837737738
 20
1798.538865484323
 10
748.0673981490796
 20
1798.51381148443
 10
748.1228708114739
 20
1798.490957518637
 10
748.1792130165307
 20
1798.470340148413
 10
748.2363346287408
 20
1798.451992357153
 10
748.2941442657103
 20
1798.43594349741
 10
748.3525494443519
 20
1798.422219243934
 10
748.4114567288387
 20
1798.410841552604
 10
748.4707718800818
 20
1798.4018286253
 10
748.5304000064925
 20
1798.395194880781
 10
748.5902457157886
 20
1798.390950931624
 10
748.6502132676015
 20
1798.389103567242
 10
748.7102067266408
 20
1798.389655743025
 10
748.7701301161699
 20
1798.392606575609
 10
748.8298875715487
 20
1798.39795134429
 10
748.8893834935959
 20
1798.40568149858
 10
748.9485227015283
 20
1798.415784671881
 10
749.0072105852286
 20
1798.42824470127
 10
749.0653532566025
 20
1798.443041653358
 10
749.1228576997786
 20
1798.46015185618
 10
749.1796319199153
 20
1798.479547937059
 10
749.2355850903711
 20
1798.501198866405
 10
749.2906276980096
 20
1798.525070007349
 10
749.3446716864004
 20
1798.551123171157
 10
749.3976305966903
 20
1798.579316678326
 10
749.4494197059209
 20
1798.609605425258
 10
749.4999561625648
 20
1798.641940956419
 10
749.5491591190718
 20
1798.676271541858
 10
749.596949861208
 20
1798.712542259961
 10
749.6432519339803
 20
1798.750695085316
 10
749.6879912639496
 20
1798.790668981542
 10
749.731096277732
 20
1798.832399998932
 10
749.7724980165009
 20
1798.875821376761
 10
749.8121302463056
 20
1798.920863650086
 10
749.8499295640332
 20
1798.967454760879
 10
749.8858354988388
 20
1799.015520173301
 10
749.9197906088861
 20
1799.064982992947
 10
749.9517405732423
 20
1799.115764089855
 10
749.9816342787803
 20
1799.167782225104
 10
750.0094239019481
 20
1799.220954180774
 10
750.0350649852769
 20
1799.275194893079
 10
750.0585165085028
 20
1799.33041758845
 10
750.0797409541919
 20
1799.386533922353
 10
750.0987043677583
 20
1799.443454120627
 10
750.1153764117859
 20
1799.501087123095
 10
750.1297304145605
 20
1799.559340729249
 10
750.1417434127399
 20
1799.618121745746
 10
750.1513961880895
 20
1799.677336135498
 10
750.1586732982281
 20
1799.736889168112
 10
750.1623122002142
 20
1799.781388557192
1001
REVIT
1002
{
1070
     3
1000
939838
1002
}
  0
LWPOLYLINE
  5
180
330
174
100
AcDbEntity
  8
M-PIPE
100
AcDbPolyline
 90
       77
 70
   128
 43
0.0
 10
881.1704693338299
 20
1799.781388557191
 10
881.1712048837353
 20
1799.769144106633
 10
881.1771944894084
 20
1799.709447836654
 10
881.1855665181258
 20
1799.650038837665
 10
881.1963075764275
 20
1799.591012151394
 10
881.2094004809111
 20
1799.532462207946
 10
881.2248242857231
 20
1799.474482674741
 10
881.2425543160655
 20
1799.417166306663
 10
881.2625622076723
 20
1799.360604797674
 10
881.2848159521848
 20
1799.304888634124
 10
881.3092799483591
 20
1799.250106949988
 10
881.3359150590203
 20
1799.196347384275
 10
881.3646786736727
 20
1799.143695940821
 10
881.3955247766692
 20
1799.092236850706
 10
881.4284040208248
 20
1799.042052437494
 10
881.4632638063628
 20
1798.993222985543
 10
881.5000483650628
 20
1798.945826611559
 10
881.5386988494777
 20
1798.89993913963
 10
881.5791534270777
 20
1798.855633979921
 10
881.6213473791684
 20
1798.812982011237
 10
881.6652132044271
 20
1798.772051467631
 10
881.7106807268913
 20
1798.732907829238
 10
881.757677208224
 20
1798.695613717532
 10
881.8061274640806
 20
1798.660228795135
 10
881.8559539843871
 20
1798.626809670375
 10
881.9070770573402
 20
1798.595409806722
 10
881.9594148969287
 20
1798.566079437259
 10
882.012883773774
 20
1798.538865484322
 10
882.0673981490797
 20
1798.513811484429
 10
882.1228708114741
 20
1798.490957518636
 10
882.1792130165309
 20
1798.470340148412
 10
882.2363346287414
 20
1798.451992357153
 10
882.2941442657107
 20
1798.435943497409
 10
882.352549444352
 20
1798.422219243934
 10
882.4114567288388
 20
1798.410841552604
 10
882.4707718800821
 20
1798.401828625299
 10
882.5304000064928
 20
1798.39519488078
 10
882.5902457157889
 20
1798.390950931624
 10
882.6502132676017
 20
1798.389103567242
 10
882.7102067266411
 20
1798.389655743024
 10
882.7701301161702
 20
1798.392606575608
 10
882.8298875715491
 20
1798.39795134429
 10
882.8893834935964
 20
1798.40568149858
 10
882.9485227015284
 20
1798.41578467188
 10
883.0072105852288
 20
1798.42824470127
 10
883.0653532566028
 20
1798.443041653358
 10
883.1228576997789
 20
1798.460151856179
 10
883.1796319199156
 20
1798.479547937059
 10
883.2355850903715
 20
1798.501198866404
 10
883.29062769801
 20
1798.525070007348
 10
883.3446716864006
 20
1798.551123171157
 10
883.3976305966908
 20
1798.579316678325
 10
883.4494197059212
 20
1798.609605425258
 10
883.4999561625652
 20
1798.641940956419
 10
883.5491591190724
 20
1798.676271541858
 10
883.5969498612083
 20
1798.71254225996
 10
883.6432519339807
 20
1798.750695085315
 10
883.6879912639501
 20
1798.790668981542
 10
883.7310962777323
 20
1798.832399998931
 10
883.7724980165011
 20
1798.87582137676
 10
883.8121302463061
 20
1798.920863650085
 10
883.8499295640334
 20
1798.967454760878
 10
883.885835498839
 20
1799.0155201733
 10
883.9197906088864
 20
1799.064982992946
 10
883.9517405732426
 20
1799.115764089855
 10
883.9816342787807
 20
1799.167782225104
 10
884.0094239019485
 20
1799.220954180774
 10
884.0350649852771
 20
1799.275194893079
 10
884.0585165085032
 20
1799.330417588449
 10
884.0797409541922
 20
1799.386533922353
 10
884.0987043677586
 20
1799.443454120627
 10
884.1153764117862
 20
1799.501087123095
 10
884.1297304145609
 20
1799.559340729249
 10
884.1417434127404
 20
1799.618121745746
 10
884.1513961880901
 20
1799.677336135497
 10
884.1586732982285
 20
1799.736889168112
 10
884.1623122002143
 20
1799.781388557191
1001
REVIT
1002
{
1070
     3
1000
939838
1002
}
  0
LINE
  5
181
330
174
100
AcDbEntity
  8
M-PIPE
100
AcDbLine
 10
885.1664074431873
 20
1751.747075844248
 30
0.0
 11
890.6664074431873
 21
1751.747075844248
 31
0.0
1001
REVIT
1002
{
1070
     3
1000
939838
1002
}
  0
LINE
  5
182
330
174
100
AcDbEntity
  8
M-PIPE
100
AcDbLine
 10
884.1664074431879
 20
1804.747075844248
 30
0.0
 11
884.1664074431879
 21
1754.891194073233
 31
0.0
1001
REVIT
1002
{
1070
     3
1000
939838
1002
}
  0
LINE
  5
183
330
174
100
AcDbEntity
  8
M-PIPE
100
AcDbLine
 10
884.9724087065814
 20
1751.747075844248
 30
0.0
 11
885.1664074431875
 21
1751.747075844248
 31
0.0
1001
REVIT
1002
{
1070
     3
1000
939838
1002
}
  0
LINE
  5
184
330
174
100
AcDbEntity
  8
M-PIPE
100
AcDbLine
 10
875.3436174917416
 20
1764.214967926166
 30
0.0
 11
877.1904156600127
 21
1759.870889580585
 31
0.0
1001
REVIT
1002
{
1070
     3
1000
939838
1002
}
  0
LINE
  5
185
330
174
100
AcDbEntity
  8
M-PIPE
100
AcDbLine
 10
881.1664074431874
 20
1757.572460486501
 30
0.0
 11
881.1664074431874
 21
1804.747075844248
 31
0.0
1001
REVIT
1002
{
1070
     3
1000
939838
1002
}
  0
LINE
  5
186
330
174
100
AcDbEntity
  8
M-PIPE
100
AcDbLine
 10
746.1664074431873
 20
1751.747075844249
 30
0.0
 11
746.3624518180584
 21
1751.747075844249
 31
0.0
1001
REVIT
1002
{
1070
     3
1000
939838
1002
}
  0
LINE
  5
187
330
174
100
AcDbEntity
  8
M-PIPE
100
AcDbLine
 10
747.1664074431872
 20
1754.89921624798
 30
0.0
 11
747.1664074431873
 21
1804.747075844249
 31
0.0
1001
REVIT
1002
{
1070
     3
1000
939838
1002
}
  0
LINE
  5
188
330
174
100
AcDbEntity
  8
M-PIPE
100
AcDbLine
 10
754.147623664625
 20
1759.886563002081
 30
0.0
 11
756.004940017061
 21
1764.245325365793
 31
0.0
1001
REVIT
1002
{
1070
     3
1000
939838
1002
}
  0
LINE
  5
189
330
174
100
AcDbEntity
  8
M-PIPE
100
AcDbLine
 10
750.1664074431877
 20
1804.747075844249
 30
0.0
 11
750.1664074431877
 21
1757.585459161917
 31
0.0
1001
REVIT
1002
{
1070
     3
1000
939838
1002
}
  0
LINE
  5
18A
330
174
100
AcDbEntity
  8
M-PIPE
100
AcDbLine
 10
740.6664074431874
 20
1751.747075844249
 30
0.0
 11
746.1664074431873
 21
1751.747075844249
 31
0.0
1001
REVIT
1002
{
1070
     3
1000
939838
1002
}
  0
LINE
  5
18B
330
174
100
AcDbEntity
  8
M-PIPE
100
AcDbLine
 10
786.1674667842132
 20
1743.997075844252
 30
0.0
 11
791.7314306836326
 21
1740.78471978916
 31
0.0
1001
REVIT
1002
{
1070
     3
1000
938184
1002
}
  0
LWPOLYLINE
  5
18C
330
174
100
AcDbEntity
  8
M-PIPE
100
AcDbPolyline
 90
       14
 70
   128
 43
0.0
 10
786.1674667842137
 20
1759.497075844252
 10
785.8811454504084
 20
1758.311233674712
 10
785.6424741819413
 20
1757.114890252922
 10
785.4518348019281
 20
1755.909959473152
 10
785.3095322927089
 20
1754.698368967609
 10
785.2157943079427
 20
1753.482057022645
 10
785.1707708084084
 20
1752.262969477905
 10
785.1745338221008
 20
1751.043056613403
 10
785.2270773290009
 20
1749.824270029487
 10
785.3283172707062
 20
1748.608559524698
 10
785.4780916849064
 20
1747.397869976506
 10
785.6761609644894
 20
1746.194138229921
 10
785.9222082408605
 20
1744.999289998956
 10
786.1674667842132
 20
1743.997075844252
1001
REVIT
1002
{
1070
     3
1000
938184
1002
}
  0
LINE
  5
18D
330
174
100
AcDbEntity
  8
M-PIPE
100
AcDbLine
 10
792.8098807102757
 20
1763.332075312532
 30
0.0
 11
786.1674667842137
 21
1759.497075844252
 31
0.0
1001
REVIT
1002
{
1070
     3
1000
938184
1002
}
  0
LWPOLYLINE
  5
18E
330
174
100
AcDbEntity
  8
M-PIPE
100
AcDbPolyline
 90
       55
 70
   128
 43
0.0
 10
838.522934176141
 20
1763.33207531251
 10
838.0090752926989
 20
1764.236179754632
 10
837.4594729068791
 20
1765.119012135019
 10
836.8750062652571
 20
1765.979160110189
 10
836.256610389779
 20
1766.81524762687
 10
835.6052745819292
 20
1767.625937123391
 10
834.9220408400553
 20
1768.409931669497
 10
834.208002192396
 20
1769.165977041156
 10
833.4643009484672
 20
1769.892863727054
 10
832.6921268716114
 20
1770.589428863556
 10
831.8927152756298
 20
1771.254558095035
 10
831.0673450485444
 20
1771.887187356608
 10
830.2173366066481
 20
1772.48630457641
 10
829.3440497821233
 20
1773.050951294694
 10
828.4488816475976
 20
1773.580224197163
 10
827.5332642811273
 20
1774.073276560077
 10
826.5986624751771
 20
1774.529319604836
 10
825.646571393266
 20
1774.947623759852
 10
824.6785141780229
 20
1775.327519827709
 10
823.6960395144844
 20
1775.668400055741
 10
822.7007191525286
 20
1775.969719108298
 10
821.6941453924111
 20
1776.230994939175
 10
820.6779285374235
 20
1776.451809562778
 10
819.6536943177527
 20
1776.631809722815
 10
818.6230812896585
 20
1776.770707457427
 10
817.5877382141335
 20
1776.868280559869
 10
816.549321419237
 20
1776.924372933991
 10
815.5094921503236
 20
1776.93889484396
 10
814.4699139124057
 20
1776.911823057819
 10
813.4322498088984
 20
1776.84320088465
 10
812.3981598810113
 20
1776.733138105291
 10
811.3692984520344
 20
1776.581810796711
 10
810.3473114807762
 20
1776.389461050323
 10
809.3338339283777
 20
1776.156396584687
 10
808.3304871427257
 20
1775.882990253231
 10
807.3388762646418
 20
1775.569679447762
 10
806.3605876599984
 20
1775.216965398733
 10
805.3971863818727
 20
1774.82541237338
 10
804.4502136667944
 20
1774.395646773017
 10
803.521184469098
 20
1773.928356130927
 10
802.6115850373175
 20
1773.424288012452
 10
801.7228705365063
 20
1772.884248819055
 10
800.8564627202829
 20
1772.309102498241
 10
800.0137476563303
 20
1771.699769161434
 10
799.1960735089803
 20
1771.057223611987
 10
798.4047483824415
 20
1770.382493785711
 10
797.6410382281089
 20
1769.676659106394
 10
796.9061648193136
 20
1768.940848758952
 10
796.2013037967446
 20
1768.176239882976
 10
795.527582787676
 20
1767.384055689561
 10
794.8860796020028
 20
1766.565563504424
 10
794.2778205079754
 20
1765.722072740462
 10
793.7037785903888
 20
1764.854932802959
 10
793.1648721938564
 20
1763.965530930837
 10
792.8098807102757
 20
1763.332075312532
1001
REVIT
1002
{
1070
     3
1000
938184
1002
}
  0
LINE
  5
18F
330
174
100
AcDbEntity
  8
M-PIPE
100
AcDbLine
 10
845.1653481021649
 20
1759.497075844251
 30
0.0
 11
838.522934176141
 21
1763.33207531251
 31
0.0
1001
REVIT
1002
{
1070
     3
1000
938184
1002
}
  0
LWPOLYLINE
  5
190
330
174
100
AcDbEntity
  8
M-PIPE
100
AcDbPolyline
 90
       14
 70
   128
 43
0.0
 10
845.1653481021649
 20
1743.997075844251
 10
845.4516694359702
 20
1745.182918013791
 10
845.6903407044373
 20
1746.37926143558
 10
845.8809800844504
 20
1747.584192215351
 10
846.0232825936694
 20
1748.795782720893
 10
846.1170205784357
 20
1750.012094665857
 10
846.1620440779702
 20
1751.231182210597
 10
846.1582810642777
 20
1752.4510950751
 10
846.1057375573776
 20
1753.669881659015
 10
846.0044976156725
 20
1754.885592163805
 10
845.8547232014719
 20
1756.096281711997
 10
845.656653921889
 20
1757.300013458581
 10
845.410606645518
 20
1758.494861689547
 10
845.1653481021649
 20
1759.497075844251
1001
REVIT
1002
{
1070
     3
1000
938184
1002
}
  0
LINE
  5
191
330
174
100
AcDbEntity
  8
M-PIPE
100
AcDbLine
 10
839.6013842027803
 20
1740.78471978918
 30
0.0
 11
845.1653481021649
 21
1743.997075844251
 31
0.0
1001
REVIT
1002
{
1070
     3
1000
938184
1002
}
  0
LWPOLYLINE
  5
192
330
174
100
AcDbEntity
  8
M-PIPE
100
AcDbPolyline
 90
       60
 70
   128
 43
0.0
 10
791.7314306836328
 20
1740.78471978916
 10
792.1566537472052
 20
1739.835698640521
 10
792.6194874015443
 20
1738.904440994771
 10
793.1191912115362
 20
1737.992436665484
 10
793.6549657576827
 20
1737.101144665038
 10
794.2259539150021
 20
1736.231990870501
 10
794.831242224247
 20
1735.386365742534
 10
795.4698623532443
 20
1734.565622100951
 10
796.1407926460188
 20
1733.771072960498
 10
796.8429597572264
 20
1733.003989430303
 10
797.5752403692771
 20
1732.26559868038
 10
798.3364629894031
 20
1731.557081978413
 10
799.1254098237971
 20
1730.879572799982
 10
799.9408187258243
 20
1730.234155015247
 10
800.7813852151862
 20
1729.621861154981
 10
801.6457645648106
 20
1729.043670758744
 10
802.5325739521298
 20
1728.50050880783
 10
803.4403946712993
 20
1727.993244245492
 10
804.367774402827
 20
1727.522688586819
 10
805.3132295369728
 20
1727.089594620484
 10
806.2752475472084
 20
1726.694655204446
 10
807.2522894099373
 20
1726.338502157522
 10
808.2427920666029
 20
1726.021705248611
 10
809.2451709242512
 20
1725.744771285186
 10
810.2578223905389
 20
1725.508143302515
 10
811.2791264391409
 20
1725.312199854891
 10
812.307449201446
 20
1725.157254410031
 10
813.3411455803985
 20
1725.043554847594
 10
814.378561882302
 20
1724.971283062625
 10
815.4180384623774
 20
1724.940554674563
 10
816.4579123798393
 20
1724.951418842273
 10
817.496520058248
 20
1725.003858185406
 10
818.532199946876
 20
1725.097788812198
 10
819.5632951788347
 20
1725.233060453684
 10
820.5881562217076
 20
1725.409456704094
 10
821.6051435164523
 20
1725.626695367056
 10
822.6126301003425
 20
1725.884428907052
 10
823.6090042097632
 20
1726.182245005399
 10
824.5926718586876
 20
1726.519667219868
 10
825.5620593887154
 20
1726.896155746897
 10
826.5156159865902
 20
1727.311108285156
 10
827.4518161651698
 20
1727.763860999101
 10
828.3691622038812
 20
1728.253689580973
 10
829.2661865447517
 20
1728.779810409532
 10
830.1414541401909
 20
1729.341381803686
 10
830.9935647487604
 20
1729.937505368998
 10
831.8211551752604
 20
1730.567227434932
 10
832.6229014515515
 20
1731.229540580514
 10
833.3975209546215
 20
1731.923385245999
 10
834.1437744585089
 20
1732.647651427933
 10
834.8604681168003
 20
1733.401180454927
 10
835.5464553725282
 20
1734.182766841283
 10
836.2006387924198
 20
1734.991160215512
 10
836.8219718225555
 20
1735.825067320662
 10
837.4094604626302
 20
1736.683154083257
 10
837.9621648561444
 20
1737.564047747525
 10
838.4792007939728
 20
1738.466339071518
 10
838.9597411289095
 20
1739.388584581595
 10
839.4030170989285
 20
1740.329308881675
 10
839.6013842027803
 20
1740.78471978918
1001
REVIT
1002
{
1070
     3
1000
938184
1002
}
  0
SPLINE
  5
193
330
174
100
AcDbEntity
  8
M-PIPE
100
AcDbSpline
210
0.0
220
0.0
230
1.0
 70
     8
 71
     3
 72
    14
 73
    10
 74
     0
 42
0.000000001
 43
0.0000000001
 40
0.0
 40
0.0
 40
0.0
 40
0.0
 40
0.1428571428571428
 40
0.2857142857142857
 40
0.4285714285714286
 40
0.5714285714285714
 40
0.6785714285714287
 40
0.7857142857142857
 40
1.0
 40
1.0
 40
1.0
 40
1.0
 10
789.2273773336095
 20
1746.271887549187
 30
0.0
 10
789.0054029981402
 20
1746.113367249811
 30
0.0
 10
788.5651645425852
 20
1745.790433213368
 30
0.0
 10
787.9284287808529
 20
1745.322616706062
 30
0.0
 10
787.3479658048895
 20
1744.890049691654
 30
0.0
 10
786.8924822362222
 20
1744.547491636624
 30
0.0
 10
786.5604582405447
 20
1744.296535009723
 30
0.0
 10
786.262792374943
 20
1744.069758339435
 30
0.0
 10
786.1681539418273
 20
1743.996679113617
 30
0.0
 10
786.1674667842119
 20
1743.997075844251
 30
0.0
1001
REVIT
1002
{
1070
     3
1000
938184
1002
}
  0
SPLINE
  5
194
330
174
100
AcDbEntity
  8
M-PIPE
100
AcDbSpline
210
0.0
220
0.0
230
1.0
 70
     8
 71
     3
 72
    13
 73
     9
 74
     0
 42
0.000000001
 43
0.0000000001
 40
-1.0
 40
-1.0
 40
-1.0
 40
-1.0
 40
-0.8333333333333332
 40
-0.6666666666666666
 40
-0.5
 40
-0.3333333333333333
 40
-0.1666666666666666
 40
0.0
 40
0.0
 40
0.0
 40
0.0
 10
789.2273773336096
 20
1757.222264139314
 30
0.0
 10
788.9473775787463
 20
1757.413289415183
 30
0.0
 10
788.4028445085999
 20
1757.804237374432
 30
0.0
 10
787.6699020617796
 20
1758.3669976699
 30
0.0
 10
787.0310560049034
 20
1758.844786406217
 30
0.0
 10
786.5395885936208
 20
1759.210678579174
 30
0.0
 10
786.2429739809764
 20
1759.447809113372
 30
0.0
 10
786.1705875276006
 20
1759.498877606286
 30
0.0
 10
786.1674667842121
 20
1759.497075844251
 30
0.0
1001
REVIT
1002
{
1070
     3
1000
938184
1002
}
  0
SPLINE
  5
195
330
174
100
AcDbEntity
  8
M-PIPE
100
AcDbSpline
210
0.0
220
0.0
230
1.0
 70
     8
 71
     3
 72
    13
 73
     9
 74
     0
 42
0.000000001
 43
0.0000000001
 40
0.0
 40
0.0
 40
0.0
 40
0.0
 40
0.1428571428571428
 40
0.2857142857142857
 40
0.4285714285714286
 40
0.5714285714285714
 40
0.7857142857142857
 40
1.0
 40
1.0
 40
1.0
 40
1.0
 10
795.4492833782843
 20
1760.814483269079
 30
0.0
 10
795.2536617868852
 20
1760.995472034267
 30
0.0
 10
794.8656935725389
 20
1761.361636386243
 30
0.0
 10
794.3080411318122
 20
1761.888967884953
 30
0.0
 10
793.8052363336423
 20
1762.369686382465
 30
0.0
 10
793.3100339178801
 20
1762.846355150832
 30
0.0
 10
792.9139301095577
 20
1763.230582447399
 30
0.0
 10
792.8102022058233
 20
1763.332260928073
 30
0.0
 10
792.8098807102742
 20
1763.332075312531
 30
0.0
1001
REVIT
1002
{
1070
     3
1000
938184
1002
}
  0
SPLINE
  5
196
330
174
100
AcDbEntity
  8
M-PIPE
100
AcDbSpline
210
0.0
220
0.0
230
1.0
 70
     8
 71
     3
 72
    11
 73
     7
 74
     0
 42
0.000000001
 43
0.0000000001
 40
-1.0
 40
-1.0
 40
-1.0
 40
-1.0
 40
-0.8333333333333332
 40
-0.6666666666666666
 40
-0.5
 40
-0.3333333333333333
 40
-0.3333333333333333
 40
-0.3333333333333333
 40
-0.3333333333333333
 10
835.8835315081277
 20
1760.814483269059
 30
0.0
 10
836.1214287080295
 20
1761.028144126941
 30
0.0
 10
836.588391049125
 20
1761.462571338366
 30
0.0
 10
837.2242629500767
 20
1762.082747996627
 30
0.0
 10
837.7862905997099
 20
1762.615895987313
 30
0.0
 10
838.0727269026875
 20
1762.885229290426
 30
0.0
 10
838.1862379801122
 20
1762.995005913624
 30
0.0
1001
REVIT
1002
{
1070
     3
1000
938184
1002
}
  0
SPLINE
  5
197
330
174
100
AcDbEntity
  8
M-PIPE
100
AcDbSpline
210
0.0
220
0.0
230
1.0
 70
     8
 71
     3
 72
     9
 73
     5
 74
     0
 42
0.000000001
 43
0.0000000001
 40
-0.3325048870486646
 40
-0.3325048870486646
 40
-0.3325048870486646
 40
-0.3325048870486646
 40
-0.1666666666666666
 40
0.0
 40
0.0
 40
0.0
 40
0.0
 10
838.1879284593173
 20
1762.99664106094
 30
0.0
 10
838.3005814959137
 20
1763.105625728365
 30
0.0
 10
838.4674972035433
 20
1763.274697520922
 30
0.0
 10
838.5237434542849
 20
1763.331608075554
 30
0.0
 10
838.5229341761395
 20
1763.332075312509
 30
0.0
1001
REVIT
1002
{
1070
     3
1000
938184
1002
}
  0
SPLINE
  5
198
330
174
100
AcDbEntity
  8
M-PIPE
100
AcDbSpline
210
0.0
220
0.0
230
1.0
 70
     8
 71
     3
 72
    14
 73
    10
 74
     0
 42
0.000000001
 43
0.0000000001
 40
0.0
 40
0.0
 40
0.0
 40
0.0
 40
0.1428571428571428
 40
0.2857142857142857
 40
0.4285714285714286
 40
0.5714285714285714
 40
0.6785714285714287
 40
0.7857142857142857
 40
1.0
 40
1.0
 40
1.0
 40
1.0
 10
842.1054375527662
 20
1757.222264139313
 30
0.0
 10
842.3274118882353
 20
1757.380784438689
 30
0.0
 10
842.7676503437904
 20
1757.703718475133
 30
0.0
 10
843.4043861055227
 20
1758.171534982439
 30
0.0
 10
843.984849081486
 20
1758.604101996846
 30
0.0
 10
844.4403326501532
 20
1758.946660051877
 30
0.0
 10
844.7723566458305
 20
1759.197616678777
 30
0.0
 10
845.0700225114324
 20
1759.424393349066
 30
0.0
 10
845.164660944548
 20
1759.497472574884
 30
0.0
 10
845.1653481021635
 20
1759.49707584425
 30
0.0
1001
REVIT
1002
{
1070
     3
1000
938184
1002
}
  0
SPLINE
  5
199
330
174
100
AcDbEntity
  8
M-PIPE
100
AcDbSpline
210
0.0
220
0.0
230
1.0
 70
     8
 71
     3
 72
    13
 73
     9
 74
     0
 42
0.000000001
 43
0.0000000001
 40
-1.0
 40
-1.0
 40
-1.0
 40
-1.0
 40
-0.8333333333333332
 40
-0.6666666666666666
 40
-0.5
 40
-0.3333333333333333
 40
-0.1666666666666666
 40
0.0
 40
0.0
 40
0.0
 40
0.0
 10
842.1054375527662
 20
1746.271887549187
 30
0.0
 10
842.3854373076293
 20
1746.080862273318
 30
0.0
 10
842.9299703777756
 20
1745.689914314069
 30
0.0
 10
843.6629128245959
 20
1745.127154018601
 30
0.0
 10
844.3017588814722
 20
1744.649365282284
 30
0.0
 10
844.7932262927549
 20
1744.283473109326
 30
0.0
 10
845.0898409053992
 20
1744.046342575128
 30
0.0
 10
845.1622273587751
 20
1743.995274082215
 30
0.0
 10
845.1653481021635
 20
1743.99707584425
 30
0.0
1001
REVIT
1002
{
1070
     3
1000
938184
1002
}
  0
SPLINE
  5
19A
330
174
100
AcDbEntity
  8
M-PIPE
100
AcDbSpline
210
0.0
220
0.0
230
1.0
 70
     8
 71
     3
 72
    10
 73
     6
 74
     0
 42
0.000000001
 43
0.0000000001
 40
0.0
 40
0.0
 40
0.0
 40
0.0
 40
0.1666666666666666
 40
0.25
 40
0.3304009551247757
 40
0.3304009551247757
 40
0.3304009551247757
 40
0.3304009551247757
 10
791.7314306836312
 20
1740.78471978916
 30
0.0
 10
791.7292082558774
 20
1740.786002908421
 30
0.0
 10
791.7713305723306
 20
1740.827762288422
 30
0.0
 10
791.91839780094
 20
1740.962085869206
 30
0.0
 10
792.0190760450464
 20
1741.05377834546
 30
0.0
 10
792.0763286123186
 20
1741.104297959548
 30
0.0
1001
REVIT
1002
{
1070
     3
1000
938184
1002
}
  0
SPLINE
  5
19B
330
174
100
AcDbEntity
  8
M-PIPE
100
AcDbSpline
210
0.0
220
0.0
230
1.0
 70
     8
 71
     3
 72
    11
 73
     7
 74
     0
 42
0.000000001
 43
0.0000000001
 40
0.3333333333333333
 40
0.3333333333333333
 40
0.3333333333333333
 40
0.3333333333333333
 40
0.5
 40
0.6666666666666666
 40
0.8333333333333332
 40
1.0
 40
1.0
 40
1.0
 40
1.0
 10
792.0826241881243
 20
1741.109847502235
 30
0.0
 10
792.2024903062601
 20
1741.215401078686
 30
0.0
 10
792.5097347133806
 20
1741.473551758688
 30
0.0
 10
793.1112277742502
 20
1741.987763247384
 30
0.0
 10
793.7866098625806
 20
1742.585652459646
 30
0.0
 10
794.2835523532144
 20
1743.002294059756
 30
0.0
 10
794.5370311383323
 20
1743.206357495727
 30
0.0
1001
REVIT
1002
{
1070
     3
1000
938184
1002
}
  0
SPLINE
  5
19C
330
174
100
AcDbEntity
  8
M-PIPE
100
AcDbSpline
210
0.0
220
0.0
230
1.0
 70
     8
 71
     3
 72
    13
 73
     9
 74
     0
 42
0.000000001
 43
0.0000000001
 40
0.0
 40
0.0
 40
0.0
 40
0.0
 40
0.1428571428571428
 40
0.2857142857142857
 40
0.4285714285714286
 40
0.5714285714285714
 40
0.7857142857142857
 40
1.0
 40
1.0
 40
1.0
 40
1.0
 10
836.7957837480762
 20
1743.206357495745
 30
0.0
 10
837.0022783499965
 20
1743.03445807625
 30
0.0
 10
837.4116929806248
 20
1742.685663489807
 30
0.0
 10
838.0014901068125
 20
1742.181861320779
 30
0.0
 10
838.5352117244194
 20
1741.719985198946
 30
0.0
 10
839.0634265629417
 20
1741.259120979513
 30
0.0
 10
839.4889835603066
 20
1740.884388713422
 30
0.0
 10
839.6009507358266
 20
1740.784469526917
 30
0.0
 10
839.6013842027787
 20
1740.784719789179
 30
0.0
1001
REVIT
1002
{
1070
     3
1000
938184
1002
}
  0
ARC
  5
19D
330
174
100
AcDbEntity
  8
M-PIPE
100
AcDbCircle
 10
815.6664074431887
 20
1750.939368356156
 30
0.0
 40
29.99999999999993
100
AcDbArc
 50
17.63401603611198
 51
162.365983963884
1001
REVIT
1002
{
1070
     3
1000
938184
1002
}
  0
ARC
  5
19E
330
174
100
AcDbEntity
  8
M-PIPE
100
AcDbCircle
 10
815.6664074431887
 20
1750.939368356156
 30
0.0
 40
30.00000000000002
100
AcDbArc
 50
193.8039812784009
 51
346.1960187216003
1001
REVIT
1002
{
1070
     3
1000
938184
1002
}
  0
LINE
  5
19F
330
174
100
AcDbEntity
  8
M-PIPE
100
AcDbLine
 10
852.1664074431894
 20
1758.74707584425
 30
0.0
 11
845.3284194192322
 21
1758.74707584425
 31
0.0
1001
REVIT
1002
{
1070
     3
1000
790271
1002
}
  0
LINE
  5
1A0
330
174
100
AcDbEntity
  8
M-PIPE
100
AcDbLine
 10
845.3284194192319
 20
1744.74707584425
 30
0.0
 11
852.1664074431892
 21
1744.74707584425
 31
0.0
1001
REVIT
1002
{
1070
     3
1000
790271
1002
}
  0
ARC
  5
1A1
330
174
100
AcDbEntity
  8
M-PIPE
100
AcDbCircle
 10
752.6624518180585
 20
1751.747075844233
 30
0.0
 40
6.299999999999993
100
AcDbArc
 50
179.9999999998469
 51
239.9999999999996
1001
REVIT
1002
{
1070
     3
1000
790271
1002
}
  0
ARC
  5
1A2
330
174
100
AcDbEntity
  8
M-PIPE
100
AcDbCircle
 10
752.6624518180585
 20
1751.747075844233
 30
0.0
 40
6.300000000000044
100
AcDbArc
 50
119.9999999999989
 51
179.9999999998474
1001
REVIT
1002
{
1070
     3
1000
790271
1002
}
  0
LINE
  5
1A3
330
174
100
AcDbEntity
  8
M-PIPE
100
AcDbLine
 10
755.3044989246646
 20
1742.947075844233
 30
0.0
 11
749.5124518180585
 21
1746.291115800391
 31
0.0
1001
REVIT
1002
{
1070
     3
1000
790271
1002
}
  0
LINE
  5
1A4
330
174
100
AcDbEntity
  8
M-PIPE
100
AcDbLine
 10
779.2066322788
 20
1702.84222133099
 30
0.0
 11
772.7464431632177
 21
1701.111218874518
 31
0.0
1001
REVIT
1002
{
1070
     3
1000
790271
1002
}
  0
ARC
  5
1A5
330
174
100
AcDbEntity
  8
M-PIPE
100
AcDbCircle
 10
815.6664074431999
 20
1751.747075844233
 30
0.0
 40
61.00000000000005
100
AcDbArc
 50
233.2945626726638
 51
261.7054373273054
1001
REVIT
1002
{
1070
     3
1000
790271
1002
}
  0
ARC
  5
1A6
330
174
100
AcDbEntity
  8
M-PIPE
100
AcDbCircle
 10
815.6664074431876
 20
1751.74707584425
 30
0.0
 40
48.90485451326415
100
AcDbArc
 50
359.9999999999992
 51
179.9999999999989
1001
REVIT
1002
{
1070
     3
1000
790271
1002
}
  0
ARC
  5
1A7
330
174
100
AcDbEntity
  8
M-PIPE
100
AcDbCircle
 10
815.6664074431876
 20
1751.74707584425
 30
0.0
 40
48.90485451326414
100
AcDbArc
 50
180.0000000000002
 51
359.9999999999993
1001
REVIT
1002
{
1070
     3
1000
790271
1002
}
  0
LINE
  5
1A8
330
174
100
AcDbEntity
  8
M-PIPE
100
AcDbLine
 10
749.5124518180586
 20
1757.203035888075
 30
0.0
 11
755.3044989246649
 21
1760.547075844234
 31
0.0
1001
REVIT
1002
{
1070
     3
1000
790271
1002
}
  0
ARC
  5
1A9
330
174
100
AcDbEntity
  8
M-PIPE
100
AcDbCircle
 10
815.6664074431999
 20
1751.747075844233
 30
0.0
 40
60.99999999999983
100
AcDbArc
 50
188.2945626726909
 51
216.7054373272835
1001
REVIT
1002
{
1070
     3
1000
790271
1002
}
  0
LINE
  5
1AA
330
174
100
AcDbEntity
  8
M-PIPE
100
AcDbLine
 10
765.0305504734506
 20
1708.827111564285
 30
0.0
 11
766.7615529299255
 21
1715.287300679877
 31
0.0
1001
REVIT
1002
{
1070
     3
1000
790271
1002
}
  0
ARC
  5
1AB
330
174
100
AcDbEntity
  8
M-PIPE
100
AcDbCircle
 10
771.1158831790718
 20
1707.196551580139
 30
0.0
 40
6.300000000000087
100
AcDbArc
 50
165.0000000000032
 51
284.9999999999993
1001
REVIT
1002
{
1070
     3
1000
790271
1002
}
  0
LINE
  5
1AC
330
174
100
AcDbEntity
  8
M-PIPE
100
AcDbLine
 10
810.2104473993577
 20
1685.593120219091
 30
0.0
 11
806.8664074431987
 21
1691.385167325698
 31
0.0
1001
REVIT
1002
{
1070
     3
1000
790271
1002
}
  0
ARC
  5
1AD
330
174
100
AcDbEntity
  8
M-PIPE
100
AcDbCircle
 10
815.6664074431995
 20
1688.743120219092
 30
0.0
 40
6.300000000000077
100
AcDbArc
 50
210.0000000000024
 51
330.0000000000026
1001
REVIT
1002
{
1070
     3
1000
790271
1002
}
  0
LINE
  5
1AE
330
174
100
AcDbEntity
  8
M-PIPE
100
AcDbLine
 10
824.4664074431993
 20
1691.385167325698
 30
0.0
 11
821.1223674870417
 21
1685.593120219092
 31
0.0
1001
REVIT
1002
{
1070
     3
1000
790271
1002
}
  0
ARC
  5
1AF
330
174
100
AcDbEntity
  8
M-PIPE
100
AcDbCircle
 10
815.6664074431999
 20
1751.747075844233
 30
0.0
 40
60.99999999999982
100
AcDbArc
 50
278.2945626726904
 51
306.6583576303663
1001
REVIT
1002
{
1070
     3
1000
790271
1002
}
  0
LINE
  5
1B0
330
174
100
AcDbEntity
  8
M-PIPE
100
AcDbLine
 10
858.5610575752918
 20
1701.077288640974
 30
0.0
 11
852.0859853938127
 21
1702.812279002934
 31
0.0
1001
REVIT
1002
{
1070
     3
1000
790271
1002
}
  0
ARC
  5
1B1
330
174
100
AcDbEntity
  8
M-PIPE
100
AcDbCircle
 10
860.1916175594377
 20
1707.162621346595
 30
0.0
 40
6.300000000000007
100
AcDbArc
 50
254.9999999999998
 51
15.00000000000087
1001
REVIT
1002
{
1070
     3
1000
790271
1002
}
  0
LINE
  5
1B2
330
174
100
AcDbEntity
  8
M-PIPE
100
AcDbLine
 10
864.545947808584
 20
1715.253370446331
 30
0.0
 11
866.2769502650588
 21
1708.79318133074
 31
0.0
1001
REVIT
1002
{
1070
     3
1000
790271
1002
}
  0
ARC
  5
1B3
330
174
100
AcDbEntity
  8
M-PIPE
100
AcDbCircle
 10
815.6664074431999
 20
1751.747075844233
 30
0.0
 40
60.99999999999996
100
AcDbArc
 50
323.2548005183458
 51
351.6895339267376
1001
REVIT
1002
{
1070
     3
1000
790271
1002
}
  0
LINE
  5
1B4
330
174
100
AcDbEntity
  8
M-PIPE
100
AcDbLine
 10
881.8224246024842
 20
1746.276963481713
 30
0.0
 11
876.0258710495477
 21
1742.930321727553
 31
0.0
1001
REVIT
1002
{
1070
     3
1000
790271
1002
}
  0
ARC
  5
1B5
330
174
100
AcDbEntity
  8
M-PIPE
100
AcDbCircle
 10
878.6724246024842
 20
1751.732923525555
 30
0.0
 40
6.299999999999936
100
AcDbArc
 50
0.1287093354779144
 51
60.0000000000011
1001
REVIT
1002
{
1070
     3
1000
790271
1002
}
  0
ARC
  5
1B6
330
174
100
AcDbEntity
  8
M-PIPE
100
AcDbCircle
 10
878.6724246024842
 20
1751.732923525555
 30
0.0
 40
6.300000000000065
100
AcDbArc
 50
300.0000000000003
 51
0.1287093354779144
1001
REVIT
1002
{
1070
     3
1000
790271
1002
}
  0
LINE
  5
1B7
330
174
100
AcDbEntity
  8
M-PIPE
100
AcDbLine
 10
876.0303774958781
 20
1760.532923525555
 30
0.0
 11
881.8224246024842
 21
1757.188883569397
 31
0.0
1001
REVIT
1002
{
1070
     3
1000
790271
1002
}
  0
ARC
  5
1B8
330
174
100
AcDbEntity
  8
M-PIPE
100
AcDbCircle
 10
815.6664074431999
 20
1751.747075844233
 30
0.0
 40
60.99999999999997
100
AcDbArc
 50
8.281129461247681
 51
36.70543732732754
1001
REVIT
1002
{
1070
     3
1000
790271
1002
}
  0
LINE
  5
1B9
330
174
100
AcDbEntity
  8
M-PIPE
100
AcDbLine
 10
866.3022644129206
 20
1794.667040124212
 30
0.0
 11
864.5712619564475
 21
1788.206851008627
 31
0.0
1001
REVIT
1002
{
1070
     3
1000
790271
1002
}
  0
ARC
  5
1BA
330
174
100
AcDbEntity
  8
M-PIPE
100
AcDbCircle
 10
860.2169317072995
 20
1796.297600108357
 30
0.0
 40
6.300000000000007
100
AcDbArc
 50
345.0000000000008
 51
105.0000000000008
1001
REVIT
1002
{
1070
     3
1000
790271
1002
}
  0
LINE
  5
1BB
330
174
100
AcDbEntity
  8
M-PIPE
100
AcDbLine
 10
852.1261826075626
 20
1800.651930357503
 30
0.0
 11
858.5863717231536
 21
1802.382932813978
 31
0.0
1001
REVIT
1002
{
1070
     3
1000
790271
1002
}
  0
ARC
  5
1BC
330
174
100
AcDbEntity
  8
M-PIPE
100
AcDbCircle
 10
815.6664074431999
 20
1751.747075844233
 30
0.0
 40
61.00000000000004
100
AcDbArc
 50
53.29456267270885
 51
81.70543732730738
1001
REVIT
1002
{
1070
     3
1000
790271
1002
}
  0
LINE
  5
1BD
330
174
100
AcDbEntity
  8
M-PIPE
100
AcDbLine
 10
821.1223674870424
 20
1817.901031469375
 30
0.0
 11
824.4664074432009
 21
1812.108984362768
 31
0.0
1001
REVIT
1002
{
1070
     3
1000
790271
1002
}
  0
ARC
  5
1BE
330
174
100
AcDbEntity
  8
M-PIPE
100
AcDbCircle
 10
815.6664074432002
 20
1814.751031469375
 30
0.0
 40
6.30000000000005
100
AcDbArc
 50
29.99999999999992
 51
150.0000000000001
1001
REVIT
1002
{
1070
     3
1000
790271
1002
}
  0
LINE
  5
1BF
330
174
100
AcDbEntity
  8
M-PIPE
100
AcDbLine
 10
806.8664074432005
 20
1812.108984362768
 30
0.0
 11
810.2104473993582
 21
1817.901031469375
 31
0.0
1001
REVIT
1002
{
1070
     3
1000
790271
1002
}
  0
ARC
  5
1C0
330
174
100
AcDbEntity
  8
M-PIPE
100
AcDbCircle
 10
815.6664074431999
 20
1751.747075844233
 30
0.0
 40
60.9999999999999
100
AcDbArc
 50
98.29456267269193
 51
126.7054373273071
1001
REVIT
1002
{
1070
     3
1000
790271
1002
}
  0
LINE
  5
1C1
330
174
100
AcDbEntity
  8
M-PIPE
100
AcDbLine
 10
772.7464431632325
 20
1802.382932813969
 30
0.0
 11
779.2066322788242
 21
1800.651930357494
 31
0.0
1001
REVIT
1002
{
1070
     3
1000
790271
1002
}
  0
ARC
  5
1C2
330
174
100
AcDbEntity
  8
M-PIPE
100
AcDbCircle
 10
771.1158831790868
 20
1796.297600108347
 30
0.0
 40
6.300000000000007
100
AcDbArc
 50
75.00000000000113
 51
195.0000000000005
1001
REVIT
1002
{
1070
     3
1000
790271
1002
}
  0
LINE
  5
1C3
330
174
100
AcDbEntity
  8
M-PIPE
100
AcDbLine
 10
766.7615529299403
 20
1788.206851008611
 30
0.0
 11
765.0305504734657
 21
1794.667040124202
 31
0.0
1001
REVIT
1002
{
1070
     3
1000
790271
1002
}
  0
ARC
  5
1C4
330
174
100
AcDbEntity
  8
M-PIPE
100
AcDbCircle
 10
815.6664074431999
 20
1751.747075844233
 30
0.0
 40
60.99999999999993
100
AcDbArc
 50
143.2945626726919
 51
170.6344724451225
1001
REVIT
1002
{
1070
     3
1000
790271
1002
}
  0
ARC
  5
1C5
330
174
100
AcDbEntity
  8
M-PIPE
100
AcDbCircle
 10
815.6664074431999
 20
1751.747075844233
 30
0.0
 40
60.99999999999986
100
AcDbArc
 50
170.6344724451227
 51
171.7054373273084
1001
REVIT
1002
{
1070
     3
1000
790271
1002
}
  0
ARC
  5
1C6
330
174
100
AcDbEntity
  8
M-PIPE
100
AcDbCircle
 10
815.6664074431875
 20
1751.74707584425
 30
0.0
 40
57.50395562512903
100
AcDbArc
 50
0.0000000000000382
 51
179.9999999999996
1001
REVIT
1002
{
1070
     3
1000
790271
1002
}
  0
ARC
  5
1C7
330
174
100
AcDbEntity
  8
M-PIPE
100
AcDbCircle
 10
815.6664074431875
 20
1751.74707584425
 30
0.0
 40
57.50395562512927
100
AcDbArc
 50
179.9999999999995
 51
0.0
1001
REVIT
1002
{
1070
     3
1000
790271
1002
}
  0
LINE
  5
1C8
330
174
100
AcDbEntity
  8
M-PIPE
100
AcDbLine
 10
852.1664074431877
 20
1758.74707584425
 30
0.0
 11
852.1664074431878
 21
1751.74707584425
 31
0.0
1001
REVIT
1002
{
1070
     3
1000
790271
1002
}
  0
LINE
  5
1C9
330
174
100
AcDbEntity
  8
M-PIPE
100
AcDbLine
 10
852.1664074431878
 20
1751.747075844249
 30
0.0
 11
852.1664074431877
 21
1744.74707584425
 31
0.0
1001
REVIT
1002
{
1070
     3
1000
790271
1002
}
  0
ENDBLK
  5
1CB
330
174
100
AcDbEntity
  8
0
100
AcDbBlockEnd
  0
BLOCK
  5
269
330
1CD
100
AcDbEntity
  8
0
100
AcDbBlockBegin
  2
Automatic flow rate regulator valve_Caleffi_121 DN15 - 1_2__-V2-Est - Idraulica
 70
     0
 10
0.0
 20
0.0
 30
0.0
  3
Automatic flow rate regulator valve_Caleffi_121 DN15 - 1_2__-V2-Est - Idraulica
  1

  0
LWPOLYLINE
  5
1CE
330
1CD
100
AcDbEntity
  8
M-PIPE
100
AcDbPolyline
 90
       80
 70
   128
 43
0.0
 10
1125.363156828899
 20
2023.919060616155
 10
1123.243722117007
 20
2023.876666269187
 10
1121.127678048533
 20
2023.749551050194
 10
1119.018409842587
 20
2023.53791831641
 10
1116.919291878344
 20
2023.242106635063
 10
1114.833682296761
 20
2022.862589241741
 10
1112.764917628261
 20
2022.399973283313
 10
1110.716307455001
 20
2021.854998846626
 10
1108.691129116245
 20
2021.228537774524
 10
1106.692622465319
 20
2020.521592271085
 10
1104.72398468654
 20
2019.735293298308
 10
1102.788365180401
 20
2018.870898766813
 10
1100.8888605252
 20
2017.929791523457
 10
1099.028509523181
 20
2016.913477139071
 10
1097.210288339092
 20
2015.823581499866
 10
1095.437105738962
 20
2014.661848206368
 10
1093.711798436692
 20
2013.430135784023
 10
1092.03712655592
 20
2012.130414709954
 10
1090.415769214411
 20
2010.764764260622
 10
1088.85032023804
 20
2009.335369185423
 10
1087.343284011224
 20
2007.844516211555
 10
1085.897071470443
 20
2006.294590385744
 10
1084.513996247254
 20
2004.68807125868
 10
1083.196270966972
 20
2003.027528918258
 10
1081.946003708946
 20
2001.315619877995
 10
1080.76519463408
 20
1999.555082827166
 10
1079.655732785002
 20
1997.748734249492
 10
1078.619393063997
 20
1995.899463917363
 10
1077.657833393544
 20
1994.01023026882
 10
1076.772592063995
 20
1992.084055674687
 10
1075.965085272636
 20
1990.124021603418
 10
1075.236604858073
 20
1988.13326369141
 10
1074.58831623357
 20
1986.114966726648
 10
1074.021256522631
 20
1984.07235955373
 10
1073.536332899827
 20
1982.0087099084
 10
1073.134321139511
 20
1979.927319189867
 10
1072.81586437474
 20
1977.831517179276
 10
1072.581472068404
 20
1975.724656712763
 10
1072.431519198193
 20
1973.610108317634
 10
1072.366245656711
 20
1971.491254820243
 10
1072.3857558677
 20
1969.371485934186
 10
1072.490018618983
 20
1967.254192837489
 10
1072.678867112401
 20
1965.142762747441
 10
1072.95199923065
 20
1963.040573501772
 10
1073.308978020605
 20
1960.950988154832
 10
1073.749232392355
 20
1958.877349597421
 10
1074.272058032819
 20
1956.822975208879
 10
1074.876618532505
 20
1954.791151549984
 10
1075.561946723577
 20
1952.785129105157
 10
1076.326946227126
 20
1950.808117082382
 10
1077.170393207138
 20
1948.863278279156
 10
1078.09093832837
 20
1946.953724022686
 10
1079.087108915001
 20
1945.082509192434
 10
1080.157311306597
 20
1943.252627332955
 10
1081.299833407629
 20
1941.467005864872
 10
1082.512847426461
 20
1939.728501401621
 10
1083.794412799425
 20
1938.039895179483
 10
1085.142479295311
 20
1936.403888608194
 10
1086.554890295296
 20
1934.823098949275
 10
1088.02938624308
 20
1933.300055128962
 10
1089.563608259688
 20
1931.837193692469
 10
1091.155101917178
 20
1930.436854906032
 10
1092.801321165197
 20
1929.101279012989
 10
1094.499632404123
 20
1927.83260264986
 10
1096.247318698262
 20
1926.63285542819
 10
1098.041584122362
 20
1925.5039566876
 10
1099.879558234501
 20
1924.447712425257
 10
1101.75830066818
 20
1923.465812406662
 10
1103.674805836283
 20
1922.559827462381
 10
1105.626007739372
 20
1921.73120697506
 10
1107.608784870637
 20
1920.981276560716
 10
1109.619965209637
 20
1920.311235948035
 10
1111.656331296861
 20
1919.722157059062
 10
1113.714625380969
 20
1919.214982294357
 10
1115.791554630505
 20
1918.790523025353
 10
1117.883796401727
 20
1918.449458296331
 10
1119.98800355412
 20
1918.192333738103
 10
1122.100809805114
 20
1918.019560695112
 10
1124.218835115416
 20
1917.93141556737
 10
1125.363156828899
 20
1917.919060616155
1001
REVIT
1002
{
1070
     3
1000
939838
1002
}
  0
SPLINE
  5
1CF
330
1CD
100
AcDbEntity
  8
M-PIPE
100
AcDbSpline
210
0.0
220
0.0
230
1.0
 70
     8
 71
     3
 72
     9
 73
     5
 74
     0
 42
0.000000001
 43
0.0000000001
 40
0.1666666666666666
 40
0.1666666666666666
 40
0.1666666666666666
 40
0.1666666666666666
 40
0.3333333333333333
 40
0.3642409147897844
 40
0.3642409147897844
 40
0.3642409147897844
 40
0.3642409147897844
 10
1097.469369309585
 20
2015.985179727774
 30
0.0
 10
1097.536783858956
 20
2016.026925105149
 30
0.0
 10
1097.667290573979
 20
2016.105505860302
 30
0.0
 10
1097.81677610991
 20
2016.198781176838
 30
0.0
 10
1097.840851992877
 20
2016.213825884211
 30
0.0
1001
REVIT
1002
{
1070
     3
1000
939838
1002
}
  0
SPLINE
  5
1D0
330
1CD
100
AcDbEntity
  8
M-PIPE
100
AcDbSpline
210
0.0
220
0.0
230
1.0
 70
     8
 71
     3
 72
    10
 73
     6
 74
     0
 42
0.000000001
 43
0.0000000001
 40
0.1805710732816304
 40
0.1805710732816304
 40
0.1805710732816304
 40
0.1805710732816304
 40
0.3333333333333333
 40
0.6666666666666666
 40
0.8333333333333332
 40
0.8333333333333332
 40
0.8333333333333332
 40
0.8333333333333332
 10
1099.742844050152
 20
2017.315364626659
 30
0.0
 10
1099.456368162272
 20
2017.15716924115
 30
0.0
 10
1098.63355708215
 20
2016.692000828227
 30
0.0
 10
1097.789459472953
 20
2016.182387400202
 30
0.0
 10
1097.585095714997
 20
2016.05683266625
 30
0.0
 10
1097.529434317652
 20
2016.022363103573
 30
0.0
1001
REVIT
1002
{
1070
     3
1000
939838
1002
}
  0
ARC
  5
1D1
330
1CD
100
AcDbEntity
  8
M-PIPE
100
AcDbCircle
 10
1125.363156828897
 20
1970.919060616154
 30
0.0
 40
53.00000000000018
100
AcDbArc
 50
264.9999999999998
 51
265.712841676836
1001
REVIT
1002
{
1070
     3
1000
939838
1002
}
  0
ARC
  5
1D2
330
1CD
100
AcDbEntity
  8
M-PIPE
100
AcDbCircle
 10
1125.363156828897
 20
1970.919060616154
 30
0.0
 40
53.0000000000002
100
AcDbArc
 50
259.4826061651852
 51
261.4224314249979
1001
REVIT
1002
{
1070
     3
1000
939838
1002
}
  0
ARC
  5
1D3
330
1CD
100
AcDbEntity
  8
M-PIPE
100
AcDbCircle
 10
1125.363156828897
 20
1970.919060616154
 30
0.0
 40
53.00000000000017
100
AcDbArc
 50
248.5532614470825
 51
257.1308994635785
1001
REVIT
1002
{
1070
     3
1000
939838
1002
}
  0
ARC
  5
1D4
330
1CD
100
AcDbEntity
  8
M-PIPE
100
AcDbCircle
 10
1125.363156828897
 20
1970.919060616154
 30
0.0
 40
53.00000000000014
100
AcDbArc
 50
244.2720842391063
 51
244.9999999999999
1001
REVIT
1002
{
1070
     3
1000
939838
1002
}
  0
ARC
  5
1D5
330
1CD
100
AcDbEntity
  8
M-PIPE
100
AcDbCircle
 10
1125.363156828897
 20
1970.919060616154
 30
0.0
 40
53.00000000000023
100
AcDbArc
 50
234.9999999999998
 51
235.6969879757759
1001
REVIT
1002
{
1070
     3
1000
939838
1002
}
  0
ARC
  5
1D6
330
1CD
100
AcDbEntity
  8
M-PIPE
100
AcDbCircle
 10
1125.363156828897
 20
1970.919060616154
 30
0.0
 40
53.00000000000016
100
AcDbArc
 50
218.6058748249895
 51
231.3941251750105
1001
REVIT
1002
{
1070
     3
1000
939838
1002
}
  0
ARC
  5
1D7
330
1CD
100
AcDbEntity
  8
M-PIPE
100
AcDbCircle
 10
1125.363156828897
 20
1970.919060616154
 30
0.0
 40
53.00000000000013
100
AcDbArc
 50
214.3030120242241
 51
215.0
1001
REVIT
1002
{
1070
     3
1000
939838
1002
}
  0
ARC
  5
1D8
330
1CD
100
AcDbEntity
  8
M-PIPE
100
AcDbCircle
 10
1125.363156828897
 20
1970.919060616154
 30
0.0
 40
53.00000000000014
100
AcDbArc
 50
205.0
 51
205.7279157608937
1001
REVIT
1002
{
1070
     3
1000
939838
1002
}
  0
ARC
  5
1D9
330
1CD
100
AcDbEntity
  8
M-PIPE
100
AcDbCircle
 10
1125.363156828897
 20
1970.919060616154
 30
0.0
 40
53.00000000000005
100
AcDbArc
 50
188.5775685750017
 51
201.4467385529175
1001
REVIT
1002
{
1070
     3
1000
939838
1002
}
  0
ARC
  5
1DA
330
1CD
100
AcDbEntity
  8
M-PIPE
100
AcDbCircle
 10
1125.363156828897
 20
1970.919060616154
 30
0.0
 40
52.99999999999997
100
AcDbArc
 50
184.2871583231637
 51
185.0000000000001
1001
REVIT
1002
{
1070
     3
1000
939838
1002
}
  0
ARC
  5
1DB
330
1CD
100
AcDbEntity
  8
M-PIPE
100
AcDbCircle
 10
1125.363156828897
 20
1970.919060616154
 30
0.0
 40
53.00000000000014
100
AcDbArc
 50
175.0000000000007
 51
175.7128416768369
1001
REVIT
1002
{
1070
     3
1000
939838
1002
}
  0
ARC
  5
1DC
330
1CD
100
AcDbEntity
  8
M-PIPE
100
AcDbCircle
 10
1125.363156828897
 20
1970.919060616154
 30
0.0
 40
53.00000000000014
100
AcDbArc
 50
158.5532614470829
 51
171.4224314249987
1001
REVIT
1002
{
1070
     3
1000
939838
1002
}
  0
ARC
  5
1DD
330
1CD
100
AcDbEntity
  8
M-PIPE
100
AcDbCircle
 10
1125.363156828897
 20
1970.919060616154
 30
0.0
 40
52.99999999999995
100
AcDbArc
 50
154.2720842391066
 51
155.0000000000005
1001
REVIT
1002
{
1070
     3
1000
939838
1002
}
  0
ARC
  5
1DE
330
1CD
100
AcDbEntity
  8
M-PIPE
100
AcDbCircle
 10
1125.363156828897
 20
1970.919060616154
 30
0.0
 40
53.0000000000001
100
AcDbArc
 50
145.0000000000006
 51
145.6969879757764
1001
REVIT
1002
{
1070
     3
1000
939838
1002
}
  0
ARC
  5
1DF
330
1CD
100
AcDbEntity
  8
M-PIPE
100
AcDbCircle
 10
1125.363156828897
 20
1970.919060616154
 30
0.0
 40
53.00000000000002
100
AcDbArc
 50
128.6058748249899
 51
141.3941251750107
1001
REVIT
1002
{
1070
     3
1000
939838
1002
}
  0
ARC
  5
1E0
330
1CD
100
AcDbEntity
  8
M-PIPE
100
AcDbCircle
 10
1125.363156828897
 20
1970.919060616154
 30
0.0
 40
52.99999999999989
100
AcDbArc
 50
124.3030120242247
 51
125.0000000000007
1001
REVIT
1002
{
1070
     3
1000
939838
1002
}
  0
ARC
  5
1E1
330
1CD
100
AcDbEntity
  8
M-PIPE
100
AcDbCircle
 10
1125.363156828897
 20
1970.919060616154
 30
0.0
 40
52.99999999999993
100
AcDbArc
 50
115.0000000000006
 51
115.727915760894
1001
REVIT
1002
{
1070
     3
1000
939838
1002
}
  0
ARC
  5
1E2
330
1CD
100
AcDbEntity
  8
M-PIPE
100
AcDbCircle
 10
1125.363156828897
 20
1970.919060616154
 30
0.0
 40
52.99999999999997
100
AcDbArc
 50
98.57756857500229
 51
111.4467385529178
1001
REVIT
1002
{
1070
     3
1000
939838
1002
}
  0
LINE
  5
1E3
330
1CD
100
AcDbEntity
  8
M-PIPE
100
AcDbLine
 10
1125.363156828897
 20
1917.919060616154
 30
0.0
 11
1125.363156828897
 21
1923.419060616154
 31
0.0
1001
REVIT
1002
{
1070
     3
1000
939838
1002
}
  0
LINE
  5
1E4
330
1CD
100
AcDbEntity
  8
M-PIPE
100
AcDbLine
 10
1125.363156828897
 20
2018.419060616154
 30
0.0
 11
1125.363156828897
 21
2023.919060616155
 31
0.0
1001
REVIT
1002
{
1070
     3
1000
939838
1002
}
  0
LINE
  5
1E5
330
1CD
100
AcDbEntity
  8
M-PIPE
100
AcDbLine
 10
1125.363156828897
 20
1923.419060616154
 30
0.0
 11
1125.363156828897
 21
1939.419060616154
 31
0.0
1001
REVIT
1002
{
1070
     3
1000
939838
1002
}
  0
ARC
  5
1E6
330
1CD
100
AcDbEntity
  8
M-PIPE
100
AcDbCircle
 10
1125.363156828897
 20
1970.919060616154
 30
0.0
 40
31.5
100
AcDbArc
 50
180.0
 51
269.9999999999997
1001
REVIT
1002
{
1070
     3
1000
939838
1002
}
  0
ARC
  5
1E7
330
1CD
100
AcDbEntity
  8
M-PIPE
100
AcDbCircle
 10
1125.363156828897
 20
1970.919060616154
 30
0.0
 40
31.49999999999989
100
AcDbArc
 50
90.00000000000063
 51
180.0000000000002
1001
REVIT
1002
{
1070
     3
1000
939838
1002
}
  0
LINE
  5
1E8
330
1CD
100
AcDbEntity
  8
M-PIPE
100
AcDbLine
 10
1125.363156828897
 20
2002.419060616154
 30
0.0
 11
1125.363156828897
 21
2018.419060616154
 31
0.0
1001
REVIT
1002
{
1070
     3
1000
939838
1002
}
  0
LINE
  5
1E9
330
1CD
100
AcDbEntity
  8
M-PIPE
100
AcDbLine
 10
1152.170864317009
 20
2098.76914229454
 30
0.0
 11
1152.170864317009
 21
2143.419060616106
 31
0.0
1001
REVIT
1002
{
1070
     3
1000
938184
1002
}
  0
LINE
  5
1EA
330
1CD
100
AcDbEntity
  8
M-PIPE
100
AcDbLine
 10
1100.170864317009
 20
2143.419060616106
 30
0.0
 11
1100.170864317009
 21
2098.76914229454
 31
0.0
1001
REVIT
1002
{
1070
     3
1000
938184
1002
}
  0
LINE
  5
1EB
330
1CD
100
AcDbEntity
  8
M-PIPE
100
AcDbLine
 10
1133.903875177421
 20
2146.919060616106
 30
0.0
 11
1130.838345123961
 21
2146.919060616106
 31
0.0
1001
REVIT
1002
{
1070
     3
1000
938184
1002
}
  0
LINE
  5
1EC
330
1CD
100
AcDbEntity
  8
M-PIPE
100
AcDbLine
 10
1119.887968533834
 20
2146.919060616106
 30
0.0
 11
1116.295749404069
 21
2146.919060616106
 31
0.0
1001
REVIT
1002
{
1070
     3
1000
938184
1002
}
  0
LWPOLYLINE
  5
1ED
330
1CD
100
AcDbEntity
  8
M-PIPE
100
AcDbPolyline
 90
       41
 70
   128
 43
0.0
 10
1100.170864317009
 20
2143.419060616106
 10
1100.173663943696
 20
2143.559023285758
 10
1100.18205834495
 20
2143.698762044998
 10
1100.196034091521
 20
2143.838053341617
 10
1100.215568825194
 20
2143.976674339255
 10
1100.240631294565
 20
2144.114403273888
 10
1100.271181405027
 20
2144.251019808601
 10
1100.307170282921
 20
2144.386305386079
 10
1100.348540353721
 20
2144.520043578262
 10
1100.395225434137
 20
2144.652020432568
 10
1100.447150837999
 20
2144.782024814186
 10
1100.504233495739
 20
2144.909848743836
 10
1100.566382087282
 20
2145.035287730501
 10
1100.633497188137
 20
2145.158141098558
 10
1100.705471428462
 20
2145.278212308829
 10
1100.782189664825
 20
2145.395309272988
 10
1100.863529164414
 20
2145.509244660874
 10
1100.949359801381
 20
2145.61983620017
 10
1101.039544265016
 20
2145.726906968006
 10
1101.133938279416
 20
2145.830285673993
 10
1101.232390834294
 20
2145.929806934254
 10
1101.334744426565
 20
2146.025311536003
 10
1101.440835312314
 20
2146.116646692252
 10
1101.550493768757
 20
2146.203666286233
 10
1101.663544365756
 20
2146.286231105159
 10
1101.779806246471
 20
2146.364209062933
 10
1101.899093416695
 20
2146.437475411457
 10
1102.021215042401
 20
2146.505912940203
 10
1102.145975755041
 20
2146.569412163723
 10
1102.273175964087
 20
2146.627871496807
 10
1102.402612176341
 20
2146.681197416991
 10
1102.534077321474
 20
2146.729304614179
 10
1102.667361083297
 20
2146.772116127118
 10
1102.802250236226
 20
2146.809563466519
 10
1102.938528986389
 20
2146.841586724629
 10
1103.075979316859
 20
2146.868134671065
 10
1103.214381336426
 20
2146.889164834776
 10
1103.353513631384
 20
2146.904643571987
 10
1103.493153619742
 20
2146.91454612002
 10
1103.633077907305
 20
2146.91885663691
 10
1103.670864317009
 20
2146.919060616106
1001
REVIT
1002
{
1070
     3
1000
938184
1002
}
  0
LWPOLYLINE
  5
1EE
330
1CD
100
AcDbEntity
  8
M-PIPE
100
AcDbPolyline
 90
       41
 70
   128
 43
0.0
 10
1148.670864317009
 20
2146.919060616106
 10
1148.810826986663
 20
2146.916260989419
 10
1148.950565745902
 20
2146.907866588164
 10
1149.089857042521
 20
2146.893890841594
 10
1149.228478040159
 20
2146.87435610792
 10
1149.366206974792
 20
2146.84929363855
 10
1149.502823509505
 20
2146.818743528088
 10
1149.638109086984
 20
2146.782754650193
 10
1149.771847279166
 20
2146.741384579394
 10
1149.903824133472
 20
2146.694699498978
 10
1150.03382851509
 20
2146.642774095116
 10
1150.16165244474
 20
2146.585691437375
 10
1150.287091431405
 20
2146.523542845833
 10
1150.409944799463
 20
2146.456427744977
 10
1150.530016009732
 20
2146.384453504652
 10
1150.647112973892
 20
2146.307735268289
 10
1150.761048361778
 20
2146.226395768701
 10
1150.871639901074
 20
2146.140565131734
 10
1150.978710668909
 20
2146.050380668099
 10
1151.082089374896
 20
2145.955986653699
 10
1151.181610635158
 20
2145.857534098821
 10
1151.277115236907
 20
2145.75518050655
 10
1151.368450393156
 20
2145.6490896208
 10
1151.455469987137
 20
2145.539431164358
 10
1151.538034806063
 20
2145.426380567359
 10
1151.616012763837
 20
2145.310118686644
 10
1151.689279112361
 20
2145.19083151642
 10
1151.757716641107
 20
2145.068709890713
 10
1151.821215864627
 20
2144.943949178074
 10
1151.879675197711
 20
2144.816748969027
 10
1151.933001117895
 20
2144.687312756774
 10
1151.981108315083
 20
2144.555847611641
 10
1152.023919828022
 20
2144.422563849817
 10
1152.061367167423
 20
2144.287674696889
 10
1152.093390425533
 20
2144.151395946725
 10
1152.119938371969
 20
2144.013945616257
 10
1152.14096853568
 20
2143.875543596689
 10
1152.156447272891
 20
2143.73641130173
 10
1152.166349820924
 20
2143.596771313373
 10
1152.170660337814
 20
2143.456847025809
 10
1152.170864317009
 20
2143.419060616106
1001
REVIT
1002
{
1070
     3
1000
938184
1002
}
  0
LINE
  5
1EF
330
1CD
100
AcDbEntity
  8
M-PIPE
100
AcDbLine
 10
1133.319071557797
 20
2090.919060616089
 30
0.0
 11
1133.113156828896
 21
2090.919060616089
 31
0.0
1001
REVIT
1002
{
1070
     3
1000
938184
1002
}
  0
LINE
  5
1F0
330
1CD
100
AcDbEntity
  8
M-PIPE
100
AcDbLine
 10
1133.113156828896
 20
2090.919060616089
 30
0.0
 11
1117.613156828896
 21
2090.919060616089
 31
0.0
1001
REVIT
1002
{
1070
     3
1000
938184
1002
}
  0
LINE
  5
1F1
330
1CD
100
AcDbEntity
  8
M-PIPE
100
AcDbLine
 10
1117.613156828896
 20
2090.919060616089
 30
0.0
 11
1117.084741185039
 21
2090.919060616089
 31
0.0
1001
REVIT
1002
{
1070
     3
1000
938184
1002
}
  0
LINE
  5
1F2
330
1CD
100
AcDbEntity
  8
M-PIPE
100
AcDbLine
 10
1136.325512883987
 20
2143.419060616105
 30
0.0
 11
1136.325512883987
 21
2098.769142294539
 31
0.0
1001
REVIT
1002
{
1070
     3
1000
938184
1002
}
  0
LINE
  5
1F3
330
1CD
100
AcDbEntity
  8
M-PIPE
100
AcDbLine
 10
1113.778157360615
 20
2098.769142294539
 30
0.0
 11
1113.778157360615
 21
2143.419060616105
 31
0.0
1001
REVIT
1002
{
1070
     3
1000
938184
1002
}
  0
LINE
  5
1F4
330
1CD
100
AcDbEntity
  8
M-PIPE
100
AcDbLine
 10
1117.613156828896
 20
2090.919060616089
 30
0.0
 11
1117.613156828896
 21
2143.419060616105
 31
0.0
1001
REVIT
1002
{
1070
     3
1000
938184
1002
}
  0
LINE
  5
1F5
330
1CD
100
AcDbEntity
  8
M-PIPE
100
AcDbLine
 10
1133.113156828896
 20
2090.919060616089
 30
0.0
 11
1133.113156828896
 21
2143.419060616105
 31
0.0
1001
REVIT
1002
{
1070
     3
1000
938184
1002
}
  0
SPLINE
  5
1F6
330
1CD
100
AcDbEntity
  8
M-PIPE
100
AcDbSpline
210
0.0
220
0.0
230
1.0
 70
     8
 71
     3
 72
    14
 73
    10
 74
     0
 42
0.000000001
 43
0.0000000001
 40
0.0
 40
0.0
 40
0.0
 40
0.0
 40
0.1428571428571428
 40
0.2857142857142857
 40
0.4285714285714286
 40
0.5714285714285714
 40
0.6785714285714287
 40
0.7857142857142857
 40
1.0
 40
1.0
 40
1.0
 40
1.0
 10
1130.838345123959
 20
2146.919060616104
 30
0.0
 10
1130.996865423335
 20
2146.919060616104
 30
0.0
 10
1131.319799459779
 20
2146.865966808772
 30
0.0
 10
1131.787615967084
 20
2146.6253420382
 30
0.0
 10
1132.220182981492
 20
2146.227755913711
 30
0.0
 10
1132.562741036522
 20
2145.728375984781
 30
0.0
 10
1132.813697663423
 20
2145.181122473488
 30
0.0
 10
1133.040474333712
 20
2144.445540845356
 30
0.0
 10
1133.11355355953
 20
2143.831251487646
 30
0.0
 10
1133.113156828896
 20
2143.419060616104
 30
0.0
1001
REVIT
1002
{
1070
     3
1000
938184
1002
}
  0
SPLINE
  5
1F7
330
1CD
100
AcDbEntity
  8
M-PIPE
100
AcDbSpline
210
0.0
220
0.0
230
1.0
 70
     8
 71
     3
 72
    13
 73
     9
 74
     0
 42
0.000000001
 43
0.0000000001
 40
-1.0
 40
-1.0
 40
-1.0
 40
-1.0
 40
-0.8333333333333332
 40
-0.6666666666666666
 40
-0.5
 40
-0.3333333333333333
 40
-0.1666666666666666
 40
0.0
 40
0.0
 40
0.0
 40
0.0
 10
1119.887968533833
 20
2146.919060616104
 30
0.0
 10
1119.696943257964
 20
2146.919060616104
 30
0.0
 10
1119.305995298715
 20
2146.83864077722
 30
0.0
 10
1118.743235003247
 20
2146.48497240427
 30
0.0
 10
1118.26544626693
 20
2145.922366781801
 30
0.0
 10
1117.899554093972
 20
2145.189166570071
 30
0.0
 10
1117.662423559774
 20
2144.335330634544
 30
0.0
 10
1117.611355066861
 20
2143.724493235203
 30
0.0
 10
1117.613156828896
 20
2143.419060616105
 30
0.0
1001
REVIT
1002
{
1070
     3
1000
938184
1002
}
  0
SPLINE
  5
1F8
330
1CD
100
AcDbEntity
  8
M-PIPE
100
AcDbSpline
210
0.0
220
0.0
230
1.0
 70
     8
 71
     3
 72
    13
 73
     9
 74
     0
 42
0.000000001
 43
0.0000000001
 40
0.0
 40
0.0
 40
0.0
 40
0.0
 40
0.1428571428571428
 40
0.2857142857142857
 40
0.4285714285714286
 40
0.5714285714285714
 40
0.7857142857142857
 40
1.0
 40
1.0
 40
1.0
 40
1.0
 10
1116.295749404067
 20
2146.919060616104
 30
0.0
 10
1116.11476063888
 20
2146.919060616104
 30
0.0
 10
1115.748596286904
 20
2146.863291705582
 30
0.0
 10
1115.221264788193
 20
2146.612580545976
 30
0.0
 10
1114.740546290682
 20
2146.20317388526
 30
0.0
 10
1114.263877522315
 20
2145.558782481417
 30
0.0
 10
1113.879650225747
 20
2144.622730494716
 30
0.0
 10
1113.777971745073
 20
2143.821013832329
 30
0.0
 10
1113.778157360615
 20
2143.419060616105
 30
0.0
1001
REVIT
1002
{
1070
     3
1000
938184
1002
}
  0
SPLINE
  5
1F9
330
1CD
100
AcDbEntity
  8
M-PIPE
100
AcDbSpline
210
0.0
220
0.0
230
1.0
 70
     8
 71
     3
 72
    14
 73
    10
 74
     0
 42
0.000000001
 43
0.0000000001
 40
0.0
 40
0.0
 40
0.0
 40
0.0
 40
0.1666666666666666
 40
0.25
 40
0.3333333333333333
 40
0.5
 40
0.6666666666666666
 40
0.8333333333333332
 40
1.0
 40
1.0
 40
1.0
 40
1.0
 10
1136.325512883987
 20
2143.419060616105
 30
0.0
 10
1136.324229764725
 20
2143.716616807179
 30
0.0
 10
1136.282470384725
 20
2144.165912333484
 30
0.0
 10
1136.146954653812
 20
2144.741333407255
 30
0.0
 10
1135.959369264462
 20
2145.289765139962
 30
0.0
 10
1135.636680914458
 20
2145.913806650732
 30
0.0
 10
1135.122469425763
 20
2146.48692478125
 30
0.0
 10
1134.524580213501
 20
2146.839391400369
 30
0.0
 10
1134.10793861339
 20
2146.919060616104
 30
0.0
 10
1133.90387517742
 20
2146.919060616104
 30
0.0
1001
REVIT
1002
{
1070
     3
1000
938184
1002
}
  0
LINE
  5
1FA
330
1CD
100
AcDbEntity
  8
M-PIPE
100
AcDbLine
 10
1096.170864316993
 20
2098.76914229454
 30
0.0
 11
1096.170864316993
 21
2090.919060616154
 31
0.0
1001
REVIT
1002
{
1070
     3
1000
938184
1002
}
  0
LINE
  5
1FB
330
1CD
100
AcDbEntity
  8
M-PIPE
100
AcDbLine
 10
1156.170864316993
 20
2090.919060616153
 30
0.0
 11
1156.170864316993
 21
2098.769142294539
 31
0.0
1001
REVIT
1002
{
1070
     3
1000
938184
1002
}
  0
LINE
  5
1FC
330
1CD
100
AcDbEntity
  8
M-PIPE
100
AcDbLine
 10
1096.170864316991
 20
2090.919060616152
 30
0.0
 11
1117.0827921488
 21
2090.919060616152
 31
0.0
1001
REVIT
1002
{
1070
     3
1000
938184
1002
}
  0
LINE
  5
1FD
330
1CD
100
AcDbEntity
  8
M-PIPE
100
AcDbLine
 10
1133.328892446304
 20
2090.919060616152
 30
0.0
 11
1156.170864316991
 21
2090.919060616152
 31
0.0
1001
REVIT
1002
{
1070
     3
1000
938184
1002
}
  0
LINE
  5
1FE
330
1CD
100
AcDbEntity
  8
M-PIPE
100
AcDbLine
 10
1117.0827921488
 20
2098.769142294539
 30
0.0
 11
1096.170864316991
 21
2098.769142294539
 31
0.0
1001
REVIT
1002
{
1070
     3
1000
938184
1002
}
  0
LINE
  5
1FF
330
1CD
100
AcDbEntity
  8
M-PIPE
100
AcDbLine
 10
1156.170864316991
 20
2098.769142294538
 30
0.0
 11
1133.328892446304
 21
2098.769142294539
 31
0.0
1001
REVIT
1002
{
1070
     3
1000
938184
1002
}
  0
LINE
  5
200
330
1CD
100
AcDbEntity
  8
M-PIPE
100
AcDbLine
 10
1176.213681093009
 20
2022.819060616154
 30
0.0
 11
1176.213681093009
 21
2039.819060616153
 31
0.0
1001
REVIT
1002
{
1070
     3
1000
790271
1002
}
  0
LINE
  5
201
330
1CD
100
AcDbEntity
  8
M-PIPE
100
AcDbLine
 10
1194.667112454057
 20
2022.819060616153
 30
0.0
 11
1194.667112454057
 21
2039.819060616151
 31
0.0
1001
REVIT
1002
{
1070
     3
1000
790271
1002
}
  0
LINE
  5
202
330
1CD
100
AcDbEntity
  8
M-PIPE
100
AcDbLine
 10
1056.059201203773
 20
2039.819060616153
 30
0.0
 11
1056.059201203773
 21
2022.819060616153
 31
0.0
1001
REVIT
1002
{
1070
     3
1000
790271
1002
}
  0
LINE
  5
203
330
1CD
100
AcDbEntity
  8
M-PIPE
100
AcDbLine
 10
1074.5126325648
 20
2039.819060616153
 30
0.0
 11
1074.5126325648
 21
2022.819060616154
 31
0.0
1001
REVIT
1002
{
1070
     3
1000
790271
1002
}
  0
LINE
  5
204
330
1CD
100
AcDbEntity
  8
M-PIPE
100
AcDbLine
 10
1067.859201203769
 20
2042.319060616153
 30
0.0
 11
1067.859201203769
 21
2039.819060616153
 31
0.0
1001
REVIT
1002
{
1070
     3
1000
790271
1002
}
  0
LINE
  5
205
330
1CD
100
AcDbEntity
  8
M-PIPE
100
AcDbLine
 10
1182.867112454027
 20
2039.819060616152
 30
0.0
 11
1182.867112454027
 21
2042.319060616152
 31
0.0
1001
REVIT
1002
{
1070
     3
1000
790271
1002
}
  0
LINE
  5
206
330
1CD
100
AcDbEntity
  8
M-PIPE
100
AcDbLine
 10
1076.458302315634
 20
2045.319060616153
 30
0.0
 11
1067.859201203769
 21
2042.319060616153
 31
0.0
1001
REVIT
1002
{
1070
     3
1000
790271
1002
}
  0
LINE
  5
207
330
1CD
100
AcDbEntity
  8
M-PIPE
100
AcDbLine
 10
1182.867112454027
 20
2042.319060616152
 30
0.0
 11
1174.268011342163
 21
2045.319060616152
 31
0.0
1001
REVIT
1002
{
1070
     3
1000
790271
1002
}
  0
LINE
  5
208
330
1CD
100
AcDbEntity
  8
M-PIPE
100
AcDbLine
 10
1097.363156828899
 20
2055.669060616153
 30
0.0
 11
1097.863156828905
 21
2045.319060616153
 31
0.0
1001
REVIT
1002
{
1070
     3
1000
790271
1002
}
  0
LINE
  5
209
330
1CD
100
AcDbEntity
  8
M-PIPE
100
AcDbLine
 10
1152.863156828891
 20
2045.319060616153
 30
0.0
 11
1153.363156828899
 21
2055.669060616152
 31
0.0
1001
REVIT
1002
{
1070
     3
1000
790271
1002
}
  0
LINE
  5
20A
330
1CD
100
AcDbEntity
  8
M-PIPE
100
AcDbLine
 10
1097.863156828899
 20
2066.019060616153
 30
0.0
 11
1097.363156828899
 21
2055.669060616153
 31
0.0
1001
REVIT
1002
{
1070
     3
1000
790271
1002
}
  0
LINE
  5
20B
330
1CD
100
AcDbEntity
  8
M-PIPE
100
AcDbLine
 10
1153.363156828899
 20
2055.669060616152
 30
0.0
 11
1152.863156828898
 21
2066.019060616152
 31
0.0
1001
REVIT
1002
{
1070
     3
1000
790271
1002
}
  0
LINE
  5
20C
330
1CD
100
AcDbEntity
  8
M-PIPE
100
AcDbLine
 10
1097.863156828899
 20
2070.019060616091
 30
0.0
 11
1097.863156828899
 21
2066.019060616153
 31
0.0
1001
REVIT
1002
{
1070
     3
1000
790271
1002
}
  0
LINE
  5
20D
330
1CD
100
AcDbEntity
  8
M-PIPE
100
AcDbLine
 10
1152.863156828899
 20
2066.019060616152
 30
0.0
 11
1152.863156828899
 21
2070.01906061609
 31
0.0
1001
REVIT
1002
{
1070
     3
1000
790271
1002
}
  0
LINE
  5
20E
330
1CD
100
AcDbEntity
  8
M-PIPE
100
AcDbLine
 10
1101.363156828899
 20
2085.91906061609
 30
0.0
 11
1101.363156828899
 21
2073.51906061609
 31
0.0
1001
REVIT
1002
{
1070
     3
1000
790271
1002
}
  0
LINE
  5
20F
330
1CD
100
AcDbEntity
  8
M-PIPE
100
AcDbLine
 10
1149.363156828899
 20
2073.51906061609
 30
0.0
 11
1149.363156828899
 21
2085.91906061609
 31
0.0
1001
REVIT
1002
{
1070
     3
1000
790271
1002
}
  0
LINE
  5
210
330
1CD
100
AcDbEntity
  8
M-PIPE
100
AcDbLine
 10
1101.363156828899
 20
2073.51906061609
 30
0.0
 11
1097.863156828899
 21
2070.019060616091
 31
0.0
1001
REVIT
1002
{
1070
     3
1000
790271
1002
}
  0
LINE
  5
211
330
1CD
100
AcDbEntity
  8
M-PIPE
100
AcDbLine
 10
1152.863156828899
 20
2070.01906061609
 30
0.0
 11
1149.363156828899
 21
2073.51906061609
 31
0.0
1001
REVIT
1002
{
1070
     3
1000
790271
1002
}
  0
LINE
  5
212
330
1CD
100
AcDbEntity
  8
M-PIPE
100
AcDbLine
 10
1096.363156828899
 20
2090.91906061609
 30
0.0
 11
1101.363156828899
 21
2085.91906061609
 31
0.0
1001
REVIT
1002
{
1070
     3
1000
790271
1002
}
  0
LINE
  5
213
330
1CD
100
AcDbEntity
  8
M-PIPE
100
AcDbLine
 10
1149.363156828899
 20
2085.91906061609
 30
0.0
 11
1154.363156828899
 21
2090.91906061609
 31
0.0
1001
REVIT
1002
{
1070
     3
1000
790271
1002
}
  0
LINE
  5
214
330
1CD
100
AcDbEntity
  8
M-PIPE
100
AcDbLine
 10
1130.819116872755
 20
2039.819060616153
 30
0.0
 11
1125.363156828896
 21
2039.819060616153
 31
0.0
1001
REVIT
1002
{
1070
     3
1000
790271
1002
}
  0
LINE
  5
215
330
1CD
100
AcDbEntity
  8
M-PIPE
100
AcDbLine
 10
1125.363156828896
 20
2039.819060616153
 30
0.0
 11
1119.907196785071
 21
2039.819060616153
 31
0.0
1001
REVIT
1002
{
1070
     3
1000
790271
1002
}
  0
LINE
  5
216
330
1CD
100
AcDbEntity
  8
M-PIPE
100
AcDbLine
 10
1134.163156828913
 20
2039.819060616152
 30
0.0
 11
1130.819116872755
 21
2039.819060616153
 31
0.0
1001
REVIT
1002
{
1070
     3
1000
790271
1002
}
  0
LINE
  5
217
330
1CD
100
AcDbEntity
  8
M-PIPE
100
AcDbLine
 10
1185.725065347448
 20
2039.819060616151
 30
0.0
 11
1176.250957109377
 21
2039.819060616151
 31
0.0
1001
REVIT
1002
{
1070
     3
1000
790271
1002
}
  0
LINE
  5
218
330
1CD
100
AcDbEntity
  8
M-PIPE
100
AcDbLine
 10
1076.458302315632
 20
2045.319060616152
 30
0.0
 11
1125.363156828896
 21
2045.319060616152
 31
0.0
1001
REVIT
1002
{
1070
     3
1000
790271
1002
}
  0
LINE
  5
219
330
1CD
100
AcDbEntity
  8
M-PIPE
100
AcDbLine
 10
1125.363156828897
 20
2045.319060616152
 30
0.0
 11
1174.26801134216
 21
2045.319060616151
 31
0.0
1001
REVIT
1002
{
1070
     3
1000
790271
1002
}
  0
LINE
  5
21A
330
1CD
100
AcDbEntity
  8
M-PIPE
100
AcDbLine
 10
1114.774466795461
 20
2022.819060616152
 30
0.0
 11
1088.903381664536
 21
2022.819060616152
 31
0.0
1001
REVIT
1002
{
1070
     3
1000
790271
1002
}
  0
LINE
  5
21B
330
1CD
100
AcDbEntity
  8
M-PIPE
100
AcDbLine
 10
1088.903381664536
 20
2022.819060616152
 30
0.0
 11
1082.443192548945
 21
2022.819060616152
 31
0.0
1001
REVIT
1002
{
1070
     3
1000
790271
1002
}
  0
LINE
  5
21C
330
1CD
100
AcDbEntity
  8
M-PIPE
100
AcDbLine
 10
1082.443192548945
 20
2022.819060616152
 30
0.0
 11
1074.512632564799
 21
2022.819060616152
 31
0.0
1001
REVIT
1002
{
1070
     3
1000
790271
1002
}
  0
LINE
  5
21D
330
1CD
100
AcDbEntity
  8
M-PIPE
100
AcDbLine
 10
1074.47535654843
 20
2022.819060616152
 30
0.0
 11
1065.001248310378
 21
2022.819060616152
 31
0.0
1001
REVIT
1002
{
1070
     3
1000
790271
1002
}
  0
LINE
  5
21E
330
1CD
100
AcDbEntity
  8
M-PIPE
100
AcDbLine
 10
1065.001248310378
 20
2022.819060616152
 30
0.0
 11
1059.209201203772
 21
2022.819060616152
 31
0.0
1001
REVIT
1002
{
1070
     3
1000
790271
1002
}
  0
LINE
  5
21F
330
1CD
100
AcDbEntity
  8
M-PIPE
100
AcDbLine
 10
1059.209201203772
 20
2022.819060616152
 30
0.0
 11
1056.059201203772
 21
2022.819060616152
 31
0.0
1001
REVIT
1002
{
1070
     3
1000
790271
1002
}
  0
LINE
  5
220
330
1CD
100
AcDbEntity
  8
M-PIPE
100
AcDbLine
 10
1194.667112454055
 20
2022.819060616152
 30
0.0
 11
1191.517112454055
 21
2022.819060616152
 31
0.0
1001
REVIT
1002
{
1070
     3
1000
790271
1002
}
  0
LINE
  5
221
330
1CD
100
AcDbEntity
  8
M-PIPE
100
AcDbLine
 10
1191.517112454055
 20
2022.819060616152
 30
0.0
 11
1185.725065347448
 21
2022.819060616152
 31
0.0
1001
REVIT
1002
{
1070
     3
1000
790271
1002
}
  0
LINE
  5
222
330
1CD
100
AcDbEntity
  8
M-PIPE
100
AcDbLine
 10
1176.250957109377
 20
2022.819060616152
 30
0.0
 11
1185.725065347448
 21
2022.819060616152
 31
0.0
1001
REVIT
1002
{
1070
     3
1000
790271
1002
}
  0
LINE
  5
223
330
1CD
100
AcDbEntity
  8
M-PIPE
100
AcDbLine
 10
1176.213681093007
 20
2022.819060616152
 30
0.0
 11
1168.283121108862
 21
2022.819060616152
 31
0.0
1001
REVIT
1002
{
1070
     3
1000
790271
1002
}
  0
LINE
  5
224
330
1CD
100
AcDbEntity
  8
M-PIPE
100
AcDbLine
 10
1168.283121108862
 20
2022.819060616152
 30
0.0
 11
1161.82293199327
 21
2022.819060616152
 31
0.0
1001
REVIT
1002
{
1070
     3
1000
790271
1002
}
  0
LINE
  5
225
330
1CD
100
AcDbEntity
  8
M-PIPE
100
AcDbLine
 10
1161.82293199327
 20
2022.819060616152
 30
0.0
 11
1134.163156828913
 21
2022.819060616152
 31
0.0
1001
REVIT
1002
{
1070
     3
1000
790271
1002
}
  0
LINE
  5
226
330
1CD
100
AcDbEntity
  8
M-PIPE
100
AcDbLine
 10
1130.819116872755
 20
2022.819060616152
 30
0.0
 11
1134.163156828913
 21
2022.819060616152
 31
0.0
1001
REVIT
1002
{
1070
     3
1000
790271
1002
}
  0
LINE
  5
227
330
1CD
100
AcDbEntity
  8
M-PIPE
100
AcDbLine
 10
1125.363156828912
 20
2022.819060616152
 30
0.0
 11
1130.819116872755
 21
2022.819060616152
 31
0.0
1001
REVIT
1002
{
1070
     3
1000
790271
1002
}
  0
LINE
  5
228
330
1CD
100
AcDbEntity
  8
M-PIPE
100
AcDbLine
 10
1119.907196785071
 20
2039.819060616153
 30
0.0
 11
1116.563156828913
 21
2039.819060616153
 31
0.0
1001
REVIT
1002
{
1070
     3
1000
790271
1002
}
  0
LINE
  5
229
330
1CD
100
AcDbEntity
  8
M-PIPE
100
AcDbLine
 10
1116.563156828913
 20
2039.819060616153
 30
0.0
 11
1116.563156828913
 21
2023.166974010476
 31
0.0
1001
REVIT
1002
{
1070
     3
1000
790271
1002
}
  0
LINE
  5
22A
330
1CD
100
AcDbEntity
  8
M-PIPE
100
AcDbLine
 10
1161.822931993269
 20
2039.819060616151
 30
0.0
 11
1134.163156828912
 21
2039.819060616152
 31
0.0
1001
REVIT
1002
{
1070
     3
1000
790271
1002
}
  0
LINE
  5
22B
330
1CD
100
AcDbEntity
  8
M-PIPE
100
AcDbLine
 10
1134.163156828912
 20
2022.819060616152
 30
0.0
 11
1134.163156828912
 21
2039.819060616152
 31
0.0
1001
REVIT
1002
{
1070
     3
1000
790271
1002
}
  0
LINE
  5
22C
330
1CD
100
AcDbEntity
  8
M-PIPE
100
AcDbLine
 10
1168.283121108861
 20
2039.819060616151
 30
0.0
 11
1161.82293199327
 21
2039.819060616151
 31
0.0
1001
REVIT
1002
{
1070
     3
1000
790271
1002
}
  0
LINE
  5
22D
330
1CD
100
AcDbEntity
  8
M-PIPE
100
AcDbLine
 10
1161.82293199327
 20
2022.819060616152
 30
0.0
 11
1161.82293199327
 21
2039.819060616151
 31
0.0
1001
REVIT
1002
{
1070
     3
1000
790271
1002
}
  0
LINE
  5
22E
330
1CD
100
AcDbEntity
  8
M-PIPE
100
AcDbLine
 10
1176.213681093007
 20
2039.819060616151
 30
0.0
 11
1168.283121108862
 21
2039.819060616151
 31
0.0
1001
REVIT
1002
{
1070
     3
1000
790271
1002
}
  0
LINE
  5
22F
330
1CD
100
AcDbEntity
  8
M-PIPE
100
AcDbLine
 10
1191.517112454055
 20
2039.819060616151
 30
0.0
 11
1185.725065347448
 21
2039.819060616151
 31
0.0
1001
REVIT
1002
{
1070
     3
1000
790271
1002
}
  0
LINE
  5
230
330
1CD
100
AcDbEntity
  8
M-PIPE
100
AcDbLine
 10
1185.725065347448
 20
2022.819060616152
 30
0.0
 11
1185.725065347448
 21
2039.819060616151
 31
0.0
1001
REVIT
1002
{
1070
     3
1000
790271
1002
}
  0
LINE
  5
231
330
1CD
100
AcDbEntity
  8
M-PIPE
100
AcDbLine
 10
1194.667112454055
 20
2039.81906061615
 30
0.0
 11
1191.517112454055
 21
2039.81906061615
 31
0.0
1001
REVIT
1002
{
1070
     3
1000
790271
1002
}
  0
LINE
  5
232
330
1CD
100
AcDbEntity
  8
M-PIPE
100
AcDbLine
 10
1059.209201203772
 20
2039.819060616153
 30
0.0
 11
1056.059201203772
 21
2039.819060616153
 31
0.0
1001
REVIT
1002
{
1070
     3
1000
790271
1002
}
  0
LINE
  5
233
330
1CD
100
AcDbEntity
  8
M-PIPE
100
AcDbLine
 10
1065.001248310378
 20
2039.819060616153
 30
0.0
 11
1059.209201203772
 21
2039.819060616153
 31
0.0
1001
REVIT
1002
{
1070
     3
1000
790271
1002
}
  0
LINE
  5
234
330
1CD
100
AcDbEntity
  8
M-PIPE
100
AcDbLine
 10
1074.47535654843
 20
2039.819060616153
 30
0.0
 11
1065.001248310378
 21
2039.819060616153
 31
0.0
1001
REVIT
1002
{
1070
     3
1000
790271
1002
}
  0
LINE
  5
235
330
1CD
100
AcDbEntity
  8
M-PIPE
100
AcDbLine
 10
1065.001248310378
 20
2022.819060616152
 30
0.0
 11
1065.001248310378
 21
2039.819060616153
 31
0.0
1001
REVIT
1002
{
1070
     3
1000
790271
1002
}
  0
LINE
  5
236
330
1CD
100
AcDbEntity
  8
M-PIPE
100
AcDbLine
 10
1082.443192548945
 20
2039.819060616153
 30
0.0
 11
1074.512632564799
 21
2039.819060616153
 31
0.0
1001
REVIT
1002
{
1070
     3
1000
790271
1002
}
  0
LINE
  5
237
330
1CD
100
AcDbEntity
  8
M-PIPE
100
AcDbLine
 10
1088.903381664536
 20
2039.819060616153
 30
0.0
 11
1082.443192548945
 21
2039.819060616153
 31
0.0
1001
REVIT
1002
{
1070
     3
1000
790271
1002
}
  0
LINE
  5
238
330
1CD
100
AcDbEntity
  8
M-PIPE
100
AcDbLine
 10
1115.436483234337
 20
2039.819060616153
 30
0.0
 11
1088.903381664536
 21
2039.819060616153
 31
0.0
1001
REVIT
1002
{
1070
     3
1000
790271
1002
}
  0
LINE
  5
239
330
1CD
100
AcDbEntity
  8
M-PIPE
100
AcDbLine
 10
1088.903381664536
 20
2022.819060616152
 30
0.0
 11
1088.903381664536
 21
2039.819060616153
 31
0.0
1001
REVIT
1002
{
1070
     3
1000
790271
1002
}
  0
LINE
  5
23A
330
1CD
100
AcDbEntity
  8
M-PIPE
100
AcDbLine
 10
1116.563156828913
 20
2039.819060616153
 30
0.0
 11
1115.436483234338
 21
2039.819060616153
 31
0.0
1001
REVIT
1002
{
1070
     3
1000
790271
1002
}
  0
LINE
  5
23B
330
1CD
100
AcDbEntity
  8
M-PIPE
100
AcDbLine
 10
1125.363156828896
 20
2042.319060616152
 30
0.0
 11
1067.859201203767
 21
2042.319060616152
 31
0.0
1001
REVIT
1002
{
1070
     3
1000
790271
1002
}
  0
LINE
  5
23C
330
1CD
100
AcDbEntity
  8
M-PIPE
100
AcDbLine
 10
1182.867112454025
 20
2042.319060616151
 30
0.0
 11
1125.363156828896
 21
2042.319060616152
 31
0.0
1001
REVIT
1002
{
1070
     3
1000
790271
1002
}
  0
LINE
  5
23D
330
1CD
100
AcDbEntity
  8
M-PIPE
100
AcDbLine
 10
1125.363156828896
 20
2066.019060616152
 30
0.0
 11
1097.863156828897
 21
2066.019060616152
 31
0.0
1001
REVIT
1002
{
1070
     3
1000
790271
1002
}
  0
LINE
  5
23E
330
1CD
100
AcDbEntity
  8
M-PIPE
100
AcDbLine
 10
1125.363156828896
 20
2055.669060616152
 30
0.0
 11
1097.367746027475
 21
2055.669060616152
 31
0.0
1001
REVIT
1002
{
1070
     3
1000
790271
1002
}
  0
LINE
  5
23F
330
1CD
100
AcDbEntity
  8
M-PIPE
100
AcDbLine
 10
1153.358567630318
 20
2055.669060616152
 30
0.0
 11
1125.363156828896
 21
2055.669060616152
 31
0.0
1001
REVIT
1002
{
1070
     3
1000
790271
1002
}
  0
LINE
  5
240
330
1CD
100
AcDbEntity
  8
M-PIPE
100
AcDbLine
 10
1152.863156828897
 20
2066.019060616152
 30
0.0
 11
1125.363156828897
 21
2066.019060616152
 31
0.0
1001
REVIT
1002
{
1070
     3
1000
790271
1002
}
  0
LINE
  5
241
330
1CD
100
AcDbEntity
  8
M-PIPE
100
AcDbLine
 10
1101.363156828897
 20
2073.51906061609
 30
0.0
 11
1125.363156828897
 21
2073.51906061609
 31
0.0
1001
REVIT
1002
{
1070
     3
1000
790271
1002
}
  0
LINE
  5
242
330
1CD
100
AcDbEntity
  8
M-PIPE
100
AcDbLine
 10
1125.363156828897
 20
2073.51906061609
 30
0.0
 11
1149.363156828897
 21
2073.519060616089
 31
0.0
1001
REVIT
1002
{
1070
     3
1000
790271
1002
}
  0
LINE
  5
243
330
1CD
100
AcDbEntity
  8
M-PIPE
100
AcDbLine
 10
1125.363156828897
 20
2070.01906061609
 30
0.0
 11
1097.863156828897
 21
2070.01906061609
 31
0.0
1001
REVIT
1002
{
1070
     3
1000
790271
1002
}
  0
LINE
  5
244
330
1CD
100
AcDbEntity
  8
M-PIPE
100
AcDbLine
 10
1152.863156828897
 20
2070.019060616089
 30
0.0
 11
1125.363156828897
 21
2070.01906061609
 31
0.0
1001
REVIT
1002
{
1070
     3
1000
790271
1002
}
  0
LINE
  5
245
330
1CD
100
AcDbEntity
  8
M-PIPE
100
AcDbLine
 10
1125.363156828897
 20
2085.919060616089
 30
0.0
 11
1101.363156828897
 21
2085.919060616089
 31
0.0
1001
REVIT
1002
{
1070
     3
1000
790271
1002
}
  0
LINE
  5
246
330
1CD
100
AcDbEntity
  8
M-PIPE
100
AcDbLine
 10
1149.363156828897
 20
2085.919060616089
 30
0.0
 11
1125.363156828897
 21
2085.919060616089
 31
0.0
1001
REVIT
1002
{
1070
     3
1000
790271
1002
}
  0
LINE
  5
247
330
1CD
100
AcDbEntity
  8
P-SANR-FIXT
100
AcDbLine
 10
1095.203614459726
 20
1961.919060616155
 30
0.0
 11
1095.363156828899
 21
1961.919060616155
 31
0.0
  0
LINE
  5
248
330
1CD
100
AcDbEntity
  8
P-SANR-FIXT
100
AcDbLine
 10
1155.3631568289
 20
1961.919060616155
 30
0.0
 11
1159.3631568289
 21
1961.919060616155
 31
0.0
  0
LINE
  5
249
330
1CD
100
AcDbEntity
  8
P-SANR-FIXT
100
AcDbLine
 10
1159.3631568289
 20
1979.919060616155
 30
0.0
 11
1155.363156828899
 21
1979.919060616155
 31
0.0
  0
LINE
  5
24A
330
1CD
100
AcDbEntity
  8
P-SANR-FIXT
100
AcDbLine
 10
1095.363156828899
 20
1979.919060616155
 30
0.0
 11
1095.203614459726
 21
1979.919060616155
 31
0.0
  0
LINE
  5
24B
330
1CD
100
AcDbEntity
  8
P-SANR-FIXT
100
AcDbLine
 10
1159.363156828898
 20
1970.919060616154
 30
0.0
 11
1159.363156828898
 21
1961.919060616154
 31
0.0
  0
LINE
  5
24C
330
1CD
100
AcDbEntity
  8
P-SANR-FIXT
100
AcDbLine
 10
1159.363156828898
 20
1979.919060616154
 30
0.0
 11
1159.363156828898
 21
1970.919060616154
 31
0.0
  0
LINE
  5
24D
330
1CD
100
AcDbEntity
  8
P-SANR-FIXT
100
AcDbLine
 10
1151.3631568289
 20
1990.548969768602
 30
0.0
 11
1151.3631568289
 21
2011.619060616155
 31
0.0
  0
LINE
  5
24E
330
1CD
100
AcDbEntity
  8
P-SANR-FIXT
100
AcDbLine
 10
1097.863156828899
 20
2017.319060616155
 30
0.0
 11
1097.863156828899
 21
2016.190065371363
 31
0.0
  0
LINE
  5
24F
330
1CD
100
AcDbEntity
  8
P-SANR-FIXT
100
AcDbLine
 10
1152.8631568289
 20
2011.619060616155
 30
0.0
 11
1152.8631568289
 21
2017.319060616155
 31
0.0
  0
LINE
  5
250
330
1CD
100
AcDbEntity
  8
P-SANR-FIXT
100
AcDbLine
 10
1067.859201203773
 20
2020.319060616156
 30
0.0
 11
1076.458302315639
 21
2017.319060616155
 31
0.0
  0
LINE
  5
251
330
1CD
100
AcDbEntity
  8
P-SANR-FIXT
100
AcDbLine
 10
1174.268011342161
 20
2017.319060616155
 30
0.0
 11
1182.867112454026
 21
2020.319060616156
 31
0.0
  0
LINE
  5
252
330
1CD
100
AcDbEntity
  8
P-SANR-FIXT
100
AcDbLine
 10
1067.859201203773
 20
2022.819060616153
 30
0.0
 11
1067.859201203773
 21
2020.319060616156
 31
0.0
  0
LINE
  5
253
330
1CD
100
AcDbEntity
  8
P-SANR-FIXT
100
AcDbLine
 10
1182.867112454026
 20
2020.319060616156
 30
0.0
 11
1182.867112454026
 21
2022.819060616153
 31
0.0
  0
LINE
  5
254
330
1CD
100
AcDbEntity
  8
P-SANR-FIXT
100
AcDbLine
 10
1152.863156828898
 20
2011.619060616154
 30
0.0
 11
1125.363156828898
 21
2011.619060616154
 31
0.0
  0
LINE
  5
255
330
1CD
100
AcDbEntity
  8
P-SANR-FIXT
100
AcDbLine
 10
1099.793864170688
 20
2017.319060616154
 30
0.0
 11
1076.458302315637
 21
2017.319060616154
 31
0.0
  0
LINE
  5
256
330
1CD
100
AcDbEntity
  8
P-SANR-FIXT
100
AcDbLine
 10
1174.268011342159
 20
2017.319060616154
 30
0.0
 11
1125.363156828898
 21
2017.319060616154
 31
0.0
  0
ARC
  5
257
330
1CD
100
AcDbEntity
  8
P-SANR-FIXT
100
AcDbCircle
 10
1125.363156828898
 20
1970.919060616154
 30
0.0
 40
32.80426163304596
100
AcDbArc
 50
330.0000000000007
 51
330.1700238191234
  0
LINE
  5
258
330
1CD
100
AcDbEntity
  8
P-SANR-FIXT
100
AcDbLine
 10
1153.772480755506
 20
1987.321191432678
 30
0.0
 11
1153.7471820721
 21
1987.364932203959
 31
0.0
  0
LINE
  5
259
330
1CD
100
AcDbEntity
  8
P-SANR-FIXT
100
AcDbLine
 10
1118.595597563851
 20
2001.652824604101
 30
0.0
 11
1102.130716093943
 21
1992.146820855274
 31
0.0
  0
LINE
  5
25A
330
1CD
100
AcDbEntity
  8
P-SANR-FIXT
100
AcDbLine
 10
1095.363156828897
 20
1980.425064364981
 30
0.0
 11
1095.363156828898
 21
1961.413056867326
 31
0.0
  0
LINE
  5
25B
330
1CD
100
AcDbEntity
  8
P-SANR-FIXT
100
AcDbLine
 10
1102.130716093943
 20
1949.691300377035
 30
0.0
 11
1118.595597563853
 21
1940.185296628207
 31
0.0
  0
ARC
  5
25C
330
1CD
100
AcDbEntity
  8
P-SANR-FIXT
100
AcDbCircle
 10
1125.363156828897
 20
1970.919060616154
 30
0.0
 40
19.0499999999997
100
AcDbArc
 50
89.99999999999966
 51
270.0
  0
ARC
  5
25D
330
1CD
100
AcDbEntity
  8
P-SANR-FIXT
100
AcDbCircle
 10
1125.363156828897
 20
1970.919060616154
 30
0.0
 40
32.80426163304599
100
AcDbArc
 50
270.0000000000001
 51
276.1369903321833
  0
LINE
  5
25E
330
1CD
100
AcDbEntity
  8
P-SANR-FIXT
100
AcDbLine
 10
1128.870129117846
 20
1938.302795859841
 30
0.0
 11
1151.856184539949
 21
1951.573801145401
 31
0.0
  0
ARC
  5
25F
330
1CD
100
AcDbEntity
  8
P-SANR-FIXT
100
AcDbCircle
 10
1125.363156828897
 20
1970.919060616154
 30
0.0
 40
32.80426163304581
100
AcDbArc
 50
323.8630096678185
 51
336.136990332184
  0
LINE
  5
260
330
1CD
100
AcDbEntity
  8
P-SANR-FIXT
100
AcDbLine
 10
1155.363156828898
 20
1957.648055330596
 30
0.0
 11
1155.363156828897
 21
1984.190065901713
 31
0.0
  0
ARC
  5
261
330
1CD
100
AcDbEntity
  8
P-SANR-FIXT
100
AcDbCircle
 10
1125.363156828897
 20
1970.919060616154
 30
0.0
 40
32.80426163304593
100
AcDbArc
 50
23.8630096678176
 51
36.13699033218568
  0
LINE
  5
262
330
1CD
100
AcDbEntity
  8
P-SANR-FIXT
100
AcDbLine
 10
1151.856184539948
 20
1990.264320086909
 30
0.0
 11
1128.870129117846
 21
2003.535325372467
 31
0.0
  0
ARC
  5
263
330
1CD
100
AcDbEntity
  8
P-SANR-FIXT
100
AcDbCircle
 10
1125.363156828897
 20
1970.919060616154
 30
0.0
 40
32.80426163304606
100
AcDbArc
 50
83.86300966781629
 51
90.0
  0
ARC
  5
264
330
1CD
100
AcDbEntity
  8
P-SANR-FIXT
100
AcDbCircle
 10
1125.363156828897
 20
1970.919060616154
 30
0.0
 40
19.05000000000007
100
AcDbArc
 50
270.0000000000007
 51
89.99999999999966
  0
ARC
  5
265
330
1CD
100
AcDbEntity
  8
P-SANR-FIXT
100
AcDbCircle
 10
1125.363156828898
 20
1970.919060616154
 30
0.0
 40
32.79999999999996
100
AcDbArc
 50
330.0000000000007
 51
330.1658570371285
  0
LINE
  5
266
330
1CD
100
AcDbEntity
  8
P-SANR-FIXT
100
AcDbLine
 10
1153.742213342077
 20
1987.365006968425
 30
0.0
 11
1153.768790073027
 21
1987.319060616155
 31
0.0
  0
LINE
  5
267
330
1CD
100
AcDbEntity
  8
P-SANR-FIXT
100
AcDbLine
 10
1106.168905556226
 20
2020.319060616154
 30
0.0
 11
1067.859201203772
 21
2020.319060616154
 31
0.0
  0
LINE
  5
268
330
1CD
100
AcDbEntity
  8
P-SANR-FIXT
100
AcDbLine
 10
1182.867112454024
 20
2020.319060616154
 30
0.0
 11
1125.363156828898
 21
2020.319060616154
 31
0.0
  0
ENDBLK
  5
26A
330
1CD
100
AcDbEntity
  8
0
100
AcDbBlockEnd
  0
ENDSEC
  0
SECTION
  2
ENTITIES
  0
INSERT
  5
173
330
71
100
AcDbEntity
  8
P-SANR-FIXT
100
AcDbBlockReference
  2
Automatic flow rate regulator valve_Caleffi_121 DN15 - 1_2__-859151-Est - Idraulica
 10
0.0
 20
0.0
 30
0.0
1001
REVIT
1002
{
1070
     1
1000
863131
1002
}
1002
{
1070
     5
1000
859151
1002
}
1002
{
1070
     2
1000
-2001160
1002
}
  0
INSERT
  5
1CC
330
71
100
AcDbEntity
  8
P-SANR-FIXT
100
AcDbBlockReference
  2
Automatic flow rate regulator valve_Caleffi_121 DN15 - 1_2__-V1-Est - Idraulica
 10
0.0
 20
0.0
 30
0.0
1001
REVIT
1002
{
1070
     1
1000
863152
1002
}
1002
{
1070
     5
1000
859151
1002
}
1002
{
1070
     2
1000
-2001160
1002
}
  0
INSERT
  5
26B
330
71
100
AcDbEntity
  8
P-SANR-FIXT
100
AcDbBlockReference
  2
Automatic flow rate regulator valve_Caleffi_121 DN15 - 1_2__-V2-Est - Idraulica
 10
0.0
 20
0.0
 30
0.0
1001
REVIT
1002
{
1070
     1
1000
863172
1002
}
1002
{
1070
     5
1000
859151
1002
}
1002
{
1070
     2
1000
-2001160
1002
}
  0
ENDSEC
  0
SECTION
  2
OBJECTS
  0
DICTIONARY
  5
C
330
0
100
AcDbDictionary
281
     1
  3
ACAD_CIP_PREVIOUS_PRODUCT_INFO
350
7A
  3
ACAD_COLOR
350
63
  3
ACAD_DETAILVIEWSTYLE
350
6B
  3
ACAD_GROUP
350
D
  3
ACAD_IMAGE_VARS
350
7B
  3
ACAD_LAYOUT
350
62
  3
ACAD_MATERIAL
350
10
  3
ACAD_MLEADERSTYLE
350
66
  3
ACAD_MLINESTYLE
350
5F
  3
ACAD_PLOTSETTINGS
350
61
  3
ACAD_PLOTSTYLENAME
350
E
  3
ACAD_SCALELIST
350
42
  3
ACAD_SECTIONVIEWSTYLE
350
68
  3
ACAD_TABLESTYLE
350
64
  3
ACAD_VISUALSTYLE
350
29
  3
ACDB_RECOMPOSE_DATA
350
276
  3
AcDbVariableDictionary
350
7C
  3
REVIT_DICTIONARY
350
26D
  0
DICTIONARY
  5
272
330
71
100
AcDbDictionary
280
     1
281
     1
  3
ACAD_SORTENTS
360
273
  0
XRECORD
  5
7A
102
{ACAD_REACTORS
330
C
102
}
330
C
100
AcDbXrecord
280
     1
300
RVT
300
2013
300
RVT2013
  0
DICTIONARY
  5
63
102
{ACAD_REACTORS
330
C
102
}
330
C
100
AcDbDictionary
281
     1
  0
DICTIONARY
  5
6B
102
{ACAD_REACTORS
330
C
102
}
330
C
100
AcDbDictionary
281
     1
  3
Imperial24
350
6C
  0
DICTIONARY
  5
D
102
{ACAD_REACTORS
330
C
102
}
330
C
100
AcDbDictionary
281
     1
  0
RASTERVARIABLES
  5
7B
102
{ACAD_REACTORS
330
C
102
}
330
C
100
AcDbRasterVariables
 90
        0
 70
     0
 71
     1
 72
     1
  0
DICTIONARY
  5
62
102
{ACAD_REACTORS
330
C
102
}
330
C
100
AcDbDictionary
281
     1
  3
Layout1
350
70
  3
Layout2
350
78
  3
Model
350
74
  0
DICTIONARY
  5
10
102
{ACAD_REACTORS
330
C
102
}
330
C
100
AcDbDictionary
281
     1
  3
ByBlock
350
19
  3
ByLayer
350
11
  3
Global
350
21
  0
DICTIONARY
  5
66
102
{ACAD_REACTORS
330
C
102
}
330
C
100
AcDbDictionary
281
     1
  3
Standard
350
67
  0
DICTIONARY
  5
5F
102
{ACAD_REACTORS
330
C
102
}
330
C
100
AcDbDictionary
281
     1
  3
Standard
350
60
  0
DICTIONARY
  5
61
102
{ACAD_REACTORS
330
C
102
}
330
C
100
AcDbDictionary
281
     1
  0
ACDBDICTIONARYWDFLT
  5
E
102
{ACAD_REACTORS
330
C
102
}
330
C
100
AcDbDictionary
281
     1
  3
Normal
350
F
100
AcDbDictionaryWithDefault
340
F
  0
DICTIONARY
  5
42
102
{ACAD_REACTORS
330
C
102
}
330
C
100
AcDbDictionary
281
     1
  3
A0
350
43
  3
A1
350
44
  3
A2
350
45
  3
A3
350
46
  3
A4
350
47
  3
A5
350
48
  3
A6
350
49
  3
A7
350
4A
  3
A8
350
4B
  3
A9
350
4C
  3
B0
350
4D
  3
B1
350
4E
  3
B2
350
4F
  3
B3
350
50
  3
B4
350
51
  3
B5
350
52
  3
B6
350
53
  0
DICTIONARY
  5
68
102
{ACAD_REACTORS
330
C
102
}
330
C
100
AcDbDictionary
281
     1
  3
Imperial24
350
6A
  0
DICTIONARY
  5
64
102
{ACAD_REACTORS
330
C
102
}
330
C
100
AcDbDictionary
281
     1
  3
Standard
350
65
  0
DICTIONARY
  5
29
102
{ACAD_REACTORS
330
C
102
}
330
C
100
AcDbDictionary
281
     1
  3
2dWireframe
350
2F
  3
Basic
350
2E
  3
Brighten
350
35
  3
ColorChange
350
39
  3
Conceptual
350
32
  3
Dim
350
34
  3
EdgeColorOff
350
41
  3
Facepattern
350
38
  3
Flat
350
2A
  3
FlatWithEdges
350
2B
  3
Gouraud
350
2C
  3
GouraudWithEdges
350
2D
  3
Hidden
350
31
  3
JitterOff
350
3F
  3
Linepattern
350
37
  3
OverhangOff
350
40
  3
Realistic
350
33
  3
Shaded
350
3E
  3
Shaded with edges
350
3D
  3
Shades of Gray
350
3A
  3
Sketchy
350
3B
  3
Thicken
350
36
  3
Wireframe
350
30
  3
X-Ray
350
3C
  0
XRECORD
  5
276
102
{ACAD_REACTORS
330
C
102
}
330
C
100
AcDbXrecord
280
     1
 90
        1
330
65
  0
DICTIONARY
  5
7C
102
{ACAD_REACTORS
330
C
102
}
330
C
100
AcDbDictionary
281
     1
  3
CANNOSCALE
350
81
  3
CMLEADERSTYLE
350
7E
  3
CTABLESTYLE
350
7D
  3
CVIEWDETAILSTYLE
350
7F
  3
CVIEWSECTIONSTYLE
350
80
  0
DICTIONARY
  5
26D
102
{ACAD_REACTORS
330
C
102
}
330
C
100
AcDbDictionary
281
     1
  3
DRAWING_TOOL
350
271
  3
REVIT_CATEGORY_MAPPING
350
26F
  3
REVIT_SUB_CATEGORY_MAPPING
350
270
  3
REVIT_TYPE_MAPPING
350
26E
  0
SORTENTSTABLE
  5
273
102
{ACAD_REACTORS
330
272
102
}
330
272
100
AcDbSortentsTable
330
71
  0
ACDBDETAILVIEWSTYLE
  5
6C
102
{ACAD_REACTORS
330
6B
102
}
330
6B
100
AcDbModelDocViewStyle
 70
     0
  3
Imperial24
290
     1
100
AcDbDetailViewStyle
 70
     0
 71
     0
 90
        3
 71
     1
340
55
 62
   256
 40
0.24
340
0
 62
   256
 40
0.24
300

 40
0.36
280
     3
 71
     2
340
5D
 90
       25
 62
   256
 71
     3
340
55
 62
   256
 40
0.24
 90
        1
 40
0.75
 90
        1
300
%<\AcVar ViewType \f "%tc1">% %<\AcVar ViewDetailId>%\PSCALA %<\AcVar ViewScale \f "%sn">%
 71
     4
340
5D
 90
       25
 62
   256
340
5D
 90
       25
 62
   256
280
     0
  0
LAYOUT
  5
70
102
{ACAD_REACTORS
330
62
102
}
330
62
100
AcDbPlotSettings
  1

  2

  4

  6

 40
0.0
 41
0.0
 42
0.0
 43
0.0
 44
0.0
 45
0.0
 46
0.0
 47
0.0
 48
0.0
 49
0.0
140
0.0
141
0.0
142
1.0
143
1.0
 70
   688
 72
     0
 73
     0
 74
     5
  7

 75
    16
147
1.0
 76
     0
 77
     2
 78
   300
148
0.0
149
0.0
100
AcDbLayout
  1
Layout1
 70
     1
 71
     1
 10
0.0
 20
0.0
 11
12.0
 21
9.0
 12
0.0
 22
0.0
 32
0.0
 14
0.0
 24
0.0
 34
0.0
 15
0.0
 25
0.0
 35
0.0
146
0.0
 13
0.0
 23
0.0
 33
0.0
 16
1.0
 26
0.0
 36
0.0
 17
0.0
 27
1.0
 37
0.0
 76
     0
330
6D
  0
LAYOUT
  5
78
102
{ACAD_REACTORS
330
62
102
}
330
62
100
AcDbPlotSettings
  1

  2

  4

  6

 40
0.0
 41
0.0
 42
0.0
 43
0.0
 44
0.0
 45
0.0
 46
0.0
 47
0.0
 48
0.0
 49
0.0
140
0.0
141
0.0
142
1.0
143
1.0
 70
   688
 72
     0
 73
     0
 74
     5
  7

 75
    16
147
1.0
 76
     0
 77
     2
 78
   300
148
0.0
149
0.0
100
AcDbLayout
  1
Layout2
 70
     1
 71
     2
 10
0.0
 20
0.0
 11
12.0
 21
9.0
 12
0.0
 22
0.0
 32
0.0
 14
0.0
 24
0.0
 34
0.0
 15
0.0
 25
0.0
 35
0.0
146
0.0
 13
0.0
 23
0.0
 33
0.0
 16
1.0
 26
0.0
 36
0.0
 17
0.0
 27
1.0
 37
0.0
 76
     0
330
75
  0
LAYOUT
  5
74
102
{ACAD_REACTORS
330
62
102
}
330
62
100
AcDbPlotSettings
  1

  2

  4

  6

 40
0.0
 41
0.0
 42
0.0
 43
0.0
 44
0.0
 45
0.0
 46
0.0
 47
0.0
 48
0.0
 49
0.0
140
0.0
141
0.0
142
1.0
143
1.0
 70
  1712
 72
     0
 73
     0
 74
     0
  7

 75
     0
147
1.0
 76
     0
 77
     2
 78
   300
148
0.0
149
0.0
100
AcDbLayout
  1
Model
 70
     1
 71
     0
 10
0.0
 20
0.0
 11
12.0
 21
9.0
 12
0.0
 22
0.0
 32
0.0
 14
0.0
 24
0.0
 34
0.0
 15
0.0
 25
0.0
 35
0.0
146
0.0
 13
0.0
 23
0.0
 33
0.0
 16
1.0
 26
0.0
 36
0.0
 17
0.0
 27
1.0
 37
0.0
 76
     0
330
71
  0
MATERIAL
  5
19
102
{ACAD_XDICTIONARY
360
1A
102
}
102
{ACAD_REACTORS
330
10
102
}
330
10
100
AcDbMaterial
  1
ByBlock
 72
     0
 43
0.0208333333333333
 43
0.0
 43
0.0
 43
0.0
 43
0.0
 43
0.0208333333333333
 43
0.0
 43
0.0
 43
0.0
 43
0.0
 43
1.0
 43
0.0
 43
0.0
 43
0.0
 43
0.0
 43
1.0
 77
     0
 47
0.0208333333333333
 47
0.0
 47
0.0
 47
0.0
 47
0.0
 47
0.0208333333333333
 47
0.0
 47
0.0
 47
0.0
 47
0.0
 47
1.0
 47
0.0
 47
0.0
 47
0.0
 47
0.0
 47
1.0
171
     0
 49
0.0208333333333333
 49
0.0
 49
0.0
 49
0.0
 49
0.0
 49
0.0208333333333333
 49
0.0
 49
0.0
 49
0.0
 49
0.0
 49
1.0
 49
0.0
 49
0.0
 49
0.0
 49
0.0
 49
1.0
175
     0
142
0.0208333333333333
142
0.0
142
0.0
142
0.0
142
0.0
142
0.0208333333333333
142
0.0
142
0.0
142
0.0
142
0.0
142
1.0
142
0.0
142
0.0
142
0.0
142
0.0
142
1.0
179
     0
144
0.0208333333333333
144
0.0
144
0.0
144
0.0
144
0.0
144
0.0208333333333333
144
0.0
144
0.0
144
0.0
144
0.0
144
1.0
144
0.0
144
0.0
144
0.0
144
0.0
144
1.0
147
0.0208333333333333
147
0.0
147
0.0
147
0.0
147
0.0
147
0.0208333333333333
147
0.0
147
0.0
147
0.0
147
0.0
147
1.0
147
0.0
147
0.0
147
0.0
147
0.0
147
1.0
  0
MATERIAL
  5
11
102
{ACAD_XDICTIONARY
360
12
102
}
102
{ACAD_REACTORS
330
10
102
}
330
10
100
AcDbMaterial
  1
ByLayer
 72
     0
 43
0.0208333333333333
 43
0.0
 43
0.0
 43
0.0
 43
0.0
 43
0.0208333333333333
 43
0.0
 43
0.0
 43
0.0
 43
0.0
 43
1.0
 43
0.0
 43
0.0
 43
0.0
 43
0.0
 43
1.0
 77
     0
 47
0.0208333333333333
 47
0.0
 47
0.0
 47
0.0
 47
0.0
 47
0.0208333333333333
 47
0.0
 47
0.0
 47
0.0
 47
0.0
 47
1.0
 47
0.0
 47
0.0
 47
0.0
 47
0.0
 47
1.0
171
     0
 49
0.0208333333333333
 49
0.0
 49
0.0
 49
0.0
 49
0.0
 49
0.0208333333333333
 49
0.0
 49
0.0
 49
0.0
 49
0.0
 49
1.0
 49
0.0
 49
0.0
 49
0.0
 49
0.0
 49
1.0
175
     0
142
0.0208333333333333
142
0.0
142
0.0
142
0.0
142
0.0
142
0.0208333333333333
142
0.0
142
0.0
142
0.0
142
0.0
142
1.0
142
0.0
142
0.0
142
0.0
142
0.0
142
1.0
179
     0
144
0.0208333333333333
144
0.0
144
0.0
144
0.0
144
0.0
144
0.0208333333333333
144
0.0
144
0.0
144
0.0
144
0.0
144
1.0
144
0.0
144
0.0
144
0.0
144
0.0
144
1.0
147
0.0208333333333333
147
0.0
147
0.0
147
0.0
147
0.0
147
0.0208333333333333
147
0.0
147
0.0
147
0.0
147
0.0
147
1.0
147
0.0
147
0.0
147
0.0
147
0.0
147
1.0
  0
MATERIAL
  5
21
102
{ACAD_XDICTIONARY
360
22
102
}
102
{ACAD_REACTORS
330
10
102
}
330
10
100
AcDbMaterial
  1
Global
 72
     0
 43
0.0208333333333333
 43
0.0
 43
0.0
 43
0.0
 43
0.0
 43
0.0208333333333333
 43
0.0
 43
0.0
 43
0.0
 43
0.0
 43
1.0
 43
0.0
 43
0.0
 43
0.0
 43
0.0
 43
1.0
 77
     0
 47
0.0208333333333333
 47
0.0
 47
0.0
 47
0.0
 47
0.0
 47
0.0208333333333333
 47
0.0
 47
0.0
 47
0.0
 47
0.0
 47
1.0
 47
0.0
 47
0.0
 47
0.0
 47
0.0
 47
1.0
171
     0
 49
0.0208333333333333
 49
0.0
 49
0.0
 49
0.0
 49
0.0
 49
0.0208333333333333
 49
0.0
 49
0.0
 49
0.0
 49
0.0
 49
1.0
 49
0.0
 49
0.0
 49
0.0
 49
0.0
 49
1.0
175
     0
142
0.0208333333333333
142
0.0
142
0.0
142
0.0
142
0.0
142
0.0208333333333333
142
0.0
142
0.0
142
0.0
142
0.0
142
1.0
142
0.0
142
0.0
142
0.0
142
0.0
142
1.0
179
     0
144
0.0208333333333333
144
0.0
144
0.0
144
0.0
144
0.0
144
0.0208333333333333
144
0.0
144
0.0
144
0.0
144
0.0
144
1.0
144
0.0
144
0.0
144
0.0
144
0.0
144
1.0
147
0.0208333333333333
147
0.0
147
0.0
147
0.0
147
0.0
147
0.0208333333333333
147
0.0
147
0.0
147
0.0
147
0.0
147
1.0
147
0.0
147
0.0
147
0.0
147
0.0
147
1.0
  0
MLEADERSTYLE
  5
67
102
{ACAD_REACTORS
330
66
102
}
330
66
100
AcDbMLeaderStyle
179
     2
170
     2
171
     1
172
     0
 90
        2
 40
0.0
 41
0.0
173
     1
 91
-1056964608
340
5B
 92
       -2
290
     1
 42
0.09
291
     1
 43
0.36
  3
Standard
 44
0.18
300

342
55
174
     1
178
     6
175
     1
176
     0
 93
-1056964608
 45
0.18
292
     0
297
     0
 46
0.18
 94
-1056964608
 47
1.0
 49
1.0
140
1.0
293
     1
141
0.0
294
     1
177
     0
142
1.0
295
     1
296
     0
143
0.125
271
     0
272
     9
273
     9
298
     1
  0
MLINESTYLE
  5
60
102
{ACAD_REACTORS
330
5F
102
}
330
5F
100
AcDbMlineStyle
  2
STANDARD
 70
     0
  3

 62
   256
 51
90.0
 52
90.0
 71
     2
 49
0.5
 62
   256
  6
BYLAYER
 49
-0.5
 62
   256
  6
BYLAYER
  0
ACDBPLACEHOLDER
  5
F
102
{ACAD_REACTORS
330
E
102
}
330
E
  0
SCALE
  5
43
102
{ACAD_REACTORS
330
42
102
}
330
42
100
AcDbScale
 70
     0
300
1:1
140
1.0
141
1.0
290
     1
  0
SCALE
  5
44
102
{ACAD_REACTORS
330
42
102
}
330
42
100
AcDbScale
 70
     0
300
1/128" = 1'-0"
140
0.0078125
141
12.0
290
     0
  0
SCALE
  5
45
102
{ACAD_REACTORS
330
42
102
}
330
42
100
AcDbScale
 70
     0
300
1/64" = 1'-0"
140
0.015625
141
12.0
290
     0
  0
SCALE
  5
46
102
{ACAD_REACTORS
330
42
102
}
330
42
100
AcDbScale
 70
     0
300
1/32" = 1'-0"
140
0.03125
141
12.0
290
     0
  0
SCALE
  5
47
102
{ACAD_REACTORS
330
42
102
}
330
42
100
AcDbScale
 70
     0
300
1/16" = 1'-0"
140
0.0625
141
12.0
290
     0
  0
SCALE
  5
48
102
{ACAD_REACTORS
330
42
102
}
330
42
100
AcDbScale
 70
     0
300
3/32" = 1'-0"
140
0.09375
141
12.0
290
     0
  0
SCALE
  5
49
102
{ACAD_REACTORS
330
42
102
}
330
42
100
AcDbScale
 70
     0
300
1/8" = 1'-0"
140
0.125
141
12.0
290
     0
  0
SCALE
  5
4A
102
{ACAD_REACTORS
330
42
102
}
330
42
100
AcDbScale
 70
     0
300
3/16" = 1'-0"
140
0.1875
141
12.0
290
     0
  0
SCALE
  5
4B
102
{ACAD_REACTORS
330
42
102
}
330
42
100
AcDbScale
 70
     0
300
1/4" = 1'-0"
140
0.25
141
12.0
290
     0
  0
SCALE
  5
4C
102
{ACAD_REACTORS
330
42
102
}
330
42
100
AcDbScale
 70
     0
300
3/8" = 1'-0"
140
0.375
141
12.0
290
     0
  0
SCALE
  5
4D
102
{ACAD_REACTORS
330
42
102
}
330
42
100
AcDbScale
 70
     0
300
1/2" = 1'-0"
140
0.5
141
12.0
290
     0
  0
SCALE
  5
4E
102
{ACAD_REACTORS
330
42
102
}
330
42
100
AcDbScale
 70
     0
300
3/4" = 1'-0"
140
0.75
141
12.0
290
     0
  0
SCALE
  5
4F
102
{ACAD_REACTORS
330
42
102
}
330
42
100
AcDbScale
 70
     0
300
1" = 1'-0"
140
1.0
141
12.0
290
     0
  0
SCALE
  5
50
102
{ACAD_REACTORS
330
42
102
}
330
42
100
AcDbScale
 70
     0
300
1-1/2" = 1'-0"
140
1.5
141
12.0
290
     0
  0
SCALE
  5
51
102
{ACAD_REACTORS
330
42
102
}
330
42
100
AcDbScale
 70
     0
300
3" = 1'-0"
140
3.0
141
12.0
290
     0
  0
SCALE
  5
52
102
{ACAD_REACTORS
330
42
102
}
330
42
100
AcDbScale
 70
     0
300
6" = 1'-0"
140
6.0
141
12.0
290
     0
  0
SCALE
  5
53
102
{ACAD_REACTORS
330
42
102
}
330
42
100
AcDbScale
 70
     0
300
1'-0" = 1'-0"
140
12.0
141
12.0
290
     0
  0
ACDBSECTIONVIEWSTYLE
  5
6A
102
{ACAD_REACTORS
330
68
102
}
330
68
100
AcDbModelDocViewStyle
 70
     0
  3
Imperial24
290
     1
100
AcDbSectionViewStyle
 70
     0
 71
     0
 90
       78
 71
     1
340
55
 62
   256
 40
0.24
340
0
340
0
 62
   256
 40
0.24
300
I, O, Q, S, X, Z
 40
0.48
 90
        3
 40
0.18
 90
        1
 71
     2
340
69
 90
       25
 62
   256
340
5D
 90
       50
 62
   256
 40
0.24
 40
0.0
 40
0.24
 71
     3
340
55
 62
   256
 40
0.24
 90
        1
 40
0.75
 90
        1
300
%<\AcVar ViewType \f "%tc1">% %<\AcVar ViewSectionStartId>%-%<\AcVar ViewSectionEndId>%\PSCALA %<\AcVar ViewScale \f "%sn">%
 71
     4
 62
   256
 62
   257
300
ANSI31
 40
1.0
 90
        0
290
     0
290
     0
 90
        6
 40
0.0
 40
1.570796326794896
 40
0.2617993877991494
 40
1.308996938995747
 40
-0.2617993877991494
 40
1.832595714594046
  0
TABLESTYLE
  5
65
102
{ACAD_XDICTIONARY
360
274
102
}
102
{ACAD_REACTORS
330
64
102
}
330
64
100
AcDbTableStyle
280
     0
  3
Standard
 70
     0
 71
     0
 40
0.06
 41
0.06
280
     0
281
     0
  7
Standard
140
0.18
170
     2
 62
     0
 63
     7
283
     0
 90
      512
 91
        0
  1

274
    -2
284
     1
 64
     0
275
    -2
285
     1
 65
     0
276
    -2
286
     1
 66
     0
277
    -2
287
     1
 67
     0
278
    -2
288
     1
 68
     0
279
    -2
289
     1
 69
     0
  7
Standard
140
0.25
170
     5
 62
     0
 63
     7
283
     0
 90
      512
 91
        0
  1

274
    -2
284
     1
 64
     0
275
    -2
285
     1
 65
     0
276
    -2
286
     1
 66
     0
277
    -2
287
     1
 67
     0
278
    -2
288
     1
 68
     0
279
    -2
289
     1
 69
     0
  7
Standard
140
0.18
170
     5
 62
     0
 63
     7
283
     0
 90
      512
 91
        0
  1

274
    -2
284
     1
 64
     0
275
    -2
285
     1
 65
     0
276
    -2
286
     1
 66
     0
277
    -2
287
     1
 67
     0
278
    -2
288
     1
 68
     0
279
    -2
289
     1
 69
     0
  0
VISUALSTYLE
  5
2F
102
{ACAD_REACTORS
330
29
102
}
330
29
100
AcDbVisualStyle
  2
2dWireframe
 70
     4
177
     3
291
     0
 70
    58
 90
        0
176
     1
 90
        2
176
     1
 90
        0
176
     1
 90
        0
176
     1
 40
0.6
176
     1
 40
30.0
176
     1
 62
     7
420
 16777215
176
     1
 90
        1
176
     1
 90
        4
176
     1
 62
     7
176
     1
 62
   257
176
     1
 90
        1
176
     1
 90
        1
176
     1
 40
1.0
176
     1
 90
        0
176
     1
 62
   257
176
     1
 40
1.0
176
     1
 90
        1
176
     1
 90
        6
176
     1
 90
        2
176
     1
 62
     7
176
     1
 90
        5
176
     1
 90
        0
176
     1
 90
        0
176
     1
290
     0
176
     1
 90
        1
176
     1
 40
0.0
176
     1
 90
        0
176
     1
290
     1
176
     1
290
     1
176
     1
290
     0
176
     1
290
     0
176
     1
290
     0
176
     1
290
     0
176
     1
290
     0
176
     1
290
     0
176
     1
290
     0
176
     1
 90
       50
176
     1
 40
0.0
176
     1
 40
1.0
176
     1
 90
        0
176
     1
 62
    18
420
        0
176
     1
 90
       50
176
     1
 90
        3
176
     1
 62
     5
420
      255
176
     1
290
     0
176
     1
 90
       50
176
     1
 90
       50
176
     1
 90
       50
176
     1
290
     0
176
     1
 90
       50
176
     1
 62
   256
176
     0
 40
1.0
176
     0
 90
        2
176
     1
  1
strokes_ogs.tif
176
     1
290
     0
176
     1
 40
1.0
176
     1
 40
1.0
176
     1
  0
VISUALSTYLE
  5
2E
102
{ACAD_REACTORS
330
29
102
}
330
29
100
AcDbVisualStyle
  2
Basic
 70
     7
177
     3
291
     1
 70
    58
 90
        1
176
     1
 90
        0
176
     1
 90
        1
176
     1
 90
        0
176
     1
 40
0.6
176
     1
 40
30.0
176
     1
 62
     7
420
 16777215
176
     1
 90
        0
176
     1
 90
        4
176
     1
 62
     7
176
     1
 62
   257
176
     1
 90
        1
176
     1
 90
        1
176
     1
 40
1.0
176
     1
 90
        8
176
     1
 62
     7
176
     1
 40
1.0
176
     1
 90
        1
176
     1
 90
        6
176
     1
 90
        2
176
     1
 62
     7
176
     1
 90
        5
176
     1
 90
        0
176
     1
 90
        0
176
     1
290
     0
176
     1
 90
        1
176
     1
 40
0.0
176
     1
 90
        0
176
     1
290
     0
176
     1
290
     1
176
     1
290
     1
176
     1
290
     0
176
     1
290
     0
176
     1
290
     0
176
     1
290
     0
176
     1
290
     0
176
     1
290
     0
176
     1
 90
       50
176
     1
 40
0.0
176
     1
 40
1.0
176
     1
 90
        0
176
     1
 62
    18
420
        0
176
     1
 90
       50
176
     1
 90
        3
176
     1
 62
     5
420
      255
176
     1
290
     0
176
     1
 90
       50
176
     1
 90
       50
176
     1
 90
       50
176
     1
290
     0
176
     1
 90
       50
176
     1
 62
   256
176
     0
 40
1.0
176
     0
 90
        2
176
     1
  1
strokes_ogs.tif
176
     1
290
     0
176
     1
 40
1.0
176
     1
 40
1.0
176
     1
  0
VISUALSTYLE
  5
35
102
{ACAD_REACTORS
330
29
102
}
330
29
100
AcDbVisualStyle
  2
Brighten
 70
    12
177
     3
291
     1
 70
    58
 90
        2
176
     1
 90
        2
176
     1
 90
        0
176
     1
 90
        0
176
     1
 40
0.6
176
     1
 40
30.0
176
     1
 62
     7
420
 16777215
176
     1
 90
        1
176
     1
 90
        4
176
     1
 62
     7
176
     1
 62
   257
176
     1
 90
        1
176
     1
 90
        1
176
     1
 40
1.0
176
     1
 90
        8
176
     1
 62
     7
176
     1
 40
1.0
176
     1
 90
        1
176
     1
 90
        6
176
     1
 90
        2
176
     1
 62
     7
176
     1
 90
        5
176
     1
 90
        0
176
     1
 90
        0
176
     1
290
     0
176
     1
 90
        1
176
     1
 40
50.0
176
     1
 90
        0
176
     1
290
     0
176
     1
290
     1
176
     1
290
     1
176
     1
290
     0
176
     1
290
     0
176
     1
290
     0
176
     1
290
     0
176
     1
290
     0
176
     1
290
     0
176
     1
 90
       50
176
     1
 40
0.0
176
     1
 40
1.0
176
     1
 90
        0
176
     1
 62
    18
420
        0
176
     1
 90
       50
176
     1
 90
        3
176
     1
 62
     5
420
      255
176
     1
290
     0
176
     1
 90
       50
176
     1
 90
       50
176
     1
 90
       50
176
     1
290
     0
176
     1
 90
       50
176
     1
 62
   256
176
     0
 40
1.0
176
     0
 90
        2
176
     1
  1
strokes_ogs.tif
176
     1
290
     0
176
     1
 40
1.0
176
     1
 40
1.0
176
     1
  0
VISUALSTYLE
  5
39
102
{ACAD_REACTORS
330
29
102
}
330
29
100
AcDbVisualStyle
  2
ColorChange
 70
    16
177
     3
291
     1
 70
    58
 90
        2
176
     1
 90
        2
176
     1
 90
        3
176
     1
 90
        0
176
     1
 40
0.6
176
     1
 40
30.0
176
     1
 62
     8
420
  8421504
176
     1
 90
        1
176
     1
 90
        4
176
     1
 62
     7
176
     1
 62
   257
176
     1
 90
        1
176
     1
 90
        1
176
     1
 40
1.0
176
     1
 90
        8
176
     1
 62
     8
420
  8421504
176
     1
 40
1.0
176
     1
 90
        1
176
     1
 90
        6
176
     1
 90
        2
176
     1
 62
     7
176
     1
 90
        5
176
     1
 90
        0
176
     1
 90
        0
176
     1
290
     0
176
     1
 90
        1
176
     1
 40
0.0
176
     1
 90
        0
176
     1
290
     0
176
     1
290
     1
176
     1
290
     1
176
     1
290
     0
176
     1
290
     0
176
     1
290
     0
176
     1
290
     0
176
     1
290
     0
176
     1
290
     0
176
     1
 90
       50
176
     1
 40
0.0
176
     1
 40
1.0
176
     1
 90
        0
176
     1
 62
    18
420
        0
176
     1
 90
       50
176
     1
 90
        3
176
     1
 62
     5
420
      255
176
     1
290
     0
176
     1
 90
       50
176
     1
 90
       50
176
     1
 90
       50
176
     1
290
     0
176
     1
 90
       50
176
     1
 62
   256
176
     0
 40
1.0
176
     0
 90
        2
176
     1
  1
strokes_ogs.tif
176
     1
290
     0
176
     1
 40
1.0
176
     1
 40
1.0
176
     1
  0
VISUALSTYLE
  5
32
102
{ACAD_REACTORS
330
29
102
}
330
29
100
AcDbVisualStyle
  2
Conceptual
 70
     9
177
     3
291
     0
 70
    58
 90
        3
176
     1
 90
        2
176
     1
 90
        0
176
     1
 90
        0
176
     1
 40
0.6
176
     1
 40
30.0
176
     1
 62
     7
420
 16777215
176
     1
 90
        2
176
     1
 90
        2
176
     1
 62
     7
176
     1
 62
   257
176
     1
 90
        1
176
     1
 90
        1
176
     1
 40
179.0
176
     1
 90
        8
176
     1
 62
     7
176
     1
 40
1.0
176
     1
 90
        1
176
     1
 90
        6
176
     1
 90
        2
176
     1
 62
     7
176
     1
 90
        3
176
     1
 90
        0
176
     1
 90
        0
176
     1
290
     0
176
     1
 90
        1
176
     1
 40
0.0
176
     1
 90
        0
176
     1
290
     0
176
     1
290
     1
176
     1
290
     1
176
     1
290
     0
176
     1
290
     0
176
     1
290
     0
176
     1
290
     0
176
     1
290
     0
176
     1
290
     0
176
     1
 90
       50
176
     1
 40
0.0
176
     1
 40
1.0
176
     1
 90
        0
176
     1
 62
    18
420
        0
176
     1
 90
       50
176
     1
 90
        3
176
     1
 62
     5
420
      255
176
     1
290
     0
176
     1
 90
       50
176
     1
 90
       50
176
     1
 90
       50
176
     1
290
     0
176
     1
 90
       50
176
     1
 62
   256
176
     0
 40
1.0
176
     0
 90
        2
176
     1
  1
strokes_ogs.tif
176
     1
290
     0
176
     1
 40
1.0
176
     1
 40
1.0
176
     1
  0
VISUALSTYLE
  5
34
102
{ACAD_REACTORS
330
29
102
}
330
29
100
AcDbVisualStyle
  2
Dim
 70
    11
177
     3
291
     1
 70
    58
 90
        2
176
     1
 90
        2
176
     1
 90
        0
176
     1
 90
        0
176
     1
 40
0.6
176
     1
 40
30.0
176
     1
 62
     7
420
 16777215
176
     1
 90
        1
176
     1
 90
        4
176
     1
 62
     7
176
     1
 62
   257
176
     1
 90
        1
176
     1
 90
        1
176
     1
 40
1.0
176
     1
 90
        8
176
     1
 62
     7
176
     1
 40
1.0
176
     1
 90
        1
176
     1
 90
        6
176
     1
 90
        2
176
     1
 62
     7
176
     1
 90
        5
176
     1
 90
        0
176
     1
 90
        0
176
     1
290
     0
176
     1
 90
        1
176
     1
 40
-50.0
176
     1
 90
        0
176
     1
290
     0
176
     1
290
     1
176
     1
290
     1
176
     1
290
     0
176
     1
290
     0
176
     1
290
     0
176
     1
290
     0
176
     1
290
     0
176
     1
290
     0
176
     1
 90
       50
176
     1
 40
0.0
176
     1
 40
1.0
176
     1
 90
        0
176
     1
 62
    18
420
        0
176
     1
 90
       50
176
     1
 90
        3
176
     1
 62
     5
420
      255
176
     1
290
     0
176
     1
 90
       50
176
     1
 90
       50
176
     1
 90
       50
176
     1
290
     0
176
     1
 90
       50
176
     1
 62
   256
176
     0
 40
1.0
176
     0
 90
        2
176
     1
  1
strokes_ogs.tif
176
     1
290
     0
176
     1
 40
1.0
176
     1
 40
1.0
176
     1
  0
VISUALSTYLE
  5
41
102
{ACAD_REACTORS
330
29
102
}
330
29
100
AcDbVisualStyle
  2
EdgeColorOff
 70
    22
177
     3
291
     1
 70
    58
 90
        2
176
     0
 90
        2
176
     0
 90
        0
176
     0
 90
        0
176
     0
 40
0.6
176
     0
 40
30.0
176
     0
 62
     7
420
 16777215
176
     0
 90
        1
176
     0
 90
        4
176
     0
 62
     7
176
     0
 62
   257
176
     0
 90
        1
176
     0
 90
        1
176
     0
 40
1.0
176
     0
 90
        8
176
     2
 62
     7
176
     0
 40
1.0
176
     0
 90
        1
176
     0
 90
        6
176
     0
 90
        2
176
     0
 62
     7
176
     0
 90
        5
176
     0
 90
        0
176
     0
 90
        0
176
     0
290
     0
176
     0
 90
        1
176
     0
 40
0.0
176
     0
 90
        0
176
     0
290
     0
176
     0
290
     1
176
     0
290
     1
176
     0
290
     0
176
     0
290
     0
176
     0
290
     0
176
     0
290
     0
176
     0
290
     0
176
     0
290
     0
176
     0
 90
       50
176
     0
 40
0.0
176
     0
 40
1.0
176
     0
 90
        0
176
     0
 62
    18
420
        0
176
     0
 90
       50
176
     0
 90
        3
176
     0
 62
     5
420
      255
176
     0
290
     0
176
     0
 90
       50
176
     0
 90
       50
176
     0
 90
       50
176
     0
290
     0
176
     0
 90
       50
176
     0
 62
   256
176
     0
 40
1.0
176
     0
 90
        2
176
     0
  1
strokes_ogs.tif
176
     0
290
     0
176
     0
 40
1.0
176
     0
 40
1.0
176
     0
  0
VISUALSTYLE
  5
38
102
{ACAD_REACTORS
330
29
102
}
330
29
100
AcDbVisualStyle
  2
Facepattern
 70
    15
177
     3
291
     1
 70
    58
 90
        2
176
     1
 90
        2
176
     1
 90
        0
176
     1
 90
        0
176
     1
 40
0.6
176
     1
 40
30.0
176
     1
 62
     7
420
 16777215
176
     1
 90
        1
176
     1
 90
        4
176
     1
 62
     7
176
     1
 62
   257
176
     1
 90
        1
176
     1
 90
        1
176
     1
 40
1.0
176
     1
 90
        8
176
     1
 62
     7
176
     1
 40
1.0
176
     1
 90
        1
176
     1
 90
        6
176
     1
 90
        2
176
     1
 62
     7
176
     1
 90
        5
176
     1
 90
        0
176
     1
 90
        0
176
     1
290
     0
176
     1
 90
        1
176
     1
 40
0.0
176
     1
 90
        0
176
     1
290
     0
176
     1
290
     1
176
     1
290
     1
176
     1
290
     0
176
     1
290
     0
176
     1
290
     0
176
     1
290
     0
176
     1
290
     0
176
     1
290
     0
176
     1
 90
       50
176
     1
 40
0.0
176
     1
 40
1.0
176
     1
 90
        0
176
     1
 62
    18
420
        0
176
     1
 90
       50
176
     1
 90
        3
176
     1
 62
     5
420
      255
176
     1
290
     0
176
     1
 90
       50
176
     1
 90
       50
176
     1
 90
       50
176
     1
290
     0
176
     1
 90
       50
176
     1
 62
   256
176
     0
 40
1.0
176
     0
 90
        2
176
     1
  1
strokes_ogs.tif
176
     1
290
     0
176
     1
 40
1.0
176
     1
 40
1.0
176
     1
  0
VISUALSTYLE
  5
2A
102
{ACAD_REACTORS
330
29
102
}
330
29
100
AcDbVisualStyle
  2
Flat
 70
     0
177
     3
291
     1
 70
    58
 90
        2
176
     1
 90
        1
176
     1
 90
        1
176
     1
 90
        2
176
     1
 40
0.6
176
     1
 40
30.0
176
     1
 62
     7
420
 16777215
176
     1
 90
        0
176
     1
 90
        0
176
     1
 62
     7
176
     1
 62
   257
176
     1
 90
        1
176
     1
 90
        1
176
     1
 40
1.0
176
     1
 90
        8
176
     1
 62
     7
176
     1
 40
1.0
176
     1
 90
        1
176
     1
 90
        6
176
     1
 90
        2
176
     1
 62
     7
176
     1
 90
        5
176
     1
 90
        0
176
     1
 90
        0
176
     1
290
     0
176
     1
 90
       13
176
     1
 40
0.0
176
     1
 90
        0
176
     1
290
     0
176
     1
290
     1
176
     1
290
     1
176
     1
290
     0
176
     1
290
     0
176
     1
290
     0
176
     1
290
     0
176
     1
290
     0
176
     1
290
     0
176
     1
 90
       50
176
     1
 40
0.0
176
     1
 40
1.0
176
     1
 90
        0
176
     1
 62
    18
420
        0
176
     1
 90
       50
176
     1
 90
        3
176
     1
 62
     5
420
      255
176
     1
290
     0
176
     1
 90
       50
176
     1
 90
       50
176
     1
 90
       50
176
     1
290
     0
176
     1
 90
       50
176
     1
 62
   256
176
     0
 40
1.0
176
     0
 90
        2
176
     1
  1
strokes_ogs.tif
176
     1
290
     0
176
     1
 40
1.0
176
     1
 40
1.0
176
     1
  0
VISUALSTYLE
  5
2B
102
{ACAD_REACTORS
330
29
102
}
330
29
100
AcDbVisualStyle
  2
FlatWithEdges
 70
     1
177
     3
291
     1
 70
    58
 90
        2
176
     1
 90
        1
176
     1
 90
        1
176
     1
 90
        2
176
     1
 40
0.6
176
     1
 40
30.0
176
     1
 62
     7
420
 16777215
176
     1
 90
        1
176
     1
 90
        0
176
     1
 62
     7
176
     1
 62
   257
176
     1
 90
        1
176
     1
 90
        1
176
     1
 40
1.0
176
     1
 90
        0
176
     1
 62
   257
176
     1
 40
1.0
176
     1
 90
        1
176
     1
 90
        6
176
     1
 90
        2
176
     1
 62
     7
176
     1
 90
        5
176
     1
 90
        0
176
     1
 90
        0
176
     1
290
     0
176
     1
 90
       13
176
     1
 40
0.0
176
     1
 90
        0
176
     1
290
     0
176
     1
290
     1
176
     1
290
     1
176
     1
290
     0
176
     1
290
     0
176
     1
290
     0
176
     1
290
     0
176
     1
290
     0
176
     1
290
     0
176
     1
 90
       50
176
     1
 40
0.0
176
     1
 40
1.0
176
     1
 90
        0
176
     1
 62
    18
420
        0
176
     1
 90
       50
176
     1
 90
        3
176
     1
 62
     5
420
      255
176
     1
290
     0
176
     1
 90
       50
176
     1
 90
       50
176
     1
 90
       50
176
     1
290
     0
176
     1
 90
       50
176
     1
 62
   256
176
     0
 40
1.0
176
     0
 90
        2
176
     1
  1
strokes_ogs.tif
176
     1
290
     0
176
     1
 40
1.0
176
     1
 40
1.0
176
     1
  0
VISUALSTYLE
  5
2C
102
{ACAD_REACTORS
330
29
102
}
330
29
100
AcDbVisualStyle
  2
Gouraud
 70
     2
177
     3
291
     1
 70
    58
 90
        2
176
     1
 90
        2
176
     1
 90
        1
176
     1
 90
        2
176
     1
 40
0.6
176
     1
 40
30.0
176
     1
 62
     7
420
 16777215
176
     1
 90
        0
176
     1
 90
        0
176
     1
 62
     7
176
     1
 62
   257
176
     1
 90
        1
176
     1
 90
        1
176
     1
 40
1.0
176
     1
 90
        0
176
     1
 62
     7
176
     1
 40
1.0
176
     1
 90
        1
176
     1
 90
        6
176
     1
 90
        2
176
     1
 62
     7
176
     1
 90
        5
176
     1
 90
        0
176
     1
 90
        0
176
     1
290
     0
176
     1
 90
       13
176
     1
 40
0.0
176
     1
 90
        0
176
     1
290
     0
176
     1
290
     1
176
     1
290
     1
176
     1
290
     0
176
     1
290
     0
176
     1
290
     0
176
     1
290
     0
176
     1
290
     0
176
     1
290
     0
176
     1
 90
       50
176
     1
 40
0.0
176
     1
 40
1.0
176
     1
 90
        0
176
     1
 62
    18
420
        0
176
     1
 90
       50
176
     1
 90
        3
176
     1
 62
     5
420
      255
176
     1
290
     0
176
     1
 90
       50
176
     1
 90
       50
176
     1
 90
       50
176
     1
290
     0
176
     1
 90
       50
176
     1
 62
   256
176
     0
 40
1.0
176
     0
 90
        2
176
     1
  1
strokes_ogs.tif
176
     1
290
     0
176
     1
 40
1.0
176
     1
 40
1.0
176
     1
  0
VISUALSTYLE
  5
2D
102
{ACAD_REACTORS
330
29
102
}
330
29
100
AcDbVisualStyle
  2
GouraudWithEdges
 70
     3
177
     3
291
     1
 70
    58
 90
        2
176
     1
 90
        2
176
     1
 90
        1
176
     1
 90
        2
176
     1
 40
0.6
176
     1
 40
30.0
176
     1
 62
     7
420
 16777215
176
     1
 90
        1
176
     1
 90
        0
176
     1
 62
     7
176
     1
 62
   257
176
     1
 90
        1
176
     1
 90
        1
176
     1
 40
1.0
176
     1
 90
        0
176
     1
 62
   257
176
     1
 40
1.0
176
     1
 90
        1
176
     1
 90
        6
176
     1
 90
        2
176
     1
 62
     7
176
     1
 90
        5
176
     1
 90
        0
176
     1
 90
        0
176
     1
290
     0
176
     1
 90
       13
176
     1
 40
0.0
176
     1
 90
        0
176
     1
290
     0
176
     1
290
     1
176
     1
290
     1
176
     1
290
     0
176
     1
290
     0
176
     1
290
     0
176
     1
290
     0
176
     1
290
     0
176
     1
290
     0
176
     1
 90
       50
176
     1
 40
0.0
176
     1
 40
1.0
176
     1
 90
        0
176
     1
 62
    18
420
        0
176
     1
 90
       50
176
     1
 90
        3
176
     1
 62
     5
420
      255
176
     1
290
     0
176
     1
 90
       50
176
     1
 90
       50
176
     1
 90
       50
176
     1
290
     0
176
     1
 90
       50
176
     1
 62
   256
176
     0
 40
1.0
176
     0
 90
        2
176
     1
  1
strokes_ogs.tif
176
     1
290
     0
176
     1
 40
1.0
176
     1
 40
1.0
176
     1
  0
VISUALSTYLE
  5
31
102
{ACAD_REACTORS
330
29
102
}
330
29
100
AcDbVisualStyle
  2
Hidden
 70
     6
177
     3
291
     0
 70
    58
 90
        1
176
     1
 90
        2
176
     1
 90
        2
176
     1
 90
        0
176
     1
 40
0.6
176
     1
 40
30.0
176
     1
 62
     7
420
 16777215
176
     1
 90
        2
176
     1
 90
        2
176
     1
 62
     7
176
     1
 62
   257
176
     1
 90
        2
176
     1
 90
        1
176
     1
 40
40.0
176
     1
 90
        0
176
     1
 62
   257
176
     1
 40
1.0
176
     1
 90
        1
176
     1
 90
        6
176
     1
 90
        2
176
     1
 62
     7
176
     1
 90
        3
176
     1
 90
        0
176
     1
 90
        0
176
     1
290
     0
176
     1
 90
        1
176
     1
 40
0.0
176
     1
 90
        0
176
     1
290
     0
176
     1
290
     1
176
     1
290
     1
176
     1
290
     0
176
     1
290
     0
176
     1
290
     0
176
     1
290
     0
176
     1
290
     0
176
     1
290
     0
176
     1
 90
       50
176
     1
 40
0.0
176
     1
 40
1.0
176
     1
 90
        0
176
     1
 62
    18
420
        0
176
     1
 90
       50
176
     1
 90
        3
176
     1
 62
     5
420
      255
176
     1
290
     0
176
     1
 90
       50
176
     1
 90
       50
176
     1
 90
       50
176
     1
290
     0
176
     1
 90
       50
176
     1
 62
   256
176
     0
 40
1.0
176
     0
 90
        2
176
     1
  1
strokes_ogs.tif
176
     1
290
     0
176
     1
 40
1.0
176
     1
 40
1.0
176
     1
  0
VISUALSTYLE
  5
3F
102
{ACAD_REACTORS
330
29
102
}
330
29
100
AcDbVisualStyle
  2
JitterOff
 70
    20
177
     3
291
     1
 70
    58
 90
        2
176
     0
 90
        2
176
     0
 90
        0
176
     0
 90
        0
176
     0
 40
0.6
176
     0
 40
30.0
176
     0
 62
     7
420
 16777215
176
     0
 90
        1
176
     0
 90
        4
176
     0
 62
     7
176
     0
 62
   257
176
     0
 90
        1
176
     0
 90
        1
176
     0
 40
1.0
176
     0
 90
       10
176
     2
 62
     7
176
     0
 40
1.0
176
     0
 90
        1
176
     0
 90
        6
176
     0
 90
        2
176
     0
 62
     7
176
     0
 90
        5
176
     0
 90
        0
176
     0
 90
        0
176
     0
290
     0
176
     0
 90
        1
176
     0
 40
0.0
176
     0
 90
        0
176
     0
290
     0
176
     0
290
     1
176
     0
290
     1
176
     0
290
     0
176
     0
290
     0
176
     0
290
     0
176
     0
290
     0
176
     0
290
     0
176
     0
290
     0
176
     0
 90
       50
176
     0
 40
0.0
176
     0
 40
1.0
176
     0
 90
        0
176
     0
 62
    18
420
        0
176
     0
 90
       50
176
     0
 90
        3
176
     0
 62
     5
420
      255
176
     0
290
     0
176
     0
 90
       50
176
     0
 90
       50
176
     0
 90
       50
176
     0
290
     0
176
     0
 90
       50
176
     0
 62
   256
176
     0
 40
1.0
176
     0
 90
        2
176
     0
  1
strokes_ogs.tif
176
     0
290
     0
176
     0
 40
1.0
176
     0
 40
1.0
176
     0
  0
VISUALSTYLE
  5
37
102
{ACAD_REACTORS
330
29
102
}
330
29
100
AcDbVisualStyle
  2
Linepattern
 70
    14
177
     3
291
     1
 70
    58
 90
        2
176
     1
 90
        2
176
     1
 90
        0
176
     1
 90
        0
176
     1
 40
0.6
176
     1
 40
30.0
176
     1
 62
     7
420
 16777215
176
     1
 90
        1
176
     1
 90
        4
176
     1
 62
     7
176
     1
 62
   257
176
     1
 90
        7
176
     1
 90
        7
176
     1
 40
1.0
176
     1
 90
        8
176
     1
 62
     7
176
     1
 40
1.0
176
     1
 90
        1
176
     1
 90
        6
176
     1
 90
        2
176
     1
 62
     7
176
     1
 90
        5
176
     1
 90
        0
176
     1
 90
        0
176
     1
290
     0
176
     1
 90
        1
176
     1
 40
0.0
176
     1
 90
        0
176
     1
290
     0
176
     1
290
     1
176
     1
290
     1
176
     1
290
     0
176
     1
290
     0
176
     1
290
     0
176
     1
290
     0
176
     1
290
     0
176
     1
290
     0
176
     1
 90
       50
176
     1
 40
0.0
176
     1
 40
1.0
176
     1
 90
        0
176
     1
 62
    18
420
        0
176
     1
 90
       50
176
     1
 90
        3
176
     1
 62
     5
420
      255
176
     1
290
     0
176
     1
 90
       50
176
     1
 90
       50
176
     1
 90
       50
176
     1
290
     0
176
     1
 90
       50
176
     1
 62
   256
176
     0
 40
1.0
176
     0
 90
        2
176
     1
  1
strokes_ogs.tif
176
     1
290
     0
176
     1
 40
1.0
176
     1
 40
1.0
176
     1
  0
VISUALSTYLE
  5
40
102
{ACAD_REACTORS
330
29
102
}
330
29
100
AcDbVisualStyle
  2
OverhangOff
 70
    21
177
     3
291
     1
 70
    58
 90
        2
176
     0
 90
        2
176
     0
 90
        0
176
     0
 90
        0
176
     0
 40
0.6
176
     0
 40
30.0
176
     0
 62
     7
420
 16777215
176
     0
 90
        1
176
     0
 90
        4
176
     0
 62
     7
176
     0
 62
   257
176
     0
 90
        1
176
     0
 90
        1
176
     0
 40
1.0
176
     0
 90
        9
176
     2
 62
     7
176
     0
 40
1.0
176
     0
 90
        1
176
     0
 90
        6
176
     0
 90
        2
176
     0
 62
     7
176
     0
 90
        5
176
     0
 90
        0
176
     0
 90
        0
176
     0
290
     0
176
     0
 90
        1
176
     0
 40
0.0
176
     0
 90
        0
176
     0
290
     0
176
     0
290
     1
176
     0
290
     1
176
     0
290
     0
176
     0
290
     0
176
     0
290
     0
176
     0
290
     0
176
     0
290
     0
176
     0
290
     0
176
     0
 90
       50
176
     0
 40
0.0
176
     0
 40
1.0
176
     0
 90
        0
176
     0
 62
    18
420
        0
176
     0
 90
       50
176
     0
 90
        3
176
     0
 62
     5
420
      255
176
     0
290
     0
176
     0
 90
       50
176
     0
 90
       50
176
     0
 90
       50
176
     0
290
     0
176
     0
 90
       50
176
     0
 62
   256
176
     0
 40
1.0
176
     0
 90
        2
176
     0
  1
strokes_ogs.tif
176
     0
290
     0
176
     0
 40
1.0
176
     0
 40
1.0
176
     0
  0
VISUALSTYLE
  5
33
102
{ACAD_REACTORS
330
29
102
}
330
29
100
AcDbVisualStyle
  2
Realistic
 70
     8
177
     3
291
     0
 70
    58
 90
        2
176
     1
 90
        3
176
     1
 90
        0
176
     1
 90
        2
176
     1
 40
0.6
176
     1
 40
30.0
176
     1
 62
     7
420
 16777215
176
     1
 90
        0
176
     1
 90
        0
176
     1
 62
     7
176
     1
 62
   257
176
     1
 90
        1
176
     1
 90
        1
176
     1
 40
1.0
176
     1
 90
        8
176
     1
 62
   257
176
     1
 40
1.0
176
     1
 90
        1
176
     1
 90
        6
176
     1
 90
        2
176
     1
 62
     7
176
     1
 90
        3
176
     1
 90
        0
176
     1
 90
        0
176
     1
290
     0
176
     1
 90
       13
176
     1
 40
0.0
176
     1
 90
        0
176
     1
290
     0
176
     1
290
     1
176
     1
290
     1
176
     1
290
     0
176
     1
290
     0
176
     1
290
     0
176
     1
290
     0
176
     1
290
     0
176
     1
290
     0
176
     1
 90
       50
176
     1
 40
0.0
176
     1
 40
1.0
176
     1
 90
        0
176
     1
 62
    18
420
        0
176
     1
 90
       50
176
     1
 90
        3
176
     1
 62
     5
420
      255
176
     1
290
     0
176
     1
 90
       50
176
     1
 90
       50
176
     1
 90
       50
176
     1
290
     0
176
     1
 90
       50
176
     1
 62
   256
176
     0
 40
1.0
176
     0
 90
        2
176
     1
  1
strokes_ogs.tif
176
     1
290
     0
176
     1
 40
1.0
176
     1
 40
1.0
176
     1
  0
VISUALSTYLE
  5
3E
102
{ACAD_REACTORS
330
29
102
}
330
29
100
AcDbVisualStyle
  2
Shaded
 70
    27
177
     3
291
     0
 70
    58
 90
        2
176
     1
 90
        2
176
     1
 90
        1
176
     1
 90
        2
176
     1
 40
0.6
176
     1
 40
30.0
176
     1
 62
     7
420
 16777215
176
     1
 90
        0
176
     1
 90
        4
176
     1
 62
     7
176
     1
 62
   257
176
     1
 90
        1
176
     1
 90
        1
176
     1
 40
1.0
176
     1
 90
        8
176
     1
 62
   257
176
     1
 40
1.0
176
     1
 90
        1
176
     1
 90
        6
176
     1
 90
        2
176
     1
 62
     8
420
  7895160
176
     1
 90
        3
176
     1
 90
        0
176
     1
 90
        0
176
     1
290
     0
176
     1
 90
        5
176
     1
 40
0.0
176
     1
 90
        0
176
     1
290
     0
176
     1
290
     1
176
     1
290
     1
176
     1
290
     0
176
     1
290
     0
176
     1
290
     0
176
     1
290
     0
176
     1
290
     0
176
     1
290
     0
176
     1
 90
       50
176
     1
 40
0.0
176
     1
 40
1.0
176
     1
 90
        0
176
     1
 62
    18
420
        0
176
     1
 90
       50
176
     1
 90
        3
176
     1
 62
     5
420
      255
176
     1
290
     0
176
     1
 90
       50
176
     1
 90
       50
176
     1
 90
       50
176
     1
290
     0
176
     1
 90
       50
176
     1
 62
   256
176
     0
 40
1.0
176
     0
 90
        2
176
     1
  1
strokes_ogs.tif
176
     1
290
     0
176
     1
 40
1.0
176
     1
 40
1.0
176
     1
  0
VISUALSTYLE
  5
3D
102
{ACAD_REACTORS
330
29
102
}
330
29
100
AcDbVisualStyle
  2
Shaded with edges
 70
    26
177
     3
291
     0
 70
    58
 90
        2
176
     1
 90
        2
176
     1
 90
        1
176
     1
 90
        2
176
     1
 40
0.6
176
     1
 40
30.0
176
     1
 62
     7
420
 16777215
176
     1
 90
        1
176
     1
 90
       10
176
     1
 62
     7
176
     1
 62
   257
176
     1
 90
        2
176
     1
 90
        1
176
     1
 40
1.0
176
     1
 90
        8
176
     1
 62
   257
176
     1
 40
1.0
176
     1
 90
        1
176
     1
 90
        6
176
     1
 90
        2
176
     1
 62
     7
176
     1
 90
        3
176
     1
 90
        0
176
     1
 90
        0
176
     1
290
     0
176
     1
 90
        5
176
     1
 40
0.0
176
     1
 90
        0
176
     1
290
     0
176
     1
290
     1
176
     1
290
     1
176
     1
290
     0
176
     1
290
     0
176
     1
290
     0
176
     1
290
     0
176
     1
290
     0
176
     1
290
     0
176
     1
 90
       50
176
     1
 40
0.0
176
     1
 40
1.0
176
     1
 90
        0
176
     1
 62
    18
420
        0
176
     1
 90
       50
176
     1
 90
        3
176
     1
 62
     5
420
      255
176
     1
290
     0
176
     1
 90
       50
176
     1
 90
       50
176
     1
 90
       50
176
     1
290
     0
176
     1
 90
       50
176
     1
 62
   256
176
     0
 40
1.0
176
     0
 90
        2
176
     1
  1
strokes_ogs.tif
176
     1
290
     0
176
     1
 40
1.0
176
     1
 40
1.0
176
     1
  0
VISUALSTYLE
  5
3A
102
{ACAD_REACTORS
330
29
102
}
330
29
100
AcDbVisualStyle
  2
Shades of Gray
 70
    23
177
     3
291
     0
 70
    58
 90
        2
176
     1
 90
        2
176
     1
 90
        3
176
     1
 90
        0
176
     1
 40
0.6
176
     1
 40
30.0
176
     1
 62
     7
420
 16777215
176
     1
 90
        2
176
     1
 90
        2
176
     1
 62
     7
176
     1
 62
     7
176
     1
 90
        1
176
     1
 90
        1
176
     1
 40
40.0
176
     1
 90
        8
176
     1
 62
     7
176
     1
 40
1.0
176
     1
 90
        1
176
     1
 90
        6
176
     1
 90
        2
176
     1
 62
     7
176
     1
 90
        3
176
     1
 90
        0
176
     1
 90
        0
176
     1
290
     0
176
     1
 90
        1
176
     1
 40
0.0
176
     1
 90
        0
176
     1
290
     0
176
     1
290
     1
176
     1
290
     1
176
     1
290
     0
176
     1
290
     0
176
     1
290
     0
176
     1
290
     0
176
     1
290
     0
176
     1
290
     0
176
     1
 90
       50
176
     1
 40
0.0
176
     1
 40
1.0
176
     1
 90
        0
176
     1
 62
    18
420
        0
176
     1
 90
       50
176
     1
 90
        3
176
     1
 62
     5
420
      255
176
     1
290
     0
176
     1
 90
       50
176
     1
 90
       50
176
     1
 90
       50
176
     1
290
     0
176
     1
 90
       50
176
     1
 62
   256
176
     0
 40
1.0
176
     0
 90
        2
176
     1
  1
strokes_ogs.tif
176
     1
290
     0
176
     1
 40
1.0
176
     1
 40
1.0
176
     1
  0
VISUALSTYLE
  5
3B
102
{ACAD_REACTORS
330
29
102
}
330
29
100
AcDbVisualStyle
  2
Sketchy
 70
    24
177
     3
291
     0
 70
    58
 90
        1
176
     1
 90
        2
176
     1
 90
        2
176
     1
 90
        0
176
     1
 40
0.6
176
     1
 40
30.0
176
     1
 62
     7
420
 16777215
176
     1
 90
        2
176
     1
 90
        2
176
     1
 62
     7
176
     1
 62
     7
176
     1
 90
        1
176
     1
 90
        1
176
     1
 40
40.0
176
     1
 90
       11
176
     1
 62
     7
176
     1
 40
1.0
176
     1
 90
        1
176
     1
 90
        6
176
     1
 90
        2
176
     1
 62
     7
176
     1
 90
        6
176
     1
 90
        0
176
     1
 90
        0
176
     1
290
     0
176
     1
 90
        1
176
     1
 40
0.0
176
     1
 90
        0
176
     1
290
     0
176
     1
290
     1
176
     1
290
     1
176
     1
290
     0
176
     1
290
     0
176
     1
290
     0
176
     1
290
     0
176
     1
290
     0
176
     1
290
     0
176
     1
 90
       50
176
     1
 40
0.0
176
     1
 40
1.0
176
     1
 90
        0
176
     1
 62
    18
420
        0
176
     1
 90
       50
176
     1
 90
        3
176
     1
 62
     5
420
      255
176
     1
290
     0
176
     1
 90
       50
176
     1
 90
       50
176
     1
 90
       50
176
     1
290
     0
176
     1
 90
       50
176
     1
 62
   256
176
     0
 40
1.0
176
     0
 90
        2
176
     1
  1
strokes_ogs.tif
176
     1
290
     0
176
     1
 40
1.0
176
     1
 40
1.0
176
     1
  0
VISUALSTYLE
  5
36
102
{ACAD_REACTORS
330
29
102
}
330
29
100
AcDbVisualStyle
  2
Thicken
 70
    13
177
     3
291
     1
 70
    58
 90
        2
176
     1
 90
        2
176
     1
 90
        0
176
     1
 90
        0
176
     1
 40
0.6
176
     1
 40
30.0
176
     1
 62
     7
420
 16777215
176
     1
 90
        1
176
     1
 90
        4
176
     1
 62
     7
176
     1
 62
   257
176
     1
 90
        1
176
     1
 90
        1
176
     1
 40
1.0
176
     1
 90
       12
176
     1
 62
     7
176
     1
 40
1.0
176
     1
 90
        1
176
     1
 90
        6
176
     1
 90
        2
176
     1
 62
     7
176
     1
 90
        5
176
     1
 90
        0
176
     1
 90
        0
176
     1
290
     0
176
     1
 90
        1
176
     1
 40
0.0
176
     1
 90
        0
176
     1
290
     0
176
     1
290
     1
176
     1
290
     1
176
     1
290
     0
176
     1
290
     0
176
     1
290
     0
176
     1
290
     0
176
     1
290
     0
176
     1
290
     0
176
     1
 90
       50
176
     1
 40
0.0
176
     1
 40
1.0
176
     1
 90
        0
176
     1
 62
    18
420
        0
176
     1
 90
       50
176
     1
 90
        3
176
     1
 62
     5
420
      255
176
     1
290
     0
176
     1
 90
       50
176
     1
 90
       50
176
     1
 90
       50
176
     1
290
     0
176
     1
 90
       50
176
     1
 62
   256
176
     0
 40
1.0
176
     0
 90
        2
176
     1
  1
strokes_ogs.tif
176
     1
290
     0
176
     1
 40
1.0
176
     1
 40
1.0
176
     1
  0
VISUALSTYLE
  5
30
102
{ACAD_REACTORS
330
29
102
}
330
29
100
AcDbVisualStyle
  2
Wireframe
 70
     5
177
     3
291
     0
 70
    58
 90
        0
176
     1
 90
        2
176
     1
 90
        0
176
     1
 90
        0
176
     1
 40
0.6
176
     1
 40
30.0
176
     1
 62
     7
420
 16777215
176
     1
 90
        1
176
     1
 90
        4
176
     1
 62
     7
176
     1
 62
   257
176
     1
 90
        1
176
     1
 90
        1
176
     1
 40
1.0
176
     1
 90
        0
176
     1
 62
   257
176
     1
 40
1.0
176
     1
 90
        1
176
     1
 90
        6
176
     1
 90
        2
176
     1
 62
     7
176
     1
 90
        3
176
     1
 90
        0
176
     1
 90
        0
176
     1
290
     0
176
     1
 90
        1
176
     1
 40
0.0
176
     1
 90
        0
176
     1
290
     0
176
     1
290
     1
176
     1
290
     1
176
     1
290
     0
176
     1
290
     0
176
     1
290
     0
176
     1
290
     0
176
     1
290
     0
176
     1
290
     0
176
     1
 90
       50
176
     1
 40
0.0
176
     1
 40
1.0
176
     1
 90
        0
176
     1
 62
    18
420
        0
176
     1
 90
       50
176
     1
 90
        3
176
     1
 62
     5
420
      255
176
     1
290
     0
176
     1
 90
       50
176
     1
 90
       50
176
     1
 90
       50
176
     1
290
     0
176
     1
 90
       50
176
     1
 62
   256
176
     0
 40
1.0
176
     0
 90
        2
176
     1
  1
strokes_ogs.tif
176
     1
290
     0
176
     1
 40
1.0
176
     1
 40
1.0
176
     1
  0
VISUALSTYLE
  5
3C
102
{ACAD_REACTORS
330
29
102
}
330
29
100
AcDbVisualStyle
  2
X-Ray
 70
    25
177
     3
291
     0
 70
    58
 90
        2
176
     1
 90
        2
176
     1
 90
        1
176
     1
 90
        1
176
     1
 40
0.5
176
     1
 40
30.0
176
     1
 62
     7
420
 16777215
176
     1
 90
        1
176
     1
 90
        0
176
     1
 62
     7
176
     1
 62
   257
176
     1
 90
        1
176
     1
 90
        1
176
     1
 40
1.0
176
     1
 90
        8
176
     1
 62
     7
176
     1
 40
1.0
176
     1
 90
        1
176
     1
 90
        6
176
     1
 90
        2
176
     1
 62
     7
176
     1
 90
        3
176
     1
 90
        0
176
     1
 90
        0
176
     1
290
     0
176
     1
 90
       13
176
     1
 40
0.0
176
     1
 90
        0
176
     1
290
     0
176
     1
290
     1
176
     1
290
     1
176
     1
290
     0
176
     1
290
     0
176
     1
290
     0
176
     1
290
     0
176
     1
290
     0
176
     1
290
     0
176
     1
 90
       50
176
     1
 40
0.0
176
     1
 40
1.0
176
     1
 90
        0
176
     1
 62
    18
420
        0
176
     1
 90
       50
176
     1
 90
        3
176
     1
 62
     5
420
      255
176
     1
290
     0
176
     1
 90
       50
176
     1
 90
       50
176
     1
 90
       50
176
     1
290
     0
176
     1
 90
       50
176
     1
 62
   256
176
     0
 40
1.0
176
     0
 90
        2
176
     1
  1
strokes_ogs.tif
176
     1
290
     0
176
     1
 40
1.0
176
     1
 40
1.0
176
     1
  0
DICTIONARYVAR
  5
81
102
{ACAD_REACTORS
330
7C
102
}
330
7C
100
DictionaryVariables
280
     0
  1
1:1
  0
DICTIONARYVAR
  5
7E
102
{ACAD_REACTORS
330
7C
102
}
330
7C
100
DictionaryVariables
280
     0
  1
STANDARD
  0
DICTIONARYVAR
  5
7D
102
{ACAD_REACTORS
330
7C
102
}
330
7C
100
DictionaryVariables
280
     0
  1
STANDARD
  0
DICTIONARYVAR
  5
7F
102
{ACAD_REACTORS
330
7C
102
}
330
7C
100
DictionaryVariables
280
     0
  1
Imperial24
  0
DICTIONARYVAR
  5
80
102
{ACAD_REACTORS
330
7C
102
}
330
7C
100
DictionaryVariables
280
     0
  1
Imperial24
  0
XRECORD
  5
271
102
{ACAD_REACTORS
330
26D
102
}
330
26D
100
AcDbXrecord
280
     1
  1
BUILDING_ID
  1
Progetto per messa in tavola DXF, DWG
  1
FLOOR_ID
  1
694395
  0
XRECORD
  5
26F
102
{ACAD_REACTORS
330
26D
102
}
330
26D
100
AcDbXrecord
280
     1
  1
-2001160
  1
Apparecchi idraulici
  0
XRECORD
  5
270
102
{ACAD_REACTORS
330
26D
102
}
330
26D
100
AcDbXrecord
280
     1
  1
790271
  1
Body
  1
938184
  1
Handle
  1
939838
  1
Insulation
  0
XRECORD
  5
26E
102
{ACAD_REACTORS
330
26D
102
}
330
26D
100
AcDbXrecord
280
     1
  1
859151
  1
Automatic flow rate regulator valve_Caleffi_121 DN15 : 1/2''
  0
DICTIONARY
  5
1A
330
19
100
AcDbDictionary
280
     1
281
     1
  3
BUMPTILE
360
1C
  3
DIFFUSETILE
360
1B
  3
OPACITYTILE
360
1F
  3
REFLECTIONTILE
360
1E
  3
REFRACTIONTILE
360
20
  3
SPECULARTILE
360
1D
  0
DICTIONARY
  5
12
330
11
100
AcDbDictionary
280
     1
281
     1
  3
BUMPTILE
360
14
  3
DIFFUSETILE
360
13
  3
OPACITYTILE
360
17
  3
REFLECTIONTILE
360
16
  3
REFRACTIONTILE
360
18
  3
SPECULARTILE
360
15
  0
DICTIONARY
  5
22
330
21
100
AcDbDictionary
280
     1
281
     1
  3
BUMPTILE
360
24
  3
DIFFUSETILE
360
23
  3
OPACITYTILE
360
27
  3
REFLECTIONTILE
360
26
  3
REFRACTIONTILE
360
28
  3
SPECULARTILE
360
25
  0
DICTIONARY
  5
274
330
65
100
AcDbDictionary
280
     1
281
     1
  3
ACAD_ROUNDTRIP_2008_TABLESTYLE_CELLSTYLEMAP
360
275
  0
XRECORD
  5
1C
102
{ACAD_REACTORS
330
1A
102
}
330
1A
100
AcDbXrecord
280
     1
270
     1
271
     1
  0
XRECORD
  5
1B
102
{ACAD_REACTORS
330
1A
102
}
330
1A
100
AcDbXrecord
280
     1
270
     1
271
     1
  0
XRECORD
  5
1F
102
{ACAD_REACTORS
330
1A
102
}
330
1A
100
AcDbXrecord
280
     1
270
     1
271
     1
  0
XRECORD
  5
1E
102
{ACAD_REACTORS
330
1A
102
}
330
1A
100
AcDbXrecord
280
     1
270
     1
271
     1
  0
XRECORD
  5
20
102
{ACAD_REACTORS
330
1A
102
}
330
1A
100
AcDbXrecord
280
     1
270
     1
271
     1
  0
XRECORD
  5
1D
102
{ACAD_REACTORS
330
1A
102
}
330
1A
100
AcDbXrecord
280
     1
270
     1
271
     1
  0
XRECORD
  5
14
102
{ACAD_REACTORS
330
12
102
}
330
12
100
AcDbXrecord
280
     1
270
     1
271
     1
  0
XRECORD
  5
13
102
{ACAD_REACTORS
330
12
102
}
330
12
100
AcDbXrecord
280
     1
270
     1
271
     1
  0
XRECORD
  5
17
102
{ACAD_REACTORS
330
12
102
}
330
12
100
AcDbXrecord
280
     1
270
     1
271
     1
  0
XRECORD
  5
16
102
{ACAD_REACTORS
330
12
102
}
330
12
100
AcDbXrecord
280
     1
270
     1
271
     1
  0
XRECORD
  5
18
102
{ACAD_REACTORS
330
12
102
}
330
12
100
AcDbXrecord
280
     1
270
     1
271
     1
  0
XRECORD
  5
15
102
{ACAD_REACTORS
330
12
102
}
330
12
100
AcDbXrecord
280
     1
270
     1
271
     1
  0
XRECORD
  5
24
102
{ACAD_REACTORS
330
22
102
}
330
22
100
AcDbXrecord
280
     1
270
     1
271
     1
  0
XRECORD
  5
23
102
{ACAD_REACTORS
330
22
102
}
330
22
100
AcDbXrecord
280
     1
270
     1
271
     1
  0
XRECORD
  5
27
102
{ACAD_REACTORS
330
22
102
}
330
22
100
AcDbXrecord
280
     1
270
     1
271
     1
  0
XRECORD
  5
26
102
{ACAD_REACTORS
330
22
102
}
330
22
100
AcDbXrecord
280
     1
270
     1
271
     1
  0
XRECORD
  5
28
102
{ACAD_REACTORS
330
22
102
}
330
22
100
AcDbXrecord
280
     1
270
     1
271
     1
  0
XRECORD
  5
25
102
{ACAD_REACTORS
330
22
102
}
330
22
100
AcDbXrecord
280
     1
270
     1
271
     1
  0
CELLSTYLEMAP
  5
275
102
{ACAD_REACTORS
330
274
102
}
330
274
100
AcDbCellStyleMap
 90
        3
300
CELLSTYLE
  1
TABLEFORMAT_BEGIN
 90
        5
170
     1
 91
        0
 92
    32768
 62
   257
 93
        1
300
CONTENTFORMAT
  1
CONTENTFORMAT_BEGIN
 90
        0
 91
        0
 92
      512
 93
        0
300

 40
0.0
140
1.0
 94
        5
 62
     0
340
55
144
0.25
309
CONTENTFORMAT_END
171
     0
 94
        0
309
TABLEFORMAT_END
  1
CELLSTYLE_BEGIN
 90
        1
 91
        1
300
_TITLE
309
CELLSTYLE_END
300
CELLSTYLE
  1
TABLEFORMAT_BEGIN
 90
        5
170
     1
 91
        0
 92
        0
 62
   257
 93
        1
300
CONTENTFORMAT
  1
CONTENTFORMAT_BEGIN
 90
        0
 91
        0
 92
      512
 93
        0
300

 40
0.0
140
1.0
 94
        5
 62
     0
340
55
144
0.18
309
CONTENTFORMAT_END
171
     0
 94
        0
309
TABLEFORMAT_END
  1
CELLSTYLE_BEGIN
 90
        2
 91
        1
300
_HEADER
309
CELLSTYLE_END
300
CELLSTYLE
  1
TABLEFORMAT_BEGIN
 90
        5
170
     1
 91
        0
 92
        0
 62
   257
 93
        1
300
CONTENTFORMAT
  1
CONTENTFORMAT_BEGIN
 90
        0
 91
        0
 92
      512
 93
        0
300

 40
0.0
140
1.0
 94
        2
 62
     0
340
55
144
0.18
309
CONTENTFORMAT_END
171
     0
 94
        0
309
TABLEFORMAT_END
  1
CELLSTYLE_BEGIN
 90
        3
 91
        2
300
_DATA
309
CELLSTYLE_END
  0
ENDSEC
  0
EOF
