  0
SECTION
  2
HEADER
  9
$ACADVER
  1
AC1027
  9
$ACADMAINTVER
 70
    20
  9
$DWGCODEPAGE
  3
ANSI_1252
  9
$REQUIREDVERSIONS
160
                 0
  9
$INSBASE
 10
0.0
 20
0.0
 30
0.0
  9
$EXTMIN
 10
748.1664074331881
 20
1772.247075834247
 30
-0.00000001
  9
$EXTMAX
 10
1104.863156828902
 20
2083.498183850009
 30
0.00000001
  9
$LIMMIN
 10
0.0
 20
0.0
  9
$LIMMAX
 10
12.0
 20
9.0
  9
$ORTHOMODE
 70
     0
  9
$REGENMODE
 70
     1
  9
$FILLMODE
 70
     1
  9
$QTEXTMODE
 70
     0
  9
$MIRRTEXT
 70
     0
  9
$LTSCALE
 40
1.0
  9
$ATTMODE
 70
     1
  9
$TEXTSIZE
 40
0.2
  9
$TRACEWID
 40
0.05
  9
$TEXTSTYLE
  7
Standard
  9
$CLAYER
  8
0
  9
$CELTYPE
  6
ByLayer
  9
$CECOLOR
 62
   256
  9
$CELTSCALE
 40
1.0
  9
$DISPSILH
 70
     0
  9
$DIMSCALE
 40
1.0
  9
$DIMASZ
 40
0.18
  9
$DIMEXO
 40
0.0625
  9
$DIMDLI
 40
0.38
  9
$DIMRND
 40
0.0
  9
$DIMDLE
 40
0.0
  9
$DIMEXE
 40
0.18
  9
$DIMTP
 40
0.0
  9
$DIMTM
 40
0.0
  9
$DIMTXT
 40
0.18
  9
$DIMCEN
 40
0.09
  9
$DIMTSZ
 40
0.0
  9
$DIMTOL
 70
     0
  9
$DIMLIM
 70
     0
  9
$DIMTIH
 70
     1
  9
$DIMTOH
 70
     1
  9
$DIMSE1
 70
     0
  9
$DIMSE2
 70
     0
  9
$DIMTAD
 70
     0
  9
$DIMZIN
 70
     0
  9
$DIMBLK
  1

  9
$DIMASO
 70
     1
  9
$DIMSHO
 70
     1
  9
$DIMPOST
  1

  9
$DIMAPOST
  1

  9
$DIMALT
 70
     0
  9
$DIMALTD
 70
     2
  9
$DIMALTF
 40
25.4
  9
$DIMLFAC
 40
1.0
  9
$DIMTOFL
 70
     0
  9
$DIMTVP
 40
0.0
  9
$DIMTIX
 70
     0
  9
$DIMSOXD
 70
     0
  9
$DIMSAH
 70
     0
  9
$DIMBLK1
  1

  9
$DIMBLK2
  1

  9
$DIMSTYLE
  2
Standard
  9
$DIMCLRD
 70
     0
  9
$DIMCLRE
 70
     0
  9
$DIMCLRT
 70
     0
  9
$DIMTFAC
 40
1.0
  9
$DIMGAP
 40
0.09
  9
$DIMJUST
 70
     0
  9
$DIMSD1
 70
     0
  9
$DIMSD2
 70
     0
  9
$DIMTOLJ
 70
     1
  9
$DIMTZIN
 70
     0
  9
$DIMALTZ
 70
     0
  9
$DIMALTTZ
 70
     0
  9
$DIMUPT
 70
     0
  9
$DIMDEC
 70
     4
  9
$DIMTDEC
 70
     4
  9
$DIMALTU
 70
     2
  9
$DIMALTTD
 70
     2
  9
$DIMTXSTY
  7
Standard
  9
$DIMAUNIT
 70
     0
  9
$DIMADEC
 70
     0
  9
$DIMALTRND
 40
0.0
  9
$DIMAZIN
 70
     0
  9
$DIMDSEP
 70
    46
  9
$DIMATFIT
 70
     3
  9
$DIMFRAC
 70
     0
  9
$DIMLDRBLK
  1

  9
$DIMLUNIT
 70
     2
  9
$DIMLWD
 70
    -2
  9
$DIMLWE
 70
    -2
  9
$DIMTMOVE
 70
     0
  9
$DIMFXL
 40
1.0
  9
$DIMFXLON
 70
     0
  9
$DIMJOGANG
 40
0.7853981633974483
  9
$DIMTFILL
 70
     0
  9
$DIMTFILLCLR
 70
     0
  9
$DIMARCSYM
 70
     0
  9
$DIMLTYPE
  6

  9
$DIMLTEX1
  6

  9
$DIMLTEX2
  6

  9
$DIMTXTDIRECTION
 70
     0
  9
$LUNITS
 70
     2
  9
$LUPREC
 70
     4
  9
$SKETCHINC
 40
0.1
  9
$FILLETRAD
 40
0.0
  9
$AUNITS
 70
     0
  9
$AUPREC
 70
     0
  9
$MENU
  1
.
  9
$ELEVATION
 40
0.0
  9
$PELEVATION
 40
0.0
  9
$THICKNESS
 40
0.0
  9
$LIMCHECK
 70
     0
  9
$CHAMFERA
 40
0.0
  9
$CHAMFERB
 40
0.0
  9
$CHAMFERC
 40
0.0
  9
$CHAMFERD
 40
0.0
  9
$SKPOLY
 70
     0
  9
$TDCREATE
 40
2457569.587399619
  9
$TDUCREATE
 40
2457569.504066285
  9
$TDUPDATE
 40
2457569.587399619
  9
$TDUUPDATE
 40
2457569.504066285
  9
$TDINDWG
 40
0.0000126736
  9
$TDUSRTIMER
 40
0.0000126736
  9
$USRTIMER
 70
     1
  9
$ANGBASE
 50
0.0
  9
$ANGDIR
 70
     0
  9
$PDMODE
 70
     0
  9
$PDSIZE
 40
0.0
  9
$PLINEWID
 40
0.0
  9
$SPLFRAME
 70
     0
  9
$SPLINETYPE
 70
     6
  9
$SPLINESEGS
 70
     8
  9
$HANDSEED
  5
287
  9
$SURFTAB1
 70
     6
  9
$SURFTAB2
 70
     6
  9
$SURFTYPE
 70
     6
  9
$SURFU
 70
     6
  9
$SURFV
 70
     6
  9
$UCSBASE
  2

  9
$UCSNAME
  2

  9
$UCSORG
 10
0.0
 20
0.0
 30
0.0
  9
$UCSXDIR
 10
1.0
 20
0.0
 30
0.0
  9
$UCSYDIR
 10
0.0
 20
1.0
 30
0.0
  9
$UCSORTHOREF
  2

  9
$UCSORTHOVIEW
 70
     0
  9
$UCSORGTOP
 10
0.0
 20
0.0
 30
0.0
  9
$UCSORGBOTTOM
 10
0.0
 20
0.0
 30
0.0
  9
$UCSORGLEFT
 10
0.0
 20
0.0
 30
0.0
  9
$UCSORGRIGHT
 10
0.0
 20
0.0
 30
0.0
  9
$UCSORGFRONT
 10
0.0
 20
0.0
 30
0.0
  9
$UCSORGBACK
 10
0.0
 20
0.0
 30
0.0
  9
$PUCSBASE
  2

  9
$PUCSNAME
  2

  9
$PUCSORG
 10
0.0
 20
0.0
 30
0.0
  9
$PUCSXDIR
 10
1.0
 20
0.0
 30
0.0
  9
$PUCSYDIR
 10
0.0
 20
1.0
 30
0.0
  9
$PUCSORTHOREF
  2

  9
$PUCSORTHOVIEW
 70
     0
  9
$PUCSORGTOP
 10
0.0
 20
0.0
 30
0.0
  9
$PUCSORGBOTTOM
 10
0.0
 20
0.0
 30
0.0
  9
$PUCSORGLEFT
 10
0.0
 20
0.0
 30
0.0
  9
$PUCSORGRIGHT
 10
0.0
 20
0.0
 30
0.0
  9
$PUCSORGFRONT
 10
0.0
 20
0.0
 30
0.0
  9
$PUCSORGBACK
 10
0.0
 20
0.0
 30
0.0
  9
$USERI1
 70
     0
  9
$USERI2
 70
     0
  9
$USERI3
 70
     0
  9
$USERI4
 70
     0
  9
$USERI5
 70
     0
  9
$USERR1
 40
0.0
  9
$USERR2
 40
0.0
  9
$USERR3
 40
0.0
  9
$USERR4
 40
0.0
  9
$USERR5
 40
0.0
  9
$WORLDVIEW
 70
     1
  9
$SHADEDGE
 70
     3
  9
$SHADEDIF
 70
    70
  9
$TILEMODE
 70
     1
  9
$MAXACTVP
 70
    64
  9
$PINSBASE
 10
0.0
 20
0.0
 30
0.0
  9
$PLIMCHECK
 70
     0
  9
$PEXTMIN
 10
1.000000000000000E+20
 20
1.000000000000000E+20
 30
1.000000000000000E+20
  9
$PEXTMAX
 10
-1.000000000000000E+20
 20
-1.000000000000000E+20
 30
-1.000000000000000E+20
  9
$PLIMMIN
 10
0.0
 20
0.0
  9
$PLIMMAX
 10
12.0
 20
9.0
  9
$UNITMODE
 70
     0
  9
$VISRETAIN
 70
     1
  9
$PLINEGEN
 70
     0
  9
$PSLTSCALE
 70
     1
  9
$TREEDEPTH
 70
  3020
  9
$CMLSTYLE
  2
Standard
  9
$CMLJUST
 70
     0
  9
$CMLSCALE
 40
1.0
  9
$PROXYGRAPHICS
 70
     1
  9
$MEASUREMENT
 70
     1
  9
$CELWEIGHT
370
    -1
  9
$ENDCAPS
280
     0
  9
$JOINSTYLE
280
     0
  9
$LWDISPLAY
290
     0
  9
$INSUNITS
 70
     4
  9
$HYPERLINKBASE
  1

  9
$STYLESHEET
  1

  9
$XEDIT
290
     1
  9
$CEPSNTYPE
380
     0
  9
$PSTYLEMODE
290
     1
  9
$FINGERPRINTGUID
  2
{00436460-C3A0-4631-B456-628372390C2D}
  9
$VERSIONGUID
  2
{AB3B8594-1BC9-4AA0-BA38-ABC76C28BE13}
  9
$EXTNAMES
290
     1
  9
$PSVPSCALE
 40
0.0
  9
$OLESTARTUP
290
     0
  9
$SORTENTS
280
   127
  9
$INDEXCTL
280
     0
  9
$HIDETEXT
280
     1
  9
$XCLIPFRAME
280
     2
  9
$HALOGAP
280
     0
  9
$OBSCOLOR
 70
   257
  9
$OBSLTYPE
280
     0
  9
$INTERSECTIONDISPLAY
280
     0
  9
$INTERSECTIONCOLOR
 70
   257
  9
$DIMASSOC
280
     2
  9
$PROJECTNAME
  1

  9
$CAMERADISPLAY
290
     0
  9
$LENSLENGTH
 40
50.0
  9
$CAMERAHEIGHT
 40
0.0
  9
$STEPSPERSEC
 40
2.0
  9
$STEPSIZE
 40
6.0
  9
$3DDWFPREC
 40
2.0
  9
$PSOLWIDTH
 40
0.25
  9
$PSOLHEIGHT
 40
4.0
  9
$LOFTANG1
 40
1.570796326794896
  9
$LOFTANG2
 40
1.570796326794896
  9
$LOFTMAG1
 40
0.0
  9
$LOFTMAG2
 40
0.0
  9
$LOFTPARAM
 70
     7
  9
$LOFTNORMALS
280
     1
  9
$LATITUDE
 40
37.795
  9
$LONGITUDE
 40
-122.394
  9
$NORTHDIRECTION
 40
0.0
  9
$TIMEZONE
 70
 -8000
  9
$LIGHTGLYPHDISPLAY
280
     1
  9
$TILEMODELIGHTSYNCH
280
     1
  9
$CMATERIAL
347
11
  9
$SOLIDHIST
280
     0
  9
$SHOWHIST
280
     1
  9
$DWFFRAME
280
     2
  9
$DGNFRAME
280
     0
  9
$REALWORLDSCALE
290
     1
  9
$INTERFERECOLOR
 62
     1
  9
$INTERFEREOBJVS
345
33
  9
$INTERFEREVPVS
346
30
  9
$CSHADOW
280
     0
  9
$SHADOWPLANELOCATION
 40
0.0
  0
ENDSEC
  0
SECTION
  2
CLASSES
  0
CLASS
  1
ACDBDICTIONARYWDFLT
  2
AcDbDictionaryWithDefault
  3
ObjectDBX Classes
 90
        0
 91
        1
280
     0
281
     0
  0
CLASS
  1
MATERIAL
  2
AcDbMaterial
  3
ObjectDBX Classes
 90
     1153
 91
        3
280
     0
281
     0
  0
CLASS
  1
VISUALSTYLE
  2
AcDbVisualStyle
  3
ObjectDBX Classes
 90
     4095
 91
       24
280
     0
281
     0
  0
CLASS
  1
SCALE
  2
AcDbScale
  3
ObjectDBX Classes
 90
     1153
 91
       17
280
     0
281
     0
  0
CLASS
  1
TABLESTYLE
  2
AcDbTableStyle
  3
ObjectDBX Classes
 90
     4095
 91
        1
280
     0
281
     0
  0
CLASS
  1
MLEADERSTYLE
  2
AcDbMLeaderStyle
  3
ACDB_MLEADERSTYLE_CLASS
 90
     4095
 91
        1
280
     0
281
     0
  0
CLASS
  1
ACDBSECTIONVIEWSTYLE
  2
AcDbSectionViewStyle
  3
ObjectDBX Classes
 90
     1025
 91
        1
280
     0
281
     0
  0
CLASS
  1
ACDBDETAILVIEWSTYLE
  2
AcDbDetailViewStyle
  3
ObjectDBX Classes
 90
     1025
 91
        1
280
     0
281
     0
  0
CLASS
  1
RASTERVARIABLES
  2
AcDbRasterVariables
  3
ISM
 90
        0
 91
        1
280
     0
281
     0
  0
CLASS
  1
DICTIONARYVAR
  2
AcDbDictionaryVar
  3
ObjectDBX Classes
 90
        0
 91
        5
280
     0
281
     0
  0
CLASS
  1
CELLSTYLEMAP
  2
AcDbCellStyleMap
  3
ObjectDBX Classes
 90
     1152
 91
        2
280
     0
281
     0
  0
CLASS
  1
SORTENTSTABLE
  2
AcDbSortentsTable
  3
ObjectDBX Classes
 90
        0
 91
        1
280
     0
281
     0
  0
ENDSEC
  0
SECTION
  2
TABLES
  0
TABLE
  2
VPORT
  5
8
330
0
100
AcDbSymbolTable
 70
     1
  0
VPORT
  5
57
330
8
100
AcDbSymbolTableRecord
100
AcDbViewportTableRecord
  2
*Active
 70
     0
 10
0.0
 20
0.0
 11
1.0
 21
1.0
 12
926.5147821310451
 22
1927.872629842128
 13
0.0
 23
0.0
 14
1.0
 24
1.0
 15
0.0
 25
0.0
 16
0.0
 26
0.0
 36
1.0
 17
0.0
 27
0.0
 37
0.0
 40
311.2511080157613
 41
1.146009573008977
 42
50.0
 43
0.0
 44
0.0
 50
0.0
 51
0.0
 71
     0
 72
  1000
 73
     1
 74
     1
 75
     0
 76
     0
 77
     0
 78
     0
281
     0
 65
     1
110
0.0
120
0.0
130
0.0
111
1.0
121
0.0
131
0.0
112
0.0
122
1.0
132
0.0
 79
     0
146
0.0
 60
     3
 61
     5
292
     1
282
     1
141
0.0
142
0.0
 63
   250
421
  3355443
  0
ENDTAB
  0
TABLE
  2
LTYPE
  5
5
330
0
100
AcDbSymbolTable
 70
     3
  0
LTYPE
  5
5B
330
5
100
AcDbSymbolTableRecord
100
AcDbLinetypeTableRecord
  2
ByBlock
 70
     0
  3

 72
    65
 73
     0
 40
0.0
  0
LTYPE
  5
5C
330
5
100
AcDbSymbolTableRecord
100
AcDbLinetypeTableRecord
  2
ByLayer
 70
     0
  3

 72
    65
 73
     0
 40
0.0
  0
LTYPE
  5
5D
330
5
100
AcDbSymbolTableRecord
100
AcDbLinetypeTableRecord
  2
Continuous
 70
     0
  3
Solid line
 72
    65
 73
     0
 40
0.0
  0
LTYPE
  5
69
330
5
100
AcDbSymbolTableRecord
100
AcDbLinetypeTableRecord
  2
PHANTOM2
 70
     0
  3
___ _ _ ___ _ _ ___ _ _ ___ _ _
 72
    65
 73
     6
 40
1.25
 49
0.625
 74
     0
 49
-0.125
 74
     0
 49
0.125
 74
     0
 49
-0.125
 74
     0
 49
0.125
 74
     0
 49
-0.125
 74
     0
  0
LTYPE
  5
86
330
5
100
AcDbSymbolTableRecord
100
AcDbLinetypeTableRecord
  2
Nascosto 1_5 mm
 70
     0
  3

 72
    65
 73
     2
 40
2.2
 49
1.5
 74
     0
 49
-0.7000000000000001
 74
     0
  0
ENDTAB
  0
TABLE
  2
LAYER
  5
2
330
0
100
AcDbSymbolTable
 70
     4
  0
LAYER
  5
54
330
2
100
AcDbSymbolTableRecord
100
AcDbLayerTableRecord
  2
0
 70
     0
 62
     7
  6
Continuous
370
    -3
390
F
347
21
348
0
  0
LAYER
  5
85
330
2
100
AcDbSymbolTableRecord
100
AcDbLayerTableRecord
  2
P-SANR-FIXT
 70
     0
 62
     6
  6
Continuous
370
    18
390
F
347
21
348
0
  0
LAYER
  5
88
330
2
100
AcDbSymbolTableRecord
100
AcDbLayerTableRecord
  2
M-PIPE
 70
     0
 62
     3
  6
Continuous
370
    18
390
F
347
21
348
0
  0
ENDTAB
  0
TABLE
  2
STYLE
  5
3
330
0
100
AcDbSymbolTable
 70
     2
  0
STYLE
  5
55
330
3
100
AcDbSymbolTableRecord
100
AcDbTextStyleTableRecord
  2
Standard
 70
     0
 40
0.0
 41
1.0
 50
0.0
 71
     0
 42
0.2
  3
txt
  4

  0
STYLE
  5
5A
330
3
100
AcDbSymbolTableRecord
100
AcDbTextStyleTableRecord
  2
Annotative
 70
     0
 40
0.0
 41
1.0
 50
0.0
 71
     0
 42
0.2
  3
txt
  4

1001
AcadAnnotative
1000
AnnotativeData
1002
{
1070
     1
1070
     1
1002
}
  0
ENDTAB
  0
TABLE
  2
VIEW
  5
6
330
0
100
AcDbSymbolTable
 70
     0
  0
ENDTAB
  0
TABLE
  2
UCS
  5
7
330
0
100
AcDbSymbolTable
 70
     0
  0
ENDTAB
  0
TABLE
  2
APPID
  5
9
330
0
100
AcDbSymbolTable
 70
     3
  0
APPID
  5
56
330
9
100
AcDbSymbolTableRecord
100
AcDbRegAppTableRecord
  2
ACAD
 70
     0
  0
APPID
  5
5E
330
9
100
AcDbSymbolTableRecord
100
AcDbRegAppTableRecord
  2
AcadAnnotative
 70
     0
  0
APPID
  5
79
330
9
100
AcDbSymbolTableRecord
100
AcDbRegAppTableRecord
  2
REVIT
 70
     0
  0
ENDTAB
  0
TABLE
  2
DIMSTYLE
  5
A
330
0
100
AcDbSymbolTable
 70
     2
100
AcDbDimStyleTable
 71
     0
  0
DIMSTYLE
105
58
330
A
100
AcDbSymbolTableRecord
100
AcDbDimStyleTableRecord
  2
Standard
 70
     0
340
55
  0
DIMSTYLE
105
59
330
A
100
AcDbSymbolTableRecord
100
AcDbDimStyleTableRecord
  2
Annotative
 70
     0
340
55
1001
AcadAnnotative
1000
AnnotativeData
1002
{
1070
     1
1070
     1
1002
}
  0
ENDTAB
  0
TABLE
  2
BLOCK_RECORD
  5
1
330
0
100
AcDbSymbolTable
 70
     4
  0
BLOCK_RECORD
  5
71
102
{ACAD_XDICTIONARY
360
282
102
}
330
1
100
AcDbSymbolTableRecord
100
AcDbBlockTableRecord
  2
*Model_Space
340
74
 70
     0
280
     1
281
     0
  0
BLOCK_RECORD
  5
6D
330
1
100
AcDbSymbolTableRecord
100
AcDbBlockTableRecord
  2
*Paper_Space
340
70
 70
     0
280
     1
281
     0
  0
BLOCK_RECORD
  5
75
330
1
100
AcDbSymbolTableRecord
100
AcDbBlockTableRecord
  2
*Paper_Space0
340
78
 70
     0
280
     1
281
     0
  0
BLOCK_RECORD
  5
87
330
1
100
AcDbSymbolTableRecord
100
AcDbBlockTableRecord
  2
Automatic flow rate regulator valve_Caleffi_121 DN15 - 1_2__-859151-Est - Idraulica
340
0
102
{BLKREFS
331
1A4
102
}
 70
     0
280
     1
281
     0
  0
BLOCK_RECORD
  5
1A5
330
1
100
AcDbSymbolTableRecord
100
AcDbBlockTableRecord
  2
Automatic flow rate regulator valve_Caleffi_121 DN15 - 1_2__-V1-Est - Idraulica
340
0
102
{BLKREFS
331
1EF
102
}
 70
     0
280
     1
281
     0
  0
BLOCK_RECORD
  5
1F0
330
1
100
AcDbSymbolTableRecord
100
AcDbBlockTableRecord
  2
Automatic flow rate regulator valve_Caleffi_121 DN15 - 1_2__-V2-Est - Idraulica
340
0
102
{BLKREFS
331
27B
102
}
 70
     0
280
     1
281
     0
  0
ENDTAB
  0
ENDSEC
  0
SECTION
  2
BLOCKS
  0
BLOCK
  5
72
330
71
100
AcDbEntity
  8
0
100
AcDbBlockBegin
  2
*Model_Space
 70
     0
 10
0.0
 20
0.0
 30
0.0
  3
*Model_Space
  1

  0
ENDBLK
  5
73
330
71
100
AcDbEntity
  8
0
100
AcDbBlockEnd
  0
BLOCK
  5
6E
330
6D
100
AcDbEntity
 67
     1
  8
0
100
AcDbBlockBegin
  2
*Paper_Space
 70
     0
 10
0.0
 20
0.0
 30
0.0
  3
*Paper_Space
  1

  0
ENDBLK
  5
6F
330
6D
100
AcDbEntity
 67
     1
  8
0
100
AcDbBlockEnd
  0
BLOCK
  5
76
330
75
100
AcDbEntity
 67
     1
  8
0
100
AcDbBlockBegin
  2
*Paper_Space0
 70
     0
 10
0.0
 20
0.0
 30
0.0
  3
*Paper_Space0
  1

  0
ENDBLK
  5
77
330
75
100
AcDbEntity
 67
     1
  8
0
100
AcDbBlockEnd
  0
BLOCK
  5
1A2
330
87
100
AcDbEntity
  8
0
100
AcDbBlockBegin
  2
Automatic flow rate regulator valve_Caleffi_121 DN15 - 1_2__-859151-Est - Idraulica
 70
     0
 10
0.0
 20
0.0
 30
0.0
  3
Automatic flow rate regulator valve_Caleffi_121 DN15 - 1_2__-859151-Est - Idraulica
  1

  0
LWPOLYLINE
  5
89
330
87
100
AcDbEntity
  8
M-PIPE
100
AcDbPolyline
 90
       41
 70
   128
 43
0.0
 10
883.1664074431889
 20
1928.937499999998
 10
883.1624079764939
 20
1928.737553329065
 10
883.1504159747019
 20
1928.537926530152
 10
883.1304506224583
 20
1928.338938963553
 10
883.102543860067
 20
1928.140908966927
 10
883.0667403323953
 20
1927.944153346022
 10
883.0230973174492
 20
1927.748986867862
 10
882.9716846347428
 20
1927.555721757178
 10
882.9125845336012
 20
1927.364667196917
 10
882.8458915615787
 20
1927.176128833622
 10
882.7717124132034
 20
1926.990408288455
 10
882.6901657592886
 20
1926.807802674668
 10
882.6013820570853
 20
1926.628604122291
 10
882.5055033415774
 20
1926.453099310779
 10
882.4026829982559
 20
1926.281569010394
 10
882.2930855177375
 20
1926.114287633023
 10
882.1768862326106
 20
1925.951522793186
 10
882.0542710369435
 20
1925.793534879906
 10
881.9254360888933
 20
1925.640576640141
 10
881.7905874968936
 20
1925.492892774445
 10
881.6499409899247
 20
1925.3507195455
 10
881.5037215723956
 20
1925.214284400144
 10
881.3521631641819
 20
1925.083805605503
 10
881.1955082264063
 20
1924.959491899816
 10
881.0340073735513
 20
1924.841542158493
 10
880.8679189725298
 20
1924.730145075958
 10
880.6975087293528
 20
1924.625478863781
 10
880.5230492640577
 20
1924.527710965573
 10
880.3448196745724
 20
1924.436997789116
 10
880.1631050902203
 20
1924.353484456139
 10
879.9781962155725
 20
1924.277304570162
 10
879.7903888653829
 20
1924.20858000275
 10
879.5999834913487
 20
1924.147420698552
 10
879.4072847014508
 20
1924.093924499407
 10
879.2126007726462
 20
1924.048176987821
 10
879.01624315769
 20
1924.010251350056
 10
878.8185259868798
 20
1923.980208259039
 10
878.6197655655104
 20
1923.95809577731
 10
878.4202798678569
 20
1923.94394928012
 10
878.2203880284804
 20
1923.937791398848
 10
878.1664074431891
 20
1923.937499999998
1001
REVIT
1002
{
1070
     3
1000
939838
1002
}
  0
LWPOLYLINE
  5
8A
330
87
100
AcDbEntity
  8
M-PIPE
100
AcDbPolyline
 90
       41
 70
   128
 43
0.0
 10
878.1664074431891
 20
2017.937499999998
 10
878.3663541141223
 20
2017.933500533303
 10
878.5659809130347
 20
2017.921508531511
 10
878.7649684796335
 20
2017.901543179267
 10
878.9629984762601
 20
2017.873636416877
 10
879.1597540971643
 20
2017.837832889204
 10
879.3549205753247
 20
2017.794189874258
 10
879.5481856860096
 20
2017.742777191552
 10
879.7392402462696
 20
2017.68367709041
 10
879.9277786095643
 20
2017.616984118388
 10
880.1134991547323
 20
2017.542804970013
 10
880.296104768519
 20
2017.461258316098
 10
880.4753033208964
 20
2017.372474613895
 10
880.6508081324077
 20
2017.276595898386
 10
880.8223384327932
 20
2017.173775555065
 10
880.9896198101641
 20
2017.064178074547
 10
881.1523846500008
 20
2016.94797878942
 10
881.3103725632812
 20
2016.825363593753
 10
881.4633308030463
 20
2016.696528645703
 10
881.6110146687417
 20
2016.561680053703
 10
881.7531878976865
 20
2016.421033546734
 10
881.8896230430432
 20
2016.274814129205
 10
882.0201018376838
 20
2016.123255720991
 10
882.1444155433708
 20
2015.966600783215
 10
882.2623652846941
 20
2015.805099930361
 10
882.3737623672284
 20
2015.639011529339
 10
882.4784285794057
 20
2015.468601286162
 10
882.5761964776138
 20
2015.294141820867
 10
882.6669096540713
 20
2015.115912231382
 10
882.7504229870479
 20
2014.93419764703
 10
882.8266028730253
 20
2014.749288772382
 10
882.8953274404366
 20
2014.561481422192
 10
882.956486744635
 20
2014.371076048158
 10
883.0099829437804
 20
2014.17837725826
 10
883.0557304553657
 20
2013.983693329455
 10
883.0936560931313
 20
2013.787335714499
 10
883.1236991841475
 20
2013.589618543689
 10
883.1458116658771
 20
2013.39085812232
 10
883.1599581630669
 20
2013.191372424666
 10
883.1661160443388
 20
2012.99148058529
 10
883.1664074431889
 20
2012.937499999998
1001
REVIT
1002
{
1070
     3
1000
939838
1002
}
  0
LWPOLYLINE
  5
8B
330
87
100
AcDbEntity
  8
M-PIPE
100
AcDbPolyline
 90
       41
 70
   128
 43
0.0
 10
753.1664074431894
 20
1923.937499999998
 10
752.9664607722562
 20
1923.941499466693
 10
752.7668339733436
 20
1923.953491468485
 10
752.5678464067446
 20
1923.973456820728
 10
752.3698164101181
 20
1924.00136358312
 10
752.173060789214
 20
1924.037167110792
 10
751.9778943110537
 20
1924.080810125738
 10
751.7846292003688
 20
1924.132222808444
 10
751.5935746401088
 20
1924.191322909585
 10
751.405036276814
 20
1924.258015881608
 10
751.2193157316462
 20
1924.332195029984
 10
751.0367101178593
 20
1924.413741683898
 10
750.857511565482
 20
1924.502525386102
 10
750.6820067539707
 20
1924.59840410161
 10
750.510476453585
 20
1924.701224444931
 10
750.3431950762143
 20
1924.81082192545
 10
750.1804302363775
 20
1924.927021210576
 10
750.0224423230971
 20
1925.049636406243
 10
749.8694840833321
 20
1925.178471354293
 10
749.7218002176366
 20
1925.313319946294
 10
749.5796269886918
 20
1925.453966453262
 10
749.4431918433349
 20
1925.600185870791
 10
749.3127130486945
 20
1925.751744279005
 10
749.1883993430075
 20
1925.90839921678
 10
749.0704496016843
 20
1926.069900069636
 10
748.9590525191499
 20
1926.235988470658
 10
748.8543863069727
 20
1926.406398713834
 10
748.7566184087645
 20
1926.580858179129
 10
748.6659052323067
 20
1926.759087768614
 10
748.5823918993305
 20
1926.940802352967
 10
748.5062120133532
 20
1927.125711227615
 10
748.4374874459417
 20
1927.313518577804
 10
748.3763281417432
 20
1927.503923951838
 10
748.3228319425981
 20
1927.696622741736
 10
748.2770844310127
 20
1927.891306670541
 10
748.2391587932471
 20
1928.087664285497
 10
748.2091157022311
 20
1928.285381456307
 10
748.1870032205011
 20
1928.484141877676
 10
748.1728567233115
 20
1928.68362757533
 10
748.1666988420397
 20
1928.883519414707
 10
748.1664074431895
 20
1928.937499999998
1001
REVIT
1002
{
1070
     3
1000
939838
1002
}
  0
LWPOLYLINE
  5
8C
330
87
100
AcDbEntity
  8
M-PIPE
100
AcDbPolyline
 90
       41
 70
   128
 43
0.0
 10
748.1664074431895
 20
2012.937499999998
 10
748.1704069098846
 20
2013.137446670931
 10
748.1823989116763
 20
2013.337073469844
 10
748.2023642639201
 20
2013.536061036443
 10
748.2302710263112
 20
2013.73409103307
 10
748.2660745539832
 20
2013.930846653973
 10
748.3097175689293
 20
2014.126013132134
 10
748.3611302516355
 20
2014.319278242819
 10
748.4202303527771
 20
2014.510332803078
 10
748.4869233247997
 20
2014.698871166374
 10
748.5611024731751
 20
2014.884591711542
 10
748.6426491270896
 20
2015.067197325328
 10
748.7314328292929
 20
2015.246395877706
 10
748.8273115448012
 20
2015.421900689217
 10
748.9301318881224
 20
2015.593430989603
 10
749.039729368641
 20
2015.760712366974
 10
749.155928653768
 20
2015.92347720681
 10
749.2785438494347
 20
2016.081465120091
 10
749.407378797485
 20
2016.234423359856
 10
749.542227389485
 20
2016.382107225551
 10
749.6828738964535
 20
2016.524280454496
 10
749.829093313983
 20
2016.660715599853
 10
749.9806517221965
 20
2016.791194394493
 10
750.137306659972
 20
2016.91550810018
 10
750.2988075128272
 20
2017.033457841503
 10
750.4648959138487
 20
2017.144854924038
 10
750.6353061570256
 20
2017.249521136215
 10
750.8097656223206
 20
2017.347289034423
 10
750.9879952118059
 20
2017.438002210881
 10
751.169709796158
 20
2017.521515543857
 10
751.3546186708061
 20
2017.597695429834
 10
751.5424260209957
 20
2017.666419997246
 10
751.7328313950297
 20
2017.727579301444
 10
751.9255301849275
 20
2017.78107550059
 10
752.1202141137323
 20
2017.826823012175
 10
752.3165717286883
 20
2017.864748649941
 10
752.5142888994986
 20
2017.894791740957
 10
752.7130493208678
 20
2017.916904222686
 10
752.9125350185215
 20
2017.931050719876
 10
753.1124268578982
 20
2017.937208601148
 10
753.1664074431894
 20
2017.937499999998
1001
REVIT
1002
{
1070
     3
1000
939838
1002
}
  0
LINE
  5
8D
330
87
100
AcDbEntity
  8
M-PIPE
100
AcDbLine
 10
748.1664074431876
 20
1946.937499999998
 30
0.0
 11
748.1664074431876
 21
1994.937499999997
 31
0.0
1001
REVIT
1002
{
1070
     3
1000
939838
1002
}
  0
LINE
  5
8E
330
87
100
AcDbEntity
  8
M-PIPE
100
AcDbLine
 10
748.1664074431876
 20
1994.937499999997
 30
0.0
 11
748.1664074431876
 21
2012.937499999997
 31
0.0
1001
REVIT
1002
{
1070
     3
1000
939838
1002
}
  0
LINE
  5
8F
330
87
100
AcDbEntity
  8
M-PIPE
100
AcDbLine
 10
748.1664074431876
 20
1928.937499999997
 30
0.0
 11
748.1664074431876
 21
1946.937499999998
 31
0.0
1001
REVIT
1002
{
1070
     3
1000
939838
1002
}
  0
LINE
  5
90
330
87
100
AcDbEntity
  8
M-PIPE
100
AcDbLine
 10
883.1664074431875
 20
1994.937499999997
 30
0.0
 11
883.1664074431875
 21
1946.937499999998
 31
0.0
1001
REVIT
1002
{
1070
     3
1000
939838
1002
}
  0
LINE
  5
91
330
87
100
AcDbEntity
  8
M-PIPE
100
AcDbLine
 10
883.1664074431875
 20
1946.937499999998
 30
0.0
 11
883.1664074431875
 21
1928.937499999997
 31
0.0
1001
REVIT
1002
{
1070
     3
1000
939838
1002
}
  0
LINE
  5
92
330
87
100
AcDbEntity
  8
M-PIPE
100
AcDbLine
 10
883.1664074431875
 20
2012.937499999997
 30
0.0
 11
883.1664074431875
 21
1994.937499999997
 31
0.0
1001
REVIT
1002
{
1070
     3
1000
939838
1002
}
  0
LINE
  5
93
330
87
100
AcDbEntity
  8
M-PIPE
100
AcDbLine
 10
878.1664074431876
 20
1923.937499999997
 30
0.0
 11
753.1664074431882
 21
1923.937499999997
 31
0.0
1001
REVIT
1002
{
1070
     3
1000
939838
1002
}
  0
SPLINE
  5
94
330
87
100
AcDbEntity
  8
M-PIPE
100
AcDbSpline
210
0.0
220
0.0
230
1.0
 70
     8
 71
     3
 72
    17
 73
    13
 74
     0
 42
0.000000001
 43
0.0000000001
 40
0.0
 40
0.0
 40
0.0
 40
0.0
 40
0.125
 40
0.1875
 40
0.25
 40
0.3125
 40
0.375
 40
0.4375
 40
0.5
 40
0.53125
 40
0.5625
 40
0.6051136678528192
 40
0.6051136678528192
 40
0.6051136678528192
 40
0.6051136678528192
 10
773.4664074431878
 20
2017.937499999997
 30
0.0
 10
773.5081920122968
 20
2017.937499999997
 30
0.0
 10
773.7260689325266
 20
2017.839983767662
 30
0.0
 10
774.3313161875346
 20
2017.544262119542
 30
0.0
 10
774.9339348530031
 20
2017.247491813453
 30
0.0
 10
775.7199932352383
 20
2016.880677276897
 30
0.0
 10
776.6824193433487
 20
2016.450049973971
 30
0.0
 10
777.7736563629495
 20
2015.966620419931
 30
0.0
 10
778.7493375855733
 20
2015.530666995666
 30
0.0
 10
779.5686472663373
 20
2015.167744246656
 30
0.0
 10
780.2974963828131
 20
2014.854226547129
 30
0.0
 10
780.8346036585981
 20
2014.628251270451
 30
0.0
 10
781.1515829972092
 20
2014.496393309302
 30
0.0
1001
REVIT
1002
{
1070
     3
1000
939838
1002
}
  0
SPLINE
  5
95
330
87
100
AcDbEntity
  8
M-PIPE
100
AcDbSpline
210
0.0
220
0.0
230
1.0
 70
     8
 71
     3
 72
     8
 73
     4
 74
     0
 42
0.000000001
 43
0.0000000001
 40
0.7685013215349378
 40
0.7685013215349378
 40
0.7685013215349378
 40
0.7685013215349378
 40
0.921028099196854
 40
0.921028099196854
 40
0.921028099196854
 40
0.921028099196854
 10
785.0253791730501
 20
2012.93629137892
 30
0.0
 10
786.2873279816264
 20
2012.44402824128
 30
0.0
 10
787.6465433704508
 20
2011.96224323487
 30
0.0
 10
789.0249799149187
 20
2011.482414494938
 30
0.0
1001
REVIT
1002
{
1070
     3
1000
939838
1002
}
  0
SPLINE
  5
96
330
87
100
AcDbEntity
  8
M-PIPE
100
AcDbSpline
210
0.0
220
0.0
230
1.0
 70
     8
 71
     3
 72
     8
 73
     4
 74
     0
 42
0.000000001
 43
0.0000000001
 40
0.9240891297052399
 40
0.9240891297052399
 40
0.9240891297052399
 40
0.9240891297052399
 40
1.0
 40
1.0
 40
1.0
 40
1.0
 10
789.063458384071
 20
2011.442209669096
 30
0.0
 10
789.7502184728056
 20
2011.203532967115
 30
0.0
 10
790.4523034469041
 20
2010.968081833101
 30
0.0
 10
791.1706935323832
 20
2010.737499999997
 30
0.0
1001
REVIT
1002
{
1070
     3
1000
939838
1002
}
  0
SPLINE
  5
97
330
87
100
AcDbEntity
  8
M-PIPE
100
AcDbSpline
210
0.0
220
0.0
230
1.0
 70
     8
 71
     3
 72
     8
 73
     4
 74
     0
 42
0.000000001
 43
0.0000000001
 40
0.0
 40
0.0
 40
0.0
 40
0.0
 40
0.0759108702947524
 40
0.0759108702947524
 40
0.0759108702947524
 40
0.0759108702947524
 10
840.1621213539927
 20
2010.737499999997
 30
0.0
 10
840.8805114394718
 20
2010.968081833101
 30
0.0
 10
841.5819980378378
 20
2011.203531323214
 30
0.0
 10
842.2681064537785
 20
2011.442206234874
 30
0.0
1001
REVIT
1002
{
1070
     3
1000
939838
1002
}
  0
SPLINE
  5
98
330
87
100
AcDbEntity
  8
M-PIPE
100
AcDbSpline
210
0.0
220
0.0
230
1.0
 70
     8
 71
     3
 72
     8
 73
     4
 74
     0
 42
0.000000001
 43
0.0000000001
 40
0.0789719008031317
 40
0.0789719008031317
 40
0.0789719008031317
 40
0.0789719008031317
 40
0.2314986784650575
 40
0.2314986784650575
 40
0.2314986784650575
 40
0.2314986784650575
 10
842.351031460709
 20
2011.471094847884
 30
0.0
 10
843.7271336836957
 20
2011.951178709389
 30
0.0
 10
845.0413993396944
 20
2012.444017206938
 30
0.0
 10
846.306200358418
 20
2012.936288048449
 30
0.0
1001
REVIT
1002
{
1070
     3
1000
939838
1002
}
  0
SPLINE
  5
99
330
87
100
AcDbEntity
  8
M-PIPE
100
AcDbSpline
210
0.0
220
0.0
230
1.0
 70
     8
 71
     3
 72
    17
 73
    13
 74
     0
 42
0.000000001
 43
0.0000000001
 40
0.3948863321471602
 40
0.3948863321471602
 40
0.3948863321471602
 40
0.3948863321471602
 40
0.4375
 40
0.5
 40
0.53125
 40
0.5625
 40
0.625
 40
0.6875
 40
0.75
 40
0.8125
 40
0.875
 40
1.0
 40
1.0
 40
1.0
 40
1.0
 10
850.1811071580206
 20
2014.49641749089
 30
0.0
 10
850.4982668419929
 20
2014.628293050964
 30
0.0
 10
851.2639186879038
 20
2014.949897659588
 30
0.0
 10
852.1828624697295
 20
2015.351743625735
 30
0.0
 10
852.9711247614143
 20
2015.704871350681
 30
0.0
 10
853.7425469204864
 20
2016.047294211722
 30
0.0
 10
854.6498806410758
 20
2016.450015252362
 30
0.0
 10
855.6129596059999
 20
2016.880686579668
 30
0.0
 10
856.398843115874
 20
2017.247489323979
 30
0.0
 10
857.0015084139722
 20
2017.544262774666
 30
0.0
 10
857.6067401247707
 20
2017.839983374587
 30
0.0
 10
857.8246228740791
 20
2017.937499999998
 30
0.0
 10
857.866407443188
 20
2017.937499999997
 30
0.0
1001
REVIT
1002
{
1070
     3
1000
939838
1002
}
  0
LINE
  5
9A
330
87
100
AcDbEntity
  8
M-PIPE
100
AcDbLine
 10
857.866407443188
 20
2017.937499999997
 30
0.0
 11
878.1664074431876
 21
2017.937499999997
 31
0.0
1001
REVIT
1002
{
1070
     3
1000
939838
1002
}
  0
LINE
  5
9B
330
87
100
AcDbEntity
  8
M-PIPE
100
AcDbLine
 10
753.1664074431882
 20
2017.937499999997
 30
0.0
 11
773.4664074431878
 21
2017.937499999997
 31
0.0
1001
REVIT
1002
{
1070
     3
1000
939838
1002
}
  0
LINE
  5
9C
330
87
100
AcDbEntity
  8
M-PIPE
100
AcDbLine
 10
780.6664074431879
 20
2010.737499999997
 30
0.0
 11
785.9185504877855
 21
2010.737499999997
 31
0.0
1001
REVIT
1002
{
1070
     3
1000
939838
1002
}
  0
LINE
  5
9D
330
87
100
AcDbEntity
  8
M-PIPE
100
AcDbLine
 10
785.9185504877855
 20
2010.737499999998
 30
0.0
 11
797.1564476158328
 21
2010.737499999998
 31
0.0
1001
REVIT
1002
{
1070
     3
1000
939838
1002
}
  0
LINE
  5
9E
330
87
100
AcDbEntity
  8
M-PIPE
100
AcDbLine
 10
845.4142643985901
 20
2010.737499999997
 30
0.0
 11
850.6664074431879
 21
2010.737499999997
 31
0.0
1001
REVIT
1002
{
1070
     3
1000
939838
1002
}
  0
LINE
  5
9F
330
87
100
AcDbEntity
  8
M-PIPE
100
AcDbLine
 10
773.4664074431878
 20
2017.937499999997
 30
0.0
 11
780.6664074431879
 21
2010.737499999997
 31
0.0
1001
REVIT
1002
{
1070
     3
1000
939838
1002
}
  0
LINE
  5
A0
330
87
100
AcDbEntity
  8
M-PIPE
100
AcDbLine
 10
850.6664074431879
 20
2010.737499999997
 30
0.0
 11
857.866407443188
 21
2017.937499999997
 31
0.0
1001
REVIT
1002
{
1070
     3
1000
939838
1002
}
  0
ARC
  5
A1
330
87
100
AcDbEntity
  8
M-PIPE
100
AcDbCircle
 10
811.9908827468615
 20
2032.724522971236
 30
0.0
 40
34.1056547886917
100
AcDbArc
 50
220.1412244907975
 51
236.4660306289751
1001
REVIT
1002
{
1070
     3
1000
939838
1002
}
  0
ARC
  5
A2
330
87
100
AcDbEntity
  8
M-PIPE
100
AcDbCircle
 10
819.3419321395143
 20
2032.724522971236
 30
0.0
 40
34.10565478869182
100
AcDbArc
 50
303.5339693710692
 51
319.8587755092014
1001
REVIT
1002
{
1070
     3
1000
939838
1002
}
  0
ARC
  5
A3
330
87
100
AcDbEntity
  8
M-PIPE
100
AcDbCircle
 10
878.1664074431876
 20
1928.937499999997
 30
0.0
 40
4.999999999999886
100
AcDbArc
 50
269.9999999999997
 51
0.0
1001
REVIT
1002
{
1070
     3
1000
939838
1002
}
  0
ARC
  5
A4
330
87
100
AcDbEntity
  8
M-PIPE
100
AcDbCircle
 10
878.1664074431876
 20
2012.937499999997
 30
0.0
 40
4.999999999999886
100
AcDbArc
 50
0.0
 51
90.0
1001
REVIT
1002
{
1070
     3
1000
939838
1002
}
  0
ARC
  5
A5
330
87
100
AcDbEntity
  8
M-PIPE
100
AcDbCircle
 10
753.1664074431882
 20
1928.937499999997
 30
0.0
 40
5.0
100
AcDbArc
 50
180.0
 51
269.9999999999997
1001
REVIT
1002
{
1070
     3
1000
939838
1002
}
  0
ARC
  5
A6
330
87
100
AcDbEntity
  8
M-PIPE
100
AcDbCircle
 10
753.1664074431882
 20
2012.937499999997
 30
0.0
 40
4.999999999999759
100
AcDbArc
 50
89.99999999999934
 51
180.0000000000007
1001
REVIT
1002
{
1070
     3
1000
939838
1002
}
  0
LINE
  5
A7
330
87
100
AcDbEntity
  8
M-PIPE
100
AcDbLine
 10
748.1664074431876
 20
1946.937499999998
 30
0.0
 11
883.1664074431875
 21
1946.937499999998
 31
0.0
1001
REVIT
1002
{
1070
     3
1000
939838
1002
}
  0
LINE
  5
A8
330
87
100
AcDbEntity
  8
M-PIPE
100
AcDbLine
 10
883.1664074431875
 20
1994.937499999997
 30
0.0
 11
837.1559619810943
 21
1994.937499999997
 31
0.0
1001
REVIT
1002
{
1070
     3
1000
939838
1002
}
  0
LINE
  5
A9
330
87
100
AcDbEntity
  8
M-PIPE
100
AcDbLine
 10
794.1633027562194
 20
1994.937499999997
 30
0.0
 11
748.1664074431876
 21
1994.937499999997
 31
0.0
1001
REVIT
1002
{
1070
     3
1000
939838
1002
}
  0
LINE
  5
AA
330
87
100
AcDbEntity
  8
M-PIPE
100
AcDbLine
 10
790.6923916197414
 20
2079.937499999994
 30
0.0
 11
790.6923916197414
 21
2049.937499999994
 31
0.0
1001
REVIT
1002
{
1070
     3
1000
938184
1002
}
  0
LINE
  5
AB
330
87
100
AcDbEntity
  8
M-PIPE
100
AcDbLine
 10
840.6404232666359
 20
2049.937499999994
 30
0.0
 11
840.6404232666359
 21
2079.937499999994
 31
0.0
1001
REVIT
1002
{
1070
     3
1000
938184
1002
}
  0
LWPOLYLINE
  5
AC
330
87
100
AcDbEntity
  8
M-PIPE
100
AcDbPolyline
 90
       41
 70
   128
 43
0.0
 10
837.1968771459499
 20
2083.436370771841
 10
837.2803859362893
 20
2083.434700373308
 10
837.420124695528
 20
2083.426305972054
 10
837.5594159921471
 20
2083.412330225483
 10
837.6980369897857
 20
2083.392795491809
 10
837.8357659244185
 20
2083.367733022439
 10
837.9723824591309
 20
2083.337182911977
 10
838.1076680366103
 20
2083.301194034082
 10
838.2414062287923
 20
2083.259823963283
 10
838.3733830830987
 20
2083.213138882867
 10
838.5033874647163
 20
2083.161213479005
 10
838.6312113943668
 20
2083.104130821264
 10
838.7566503810312
 20
2083.041982229722
 10
838.8795037490892
 20
2082.974867128866
 10
838.9995749593591
 20
2082.902892888542
 10
839.1166719235187
 20
2082.826174652179
 10
839.2306073114044
 20
2082.74483515259
 10
839.3411988507004
 20
2082.659004515623
 10
839.4482696185361
 20
2082.568820051988
 10
839.5516483245227
 20
2082.474426037588
 10
839.6511695847843
 20
2082.37597348271
 10
839.746674186534
 20
2082.273619890439
 10
839.8380093427824
 20
2082.167529004689
 10
839.9250289367632
 20
2082.057870548247
 10
840.0075937556893
 20
2081.944819951248
 10
840.0855717134636
 20
2081.828558070533
 10
840.1588380619875
 20
2081.709270900309
 10
840.2272755907333
 20
2081.587149274602
 10
840.2907748142538
 20
2081.462388561963
 10
840.3492341473372
 20
2081.335188352916
 10
840.4025600675211
 20
2081.205752140663
 10
840.4506672647094
 20
2081.07428699553
 10
840.4934787776481
 20
2080.941003233707
 10
840.5309261170499
 20
2080.806114080778
 10
840.5629493751597
 20
2080.669835330614
 10
840.5894973215955
 20
2080.532385000145
 10
840.6105274853068
 20
2080.393982980578
 10
840.6260062225175
 20
2080.25485068562
 10
840.6359087705503
 20
2080.115210697262
 10
840.6402192874407
 20
2079.975286409699
 10
840.6404232666359
 20
2079.937499999994
1001
REVIT
1002
{
1070
     3
1000
938184
1002
}
  0
LINE
  5
AD
330
87
100
AcDbEntity
  8
M-PIPE
100
AcDbLine
 10
837.0251471629492
 20
2083.437499999995
 30
0.0
 11
830.586053845187
 21
2083.437499999995
 31
0.0
1001
REVIT
1002
{
1070
     3
1000
938184
1002
}
  0
LINE
  5
AE
330
87
100
AcDbEntity
  8
M-PIPE
100
AcDbLine
 10
800.7467610412295
 20
2083.437499999995
 30
0.0
 11
794.3076677234273
 21
2083.437499999995
 31
0.0
1001
REVIT
1002
{
1070
     3
1000
938184
1002
}
  0
LWPOLYLINE
  5
AF
330
87
100
AcDbEntity
  8
M-PIPE
100
AcDbPolyline
 90
       41
 70
   128
 43
0.0
 10
790.6923916197414
 20
2079.937499999994
 10
790.695191246428
 20
2080.077462669648
 10
790.7035856476822
 20
2080.217201428887
 10
790.7175613942529
 20
2080.356492725506
 10
790.7370961279267
 20
2080.495113723144
 10
790.7621585972971
 20
2080.632842657777
 10
790.7927087077593
 20
2080.769459192489
 10
790.8286975856538
 20
2080.904744769969
 10
790.8700676564529
 20
2081.038482962151
 10
790.9167527368686
 20
2081.170459816457
 10
790.9686781407314
 20
2081.300464198075
 10
791.0257607984715
 20
2081.428288127725
 10
791.0879093900139
 20
2081.55372711439
 10
791.1550244908696
 20
2081.676580482448
 10
791.2269987311945
 20
2081.796651692718
 10
791.3037169675575
 20
2081.913748656877
 10
791.3850564671463
 20
2082.027684044763
 10
791.470887104113
 20
2082.138275584059
 10
791.5610715677481
 20
2082.245346351895
 10
791.6554655821482
 20
2082.348725057881
 10
791.7539181370263
 20
2082.448246318143
 10
791.8562717292968
 20
2082.543750919892
 10
791.9623626150462
 20
2082.635086076141
 10
792.0720210714894
 20
2082.722105670121
 10
792.1850716684876
 20
2082.804670489048
 10
792.3013335492028
 20
2082.882648446822
 10
792.4206207194266
 20
2082.955914795347
 10
792.5427423451334
 20
2083.024352324092
 10
792.6675030577728
 20
2083.087851547612
 10
792.7947032668194
 20
2083.146310880696
 10
792.924139479073
 20
2083.19963680088
 10
793.0556046242058
 20
2083.247743998068
 10
793.1888883860295
 20
2083.290555511007
 10
793.3237775389581
 20
2083.328002850408
 10
793.4600562891214
 20
2083.360026108518
 10
793.5975066195906
 20
2083.386574054954
 10
793.7359086391579
 20
2083.407604218665
 10
793.8750409341162
 20
2083.423082955876
 10
794.0146809224739
 20
2083.432985503909
 10
794.1546052100375
 20
2083.437296020799
 10
794.1923916197413
 20
2083.437499999995
1001
REVIT
1002
{
1070
     3
1000
938184
1002
}
  0
LINE
  5
B0
330
87
100
AcDbEntity
  8
M-PIPE
100
AcDbLine
 10
791.108018697695
 20
2049.937499999993
 30
0.0
 11
790.69239161974
 21
2049.937499999993
 31
0.0
1001
REVIT
1002
{
1070
     3
1000
938184
1002
}
  0
LINE
  5
B1
330
87
100
AcDbEntity
  8
M-PIPE
100
AcDbLine
 10
840.6404232666345
 20
2049.937499999993
 30
0.0
 11
840.2247961886779
 21
2049.937499999993
 31
0.0
1001
REVIT
1002
{
1070
     3
1000
938184
1002
}
  0
LINE
  5
B2
330
87
100
AcDbEntity
  8
M-PIPE
100
AcDbLine
 10
840.2247961886779
 20
2049.937499999993
 30
0.0
 11
838.8766718102031
 21
2049.937499999993
 31
0.0
1001
REVIT
1002
{
1070
     3
1000
938184
1002
}
  0
LINE
  5
B3
330
87
100
AcDbEntity
  8
M-PIPE
100
AcDbLine
 10
792.4561430761706
 20
2049.937499999993
 30
0.0
 11
791.108018697695
 21
2049.937499999993
 31
0.0
1001
REVIT
1002
{
1070
     3
1000
938184
1002
}
  0
LINE
  5
B4
330
87
100
AcDbEntity
  8
M-PIPE
100
AcDbLine
 10
797.9872737992908
 20
2079.937499999971
 30
0.0
 11
797.9872737992908
 21
2054.305307718065
 31
0.0
1001
REVIT
1002
{
1070
     3
1000
938184
1002
}
  0
LINE
  5
B5
330
87
100
AcDbEntity
  8
M-PIPE
100
AcDbLine
 10
792.4561430761705
 20
2049.937499999993
 30
0.0
 11
792.4561430761705
 21
2054.305307718065
 31
0.0
1001
REVIT
1002
{
1070
     3
1000
938184
1002
}
  0
LINE
  5
B6
330
87
100
AcDbEntity
  8
M-PIPE
100
AcDbLine
 10
791.108018697695
 20
2049.937499999993
 30
0.0
 11
791.108018697695
 21
2079.937499999994
 31
0.0
1001
REVIT
1002
{
1070
     3
1000
938184
1002
}
  0
LINE
  5
B7
330
87
100
AcDbEntity
  8
M-PIPE
100
AcDbLine
 10
833.345541087114
 20
2054.305307718065
 30
0.0
 11
833.345541087114
 21
2079.937499999994
 31
0.0
1001
REVIT
1002
{
1070
     3
1000
938184
1002
}
  0
LINE
  5
B8
330
87
100
AcDbEntity
  8
M-PIPE
100
AcDbLine
 10
838.8766718102031
 20
2054.305307718065
 30
0.0
 11
838.8766718102031
 21
2049.937499999993
 31
0.0
1001
REVIT
1002
{
1070
     3
1000
938184
1002
}
  0
LINE
  5
B9
330
87
100
AcDbEntity
  8
M-PIPE
100
AcDbLine
 10
840.2247961886779
 20
2049.937499999993
 30
0.0
 11
840.2247961886779
 21
2079.937499999994
 31
0.0
1001
REVIT
1002
{
1070
     3
1000
938184
1002
}
  0
LINE
  5
BA
330
87
100
AcDbEntity
  8
M-PIPE
100
AcDbLine
 10
838.8766718102031
 20
2049.937499999993
 30
0.0
 11
792.4561430761706
 21
2049.937499999993
 31
0.0
1001
REVIT
1002
{
1070
     3
1000
938184
1002
}
  0
LINE
  5
BB
330
87
100
AcDbEntity
  8
M-PIPE
100
AcDbLine
 10
838.8766718102031
 20
2054.305307718065
 30
0.0
 11
792.4561430761706
 21
2054.305307718065
 31
0.0
1001
REVIT
1002
{
1070
     3
1000
938184
1002
}
  0
SPLINE
  5
BC
330
87
100
AcDbEntity
  8
M-PIPE
100
AcDbSpline
210
0.0
220
0.0
230
1.0
 70
     8
 71
     3
 72
    13
 73
     9
 74
     0
 42
0.000000001
 43
0.0000000001
 40
-1.0
 40
-1.0
 40
-1.0
 40
-1.0
 40
-0.8333333333333332
 40
-0.6666666666666666
 40
-0.5
 40
-0.3333333333333333
 40
-0.1666666666666666
 40
0.0
 40
0.0
 40
0.0
 40
0.0
 10
837.0251471629478
 20
2083.437499999993
 30
0.0
 10
837.3205586685205
 20
2083.437499999993
 30
0.0
 10
837.8933951036446
 20
2083.357080161109
 30
0.0
 10
838.6611642313809
 20
2083.003411788159
 30
0.0
 10
839.3274124742992
 20
2082.44080616569
 30
0.0
 10
839.8385517692357
 20
2081.70760595396
 30
0.0
 10
840.1468021556311
 20
2080.853770018434
 30
0.0
 10
840.2217242993568
 20
2080.242932619092
 30
0.0
 10
840.2247961886779
 20
2079.937499999994
 30
0.0
1001
REVIT
1002
{
1070
     3
1000
938184
1002
}
  0
SPLINE
  5
BD
330
87
100
AcDbEntity
  8
M-PIPE
100
AcDbSpline
210
0.0
220
0.0
230
1.0
 70
     8
 71
     3
 72
    13
 73
     9
 74
     0
 42
0.000000001
 43
0.0000000001
 40
0.0
 40
0.0
 40
0.0
 40
0.0
 40
0.1428571428571428
 40
0.2857142857142857
 40
0.4285714285714286
 40
0.5714285714285714
 40
0.7857142857142857
 40
1.0
 40
1.0
 40
1.0
 40
1.0
 10
830.5860538451856
 20
2083.437499999993
 30
0.0
 10
830.7902312199917
 20
2083.437499999993
 30
0.0
 10
831.1948469066582
 20
2083.382773710189
 30
0.0
 10
831.7769222958347
 20
2083.135101655104
 30
0.0
 10
832.3021120505984
 20
2082.728807727994
 30
0.0
 10
832.8203387139636
 20
2082.086417763063
 30
0.0
 10
833.2360711317338
 20
2081.148385850026
 30
0.0
 10
833.3451741301775
 20
2080.342037323193
 30
0.0
 10
833.345541087101
 20
2079.937499999993
 30
0.0
1001
REVIT
1002
{
1070
     3
1000
938184
1002
}
  0
SPLINE
  5
BE
330
87
100
AcDbEntity
  8
M-PIPE
100
AcDbSpline
210
0.0
220
0.0
230
1.0
 70
     8
 71
     3
 72
    11
 73
     7
 74
     0
 42
0.000000001
 43
0.0000000001
 40
-1.0
 40
-1.0
 40
-1.0
 40
-1.0
 40
-0.8333333333333332
 40
-0.6666666666666666
 40
-0.5
 40
-0.3339016905417399
 40
-0.3339016905417399
 40
-0.3339016905417399
 40
-0.3339016905417399
 10
800.7467610412282
 20
2083.437499999993
 30
0.0
 10
800.4964372967696
 20
2083.437499999993
 30
0.0
 10
800.0060669969757
 20
2083.357751637034
 30
0.0
 10
799.3404493404661
 20
2083.00520512501
 30
0.0
 10
798.7518228086221
 20
2082.433611820121
 30
0.0
 10
798.4526862354798
 20
2081.936745090839
 30
0.0
 10
798.3347220290363
 20
2081.67167683607
 30
0.0
1001
REVIT
1002
{
1070
     3
1000
938184
1002
}
  0
SPLINE
  5
BF
330
87
100
AcDbEntity
  8
M-PIPE
100
AcDbSpline
210
0.0
220
0.0
230
1.0
 70
     8
 71
     3
 72
     9
 73
     5
 74
     0
 42
0.000000001
 43
0.0000000001
 40
-0.3333333333333333
 40
-0.3333333333333333
 40
-0.3333333333333333
 40
-0.3333333333333333
 40
-0.1666666666666666
 40
0.0
 40
0.0
 40
0.0
 40
0.0
 10
798.3335121764732
 20
2081.668955196015
 30
0.0
 10
798.2153596868753
 20
2081.402862920359
 30
0.0
 10
798.0422380093283
 20
2080.836407688426
 30
0.0
 10
797.9853986766619
 20
2080.235807238952
 30
0.0
 10
797.9872737993122
 20
2079.937499999994
 30
0.0
1001
REVIT
1002
{
1070
     3
1000
938184
1002
}
  0
SPLINE
  5
C0
330
87
100
AcDbEntity
  8
M-PIPE
100
AcDbSpline
210
0.0
220
0.0
230
1.0
 70
     8
 71
     3
 72
    15
 73
    11
 74
     0
 42
0.000000001
 43
0.0000000001
 40
0.0
 40
0.0
 40
0.0
 40
0.0
 40
0.1428571428571428
 40
0.2857142857142857
 40
0.4285714285714286
 40
0.5714285714285714
 40
0.6785714285714287
 40
0.7321428571428572
 40
0.7857142857142857
 40
1.0
 40
1.0
 40
1.0
 40
1.0
 10
794.307667723426
 20
2083.437499999993
 30
0.0
 10
794.0766382947191
 20
2083.437499999993
 30
0.0
 10
793.6185773700531
 20
2083.385889269799
 30
0.0
 10
792.9550247411335
 20
2083.149808663813
 30
0.0
 10
792.3489278378755
 20
2082.757066977594
 30
0.0
 10
791.8718881030915
 20
2082.260500052765
 30
0.0
 10
791.5747892953966
 20
2081.794818705802
 30
0.0
 10
791.4055204045731
 20
2081.436051778965
 30
0.0
 10
791.1916561995247
 20
2080.87004517603
 30
0.0
 10
791.108812642251
 20
2080.353936602469
 30
0.0
 10
791.108018697695
 20
2079.937499999994
 30
0.0
1001
REVIT
1002
{
1070
     3
1000
938184
1002
}
  0
LINE
  5
C1
330
87
100
AcDbEntity
  8
M-PIPE
100
AcDbLine
 10
838.1664074432006
 20
1997.803525403788
 30
0.0
 11
838.1664074432006
 21
2005.571474596205
 31
0.0
1001
REVIT
1002
{
1070
     3
1000
790271
1002
}
  0
LINE
  5
C2
330
87
100
AcDbEntity
  8
M-PIPE
100
AcDbLine
 10
793.1664074432005
 20
2005.571474596205
 30
0.0
 11
793.1664074432005
 21
1997.803525403788
 31
0.0
1001
REVIT
1002
{
1070
     3
1000
790271
1002
}
  0
LINE
  5
C3
330
87
100
AcDbEntity
  8
M-PIPE
100
AcDbLine
 10
838.1664074431975
 20
2005.571474596199
 30
0.0
 11
838.1067424006239
 21
2005.60592222459
 31
0.0
1001
REVIT
1002
{
1070
     3
1000
790271
1002
}
  0
LINE
  5
C4
330
87
100
AcDbEntity
  8
M-PIPE
100
AcDbLine
 10
838.0976541696824
 20
2005.611169317171
 30
0.0
 11
836.6664074431758
 21
2006.437499999996
 31
0.0
1001
REVIT
1002
{
1070
     3
1000
790271
1002
}
  0
LINE
  5
C5
330
87
100
AcDbEntity
  8
M-PIPE
100
AcDbLine
 10
794.6664074432003
 20
2006.437499999996
 30
0.0
 11
793.2351607167188
 21
2005.611169317186
 31
0.0
1001
REVIT
1002
{
1070
     3
1000
790271
1002
}
  0
LINE
  5
C6
330
87
100
AcDbEntity
  8
M-PIPE
100
AcDbLine
 10
793.2260724857774
 20
2005.605922224605
 30
0.0
 11
793.1664074431953
 21
2005.571474596209
 31
0.0
1001
REVIT
1002
{
1070
     3
1000
790271
1002
}
  0
LINE
  5
C7
330
87
100
AcDbEntity
  8
M-PIPE
100
AcDbLine
 10
836.6664074431758
 20
1996.937499999996
 30
0.0
 11
838.0976541696824
 21
1997.763830682821
 31
0.0
1001
REVIT
1002
{
1070
     3
1000
790271
1002
}
  0
LINE
  5
C8
330
87
100
AcDbEntity
  8
M-PIPE
100
AcDbLine
 10
838.1067424006236
 20
1997.769077775402
 30
0.0
 11
838.1664074431993
 21
1997.803525403794
 31
0.0
1001
REVIT
1002
{
1070
     3
1000
790271
1002
}
  0
LINE
  5
C9
330
87
100
AcDbEntity
  8
M-PIPE
100
AcDbLine
 10
793.1664074431973
 20
1997.803525403782
 30
0.0
 11
793.2260724857774
 21
1997.769077775387
 31
0.0
1001
REVIT
1002
{
1070
     3
1000
790271
1002
}
  0
LINE
  5
CA
330
87
100
AcDbEntity
  8
M-PIPE
100
AcDbLine
 10
793.2351607167188
 20
1997.763830682807
 30
0.0
 11
794.6664074432001
 21
1996.937499999996
 31
0.0
1001
REVIT
1002
{
1070
     3
1000
790271
1002
}
  0
LINE
  5
CB
330
87
100
AcDbEntity
  8
M-PIPE
100
AcDbLine
 10
794.6664074431991
 20
2006.437499999996
 30
0.0
 11
797.4798739637239
 21
2006.437499999996
 31
0.0
1001
REVIT
1002
{
1070
     3
1000
790271
1002
}
  0
LINE
  5
CC
330
87
100
AcDbEntity
  8
M-PIPE
100
AcDbLine
 10
797.4798739637239
 20
2006.437499999996
 30
0.0
 11
815.6664074431864
 21
2006.437499999995
 31
0.0
1001
REVIT
1002
{
1070
     3
1000
790271
1002
}
  0
LINE
  5
CD
330
87
100
AcDbEntity
  8
M-PIPE
100
AcDbLine
 10
815.6664074431864
 20
2006.437499999995
 30
0.0
 11
833.8529409226493
 21
2006.437499999996
 31
0.0
1001
REVIT
1002
{
1070
     3
1000
790271
1002
}
  0
LINE
  5
CE
330
87
100
AcDbEntity
  8
M-PIPE
100
AcDbLine
 10
833.8529409226493
 20
2006.437499999996
 30
0.0
 11
836.6664074431744
 21
2006.437499999996
 31
0.0
1001
REVIT
1002
{
1070
     3
1000
790271
1002
}
  0
LINE
  5
CF
330
87
100
AcDbEntity
  8
M-PIPE
100
AcDbLine
 10
837.8918145280234
 20
2005.571474596195
 30
0.0
 11
837.8918145280234
 21
1997.803525403796
 31
0.0
1001
REVIT
1002
{
1070
     3
1000
790271
1002
}
  0
LINE
  5
D0
330
87
100
AcDbEntity
  8
M-PIPE
100
AcDbLine
 10
837.8918145280231
 20
1997.803525403787
 30
0.0
 11
838.1664074431991
 21
1997.803525403787
 31
0.0
1001
REVIT
1002
{
1070
     3
1000
790271
1002
}
  0
LINE
  5
D1
330
87
100
AcDbEntity
  8
M-PIPE
100
AcDbLine
 10
838.1664074431991
 20
2005.571474596204
 30
0.0
 11
837.8918145280234
 21
2005.571474596204
 31
0.0
1001
REVIT
1002
{
1070
     3
1000
790271
1002
}
  0
LINE
  5
D2
330
87
100
AcDbEntity
  8
M-PIPE
100
AcDbLine
 10
793.1664074431993
 20
1997.803525403787
 30
0.0
 11
793.441000358375
 21
1997.803525403787
 31
0.0
1001
REVIT
1002
{
1070
     3
1000
790271
1002
}
  0
LINE
  5
D3
330
87
100
AcDbEntity
  8
M-PIPE
100
AcDbLine
 10
793.441000358375
 20
2005.571474596204
 30
0.0
 11
793.1664074431993
 21
2005.571474596204
 31
0.0
1001
REVIT
1002
{
1070
     3
1000
790271
1002
}
  0
LINE
  5
D4
330
87
100
AcDbEntity
  8
M-PIPE
100
AcDbLine
 10
793.441000358375
 20
1997.803525403781
 30
0.0
 11
793.441000358375
 21
2005.57147459621
 31
0.0
1001
REVIT
1002
{
1070
     3
1000
790271
1002
}
  0
SPLINE
  5
D5
330
87
100
AcDbEntity
  8
M-PIPE
100
AcDbSpline
210
0.0
220
0.0
230
1.0
 70
     8
 71
     3
 72
     9
 73
     5
 74
     0
 42
0.000000001
 43
0.0000000001
 40
0.0
 40
0.0
 40
0.0
 40
0.0
 40
0.5
 40
0.964235129643435
 40
0.964235129643435
 40
0.964235129643435
 40
0.964235129643435
 10
793.441000358375
 20
1997.803525403781
 30
0.0
 10
794.1068738022441
 20
1997.52023781805
 30
0.0
 10
795.3980030044625
 20
1997.10790662318
 30
0.0
 10
796.7026547737202
 20
1996.953952816746
 30
0.0
 10
797.3339194583443
 20
1996.939722517362
 30
0.0
1001
REVIT
1002
{
1070
     3
1000
790271
1002
}
  0
SPLINE
  5
D6
330
87
100
AcDbEntity
  8
M-PIPE
100
AcDbSpline
210
0.0
220
0.0
230
1.0
 70
     8
 71
     3
 72
     9
 73
     5
 74
     0
 42
0.000000001
 43
0.0000000001
 40
0.0
 40
0.0
 40
0.0
 40
0.0
 40
0.5
 40
1.0
 40
1.0
 40
1.0
 40
1.0
 10
797.4798739637158
 20
1996.937499999995
 30
0.0
 10
798.1602917216304
 20
1996.942887548859
 30
0.0
 10
799.5138550804384
 20
1997.092612665022
 30
0.0
 10
800.8528741252041
 20
1997.520237818056
 30
0.0
 10
801.5187475690765
 20
1997.803525403789
 30
0.0
1001
REVIT
1002
{
1070
     3
1000
790271
1002
}
  0
SPLINE
  5
D7
330
87
100
AcDbEntity
  8
M-PIPE
100
AcDbSpline
210
0.0
220
0.0
230
1.0
 70
     8
 71
     3
 72
     9
 73
     5
 74
     0
 42
0.000000001
 43
0.0000000001
 40
0.0
 40
0.0
 40
0.0
 40
0.0
 40
0.5
 40
1.0
 40
1.0
 40
1.0
 40
1.0
 10
801.5187475690765
 20
2005.571474596201
 30
0.0
 10
800.8528741252041
 20
2005.854762181935
 30
0.0
 10
799.5138550804381
 20
2006.282387334968
 30
0.0
 10
798.1602917216299
 20
2006.432112451131
 30
0.0
 10
797.4798739637154
 20
2006.437499999996
 30
0.0
1001
REVIT
1002
{
1070
     3
1000
790271
1002
}
  0
SPLINE
  5
D8
330
87
100
AcDbEntity
  8
M-PIPE
100
AcDbSpline
210
0.0
220
0.0
230
1.0
 70
     8
 71
     3
 72
     9
 73
     5
 74
     0
 42
0.000000001
 43
0.0000000001
 40
0.0
 40
0.0
 40
0.0
 40
0.0
 40
0.5
 40
1.0
 40
1.0
 40
1.0
 40
1.0
 10
797.4798739637154
 20
2006.437499999996
 30
0.0
 10
796.7994562058042
 20
2006.432112451131
 30
0.0
 10
795.4458928470033
 20
2006.282387334969
 30
0.0
 10
794.1068738022441
 20
2005.85476218194
 30
0.0
 10
793.441000358375
 20
2005.57147459621
 30
0.0
1001
REVIT
1002
{
1070
     3
1000
790271
1002
}
  0
LINE
  5
D9
330
87
100
AcDbEntity
  8
M-PIPE
100
AcDbLine
 10
801.5187475690764
 20
1997.803525403789
 30
0.0
 11
801.5187475690764
 21
2005.571474596201
 31
0.0
1001
REVIT
1002
{
1070
     3
1000
790271
1002
}
  0
LINE
  5
DA
330
87
100
AcDbEntity
  8
M-PIPE
100
AcDbLine
 10
801.5187475690762
 20
1997.803525403787
 30
0.0
 11
807.5886602324963
 21
1997.803525403787
 31
0.0
1001
REVIT
1002
{
1070
     3
1000
790271
1002
}
  0
LINE
  5
DB
330
87
100
AcDbEntity
  8
M-PIPE
100
AcDbLine
 10
807.5886602324967
 20
2005.571474596204
 30
0.0
 11
801.5187475690764
 21
2005.571474596204
 31
0.0
1001
REVIT
1002
{
1070
     3
1000
790271
1002
}
  0
LINE
  5
DC
330
87
100
AcDbEntity
  8
M-PIPE
100
AcDbLine
 10
807.5886602324969
 20
1997.803525403793
 30
0.0
 11
807.5886602324969
 21
2005.571474596197
 31
0.0
1001
REVIT
1002
{
1070
     3
1000
790271
1002
}
  0
SPLINE
  5
DD
330
87
100
AcDbEntity
  8
M-PIPE
100
AcDbSpline
210
0.0
220
0.0
230
1.0
 70
     8
 71
     3
 72
     9
 73
     5
 74
     0
 42
0.000000001
 43
0.0000000001
 40
0.0
 40
0.0
 40
0.0
 40
0.0
 40
0.5
 40
1.0
 40
1.0
 40
1.0
 40
1.0
 10
807.5886602324969
 20
1997.803525403793
 30
0.0
 10
808.9204071202367
 20
1997.520237818063
 30
0.0
 10
811.5984452097581
 20
1997.092612665033
 30
0.0
 10
814.3055719273629
 20
1996.942887548865
 30
0.0
 10
815.6664074431864
 20
1996.937499999995
 30
0.0
1001
REVIT
1002
{
1070
     3
1000
790271
1002
}
  0
SPLINE
  5
DE
330
87
100
AcDbEntity
  8
M-PIPE
100
AcDbSpline
210
0.0
220
0.0
230
1.0
 70
     8
 71
     3
 72
     9
 73
     5
 74
     0
 42
0.000000001
 43
0.0000000001
 40
0.0
 40
0.0
 40
0.0
 40
0.0
 40
0.5
 40
1.0
 40
1.0
 40
1.0
 40
1.0
 10
815.6664074431864
 20
1996.937499999995
 30
0.0
 10
817.0272429590138
 20
1996.942887548865
 30
0.0
 10
819.7343696766271
 20
1997.092612665035
 30
0.0
 10
822.4124077661565
 20
1997.520237818067
 30
0.0
 10
823.7441546539004
 20
1997.803525403798
 30
0.0
1001
REVIT
1002
{
1070
     3
1000
790271
1002
}
  0
SPLINE
  5
DF
330
87
100
AcDbEntity
  8
M-PIPE
100
AcDbSpline
210
0.0
220
0.0
230
1.0
 70
     8
 71
     3
 72
     9
 73
     5
 74
     0
 42
0.000000001
 43
0.0000000001
 40
0.0
 40
0.0
 40
0.0
 40
0.0
 40
0.5
 40
1.0
 40
1.0
 40
1.0
 40
1.0
 10
823.7441546539004
 20
2005.571474596192
 30
0.0
 10
822.4124077661565
 20
2005.854762181924
 30
0.0
 10
819.7343696766271
 20
2006.282387334955
 30
0.0
 10
817.0272429590138
 20
2006.432112451125
 30
0.0
 10
815.6664074431864
 20
2006.437499999996
 30
0.0
1001
REVIT
1002
{
1070
     3
1000
790271
1002
}
  0
SPLINE
  5
E0
330
87
100
AcDbEntity
  8
M-PIPE
100
AcDbSpline
210
0.0
220
0.0
230
1.0
 70
     8
 71
     3
 72
     9
 73
     5
 74
     0
 42
0.000000001
 43
0.0000000001
 40
0.0
 40
0.0
 40
0.0
 40
0.0
 40
0.5
 40
1.0
 40
1.0
 40
1.0
 40
1.0
 10
815.6664074431864
 20
2006.437499999996
 30
0.0
 10
814.3055719273629
 20
2006.432112451125
 30
0.0
 10
811.5984452097581
 20
2006.282387334957
 30
0.0
 10
808.9204071202367
 20
2005.854762181927
 30
0.0
 10
807.5886602324969
 20
2005.571474596197
 30
0.0
1001
REVIT
1002
{
1070
     3
1000
790271
1002
}
  0
LINE
  5
E1
330
87
100
AcDbEntity
  8
M-PIPE
100
AcDbLine
 10
823.7441546539004
 20
1997.803525403798
 30
0.0
 11
823.7441546539004
 21
2005.571474596192
 31
0.0
1001
REVIT
1002
{
1070
     3
1000
790271
1002
}
  0
LINE
  5
E2
330
87
100
AcDbEntity
  8
M-PIPE
100
AcDbLine
 10
823.7441546539001
 20
1997.803525403787
 30
0.0
 11
829.8140673173209
 21
1997.803525403787
 31
0.0
1001
REVIT
1002
{
1070
     3
1000
790271
1002
}
  0
LINE
  5
E3
330
87
100
AcDbEntity
  8
M-PIPE
100
AcDbLine
 10
829.8140673173211
 20
2005.571474596204
 30
0.0
 11
823.7441546539002
 21
2005.571474596204
 31
0.0
1001
REVIT
1002
{
1070
     3
1000
790271
1002
}
  0
SPLINE
  5
E4
330
87
100
AcDbEntity
  8
M-PIPE
100
AcDbSpline
210
0.0
220
0.0
230
1.0
 70
     8
 71
     3
 72
     9
 73
     5
 74
     0
 42
0.000000001
 43
0.0000000001
 40
0.0
 40
0.0
 40
0.0
 40
0.0
 40
0.5
 40
1.0
 40
1.0
 40
1.0
 40
1.0
 10
837.8918145280231
 20
2005.571474596195
 30
0.0
 10
837.2259410841529
 20
2005.854762181925
 30
0.0
 10
835.8869220393916
 20
2006.282387334955
 30
0.0
 10
834.5333586805887
 20
2006.432112451125
 30
0.0
 10
833.8529409226765
 20
2006.437499999996
 30
0.0
1001
REVIT
1002
{
1070
     3
1000
790271
1002
}
  0
SPLINE
  5
E5
330
87
100
AcDbEntity
  8
M-PIPE
100
AcDbSpline
210
0.0
220
0.0
230
1.0
 70
     8
 71
     3
 72
     9
 73
     5
 74
     0
 42
0.000000001
 43
0.0000000001
 40
0.0
 40
0.0
 40
0.0
 40
0.0
 40
0.5
 40
1.0
 40
1.0
 40
1.0
 40
1.0
 10
833.8529409226765
 20
2006.437499999996
 30
0.0
 10
833.1725231647631
 20
2006.432112451125
 30
0.0
 10
831.8189598059571
 20
2006.282387334954
 30
0.0
 10
830.479940761193
 20
2005.854762181923
 30
0.0
 10
829.8140673173213
 20
2005.571474596192
 30
0.0
1001
REVIT
1002
{
1070
     3
1000
790271
1002
}
  0
LINE
  5
E6
330
87
100
AcDbEntity
  8
M-PIPE
100
AcDbLine
 10
829.8140673173213
 20
1997.803525403799
 30
0.0
 11
829.8140673173213
 21
2005.571474596192
 31
0.0
1001
REVIT
1002
{
1070
     3
1000
790271
1002
}
  0
SPLINE
  5
E7
330
87
100
AcDbEntity
  8
M-PIPE
100
AcDbSpline
210
0.0
220
0.0
230
1.0
 70
     8
 71
     3
 72
     9
 73
     5
 74
     0
 42
0.000000001
 43
0.0000000001
 40
0.0
 40
0.0
 40
0.0
 40
0.0
 40
0.5
 40
1.0
 40
1.0
 40
1.0
 40
1.0
 10
829.8140673173213
 20
1997.803525403799
 30
0.0
 10
830.4799407611929
 20
1997.520237818068
 30
0.0
 10
831.8189598059568
 20
1997.092612665036
 30
0.0
 10
833.1725231647629
 20
1996.942887548865
 30
0.0
 10
833.8529409226762
 20
1996.937499999995
 30
0.0
1001
REVIT
1002
{
1070
     3
1000
790271
1002
}
  0
SPLINE
  5
E8
330
87
100
AcDbEntity
  8
M-PIPE
100
AcDbSpline
210
0.0
220
0.0
230
1.0
 70
     8
 71
     3
 72
     9
 73
     5
 74
     0
 42
0.000000001
 43
0.0000000001
 40
0.0357648703525478
 40
0.0357648703525478
 40
0.0357648703525478
 40
0.0357648703525478
 40
0.5
 40
1.0
 40
1.0
 40
1.0
 40
1.0
 10
833.9988954280315
 20
1996.939722517364
 30
0.0
 10
834.6301601126617
 20
1996.953952816751
 30
0.0
 10
835.9348118819269
 20
1997.107906623193
 30
0.0
 10
837.2259410841529
 20
1997.520237818066
 30
0.0
 10
837.8918145280231
 20
1997.803525403796
 30
0.0
1001
REVIT
1002
{
1070
     3
1000
790271
1002
}
  0
LINE
  5
E9
330
87
100
AcDbEntity
  8
P-SANR-FIXT
100
AcDbLine
 10
794.1664074431892
 20
1996.937499999998
 30
0.0
 11
794.1664074431892
 21
1989.437499999998
 31
0.0
  0
LINE
  5
EA
330
87
100
AcDbEntity
  8
P-SANR-FIXT
100
AcDbLine
 10
837.1664074431892
 20
1989.437499999998
 30
0.0
 11
837.1664074431892
 21
1996.937499999998
 31
0.0
  0
LINE
  5
EB
330
87
100
AcDbEntity
  8
P-SANR-FIXT
100
AcDbLine
 10
789.9164074431892
 20
1952.437499999998
 30
0.0
 11
798.6664074431891
 21
1952.437499999998
 31
0.0
  0
LINE
  5
EC
330
87
100
AcDbEntity
  8
P-SANR-FIXT
100
AcDbLine
 10
794.1664074431892
 20
1989.437499999998
 30
0.0
 11
789.9164074431892
 21
1989.437499999998
 31
0.0
  0
LINE
  5
ED
330
87
100
AcDbEntity
  8
P-SANR-FIXT
100
AcDbLine
 10
798.6664074431883
 20
2049.937499999994
 30
0.0
 11
798.6664074431883
 21
2043.934701883424
 31
0.0
  0
LINE
  5
EE
330
87
100
AcDbEntity
  8
P-SANR-FIXT
100
AcDbLine
 10
798.6664074431883
 20
2029.934701883298
 30
0.0
 11
798.6664074431883
 21
2025.937499999995
 31
0.0
  0
LINE
  5
EF
330
87
100
AcDbEntity
  8
P-SANR-FIXT
100
AcDbLine
 10
832.6664074431896
 20
2025.937499999995
 30
0.0
 11
832.6664074431898
 21
2049.937499999994
 31
0.0
  0
LINE
  5
F0
330
87
100
AcDbEntity
  8
P-SANR-FIXT
100
AcDbLine
 10
799.6664074431889
 20
1953.437499999998
 30
0.0
 11
815.6664074431892
 21
1953.437499999998
 31
0.0
  0
LINE
  5
F1
330
87
100
AcDbEntity
  8
P-SANR-FIXT
100
AcDbLine
 10
784.4664074431892
 20
1994.887499999998
 30
0.0
 11
773.1664074431891
 21
1994.887499999998
 31
0.0
  0
LINE
  5
F2
330
87
100
AcDbEntity
  8
P-SANR-FIXT
100
AcDbLine
 10
773.1664074431891
 20
1946.987499999998
 30
0.0
 11
784.4664074431889
 21
1946.987499999998
 31
0.0
  0
LINE
  5
F3
330
87
100
AcDbEntity
  8
P-SANR-FIXT
100
AcDbLine
 10
789.1664074431881
 20
2025.937499999995
 30
0.0
 11
781.1664074431882
 21
2020.337499999994
 31
0.0
  0
LINE
  5
F4
330
87
100
AcDbEntity
  8
P-SANR-FIXT
100
AcDbLine
 10
850.16640744319
 20
2020.337499999994
 30
0.0
 11
842.1664074431898
 21
2025.937499999995
 31
0.0
  0
LINE
  5
F5
330
87
100
AcDbEntity
  8
P-SANR-FIXT
100
AcDbLine
 10
781.1664074431882
 20
2020.337499999994
 30
0.0
 11
781.1664074431879
 21
2013.934701883361
 31
0.0
  0
LINE
  5
F6
330
87
100
AcDbEntity
  8
P-SANR-FIXT
100
AcDbLine
 10
850.16640744319
 20
2013.934701883361
 30
0.0
 11
850.16640744319
 21
2020.337499999994
 31
0.0
  0
LINE
  5
F7
330
87
100
AcDbEntity
  8
P-SANR-FIXT
100
AcDbLine
 10
781.1664074431882
 20
2013.934701883361
 30
0.0
 11
782.1636093265541
 21
2012.937499999995
 31
0.0
  0
LINE
  5
F8
330
87
100
AcDbEntity
  8
P-SANR-FIXT
100
AcDbLine
 10
849.1692055598239
 20
2012.937499999995
 30
0.0
 11
850.16640744319
 21
2013.934701883361
 31
0.0
  0
LINE
  5
F9
330
87
100
AcDbEntity
  8
P-SANR-FIXT
100
AcDbLine
 10
786.3941716788964
 20
2012.937499999995
 30
0.0
 11
788.9922478902096
 21
2011.437500000018
 31
0.0
  0
LINE
  5
FA
330
87
100
AcDbEntity
  8
P-SANR-FIXT
100
AcDbLine
 10
842.3405669961685
 20
2011.437500000018
 30
0.0
 11
844.9386432074817
 21
2012.937499999995
 31
0.0
  0
LINE
  5
FB
330
87
100
AcDbEntity
  8
P-SANR-FIXT
100
AcDbLine
 10
797.1664074432185
 20
2011.437500000018
 30
0.0
 11
797.1664074432185
 21
2006.437500000016
 31
0.0
  0
LINE
  5
FC
330
87
100
AcDbEntity
  8
P-SANR-FIXT
100
AcDbLine
 10
834.1664074431594
 20
2006.437500000016
 30
0.0
 11
834.1664074431594
 21
2011.437500000018
 31
0.0
  0
LINE
  5
FD
330
87
100
AcDbEntity
  8
P-SANR-FIXT
100
AcDbLine
 10
798.6664074431883
 20
2043.934701883424
 30
0.0
 11
789.6664074431887
 21
2043.934701883424
 31
0.0
  0
LINE
  5
FE
330
87
100
AcDbEntity
  8
P-SANR-FIXT
100
AcDbLine
 10
789.6664074431883
 20
2029.934701883298
 30
0.0
 11
798.6664074431883
 21
2029.934701883298
 31
0.0
  0
LINE
  5
FF
330
87
100
AcDbEntity
  8
P-SANR-FIXT
100
AcDbLine
 10
858.1664074431891
 20
1994.887499999999
 30
0.0
 11
846.8664074431892
 21
1994.887499999999
 31
0.0
  0
LINE
  5
100
330
87
100
AcDbEntity
  8
P-SANR-FIXT
100
AcDbLine
 10
846.8664074431897
 20
1946.987499999997
 30
0.0
 11
858.1664074431891
 21
1946.987499999997
 31
0.0
  0
LINE
  5
101
330
87
100
AcDbEntity
  8
P-SANR-FIXT
100
AcDbLine
 10
846.8664074431892
 20
1994.887499999998
 30
0.0
 11
841.4164074431891
 21
1989.437499999998
 31
0.0
  0
LINE
  5
102
330
87
100
AcDbEntity
  8
P-SANR-FIXT
100
AcDbLine
 10
841.4164074431891
 20
1952.437499999998
 30
0.0
 11
846.8664074431897
 21
1946.987499999997
 31
0.0
  0
LINE
  5
103
330
87
100
AcDbEntity
  8
P-SANR-FIXT
100
AcDbLine
 10
841.4164074431891
 20
1989.437499999998
 30
0.0
 11
837.1664074431892
 21
1989.437499999998
 31
0.0
  0
LINE
  5
104
330
87
100
AcDbEntity
  8
P-SANR-FIXT
100
AcDbLine
 10
832.666407443189
 20
1952.437499999998
 30
0.0
 11
841.4164074431891
 21
1952.437499999998
 31
0.0
  0
LINE
  5
105
330
87
100
AcDbEntity
  8
P-SANR-FIXT
100
AcDbLine
 10
831.6664074431892
 20
1953.437499999998
 30
0.0
 11
832.666407443189
 21
1952.437499999998
 31
0.0
  0
LINE
  5
106
330
87
100
AcDbEntity
  8
P-SANR-FIXT
100
AcDbLine
 10
815.6664074431892
 20
1953.437499999998
 30
0.0
 11
831.6664074431892
 21
1953.437499999998
 31
0.0
  0
LINE
  5
107
330
87
100
AcDbEntity
  8
P-SANR-FIXT
100
AcDbLine
 10
798.6664074431891
 20
1952.437499999998
 30
0.0
 11
799.6664074431889
 21
1953.437499999998
 31
0.0
  0
LINE
  5
108
330
87
100
AcDbEntity
  8
P-SANR-FIXT
100
AcDbLine
 10
789.9164074431892
 20
1989.437499999998
 30
0.0
 11
784.5206765607352
 21
1994.833230882452
 31
0.0
  0
LINE
  5
109
330
87
100
AcDbEntity
  8
P-SANR-FIXT
100
AcDbLine
 10
784.5061002650257
 20
1994.847807178162
 30
0.0
 11
784.4664074431892
 21
1994.887499999998
 31
0.0
  0
LINE
  5
10A
330
87
100
AcDbEntity
  8
P-SANR-FIXT
100
AcDbLine
 10
784.4664074431889
 20
1946.987499999998
 30
0.0
 11
789.9164074431892
 21
1952.437499999998
 31
0.0
  0
LINE
  5
10B
330
87
100
AcDbEntity
  8
P-SANR-FIXT
100
AcDbLine
 10
837.1664074431878
 20
1996.937499999997
 30
0.0
 11
794.1664074431878
 21
1996.937499999997
 31
0.0
  0
SPLINE
  5
10C
330
87
100
AcDbEntity
  8
P-SANR-FIXT
100
AcDbSpline
210
0.0
220
0.0
230
1.0
 70
     8
 71
     3
 72
    13
 73
     9
 74
     0
 42
0.000000001
 43
0.0000000001
 40
0.0
 40
0.0
 40
0.0
 40
0.0
 40
0.25
 40
0.375
 40
0.5
 40
0.625
 40
0.75
 40
1.0
 40
1.0
 40
1.0
 40
1.0
 10
794.1664074431878
 20
1989.437499999997
 30
0.0
 10
794.1664074431878
 20
1989.427025956009
 30
0.0
 10
794.3454192245687
 20
1989.233600964947
 30
0.0
 10
794.9007511649991
 20
1988.577218803775
 30
0.0
 10
795.4584955564313
 20
1987.920560319124
 30
0.0
 10
796.1327796325684
 20
1987.113771348889
 30
0.0
 10
797.1641800196946
 20
1985.854269218834
 30
0.0
 10
798.0490205512119
 20
1984.754065868391
 30
0.0
 10
798.6664074431878
 20
1983.937499999997
 30
0.0
  0
SPLINE
  5
10D
330
87
100
AcDbEntity
  8
P-SANR-FIXT
100
AcDbSpline
210
0.0
220
0.0
230
1.0
 70
     8
 71
     3
 72
     9
 73
     5
 74
     0
 42
0.000000001
 43
0.0000000001
 40
0.0
 40
0.0
 40
0.0
 40
0.0
 40
0.5
 40
1.0
 40
1.0
 40
1.0
 40
1.0
 10
798.6664074431878
 20
1983.937499999997
 30
0.0
 10
798.8439140025432
 20
1983.452899131965
 30
0.0
 10
799.1899948500591
 20
1982.468298263932
 30
0.0
 10
799.5123823272268
 20
1981.452899131965
 30
0.0
 10
799.6664074431878
 20
1980.937499999997
 30
0.0
  0
SPLINE
  5
10E
330
87
100
AcDbEntity
  8
P-SANR-FIXT
100
AcDbSpline
210
0.0
220
0.0
230
1.0
 70
     8
 71
     3
 72
     9
 73
     5
 74
     0
 42
0.000000001
 43
0.0000000001
 40
0.0
 40
0.0
 40
0.0
 40
0.0
 40
0.5
 40
1.0
 40
1.0
 40
1.0
 40
1.0
 10
799.6664074431878
 20
1980.937499999997
 30
0.0
 10
799.7705692572329
 20
1980.770908442147
 30
0.0
 10
799.9778604397447
 20
1980.434114425187
 30
0.0
 10
800.1824885406009
 20
1980.090098605705
 30
0.0
 10
800.2839959130712
 20
1979.916285245334
 30
0.0
  0
SPLINE
  5
10F
330
87
100
AcDbEntity
  8
P-SANR-FIXT
100
AcDbSpline
210
0.0
220
0.0
230
1.0
 70
     8
 71
     3
 72
     8
 73
     4
 74
     0
 42
0.000000001
 43
0.0000000001
 40
0.0520895987666501
 40
0.0520895987666501
 40
0.0520895987666501
 40
0.0520895987666501
 40
0.0714285714285714
 40
0.0714285714285714
 40
0.0714285714285714
 40
0.0714285714285714
 10
800.8384057737325
 20
1979.865289530913
 30
0.0
 10
800.9078160242179
 20
1979.856217077602
 30
0.0
 10
800.9775278262884
 20
1979.846131701449
 30
0.0
 10
801.0475464633934
 20
1979.835047158779
 30
0.0
  0
SPLINE
  5
110
330
87
100
AcDbEntity
  8
P-SANR-FIXT
100
AcDbSpline
210
0.0
220
0.0
230
1.0
 70
     8
 71
     3
 72
     8
 73
     4
 74
     0
 42
0.000000001
 43
0.0000000001
 40
0.1428571428571428
 40
0.1428571428571428
 40
0.1428571428571428
 40
0.1428571428571428
 40
0.1568920180727624
 40
0.1568920180727624
 40
0.1568920180727624
 40
0.1568920180727624
 10
801.8362125159072
 20
1979.672026085962
 30
0.0
 10
801.8887243445853
 20
1979.658761324822
 30
0.0
 10
801.9414080744306
 20
1979.64499709584
 30
0.0
 10
801.9942400524978
 20
1979.630718495627
 30
0.0
  0
SPLINE
  5
111
330
87
100
AcDbEntity
  8
P-SANR-FIXT
100
AcDbSpline
210
0.0
220
0.0
230
1.0
 70
     8
 71
     3
 72
     8
 73
     4
 74
     0
 42
0.000000001
 43
0.0000000001
 40
0.2142857142857143
 40
0.2142857142857143
 40
0.2142857142857143
 40
0.2142857142857143
 40
0.2857142857142857
 40
0.2857142857142857
 40
0.2857142857142857
 40
0.2857142857142857
 10
802.6482073112294
 20
1979.428722867265
 30
0.0
 10
802.9212469578068
 20
1979.33337597019
 30
0.0
 10
803.1956195176604
 20
1979.223126424789
 30
0.0
 10
803.4682039462605
 20
1979.095094213319
 30
0.0
  0
SPLINE
  5
112
330
87
100
AcDbEntity
  8
P-SANR-FIXT
100
AcDbSpline
210
0.0
220
0.0
230
1.0
 70
     8
 71
     3
 72
     8
 73
     4
 74
     0
 42
0.000000001
 43
0.0000000001
 40
0.3467802969355618
 40
0.3467802969355618
 40
0.3467802969355618
 40
0.3467802969355618
 40
0.3571428571428571
 40
0.3571428571428571
 40
0.3571428571428571
 40
0.3571428571428571
 10
804.1665100562793
 20
1978.730127104621
 30
0.0
 10
804.205925834988
 20
1978.707491441588
 30
0.0
 10
804.2452675832821
 20
1978.684515756918
 30
0.0
 10
804.2844987123185
 20
1978.661200290702
 30
0.0
  0
SPLINE
  5
113
330
87
100
AcDbEntity
  8
P-SANR-FIXT
100
AcDbSpline
210
0.0
220
0.0
230
1.0
 70
     8
 71
     3
 72
     8
 73
     4
 74
     0
 42
0.000000001
 43
0.0000000001
 40
0.4285714285714286
 40
0.4285714285714286
 40
0.4285714285714286
 40
0.4285714285714286
 40
0.4348613498278385
 40
0.4348613498278385
 40
0.4348613498278385
 40
0.4348613498278385
 10
805.0787433030494
 20
1978.128231571962
 30
0.0
 10
805.1015378784438
 20
1978.111037566268
 30
0.0
 10
805.1242797525331
 20
1978.093698589917
 30
0.0
 10
805.1469678538387
 20
1978.076217675352
 30
0.0
  0
SPLINE
  5
114
330
87
100
AcDbEntity
  8
P-SANR-FIXT
100
AcDbSpline
210
0.0
220
0.0
230
1.0
 70
     8
 71
     3
 72
     8
 73
     4
 74
     0
 42
0.000000001
 43
0.0000000001
 40
0.5
 40
0.5
 40
0.5
 40
0.5
 40
0.5185485407817687
 40
0.5185485407817687
 40
0.5185485407817687
 40
0.5185485407817687
 10
805.8333531926596
 20
1977.490819205691
 30
0.0
 10
805.896461689451
 20
1977.4314469279
 30
0.0
 10
805.9590691175923
 20
1977.371137646381
 30
0.0
 10
806.0210040133016
 20
1977.309812173997
 30
0.0
  0
SPLINE
  5
115
330
87
100
AcDbEntity
  8
P-SANR-FIXT
100
AcDbSpline
210
0.0
220
0.0
230
1.0
 70
     8
 71
     3
 72
     9
 73
     5
 74
     0
 42
0.000000001
 43
0.0000000001
 40
0.5714285714285714
 40
0.5714285714285714
 40
0.5714285714285714
 40
0.5714285714285714
 40
0.6785714285714287
 40
0.7142857142857141
 40
0.7142857142857141
 40
0.7142857142857141
 40
0.7142857142857141
 10
806.5303432726945
 20
1976.758701330342
 30
0.0
 10
806.8613122286844
 20
1976.369109731427
 30
0.0
 10
807.2502175742481
 20
1975.797055592941
 30
0.0
 10
807.6103550482418
 20
1975.190692350097
 30
0.0
 10
807.6947821137034
 20
1975.036175662859
 30
0.0
  0
SPLINE
  5
116
330
87
100
AcDbEntity
  8
P-SANR-FIXT
100
AcDbSpline
210
0.0
220
0.0
230
1.0
 70
     8
 71
     3
 72
     8
 73
     4
 74
     0
 42
0.000000001
 43
0.0000000001
 40
0.7625295976833874
 40
0.7625295976833874
 40
0.7625295976833874
 40
0.7625295976833874
 40
0.7857142857142857
 40
0.7857142857142857
 40
0.7857142857142857
 40
0.7857142857142857
 10
807.9784711337607
 20
1974.38607791308
 30
0.0
 10
808.022177340152
 20
1974.280769089603
 30
0.0
 10
808.0658181656422
 20
1974.175154565406
 30
0.0
 10
808.1035823815165
 20
1974.067712561073
 30
0.0
  0
SPLINE
  5
117
330
87
100
AcDbEntity
  8
P-SANR-FIXT
100
AcDbSpline
210
0.0
220
0.0
230
1.0
 70
     8
 71
     3
 72
     8
 73
     4
 74
     0
 42
0.000000001
 43
0.0000000001
 40
0.8420611639088479
 40
0.8420611639088479
 40
0.8420611639088479
 40
0.8420611639088479
 40
0.8571428571428569
 40
0.8571428571428569
 40
0.8571428571428569
 40
0.8571428571428569
 10
808.3564580774879
 20
1973.275588502547
 30
0.0
 10
808.3757451763529
 20
1973.203820335355
 30
0.0
 10
808.3925023364111
 20
1973.131345136092
 30
0.0
 10
808.4071965899703
 20
1973.058292855248
 30
0.0
  0
SPLINE
  5
118
330
87
100
AcDbEntity
  8
P-SANR-FIXT
100
AcDbSpline
210
0.0
220
0.0
230
1.0
 70
     8
 71
     3
 72
     8
 73
     4
 74
     0
 42
0.000000001
 43
0.0000000001
 40
0.9216711115583276
 40
0.9216711115583276
 40
0.9216711115583276
 40
0.9216711115583276
 40
0.9285714285714282
 40
0.9285714285714282
 40
0.9285714285714282
 40
0.9285714285714282
 10
808.587392264004
 20
1972.116688160573
 30
0.0
 10
808.5918913720036
 20
1972.082593558304
 30
0.0
 10
808.5958481944432
 20
1972.048367099165
 30
0.0
 10
808.5993553204755
 20
1972.014031246477
 30
0.0
  0
SPLINE
  5
119
330
87
100
AcDbEntity
  8
P-SANR-FIXT
100
AcDbSpline
210
0.0
220
0.0
230
1.0
 70
     8
 71
     3
 72
     8
 73
     4
 74
     0
 42
0.000000001
 43
0.0000000001
 40
0.0714285714285714
 40
0.0714285714285714
 40
0.0714285714285714
 40
0.0714285714285714
 40
0.0783288884416601
 40
0.0783288884416601
 40
0.0783288884416601
 40
0.0783288884416601
 10
822.7332544782875
 20
1972.016252147501
 30
0.0
 10
822.7374129640258
 20
1972.05055324045
 30
0.0
 10
822.7417627719798
 20
1972.084807366386
 30
0.0
 10
822.7463031894286
 20
1972.119013130155
 30
0.0
  0
SPLINE
  5
11A
330
87
100
AcDbEntity
  8
P-SANR-FIXT
100
AcDbSpline
210
0.0
220
0.0
230
1.0
 70
     8
 71
     3
 72
     8
 73
     4
 74
     0
 42
0.000000001
 43
0.0000000001
 40
0.1428571428571428
 40
0.1428571428571428
 40
0.1428571428571428
 40
0.1428571428571428
 40
0.1579388360911393
 40
0.1579388360911393
 40
0.1579388360911393
 40
0.1579388360911393
 10
822.923105749895
 20
1973.064809403208
 30
0.0
 10
822.9406850485755
 20
1973.137327724004
 30
0.0
 10
822.9591430689536
 20
1973.209552679498
 30
0.0
 10
822.9784723690096
 20
1973.281469704268
 30
0.0
  0
SPLINE
  5
11B
330
87
100
AcDbEntity
  8
P-SANR-FIXT
100
AcDbSpline
210
0.0
220
0.0
230
1.0
 70
     8
 71
     3
 72
     8
 73
     4
 74
     0
 42
0.000000001
 43
0.0000000001
 40
0.2142857142857143
 40
0.2142857142857143
 40
0.2142857142857143
 40
0.2142857142857143
 40
0.2374704023165936
 40
0.2374704023165936
 40
0.2374704023165936
 40
0.2374704023165936
 10
823.231218658268
 20
1974.073885611399
 30
0.0
 10
823.2707816285103
 20
1974.18059208848
 30
0.0
 10
823.3123379254045
 20
1974.286442217477
 30
0.0
 10
823.3558605076009
 20
1974.391383101044
 30
0.0
  0
SPLINE
  5
11C
330
87
100
AcDbEntity
  8
P-SANR-FIXT
100
AcDbSpline
210
0.0
220
0.0
230
1.0
 70
     8
 71
     3
 72
     8
 73
     4
 74
     0
 42
0.000000001
 43
0.0000000001
 40
0.2857142857142857
 40
0.2857142857142857
 40
0.2857142857142857
 40
0.2857142857142857
 40
0.4285714285714286
 40
0.4285714285714286
 40
0.4285714285714286
 40
0.4285714285714286
 10
823.6528506036641
 20
1975.034194616359
 30
0.0
 10
823.9707243352157
 20
1975.656081295096
 30
0.0
 10
824.3611153746011
 20
1976.239268356664
 30
0.0
 10
824.8024716136811
 20
1976.758701330343
 30
0.0
  0
SPLINE
  5
11D
330
87
100
AcDbEntity
  8
P-SANR-FIXT
100
AcDbSpline
210
0.0
220
0.0
230
1.0
 70
     8
 71
     3
 72
     8
 73
     4
 74
     0
 42
0.000000001
 43
0.0000000001
 40
0.4814514592182065
 40
0.4814514592182065
 40
0.4814514592182065
 40
0.4814514592182065
 40
0.5
 40
0.5
 40
0.5
 40
0.5
 10
825.3122124204541
 20
1977.309635085028
 30
0.0
 10
825.3739518440578
 20
1977.371061217819
 30
0.0
 10
825.4363873506633
 20
1977.431451075281
 30
0.0
 10
825.4994616937162
 20
1977.490819205691
 30
0.0
  0
SPLINE
  5
11E
330
87
100
AcDbEntity
  8
P-SANR-FIXT
100
AcDbSpline
210
0.0
220
0.0
230
1.0
 70
     8
 71
     3
 72
     8
 73
     4
 74
     0
 42
0.000000001
 43
0.0000000001
 40
0.5651386501721147
 40
0.5651386501721147
 40
0.5651386501721147
 40
0.5651386501721147
 40
0.5714285714285714
 40
0.5714285714285714
 40
0.5714285714285714
 40
0.5714285714285714
 10
826.1857215207291
 20
1978.076209159148
 30
0.0
 10
826.2084495921483
 20
1978.093689154173
 30
0.0
 10
826.2312335189799
 20
1978.11103074973
 30
0.0
 10
826.2540715833264
 20
1978.128231571962
 30
0.0
  0
SPLINE
  5
11F
330
87
100
AcDbEntity
  8
P-SANR-FIXT
100
AcDbSpline
210
0.0
220
0.0
230
1.0
 70
     8
 71
     3
 72
     8
 73
     4
 74
     0
 42
0.000000001
 43
0.0000000001
 40
0.6428571428571427
 40
0.6428571428571427
 40
0.6428571428571427
 40
0.6428571428571427
 40
0.6532197030644062
 40
0.6532197030644062
 40
0.6532197030644062
 40
0.6532197030644062
 10
827.0495138745626
 20
1978.661443355077
 30
0.0
 10
827.0886494461448
 20
1978.684752216537
 30
0.0
 10
827.127856980655
 20
1978.707711793157
 30
0.0
 10
827.1671257519217
 20
1978.730327855442
 30
0.0
  0
SPLINE
  5
120
330
87
100
AcDbEntity
  8
P-SANR-FIXT
100
AcDbSpline
210
0.0
220
0.0
230
1.0
 70
     8
 71
     3
 72
     9
 73
     5
 74
     0
 42
0.000000001
 43
0.0000000001
 40
0.7142857142857141
 40
0.7142857142857141
 40
0.7142857142857141
 40
0.7142857142857141
 40
0.7321428571428572
 40
0.7857142857142857
 40
0.7857142857142857
 40
0.7857142857142857
 40
0.7857142857142857
 10
827.8647168821111
 20
1979.095051088312
 30
0.0
 10
827.9326553760409
 20
1979.127158559669
 30
0.0
 10
828.2042775256085
 20
1979.251259253468
 30
0.0
 10
828.4795042174261
 20
1979.358315423377
 30
0.0
 10
828.6846075751466
 20
1979.428722867265
 30
0.0
  0
SPLINE
  5
121
330
87
100
AcDbEntity
  8
P-SANR-FIXT
100
AcDbSpline
210
0.0
220
0.0
230
1.0
 70
     8
 71
     3
 72
     8
 73
     4
 74
     0
 42
0.000000001
 43
0.0000000001
 40
0.8431079819271927
 40
0.8431079819271927
 40
0.8431079819271927
 40
0.8431079819271927
 40
0.8571428571428569
 40
0.8571428571428569
 40
0.8571428571428569
 40
0.8571428571428569
 10
829.3390612330918
 20
1979.630339768253
 30
0.0
 10
829.3917734710474
 20
1979.644708285863
 30
0.0
 10
829.4444366662682
 20
1979.65908224464
 30
0.0
 10
829.4969487024349
 20
1979.673033665383
 30
0.0
  0
SPLINE
  5
122
330
87
100
AcDbEntity
  8
P-SANR-FIXT
100
AcDbSpline
210
0.0
220
0.0
230
1.0
 70
     8
 71
     3
 72
     8
 73
     4
 74
     0
 42
0.000000001
 43
0.0000000001
 40
0.9285714285714282
 40
0.9285714285714282
 40
0.9285714285714282
 40
0.9285714285714282
 40
0.9479104012332863
 40
0.9479104012332863
 40
0.9479104012332863
 40
0.9479104012332863
 10
830.284306569619
 20
1979.835826965848
 30
0.0
 10
830.3544026928044
 20
1979.846848981994
 30
0.0
 10
830.4237603430255
 20
1979.855369082935
 30
0.0
 10
830.4927374356729
 20
1979.862592386222
 30
0.0
  0
SPLINE
  5
123
330
87
100
AcDbEntity
  8
P-SANR-FIXT
100
AcDbSpline
210
0.0
220
0.0
230
1.0
 70
     8
 71
     3
 72
     9
 73
     5
 74
     0
 42
0.000000001
 43
0.0000000001
 40
0.0
 40
0.0
 40
0.0
 40
0.0
 40
0.5
 40
1.0
 40
1.0
 40
1.0
 40
1.0
 10
831.0488189733046
 20
1979.916285245333
 30
0.0
 10
831.1503263457753
 20
1980.090098605704
 30
0.0
 10
831.3549544466312
 20
1980.434114425186
 30
0.0
 10
831.5622456291428
 20
1980.770908442147
 30
0.0
 10
831.666407443188
 20
1980.937499999997
 30
0.0
  0
SPLINE
  5
124
330
87
100
AcDbEntity
  8
P-SANR-FIXT
100
AcDbSpline
210
0.0
220
0.0
230
1.0
 70
     8
 71
     3
 72
     9
 73
     5
 74
     0
 42
0.000000001
 43
0.0000000001
 40
0.0
 40
0.0
 40
0.0
 40
0.0
 40
0.5
 40
1.0
 40
1.0
 40
1.0
 40
1.0
 10
831.666407443188
 20
1980.937499999997
 30
0.0
 10
831.8204325591487
 20
1981.452899131964
 30
0.0
 10
832.1428200363163
 20
1982.468298263932
 30
0.0
 10
832.4889008838324
 20
1983.452899131965
 30
0.0
 10
832.6664074431878
 20
1983.937499999997
 30
0.0
  0
SPLINE
  5
125
330
87
100
AcDbEntity
  8
P-SANR-FIXT
100
AcDbSpline
210
0.0
220
0.0
230
1.0
 70
     8
 71
     3
 72
    13
 73
     9
 74
     0
 42
0.000000001
 43
0.0000000001
 40
0.0
 40
0.0
 40
0.0
 40
0.0
 40
0.25
 40
0.375
 40
0.5
 40
0.625
 40
0.75
 40
1.0
 40
1.0
 40
1.0
 40
1.0
 10
832.6664074431878
 20
1983.937499999997
 30
0.0
 10
833.2837943351638
 20
1984.75406586839
 30
0.0
 10
834.1686348666812
 20
1985.854269218833
 30
0.0
 10
835.2000352538073
 20
1987.113771348889
 30
0.0
 10
835.8743193299444
 20
1987.920560319124
 30
0.0
 10
836.4320637213765
 20
1988.577218803775
 30
0.0
 10
836.9873956618068
 20
1989.233600964947
 30
0.0
 10
837.1664074431878
 20
1989.427025956008
 30
0.0
 10
837.1664074431878
 20
1989.437499999997
 30
0.0
  0
LINE
  5
126
330
87
100
AcDbEntity
  8
P-SANR-FIXT
100
AcDbLine
 10
798.6664074431877
 20
1952.437499999997
 30
0.0
 11
798.6664074431877
 21
1961.993228089998
 31
0.0
  0
SPLINE
  5
127
330
87
100
AcDbEntity
  8
P-SANR-FIXT
100
AcDbSpline
210
0.0
220
0.0
230
1.0
 70
     8
 71
     3
 72
     8
 73
     4
 74
     0
 42
0.000000001
 43
0.0000000001
 40
0.0
 40
0.0
 40
0.0
 40
0.0
 40
0.0132256520399186
 40
0.0132256520399186
 40
0.0132256520399186
 40
0.0132256520399186
 10
798.6664074431877
 20
1961.993228089998
 30
0.0
 10
798.606788943419
 20
1962.000559954976
 30
0.0
 10
798.5474133814359
 20
1962.0083595593
 30
0.0
 10
798.4882771834553
 20
1962.016632775603
 30
0.0
  0
SPLINE
  5
128
330
87
100
AcDbEntity
  8
P-SANR-FIXT
100
AcDbSpline
210
0.0
220
0.0
230
1.0
 70
     8
 71
     3
 72
     8
 73
     4
 74
     0
 42
0.000000001
 43
0.0000000001
 40
0.0833333333333333
 40
0.0833333333333333
 40
0.0833333333333333
 40
0.0833333333333333
 40
0.1015574353320195
 40
0.1015574353320195
 40
0.1015574353320195
 40
0.1015574353320195
 10
797.5674999825664
 20
1962.188998293014
 30
0.0
 10
797.4893724774182
 20
1962.207544430306
 30
0.0
 10
797.4117098779032
 20
1962.227086495008
 30
0.0
 10
797.3344723970535
 20
1962.247615203423
 30
0.0
  0
SPLINE
  5
129
330
87
100
AcDbEntity
  8
P-SANR-FIXT
100
AcDbSpline
210
0.0
220
0.0
230
1.0
 70
     8
 71
     3
 72
     8
 73
     4
 74
     0
 42
0.000000001
 43
0.0000000001
 40
0.1666666666666666
 40
0.1666666666666666
 40
0.1666666666666666
 40
0.1666666666666666
 40
0.1916443117032134
 40
0.1916443117032134
 40
0.1916443117032134
 40
0.1916443117032134
 10
796.5210980642873
 20
1962.505001621047
 30
0.0
 10
796.4189957328486
 20
1962.542873525613
 30
0.0
 10
796.3173652681174
 20
1962.582509959398
 30
0.0
 10
796.2163840920589
 20
1962.623927660509
 30
0.0
  0
SPLINE
  5
12A
330
87
100
AcDbEntity
  8
P-SANR-FIXT
100
AcDbSpline
210
0.0
220
0.0
230
1.0
 70
     8
 71
     3
 72
     8
 73
     4
 74
     0
 42
0.000000001
 43
0.0000000001
 40
0.25
 40
0.25
 40
0.25
 40
0.25
 40
0.2820104037522697
 40
0.2820104037522697
 40
0.2820104037522697
 40
0.2820104037522697
 10
795.5254137063844
 20
1962.946404563787
 30
0.0
 10
795.4016295245263
 20
1963.010626282134
 30
0.0
 10
795.278974869834
 20
1963.077431863646
 30
0.0
 10
795.158092097102
 20
1963.147006869612
 30
0.0
  0
SPLINE
  5
12B
330
87
100
AcDbEntity
  8
P-SANR-FIXT
100
AcDbSpline
210
0.0
220
0.0
230
1.0
 70
     8
 71
     3
 72
     8
 73
     4
 74
     0
 42
0.000000001
 43
0.0000000001
 40
0.3333333333333333
 40
0.3333333333333333
 40
0.3333333333333333
 40
0.3333333333333333
 40
0.5
 40
0.5
 40
0.5
 40
0.5
 10
794.5929627826203
 20
1963.503782270882
 30
0.0
 10
793.9959826087559
 20
1963.911120622539
 30
0.0
 10
793.4735222021134
 20
1964.397120337915
 30
0.0
 10
793.003725670359
 20
1964.936862064497
 30
0.0
  0
SPLINE
  5
12C
330
87
100
AcDbEntity
  8
P-SANR-FIXT
100
AcDbSpline
210
0.0
220
0.0
230
1.0
 70
     8
 71
     3
 72
     8
 73
     4
 74
     0
 42
0.000000001
 43
0.0000000001
 40
0.5529390315757674
 40
0.5529390315757674
 40
0.5529390315757674
 40
0.5529390315757674
 40
0.5833333333333333
 40
0.5833333333333333
 40
0.5833333333333333
 40
0.5833333333333333
 10
792.5328463734043
 20
1965.448774069796
 30
0.0
 10
792.4527481630382
 20
1965.55291516551
 30
0.0
 10
792.3759400285169
 20
1965.659336530763
 30
0.0
 10
792.301630863611
 20
1965.767634186974
 30
0.0
  0
SPLINE
  5
12D
330
87
100
AcDbEntity
  8
P-SANR-FIXT
100
AcDbSpline
210
0.0
220
0.0
230
1.0
 70
     8
 71
     3
 72
     8
 73
     4
 74
     0
 42
0.000000001
 43
0.0000000001
 40
0.643709862317299
 40
0.643709862317299
 40
0.643709862317299
 40
0.643709862317299
 40
0.6666666666666666
 40
0.6666666666666666
 40
0.6666666666666666
 40
0.6666666666666666
 10
791.8764174619118
 20
1966.429740299552
 30
0.0
 10
791.8263818803857
 20
1966.516345817974
 30
0.0
 10
791.7784403882058
 20
1966.60414603161
 30
0.0
 10
791.7304718074245
 20
1966.692393925348
 30
0.0
  0
SPLINE
  5
12E
330
87
100
AcDbEntity
  8
P-SANR-FIXT
100
AcDbSpline
210
0.0
220
0.0
230
1.0
 70
     8
 71
     3
 72
     8
 73
     4
 74
     0
 42
0.000000001
 43
0.0000000001
 40
0.7337348338498923
 40
0.7337348338498923
 40
0.7337348338498923
 40
0.7337348338498923
 40
0.75
 40
0.75
 40
0.75
 40
0.75
 10
791.3533472777953
 20
1967.489857749304
 30
0.0
 10
791.3259365485843
 20
1967.555944123485
 30
0.0
 10
791.2985156836186
 20
1967.622172736414
 30
0.0
 10
791.2714796405438
 20
1967.688621847305
 30
0.0
  0
SPLINE
  5
12F
330
87
100
AcDbEntity
  8
P-SANR-FIXT
100
AcDbSpline
210
0.0
220
0.0
230
1.0
 70
     8
 71
     3
 72
     8
 73
     4
 74
     0
 42
0.000000001
 43
0.0000000001
 40
0.8230403954553899
 40
0.8230403954553899
 40
0.8230403954553899
 40
0.8230403954553899
 40
0.8333333333333332
 40
0.8333333333333332
 40
0.8333333333333332
 40
0.8333333333333332
 10
790.9735559365876
 20
1968.606238613233
 30
0.0
 10
790.96181338972
 20
1968.650027632546
 30
0.0
 10
790.9500965155708
 20
1968.69382110771
 30
0.0
 10
790.9393491833933
 20
1968.737851362111
 30
0.0
  0
SPLINE
  5
130
330
87
100
AcDbEntity
  8
P-SANR-FIXT
100
AcDbSpline
210
0.0
220
0.0
230
1.0
 70
     8
 71
     3
 72
     8
 73
     4
 74
     0
 42
0.000000001
 43
0.0000000001
 40
0.9122815265419518
 40
0.9122815265419518
 40
0.9122815265419518
 40
0.9122815265419518
 40
0.9166666666666667
 40
0.9166666666666667
 40
0.9166666666666667
 40
0.9166666666666667
 10
790.7447756620139
 20
1969.763233538593
 30
0.0
 10
790.7422725458316
 20
1969.782486133404
 30
0.0
 10
790.7399429363968
 20
1969.801784440215
 30
0.0
 10
790.7377697882337
 20
1969.821123965233
 30
0.0
  0
SPLINE
  5
131
330
87
100
AcDbEntity
  8
P-SANR-FIXT
100
AcDbSpline
210
0.0
220
0.0
230
1.0
 70
     8
 71
     3
 72
     8
 73
     4
 74
     0
 42
0.000000001
 43
0.0000000001
 40
0.0833333333333333
 40
0.0833333333333333
 40
0.0833333333333333
 40
0.0833333333333333
 40
0.0877184734580739
 40
0.0877184734580739
 40
0.0877184734580739
 40
0.0877184734580739
 10
790.7374476853435
 20
1972.053962742287
 30
0.0
 10
790.7398299189017
 20
1972.073245983185
 30
0.0
 10
790.7422750554186
 20
1972.092511421337
 30
0.0
 10
790.7447827945994
 20
1972.11175951166
 30
0.0
  0
SPLINE
  5
132
330
87
100
AcDbEntity
  8
P-SANR-FIXT
100
AcDbSpline
210
0.0
220
0.0
230
1.0
 70
     8
 71
     3
 72
     8
 73
     4
 74
     0
 42
0.000000001
 43
0.0000000001
 40
0.1666666666666666
 40
0.1666666666666666
 40
0.1666666666666666
 40
0.1666666666666666
 40
0.1769596045446272
 40
0.1769596045446272
 40
0.1769596045446272
 40
0.1769596045446272
 10
790.9393491833933
 20
1973.137148637883
 30
0.0
 10
790.9504098987193
 20
1973.181099201754
 30
0.0
 10
790.961779948076
 20
1973.225009116087
 30
0.0
 10
790.973461807485
 20
1973.268864824152
 30
0.0
  0
SPLINE
  5
133
330
87
100
AcDbEntity
  8
P-SANR-FIXT
100
AcDbSpline
210
0.0
220
0.0
230
1.0
 70
     8
 71
     3
 72
     8
 73
     4
 74
     0
 42
0.000000001
 43
0.0000000001
 40
0.25
 40
0.25
 40
0.25
 40
0.25
 40
0.2662651661501319
 40
0.2662651661501319
 40
0.2662651661501319
 40
0.2662651661501319
 10
791.2734279722748
 20
1974.185840768825
 30
0.0
 10
791.2992918872864
 20
1974.252613173074
 30
0.0
 10
791.3258535794828
 20
1974.319159014837
 30
0.0
 10
791.3531469527151
 20
1974.385391273439
 30
0.0
  0
SPLINE
  5
134
330
87
100
AcDbEntity
  8
P-SANR-FIXT
100
AcDbSpline
210
0.0
220
0.0
230
1.0
 70
     8
 71
     3
 72
     8
 73
     4
 74
     0
 42
0.000000001
 43
0.0000000001
 40
0.3333333333333333
 40
0.3333333333333333
 40
0.3333333333333333
 40
0.3333333333333333
 40
0.3562901376827189
 40
0.3562901376827189
 40
0.3562901376827189
 40
0.3562901376827189
 10
791.7304718074245
 20
1975.182606074646
 30
0.0
 10
791.777724096574
 20
1975.271094411067
 30
0.0
 10
791.8267165213287
 20
1975.358191629394
 30
0.0
 10
791.8773522441614
 20
1975.443967611136
 30
0.0
  0
SPLINE
  5
135
330
87
100
AcDbEntity
  8
P-SANR-FIXT
100
AcDbSpline
210
0.0
220
0.0
230
1.0
 70
     8
 71
     3
 72
     8
 73
     4
 74
     0
 42
0.000000001
 43
0.0000000001
 40
0.4166666666666666
 40
0.4166666666666666
 40
0.4166666666666666
 40
0.4166666666666666
 40
0.4470609684242478
 40
0.4470609684242478
 40
0.4470609684242478
 40
0.4470609684242478
 10
792.2992856159768
 20
1976.108309968695
 30
0.0
 10
792.3748731506486
 20
1976.216092975599
 30
0.0
 10
792.4533091893332
 20
1976.32122434882
 30
0.0
 10
792.5343248282591
 20
1976.423958319538
 30
0.0
  0
SPLINE
  5
136
330
87
100
AcDbEntity
  8
P-SANR-FIXT
100
AcDbSpline
210
0.0
220
0.0
230
1.0
 70
     8
 71
     3
 72
     8
 73
     4
 74
     0
 42
0.000000001
 43
0.0000000001
 40
0.5
 40
0.5
 40
0.5
 40
0.5
 40
0.6666666666666666
 40
0.6666666666666666
 40
0.6666666666666666
 40
0.6666666666666666
 10
792.9712712913596
 20
1976.953227902085
 30
0.0
 10
793.4518859494472
 20
1977.487939639804
 30
0.0
 10
794.0062705177763
 20
1977.942883120623
 30
0.0
 10
794.5929627826201
 20
1978.371217729112
 30
0.0
  0
SPLINE
  5
137
330
87
100
AcDbEntity
  8
P-SANR-FIXT
100
AcDbSpline
210
0.0
220
0.0
230
1.0
 70
     8
 71
     3
 72
     8
 73
     4
 74
     0
 42
0.000000001
 43
0.0000000001
 40
0.7179895962477455
 40
0.7179895962477455
 40
0.7179895962477455
 40
0.7179895962477455
 40
0.75
 40
0.75
 40
0.75
 40
0.75
 10
795.1588782771769
 20
1978.727497622654
 30
0.0
 10
795.2794003781904
 20
1978.797299950108
 30
0.0
 10
795.4004653827202
 20
1978.867011425781
 30
0.0
 10
795.5228905052218
 20
1978.934312495467
 30
0.0
  0
SPLINE
  5
138
330
87
100
AcDbEntity
  8
P-SANR-FIXT
100
AcDbSpline
210
0.0
220
0.0
230
1.0
 70
     8
 71
     3
 72
     8
 73
     4
 74
     0
 42
0.000000001
 43
0.0000000001
 40
0.808355688296805
 40
0.808355688296805
 40
0.808355688296805
 40
0.808355688296805
 40
0.8333333333333332
 40
0.8333333333333332
 40
0.8333333333333332
 40
0.8333333333333332
 10
796.21698086884
 20
1979.250644580246
 30
0.0
 10
796.3175992613037
 20
1979.292322318342
 30
0.0
 10
796.4183120224491
 20
1979.333692111726
 30
0.0
 10
796.5210980642873
 20
1979.369998378947
 30
0.0
  0
SPLINE
  5
139
330
87
100
AcDbEntity
  8
P-SANR-FIXT
100
AcDbSpline
210
0.0
220
0.0
230
1.0
 70
     8
 71
     3
 72
     8
 73
     4
 74
     0
 42
0.000000001
 43
0.0000000001
 40
0.8984425646679806
 40
0.8984425646679806
 40
0.8984425646679806
 40
0.8984425646679806
 40
0.9166666666666667
 40
0.9166666666666667
 40
0.9166666666666667
 40
0.9166666666666667
 10
797.3343636552118
 20
1979.627472857351
 30
0.0
 10
797.4116634849931
 20
1979.647951074663
 30
0.0
 10
797.4900943846335
 20
1979.665940451682
 30
0.0
 10
797.5692770735617
 20
1979.682271999742
 30
0.0
  0
SPLINE
  5
13A
330
87
100
AcDbEntity
  8
P-SANR-FIXT
100
AcDbSpline
210
0.0
220
0.0
230
1.0
 70
     8
 71
     3
 72
     8
 73
     4
 74
     0
 42
0.000000001
 43
0.0000000001
 40
0.9867743479600942
 40
0.9867743479600942
 40
0.9867743479600942
 40
0.9867743479600942
 40
1.0
 40
1.0
 40
1.0
 40
1.0
 10
798.4882771834556
 20
1979.858367224391
 30
0.0
 10
798.5474133814359
 20
1979.866640440694
 30
0.0
 10
798.606788943419
 20
1979.874440045018
 30
0.0
 10
798.6664074431877
 20
1979.881771909996
 30
0.0
  0
LINE
  5
13B
330
87
100
AcDbEntity
  8
P-SANR-FIXT
100
AcDbLine
 10
798.6664074431877
 20
1979.881771909996
 30
0.0
 11
798.6664074431877
 21
1983.937499999997
 31
0.0
  0
SPLINE
  5
13C
330
87
100
AcDbEntity
  8
P-SANR-FIXT
100
AcDbSpline
210
0.0
220
0.0
230
1.0
 70
     8
 71
     3
 72
    24
 73
    20
 74
     0
 42
0.000000001
 43
0.0000000001
 40
0.0
 40
0.0
 40
0.0
 40
0.0
 40
0.1111111111111111
 40
0.2222222222222222
 40
0.2777777777777778
 40
0.3333333333333333
 40
0.3888888888888888
 40
0.4444444444444445
 40
0.4791666666666666
 40
0.5138888888888889
 40
0.5486111111111111
 40
0.5833333333333333
 40
0.6180555555555555
 40
0.6527777777777777
 40
0.6875
 40
0.7222222222222223
 40
0.7916666666666668
 40
0.861111111111111
 40
1.0
 40
1.0
 40
1.0
 40
1.0
 10
798.6664074431872
 20
2043.934701883423
 30
0.0
 10
798.6664074431872
 20
2043.922615779593
 30
0.0
 10
798.7913048556555
 20
2043.644388035779
 30
0.0
 10
799.1838271557786
 20
2042.602247470663
 30
0.0
 10
799.5352915472965
 20
2041.458512168296
 30
0.0
 10
799.7881733802739
 20
2040.469382578215
 30
0.0
 10
799.9975562356241
 20
2039.356512441977
 30
0.0
 10
800.1248817160091
 20
2038.314834645653
 30
0.0
 10
800.171472236094
 20
2037.4059216743
 30
0.0
 10
800.1752497602693
 20
2036.618677165376
 30
0.0
 10
800.1427714570407
 20
2035.849761807888
 30
0.0
 10
800.0732472267234
 20
2035.112143957512
 30
0.0
 10
799.9678132822888
 20
2034.374091342867
 30
0.0
 10
799.8386550050651
 20
2033.673233770226
 30
0.0
 10
799.6954480219552
 20
2033.033531595335
 30
0.0
 10
799.4791000528327
 20
2032.217088697941
 30
0.0
 10
799.2066058809837
 20
2031.351460169958
 30
0.0
 10
798.8135611967666
 20
2030.273942478084
 30
0.0
 10
798.6664074431872
 20
2029.950036678156
 30
0.0
 10
798.6664074431872
 20
2029.934701883297
 30
0.0
  0
LINE
  5
13D
330
87
100
AcDbEntity
  8
P-SANR-FIXT
100
AcDbLine
 10
808.6664074431878
 20
1970.937499999997
 30
0.0
 11
822.6664074431877
 21
1970.937499999997
 31
0.0
  0
ARC
  5
13E
330
87
100
AcDbEntity
  8
P-SANR-FIXT
100
AcDbCircle
 10
799.6664074431876
 20
1970.937499999997
 30
0.0
 40
8.999999999999886
100
AcDbArc
 50
180.0
 51
0.0
  0
ARC
  5
13F
330
87
100
AcDbEntity
  8
P-SANR-FIXT
100
AcDbCircle
 10
799.6664074431876
 20
1970.937499999997
 30
0.0
 40
9.0
100
AcDbArc
 50
0.0
 51
180.0
  0
SPLINE
  5
140
330
87
100
AcDbEntity
  8
P-SANR-FIXT
100
AcDbSpline
210
0.0
220
0.0
230
1.0
 70
     8
 71
     3
 72
     8
 73
     4
 74
     0
 42
0.000000001
 43
0.0000000001
 40
-0.9285714285714286
 40
-0.9285714285714286
 40
-0.9285714285714286
 40
-0.9285714285714286
 40
-0.9184836528307782
 40
-0.9184836528307782
 40
-0.9184836528307782
 40
-0.9184836528307782
 10
800.6996031848752
 20
1962.000024966179
 30
0.0
 10
800.7474684893081
 20
1962.005493140696
 30
0.0
 10
800.7952227193772
 20
1962.011317620889
 30
0.0
 10
800.8428650768436
 20
1962.017498327938
 30
0.0
  0
SPLINE
  5
141
330
87
100
AcDbEntity
  8
P-SANR-FIXT
100
AcDbSpline
210
0.0
220
0.0
230
1.0
 70
     8
 71
     3
 72
     9
 73
     5
 74
     0
 42
0.000000001
 43
0.0000000001
 40
-0.8571428571428572
 40
-0.8571428571428572
 40
-0.8571428571428572
 40
-0.8571428571428572
 40
-0.8392857142857142
 40
-0.8354436494855717
 40
-0.8354436494855717
 40
-0.8354436494855717
 40
-0.8354436494855717
 10
801.699872406594
 20
1962.170196388842
 30
0.0
 10
801.7819958878835
 20
1962.189027657289
 30
0.0
 10
801.8814945982757
 20
1962.213403540314
 30
0.0
 10
801.980722547802
 20
1962.23967559626
 30
0.0
 10
801.9982824882687
 20
1962.244386134383
 30
0.0
  0
SPLINE
  5
142
330
87
100
AcDbEntity
  8
P-SANR-FIXT
100
AcDbSpline
210
0.0
220
0.0
230
1.0
 70
     8
 71
     3
 72
     9
 73
     5
 74
     0
 42
0.000000001
 43
0.0000000001
 40
-0.7857142857142857
 40
-0.7857142857142857
 40
-0.7857142857142857
 40
-0.7857142857142857
 40
-0.7321428571428572
 40
-0.7142857142857144
 40
-0.7142857142857144
 40
-0.7142857142857144
 40
-0.7142857142857144
 10
802.6735055228558
 20
1962.455460965137
 30
0.0
 10
802.912906327133
 20
1962.540861677452
 30
0.0
 10
803.2266867023416
 20
1962.667830342833
 30
0.0
 10
803.528200718887
 20
1962.80791558601
 30
0.0
 10
803.602991114328
 20
1962.844007693837
 30
0.0
  0
SPLINE
  5
143
330
87
100
AcDbEntity
  8
P-SANR-FIXT
100
AcDbSpline
210
0.0
220
0.0
230
1.0
 70
     8
 71
     3
 72
     8
 73
     4
 74
     0
 42
0.000000001
 43
0.0000000001
 40
-0.6681399982869529
 40
-0.6681399982869529
 40
-0.6681399982869529
 40
-0.6681399982869529
 40
-0.6428571428571429
 40
-0.6428571428571429
 40
-0.6428571428571429
 40
-0.6428571428571429
 10
804.1723348603143
 20
1963.145919622105
 30
0.0
 10
804.2742483827414
 20
1963.20488893389
 30
0.0
 10
804.3752434318717
 20
1963.265666745538
 30
0.0
 10
804.4750151481185
 20
1963.328330170466
 30
0.0
  0
SPLINE
  5
144
330
87
100
AcDbEntity
  8
P-SANR-FIXT
100
AcDbSpline
210
0.0
220
0.0
230
1.0
 70
     8
 71
     3
 72
     8
 73
     4
 74
     0
 42
0.000000001
 43
0.0000000001
 40
-0.5837132195978766
 40
-0.5837132195978766
 40
-0.5837132195978766
 40
-0.5837132195978766
 40
-0.5714285714285714
 40
-0.5714285714285714
 40
-0.5714285714285714
 40
-0.5714285714285714
 10
805.1499237699307
 20
1963.800828686979
 30
0.0
 10
805.1951150958064
 20
1963.835580524576
 30
0.0
 10
805.2400483946946
 20
1963.870702965408
 30
0.0
 10
805.2844667559259
 20
1963.906325876243
 30
0.0
  0
SPLINE
  5
145
330
87
100
AcDbEntity
  8
P-SANR-FIXT
100
AcDbSpline
210
0.0
220
0.0
230
1.0
 70
     8
 71
     3
 72
     8
 73
     4
 74
     0
 42
0.000000001
 43
0.0000000001
 40
-0.4285714285714288
 40
-0.4285714285714288
 40
-0.4285714285714288
 40
-0.4285714285714288
 40
-0.4150184186301199
 40
-0.4150184186301199
 40
-0.4150184186301199
 40
-0.4150184186301199
 10
806.6868992113775
 20
1965.30562940915
 30
0.0
 10
806.7262317358634
 20
1965.354640060791
 30
0.0
 10
806.7648223824727
 20
1965.404182627114
 30
0.0
 10
806.8027321537437
 20
1965.45422119569
 30
0.0
  0
SPLINE
  5
146
330
87
100
AcDbEntity
  8
P-SANR-FIXT
100
AcDbSpline
210
0.0
220
0.0
230
1.0
 70
     8
 71
     3
 72
     8
 73
     4
 74
     0
 42
0.000000001
 43
0.0000000001
 40
-0.3571428571428573
 40
-0.3571428571428573
 40
-0.3571428571428573
 40
-0.3571428571428573
 40
-0.3308572417087983
 40
-0.3308572417087983
 40
-0.3308572417087983
 40
-0.3308572417087983
 10
807.2658969897332
 20
1966.115296978586
 30
0.0
 10
807.3315281201153
 20
1966.218763084208
 30
0.0
 10
807.3941534227003
 20
1966.324064131822
 30
0.0
 10
807.4547936060552
 20
1966.430764147431
 30
0.0
  0
SPLINE
  5
147
330
87
100
AcDbEntity
  8
P-SANR-FIXT
100
AcDbSpline
210
0.0
220
0.0
230
1.0
 70
     8
 71
     3
 72
     8
 73
     4
 74
     0
 42
0.000000001
 43
0.0000000001
 40
-0.2857142857142857
 40
-0.2857142857142857
 40
-0.2857142857142857
 40
-0.2857142857142857
 40
-0.2142857142857145
 40
-0.2142857142857145
 40
-0.2142857142857145
 40
-0.2142857142857145
 10
807.7548294174425
 20
1966.990674697758
 30
0.0
 10
807.9020804695376
 20
1967.292782819195
 30
0.0
 10
808.0471998578856
 20
1967.601186888865
 30
0.0
 10
808.1676951654738
 20
1967.918568441476
 30
0.0
  0
SPLINE
  5
148
330
87
100
AcDbEntity
  8
P-SANR-FIXT
100
AcDbSpline
210
0.0
220
0.0
230
1.0
 70
     8
 71
     3
 72
     8
 73
     4
 74
     0
 42
0.000000001
 43
0.0000000001
 40
-0.1642123120992195
 40
-0.1642123120992195
 40
-0.1642123120992195
 40
-0.1642123120992195
 40
-0.1428571428571428
 40
-0.1428571428571428
 40
-0.1428571428571428
 40
-0.1428571428571428
 10
808.3589491301692
 20
1968.605010803695
 30
0.0
 10
808.385260911065
 20
1968.703018002147
 30
0.0
 10
808.4113506323214
 20
1968.801127949943
 30
0.0
 10
808.4328164289475
 20
1968.900327082841
 30
0.0
  0
SPLINE
  5
149
330
87
100
AcDbEntity
  8
P-SANR-FIXT
100
AcDbSpline
210
0.0
220
0.0
230
1.0
 70
     8
 71
     3
 72
     8
 73
     4
 74
     0
 42
0.000000001
 43
0.0000000001
 40
-0.0814912943541613
 40
-0.0814912943541613
 40
-0.0814912943541613
 40
-0.0814912943541613
 40
-0.0714285714285717
 40
-0.0714285714285717
 40
-0.0714285714285717
 40
-0.0714285714285717
 10
808.5881878676989
 20
1969.762057801585
 30
0.0
 10
808.5943913701449
 20
1969.809695773968
 30
0.0
 10
808.5995812753701
 20
1969.857587156071
 30
0.0
 10
808.6039965715212
 20
1969.905672110174
 30
0.0
  0
SPLINE
  5
14A
330
87
100
AcDbEntity
  8
P-SANR-FIXT
100
AcDbSpline
210
0.0
220
0.0
230
1.0
 70
     8
 71
     3
 72
     8
 73
     4
 74
     0
 42
0.000000001
 43
0.0000000001
 40
-0.5
 40
-0.5
 40
-0.5
 40
-0.5
 40
0.0
 40
0.0
 40
0.0
 40
0.0
 10
799.9754489138383
 20
1979.932192511107
 30
0.0
 10
799.8725175021911
 20
1979.935727556857
 30
0.0
 10
799.7695036786409
 20
1979.937496345427
 30
0.0
 10
799.6664074431878
 20
1979.937499999997
 30
0.0
  0
LINE
  5
14B
330
87
100
AcDbEntity
  8
P-SANR-FIXT
100
AcDbLine
 10
773.1664074431876
 20
1994.833230882451
 30
0.0
 11
784.4664074431879
 21
1994.833230882451
 31
0.0
  0
LINE
  5
14C
330
87
100
AcDbEntity
  8
P-SANR-FIXT
100
AcDbLine
 10
784.4664074431879
 20
1994.833230882451
 30
0.0
 11
784.4664074431879
 21
1994.887499999997
 31
0.0
  0
LINE
  5
14D
330
87
100
AcDbEntity
  8
P-SANR-FIXT
100
AcDbLine
 10
784.4664074431878
 20
1946.987499999997
 30
0.0
 11
784.4664074431878
 21
1947.041769117543
 31
0.0
  0
LINE
  5
14E
330
87
100
AcDbEntity
  8
P-SANR-FIXT
100
AcDbLine
 10
784.4664074431879
 20
1947.041769117543
 30
0.0
 11
773.1664074431876
 21
1947.041769117543
 31
0.0
  0
LINE
  5
14F
330
87
100
AcDbEntity
  8
P-SANR-FIXT
100
AcDbLine
 10
784.4664074431879
 20
1957.594138519721
 30
0.0
 11
784.4664074431878
 21
1960.385130597821
 31
0.0
  0
LINE
  5
150
330
87
100
AcDbEntity
  8
P-SANR-FIXT
100
AcDbLine
 10
784.4664074431878
 20
1960.38513059782
 30
0.0
 11
773.1664074431876
 21
1960.38513059782
 31
0.0
  0
LINE
  5
151
330
87
100
AcDbEntity
  8
P-SANR-FIXT
100
AcDbLine
 10
773.1664074431876
 20
1957.594138519721
 30
0.0
 11
784.4664074431879
 21
1957.594138519721
 31
0.0
  0
LINE
  5
152
330
87
100
AcDbEntity
  8
P-SANR-FIXT
100
AcDbLine
 10
784.4664074431878
 20
1981.489869402174
 30
0.0
 11
784.4664074431879
 21
1984.280861480275
 31
0.0
  0
LINE
  5
153
330
87
100
AcDbEntity
  8
P-SANR-FIXT
100
AcDbLine
 10
784.4664074431879
 20
1984.280861480275
 30
0.0
 11
773.1664074431876
 21
1984.280861480275
 31
0.0
  0
LINE
  5
154
330
87
100
AcDbEntity
  8
P-SANR-FIXT
100
AcDbLine
 10
773.1664074431876
 20
1981.489869402174
 30
0.0
 11
784.4664074431878
 21
1981.489869402174
 31
0.0
  0
LINE
  5
155
330
87
100
AcDbEntity
  8
P-SANR-FIXT
100
AcDbLine
 10
773.1664074431876
 20
1947.041769117543
 30
0.0
 11
773.1664074431876
 21
1946.987499999997
 31
0.0
  0
LINE
  5
156
330
87
100
AcDbEntity
  8
P-SANR-FIXT
100
AcDbLine
 10
773.1664074431876
 20
1947.041769117543
 30
0.0
 11
773.1664074431876
 21
1957.594138519721
 31
0.0
  0
LINE
  5
157
330
87
100
AcDbEntity
  8
P-SANR-FIXT
100
AcDbLine
 10
773.1664074431876
 20
1960.385130597821
 30
0.0
 11
773.1664074431876
 21
1957.594138519721
 31
0.0
  0
LINE
  5
158
330
87
100
AcDbEntity
  8
P-SANR-FIXT
100
AcDbLine
 10
773.1664074431876
 20
1960.385130597821
 30
0.0
 11
773.1664074431876
 21
1981.489869402174
 31
0.0
  0
LINE
  5
159
330
87
100
AcDbEntity
  8
P-SANR-FIXT
100
AcDbLine
 10
773.1664074431876
 20
1984.280861480275
 30
0.0
 11
773.1664074431876
 21
1981.489869402174
 31
0.0
  0
LINE
  5
15A
330
87
100
AcDbEntity
  8
P-SANR-FIXT
100
AcDbLine
 10
773.1664074431876
 20
1984.280861480275
 30
0.0
 11
773.1664074431876
 21
1994.833230882451
 31
0.0
  0
LINE
  5
15B
330
87
100
AcDbEntity
  8
P-SANR-FIXT
100
AcDbLine
 10
773.1664074431876
 20
1994.887499999997
 30
0.0
 11
773.1664074431876
 21
1994.833230882451
 31
0.0
  0
ARC
  5
15C
330
87
100
AcDbEntity
  8
P-SANR-FIXT
100
AcDbCircle
 10
831.6664074431876
 20
1970.937499999997
 30
0.0
 40
9.0
100
AcDbArc
 50
180.0
 51
359.9999999999982
  0
ARC
  5
15D
330
87
100
AcDbEntity
  8
P-SANR-FIXT
100
AcDbCircle
 10
831.6664074431876
 20
1970.937499999997
 30
0.0
 40
8.999999999999886
100
AcDbArc
 50
0.0
 51
180.0
  0
LINE
  5
15E
330
87
100
AcDbEntity
  8
P-SANR-FIXT
100
AcDbLine
 10
789.1664074431869
 20
2025.937499999994
 30
0.0
 11
842.1664074431884
 21
2025.937499999994
 31
0.0
  0
LINE
  5
15F
330
87
100
AcDbEntity
  8
P-SANR-FIXT
100
AcDbLine
 10
781.1664074431868
 20
2020.337499999994
 30
0.0
 11
850.1664074431886
 21
2020.337499999993
 31
0.0
  0
LINE
  5
160
330
87
100
AcDbEntity
  8
P-SANR-FIXT
100
AcDbLine
 10
781.1664074431868
 20
2013.93470188336
 30
0.0
 11
850.1664074431886
 21
2013.934701883359
 31
0.0
  0
LINE
  5
161
330
87
100
AcDbEntity
  8
P-SANR-FIXT
100
AcDbLine
 10
782.1636093265527
 20
2012.937499999994
 30
0.0
 11
849.1692055598228
 21
2012.937499999994
 31
0.0
  0
LINE
  5
162
330
87
100
AcDbEntity
  8
P-SANR-FIXT
100
AcDbLine
 10
788.9922478902083
 20
2011.437500000017
 30
0.0
 11
842.340566996167
 21
2011.437500000016
 31
0.0
  0
LINE
  5
163
330
87
100
AcDbEntity
  8
P-SANR-FIXT
100
AcDbLine
 10
789.6664074431874
 20
2043.934701883423
 30
0.0
 11
789.6664074431869
 21
2029.934701883297
 31
0.0
  0
LINE
  5
164
330
87
100
AcDbEntity
  8
P-SANR-FIXT
100
AcDbLine
 10
858.1664074431877
 20
1994.833230882452
 30
0.0
 11
858.1664074431877
 21
1984.280861480274
 31
0.0
  0
LINE
  5
165
330
87
100
AcDbEntity
  8
P-SANR-FIXT
100
AcDbLine
 10
858.1664074431875
 20
1981.489869402175
 30
0.0
 11
858.1664074431875
 21
1960.385130597819
 31
0.0
  0
LINE
  5
166
330
87
100
AcDbEntity
  8
P-SANR-FIXT
100
AcDbLine
 10
858.1664074431877
 20
1957.594138519721
 30
0.0
 11
858.1664074431877
 21
1947.041769117543
 31
0.0
  0
LINE
  5
167
330
87
100
AcDbEntity
  8
P-SANR-FIXT
100
AcDbLine
 10
858.1664074431877
 20
1984.280861480274
 30
0.0
 11
858.1664074431875
 21
1981.489869402176
 31
0.0
  0
LINE
  5
168
330
87
100
AcDbEntity
  8
P-SANR-FIXT
100
AcDbLine
 10
858.1664074431877
 20
1984.280861480274
 30
0.0
 11
846.8664074431881
 21
1984.280861480274
 31
0.0
  0
LINE
  5
169
330
87
100
AcDbEntity
  8
P-SANR-FIXT
100
AcDbLine
 10
846.8664074431879
 20
1981.489869402175
 30
0.0
 11
858.1664074431875
 21
1981.489869402175
 31
0.0
  0
LINE
  5
16A
330
87
100
AcDbEntity
  8
P-SANR-FIXT
100
AcDbLine
 10
858.1664074431875
 20
1960.38513059782
 30
0.0
 11
858.1664074431877
 21
1957.594138519721
 31
0.0
  0
LINE
  5
16B
330
87
100
AcDbEntity
  8
P-SANR-FIXT
100
AcDbLine
 10
858.1664074431875
 20
1960.385130597819
 30
0.0
 11
846.8664074431879
 21
1960.385130597819
 31
0.0
  0
LINE
  5
16C
330
87
100
AcDbEntity
  8
P-SANR-FIXT
100
AcDbLine
 10
846.8664074431881
 20
1957.594138519721
 30
0.0
 11
858.1664074431877
 21
1957.594138519721
 31
0.0
  0
LINE
  5
16D
330
87
100
AcDbEntity
  8
P-SANR-FIXT
100
AcDbLine
 10
846.8664074431881
 20
1994.833230882452
 30
0.0
 11
858.1664074431877
 21
1994.833230882452
 31
0.0
  0
LINE
  5
16E
330
87
100
AcDbEntity
  8
P-SANR-FIXT
100
AcDbLine
 10
858.1664074431877
 20
1994.887499999998
 30
0.0
 11
858.1664074431877
 21
1994.833230882452
 31
0.0
  0
LINE
  5
16F
330
87
100
AcDbEntity
  8
P-SANR-FIXT
100
AcDbLine
 10
858.1664074431879
 20
1947.041769117543
 30
0.0
 11
858.1664074431879
 21
1946.987499999997
 31
0.0
  0
LINE
  5
170
330
87
100
AcDbEntity
  8
P-SANR-FIXT
100
AcDbLine
 10
858.1664074431877
 20
1947.041769117543
 30
0.0
 11
846.8664074431881
 21
1947.041769117543
 31
0.0
  0
LINE
  5
171
330
87
100
AcDbEntity
  8
P-SANR-FIXT
100
AcDbLine
 10
846.8664074431879
 20
1947.041769117543
 30
0.0
 11
846.8664074431879
 21
1946.987499999997
 31
0.0
  0
SPLINE
  5
172
330
87
100
AcDbEntity
  8
P-SANR-FIXT
100
AcDbSpline
210
0.0
220
0.0
230
1.0
 70
     8
 71
     3
 72
    10
 73
     6
 74
     0
 42
0.000000001
 43
0.0000000001
 40
-1.0
 40
-1.0
 40
-1.0
 40
-1.0
 40
-0.6666666666666666
 40
-0.3333333333333333
 40
0.0
 40
0.0
 40
0.0
 40
0.0
 10
846.8664074431881
 20
1947.041769117543
 30
0.0
 10
845.7964474370882
 20
1948.172622229643
 30
0.0
 10
844.3695064490951
 20
1950.46370702981
 30
0.0
 10
844.3414926710996
 20
1954.119986251644
 30
0.0
 10
845.7841606923533
 20
1956.44090782656
 30
0.0
 10
846.8664074431881
 20
1957.594138519721
 30
0.0
  0
LINE
  5
173
330
87
100
AcDbEntity
  8
P-SANR-FIXT
100
AcDbLine
 10
846.8664074431879
 20
1960.38513059782
 30
0.0
 11
846.8664074431881
 21
1957.594138519721
 31
0.0
  0
SPLINE
  5
174
330
87
100
AcDbEntity
  8
P-SANR-FIXT
100
AcDbSpline
210
0.0
220
0.0
230
1.0
 70
     8
 71
     3
 72
    10
 73
     6
 74
     0
 42
0.000000001
 43
0.0000000001
 40
-1.0
 40
-1.0
 40
-1.0
 40
-1.0
 40
-0.6666666666666666
 40
-0.3333333333333333
 40
0.0
 40
0.0
 40
0.0
 40
0.0
 10
846.8664074431879
 20
1960.38513059782
 30
0.0
 10
845.796447437088
 20
1962.64683682202
 30
0.0
 10
844.3695064490949
 20
1967.229006422354
 30
0.0
 10
844.3414926710996
 20
1974.541564866021
 30
0.0
 10
845.7841606923532
 20
1979.183408015853
 30
0.0
 10
846.8664074431879
 20
1981.489869402175
 30
0.0
  0
LINE
  5
175
330
87
100
AcDbEntity
  8
P-SANR-FIXT
100
AcDbLine
 10
846.8664074431881
 20
1984.280861480274
 30
0.0
 11
846.8664074431879
 21
1981.489869402176
 31
0.0
  0
SPLINE
  5
176
330
87
100
AcDbEntity
  8
P-SANR-FIXT
100
AcDbSpline
210
0.0
220
0.0
230
1.0
 70
     8
 71
     3
 72
    10
 73
     6
 74
     0
 42
0.000000001
 43
0.0000000001
 40
-1.0
 40
-1.0
 40
-1.0
 40
-1.0
 40
-0.6666666666666666
 40
-0.3333333333333333
 40
0.0
 40
0.0
 40
0.0
 40
0.0
 10
846.8664074431881
 20
1984.280861480274
 30
0.0
 10
845.7964474370882
 20
1985.411714592374
 30
0.0
 10
844.3695064490951
 20
1987.702799392541
 30
0.0
 10
844.3414926710996
 20
1991.359078614374
 30
0.0
 10
845.7841606923533
 20
1993.68000018929
 30
0.0
 10
846.8664074431881
 20
1994.833230882452
 30
0.0
  0
LINE
  5
177
330
87
100
AcDbEntity
  8
P-SANR-FIXT
100
AcDbLine
 10
846.8664074431881
 20
1994.887499999998
 30
0.0
 11
846.8664074431881
 21
1994.833230882452
 31
0.0
  0
LINE
  5
178
330
87
100
AcDbEntity
  8
P-SANR-FIXT
100
AcDbLine
 10
841.4164074431878
 20
1989.437499999997
 30
0.0
 11
841.4164074431878
 21
1952.437499999997
 31
0.0
  0
SPLINE
  5
179
330
87
100
AcDbEntity
  8
P-SANR-FIXT
100
AcDbSpline
210
0.0
220
0.0
230
1.0
 70
     8
 71
     3
 72
     8
 73
     4
 74
     0
 42
0.000000001
 43
0.0000000001
 40
-0.9166666666666666
 40
-0.9166666666666666
 40
-0.9166666666666666
 40
-0.9166666666666666
 40
-0.9122815265419291
 40
-0.9122815265419291
 40
-0.9122815265419291
 40
-0.9122815265419291
 10
840.5953672010319
 20
1972.053962742286
 30
0.0
 10
840.5929849674738
 20
1972.073245983185
 30
0.0
 10
840.5905398309567
 20
1972.092511421337
 30
0.0
 10
840.5880320917761
 20
1972.11175951166
 30
0.0
  0
SPLINE
  5
17A
330
87
100
AcDbEntity
  8
P-SANR-FIXT
100
AcDbSpline
210
0.0
220
0.0
230
1.0
 70
     8
 71
     3
 72
     8
 73
     4
 74
     0
 42
0.000000001
 43
0.0000000001
 40
-0.8333333333333332
 40
-0.8333333333333332
 40
-0.8333333333333332
 40
-0.8333333333333332
 40
-0.8230403954553697
 40
-0.8230403954553697
 40
-0.8230403954553697
 40
-0.8230403954553697
 10
840.3934657029822
 20
1973.137148637882
 30
0.0
 10
840.3824049876561
 20
1973.181099201753
 30
0.0
 10
840.3710349382995
 20
1973.225009116087
 30
0.0
 10
840.3593530788905
 20
1973.268864824152
 30
0.0
  0
SPLINE
  5
17B
330
87
100
AcDbEntity
  8
P-SANR-FIXT
100
AcDbSpline
210
0.0
220
0.0
230
1.0
 70
     8
 71
     3
 72
     8
 73
     4
 74
     0
 42
0.000000001
 43
0.0000000001
 40
-0.75
 40
-0.75
 40
-0.75
 40
-0.75
 40
-0.7337348338498674
 40
-0.7337348338498674
 40
-0.7337348338498674
 40
-0.7337348338498674
 10
840.0593869141006
 20
1974.185840768825
 30
0.0
 10
840.0335229990892
 20
1974.252613173074
 30
0.0
 10
840.0069613068927
 20
1974.319159014837
 30
0.0
 10
839.9796679336605
 20
1974.385391273439
 30
0.0
  0
SPLINE
  5
17C
330
87
100
AcDbEntity
  8
P-SANR-FIXT
100
AcDbSpline
210
0.0
220
0.0
230
1.0
 70
     8
 71
     3
 72
     8
 73
     4
 74
     0
 42
0.000000001
 43
0.0000000001
 40
-0.6666666666666666
 40
-0.6666666666666666
 40
-0.6666666666666666
 40
-0.6666666666666666
 40
-0.6437098623172773
 40
-0.6437098623172773
 40
-0.6437098623172773
 40
-0.6437098623172773
 10
839.602343078951
 20
1975.182606074646
 30
0.0
 10
839.5550907898014
 20
1975.271094411067
 30
0.0
 10
839.5060983650466
 20
1975.358191629394
 30
0.0
 10
839.4554626422142
 20
1975.443967611136
 30
0.0
  0
SPLINE
  5
17D
330
87
100
AcDbEntity
  8
P-SANR-FIXT
100
AcDbSpline
210
0.0
220
0.0
230
1.0
 70
     8
 71
     3
 72
     8
 73
     4
 74
     0
 42
0.000000001
 43
0.0000000001
 40
-0.5833333333333334
 40
-0.5833333333333334
 40
-0.5833333333333334
 40
-0.5833333333333334
 40
-0.5529390315757481
 40
-0.5529390315757481
 40
-0.5529390315757481
 40
-0.5529390315757481
 10
839.0335292703985
 20
1976.108309968695
 30
0.0
 10
838.9579417357269
 20
1976.216092975599
 30
0.0
 10
838.8795056970423
 20
1976.32122434882
 30
0.0
 10
838.7984900581162
 20
1976.423958319537
 30
0.0
  0
SPLINE
  5
17E
330
87
100
AcDbEntity
  8
P-SANR-FIXT
100
AcDbSpline
210
0.0
220
0.0
230
1.0
 70
     8
 71
     3
 72
     8
 73
     4
 74
     0
 42
0.000000001
 43
0.0000000001
 40
-0.5
 40
-0.5
 40
-0.5
 40
-0.5
 40
-0.3333333333333333
 40
-0.3333333333333333
 40
-0.3333333333333333
 40
-0.3333333333333333
 10
838.361543595016
 20
1976.953227902084
 30
0.0
 10
837.8809289369284
 20
1977.487939639804
 30
0.0
 10
837.3265443685991
 20
1977.942883120622
 30
0.0
 10
836.7398521037554
 20
1978.371217729112
 30
0.0
  0
SPLINE
  5
17F
330
87
100
AcDbEntity
  8
P-SANR-FIXT
100
AcDbSpline
210
0.0
220
0.0
230
1.0
 70
     8
 71
     3
 72
     8
 73
     4
 74
     0
 42
0.000000001
 43
0.0000000001
 40
-0.2820104037522394
 40
-0.2820104037522394
 40
-0.2820104037522394
 40
-0.2820104037522394
 40
-0.25
 40
-0.25
 40
-0.25
 40
-0.25
 10
836.1739366091986
 20
1978.727497622654
 30
0.0
 10
836.0534145081849
 20
1978.797299950108
 30
0.0
 10
835.9323495036552
 20
1978.867011425781
 30
0.0
 10
835.8099243811539
 20
1978.934312495466
 30
0.0
  0
SPLINE
  5
180
330
87
100
AcDbEntity
  8
P-SANR-FIXT
100
AcDbSpline
210
0.0
220
0.0
230
1.0
 70
     8
 71
     3
 72
     8
 73
     4
 74
     0
 42
0.000000001
 43
0.0000000001
 40
-0.1916443117031709
 40
-0.1916443117031709
 40
-0.1916443117031709
 40
-0.1916443117031709
 40
-0.1666666666666666
 40
-0.1666666666666666
 40
-0.1666666666666666
 40
-0.1666666666666666
 10
835.1158340175352
 20
1979.250644580246
 30
0.0
 10
835.0152156250716
 20
1979.292322318342
 30
0.0
 10
834.9145028639263
 20
1979.333692111726
 30
0.0
 10
834.8117168220882
 20
1979.369998378947
 30
0.0
  0
SPLINE
  5
181
330
87
100
AcDbEntity
  8
P-SANR-FIXT
100
AcDbSpline
210
0.0
220
0.0
230
1.0
 70
     8
 71
     3
 72
     8
 73
     4
 74
     0
 42
0.000000001
 43
0.0000000001
 40
-0.1015574353319925
 40
-0.1015574353319925
 40
-0.1015574353319925
 40
-0.1015574353319925
 40
-0.0833333333333333
 40
-0.0833333333333333
 40
-0.0833333333333333
 40
-0.0833333333333333
 10
833.9984512311634
 20
1979.627472857351
 30
0.0
 10
833.9211514013822
 20
1979.647951074663
 30
0.0
 10
833.8427205017419
 20
1979.665940451681
 30
0.0
 10
833.7635378128139
 20
1979.682271999741
 30
0.0
  0
SPLINE
  5
182
330
87
100
AcDbEntity
  8
P-SANR-FIXT
100
AcDbSpline
210
0.0
220
0.0
230
1.0
 70
     8
 71
     3
 72
     8
 73
     4
 74
     0
 42
0.000000001
 43
0.0000000001
 40
-0.0132256520399037
 40
-0.0132256520399037
 40
-0.0132256520399037
 40
-0.0132256520399037
 40
0.0
 40
0.0
 40
0.0
 40
0.0
 10
832.8445377029199
 20
1979.858367224391
 30
0.0
 10
832.7854015049396
 20
1979.866640440694
 30
0.0
 10
832.7260259429564
 20
1979.874440045018
 30
0.0
 10
832.6664074431878
 20
1979.881771909996
 30
0.0
  0
SPLINE
  5
183
330
87
100
AcDbEntity
  8
P-SANR-FIXT
100
AcDbSpline
210
0.0
220
0.0
230
1.0
 70
     8
 71
     3
 72
     8
 73
     4
 74
     0
 42
0.000000001
 43
0.0000000001
 40
-1.0
 40
-1.0
 40
-1.0
 40
-1.0
 40
-0.986774347960107
 40
-0.986774347960107
 40
-0.986774347960107
 40
-0.986774347960107
 10
832.6664074431878
 20
1961.993228089998
 30
0.0
 10
832.7260259429564
 20
1962.000559954976
 30
0.0
 10
832.7854015049394
 20
1962.0083595593
 30
0.0
 10
832.8445377029199
 20
1962.016632775603
 30
0.0
  0
SPLINE
  5
184
330
87
100
AcDbEntity
  8
P-SANR-FIXT
100
AcDbSpline
210
0.0
220
0.0
230
1.0
 70
     8
 71
     3
 72
     8
 73
     4
 74
     0
 42
0.000000001
 43
0.0000000001
 40
-0.9166666666666666
 40
-0.9166666666666666
 40
-0.9166666666666666
 40
-0.9166666666666666
 40
-0.8984425646679939
 40
-0.8984425646679939
 40
-0.8984425646679939
 40
-0.8984425646679939
 10
833.7653149038091
 20
1962.188998293014
 30
0.0
 10
833.8434424089571
 20
1962.207544430305
 30
0.0
 10
833.9211050084722
 20
1962.227086495008
 30
0.0
 10
833.9983424893217
 20
1962.247615203423
 30
0.0
  0
SPLINE
  5
185
330
87
100
AcDbEntity
  8
P-SANR-FIXT
100
AcDbSpline
210
0.0
220
0.0
230
1.0
 70
     8
 71
     3
 72
     8
 73
     4
 74
     0
 42
0.000000001
 43
0.0000000001
 40
-0.8333333333333332
 40
-0.8333333333333332
 40
-0.8333333333333332
 40
-0.8333333333333332
 40
-0.8083556882968149
 40
-0.8083556882968149
 40
-0.8083556882968149
 40
-0.8083556882968149
 10
834.8117168220882
 20
1962.505001621046
 30
0.0
 10
834.9138191535267
 20
1962.542873525613
 30
0.0
 10
835.0154496182579
 20
1962.582509959398
 30
0.0
 10
835.1164307943163
 20
1962.623927660509
 30
0.0
  0
SPLINE
  5
186
330
87
100
AcDbEntity
  8
P-SANR-FIXT
100
AcDbSpline
210
0.0
220
0.0
230
1.0
 70
     8
 71
     3
 72
     8
 73
     4
 74
     0
 42
0.000000001
 43
0.0000000001
 40
-0.75
 40
-0.75
 40
-0.75
 40
-0.75
 40
-0.7179895962477455
 40
-0.7179895962477455
 40
-0.7179895962477455
 40
-0.7179895962477455
 10
835.8074011799912
 20
1962.946404563787
 30
0.0
 10
835.9311853618493
 20
1963.010626282134
 30
0.0
 10
836.0538400165415
 20
1963.077431863646
 30
0.0
 10
836.1747227892735
 20
1963.147006869612
 30
0.0
  0
SPLINE
  5
187
330
87
100
AcDbEntity
  8
P-SANR-FIXT
100
AcDbSpline
210
0.0
220
0.0
230
1.0
 70
     8
 71
     3
 72
     8
 73
     4
 74
     0
 42
0.000000001
 43
0.0000000001
 40
-0.6666666666666666
 40
-0.6666666666666666
 40
-0.6666666666666666
 40
-0.6666666666666666
 40
-0.5
 40
-0.5
 40
-0.5
 40
-0.5
 10
836.7398521037554
 20
1963.503782270882
 30
0.0
 10
837.3368322776197
 20
1963.911120622539
 30
0.0
 10
837.8592926842621
 20
1964.397120337915
 30
0.0
 10
838.3290892160166
 20
1964.936862064497
 30
0.0
  0
SPLINE
  5
188
330
87
100
AcDbEntity
  8
P-SANR-FIXT
100
AcDbSpline
210
0.0
220
0.0
230
1.0
 70
     8
 71
     3
 72
     8
 73
     4
 74
     0
 42
0.000000001
 43
0.0000000001
 40
-0.4470609684242535
 40
-0.4470609684242535
 40
-0.4470609684242535
 40
-0.4470609684242535
 40
-0.4166666666666668
 40
-0.4166666666666668
 40
-0.4166666666666668
 40
-0.4166666666666668
 10
838.799968512971
 20
1965.448774069795
 30
0.0
 10
838.8800667233372
 20
1965.55291516551
 30
0.0
 10
838.9568748578584
 20
1965.659336530763
 30
0.0
 10
839.0311840227647
 20
1965.767634186974
 30
0.0
  0
SPLINE
  5
189
330
87
100
AcDbEntity
  8
P-SANR-FIXT
100
AcDbSpline
210
0.0
220
0.0
230
1.0
 70
     8
 71
     3
 72
     8
 73
     4
 74
     0
 42
0.000000001
 43
0.0000000001
 40
-0.3562901376827124
 40
-0.3562901376827124
 40
-0.3562901376827124
 40
-0.3562901376827124
 40
-0.3333333333333333
 40
-0.3333333333333333
 40
-0.3333333333333333
 40
-0.3333333333333333
 10
839.4563974244634
 20
1966.429740299552
 30
0.0
 10
839.5064330059899
 20
1966.516345817974
 30
0.0
 10
839.5543744981697
 20
1966.60414603161
 30
0.0
 10
839.602343078951
 20
1966.692393925348
 30
0.0
  0
SPLINE
  5
18A
330
87
100
AcDbEntity
  8
P-SANR-FIXT
100
AcDbSpline
210
0.0
220
0.0
230
1.0
 70
     8
 71
     3
 72
     8
 73
     4
 74
     0
 42
0.000000001
 43
0.0000000001
 40
-0.2662651661501255
 40
-0.2662651661501255
 40
-0.2662651661501255
 40
-0.2662651661501255
 40
-0.25
 40
-0.25
 40
-0.25
 40
-0.25
 10
839.97946760858
 20
1967.489857749304
 30
0.0
 10
840.0068783377912
 20
1967.555944123485
 30
0.0
 10
840.0342992027567
 20
1967.622172736414
 30
0.0
 10
840.0613352458318
 20
1967.688621847305
 30
0.0
  0
SPLINE
  5
18B
330
87
100
AcDbEntity
  8
P-SANR-FIXT
100
AcDbSpline
210
0.0
220
0.0
230
1.0
 70
     8
 71
     3
 72
     8
 73
     4
 74
     0
 42
0.000000001
 43
0.0000000001
 40
-0.1769596045446204
 40
-0.1769596045446204
 40
-0.1769596045446204
 40
-0.1769596045446204
 40
-0.1666666666666666
 40
-0.1666666666666666
 40
-0.1666666666666666
 40
-0.1666666666666666
 10
840.3592589497876
 20
1968.606238613233
 30
0.0
 10
840.3710014966554
 20
1968.650027632546
 30
0.0
 10
840.3827183708045
 20
1968.693821107709
 30
0.0
 10
840.3934657029822
 20
1968.737851362111
 30
0.0
  0
SPLINE
  5
18C
330
87
100
AcDbEntity
  8
P-SANR-FIXT
100
AcDbSpline
210
0.0
220
0.0
230
1.0
 70
     8
 71
     3
 72
     8
 73
     4
 74
     0
 42
0.000000001
 43
0.0000000001
 40
-0.0877184734580644
 40
-0.0877184734580644
 40
-0.0877184734580644
 40
-0.0877184734580644
 40
-0.0833333333333333
 40
-0.0833333333333333
 40
-0.0833333333333333
 40
-0.0833333333333333
 10
840.5880392243615
 20
1969.763233538593
 30
0.0
 10
840.5905423405439
 20
1969.782486133404
 30
0.0
 10
840.5928719499787
 20
1969.801784440215
 30
0.0
 10
840.5950450981418
 20
1969.821123965233
 30
0.0
  0
LINE
  5
18D
330
87
100
AcDbEntity
  8
P-SANR-FIXT
100
AcDbLine
 10
832.6664074431878
 20
1983.937499999997
 30
0.0
 11
832.6664074431878
 21
1979.881771909996
 31
0.0
  0
LINE
  5
18E
330
87
100
AcDbEntity
  8
P-SANR-FIXT
100
AcDbLine
 10
832.6664074431878
 20
1961.993228089998
 30
0.0
 11
832.6664074431878
 21
1952.437499999997
 31
0.0
  0
SPLINE
  5
18F
330
87
100
AcDbEntity
  8
P-SANR-FIXT
100
AcDbSpline
210
0.0
220
0.0
230
1.0
 70
     8
 71
     3
 72
     8
 73
     4
 74
     0
 42
0.000000001
 43
0.0000000001
 40
-1.0
 40
-1.0
 40
-1.0
 40
-1.0
 40
-0.5
 40
-0.5
 40
-0.5
 40
-0.5
 10
831.6664074431878
 20
1979.937499999997
 30
0.0
 10
831.5633112077348
 20
1979.937496345427
 30
0.0
 10
831.4602973841846
 20
1979.935727556857
 30
0.0
 10
831.3573659725374
 20
1979.932192511107
 30
0.0
  0
LINE
  5
190
330
87
100
AcDbEntity
  8
P-SANR-FIXT
100
AcDbLine
 10
831.6664074431878
 20
1980.937499999997
 30
0.0
 11
831.6664074431878
 21
1979.937499999997
 31
0.0
  0
LINE
  5
191
330
87
100
AcDbEntity
  8
P-SANR-FIXT
100
AcDbLine
 10
831.6664074431878
 20
1961.937499999997
 30
0.0
 11
831.6664074431878
 21
1953.437499999997
 31
0.0
  0
SPLINE
  5
192
330
87
100
AcDbEntity
  8
P-SANR-FIXT
100
AcDbSpline
210
0.0
220
0.0
230
1.0
 70
     8
 71
     3
 72
     8
 73
     4
 74
     0
 42
0.000000001
 43
0.0000000001
 40
-0.9285714285714286
 40
-0.9285714285714286
 40
-0.9285714285714286
 40
-0.9285714285714286
 40
-0.9185087056458455
 40
-0.9185087056458455
 40
-0.9185087056458455
 40
-0.9185087056458455
 10
822.7287590696844
 20
1969.902764419793
 30
0.0
 10
822.7343303081065
 20
1969.854777690064
 30
0.0
 10
822.740271241366
 20
1969.80688275844
 30
0.0
 10
822.7465808958712
 20
1969.759082647128
 30
0.0
  0
SPLINE
  5
193
330
87
100
AcDbEntity
  8
P-SANR-FIXT
100
AcDbSpline
210
0.0
220
0.0
230
1.0
 70
     8
 71
     3
 72
     8
 73
     4
 74
     0
 42
0.000000001
 43
0.0000000001
 40
-0.8571428571428572
 40
-0.8571428571428572
 40
-0.8571428571428572
 40
-0.8571428571428572
 40
-0.8357876879007816
 40
-0.8357876879007816
 40
-0.8357876879007816
 40
-0.8357876879007816
 10
822.9029521071051
 20
1968.89586484762
 30
0.0
 10
822.9258114676635
 20
1968.797118098946
 30
0.0
 10
822.9503028234002
 20
1968.698879138956
 30
0.0
 10
822.9764175541131
 20
1968.601177765786
 30
0.0
  0
SPLINE
  5
194
330
87
100
AcDbEntity
  8
P-SANR-FIXT
100
AcDbSpline
210
0.0
220
0.0
230
1.0
 70
     8
 71
     3
 72
     8
 73
     4
 74
     0
 42
0.000000001
 43
0.0000000001
 40
-0.7857142857142857
 40
-0.7857142857142857
 40
-0.7857142857142857
 40
-0.7857142857142857
 40
-0.7142857142857144
 40
-0.7142857142857144
 40
-0.7142857142857144
 40
-0.7142857142857144
 10
823.1867833157572
 20
1967.923161130411
 30
0.0
 10
823.2994219427695
 20
1967.605332516827
 30
0.0
 10
823.4300026257866
 20
1967.294316639492
 30
0.0
 10
823.5770944319279
 20
1966.992349794638
 30
0.0
  0
SPLINE
  5
195
330
87
100
AcDbEntity
  8
P-SANR-FIXT
100
AcDbSpline
210
0.0
220
0.0
230
1.0
 70
     8
 71
     3
 72
     8
 73
     4
 74
     0
 42
0.000000001
 43
0.0000000001
 40
-0.6691427582912075
 40
-0.6691427582912075
 40
-0.6691427582912075
 40
-0.6691427582912075
 40
-0.6428571428571429
 40
-0.6428571428571429
 40
-0.6428571428571429
 40
-0.6428571428571429
 10
823.8754299979978
 20
1966.431262297344
 30
0.0
 10
823.9370561751181
 20
1966.324710496427
 30
0.0
 10
824.0007890312833
 20
1966.219546917194
 30
0.0
 10
824.0665678328353
 20
1966.115855757997
 30
0.0
  0
SPLINE
  5
196
330
87
100
AcDbEntity
  8
P-SANR-FIXT
100
AcDbSpline
210
0.0
220
0.0
230
1.0
 70
     8
 71
     3
 72
     8
 73
     4
 74
     0
 42
0.000000001
 43
0.0000000001
 40
-0.5849815813698946
 40
-0.5849815813698946
 40
-0.5849815813698946
 40
-0.5849815813698946
 40
-0.5714285714285714
 40
-0.5714285714285714
 40
-0.5714285714285714
 40
-0.5714285714285714
 10
824.5302373320976
 20
1965.453358886661
 30
0.0
 10
824.5686315085478
 20
1965.403423849637
 30
0.0
 10
824.6075222081097
 20
1965.353909373729
 30
0.0
 10
824.6469148419462
 20
1965.304851988527
 30
0.0
  0
SPLINE
  5
197
330
87
100
AcDbEntity
  8
P-SANR-FIXT
100
AcDbSpline
210
0.0
220
0.0
230
1.0
 70
     8
 71
     3
 72
     8
 73
     4
 74
     0
 42
0.000000001
 43
0.0000000001
 40
-0.4285714285714286
 40
-0.4285714285714286
 40
-0.4285714285714286
 40
-0.4285714285714286
 40
-0.4162867804021387
 40
-0.4162867804021387
 40
-0.4162867804021387
 40
-0.4162867804021387
 10
826.0483481304495
 20
1963.906325876243
 30
0.0
 10
826.0927612609727
 20
1963.870822818213
 30
0.0
 10
826.1374980546605
 20
1963.835682003441
 30
0.0
 10
826.1825589317815
 20
1963.800922143516
 30
0.0
  0
SPLINE
  5
198
330
87
100
AcDbEntity
  8
P-SANR-FIXT
100
AcDbSpline
210
0.0
220
0.0
230
1.0
 70
     8
 71
     3
 72
     8
 73
     4
 74
     0
 42
0.000000001
 43
0.0000000001
 40
-0.3571428571428573
 40
-0.3571428571428573
 40
-0.3571428571428573
 40
-0.3571428571428573
 40
-0.3318600017130562
 40
-0.3318600017130562
 40
-0.3318600017130562
 40
-0.3318600017130562
 10
826.8570672606852
 20
1963.329934313076
 30
0.0
 10
826.9563779876769
 20
1963.267130600476
 30
0.0
 10
827.0569298836583
 20
1963.205968349031
 30
0.0
 10
827.1587783325415
 20
1963.146766050787
 30
0.0
  0
SPLINE
  5
199
330
87
100
AcDbEntity
  8
P-SANR-FIXT
100
AcDbSpline
210
0.0
220
0.0
230
1.0
 70
     8
 71
     3
 72
     8
 73
     4
 74
     0
 42
0.000000001
 43
0.0000000001
 40
-0.2857142857142857
 40
-0.2857142857142857
 40
-0.2857142857142857
 40
-0.2857142857142857
 40
-0.2142857142857143
 40
-0.2142857142857143
 40
-0.2142857142857143
 40
-0.2142857142857143
 10
827.7297472994765
 20
1962.844125739967
 30
0.0
 10
828.0306261894377
 20
1962.698083358476
 30
0.0
 10
828.3425910107725
 20
1962.573329433413
 30
0.0
 10
828.6593093635199
 20
1962.455460965137
 30
0.0
  0
SPLINE
  5
19A
330
87
100
AcDbEntity
  8
P-SANR-FIXT
100
AcDbSpline
210
0.0
220
0.0
230
1.0
 70
     8
 71
     3
 72
     8
 73
     4
 74
     0
 42
0.000000001
 43
0.0000000001
 40
-0.1645563505144409
 40
-0.1645563505144409
 40
-0.1645563505144409
 40
-0.1645563505144409
 40
-0.1428571428571428
 40
-0.1428571428571428
 40
-0.1428571428571428
 40
-0.1428571428571428
 10
829.33363930335
 20
1962.245188236775
 30
0.0
 10
829.432962378903
 20
1962.218445448928
 30
0.0
 10
829.5323432164728
 20
1962.191967770042
 30
0.0
 10
829.6328866327407
 20
1962.170243124926
 30
0.0
  0
SPLINE
  5
19B
330
87
100
AcDbEntity
  8
P-SANR-FIXT
100
AcDbSpline
210
0.0
220
0.0
230
1.0
 70
     8
 71
     3
 72
     8
 73
     4
 74
     0
 42
0.000000001
 43
0.0000000001
 40
-0.0815163471692446
 40
-0.0815163471692446
 40
-0.0815163471692446
 40
-0.0815163471692446
 40
-0.0714285714285717
 40
-0.0714285714285717
 40
-0.0714285714285717
 40
-0.0714285714285717
 10
830.4914049416918
 20
1962.016176650564
 30
0.0
 10
830.5390168153346
 20
1962.010023534483
 30
0.0
 10
830.5869226211465
 20
1962.004858866497
 30
0.0
 10
830.6350526361464
 20
1962.000449268392
 30
0.0
  0
LINE
  5
19C
330
87
100
AcDbEntity
  8
P-SANR-FIXT
100
AcDbLine
 10
799.6664074431878
 20
1980.937499999997
 30
0.0
 11
799.6664074431878
 21
1979.937499999997
 31
0.0
  0
LINE
  5
19D
330
87
100
AcDbEntity
  8
P-SANR-FIXT
100
AcDbLine
 10
799.6664074431878
 20
1961.937499999997
 30
0.0
 11
799.6664074431878
 21
1953.437499999997
 31
0.0
  0
LINE
  5
19E
330
87
100
AcDbEntity
  8
P-SANR-FIXT
100
AcDbLine
 10
789.9164074431878
 20
1989.437499999997
 30
0.0
 11
789.9164074431878
 21
1952.437499999997
 31
0.0
  0
SPLINE
  5
19F
330
87
100
AcDbEntity
  8
P-SANR-FIXT
100
AcDbSpline
210
0.0
220
0.0
230
1.0
 70
     8
 71
     3
 72
    10
 73
     6
 74
     0
 42
0.000000001
 43
0.0000000001
 40
-1.0
 40
-1.0
 40
-1.0
 40
-1.0
 40
-0.6666666666666666
 40
-0.3333333333333333
 40
0.0
 40
0.0
 40
0.0
 40
0.0
 10
784.4664074431879
 20
1994.833230882451
 30
0.0
 10
785.5363674492877
 20
1993.702377770351
 30
0.0
 10
786.9633084372804
 20
1991.411292970184
 30
0.0
 10
786.9913222152757
 20
1987.755013748351
 30
0.0
 10
785.5486541940224
 20
1985.434092173436
 30
0.0
 10
784.4664074431879
 20
1984.280861480275
 30
0.0
  0
SPLINE
  5
1A0
330
87
100
AcDbEntity
  8
P-SANR-FIXT
100
AcDbSpline
210
0.0
220
0.0
230
1.0
 70
     8
 71
     3
 72
    10
 73
     6
 74
     0
 42
0.000000001
 43
0.0000000001
 40
-1.0
 40
-1.0
 40
-1.0
 40
-1.0
 40
-0.6666666666666666
 40
-0.3333333333333333
 40
0.0
 40
0.0
 40
0.0
 40
0.0
 10
784.4664074431878
 20
1981.489869402174
 30
0.0
 10
785.5363674492876
 20
1979.228163177974
 30
0.0
 10
786.9633084372804
 20
1974.64599357764
 30
0.0
 10
786.9913222152757
 20
1967.333435133974
 30
0.0
 10
785.5486541940224
 20
1962.691591984143
 30
0.0
 10
784.4664074431878
 20
1960.385130597821
 30
0.0
  0
SPLINE
  5
1A1
330
87
100
AcDbEntity
  8
P-SANR-FIXT
100
AcDbSpline
210
0.0
220
0.0
230
1.0
 70
     8
 71
     3
 72
    10
 73
     6
 74
     0
 42
0.000000001
 43
0.0000000001
 40
-1.0
 40
-1.0
 40
-1.0
 40
-1.0
 40
-0.6666666666666666
 40
-0.3333333333333333
 40
0.0
 40
0.0
 40
0.0
 40
0.0
 10
784.4664074431879
 20
1957.594138519721
 30
0.0
 10
785.5363674492878
 20
1956.463285407621
 30
0.0
 10
786.9633084372805
 20
1954.172200607454
 30
0.0
 10
786.991322215276
 20
1950.51592138562
 30
0.0
 10
785.5486541940225
 20
1948.194999810705
 30
0.0
 10
784.4664074431879
 20
1947.041769117543
 30
0.0
  0
ENDBLK
  5
1A3
330
87
100
AcDbEntity
  8
0
100
AcDbBlockEnd
  0
BLOCK
  5
1ED
330
1A5
100
AcDbEntity
  8
0
100
AcDbBlockBegin
  2
Automatic flow rate regulator valve_Caleffi_121 DN15 - 1_2__-V1-Est - Idraulica
 70
     0
 10
0.0
 20
0.0
 30
0.0
  3
Automatic flow rate regulator valve_Caleffi_121 DN15 - 1_2__-V1-Est - Idraulica
  1

  0
LINE
  5
1A6
330
1A5
100
AcDbEntity
  8
M-PIPE
100
AcDbLine
 10
878.1664074431891
 20
1853.747075844249
 30
0.0
 11
753.1664074431894
 21
1853.747075844249
 31
0.0
1001
REVIT
1002
{
1070
     3
1000
939838
1002
}
  0
LWPOLYLINE
  5
1A7
330
1A5
100
AcDbEntity
  8
M-PIPE
100
AcDbPolyline
 90
       41
 70
   128
 43
0.0
 10
878.1664074431891
 20
1853.747075844249
 10
878.3663541141221
 20
1853.743076377554
 10
878.5659809130347
 20
1853.731084375762
 10
878.7649684796335
 20
1853.711119023518
 10
878.9629984762601
 20
1853.683212261127
 10
879.1597540971642
 20
1853.647408733455
 10
879.3549205753247
 20
1853.603765718509
 10
879.5481856860096
 20
1853.552353035803
 10
879.7392402462696
 20
1853.493252934661
 10
879.9277786095643
 20
1853.426559962638
 10
880.1134991547323
 20
1853.352380814263
 10
880.2961047685188
 20
1853.270834160349
 10
880.4753033208964
 20
1853.182050458145
 10
880.6508081324077
 20
1853.086171742637
 10
880.8223384327932
 20
1852.983351399316
 10
880.9896198101641
 20
1852.873753918797
 10
881.1523846500008
 20
1852.75755463367
 10
881.3103725632812
 20
1852.634939438004
 10
881.4633308030463
 20
1852.506104489953
 10
881.6110146687417
 20
1852.371255897953
 10
881.7531878976865
 20
1852.230609390985
 10
881.8896230430432
 20
1852.084389973455
 10
882.0201018376836
 20
1851.932831565241
 10
882.1444155433708
 20
1851.776176627466
 10
882.2623652846939
 20
1851.614675774611
 10
882.3737623672284
 20
1851.44858737359
 10
882.4784285794057
 20
1851.278177130413
 10
882.5761964776136
 20
1851.103717665117
 10
882.6669096540713
 20
1850.925488075633
 10
882.7504229870477
 20
1850.74377349128
 10
882.8266028730251
 20
1850.558864616632
 10
882.8953274404366
 20
1850.371057266443
 10
882.956486744635
 20
1850.180651892409
 10
883.0099829437804
 20
1849.987953102511
 10
883.0557304553654
 20
1849.793269173706
 10
883.0936560931313
 20
1849.59691155875
 10
883.1236991841475
 20
1849.39919438794
 10
883.1458116658771
 20
1849.20043396657
 10
883.1599581630669
 20
1849.000948268917
 10
883.1661160443387
 20
1848.80105642954
 10
883.1664074431889
 20
1848.747075844249
1001
REVIT
1002
{
1070
     3
1000
939838
1002
}
  0
LWPOLYLINE
  5
1A8
330
1A5
100
AcDbEntity
  8
M-PIPE
100
AcDbPolyline
 90
       41
 70
   128
 43
0.0
 10
748.1664074431895
 20
1848.747075844249
 10
748.1704069098843
 20
1848.947022515182
 10
748.1823989116763
 20
1849.146649314095
 10
748.20236426392
 20
1849.345636880694
 10
748.2302710263112
 20
1849.54366687732
 10
748.2660745539832
 20
1849.740422498224
 10
748.3097175689293
 20
1849.935588976385
 10
748.3611302516355
 20
1850.128854087069
 10
748.4202303527771
 20
1850.31990864733
 10
748.4869233247997
 20
1850.508447010625
 10
748.5611024731749
 20
1850.694167555792
 10
748.6426491270894
 20
1850.876773169579
 10
748.7314328292929
 20
1851.055971721956
 10
748.8273115448012
 20
1851.231476533468
 10
748.9301318881222
 20
1851.403006833854
 10
749.039729368641
 20
1851.570288211224
 10
749.155928653768
 20
1851.733053051061
 10
749.2785438494347
 20
1851.891040964341
 10
749.4073787974848
 20
1852.043999204107
 10
749.542227389485
 20
1852.191683069802
 10
749.6828738964535
 20
1852.333856298747
 10
749.829093313983
 20
1852.470291444103
 10
749.9806517221965
 20
1852.600770238744
 10
750.137306659972
 20
1852.725083944431
 10
750.2988075128271
 20
1852.843033685754
 10
750.4648959138487
 20
1852.954430768289
 10
750.6353061570256
 20
1853.059096980466
 10
750.8097656223206
 20
1853.156864878673
 10
750.9879952118057
 20
1853.247578055132
 10
751.169709796158
 20
1853.331091388108
 10
751.3546186708061
 20
1853.407271274085
 10
751.5424260209957
 20
1853.475995841497
 10
751.7328313950297
 20
1853.537155145695
 10
751.9255301849275
 20
1853.59065134484
 10
752.1202141137323
 20
1853.636398856426
 10
752.3165717286881
 20
1853.674324494192
 10
752.5142888994986
 20
1853.704367585207
 10
752.7130493208678
 20
1853.726480066937
 10
752.9125350185215
 20
1853.740626564127
 10
753.1124268578982
 20
1853.746784445399
 10
753.1664074431894
 20
1853.747075844249
1001
REVIT
1002
{
1070
     3
1000
939838
1002
}
  0
SPLINE
  5
1A9
330
1A5
100
AcDbEntity
  8
M-PIPE
100
AcDbSpline
210
0.0
220
0.0
230
1.0
 70
     8
 71
     3
 72
    20
 73
    16
 74
     0
 42
0.000000001
 43
0.0000000001
 40
0.0
 40
0.0
 40
0.0
 40
0.0
 40
0.125
 40
0.1875
 40
0.25
 40
0.3125
 40
0.375
 40
0.4375
 40
0.5
 40
0.53125
 40
0.5625
 40
0.625
 40
0.6875
 40
0.75
 40
1.0
 40
1.0
 40
1.0
 40
1.0
 10
773.4664074431873
 20
1806.747075844248
 30
0.0
 10
773.5081920122963
 20
1808.174727032792
 30
0.0
 10
773.726068932526
 20
1810.26141644419
 30
0.0
 10
774.3313161875343
 20
1812.920629473989
 30
0.0
 10
774.9339348530028
 20
1814.847746848679
 30
0.0
 10
775.7199932352379
 20
1816.717390733868
 30
0.0
 10
776.6824193433483
 20
1818.525145985046
 30
0.0
 10
777.7736563629491
 20
1820.252835013359
 30
0.0
 10
778.749337585573
 20
1821.612718901191
 30
0.0
 10
779.568647266337
 20
1822.650126272326
 30
0.0
 10
780.4353864965488
 20
1823.659372100268
 30
0.0
 10
781.5857801293645
 20
1824.865554982881
 30
0.0
 10
783.0508326176262
 20
1826.225556711338
 30
0.0
 10
786.0684765377536
 20
1828.771194372546
 30
0.0
 10
788.8047936201252
 20
1830.537298697471
 30
0.0
 10
791.1706935323827
 20
1831.746275831448
 30
0.0
1001
REVIT
1002
{
1070
     3
1000
939838
1002
}
  0
LINE
  5
1AA
330
1A5
100
AcDbEntity
  8
M-PIPE
100
AcDbLine
 10
791.1706935323827
 20
1831.746275831448
 30
0.0
 11
791.9303913274072
 21
1831.746275831448
 31
0.0
1001
REVIT
1002
{
1070
     3
1000
939838
1002
}
  0
LINE
  5
1AB
330
1A5
100
AcDbEntity
  8
M-PIPE
100
AcDbLine
 10
839.4024235589675
 20
1831.746275831448
 30
0.0
 11
840.1621213539923
 21
1831.746275831448
 31
0.0
1001
REVIT
1002
{
1070
     3
1000
939838
1002
}
  0
SPLINE
  5
1AC
330
1A5
100
AcDbEntity
  8
M-PIPE
100
AcDbSpline
210
0.0
220
0.0
230
1.0
 70
     8
 71
     3
 72
    19
 73
    15
 74
     0
 42
0.000000001
 43
0.0000000001
 40
0.0
 40
0.0
 40
0.0
 40
0.0
 40
0.25
 40
0.375
 40
0.4375
 40
0.5
 40
0.53125
 40
0.5625
 40
0.625
 40
0.6875
 40
0.75
 40
0.8125
 40
0.875
 40
1.0
 40
1.0
 40
1.0
 40
1.0
 10
840.1621213539923
 20
1831.746275831448
 30
0.0
 10
842.5280212662499
 20
1830.537298697471
 30
0.0
 10
845.8018667347969
 20
1828.418162069383
 30
0.0
 10
849.2831145106087
 20
1825.348338577086
 30
0.0
 10
851.1299062962034
 20
1823.417732715945
 30
0.0
 10
852.1828624697294
 20
1822.13928555531
 30
0.0
 10
852.9711247614139
 20
1821.069326754393
 30
0.0
 10
853.7425469204858
 20
1819.964562712809
 30
0.0
 10
854.6498806410752
 20
1818.525256105851
 30
0.0
 10
855.6129596059996
 20
1816.717361229802
 30
0.0
 10
856.3988431158739
 20
1814.847754744133
 30
0.0
 10
857.0015084139718
 20
1812.920627396238
 30
0.0
 10
857.6067401247701
 20
1810.26141769084
 30
0.0
 10
857.8246228740786
 20
1808.174727032792
 30
0.0
 10
857.8664074431875
 20
1806.747075844248
 30
0.0
1001
REVIT
1002
{
1070
     3
1000
939838
1002
}
  0
LINE
  5
1AD
330
1A5
100
AcDbEntity
  8
M-PIPE
100
AcDbLine
 10
857.8664074431875
 20
1806.747075844248
 30
0.0
 11
878.1664074431871
 21
1806.747075844248
 31
0.0
1001
REVIT
1002
{
1070
     3
1000
939838
1002
}
  0
LINE
  5
1AE
330
1A5
100
AcDbEntity
  8
M-PIPE
100
AcDbLine
 10
753.1664074431878
 20
1806.747075844248
 30
0.0
 11
773.4664074431876
 21
1806.747075844248
 31
0.0
1001
REVIT
1002
{
1070
     3
1000
939838
1002
}
  0
ARC
  5
1AF
330
1A5
100
AcDbEntity
  8
M-PIPE
100
AcDbCircle
 10
815.6664074431875
 20
1806.747075844248
 30
0.0
 40
35.00000000000017
100
AcDbArc
 50
134.4171798682689
 51
179.9999999999992
1001
REVIT
1002
{
1070
     3
1000
939838
1002
}
  0
LINE
  5
1B0
330
1A5
100
AcDbEntity
  8
M-PIPE
100
AcDbLine
 10
780.6664074431875
 20
1806.747075844248
 30
0.0
 11
781.1664074431864
 21
1806.747075844248
 31
0.0
1001
REVIT
1002
{
1070
     3
1000
939838
1002
}
  0
ARC
  5
1B1
330
1A5
100
AcDbEntity
  8
M-PIPE
100
AcDbCircle
 10
815.6664074431875
 20
1806.747075844248
 30
0.0
 40
35.00000000000011
100
AcDbArc
 50
359.9999999999992
 51
45.58282013173049
1001
REVIT
1002
{
1070
     3
1000
939838
1002
}
  0
LINE
  5
1B2
330
1A5
100
AcDbEntity
  8
M-PIPE
100
AcDbLine
 10
850.1664074431884
 20
1806.747075844248
 30
0.0
 11
850.6664074431876
 21
1806.747075844248
 31
0.0
1001
REVIT
1002
{
1070
     3
1000
939838
1002
}
  0
LINE
  5
1B3
330
1A5
100
AcDbEntity
  8
M-PIPE
100
AcDbLine
 10
773.4664074431876
 20
1806.747075844248
 30
0.0
 11
780.6664074431873
 21
1806.747075844248
 31
0.0
1001
REVIT
1002
{
1070
     3
1000
939838
1002
}
  0
LINE
  5
1B4
330
1A5
100
AcDbEntity
  8
M-PIPE
100
AcDbLine
 10
850.6664074431876
 20
1806.747075844248
 30
0.0
 11
857.8664074431875
 21
1806.747075844248
 31
0.0
1001
REVIT
1002
{
1070
     3
1000
939838
1002
}
  0
LINE
  5
1B5
330
1A5
100
AcDbEntity
  8
M-PIPE
100
AcDbLine
 10
878.1664074431871
 20
1806.747075844248
 30
0.0
 11
883.1664074431872
 21
1806.747075844248
 31
0.0
1001
REVIT
1002
{
1070
     3
1000
939838
1002
}
  0
LINE
  5
1B6
330
1A5
100
AcDbEntity
  8
M-PIPE
100
AcDbLine
 10
748.1664074431876
 20
1806.747075844248
 30
0.0
 11
753.1664074431877
 21
1806.747075844248
 31
0.0
1001
REVIT
1002
{
1070
     3
1000
939838
1002
}
  0
LINE
  5
1B7
330
1A5
100
AcDbEntity
  8
M-PIPE
100
AcDbLine
 10
840.2383710309269
 20
1810.933799189649
 30
0.0
 11
833.3844075549368
 21
1814.89093684753
 31
0.0
1001
REVIT
1002
{
1070
     3
1000
938184
1002
}
  0
LWPOLYLINE
  5
1B8
330
1A5
100
AcDbEntity
  8
M-PIPE
100
AcDbPolyline
 90
       11
 70
   128
 43
0.0
 10
840.2247961886789
 20
1802.490921998088
 10
840.3777317510554
 20
1803.357471169187
 10
840.4958922569019
 20
1804.22944298469
 10
840.5790886746153
 20
1805.105442475702
 10
840.6271879076751
 20
1805.984068229907
 10
840.6401130075687
 20
1806.863914633529
 10
840.6178432968939
 20
1807.743574120013
 10
840.5604144024366
 20
1808.621639421829
 10
840.4679181981776
 20
1809.496705821808
 10
840.3405026583122
 20
1810.367373400378
 10
840.2383710309269
 20
1810.933799189649
1001
REVIT
1002
{
1070
     3
1000
938184
1002
}
  0
LINE
  5
1B9
330
1A5
100
AcDbEntity
  8
M-PIPE
100
AcDbLine
 10
833.3455410871021
 20
1798.51918221337
 30
0.0
 11
840.2247961886789
 21
1802.490921998088
 31
0.0
1001
REVIT
1002
{
1070
     3
1000
938184
1002
}
  0
LWPOLYLINE
  5
1BA
330
1A5
100
AcDbEntity
  8
M-PIPE
100
AcDbPolyline
 90
       58
 70
   128
 43
0.0
 10
797.9872737993146
 20
1798.519182213354
 10
798.3304432086143
 20
1797.818786867248
 10
798.7013464625476
 20
1797.132674878905
 10
799.09939019503
 20
1796.461943881143
 10
799.5239376210009
 20
1795.807666900479
 10
799.9743095551442
 20
1795.170890640508
 10
800.4497854984391
 20
1794.552633807409
 10
800.9496047908063
 20
1793.953885480226
 10
801.4729678280001
 20
1793.375603528558
 10
802.0190373408059
 20
1792.818713080166
 10
802.5869397344919
 20
1792.284105040971
 10
803.1757664863743
 20
1791.772634669792
 10
803.7845755992595
 20
1791.285120210115
 10
804.4123931084396
 20
1790.822341581078
 10
805.0582146398269
 20
1790.385039129766
 10
805.7210070167393
 20
1789.973912446817
 10
806.3997099127615
 20
1789.589619247219
 10
807.0932375480426
 20
1789.232774318114
 10
807.8004804263105
 20
1788.903948535266
 10
808.5203071098304
 20
1788.603667949782
 10
809.2515660294637
 20
1788.332412946541
 10
809.9930873269325
 20
1788.090617475685
 10
810.7436847263436
 20
1787.878668358387
 10
811.5021574319767
 20
1787.69690466802
 10
812.2672920493018
 20
1787.545617187715
 10
813.0378645261513
 20
1787.425047945168
 10
813.8126421109422
 20
1787.335389825447
 10
814.5903853248157
 20
1787.276786262417
 10
815.3698499445399
 20
1787.249331009278
 10
816.1497889929993
 20
1787.253067988578
 10
816.928954734095
 20
1787.287991221947
 10
817.7061006688544
 20
1787.354044839662
 10
818.4799835295642
 20
1787.451123170025
 10
819.2493652687334
 20
1787.579070908416
 10
820.013015039705
 20
1787.737683365748
 10
820.7697111657493
 20
1787.926706795925
 10
821.5182430944842
 20
1788.145838801781
 10
822.2574133345023
 20
1788.394728818853
 10
822.9860393711003
 20
1788.672978676208
 10
823.7029555580519
 20
1788.980143233429
 10
824.4070149823921
 20
1789.315731092751
 10
825.0970912992327
 20
1789.679205385187
 10
825.7720805336759
 20
1790.069984629405
 10
826.4309028469364
 20
1790.487443661978
 10
827.0725042638538
 20
1790.930914637506
 10
827.6958583590293
 20
1791.39968809703
 10
828.2999678988854
 20
1791.893014103015
 10
828.8838664370281
 20
1792.410103439088
 10
829.4466198603551
 20
1792.95012887262
 10
829.9873278834366
 20
1793.512226478113
 10
830.5051254887803
 20
1794.095497019309
 10
830.9991843106756
 20
1794.699007387765
 10
831.4687139604007
 20
1795.321792095634
 10
831.9129632906774
 20
1795.962854820237
 10
832.331221597345
 20
1796.621169997967
 10
832.7228197563368
 20
1797.295684464972
 10
833.0871312941349
 20
1797.985319141996
 10
833.3455410871021
 20
1798.51918221337
1001
REVIT
1002
{
1070
     3
1000
938184
1002
}
  0
LINE
  5
1BB
330
1A5
100
AcDbEntity
  8
M-PIPE
100
AcDbLine
 10
791.108018697696
 20
1802.490921998098
 30
0.0
 11
797.9872737993134
 21
1798.519182213353
 31
0.0
1001
REVIT
1002
{
1070
     3
1000
938184
1002
}
  0
LWPOLYLINE
  5
1BC
330
1A5
100
AcDbEntity
  8
M-PIPE
100
AcDbPolyline
 90
       11
 70
   128
 43
0.0
 10
791.0944438554516
 20
1810.93379918966
 10
790.9442956309981
 20
1810.066762706652
 10
790.8289397207802
 20
1809.194415432826
 10
790.7485606696464
 20
1808.31815293773
 10
790.7032870669318
 20
1807.43937705443
 10
790.6931913407428
 20
1806.559493636876
 10
790.7182896420878
 20
1805.679910310838
 10
790.7785418190386
 20
1804.802034222004
 10
790.8738514809654
 20
1803.927269784846
 10
791.0040661527404
 20
1803.057016435857
 10
791.108018697696
 20
1802.490921998098
1001
REVIT
1002
{
1070
     3
1000
938184
1002
}
  0
LINE
  5
1BD
330
1A5
100
AcDbEntity
  8
M-PIPE
100
AcDbLine
 10
797.9484073314858
 20
1814.890936847562
 30
0.0
 11
791.0944438554516
 21
1810.93379918966
 31
0.0
1001
REVIT
1002
{
1070
     3
1000
938184
1002
}
  0
LWPOLYLINE
  5
1BE
330
1A5
100
AcDbEntity
  8
M-PIPE
100
AcDbPolyline
 90
       58
 70
   128
 43
0.0
 10
833.3844075549379
 20
1814.89093684753
 10
833.0445674654384
 20
1815.592953654947
 10
832.6769260270465
 20
1816.280818944886
 10
832.2820713876375
 20
1816.953432279621
 10
831.8606352304032
 20
1817.6097176213
 10
831.4132917632939
 20
1818.248625053375
 10
830.9407566404285
 20
1818.869132460248
 10
830.4437858172015
 20
1819.470247162437
 10
829.9231743409155
 20
1820.051007504648
 10
829.3797550788747
 20
1820.610484394224
 10
828.8143973859748
 20
1821.147782787489
 10
828.2280057139216
 20
1821.662043121632
 10
827.6215181642996
 20
1822.152442689821
 10
826.9959049878115
 20
1822.61819695736
 10
826.3521670320827
 20
1823.058560816777
 10
825.6913341405189
 20
1823.472829779835
 10
825.0144635047764
 20
1823.860341104568
 10
824.3226379734808
 20
1824.220474855519
 10
823.616964319901
 20
1824.552654895511
 10
822.8985714713468
 20
1824.856349807343
 10
822.1686087031267
 20
1825.131073743939
 10
821.4282437999532
 20
1825.376387205606
 10
820.6786611877353
 20
1825.591897743137
 10
819.9210600387496
 20
1825.777260585643
 10
819.156652353222
 20
1825.932179192119
 10
818.3866610203843
 20
1826.056405725842
 10
817.6123178621129
 20
1826.14974145086
 10
816.8348616622765
 20
1826.212037049921
 10
816.0555361849464
 20
1826.243192863356
 10
815.2755881846395
 20
1826.243159048511
 10
814.496265411776
 20
1826.211935659481
 10
813.7188146165456
 20
1826.14957264703
 10
812.9444795543737
 20
1826.056169778672
 10
812.1744989961769
 20
1825.931876479073
 10
811.4101047465947
 20
1825.776891590997
 10
810.652519673364
 20
1825.591463057204
 10
809.9029557509931
 20
1825.375887523792
 10
809.1626121218585
 20
1825.130509865627
 10
808.4326731778359
 20
1824.855722634619
 10
807.7143066655237
 20
1824.551965431717
 10
807.008661818098
 20
1824.21972420365
 10
806.3168675167851
 20
1823.859530465506
 10
805.6400304848926
 20
1823.471960450432
 10
804.9792335172869
 20
1823.057634187772
 10
804.3355337481537
 20
1822.617214511163
 10
803.7099609598085
 20
1822.151405998137
 10
803.1035159352644
 20
1821.660953842945
 10
802.5171688571923
 20
1821.146642664414
 10
801.9518577558365
 20
1820.609295250713
 10
801.4084870083658
 20
1820.049771243079
 10
800.8879258920634
 20
1819.468965760563
 10
800.3910071936683
 20
1818.86780796804
 10
799.9185258770943
 20
1818.247259589736
 10
799.4712378116571
 20
1817.608313370682
 10
799.0498585628451
 20
1816.951991488526
 10
798.6550622475671
 20
1816.279343918272
 10
798.2874804557086
 20
1815.591446752541
 10
797.9484073314858
 20
1814.890936847562
1001
REVIT
1002
{
1070
     3
1000
938184
1002
}
  0
ARC
  5
1BF
330
1A5
100
AcDbEntity
  8
M-PIPE
100
AcDbCircle
 10
815.6664074431875
 20
1806.747075844245
 30
0.0
 40
23.75
100
AcDbArc
 50
12.0647594055225
 51
167.9352405944511
1001
REVIT
1002
{
1070
     3
1000
938184
1002
}
  0
ARC
  5
1C0
330
1A5
100
AcDbEntity
  8
M-PIPE
100
AcDbCircle
 10
815.6664074431875
 20
1806.747075844245
 30
0.0
 40
23.74999999999998
100
AcDbArc
 50
192.2383336182203
 51
347.761666381757
1001
REVIT
1002
{
1070
     3
1000
938184
1002
}
  0
SPLINE
  5
1C1
330
1A5
100
AcDbEntity
  8
M-PIPE
100
AcDbSpline
210
0.0
220
0.0
230
1.0
 70
     8
 71
     3
 72
    15
 73
    11
 74
     0
 42
0.000000001
 43
0.0000000001
 40
0.0
 40
0.0
 40
0.0
 40
0.0
 40
0.1428571428571428
 40
0.2857142857142857
 40
0.4285714285714286
 40
0.5714285714285714
 40
0.6785714285714287
 40
0.7321428571428572
 40
0.7857142857142857
 40
1.0
 40
1.0
 40
1.0
 40
1.0
 10
837.0324063489341
 20
1808.743311877481
 30
0.0
 10
837.2638044487857
 20
1808.89225240549
 30
0.0
 10
837.7226024792232
 20
1809.197418316868
 30
0.0
 10
838.3872895699788
 20
1809.643529004189
 30
0.0
 10
838.9945300745518
 20
1810.059863761263
 30
0.0
 10
839.4725838936262
 20
1810.392763617657
 30
0.0
 10
839.770389822908
 20
1810.601508116995
 30
0.0
 10
839.9400760225912
 20
1810.722213020517
 30
0.0
 10
840.1544975033363
 20
1810.87368827315
 30
0.0
 10
840.2375692133983
 20
1810.934262119213
 30
0.0
 10
840.2383710309255
 20
1810.933799189648
 30
0.0
1001
REVIT
1002
{
1070
     3
1000
938184
1002
}
  0
SPLINE
  5
1C2
330
1A5
100
AcDbEntity
  8
M-PIPE
100
AcDbSpline
210
0.0
220
0.0
230
1.0
 70
     8
 71
     3
 72
    13
 73
     9
 74
     0
 42
0.000000001
 43
0.0000000001
 40
-1.0
 40
-1.0
 40
-1.0
 40
-1.0
 40
-0.8333333333333332
 40
-0.6666666666666666
 40
-0.5
 40
-0.3333333333333333
 40
-0.1666666666666666
 40
0.0
 40
0.0
 40
0.0
 40
0.0
 10
837.0251471629472
 20
1804.685055656097
 30
0.0
 10
837.32055866852
 20
1804.502928358649
 30
0.0
 10
837.893395103644
 20
1804.128321354788
 30
0.0
 10
838.6611642313805
 20
1803.585668252923
 30
0.0
 10
839.3274124742989
 20
1803.123700176093
 30
0.0
 10
839.8385517692354
 20
1802.769165570459
 30
0.0
 10
840.1468021556306
 20
1802.538752953368
 30
0.0
 10
840.2217242993563
 20
1802.48914844196
 30
0.0
 10
840.2247961886775
 20
1802.490921998087
 30
0.0
1001
REVIT
1002
{
1070
     3
1000
938184
1002
}
  0
SPLINE
  5
1C3
330
1A5
100
AcDbEntity
  8
M-PIPE
100
AcDbSpline
210
0.0
220
0.0
230
1.0
 70
     8
 71
     3
 72
    13
 73
     9
 74
     0
 42
0.000000001
 43
0.0000000001
 40
0.0
 40
0.0
 40
0.0
 40
0.0
 40
0.1428571428571428
 40
0.2857142857142857
 40
0.4285714285714286
 40
0.5714285714285714
 40
0.7857142857142857
 40
1.0
 40
1.0
 40
1.0
 40
1.0
 10
830.5860538451852
 20
1800.967443395752
 30
0.0
 10
830.7902312199914
 20
1800.794120563493
 30
0.0
 10
831.1948469066578
 20
1800.442149388439
 30
0.0
 10
831.7769222958343
 20
1799.932209003605
 30
0.0
 10
832.302112050598
 20
1799.464625339265
 30
0.0
 10
832.8203387139634
 20
1798.99824941291
 30
0.0
 10
833.2360711317335
 20
1798.619677648652
 30
0.0
 10
833.3451741301772
 20
1798.518970350691
 30
0.0
 10
833.3455410871007
 20
1798.519182213369
 30
0.0
1001
REVIT
1002
{
1070
     3
1000
938184
1002
}
  0
SPLINE
  5
1C4
330
1A5
100
AcDbEntity
  8
M-PIPE
100
AcDbSpline
210
0.0
220
0.0
230
1.0
 70
     8
 71
     3
 72
    11
 73
     7
 74
     0
 42
0.000000001
 43
0.0000000001
 40
-1.0
 40
-1.0
 40
-1.0
 40
-1.0
 40
-0.8333333333333332
 40
-0.6666666666666666
 40
-0.5
 40
-0.3333333333333333
 40
-0.3333333333333333
 40
-0.3333333333333333
 40
-0.3333333333333333
 10
800.7467610412279
 20
1800.967443395734
 30
0.0
 10
800.4964372967693
 20
1800.761341587341
 30
0.0
 10
800.0060669969752
 20
1800.340729521456
 30
0.0
 10
799.3404493404658
 20
1799.73741051159
 30
0.0
 10
798.7511529469153
 20
1799.217475685892
 30
0.0
 10
798.4516646660709
 20
1798.955317064423
 30
0.0
 10
798.3335121764729
 20
1798.848457110572
 30
0.0
1001
REVIT
1002
{
1070
     3
1000
938184
1002
}
  0
SPLINE
  5
1C5
330
1A5
100
AcDbEntity
  8
M-PIPE
100
AcDbSpline
210
0.0
220
0.0
230
1.0
 70
     8
 71
     3
 72
     9
 73
     5
 74
     0
 42
0.000000001
 43
0.0000000001
 40
-0.3309321679349982
 40
-0.3309321679349982
 40
-0.3309321679349982
 40
-0.3309321679349982
 40
-0.1666666666666666
 40
0.0
 40
0.0
 40
0.0
 40
0.0
 10
798.3284251745032
 20
1798.843853609194
 30
0.0
 10
798.2128715581165
 20
1798.739221619803
 30
0.0
 10
798.0418285674113
 20
1798.575912198559
 30
0.0
 10
797.9853986766614
 20
1798.52026481592
 30
0.0
 10
797.9872737993117
 20
1798.519182213352
 30
0.0
1001
REVIT
1002
{
1070
     3
1000
938184
1002
}
  0
SPLINE
  5
1C6
330
1A5
100
AcDbEntity
  8
M-PIPE
100
AcDbSpline
210
0.0
220
0.0
230
1.0
 70
     8
 71
     3
 72
    15
 73
    11
 74
     0
 42
0.000000001
 43
0.0000000001
 40
0.0
 40
0.0
 40
0.0
 40
0.0
 40
0.1428571428571428
 40
0.2857142857142857
 40
0.4285714285714286
 40
0.5714285714285714
 40
0.6785714285714287
 40
0.7321428571428572
 40
0.7857142857142857
 40
1.0
 40
1.0
 40
1.0
 40
1.0
 10
794.3076677234255
 20
1804.685055656106
 30
0.0
 10
794.0766382947186
 20
1804.535763346189
 30
0.0
 10
793.6185773700526
 20
1804.229923465951
 30
0.0
 10
792.9550247411331
 20
1803.782904536414
 30
0.0
 10
792.3489278378751
 20
1803.365841763704
 30
0.0
 10
791.8718881030911
 20
1803.032470577949
 30
0.0
 10
791.5747892953962
 20
1802.823489396421
 30
0.0
 10
791.4055204045728
 20
1802.702671109685
 30
0.0
 10
791.1916561995242
 20
1802.551065421281
 30
0.0
 10
791.1088126422505
 20
1802.490463613995
 30
0.0
 10
791.1080186976946
 20
1802.490921998098
 30
0.0
1001
REVIT
1002
{
1070
     3
1000
938184
1002
}
  0
SPLINE
  5
1C7
330
1A5
100
AcDbEntity
  8
M-PIPE
100
AcDbSpline
210
0.0
220
0.0
230
1.0
 70
     8
 71
     3
 72
    14
 73
    10
 74
     0
 42
0.000000001
 43
0.0000000001
 40
-1.0
 40
-1.0
 40
-1.0
 40
-1.0
 40
-0.8333333333333332
 40
-0.6666666666666666
 40
-0.5
 40
-0.3333333333333333
 40
-0.25
 40
-0.1666666666666666
 40
0.0
 40
0.0
 40
0.0
 40
0.0
 10
794.3004085374406
 20
1808.743311877491
 30
0.0
 10
794.0043659866334
 20
1808.925074840803
 30
0.0
 10
793.4303663686928
 20
1809.299011443609
 30
0.0
 10
792.661028500711
 20
1809.84075360001
 30
0.0
 10
791.9937496184616
 20
1810.302145824106
 30
0.0
 10
791.5661502296394
 20
1810.596579118009
 30
0.0
 10
791.3280741214008
 20
1810.771711364376
 30
0.0
 10
791.1531872281411
 20
1810.898022844635
 30
0.0
 10
791.0975272337613
 20
1810.935579378957
 30
0.0
 10
791.0944438554503
 20
1810.933799189658
 30
0.0
1001
REVIT
1002
{
1070
     3
1000
938184
1002
}
  0
SPLINE
  5
1C8
330
1A5
100
AcDbEntity
  8
M-PIPE
100
AcDbSpline
210
0.0
220
0.0
230
1.0
 70
     8
 71
     3
 72
    10
 73
     6
 74
     0
 42
0.000000001
 43
0.0000000001
 40
0.0
 40
0.0
 40
0.0
 40
0.0
 40
0.1666666666666666
 40
0.25
 40
0.3308594104278073
 40
0.3308594104278073
 40
0.3308594104278073
 40
0.3308594104278073
 10
833.384407554935
 20
1814.890936847529
 30
0.0
 10
833.3863600345766
 20
1814.889809582882
 30
0.0
 10
833.3444819481211
 20
1814.847616651489
 30
0.0
 10
833.1991297587142
 20
1814.711505208928
 30
0.0
 10
833.0994464653956
 20
1814.618458438618
 30
0.0
 10
833.0426904564349
 20
1814.5669932566
 30
0.0
1001
REVIT
1002
{
1070
     3
1000
938184
1002
}
  0
SPLINE
  5
1C9
330
1A5
100
AcDbEntity
  8
M-PIPE
100
AcDbSpline
210
0.0
220
0.0
230
1.0
 70
     8
 71
     3
 72
    11
 73
     7
 74
     0
 42
0.000000001
 43
0.0000000001
 40
0.3333333333333333
 40
0.3333333333333333
 40
0.3333333333333333
 40
0.3333333333333333
 40
0.5
 40
0.6666666666666666
 40
0.8333333333333332
 40
1.0
 40
1.0
 40
1.0
 40
1.0
 10
833.0374594903874
 20
1814.562253638342
 30
0.0
 10
832.9195058370649
 20
1814.455463428431
 30
0.0
 10
832.6182103374634
 20
1814.194077067146
 30
0.0
 10
832.0272179475988
 20
1813.675017364391
 30
0.0
 10
831.3594956131362
 20
1813.072861672473
 30
0.0
 10
830.8676035986946
 20
1812.653158042257
 30
0.0
 10
830.6164774256174
 20
1812.447550168461
 30
0.0
1001
REVIT
1002
{
1070
     3
1000
938184
1002
}
  0
SPLINE
  5
1CA
330
1A5
100
AcDbEntity
  8
M-PIPE
100
AcDbSpline
210
0.0
220
0.0
230
1.0
 70
     8
 71
     3
 72
    13
 73
     9
 74
     0
 42
0.000000001
 43
0.0000000001
 40
0.0
 40
0.0
 40
0.0
 40
0.0
 40
0.1428571428571428
 40
0.2857142857142857
 40
0.4285714285714286
 40
0.5714285714285714
 40
0.7857142857142857
 40
1.0
 40
1.0
 40
1.0
 40
1.0
 10
800.7163374608005
 20
1812.447550168492
 30
0.0
 10
800.5116090761845
 20
1812.620399687333
 30
0.0
 10
800.1059062876494
 20
1812.971469997042
 30
0.0
 10
799.5221986425047
 20
1813.480205067984
 30
0.0
 10
798.9954386320214
 20
1813.946834014261
 30
0.0
 10
798.4755335109298
 20
1814.412419639058
 30
0.0
 10
798.0583023938761
 20
1814.790527789225
 30
0.0
 10
797.9487798606552
 20
1814.891151927378
 30
0.0
 10
797.9484073314843
 20
1814.890936847561
 30
0.0
1001
REVIT
1002
{
1070
     3
1000
938184
1002
}
  0
LINE
  5
1CB
330
1A5
100
AcDbEntity
  8
P-SANR-FIXT
100
AcDbLine
 10
790.6664074431887
 20
1783.011932789238
 30
0.0
 11
790.6664074431887
 21
1780.747075844248
 31
0.0
  0
LINE
  5
1CC
330
1A5
100
AcDbEntity
  8
P-SANR-FIXT
100
AcDbLine
 10
840.6664074431885
 20
1780.747075844248
 30
0.0
 11
840.6664074431885
 21
1783.011932789238
 31
0.0
  0
LINE
  5
1CD
330
1A5
100
AcDbEntity
  8
P-SANR-FIXT
100
AcDbLine
 10
792.9772585473475
 20
1813.747075844312
 30
0.0
 11
789.6664074431882
 21
1813.747075844312
 31
0.0
  0
LINE
  5
1CE
330
1A5
100
AcDbEntity
  8
P-SANR-FIXT
100
AcDbLine
 10
789.6664074431882
 20
1799.747075844186
 30
0.0
 11
792.9751868435388
 21
1799.747075844186
 31
0.0
  0
LINE
  5
1CF
330
1A5
100
AcDbEntity
  8
P-SANR-FIXT
100
AcDbLine
 10
843.3964370072454
 20
1786.267046280192
 30
0.0
 11
844.4450874336533
 21
1785.218395853783
 31
0.0
  0
LINE
  5
1D0
330
1A5
100
AcDbEntity
  8
P-SANR-FIXT
100
AcDbLine
 10
786.8877274527241
 20
1785.218395853784
 30
0.0
 11
787.9363778791319
 21
1786.267046280192
 31
0.0
  0
LINE
  5
1D1
330
1A5
100
AcDbEntity
  8
P-SANR-FIXT
100
AcDbLine
 10
793.0092836078472
 20
1780.747075844248
 30
0.0
 11
790.6664074431873
 21
1780.747075844248
 31
0.0
  0
LINE
  5
1D2
330
1A5
100
AcDbEntity
  8
P-SANR-FIXT
100
AcDbLine
 10
773.1664074431874
 20
1805.135695816651
 30
0.0
 11
781.2367618145753
 21
1805.135695816651
 31
0.0
  0
LINE
  5
1D3
330
1A5
100
AcDbEntity
  8
P-SANR-FIXT
100
AcDbLine
 10
784.4664074431873
 20
1785.247075844248
 30
0.0
 11
784.4664074431873
 21
1786.858455871845
 31
0.0
  0
LINE
  5
1D4
330
1A5
100
AcDbEntity
  8
P-SANR-FIXT
100
AcDbLine
 10
784.4664074431873
 20
1786.858455871845
 30
0.0
 11
773.1664074431871
 21
1786.858455871845
 31
0.0
  0
LINE
  5
1D5
330
1A5
100
AcDbEntity
  8
P-SANR-FIXT
100
AcDbLine
 10
773.1664074431871
 20
1785.247075844248
 30
0.0
 11
784.4664074431873
 21
1785.247075844248
 31
0.0
  0
LINE
  5
1D6
330
1A5
100
AcDbEntity
  8
P-SANR-FIXT
100
AcDbLine
 10
773.1664074431871
 20
1786.858455871845
 30
0.0
 11
773.1664074431871
 21
1785.247075844248
 31
0.0
  0
LINE
  5
1D7
330
1A5
100
AcDbEntity
  8
P-SANR-FIXT
100
AcDbLine
 10
773.1664074431871
 20
1786.858455871845
 30
0.0
 11
773.1664074431874
 21
1805.135695816651
 31
0.0
  0
LINE
  5
1D8
330
1A5
100
AcDbEntity
  8
P-SANR-FIXT
100
AcDbLine
 10
773.1664074431874
 20
1806.747075844248
 30
0.0
 11
773.1664074431874
 21
1805.135695816651
 31
0.0
  0
LINE
  5
1D9
330
1A5
100
AcDbEntity
  8
P-SANR-FIXT
100
AcDbLine
 10
840.6664074431871
 20
1780.747075844248
 30
0.0
 11
838.323531278527
 21
1780.747075844248
 31
0.0
  0
ARC
  5
1DA
330
1A5
100
AcDbEntity
  8
P-SANR-FIXT
100
AcDbCircle
 10
815.6664074431873
 20
1806.747075844248
 30
0.0
 40
26.50000000000082
100
AcDbArc
 50
359.9999999999995
 51
164.6728155630525
  0
ARC
  5
1DB
330
1A5
100
AcDbEntity
  8
P-SANR-FIXT
100
AcDbCircle
 10
815.6664074431873
 20
1806.747075844248
 30
0.0
 40
26.50000000000093
100
AcDbArc
 50
169.0740054995735
 51
179.9999999999995
  0
ARC
  5
1DC
330
1A5
100
AcDbEntity
  8
P-SANR-FIXT
100
AcDbCircle
 10
815.6664074431873
 20
1806.747075844248
 30
0.0
 40
26.50000000000087
100
AcDbArc
 50
179.9999999999998
 51
190.9259945004247
  0
ARC
  5
1DD
330
1A5
100
AcDbEntity
  8
P-SANR-FIXT
100
AcDbCircle
 10
815.6664074431873
 20
1806.747075844248
 30
0.0
 40
26.50000000000093
100
AcDbArc
 50
195.3271844369463
 51
0.0
  0
ARC
  5
1DE
330
1A5
100
AcDbEntity
  8
P-SANR-FIXT
100
AcDbCircle
 10
815.6664074431873
 20
1806.747075844248
 30
0.0
 40
34.50000000000116
100
AcDbArc
 50
359.9999999999992
 51
179.9999999999991
  0
ARC
  5
1DF
330
1A5
100
AcDbEntity
  8
P-SANR-FIXT
100
AcDbCircle
 10
815.6664074431873
 20
1806.747075844248
 30
0.0
 40
34.50000000000091
100
AcDbArc
 50
179.9999999999996
 51
359.9999999999992
  0
LINE
  5
1E0
330
1A5
100
AcDbEntity
  8
P-SANR-FIXT
100
AcDbLine
 10
789.6664074431867
 20
1813.747075844311
 30
0.0
 11
789.6664074431869
 21
1806.747075844248
 31
0.0
  0
LINE
  5
1E1
330
1A5
100
AcDbEntity
  8
P-SANR-FIXT
100
AcDbLine
 10
789.6664074431869
 20
1806.747075844248
 30
0.0
 11
789.6664074431867
 21
1799.747075844185
 31
0.0
  0
LINE
  5
1E2
330
1A5
100
AcDbEntity
  8
P-SANR-FIXT
100
AcDbLine
 10
858.1664074431873
 20
1805.135695816652
 30
0.0
 11
858.1664074431872
 21
1786.858455871844
 31
0.0
  0
LINE
  5
1E3
330
1A5
100
AcDbEntity
  8
P-SANR-FIXT
100
AcDbLine
 10
858.1664074431872
 20
1786.858455871844
 30
0.0
 11
858.1664074431872
 21
1785.247075844248
 31
0.0
  0
LINE
  5
1E4
330
1A5
100
AcDbEntity
  8
P-SANR-FIXT
100
AcDbLine
 10
858.1664074431872
 20
1786.858455871844
 30
0.0
 11
846.8664074431876
 21
1786.858455871844
 31
0.0
  0
LINE
  5
1E5
330
1A5
100
AcDbEntity
  8
P-SANR-FIXT
100
AcDbLine
 10
846.8664074431876
 20
1785.247075844248
 30
0.0
 11
858.1664074431872
 21
1785.247075844248
 31
0.0
  0
LINE
  5
1E6
330
1A5
100
AcDbEntity
  8
P-SANR-FIXT
100
AcDbLine
 10
850.0960530717993
 20
1805.135695816651
 30
0.0
 11
858.1664074431873
 21
1805.135695816651
 31
0.0
  0
LINE
  5
1E7
330
1A5
100
AcDbEntity
  8
P-SANR-FIXT
100
AcDbLine
 10
858.1664074431873
 20
1806.747075844248
 30
0.0
 11
858.1664074431873
 21
1805.135695816652
 31
0.0
  0
SPLINE
  5
1E8
330
1A5
100
AcDbEntity
  8
P-SANR-FIXT
100
AcDbSpline
210
0.0
220
0.0
230
1.0
 70
    24
 71
     3
 72
     9
 73
     5
 74
     0
 42
0.000000001
 43
0.0000000001
 40
-0.5
 40
-0.5
 40
-0.5
 40
-0.5
 40
-0.3333333333333333
 40
0.0
 40
0.0
 40
0.0
 40
0.0
 10
844.4451748416359
 20
1785.247075844248
 30
0.0
 10
844.4421645891758
 20
1785.247075844248
 30
0.0
 10
844.7021596764127
 20
1785.247075844248
 30
0.0
 10
845.7841606923528
 20
1785.247075844248
 30
0.0
 10
846.8664074431876
 20
1785.247075844248
 30
0.0
  0
LINE
  5
1E9
330
1A5
100
AcDbEntity
  8
P-SANR-FIXT
100
AcDbLine
 10
846.8664074431876
 20
1786.858455871844
 30
0.0
 11
846.8664074431876
 21
1785.247075844248
 31
0.0
  0
SPLINE
  5
1EA
330
1A5
100
AcDbEntity
  8
P-SANR-FIXT
100
AcDbSpline
210
0.0
220
0.0
230
1.0
 70
     8
 71
     3
 72
     8
 73
     4
 74
     0
 42
0.000000001
 43
0.0000000001
 40
-1.0
 40
-1.0
 40
-1.0
 40
-1.0
 40
-0.8459617190080919
 40
-0.8459617190080919
 40
-0.8459617190080919
 40
-0.8459617190080919
 10
846.8664074431876
 20
1786.858455871844
 30
0.0
 10
846.3719630429784
 20
1787.763597925489
 30
0.0
 10
845.9536470237447
 20
1788.674173248153
 30
0.0
 10
845.611022880619
 20
1789.593928451601
 30
0.0
  0
SPLINE
  5
1EB
330
1A5
100
AcDbEntity
  8
P-SANR-FIXT
100
AcDbSpline
210
0.0
220
0.0
230
1.0
 70
     8
 71
     3
 72
     8
 73
     4
 74
     0
 42
0.000000001
 43
0.0000000001
 40
-0.1516108449438734
 40
-0.1516108449438734
 40
-0.1516108449438734
 40
-0.1516108449438734
 40
0.0
 40
0.0
 40
0.0
 40
0.0
 10
785.7187254415682
 20
1789.595321473082
 30
0.0
 10
785.3762265396995
 20
1788.678060786837
 30
0.0
 10
784.9586484761827
 20
1787.766963007648
 30
0.0
 10
784.4664074431873
 20
1786.858455871845
 30
0.0
  0
SPLINE
  5
1EC
330
1A5
100
AcDbEntity
  8
P-SANR-FIXT
100
AcDbSpline
210
0.0
220
0.0
230
1.0
 70
    24
 71
     3
 72
     9
 73
     5
 74
     0
 42
0.000000001
 43
0.0000000001
 40
-1.0
 40
-1.0
 40
-1.0
 40
-1.0
 40
-0.6666666666666666
 40
-0.4977728585995158
 40
-0.4977728585995158
 40
-0.4977728585995158
 40
-0.4977728585995158
 10
784.4664074431873
 20
1785.247075844248
 30
0.0
 10
785.5363674492871
 20
1785.247075844248
 30
0.0
 10
786.6113401893073
 20
1785.247075844248
 30
0.0
 10
786.8870911610164
 20
1785.247075844248
 30
0.0
 10
786.8877126786296
 20
1785.247075844248
 30
0.0
  0
ENDBLK
  5
1EE
330
1A5
100
AcDbEntity
  8
0
100
AcDbBlockEnd
  0
BLOCK
  5
279
330
1F0
100
AcDbEntity
  8
0
100
AcDbBlockBegin
  2
Automatic flow rate regulator valve_Caleffi_121 DN15 - 1_2__-V2-Est - Idraulica
 70
     0
 10
0.0
 20
0.0
 30
0.0
  3
Automatic flow rate regulator valve_Caleffi_121 DN15 - 1_2__-V2-Est - Idraulica
  1

  0
LWPOLYLINE
  5
1F1
330
1F0
100
AcDbEntity
  8
M-PIPE
100
AcDbPolyline
 90
       41
 70
   128
 43
0.0
 10
1023.3631568289
 20
1970.998183850012
 10
1023.400751815834
 20
1969.11868514324
 10
1023.513476632677
 20
1967.242193233461
 10
1023.701150943768
 20
1965.371710107433
 10
1023.963474510245
 20
1963.510228139143
 10
1024.300027670361
 20
1961.660725302644
 10
1024.710272010854
 20
1959.826160407937
 10
1025.193551228294
 20
1958.009468367499
 10
1025.749092179025
 20
1956.213555501055
 10
1026.376006116037
 20
1954.441294886083
 10
1027.073290110765
 20
1952.695521761506
 10
1027.839828657562
 20
1950.97902899191
 10
1028.674395458273
 20
1949.294562599563
 10
1029.57565538405
 20
1947.644817371356
 10
1030.542166611269
 20
1946.03243254773
 10
1031.572382928145
 20
1944.459987600446
 10
1032.664656208338
 20
1942.92999810598
 10
1033.817239047606
 20
1941.444911721144
 10
1035.028287559278
 20
1940.007104267353
 10
1036.295864324078
 20
1938.618875929816
 10
1037.617941489583
 20
1937.282447577734
 10
1038.992404014358
 20
1935.999957211382
 10
1040.417053051567
 20
1934.77345654176
 10
1041.889609466657
 20
1933.604907708303
 10
1043.407717483495
 20
1932.496180139865
 10
1044.968948453097
 20
1931.449047564041
 10
1046.570804738959
 20
1930.465185169575
 10
1048.210723712734
 20
1929.546166926419
 10
1049.886081853895
 20
1928.693463067716
 10
1051.594198946805
 20
1927.908437737739
 10
1053.332342368496
 20
1927.192346809552
 10
1055.097731460277
 20
1926.546335875883
 10
1056.887541976198
 20
1925.971438416419
 10
1058.698910601238
 20
1925.468574144454
 10
1060.528939532003
 20
1925.038547535552
 10
1062.374701112588
 20
1924.682046540555
 10
1064.233242518207
 20
1924.399641485003
 10
1066.101590479077
 20
1924.191784156743
 10
1067.976756037022
 20
1924.05880708316
 10
1069.855739327161
 20
1924.000922999203
 10
1070.3631568289
 20
1923.998183850012
1001
REVIT
1002
{
1070
     3
1000
939838
1002
}
  0
LWPOLYLINE
  5
1F2
330
1F0
100
AcDbEntity
  8
M-PIPE
100
AcDbPolyline
 90
       41
 70
   128
 43
0.0
 10
1070.3631568289
 20
2017.998183850012
 10
1068.483658122128
 20
2017.960588863079
 10
1066.607166212348
 20
2017.847864046235
 10
1064.73668308632
 20
2017.660189735144
 10
1062.87520111803
 20
2017.397866168666
 10
1061.025698281532
 20
2017.061313008551
 10
1059.191133386824
 20
2016.651068668057
 10
1057.374441346386
 20
2016.167789450618
 10
1055.578528479942
 20
2015.612248499887
 10
1053.80626786497
 20
2014.985334562875
 10
1052.060494740393
 20
2014.288050568147
 10
1050.344001970798
 20
2013.52151202135
 10
1048.65953557845
 20
2012.686945220639
 10
1047.009790350244
 20
2011.785685294862
 10
1045.397405526618
 20
2010.819174067643
 10
1043.824960579333
 20
2009.788957750767
 10
1042.294971084867
 20
2008.696684470574
 10
1040.809884700032
 20
2007.544101631305
 10
1039.37207724624
 20
2006.333053119634
 10
1037.983848908704
 20
2005.065476354834
 10
1036.647420556622
 20
2003.743399189329
 10
1035.36493019027
 20
2002.368936664554
 10
1034.138429520648
 20
2000.944287627345
 10
1032.969880687191
 20
1999.471731212254
 10
1031.861153118753
 20
1997.953623195417
 10
1030.814020542929
 20
1996.392392225814
 10
1029.830158148463
 20
1994.790535939952
 10
1028.911139905307
 20
1993.150616966177
 10
1028.058436046604
 20
1991.475258825017
 10
1027.273410716627
 20
1989.767141732107
 10
1026.55731978844
 20
1988.028998310415
 10
1025.911308854771
 20
1986.263609218634
 10
1025.336411395306
 20
1984.473798702714
 10
1024.833547123341
 20
1982.662430077673
 10
1024.40352051444
 20
1980.832401146908
 10
1024.047019519442
 20
1978.986639566323
 10
1023.764614463891
 20
1977.128098160704
 10
1023.556757135631
 20
1975.259750199834
 10
1023.423780062048
 20
1973.384584641889
 10
1023.365895978092
 20
1971.50560135175
 10
1023.3631568289
 20
1970.998183850012
1001
REVIT
1002
{
1070
     3
1000
939838
1002
}
  0
ARC
  5
1F3
330
1F0
100
AcDbEntity
  8
M-PIPE
100
AcDbCircle
 10
1070.363156828898
 20
1970.998183850011
 30
0.0
 40
23.99999999999927
100
AcDbArc
 50
90.00000000000028
 51
269.9999999999999
1001
REVIT
1002
{
1070
     3
1000
939838
1002
}
  0
LINE
  5
1F4
330
1F0
100
AcDbEntity
  8
M-PIPE
100
AcDbLine
 10
1070.363156828898
 20
1994.998183850011
 30
0.0
 11
1070.363156828898
 21
2012.998183850011
 31
0.0
1001
REVIT
1002
{
1070
     3
1000
939838
1002
}
  0
LINE
  5
1F5
330
1F0
100
AcDbEntity
  8
M-PIPE
100
AcDbLine
 10
1070.363156828898
 20
1928.998183850011
 30
0.0
 11
1070.363156828898
 21
1946.998183850012
 31
0.0
1001
REVIT
1002
{
1070
     3
1000
939838
1002
}
  0
SPLINE
  5
1F6
330
1F0
100
AcDbEntity
  8
M-PIPE
100
AcDbSpline
210
0.0
220
0.0
230
1.0
 70
     8
 71
     3
 72
    13
 73
     9
 74
     0
 42
0.000000001
 43
0.0000000001
 40
0.0
 40
0.0
 40
0.0
 40
0.0
 40
0.125
 40
0.1875
 40
0.25
 40
0.3125
 40
0.375
 40
0.4375
 40
0.4375
 40
0.4375
 40
0.4375
 10
1070.363156828898
 20
2017.998183850011
 30
0.0
 10
1068.935505640355
 20
2017.998183850011
 30
0.0
 10
1066.848816228956
 20
2017.900667617677
 30
0.0
 10
1064.189603199157
 20
2017.604945969555
 30
0.0
 10
1062.262485824467
 20
2017.308175663467
 30
0.0
 10
1060.392841939278
 20
2016.941361126911
 30
0.0
 10
1058.585086688101
 20
2016.510733823984
 30
0.0
 10
1057.433294002558
 20
2016.188447454625
 30
0.0
 10
1056.873369053606
 20
2016.020685177432
 30
0.0
1001
REVIT
1002
{
1070
     3
1000
939838
1002
}
  0
SPLINE
  5
1F7
330
1F0
100
AcDbEntity
  8
M-PIPE
100
AcDbSpline
210
0.0
220
0.0
230
1.0
 70
     8
 71
     3
 72
    13
 73
     9
 74
     0
 42
0.000000001
 43
0.0000000001
 40
0.5
 40
0.5
 40
0.5
 40
0.5
 40
0.53125
 40
0.5625
 40
0.625
 40
0.6875
 40
0.75
 40
1.0
 40
1.0
 40
1.0
 40
1.0
 10
1055.242370240766
 20
2015.499440157628
 30
0.0
 10
1054.978810086388
 20
2015.409889471175
 30
0.0
 10
1054.460106400821
 20
2015.22842809667
 30
0.0
 10
1053.450860572878
 20
2014.855596349462
 30
0.0
 10
1052.244677690265
 20
2014.374345276317
 30
0.0
 10
1050.884675961809
 20
2013.780042521418
 30
0.0
 10
1048.3390383006
 20
2012.572812527071
 30
0.0
 10
1046.572933975676
 20
2011.557567296048
 30
0.0
 10
1045.363956841699
 20
2010.798183850011
 30
0.0
1001
REVIT
1002
{
1070
     3
1000
939838
1002
}
  0
SPLINE
  5
1F8
330
1F0
100
AcDbEntity
  8
M-PIPE
100
AcDbSpline
210
0.0
220
0.0
230
1.0
 70
     9
 71
     3
 72
    11
 73
     7
 74
     0
 42
0.000000001
 43
0.0000000001
 40
0.0
 40
0.0
 40
0.0
 40
0.0
 40
0.25
 40
0.5
 40
0.75
 40
1.0
 40
1.0
 40
1.0
 40
1.0
 10
1045.363956841699
 20
2010.798183850011
 30
0.0
 10
1044.363036053123
 20
2010.169484881043
 30
0.0
 10
1042.907371466828
 20
2009.156419033398
 30
0.0
 10
1042.202682457642
 20
2008.625465408249
 30
0.0
 10
1042.910410801389
 20
2009.158628894733
 30
0.0
 10
1044.364520480262
 20
2010.170417280312
 30
0.0
 10
1045.363956841699
 20
2010.798183850011
 30
0.0
1001
REVIT
1002
{
1070
     3
1000
939838
1002
}
  0
SPLINE
  5
1F9
330
1F0
100
AcDbEntity
  8
M-PIPE
100
AcDbSpline
210
0.0
220
0.0
230
1.0
 70
     8
 71
     3
 72
     8
 73
     4
 74
     0
 42
0.000000001
 43
0.0000000001
 40
0.0
 40
0.0
 40
0.0
 40
0.0
 40
0.0793931888391595
 40
0.0793931888391595
 40
0.0793931888391595
 40
0.0793931888391595
 10
1045.363956841699
 20
2010.798183850011
 30
0.0
 10
1045.747895041299
 20
2011.039343343341
 30
0.0
 10
1046.152385016503
 20
2011.285827332846
 30
0.0
 10
1046.578190232938
 20
2011.535757050105
 30
0.0
1001
REVIT
1002
{
1070
     3
1000
939838
1002
}
  0
LINE
  5
1FA
330
1F0
100
AcDbEntity
  8
M-PIPE
100
AcDbLine
 10
1045.363956841699
 20
2010.798183850011
 30
0.0
 11
1045.443958695495
 21
2010.798183850011
 31
0.0
1001
REVIT
1002
{
1070
     3
1000
939838
1002
}
  0
LINE
  5
1FB
330
1F0
100
AcDbEntity
  8
M-PIPE
100
AcDbLine
 10
1045.440859565035
 20
2010.798183850011
 30
0.0
 11
1045.363956841698
 21
2010.798183850011
 31
0.0
1001
REVIT
1002
{
1070
     3
1000
939838
1002
}
  0
LINE
  5
1FC
330
1F0
100
AcDbEntity
  8
M-PIPE
100
AcDbLine
 10
1045.363956841627
 20
2010.798183850011
 30
0.0
 11
1045.440859565031
 21
2010.798183850011
 31
0.0
1001
REVIT
1002
{
1070
     3
1000
939838
1002
}
  0
LINE
  5
1FD
330
1F0
100
AcDbEntity
  8
M-PIPE
100
AcDbLine
 10
1070.363156828898
 20
1923.998183850011
 30
0.0
 11
1070.363156828898
 21
1928.998183850011
 31
0.0
1001
REVIT
1002
{
1070
     3
1000
939838
1002
}
  0
LINE
  5
1FE
330
1F0
100
AcDbEntity
  8
M-PIPE
100
AcDbLine
 10
1070.363156828898
 20
2012.998183850011
 30
0.0
 11
1070.363156828897
 21
2017.998183850011
 31
0.0
1001
REVIT
1002
{
1070
     3
1000
939838
1002
}
  0
LINE
  5
1FF
330
1F0
100
AcDbEntity
  8
M-PIPE
100
AcDbLine
 10
1089.86315682892
 20
2054.365991568079
 30
0.0
 11
1089.86315682892
 21
2079.998183850008
 31
0.0
1001
REVIT
1002
{
1070
     3
1000
938184
1002
}
  0
LINE
  5
200
330
1F0
100
AcDbEntity
  8
M-PIPE
100
AcDbLine
 10
1050.86315682892
 20
2079.998183850008
 30
0.0
 11
1050.86315682892
 21
2054.36599156808
 31
0.0
1001
REVIT
1002
{
1070
     3
1000
938184
1002
}
  0
LINE
  5
201
330
1F0
100
AcDbEntity
  8
M-PIPE
100
AcDbLine
 10
1046.613156828904
 20
2054.36599156808
 30
0.0
 11
1046.613156828904
 21
2049.998183850008
 31
0.0
1001
REVIT
1002
{
1070
     3
1000
938184
1002
}
  0
LINE
  5
202
330
1F0
100
AcDbEntity
  8
M-PIPE
100
AcDbLine
 10
1094.113156828903
 20
2049.998183850008
 30
0.0
 11
1094.113156828903
 21
2054.365991568079
 31
0.0
1001
REVIT
1002
{
1070
     3
1000
938184
1002
}
  0
LWPOLYLINE
  5
203
330
1F0
100
AcDbEntity
  8
M-PIPE
100
AcDbPolyline
 90
       41
 70
   128
 43
0.0
 10
1086.363156828891
 20
2083.498183850009
 10
1086.503119498544
 20
2083.495384223322
 10
1086.642858257784
 20
2083.486989822068
 10
1086.782149554402
 20
2083.473014075497
 10
1086.920770552041
 20
2083.453479341824
 10
1087.058499486674
 20
2083.428416872453
 10
1087.195116021386
 20
2083.397866761991
 10
1087.330401598866
 20
2083.361877884096
 10
1087.464139791048
 20
2083.320507813297
 10
1087.596116645354
 20
2083.273822732881
 10
1087.726121026972
 20
2083.221897329018
 10
1087.853944956622
 20
2083.164814671278
 10
1087.979383943286
 20
2083.102666079736
 10
1088.102237311344
 20
2083.03555097888
 10
1088.222308521614
 20
2082.963576738556
 10
1088.339405485774
 20
2082.886858502192
 10
1088.45334087366
 20
2082.805519002604
 10
1088.563932412956
 20
2082.719688365637
 10
1088.671003180792
 20
2082.629503902001
 10
1088.774381886778
 20
2082.535109887602
 10
1088.87390314704
 20
2082.436657332724
 10
1088.969407748789
 20
2082.334303740453
 10
1089.060742905038
 20
2082.228212854704
 10
1089.147762499019
 20
2082.11855439826
 10
1089.230327317945
 20
2082.005503801262
 10
1089.308305275719
 20
2081.889241920547
 10
1089.381571624243
 20
2081.769954750323
 10
1089.450009152989
 20
2081.647833124617
 10
1089.513508376509
 20
2081.523072411977
 10
1089.571967709593
 20
2081.39587220293
 10
1089.625293629777
 20
2081.266435990677
 10
1089.673400826965
 20
2081.134970845544
 10
1089.716212339904
 20
2081.00168708372
 10
1089.753659679305
 20
2080.866797930791
 10
1089.785682937415
 20
2080.730519180628
 10
1089.812230883851
 20
2080.593068850159
 10
1089.833261047562
 20
2080.454666830592
 10
1089.848739784773
 20
2080.315534535634
 10
1089.858642332806
 20
2080.175894547276
 10
1089.862952849696
 20
2080.035970259713
 10
1089.863156828891
 20
2079.998183850008
1001
REVIT
1002
{
1070
     3
1000
938184
1002
}
  0
LINE
  5
204
330
1F0
100
AcDbEntity
  8
M-PIPE
100
AcDbLine
 10
1076.142789277414
 20
2083.498183850009
 30
0.0
 11
1072.425177017042
 21
2083.498183850009
 31
0.0
1001
REVIT
1002
{
1070
     3
1000
938184
1002
}
  0
LINE
  5
205
330
1F0
100
AcDbEntity
  8
M-PIPE
100
AcDbLine
 10
1068.366920795658
 20
2083.498183850009
 30
0.0
 11
1064.662682504656
 21
2083.498183850009
 31
0.0
1001
REVIT
1002
{
1070
     3
1000
938184
1002
}
  0
LWPOLYLINE
  5
206
330
1F0
100
AcDbEntity
  8
M-PIPE
100
AcDbPolyline
 90
       41
 70
   128
 43
0.0
 10
1050.863156828891
 20
2079.998183850008
 10
1050.865956455578
 20
2080.138146519662
 10
1050.874350856832
 20
2080.277885278901
 10
1050.888326603403
 20
2080.41717657552
 10
1050.907861337077
 20
2080.555797573159
 10
1050.932923806447
 20
2080.693526507791
 10
1050.963473916909
 20
2080.830143042504
 10
1050.999462794803
 20
2080.965428619983
 10
1051.040832865603
 20
2081.099166812165
 10
1051.087517946019
 20
2081.231143666471
 10
1051.139443349881
 20
2081.361148048089
 10
1051.196526007621
 20
2081.488971977739
 10
1051.258674599164
 20
2081.614410964404
 10
1051.325789700019
 20
2081.737264332462
 10
1051.397763940344
 20
2081.857335542732
 10
1051.474482176707
 20
2081.974432506891
 10
1051.555821676296
 20
2082.088367894777
 10
1051.641652313263
 20
2082.198959434073
 10
1051.731836776898
 20
2082.306030201908
 10
1051.826230791298
 20
2082.409408907896
 10
1051.924683346176
 20
2082.508930168157
 10
1052.027036938446
 20
2082.604434769907
 10
1052.133127824196
 20
2082.695769926155
 10
1052.242786280639
 20
2082.782789520136
 10
1052.355836877638
 20
2082.865354339062
 10
1052.472098758353
 20
2082.943332296836
 10
1052.591385928576
 20
2083.016598645361
 10
1052.713507554283
 20
2083.085036174106
 10
1052.838268266923
 20
2083.148535397626
 10
1052.965468475969
 20
2083.20699473071
 10
1053.094904688223
 20
2083.260320650894
 10
1053.226369833355
 20
2083.308427848082
 10
1053.359653595179
 20
2083.351239361021
 10
1053.494542748108
 20
2083.388686700422
 10
1053.630821498271
 20
2083.420709958532
 10
1053.76827182874
 20
2083.447257904968
 10
1053.906673848308
 20
2083.468288068679
 10
1054.045806143266
 20
2083.48376680589
 10
1054.185446131624
 20
2083.493669353923
 10
1054.325370419187
 20
2083.497979870813
 10
1054.363156828891
 20
2083.498183850009
1001
REVIT
1002
{
1070
     3
1000
938184
1002
}
  0
LINE
  5
207
330
1F0
100
AcDbEntity
  8
M-PIPE
100
AcDbLine
 10
1074.619310675049
 20
2049.998183850008
 30
0.0
 11
1066.176433483488
 21
2049.998183850008
 31
0.0
1001
REVIT
1002
{
1070
     3
1000
938184
1002
}
  0
LINE
  5
208
330
1F0
100
AcDbEntity
  8
M-PIPE
100
AcDbLine
 10
1066.176433483488
 20
2049.998183850008
 30
0.0
 11
1065.399000142721
 21
2049.998183850008
 31
0.0
1001
REVIT
1002
{
1070
     3
1000
938184
1002
}
  0
LINE
  5
209
330
1F0
100
AcDbEntity
  8
M-PIPE
100
AcDbLine
 10
1075.397650647863
 20
2049.998183850008
 30
0.0
 11
1074.619310675049
 21
2049.998183850008
 31
0.0
1001
REVIT
1002
{
1070
     3
1000
938184
1002
}
  0
LINE
  5
20A
330
1F0
100
AcDbEntity
  8
M-PIPE
100
AcDbLine
 10
1066.176433483488
 20
2079.998183850008
 30
0.0
 11
1066.176433483488
 21
2049.998183850008
 31
0.0
1001
REVIT
1002
{
1070
     3
1000
938184
1002
}
  0
LINE
  5
20B
330
1F0
100
AcDbEntity
  8
M-PIPE
100
AcDbLine
 10
1078.591050459781
 20
2079.998183849985
 30
0.0
 11
1078.591050459781
 21
2054.365991568079
 31
0.0
1001
REVIT
1002
{
1070
     3
1000
938184
1002
}
  0
LINE
  5
20C
330
1F0
100
AcDbEntity
  8
M-PIPE
100
AcDbLine
 10
1075.397650647863
 20
2049.998183850008
 30
0.0
 11
1075.397650647863
 21
2054.365991568079
 31
0.0
1001
REVIT
1002
{
1070
     3
1000
938184
1002
}
  0
LINE
  5
20D
330
1F0
100
AcDbEntity
  8
M-PIPE
100
AcDbLine
 10
1074.619310675049
 20
2049.998183850008
 30
0.0
 11
1074.619310675049
 21
2079.998183850008
 31
0.0
1001
REVIT
1002
{
1070
     3
1000
938184
1002
}
  0
LINE
  5
20E
330
1F0
100
AcDbEntity
  8
M-PIPE
100
AcDbLine
 10
1062.219295825578
 20
2054.365991568079
 30
0.0
 11
1062.219295825578
 21
2079.998183850008
 31
0.0
1001
REVIT
1002
{
1070
     3
1000
938184
1002
}
  0
LINE
  5
20F
330
1F0
100
AcDbEntity
  8
M-PIPE
100
AcDbLine
 10
1065.399000142721
 20
2054.365991568079
 30
0.0
 11
1065.399000142721
 21
2049.998183850008
 31
0.0
1001
REVIT
1002
{
1070
     3
1000
938184
1002
}
  0
LINE
  5
210
330
1F0
100
AcDbEntity
  8
M-PIPE
100
AcDbLine
 10
1065.399000142721
 20
2049.998183850008
 30
0.0
 11
1046.613156828902
 21
2049.998183850008
 31
0.0
1001
REVIT
1002
{
1070
     3
1000
938184
1002
}
  0
LINE
  5
211
330
1F0
100
AcDbEntity
  8
M-PIPE
100
AcDbLine
 10
1094.113156828901
 20
2049.998183850007
 30
0.0
 11
1075.397650647863
 21
2049.998183850008
 31
0.0
1001
REVIT
1002
{
1070
     3
1000
938184
1002
}
  0
LINE
  5
212
330
1F0
100
AcDbEntity
  8
M-PIPE
100
AcDbLine
 10
1065.399000142721
 20
2054.365991568079
 30
0.0
 11
1046.613156828902
 21
2054.365991568079
 31
0.0
1001
REVIT
1002
{
1070
     3
1000
938184
1002
}
  0
LINE
  5
213
330
1F0
100
AcDbEntity
  8
M-PIPE
100
AcDbLine
 10
1094.113156828901
 20
2054.365991568078
 30
0.0
 11
1075.397650647863
 21
2054.365991568079
 31
0.0
1001
REVIT
1002
{
1070
     3
1000
938184
1002
}
  0
SPLINE
  5
214
330
1F0
100
AcDbEntity
  8
M-PIPE
100
AcDbSpline
210
0.0
220
0.0
230
1.0
 70
     8
 71
     3
 72
    13
 73
     9
 74
     0
 42
0.000000001
 43
0.0000000001
 40
-1.0
 40
-1.0
 40
-1.0
 40
-1.0
 40
-0.8333333333333332
 40
-0.6666666666666666
 40
-0.5
 40
-0.3333333333333333
 40
-0.1666666666666666
 40
0.0
 40
0.0
 40
0.0
 40
0.0
 10
1076.142789277412
 20
2083.498183850008
 30
0.0
 10
1076.348891085806
 20
2083.498183850008
 30
0.0
 10
1076.769503151691
 20
2083.418435487048
 30
0.0
 10
1077.372822161557
 20
2083.065888975024
 30
0.0
 10
1077.892756987255
 20
2082.493645192377
 30
0.0
 10
1078.285994919457
 20
2081.74677438634
 30
0.0
 10
1078.533916710365
 20
2080.897091538441
 30
0.0
 10
1078.589967857227
 20
2080.296491088966
 30
0.0
 10
1078.591050459794
 20
2079.998183850008
 30
0.0
1001
REVIT
1002
{
1070
     3
1000
938184
1002
}
  0
SPLINE
  5
215
330
1F0
100
AcDbEntity
  8
M-PIPE
100
AcDbSpline
210
0.0
220
0.0
230
1.0
 70
     8
 71
     3
 72
    15
 73
    11
 74
     0
 42
0.000000001
 43
0.0000000001
 40
0.0
 40
0.0
 40
0.0
 40
0.0
 40
0.1428571428571428
 40
0.2857142857142857
 40
0.4285714285714286
 40
0.5714285714285714
 40
0.6785714285714287
 40
0.7321428571428572
 40
0.7857142857142857
 40
1.0
 40
1.0
 40
1.0
 40
1.0
 10
1072.42517701704
 20
2083.498183850008
 30
0.0
 10
1072.574469326957
 20
2083.498183850008
 30
0.0
 10
1072.880309207196
 20
2083.446573119813
 30
0.0
 10
1073.327328136732
 20
2083.210492513826
 30
0.0
 10
1073.744390909443
 20
2082.817750827608
 30
0.0
 10
1074.077762095197
 20
2082.321183902779
 30
0.0
 10
1074.286743276726
 20
2081.855502555816
 30
0.0
 10
1074.407561563462
 20
2081.496735628979
 30
0.0
 10
1074.559167251865
 20
2080.930729026044
 30
0.0
 10
1074.619769059152
 20
2080.414620452483
 30
0.0
 10
1074.619310675049
 20
2079.998183850008
 30
0.0
1001
REVIT
1002
{
1070
     3
1000
938184
1002
}
  0
SPLINE
  5
216
330
1F0
100
AcDbEntity
  8
M-PIPE
100
AcDbSpline
210
0.0
220
0.0
230
1.0
 70
     8
 71
     3
 72
    14
 73
    10
 74
     0
 42
0.000000001
 43
0.0000000001
 40
-1.0
 40
-1.0
 40
-1.0
 40
-1.0
 40
-0.8333333333333332
 40
-0.6666666666666666
 40
-0.5
 40
-0.3333333333333333
 40
-0.25
 40
-0.1666666666666666
 40
0.0
 40
0.0
 40
0.0
 40
0.0
 10
1068.366920795656
 20
2083.498183850008
 30
0.0
 10
1068.185157832344
 20
2083.498183850008
 30
0.0
 10
1067.811221229537
 20
2083.4177644541
 30
0.0
 10
1067.269479073137
 20
2083.064094087753
 30
0.0
 10
1066.808086849041
 20
2082.501495774405
 30
0.0
 10
1066.513653555138
 20
2081.890472895392
 30
0.0
 10
1066.33852130877
 20
2081.341401183436
 30
0.0
 10
1066.212209828511
 20
2080.761726910277
 30
0.0
 10
1066.17465329419
 20
2080.303616469107
 30
0.0
 10
1066.176433483488
 20
2079.998183850008
 30
0.0
1001
REVIT
1002
{
1070
     3
1000
938184
1002
}
  0
SPLINE
  5
217
330
1F0
100
AcDbEntity
  8
M-PIPE
100
AcDbSpline
210
0.0
220
0.0
230
1.0
 70
     8
 71
     3
 72
    13
 73
     9
 74
     0
 42
0.000000001
 43
0.0000000001
 40
0.0
 40
0.0
 40
0.0
 40
0.0
 40
0.1428571428571428
 40
0.2857142857142857
 40
0.4285714285714286
 40
0.5714285714285714
 40
0.7857142857142857
 40
1.0
 40
1.0
 40
1.0
 40
1.0
 10
1064.662682504654
 20
2083.498183850008
 30
0.0
 10
1064.489832985814
 20
2083.498183850008
 30
0.0
 10
1064.138762676105
 20
2083.443515266106
 30
0.0
 10
1063.630027605162
 20
2083.196046866965
 30
0.0
 10
1063.163398658886
 20
2082.789979000178
 30
0.0
 10
1062.697813034089
 20
2082.147754034306
 30
0.0
 10
1062.319704883921
 20
2081.20959940756
 30
0.0
 10
1062.219080745768
 20
2080.402912792356
 30
0.0
 10
1062.219295825585
 20
2079.998183850008
 30
0.0
1001
REVIT
1002
{
1070
     3
1000
938184
1002
}
  0
LINE
  5
218
330
1F0
100
AcDbEntity
  8
M-PIPE
100
AcDbLine
 10
1070.363156828902
 20
2006.498183850009
 30
0.0
 11
1080.863156828895
 21
2006.498183850009
 31
0.0
1001
REVIT
1002
{
1070
     3
1000
790271
1002
}
  0
LINE
  5
219
330
1F0
100
AcDbEntity
  8
M-PIPE
100
AcDbLine
 10
1080.863156828895
 20
2006.498183850009
 30
0.0
 11
1091.363156828889
 21
2006.498183850009
 31
0.0
1001
REVIT
1002
{
1070
     3
1000
790271
1002
}
  0
LINE
  5
21A
330
1F0
100
AcDbEntity
  8
M-PIPE
100
AcDbLine
 10
1070.363156828902
 20
1997.864209253801
 30
0.0
 11
1073.867622539101
 21
1997.864209253801
 31
0.0
1001
REVIT
1002
{
1070
     3
1000
790271
1002
}
  0
LINE
  5
21B
330
1F0
100
AcDbEntity
  8
M-PIPE
100
AcDbLine
 10
1073.867622539101
 20
2005.632158446218
 30
0.0
 11
1070.363156828902
 21
2005.632158446218
 31
0.0
1001
REVIT
1002
{
1070
     3
1000
790271
1002
}
  0
LINE
  5
21C
330
1F0
100
AcDbEntity
  8
M-PIPE
100
AcDbLine
 10
1073.867622539101
 20
1997.864209253795
 30
0.0
 11
1073.867622539101
 21
2005.632158446224
 31
0.0
1001
REVIT
1002
{
1070
     3
1000
790271
1002
}
  0
SPLINE
  5
21D
330
1F0
100
AcDbEntity
  8
M-PIPE
100
AcDbSpline
210
0.0
220
0.0
230
1.0
 70
     8
 71
     3
 72
     9
 73
     5
 74
     0
 42
0.000000001
 43
0.0000000001
 40
0.0
 40
0.0
 40
0.0
 40
0.0
 40
0.5
 40
0.8948996924346477
 40
0.8948996924346477
 40
0.8948996924346477
 40
0.8948996924346477
 10
1073.867622539101
 20
1997.864209253795
 30
0.0
 10
1075.020949175293
 20
1997.580921668064
 30
0.0
 10
1077.096444408025
 20
1997.198240050141
 30
0.0
 10
1079.192114131847
 20
1997.038113414944
 30
0.0
 10
1080.120815924406
 20
1997.010790361923
 30
0.0
1001
REVIT
1002
{
1070
     3
1000
790271
1002
}
  0
SPLINE
  5
21E
330
1F0
100
AcDbEntity
  8
M-PIPE
100
AcDbSpline
210
0.0
220
0.0
230
1.0
 70
     8
 71
     3
 72
     9
 73
     5
 74
     0
 42
0.000000001
 43
0.0000000001
 40
0.1043204321972756
 40
0.1043204321972756
 40
0.1043204321972756
 40
0.1043204321972756
 40
0.5
 40
1.0
 40
1.0
 40
1.0
 40
1.0
 10
1081.599995492829
 20
1997.01062899059
 30
0.0
 10
1082.530546897479
 20
1997.037834493873
 30
0.0
 10
1084.628060524613
 20
1997.19790655582
 30
0.0
 10
1086.705364482536
 20
1997.58092166807
 30
0.0
 10
1087.858691118734
 20
1997.864209253804
 30
0.0
1001
REVIT
1002
{
1070
     3
1000
790271
1002
}
  0
SPLINE
  5
21F
330
1F0
100
AcDbEntity
  8
M-PIPE
100
AcDbSpline
210
0.0
220
0.0
230
1.0
 70
     8
 71
     3
 72
     9
 73
     5
 74
     0
 42
0.000000001
 43
0.0000000001
 40
0.0
 40
0.0
 40
0.0
 40
0.0
 40
0.5
 40
1.0
 40
1.0
 40
1.0
 40
1.0
 10
1087.858691118734
 20
2005.632158446215
 30
0.0
 10
1086.705364482536
 20
2005.915446031949
 30
0.0
 10
1084.386115464699
 20
2006.343071184982
 30
0.0
 10
1082.04167495598
 20
2006.492796301145
 30
0.0
 10
1080.863156828899
 20
2006.498183850009
 30
0.0
1001
REVIT
1002
{
1070
     3
1000
790271
1002
}
  0
SPLINE
  5
220
330
1F0
100
AcDbEntity
  8
M-PIPE
100
AcDbSpline
210
0.0
220
0.0
230
1.0
 70
     8
 71
     3
 72
     9
 73
     5
 74
     0
 42
0.000000001
 43
0.0000000001
 40
0.0
 40
0.0
 40
0.0
 40
0.0
 40
0.5
 40
1.0
 40
1.0
 40
1.0
 40
1.0
 10
1080.863156828899
 20
2006.498183850009
 30
0.0
 10
1079.684638701825
 20
2006.492796301145
 30
0.0
 10
1077.340198193118
 20
2006.343071184984
 30
0.0
 10
1075.020949175293
 20
2005.915446031955
 30
0.0
 10
1073.867622539101
 20
2005.632158446224
 30
0.0
1001
REVIT
1002
{
1070
     3
1000
790271
1002
}
  0
LINE
  5
221
330
1F0
100
AcDbEntity
  8
M-PIPE
100
AcDbLine
 10
1087.858691118734
 20
1997.864209253804
 30
0.0
 11
1087.858691118734
 21
2005.632158446215
 31
0.0
1001
REVIT
1002
{
1070
     3
1000
790271
1002
}
  0
LINE
  5
222
330
1F0
100
AcDbEntity
  8
M-PIPE
100
AcDbLine
 10
1087.858691118734
 20
1997.864209253801
 30
0.0
 11
1091.363156828918
 21
1997.864209253801
 31
0.0
1001
REVIT
1002
{
1070
     3
1000
790271
1002
}
  0
LINE
  5
223
330
1F0
100
AcDbEntity
  8
M-PIPE
100
AcDbLine
 10
1091.363156828918
 20
2005.632158446218
 30
0.0
 11
1087.858691118734
 21
2005.632158446218
 31
0.0
1001
REVIT
1002
{
1070
     3
1000
790271
1002
}
  0
LINE
  5
224
330
1F0
100
AcDbEntity
  8
M-PIPE
100
AcDbLine
 10
1091.363156828918
 20
1997.864209253807
 30
0.0
 11
1091.363156828918
 21
2005.632158446211
 31
0.0
1001
REVIT
1002
{
1070
     3
1000
790271
1002
}
  0
SPLINE
  5
225
330
1F0
100
AcDbEntity
  8
M-PIPE
100
AcDbSpline
210
0.0
220
0.0
230
1.0
 70
    24
 71
     3
 72
     9
 73
     5
 74
     0
 42
0.000000001
 43
0.0000000001
 40
0.0
 40
0.0
 40
0.0
 40
0.0
 40
0.5
 40
1.0
 40
1.0
 40
1.0
 40
1.0
 10
1091.363156828918
 20
1997.864209253807
 30
0.0
 10
1091.363156828918
 20
1997.580921668077
 30
0.0
 10
1091.363156828918
 20
1997.153296515048
 30
0.0
 10
1091.363156828918
 20
1997.003571398879
 30
0.0
 10
1091.363156828918
 20
1996.998183850009
 30
0.0
1001
REVIT
1002
{
1070
     3
1000
790271
1002
}
  0
SPLINE
  5
226
330
1F0
100
AcDbEntity
  8
M-PIPE
100
AcDbSpline
210
0.0
220
0.0
230
1.0
 70
    24
 71
     3
 72
     9
 73
     5
 74
     0
 42
0.000000001
 43
0.0000000001
 40
0.0
 40
0.0
 40
0.0
 40
0.0
 40
0.5
 40
1.0
 40
1.0
 40
1.0
 40
1.0
 10
1091.363156828918
 20
2006.498183850009
 30
0.0
 10
1091.363156828918
 20
2006.49279630114
 30
0.0
 10
1091.363156828918
 20
2006.343071184971
 30
0.0
 10
1091.363156828918
 20
2005.915446031941
 30
0.0
 10
1091.363156828918
 20
2005.632158446211
 30
0.0
1001
REVIT
1002
{
1070
     3
1000
790271
1002
}
  0
LINE
  5
227
330
1F0
100
AcDbEntity
  8
P-SANR-FIXT
100
AcDbLine
 10
1048.863156828901
 20
1981.623931852282
 30
0.0
 11
1048.863156828901
 21
1981.550553252189
 31
0.0
  0
LINE
  5
228
330
1F0
100
AcDbEntity
  8
P-SANR-FIXT
100
AcDbLine
 10
1091.863156828901
 20
1981.550553252189
 30
0.0
 11
1091.863156828901
 21
1996.998183850012
 31
0.0
  0
LINE
  5
229
330
1F0
100
AcDbEntity
  8
P-SANR-FIXT
100
AcDbLine
 10
1053.3631568289
 20
2049.998183850008
 30
0.0
 11
1053.3631568289
 21
2025.998183850008
 31
0.0
  0
LINE
  5
22A
330
1F0
100
AcDbEntity
  8
P-SANR-FIXT
100
AcDbLine
 10
1087.363156828901
 20
2025.998183850008
 30
0.0
 11
1087.363156828901
 21
2049.998183850008
 31
0.0
  0
LINE
  5
22B
330
1F0
100
AcDbEntity
  8
P-SANR-FIXT
100
AcDbLine
 10
1048.13839082411
 20
1961.998183850012
 30
0.0
 11
1048.8631568289
 21
1961.998183850012
 31
0.0
  0
LINE
  5
22C
330
1F0
100
AcDbEntity
  8
P-SANR-FIXT
100
AcDbLine
 10
1091.8631568289
 20
1961.998183850012
 30
0.0
 11
1096.363156828901
 21
1961.998183850012
 31
0.0
  0
LINE
  5
22D
330
1F0
100
AcDbEntity
  8
P-SANR-FIXT
100
AcDbLine
 10
1096.363156828901
 20
1979.998183850012
 30
0.0
 11
1091.8631568289
 21
1979.998183850012
 31
0.0
  0
LINE
  5
22E
330
1F0
100
AcDbEntity
  8
P-SANR-FIXT
100
AcDbLine
 10
1048.8631568289
 20
1979.998183850012
 30
0.0
 11
1048.13839082411
 21
1979.998183850012
 31
0.0
  0
LINE
  5
22F
330
1F0
100
AcDbEntity
  8
P-SANR-FIXT
100
AcDbLine
 10
1043.8631568289
 20
2025.998183850008
 30
0.0
 11
1035.8631568289
 21
2020.398183850009
 31
0.0
  0
LINE
  5
230
330
1F0
100
AcDbEntity
  8
P-SANR-FIXT
100
AcDbLine
 10
1104.863156828902
 20
2020.398183850009
 30
0.0
 11
1096.863156828901
 21
2025.998183850008
 31
0.0
  0
LINE
  5
231
330
1F0
100
AcDbEntity
  8
P-SANR-FIXT
100
AcDbLine
 10
1035.8631568289
 20
2020.398183850009
 30
0.0
 11
1035.8631568289
 21
2013.995385733374
 31
0.0
  0
LINE
  5
232
330
1F0
100
AcDbEntity
  8
P-SANR-FIXT
100
AcDbLine
 10
1104.863156828902
 20
2013.995385733374
 30
0.0
 11
1104.863156828902
 21
2020.398183850009
 31
0.0
  0
LINE
  5
233
330
1F0
100
AcDbEntity
  8
P-SANR-FIXT
100
AcDbLine
 10
1035.8631568289
 20
2013.995385733374
 30
0.0
 11
1036.860358712266
 21
2012.998183850009
 31
0.0
  0
LINE
  5
234
330
1F0
100
AcDbEntity
  8
P-SANR-FIXT
100
AcDbLine
 10
1103.865954945536
 20
2012.998183850009
 30
0.0
 11
1104.863156828902
 21
2013.995385733374
 31
0.0
  0
LINE
  5
235
330
1F0
100
AcDbEntity
  8
P-SANR-FIXT
100
AcDbLine
 10
1041.090921064608
 20
2012.998183850009
 30
0.0
 11
1043.688997275921
 21
2011.498183850032
 31
0.0
  0
LINE
  5
236
330
1F0
100
AcDbEntity
  8
P-SANR-FIXT
100
AcDbLine
 10
1097.03731638188
 20
2011.498183850032
 30
0.0
 11
1099.635392593193
 21
2012.998183850009
 31
0.0
  0
LINE
  5
237
330
1F0
100
AcDbEntity
  8
P-SANR-FIXT
100
AcDbLine
 10
1088.863156828871
 20
2006.49818385003
 30
0.0
 11
1088.863156828871
 21
2011.498183850032
 31
0.0
  0
LINE
  5
238
330
1F0
100
AcDbEntity
  8
P-SANR-FIXT
100
AcDbLine
 10
1091.863156828899
 20
1996.998183850011
 30
0.0
 11
1070.363156828899
 21
1996.998183850011
 31
0.0
  0
SPLINE
  5
239
330
1F0
100
AcDbEntity
  8
P-SANR-FIXT
100
AcDbSpline
210
0.0
220
0.0
230
1.0
 70
     8
 71
     3
 72
     8
 73
     4
 74
     0
 42
0.000000001
 43
0.0000000001
 40
0.037037037037037
 40
0.037037037037037
 40
0.037037037037037
 40
0.037037037037037
 40
0.0740740740740741
 40
0.0740740740740741
 40
0.0740740740740741
 40
0.0740740740740741
 10
1069.526492071593
 20
2030.050371851891
 30
0.0
 10
1069.253275685178
 20
2030.083082996826
 30
0.0
 10
1068.985593735137
 20
2030.130319591684
 30
0.0
 10
1068.723033932643
 20
2030.192510669995
 30
0.0
  0
SPLINE
  5
23A
330
1F0
100
AcDbEntity
  8
P-SANR-FIXT
100
AcDbSpline
210
0.0
220
0.0
230
1.0
 70
     8
 71
     3
 72
     8
 73
     4
 74
     0
 42
0.000000001
 43
0.0000000001
 40
0.1102104433304799
 40
0.1102104433304799
 40
0.1102104433304799
 40
0.1102104433304799
 40
0.1111111111111111
 40
0.1111111111111111
 40
0.1111111111111111
 40
0.1111111111111111
 10
1067.968754567123
 20
2030.417653299775
 30
0.0
 10
1067.962603148536
 20
2030.41988523627
 30
0.0
 10
1067.956454521132
 20
2030.422126263891
 30
0.0
 10
1067.950308678981
 20
2030.424376388812
 30
0.0
  0
SPLINE
  5
23B
330
1F0
100
AcDbEntity
  8
P-SANR-FIXT
100
AcDbSpline
210
0.0
220
0.0
230
1.0
 70
     8
 71
     3
 72
     8
 73
     4
 74
     0
 42
0.000000001
 43
0.0000000001
 40
0.1481481481481481
 40
0.1481481481481481
 40
0.1481481481481481
 40
0.1481481481481481
 40
0.1851851851851852
 40
0.1851851851851852
 40
0.1851851851851852
 40
0.1851851851851852
 10
1067.208297945719
 20
2030.746827075422
 30
0.0
 10
1066.967032946334
 20
2030.868836087546
 30
0.0
 10
1066.732520885265
 20
2031.004941516028
 30
0.0
 10
1066.506804841914
 20
2031.153856260309
 30
0.0
  0
SPLINE
  5
23C
330
1F0
100
AcDbEntity
  8
P-SANR-FIXT
100
AcDbSpline
210
0.0
220
0.0
230
1.0
 70
     8
 71
     3
 72
     9
 73
     5
 74
     0
 42
0.000000001
 43
0.0000000001
 40
0.2592592592592593
 40
0.2592592592592593
 40
0.2592592592592593
 40
0.2592592592592593
 40
0.2777777777777778
 40
0.2962962962962963
 40
0.2962962962962963
 40
0.2962962962962963
 40
0.2962962962962963
 10
1065.272555782014
 20
2032.191183724141
 30
0.0
 10
1065.180451130474
 20
2032.288897533359
 30
0.0
 10
1065.001758091089
 20
2032.489654715917
 30
0.0
 10
1064.834194296004
 20
2032.700639482357
 30
0.0
 10
1064.753523437087
 20
2032.808432057047
 30
0.0
  0
SPLINE
  5
23D
330
1F0
100
AcDbEntity
  8
P-SANR-FIXT
100
AcDbSpline
210
0.0
220
0.0
230
1.0
 70
     8
 71
     3
 72
     8
 73
     4
 74
     0
 42
0.000000001
 43
0.0000000001
 40
0.3333333333333333
 40
0.3333333333333333
 40
0.3333333333333333
 40
0.3333333333333333
 40
0.3340854371688606
 40
0.3340854371688606
 40
0.3340854371688606
 40
0.3340854371688606
 10
1064.309460567494
 20
2033.48073616684
 30
0.0
 10
1064.306743038215
 20
2033.485445985606
 30
0.0
 10
1064.304031724934
 20
2033.490158751609
 30
0.0
 10
1064.301326579245
 20
2033.494874512902
 30
0.0
  0
SPLINE
  5
23E
330
1F0
100
AcDbEntity
  8
P-SANR-FIXT
100
AcDbSpline
210
0.0
220
0.0
230
1.0
 70
     8
 71
     3
 72
     9
 73
     5
 74
     0
 42
0.000000001
 43
0.0000000001
 40
0.3703703703703703
 40
0.3703703703703703
 40
0.3703703703703703
 40
0.3703703703703703
 40
0.3888888888888888
 40
0.4074074074074074
 40
0.4074074074074074
 40
0.4074074074074074
 40
0.4074074074074074
 10
1063.947609419633
 20
2034.20346683189
 30
0.0
 10
1063.893237683696
 20
2034.328952811073
 30
0.0
 10
1063.790566254867
 20
2034.584379673743
 30
0.0
 10
1063.702849725777
 20
2034.843633829051
 30
0.0
 10
1063.66291483911
 20
2034.974118928746
 30
0.0
  0
SPLINE
  5
23F
330
1F0
100
AcDbEntity
  8
P-SANR-FIXT
100
AcDbSpline
210
0.0
220
0.0
230
1.0
 70
     8
 71
     3
 72
     8
 73
     4
 74
     0
 42
0.000000001
 43
0.0000000001
 40
0.4444444444444445
 40
0.4444444444444445
 40
0.4444444444444445
 40
0.4444444444444445
 40
0.4450517107155621
 40
0.4450517107155621
 40
0.4450517107155621
 40
0.4450517107155621
 10
1063.47186327718
 20
2035.766535382468
 30
0.0
 10
1063.471092564005
 20
2035.770913887073
 30
0.0
 10
1063.470326466967
 20
2035.775293101818
 30
0.0
 10
1063.46956497527
 20
2035.779673040149
 30
0.0
  0
SPLINE
  5
240
330
1F0
100
AcDbEntity
  8
P-SANR-FIXT
100
AcDbSpline
210
0.0
220
0.0
230
1.0
 70
     8
 71
     3
 72
     9
 73
     5
 74
     0
 42
0.000000001
 43
0.0000000001
 40
0.4814814814814815
 40
0.4814814814814815
 40
0.4814814814814815
 40
0.4814814814814815
 40
0.5138888888888889
 40
0.5185185185185186
 40
0.5185185185185186
 40
0.5185185185185186
 40
0.5185185185185186
 10
1063.379910228759
 20
2036.578639987071
 30
0.0
 10
1063.366695853192
 20
2036.81955267448
 30
0.0
 10
1063.364627801305
 20
2037.099176211492
 30
0.0
 10
1063.377766823977
 20
2037.375389473706
 30
0.0
 10
1063.379648839426
 20
2037.409857663462
 30
0.0
  0
SPLINE
  5
241
330
1F0
100
AcDbEntity
  8
P-SANR-FIXT
100
AcDbSpline
210
0.0
220
0.0
230
1.0
 70
     8
 71
     3
 72
     9
 73
     5
 74
     0
 42
0.000000001
 43
0.0000000001
 40
0.5925925925925926
 40
0.5925925925925926
 40
0.5925925925925926
 40
0.5925925925925926
 40
0.6180555555555555
 40
0.6296296296296296
 40
0.6296296296296296
 40
0.6296296296296296
 40
0.6296296296296296
 10
1063.662110035973
 20
2039.013186158143
 30
0.0
 10
1063.717198896303
 20
2039.193379427098
 30
0.0
 10
1063.808446991843
 20
2039.454220533259
 30
0.0
 10
1063.91324900526
 20
2039.708075121504
 30
0.0
 10
1063.947242289509
 20
2039.786559438897
 30
0.0
  0
SPLINE
  5
242
330
1F0
100
AcDbEntity
  8
P-SANR-FIXT
100
AcDbSpline
210
0.0
220
0.0
230
1.0
 70
     8
 71
     3
 72
     8
 73
     4
 74
     0
 42
0.000000001
 43
0.0000000001
 40
0.665945206874322
 40
0.665945206874322
 40
0.665945206874322
 40
0.665945206874322
 40
0.6666666666666666
 40
0.6666666666666666
 40
0.6666666666666666
 40
0.6666666666666666
 10
1064.301612183528
 20
2040.496154203971
 30
0.0
 10
1064.304183648205
 20
2040.500652780554
 30
0.0
 10
1064.306760194158
 20
2040.505147597071
 30
0.0
 10
1064.309341848951
 20
2040.509638728117
 30
0.0
  0
SPLINE
  5
243
330
1F0
100
AcDbEntity
  8
P-SANR-FIXT
100
AcDbSpline
210
0.0
220
0.0
230
1.0
 70
     8
 71
     3
 72
     9
 73
     5
 74
     0
 42
0.000000001
 43
0.0000000001
 40
0.7037037037037035
 40
0.7037037037037035
 40
0.7037037037037035
 40
0.7037037037037035
 40
0.7222222222222223
 40
0.7407407407407405
 40
0.7407407407407405
 40
0.7407407407407405
 40
0.7407407407407405
 10
1064.750962004785
 20
2041.179634975675
 30
0.0
 10
1064.832010350766
 20
2041.287886564866
 30
0.0
 10
1065.000247227814
 20
2041.50117958184
 30
0.0
 10
1065.180169546452
 20
2041.698986269159
 30
0.0
 10
1065.272733020891
 20
2041.79493220128
 30
0.0
  0
SPLINE
  5
244
330
1F0
100
AcDbEntity
  8
P-SANR-FIXT
100
AcDbSpline
210
0.0
220
0.0
230
1.0
 70
     8
 71
     3
 72
     8
 73
     4
 74
     0
 42
0.000000001
 43
0.0000000001
 40
0.8148148148148145
 40
0.8148148148148145
 40
0.8148148148148145
 40
0.8148148148148145
 40
0.8518518518518513
 40
0.8518518518518513
 40
0.8518518518518513
 40
0.8518518518518513
 10
1066.502212068729
 20
2042.833130209997
 30
0.0
 10
1066.729070001194
 20
2042.982934816496
 30
0.0
 10
1066.961104187841
 20
2043.132287654005
 30
0.0
 10
1067.204929747497
 20
2043.250266190204
 30
0.0
  0
SPLINE
  5
245
330
1F0
100
AcDbEntity
  8
P-SANR-FIXT
100
AcDbSpline
210
0.0
220
0.0
230
1.0
 70
     8
 71
     3
 72
     8
 73
     4
 74
     0
 42
0.000000001
 43
0.0000000001
 40
0.8888888888888883
 40
0.8888888888888883
 40
0.8888888888888883
 40
0.8888888888888883
 40
0.8898146414860132
 40
0.8898146414860132
 40
0.8898146414860132
 40
0.8898146414860132
 10
1067.949354032876
 20
2043.565768229815
 30
0.0
 10
1067.955661038177
 20
2043.568075567639
 30
0.0
 10
1067.961977907329
 20
2043.570355213862
 30
0.0
 10
1067.968304476408
 20
2043.572607628611
 30
0.0
  0
SPLINE
  5
246
330
1F0
100
AcDbEntity
  8
P-SANR-FIXT
100
AcDbSpline
210
0.0
220
0.0
230
1.0
 70
     8
 71
     3
 72
     8
 73
     4
 74
     0
 42
0.000000001
 43
0.0000000001
 40
0.9259259259259254
 40
0.9259259259259254
 40
0.9259259259259254
 40
0.9259259259259254
 40
0.9629629629629622
 40
0.9629629629629622
 40
0.9629629629629622
 40
0.9629629629629622
 10
1068.721799064384
 20
2043.797545802133
 30
0.0
 10
1068.984503334251
 20
2043.859849939282
 30
0.0
 10
1069.258097142683
 20
2043.892871535498
 30
0.0
 10
1069.534387699997
 20
2043.918536290732
 30
0.0
  0
SPLINE
  5
247
330
1F0
100
AcDbEntity
  8
P-SANR-FIXT
100
AcDbSpline
210
0.0
220
0.0
230
1.0
 70
     8
 71
     3
 72
     8
 73
     4
 74
     0
 42
0.000000001
 43
0.0000000001
 40
0.037037037037037
 40
0.037037037037037
 40
0.037037037037037
 40
0.037037037037037
 40
0.0740740740740741
 40
0.0740740740740741
 40
0.0740740740740741
 40
0.0740740740740741
 10
1071.199834263207
 20
2043.940518395471
 30
0.0
 10
1071.473072866048
 20
2043.90782265651
 30
0.0
 10
1071.740799673231
 20
2043.860574076331
 30
0.0
 10
1072.003440924045
 20
2043.798334010138
 30
0.0
  0
SPLINE
  5
248
330
1F0
100
AcDbEntity
  8
P-SANR-FIXT
100
AcDbSpline
210
0.0
220
0.0
230
1.0
 70
     8
 71
     3
 72
     8
 73
     4
 74
     0
 42
0.000000001
 43
0.0000000001
 40
0.1101853585139781
 40
0.1101853585139781
 40
0.1101853585139781
 40
0.1101853585139781
 40
0.1111111111111111
 40
0.1111111111111111
 40
0.1111111111111111
 40
0.1111111111111111
 10
1072.757561829349
 20
2043.573120120197
 30
0.0
 10
1072.763888883876
 20
2043.570823285361
 30
0.0
 10
1072.770213020764
 20
2043.568516817153
 30
0.0
 10
1072.776534246669
 20
2043.566200708724
 30
0.0
  0
SPLINE
  5
249
330
1F0
100
AcDbEntity
  8
P-SANR-FIXT
100
AcDbSpline
210
0.0
220
0.0
230
1.0
 70
     8
 71
     3
 72
     8
 73
     4
 74
     0
 42
0.000000001
 43
0.0000000001
 40
0.1481481481481481
 40
0.1481481481481481
 40
0.1481481481481481
 40
0.1481481481481481
 40
0.1851851851851852
 40
0.1851851851851852
 40
0.1851851851851852
 40
0.1851851851851852
 10
1073.519158247155
 20
2043.243241201722
 30
0.0
 10
1073.760648810631
 20
2043.121035191492
 30
0.0
 10
1073.995392878129
 20
2042.984714984693
 30
0.0
 10
1074.221303269953
 20
2042.835596515832
 30
0.0
  0
SPLINE
  5
24A
330
1F0
100
AcDbEntity
  8
P-SANR-FIXT
100
AcDbSpline
210
0.0
220
0.0
230
1.0
 70
     8
 71
     3
 72
     9
 73
     5
 74
     0
 42
0.000000001
 43
0.0000000001
 40
0.2592592592592593
 40
0.2592592592592593
 40
0.2592592592592593
 40
0.2592592592592593
 40
0.2777777777777778
 40
0.2962962962962963
 40
0.2962962962962963
 40
0.2962962962962963
 40
0.2962962962962963
 10
1075.45576999225
 20
2041.797687644324
 30
0.0
 10
1075.547736434706
 20
2041.700090560311
 30
0.0
 10
1075.726018257461
 20
2041.499740002044
 30
0.0
 10
1075.892807328714
 20
2041.289661433303
 30
0.0
 10
1075.973151580829
 20
2041.182236983755
 30
0.0
  0
SPLINE
  5
24B
330
1F0
100
AcDbEntity
  8
P-SANR-FIXT
100
AcDbSpline
210
0.0
220
0.0
230
1.0
 70
     8
 71
     3
 72
     8
 73
     4
 74
     0
 42
0.000000001
 43
0.0000000001
 40
0.3333333333333333
 40
0.3333333333333333
 40
0.3333333333333333
 40
0.3333333333333333
 40
0.3340547931256789
 40
0.3340547931256789
 40
0.3340547931256789
 40
0.3340547931256789
 10
1076.417196926268
 20
2040.50944300387
 30
0.0
 10
1076.419824104754
 20
2040.504893479011
 30
0.0
 10
1076.422446115959
 20
2040.500340476153
 30
0.0
 10
1076.425062960085
 20
2040.495784012131
 30
0.0
  0
SPLINE
  5
24C
330
1F0
100
AcDbEntity
  8
P-SANR-FIXT
100
AcDbSpline
210
0.0
220
0.0
230
1.0
 70
     8
 71
     3
 72
     9
 73
     5
 74
     0
 42
0.000000001
 43
0.0000000001
 40
0.3703703703703703
 40
0.3703703703703703
 40
0.3703703703703703
 40
0.3703703703703703
 40
0.3888888888888888
 40
0.4074074074074074
 40
0.4074074074074074
 40
0.4074074074074074
 40
0.4074074074074074
 10
1076.780979383239
 20
2039.78355614767
 30
0.0
 10
1076.834810075977
 20
2039.658751227907
 30
0.0
 10
1076.935676345711
 20
2039.405697223299
 30
0.0
 10
1077.022966300817
 20
2039.146893644229
 30
0.0
 10
1077.06287639864
 20
2039.016371054211
 30
0.0
  0
SPLINE
  5
24D
330
1F0
100
AcDbEntity
  8
P-SANR-FIXT
100
AcDbSpline
210
0.0
220
0.0
230
1.0
 70
     8
 71
     3
 72
     9
 73
     5
 74
     0
 42
0.000000001
 43
0.0000000001
 40
0.4814814814814815
 40
0.4814814814814815
 40
0.4814814814814815
 40
0.4814814814814815
 40
0.5138888888888889
 40
0.5185185185185186
 40
0.5185185185185186
 40
0.5185185185185186
 40
0.5185185185185186
 10
1077.346531475314
 20
2037.410083070196
 30
0.0
 10
1077.359623584787
 20
2037.169215620314
 30
0.0
 10
1077.361639445381
 20
2036.889522909016
 30
0.0
 10
1077.348422457367
 20
2036.613307746675
 30
0.0
 10
1077.346530452576
 20
2036.578840294897
 30
0.0
  0
SPLINE
  5
24E
330
1F0
100
AcDbEntity
  8
P-SANR-FIXT
100
AcDbSpline
210
0.0
220
0.0
230
1.0
 70
     8
 71
     3
 72
     8
 73
     4
 74
     0
 42
0.000000001
 43
0.0000000001
 40
0.5549482892844399
 40
0.5549482892844399
 40
0.5549482892844399
 40
0.5549482892844399
 40
0.5555555555555556
 40
0.5555555555555556
 40
0.5555555555555556
 40
0.5555555555555556
 10
1077.256395269432
 20
2035.778671780338
 30
0.0
 10
1077.255636652042
 20
2035.774310638965
 30
0.0
 10
1077.254873656175
 20
2035.76995079443
 30
0.0
 10
1077.254106277436
 20
2035.765592218663
 30
0.0
  0
SPLINE
  5
24F
330
1F0
100
AcDbEntity
  8
P-SANR-FIXT
100
AcDbSpline
210
0.0
220
0.0
230
1.0
 70
     8
 71
     3
 72
     9
 73
     5
 74
     0
 42
0.000000001
 43
0.0000000001
 40
0.5925925925925926
 40
0.5925925925925926
 40
0.5925925925925926
 40
0.5925925925925926
 40
0.6180555555555555
 40
0.6296296296296296
 40
0.6296296296296296
 40
0.6296296296296296
 40
0.6296296296296296
 10
1077.063875522569
 20
2034.976102755297
 30
0.0
 10
1077.008808648829
 20
2034.796041745724
 30
0.0
 10
1076.917603109355
 20
2034.53541865634
 30
0.0
 10
1076.812826739172
 20
2034.281754892528
 30
0.0
 10
1076.778838023084
 20
2034.203325031167
 30
0.0
  0
SPLINE
  5
250
330
1F0
100
AcDbEntity
  8
P-SANR-FIXT
100
AcDbSpline
210
0.0
220
0.0
230
1.0
 70
     8
 71
     3
 72
     8
 73
     4
 74
     0
 42
0.000000001
 43
0.0000000001
 40
0.6659145628311425
 40
0.6659145628311425
 40
0.6659145628311425
 40
0.6659145628311425
 40
0.6666666666666666
 40
0.6666666666666666
 40
0.6666666666666666
 40
0.6666666666666666
 10
1076.424683199079
 20
2033.494588862661
 30
0.0
 10
1076.422000769033
 20
2033.489898908658
 30
0.0
 10
1076.419312785064
 20
2033.485212998551
 30
0.0
 10
1076.416619215646
 20
2033.480531047805
 30
0.0
  0
SPLINE
  5
251
330
1F0
100
AcDbEntity
  8
P-SANR-FIXT
100
AcDbSpline
210
0.0
220
0.0
230
1.0
 70
     8
 71
     3
 72
     9
 73
     5
 74
     0
 42
0.000000001
 43
0.0000000001
 40
0.7037037037037035
 40
0.7037037037037035
 40
0.7037037037037035
 40
0.7037037037037035
 40
0.7222222222222223
 40
0.7407407407407405
 40
0.7407407407407405
 40
0.7407407407407405
 40
0.7407407407407405
 10
1075.974402182322
 20
2032.810202118363
 30
0.0
 10
1075.893216769587
 20
2032.701850661118
 30
0.0
 10
1075.724685506567
 20
2032.488333035618
 30
0.0
 10
1075.544505239809
 20
2032.290329715195
 30
0.0
 10
1075.451828778002
 20
2032.19429913261
 30
0.0
  0
SPLINE
  5
252
330
1F0
100
AcDbEntity
  8
P-SANR-FIXT
100
AcDbSpline
210
0.0
220
0.0
230
1.0
 70
     8
 71
     3
 72
     8
 73
     4
 74
     0
 42
0.000000001
 43
0.0000000001
 40
0.8148148148148145
 40
0.8148148148148145
 40
0.8148148148148145
 40
0.8148148148148145
 40
0.8518518518518513
 40
0.8518518518518513
 40
0.8518518518518513
 40
0.8518518518518513
 10
1074.222192576825
 20
2031.156145765913
 30
0.0
 10
1073.995543301123
 20
2031.006554348105
 30
0.0
 10
1073.76382584693
 20
2030.85751382768
 30
0.0
 10
1073.520250103894
 20
2030.739769332633
 30
0.0
  0
SPLINE
  5
253
330
1F0
100
AcDbEntity
  8
P-SANR-FIXT
100
AcDbSpline
210
0.0
220
0.0
230
1.0
 70
     8
 71
     3
 72
     8
 73
     4
 74
     0
 42
0.000000001
 43
0.0000000001
 40
0.8888888888888883
 40
0.8888888888888883
 40
0.8888888888888883
 40
0.8888888888888883
 40
0.8897895566695357
 40
0.8897895566695357
 40
0.8897895566695357
 40
0.8897895566695357
 10
1072.776445557786
 20
2030.42482721584
 30
0.0
 10
1072.770313370037
 20
2030.422585739747
 30
0.0
 10
1072.764171783325
 20
2030.420370409754
 30
0.0
 10
1072.758020949627
 20
2030.418180803154
 30
0.0
  0
SPLINE
  5
254
330
1F0
100
AcDbEntity
  8
P-SANR-FIXT
100
AcDbSpline
210
0.0
220
0.0
230
1.0
 70
     8
 71
     3
 72
     8
 73
     4
 74
     0
 42
0.000000001
 43
0.0000000001
 40
0.9259259259259254
 40
0.9259259259259254
 40
0.9259259259259254
 40
0.9259259259259254
 40
0.9629629629629622
 40
0.9629629629629622
 40
0.9629629629629622
 40
0.9629629629629622
 10
1072.004354737164
 20
2030.193318822495
 30
0.0
 10
1071.741729663725
 20
2030.131060954997
 30
0.0
 10
1071.468164597503
 20
2030.098025925583
 30
0.0
 10
1071.191888594218
 20
2030.072331241602
 30
0.0
  0
LINE
  5
255
330
1F0
100
AcDbEntity
  8
P-SANR-FIXT
100
AcDbLine
 10
1096.363156828899
 20
1970.998183850011
 30
0.0
 11
1096.363156828899
 21
1961.998183850011
 31
0.0
  0
LINE
  5
256
330
1F0
100
AcDbEntity
  8
P-SANR-FIXT
100
AcDbLine
 10
1096.363156828899
 20
1979.998183850011
 30
0.0
 11
1096.363156828899
 21
1970.998183850011
 31
0.0
  0
LINE
  5
257
330
1F0
100
AcDbEntity
  8
P-SANR-FIXT
100
AcDbLine
 10
1049.621848408261
 20
1982.973183850011
 30
0.0
 11
1049.604064287946
 21
1982.942327891181
 31
0.0
  0
LINE
  5
258
330
1F0
100
AcDbEntity
  8
P-SANR-FIXT
100
AcDbLine
 10
1049.621848408261
 20
1959.023183850011
 30
0.0
 11
1049.630180306834
 21
1959.008764158653
 31
0.0
  0
LINE
  5
259
330
1F0
100
AcDbEntity
  8
P-SANR-FIXT
100
AcDbLine
 10
1091.104465249536
 20
1959.023183850012
 30
0.0
 11
1091.12224936985
 21
1959.054039808842
 31
0.0
  0
LINE
  5
25A
330
1F0
100
AcDbEntity
  8
P-SANR-FIXT
100
AcDbLine
 10
1091.104465249535
 20
1982.973183850012
 30
0.0
 11
1091.096133350962
 21
1982.98760354137
 31
0.0
  0
ARC
  5
25B
330
1F0
100
AcDbEntity
  8
P-SANR-FIXT
100
AcDbCircle
 10
1070.363156828898
 20
1970.998183850011
 30
0.0
 40
23.95000000000012
100
AcDbArc
 50
90.0
 51
91.92891591574003
  0
LINE
  5
25C
330
1F0
100
AcDbEntity
  8
P-SANR-FIXT
100
AcDbLine
 10
1068.7517768013
 20
1994.893914732465
 30
0.0
 11
1050.474536856495
 21
1984.341545330288
 31
0.0
  0
ARC
  5
25D
330
1F0
100
AcDbEntity
  8
P-SANR-FIXT
100
AcDbCircle
 10
1070.363156828898
 20
1970.998183850011
 30
0.0
 40
23.94999999999997
100
AcDbArc
 50
146.1421681685211
 51
150.0000000000004
  0
LINE
  5
25E
330
1F0
100
AcDbEntity
  8
P-SANR-FIXT
100
AcDbLine
 10
1048.863156828898
 20
1981.550553252188
 30
0.0
 11
1048.863156828898
 21
1960.445814447834
 31
0.0
  0
ARC
  5
25F
330
1F0
100
AcDbEntity
  8
P-SANR-FIXT
100
AcDbCircle
 10
1070.363156828898
 20
1970.998183850011
 30
0.0
 40
23.95
100
AcDbArc
 50
206.1421681685223
 51
210.0000000000001
  0
LINE
  5
260
330
1F0
100
AcDbEntity
  8
P-SANR-FIXT
100
AcDbLine
 10
1050.474536856495
 20
1957.654822369734
 30
0.0
 11
1068.751776801302
 21
1947.102452967557
 31
0.0
  0
ARC
  5
261
330
1F0
100
AcDbEntity
  8
P-SANR-FIXT
100
AcDbCircle
 10
1070.363156828898
 20
1970.998183850011
 30
0.0
 40
23.94999999999982
100
AcDbArc
 50
268.0710840842618
 51
269.9999999999997
  0
ARC
  5
262
330
1F0
100
AcDbEntity
  8
P-SANR-FIXT
100
AcDbCircle
 10
1070.363156828898
 20
1970.998183850011
 30
0.0
 40
12.70000000000004
100
AcDbArc
 50
90.0
 51
269.9999999999997
  0
ARC
  5
263
330
1F0
100
AcDbEntity
  8
P-SANR-FIXT
100
AcDbCircle
 10
1070.363156828898
 20
1970.998183850011
 30
0.0
 40
23.9499999999999
100
AcDbArc
 50
270.0000000000002
 51
273.8578318314788
  0
LINE
  5
264
330
1F0
100
AcDbEntity
  8
P-SANR-FIXT
100
AcDbLine
 10
1071.974536856495
 20
1947.102452967557
 30
0.0
 11
1090.251776801302
 21
1957.654822369735
 31
0.0
  0
ARC
  5
265
330
1F0
100
AcDbEntity
  8
P-SANR-FIXT
100
AcDbCircle
 10
1070.363156828898
 20
1970.998183850011
 30
0.0
 40
23.95000000000022
100
AcDbArc
 50
326.142168168523
 51
333.8578318314796
  0
LINE
  5
266
330
1F0
100
AcDbEntity
  8
P-SANR-FIXT
100
AcDbLine
 10
1091.863156828898
 20
1960.445814447835
 30
0.0
 11
1091.863156828898
 21
1981.550553252188
 31
0.0
  0
ARC
  5
267
330
1F0
100
AcDbEntity
  8
P-SANR-FIXT
100
AcDbCircle
 10
1070.363156828898
 20
1970.998183850011
 30
0.0
 40
23.95000000000012
100
AcDbArc
 50
26.14216816852292
 51
33.85783183148102
  0
LINE
  5
268
330
1F0
100
AcDbEntity
  8
P-SANR-FIXT
100
AcDbLine
 10
1090.251776801301
 20
1984.341545330289
 30
0.0
 11
1071.974536856495
 21
1994.893914732465
 31
0.0
  0
ARC
  5
269
330
1F0
100
AcDbEntity
  8
P-SANR-FIXT
100
AcDbCircle
 10
1070.363156828898
 20
1970.998183850011
 30
0.0
 40
23.95000000000004
100
AcDbArc
 50
86.1421681685209
 51
90.0
  0
ARC
  5
26A
330
1F0
100
AcDbEntity
  8
P-SANR-FIXT
100
AcDbCircle
 10
1070.363156828898
 20
1970.998183850011
 30
0.0
 40
12.70000000000038
100
AcDbArc
 50
270.0000000000002
 51
89.99999999999948
  0
LINE
  5
26B
330
1F0
100
AcDbEntity
  8
P-SANR-FIXT
100
AcDbLine
 10
1043.863156828898
 20
2025.998183850008
 30
0.0
 11
1070.363156828898
 21
2025.998183850008
 31
0.0
  0
LINE
  5
26C
330
1F0
100
AcDbEntity
  8
P-SANR-FIXT
100
AcDbLine
 10
1070.363156828898
 20
2025.998183850008
 30
0.0
 11
1096.863156828899
 21
2025.998183850008
 31
0.0
  0
LINE
  5
26D
330
1F0
100
AcDbEntity
  8
P-SANR-FIXT
100
AcDbLine
 10
1035.863156828898
 20
2020.398183850007
 30
0.0
 11
1070.363156828898
 21
2020.398183850008
 31
0.0
  0
LINE
  5
26E
330
1F0
100
AcDbEntity
  8
P-SANR-FIXT
100
AcDbLine
 10
1070.363156828898
 20
2020.398183850008
 30
0.0
 11
1104.8631568289
 21
2020.398183850007
 31
0.0
  0
LINE
  5
26F
330
1F0
100
AcDbEntity
  8
P-SANR-FIXT
100
AcDbLine
 10
1035.863156828898
 20
2013.995385733374
 30
0.0
 11
1051.451360611401
 21
2013.995385733374
 31
0.0
  0
LINE
  5
270
330
1F0
100
AcDbEntity
  8
P-SANR-FIXT
100
AcDbLine
 10
1070.363156828898
 20
2013.995385733374
 30
0.0
 11
1104.8631568289
 21
2013.995385733374
 31
0.0
  0
LINE
  5
271
330
1F0
100
AcDbEntity
  8
P-SANR-FIXT
100
AcDbLine
 10
1036.860358712264
 20
2012.998183850007
 30
0.0
 11
1049.340533526125
 21
2012.998183850007
 31
0.0
  0
LINE
  5
272
330
1F0
100
AcDbEntity
  8
P-SANR-FIXT
100
AcDbLine
 10
1070.363156828898
 20
2012.998183850007
 30
0.0
 11
1103.865954945534
 21
2012.998183850007
 31
0.0
  0
LINE
  5
273
330
1F0
100
AcDbEntity
  8
P-SANR-FIXT
100
AcDbLine
 10
1043.688997275919
 20
2011.498183850031
 30
0.0
 11
1046.540053874855
 21
2011.498183850031
 31
0.0
  0
LINE
  5
274
330
1F0
100
AcDbEntity
  8
P-SANR-FIXT
100
AcDbLine
 10
1070.363156828898
 20
2011.498183850031
 30
0.0
 11
1097.037316381878
 21
2011.498183850031
 31
0.0
  0
ARC
  5
275
330
1F0
100
AcDbEntity
  8
P-SANR-FIXT
100
AcDbCircle
 10
1070.363156828898
 20
2036.995385733374
 30
0.0
 40
7.000000000062755
100
AcDbArc
 50
90.0
 51
269.9999999999997
  0
ARC
  5
276
330
1F0
100
AcDbEntity
  8
P-SANR-FIXT
100
AcDbCircle
 10
1070.363156828898
 20
2036.995385733374
 30
0.0
 40
7.000000000062982
100
AcDbArc
 50
269.9999999999997
 51
90.0
  0
LINE
  5
277
330
1F0
100
AcDbEntity
  8
P-SANR-FIXT
100
AcDbLine
 10
1049.630180306834
 20
1959.008764158652
 30
0.0
 11
1049.621848408262
 21
1959.02318385001
 31
0.0
  0
LINE
  5
278
330
1F0
100
AcDbEntity
  8
P-SANR-FIXT
100
AcDbLine
 10
1091.122249369851
 20
1959.054039808842
 30
0.0
 11
1091.104465249537
 21
1959.023183850012
 31
0.0
  0
ENDBLK
  5
27A
330
1F0
100
AcDbEntity
  8
0
100
AcDbBlockEnd
  0
ENDSEC
  0
SECTION
  2
ENTITIES
  0
INSERT
  5
1A4
330
71
100
AcDbEntity
  8
P-SANR-FIXT
100
AcDbBlockReference
  2
Automatic flow rate regulator valve_Caleffi_121 DN15 - 1_2__-859151-Est - Idraulica
 10
0.0
 20
0.0
 30
0.0
1001
REVIT
1002
{
1070
     1
1000
863131
1002
}
1002
{
1070
     5
1000
859151
1002
}
1002
{
1070
     2
1000
-2001160
1002
}
  0
INSERT
  5
1EF
330
71
100
AcDbEntity
  8
P-SANR-FIXT
100
AcDbBlockReference
  2
Automatic flow rate regulator valve_Caleffi_121 DN15 - 1_2__-V1-Est - Idraulica
 10
0.0
 20
0.0
 30
0.0
1001
REVIT
1002
{
1070
     1
1000
863152
1002
}
1002
{
1070
     5
1000
859151
1002
}
1002
{
1070
     2
1000
-2001160
1002
}
  0
INSERT
  5
27B
330
71
100
AcDbEntity
  8
P-SANR-FIXT
100
AcDbBlockReference
  2
Automatic flow rate regulator valve_Caleffi_121 DN15 - 1_2__-V2-Est - Idraulica
 10
0.0
 20
0.0
 30
0.0
1001
REVIT
1002
{
1070
     1
1000
863172
1002
}
1002
{
1070
     5
1000
859151
1002
}
1002
{
1070
     2
1000
-2001160
1002
}
  0
ENDSEC
  0
SECTION
  2
OBJECTS
  0
DICTIONARY
  5
C
330
0
100
AcDbDictionary
281
     1
  3
ACAD_CIP_PREVIOUS_PRODUCT_INFO
350
7A
  3
ACAD_COLOR
350
63
  3
ACAD_DETAILVIEWSTYLE
350
6B
  3
ACAD_GROUP
350
D
  3
ACAD_IMAGE_VARS
350
7B
  3
ACAD_LAYOUT
350
62
  3
ACAD_MATERIAL
350
10
  3
ACAD_MLEADERSTYLE
350
66
  3
ACAD_MLINESTYLE
350
5F
  3
ACAD_PLOTSETTINGS
350
61
  3
ACAD_PLOTSTYLENAME
350
E
  3
ACAD_SCALELIST
350
42
  3
ACAD_SECTIONVIEWSTYLE
350
68
  3
ACAD_TABLESTYLE
350
64
  3
ACAD_VISUALSTYLE
350
29
  3
ACDB_RECOMPOSE_DATA
350
286
  3
AcDbVariableDictionary
350
7C
  3
REVIT_DICTIONARY
350
27D
  0
DICTIONARY
  5
282
330
71
100
AcDbDictionary
280
     1
281
     1
  3
ACAD_SORTENTS
360
283
  0
XRECORD
  5
7A
102
{ACAD_REACTORS
330
C
102
}
330
C
100
AcDbXrecord
280
     1
300
RVT
300
2013
300
RVT2013
  0
DICTIONARY
  5
63
102
{ACAD_REACTORS
330
C
102
}
330
C
100
AcDbDictionary
281
     1
  0
DICTIONARY
  5
6B
102
{ACAD_REACTORS
330
C
102
}
330
C
100
AcDbDictionary
281
     1
  3
Imperial24
350
6C
  0
DICTIONARY
  5
D
102
{ACAD_REACTORS
330
C
102
}
330
C
100
AcDbDictionary
281
     1
  0
RASTERVARIABLES
  5
7B
102
{ACAD_REACTORS
330
C
102
}
330
C
100
AcDbRasterVariables
 90
        0
 70
     0
 71
     1
 72
     1
  0
DICTIONARY
  5
62
102
{ACAD_REACTORS
330
C
102
}
330
C
100
AcDbDictionary
281
     1
  3
Layout1
350
70
  3
Layout2
350
78
  3
Model
350
74
  0
DICTIONARY
  5
10
102
{ACAD_REACTORS
330
C
102
}
330
C
100
AcDbDictionary
281
     1
  3
ByBlock
350
19
  3
ByLayer
350
11
  3
Global
350
21
  0
DICTIONARY
  5
66
102
{ACAD_REACTORS
330
C
102
}
330
C
100
AcDbDictionary
281
     1
  3
Standard
350
67
  0
DICTIONARY
  5
5F
102
{ACAD_REACTORS
330
C
102
}
330
C
100
AcDbDictionary
281
     1
  3
Standard
350
60
  0
DICTIONARY
  5
61
102
{ACAD_REACTORS
330
C
102
}
330
C
100
AcDbDictionary
281
     1
  0
ACDBDICTIONARYWDFLT
  5
E
102
{ACAD_REACTORS
330
C
102
}
330
C
100
AcDbDictionary
281
     1
  3
Normal
350
F
100
AcDbDictionaryWithDefault
340
F
  0
DICTIONARY
  5
42
102
{ACAD_REACTORS
330
C
102
}
330
C
100
AcDbDictionary
281
     1
  3
A0
350
43
  3
A1
350
44
  3
A2
350
45
  3
A3
350
46
  3
A4
350
47
  3
A5
350
48
  3
A6
350
49
  3
A7
350
4A
  3
A8
350
4B
  3
A9
350
4C
  3
B0
350
4D
  3
B1
350
4E
  3
B2
350
4F
  3
B3
350
50
  3
B4
350
51
  3
B5
350
52
  3
B6
350
53
  0
DICTIONARY
  5
68
102
{ACAD_REACTORS
330
C
102
}
330
C
100
AcDbDictionary
281
     1
  3
Imperial24
350
6A
  0
DICTIONARY
  5
64
102
{ACAD_REACTORS
330
C
102
}
330
C
100
AcDbDictionary
281
     1
  3
Standard
350
65
  0
DICTIONARY
  5
29
102
{ACAD_REACTORS
330
C
102
}
330
C
100
AcDbDictionary
281
     1
  3
2dWireframe
350
2F
  3
Basic
350
2E
  3
Brighten
350
35
  3
ColorChange
350
39
  3
Conceptual
350
32
  3
Dim
350
34
  3
EdgeColorOff
350
41
  3
Facepattern
350
38
  3
Flat
350
2A
  3
FlatWithEdges
350
2B
  3
Gouraud
350
2C
  3
GouraudWithEdges
350
2D
  3
Hidden
350
31
  3
JitterOff
350
3F
  3
Linepattern
350
37
  3
OverhangOff
350
40
  3
Realistic
350
33
  3
Shaded
350
3E
  3
Shaded with edges
350
3D
  3
Shades of Gray
350
3A
  3
Sketchy
350
3B
  3
Thicken
350
36
  3
Wireframe
350
30
  3
X-Ray
350
3C
  0
XRECORD
  5
286
102
{ACAD_REACTORS
330
C
102
}
330
C
100
AcDbXrecord
280
     1
 90
        1
330
65
  0
DICTIONARY
  5
7C
102
{ACAD_REACTORS
330
C
102
}
330
C
100
AcDbDictionary
281
     1
  3
CANNOSCALE
350
81
  3
CMLEADERSTYLE
350
7E
  3
CTABLESTYLE
350
7D
  3
CVIEWDETAILSTYLE
350
7F
  3
CVIEWSECTIONSTYLE
350
80
  0
DICTIONARY
  5
27D
102
{ACAD_REACTORS
330
C
102
}
330
C
100
AcDbDictionary
281
     1
  3
DRAWING_TOOL
350
281
  3
REVIT_CATEGORY_MAPPING
350
27F
  3
REVIT_SUB_CATEGORY_MAPPING
350
280
  3
REVIT_TYPE_MAPPING
350
27E
  0
SORTENTSTABLE
  5
283
102
{ACAD_REACTORS
330
282
102
}
330
282
100
AcDbSortentsTable
330
71
  0
ACDBDETAILVIEWSTYLE
  5
6C
102
{ACAD_REACTORS
330
6B
102
}
330
6B
100
AcDbModelDocViewStyle
 70
     0
  3
Imperial24
290
     1
100
AcDbDetailViewStyle
 70
     0
 71
     0
 90
        3
 71
     1
340
55
 62
   256
 40
0.24
340
0
 62
   256
 40
0.24
300

 40
0.36
280
     3
 71
     2
340
5D
 90
       25
 62
   256
 71
     3
340
55
 62
   256
 40
0.24
 90
        1
 40
0.75
 90
        1
300
%<\AcVar ViewType \f "%tc1">% %<\AcVar ViewDetailId>%\PSCALA %<\AcVar ViewScale \f "%sn">%
 71
     4
340
5D
 90
       25
 62
   256
340
5D
 90
       25
 62
   256
280
     0
  0
LAYOUT
  5
70
102
{ACAD_REACTORS
330
62
102
}
330
62
100
AcDbPlotSettings
  1

  2

  4

  6

 40
0.0
 41
0.0
 42
0.0
 43
0.0
 44
0.0
 45
0.0
 46
0.0
 47
0.0
 48
0.0
 49
0.0
140
0.0
141
0.0
142
1.0
143
1.0
 70
   688
 72
     0
 73
     0
 74
     5
  7

 75
    16
147
1.0
 76
     0
 77
     2
 78
   300
148
0.0
149
0.0
100
AcDbLayout
  1
Layout1
 70
     1
 71
     1
 10
0.0
 20
0.0
 11
12.0
 21
9.0
 12
0.0
 22
0.0
 32
0.0
 14
0.0
 24
0.0
 34
0.0
 15
0.0
 25
0.0
 35
0.0
146
0.0
 13
0.0
 23
0.0
 33
0.0
 16
1.0
 26
0.0
 36
0.0
 17
0.0
 27
1.0
 37
0.0
 76
     0
330
6D
  0
LAYOUT
  5
78
102
{ACAD_REACTORS
330
62
102
}
330
62
100
AcDbPlotSettings
  1

  2

  4

  6

 40
0.0
 41
0.0
 42
0.0
 43
0.0
 44
0.0
 45
0.0
 46
0.0
 47
0.0
 48
0.0
 49
0.0
140
0.0
141
0.0
142
1.0
143
1.0
 70
   688
 72
     0
 73
     0
 74
     5
  7

 75
    16
147
1.0
 76
     0
 77
     2
 78
   300
148
0.0
149
0.0
100
AcDbLayout
  1
Layout2
 70
     1
 71
     2
 10
0.0
 20
0.0
 11
12.0
 21
9.0
 12
0.0
 22
0.0
 32
0.0
 14
0.0
 24
0.0
 34
0.0
 15
0.0
 25
0.0
 35
0.0
146
0.0
 13
0.0
 23
0.0
 33
0.0
 16
1.0
 26
0.0
 36
0.0
 17
0.0
 27
1.0
 37
0.0
 76
     0
330
75
  0
LAYOUT
  5
74
102
{ACAD_REACTORS
330
62
102
}
330
62
100
AcDbPlotSettings
  1

  2

  4

  6

 40
0.0
 41
0.0
 42
0.0
 43
0.0
 44
0.0
 45
0.0
 46
0.0
 47
0.0
 48
0.0
 49
0.0
140
0.0
141
0.0
142
1.0
143
1.0
 70
  1712
 72
     0
 73
     0
 74
     0
  7

 75
     0
147
1.0
 76
     0
 77
     2
 78
   300
148
0.0
149
0.0
100
AcDbLayout
  1
Model
 70
     1
 71
     0
 10
0.0
 20
0.0
 11
12.0
 21
9.0
 12
0.0
 22
0.0
 32
0.0
 14
0.0
 24
0.0
 34
0.0
 15
0.0
 25
0.0
 35
0.0
146
0.0
 13
0.0
 23
0.0
 33
0.0
 16
1.0
 26
0.0
 36
0.0
 17
0.0
 27
1.0
 37
0.0
 76
     0
330
71
  0
MATERIAL
  5
19
102
{ACAD_XDICTIONARY
360
1A
102
}
102
{ACAD_REACTORS
330
10
102
}
330
10
100
AcDbMaterial
  1
ByBlock
 72
     0
 43
0.0208333333333333
 43
0.0
 43
0.0
 43
0.0
 43
0.0
 43
0.0208333333333333
 43
0.0
 43
0.0
 43
0.0
 43
0.0
 43
1.0
 43
0.0
 43
0.0
 43
0.0
 43
0.0
 43
1.0
 77
     0
 47
0.0208333333333333
 47
0.0
 47
0.0
 47
0.0
 47
0.0
 47
0.0208333333333333
 47
0.0
 47
0.0
 47
0.0
 47
0.0
 47
1.0
 47
0.0
 47
0.0
 47
0.0
 47
0.0
 47
1.0
171
     0
 49
0.0208333333333333
 49
0.0
 49
0.0
 49
0.0
 49
0.0
 49
0.0208333333333333
 49
0.0
 49
0.0
 49
0.0
 49
0.0
 49
1.0
 49
0.0
 49
0.0
 49
0.0
 49
0.0
 49
1.0
175
     0
142
0.0208333333333333
142
0.0
142
0.0
142
0.0
142
0.0
142
0.0208333333333333
142
0.0
142
0.0
142
0.0
142
0.0
142
1.0
142
0.0
142
0.0
142
0.0
142
0.0
142
1.0
179
     0
144
0.0208333333333333
144
0.0
144
0.0
144
0.0
144
0.0
144
0.0208333333333333
144
0.0
144
0.0
144
0.0
144
0.0
144
1.0
144
0.0
144
0.0
144
0.0
144
0.0
144
1.0
147
0.0208333333333333
147
0.0
147
0.0
147
0.0
147
0.0
147
0.0208333333333333
147
0.0
147
0.0
147
0.0
147
0.0
147
1.0
147
0.0
147
0.0
147
0.0
147
0.0
147
1.0
  0
MATERIAL
  5
11
102
{ACAD_XDICTIONARY
360
12
102
}
102
{ACAD_REACTORS
330
10
102
}
330
10
100
AcDbMaterial
  1
ByLayer
 72
     0
 43
0.0208333333333333
 43
0.0
 43
0.0
 43
0.0
 43
0.0
 43
0.0208333333333333
 43
0.0
 43
0.0
 43
0.0
 43
0.0
 43
1.0
 43
0.0
 43
0.0
 43
0.0
 43
0.0
 43
1.0
 77
     0
 47
0.0208333333333333
 47
0.0
 47
0.0
 47
0.0
 47
0.0
 47
0.0208333333333333
 47
0.0
 47
0.0
 47
0.0
 47
0.0
 47
1.0
 47
0.0
 47
0.0
 47
0.0
 47
0.0
 47
1.0
171
     0
 49
0.0208333333333333
 49
0.0
 49
0.0
 49
0.0
 49
0.0
 49
0.0208333333333333
 49
0.0
 49
0.0
 49
0.0
 49
0.0
 49
1.0
 49
0.0
 49
0.0
 49
0.0
 49
0.0
 49
1.0
175
     0
142
0.0208333333333333
142
0.0
142
0.0
142
0.0
142
0.0
142
0.0208333333333333
142
0.0
142
0.0
142
0.0
142
0.0
142
1.0
142
0.0
142
0.0
142
0.0
142
0.0
142
1.0
179
     0
144
0.0208333333333333
144
0.0
144
0.0
144
0.0
144
0.0
144
0.0208333333333333
144
0.0
144
0.0
144
0.0
144
0.0
144
1.0
144
0.0
144
0.0
144
0.0
144
0.0
144
1.0
147
0.0208333333333333
147
0.0
147
0.0
147
0.0
147
0.0
147
0.0208333333333333
147
0.0
147
0.0
147
0.0
147
0.0
147
1.0
147
0.0
147
0.0
147
0.0
147
0.0
147
1.0
  0
MATERIAL
  5
21
102
{ACAD_XDICTIONARY
360
22
102
}
102
{ACAD_REACTORS
330
10
102
}
330
10
100
AcDbMaterial
  1
Global
 72
     0
 43
0.0208333333333333
 43
0.0
 43
0.0
 43
0.0
 43
0.0
 43
0.0208333333333333
 43
0.0
 43
0.0
 43
0.0
 43
0.0
 43
1.0
 43
0.0
 43
0.0
 43
0.0
 43
0.0
 43
1.0
 77
     0
 47
0.0208333333333333
 47
0.0
 47
0.0
 47
0.0
 47
0.0
 47
0.0208333333333333
 47
0.0
 47
0.0
 47
0.0
 47
0.0
 47
1.0
 47
0.0
 47
0.0
 47
0.0
 47
0.0
 47
1.0
171
     0
 49
0.0208333333333333
 49
0.0
 49
0.0
 49
0.0
 49
0.0
 49
0.0208333333333333
 49
0.0
 49
0.0
 49
0.0
 49
0.0
 49
1.0
 49
0.0
 49
0.0
 49
0.0
 49
0.0
 49
1.0
175
     0
142
0.0208333333333333
142
0.0
142
0.0
142
0.0
142
0.0
142
0.0208333333333333
142
0.0
142
0.0
142
0.0
142
0.0
142
1.0
142
0.0
142
0.0
142
0.0
142
0.0
142
1.0
179
     0
144
0.0208333333333333
144
0.0
144
0.0
144
0.0
144
0.0
144
0.0208333333333333
144
0.0
144
0.0
144
0.0
144
0.0
144
1.0
144
0.0
144
0.0
144
0.0
144
0.0
144
1.0
147
0.0208333333333333
147
0.0
147
0.0
147
0.0
147
0.0
147
0.0208333333333333
147
0.0
147
0.0
147
0.0
147
0.0
147
1.0
147
0.0
147
0.0
147
0.0
147
0.0
147
1.0
  0
MLEADERSTYLE
  5
67
102
{ACAD_REACTORS
330
66
102
}
330
66
100
AcDbMLeaderStyle
179
     2
170
     2
171
     1
172
     0
 90
        2
 40
0.0
 41
0.0
173
     1
 91
-1056964608
340
5B
 92
       -2
290
     1
 42
0.09
291
     1
 43
0.36
  3
Standard
 44
0.18
300

342
55
174
     1
178
     6
175
     1
176
     0
 93
-1056964608
 45
0.18
292
     0
297
     0
 46
0.18
 94
-1056964608
 47
1.0
 49
1.0
140
1.0
293
     1
141
0.0
294
     1
177
     0
142
1.0
295
     1
296
     0
143
0.125
271
     0
272
     9
273
     9
298
     1
  0
MLINESTYLE
  5
60
102
{ACAD_REACTORS
330
5F
102
}
330
5F
100
AcDbMlineStyle
  2
STANDARD
 70
     0
  3

 62
   256
 51
90.0
 52
90.0
 71
     2
 49
0.5
 62
   256
  6
BYLAYER
 49
-0.5
 62
   256
  6
BYLAYER
  0
ACDBPLACEHOLDER
  5
F
102
{ACAD_REACTORS
330
E
102
}
330
E
  0
SCALE
  5
43
102
{ACAD_REACTORS
330
42
102
}
330
42
100
AcDbScale
 70
     0
300
1:1
140
1.0
141
1.0
290
     1
  0
SCALE
  5
44
102
{ACAD_REACTORS
330
42
102
}
330
42
100
AcDbScale
 70
     0
300
1/128" = 1'-0"
140
0.0078125
141
12.0
290
     0
  0
SCALE
  5
45
102
{ACAD_REACTORS
330
42
102
}
330
42
100
AcDbScale
 70
     0
300
1/64" = 1'-0"
140
0.015625
141
12.0
290
     0
  0
SCALE
  5
46
102
{ACAD_REACTORS
330
42
102
}
330
42
100
AcDbScale
 70
     0
300
1/32" = 1'-0"
140
0.03125
141
12.0
290
     0
  0
SCALE
  5
47
102
{ACAD_REACTORS
330
42
102
}
330
42
100
AcDbScale
 70
     0
300
1/16" = 1'-0"
140
0.0625
141
12.0
290
     0
  0
SCALE
  5
48
102
{ACAD_REACTORS
330
42
102
}
330
42
100
AcDbScale
 70
     0
300
3/32" = 1'-0"
140
0.09375
141
12.0
290
     0
  0
SCALE
  5
49
102
{ACAD_REACTORS
330
42
102
}
330
42
100
AcDbScale
 70
     0
300
1/8" = 1'-0"
140
0.125
141
12.0
290
     0
  0
SCALE
  5
4A
102
{ACAD_REACTORS
330
42
102
}
330
42
100
AcDbScale
 70
     0
300
3/16" = 1'-0"
140
0.1875
141
12.0
290
     0
  0
SCALE
  5
4B
102
{ACAD_REACTORS
330
42
102
}
330
42
100
AcDbScale
 70
     0
300
1/4" = 1'-0"
140
0.25
141
12.0
290
     0
  0
SCALE
  5
4C
102
{ACAD_REACTORS
330
42
102
}
330
42
100
AcDbScale
 70
     0
300
3/8" = 1'-0"
140
0.375
141
12.0
290
     0
  0
SCALE
  5
4D
102
{ACAD_REACTORS
330
42
102
}
330
42
100
AcDbScale
 70
     0
300
1/2" = 1'-0"
140
0.5
141
12.0
290
     0
  0
SCALE
  5
4E
102
{ACAD_REACTORS
330
42
102
}
330
42
100
AcDbScale
 70
     0
300
3/4" = 1'-0"
140
0.75
141
12.0
290
     0
  0
SCALE
  5
4F
102
{ACAD_REACTORS
330
42
102
}
330
42
100
AcDbScale
 70
     0
300
1" = 1'-0"
140
1.0
141
12.0
290
     0
  0
SCALE
  5
50
102
{ACAD_REACTORS
330
42
102
}
330
42
100
AcDbScale
 70
     0
300
1-1/2" = 1'-0"
140
1.5
141
12.0
290
     0
  0
SCALE
  5
51
102
{ACAD_REACTORS
330
42
102
}
330
42
100
AcDbScale
 70
     0
300
3" = 1'-0"
140
3.0
141
12.0
290
     0
  0
SCALE
  5
52
102
{ACAD_REACTORS
330
42
102
}
330
42
100
AcDbScale
 70
     0
300
6" = 1'-0"
140
6.0
141
12.0
290
     0
  0
SCALE
  5
53
102
{ACAD_REACTORS
330
42
102
}
330
42
100
AcDbScale
 70
     0
300
1'-0" = 1'-0"
140
12.0
141
12.0
290
     0
  0
ACDBSECTIONVIEWSTYLE
  5
6A
102
{ACAD_REACTORS
330
68
102
}
330
68
100
AcDbModelDocViewStyle
 70
     0
  3
Imperial24
290
     1
100
AcDbSectionViewStyle
 70
     0
 71
     0
 90
       78
 71
     1
340
55
 62
   256
 40
0.24
340
0
340
0
 62
   256
 40
0.24
300
I, O, Q, S, X, Z
 40
0.48
 90
        3
 40
0.18
 90
        1
 71
     2
340
69
 90
       25
 62
   256
340
5D
 90
       50
 62
   256
 40
0.24
 40
0.0
 40
0.24
 71
     3
340
55
 62
   256
 40
0.24
 90
        1
 40
0.75
 90
        1
300
%<\AcVar ViewType \f "%tc1">% %<\AcVar ViewSectionStartId>%-%<\AcVar ViewSectionEndId>%\PSCALA %<\AcVar ViewScale \f "%sn">%
 71
     4
 62
   256
 62
   257
300
ANSI31
 40
1.0
 90
        0
290
     0
290
     0
 90
        6
 40
0.0
 40
1.570796326794896
 40
0.2617993877991494
 40
1.308996938995747
 40
-0.2617993877991494
 40
1.832595714594046
  0
TABLESTYLE
  5
65
102
{ACAD_XDICTIONARY
360
284
102
}
102
{ACAD_REACTORS
330
64
102
}
330
64
100
AcDbTableStyle
280
     0
  3
Standard
 70
     0
 71
     0
 40
0.06
 41
0.06
280
     0
281
     0
  7
Standard
140
0.18
170
     2
 62
     0
 63
     7
283
     0
 90
      512
 91
        0
  1

274
    -2
284
     1
 64
     0
275
    -2
285
     1
 65
     0
276
    -2
286
     1
 66
     0
277
    -2
287
     1
 67
     0
278
    -2
288
     1
 68
     0
279
    -2
289
     1
 69
     0
  7
Standard
140
0.25
170
     5
 62
     0
 63
     7
283
     0
 90
      512
 91
        0
  1

274
    -2
284
     1
 64
     0
275
    -2
285
     1
 65
     0
276
    -2
286
     1
 66
     0
277
    -2
287
     1
 67
     0
278
    -2
288
     1
 68
     0
279
    -2
289
     1
 69
     0
  7
Standard
140
0.18
170
     5
 62
     0
 63
     7
283
     0
 90
      512
 91
        0
  1

274
    -2
284
     1
 64
     0
275
    -2
285
     1
 65
     0
276
    -2
286
     1
 66
     0
277
    -2
287
     1
 67
     0
278
    -2
288
     1
 68
     0
279
    -2
289
     1
 69
     0
  0
VISUALSTYLE
  5
2F
102
{ACAD_REACTORS
330
29
102
}
330
29
100
AcDbVisualStyle
  2
2dWireframe
 70
     4
177
     3
291
     0
 70
    58
 90
        0
176
     1
 90
        2
176
     1
 90
        0
176
     1
 90
        0
176
     1
 40
0.6
176
     1
 40
30.0
176
     1
 62
     7
420
 16777215
176
     1
 90
        1
176
     1
 90
        4
176
     1
 62
     7
176
     1
 62
   257
176
     1
 90
        1
176
     1
 90
        1
176
     1
 40
1.0
176
     1
 90
        0
176
     1
 62
   257
176
     1
 40
1.0
176
     1
 90
        1
176
     1
 90
        6
176
     1
 90
        2
176
     1
 62
     7
176
     1
 90
        5
176
     1
 90
        0
176
     1
 90
        0
176
     1
290
     0
176
     1
 90
        1
176
     1
 40
0.0
176
     1
 90
        0
176
     1
290
     1
176
     1
290
     1
176
     1
290
     0
176
     1
290
     0
176
     1
290
     0
176
     1
290
     0
176
     1
290
     0
176
     1
290
     0
176
     1
290
     0
176
     1
 90
       50
176
     1
 40
0.0
176
     1
 40
1.0
176
     1
 90
        0
176
     1
 62
    18
420
        0
176
     1
 90
       50
176
     1
 90
        3
176
     1
 62
     5
420
      255
176
     1
290
     0
176
     1
 90
       50
176
     1
 90
       50
176
     1
 90
       50
176
     1
290
     0
176
     1
 90
       50
176
     1
 62
   256
176
     0
 40
1.0
176
     0
 90
        2
176
     1
  1
strokes_ogs.tif
176
     1
290
     0
176
     1
 40
1.0
176
     1
 40
1.0
176
     1
  0
VISUALSTYLE
  5
2E
102
{ACAD_REACTORS
330
29
102
}
330
29
100
AcDbVisualStyle
  2
Basic
 70
     7
177
     3
291
     1
 70
    58
 90
        1
176
     1
 90
        0
176
     1
 90
        1
176
     1
 90
        0
176
     1
 40
0.6
176
     1
 40
30.0
176
     1
 62
     7
420
 16777215
176
     1
 90
        0
176
     1
 90
        4
176
     1
 62
     7
176
     1
 62
   257
176
     1
 90
        1
176
     1
 90
        1
176
     1
 40
1.0
176
     1
 90
        8
176
     1
 62
     7
176
     1
 40
1.0
176
     1
 90
        1
176
     1
 90
        6
176
     1
 90
        2
176
     1
 62
     7
176
     1
 90
        5
176
     1
 90
        0
176
     1
 90
        0
176
     1
290
     0
176
     1
 90
        1
176
     1
 40
0.0
176
     1
 90
        0
176
     1
290
     0
176
     1
290
     1
176
     1
290
     1
176
     1
290
     0
176
     1
290
     0
176
     1
290
     0
176
     1
290
     0
176
     1
290
     0
176
     1
290
     0
176
     1
 90
       50
176
     1
 40
0.0
176
     1
 40
1.0
176
     1
 90
        0
176
     1
 62
    18
420
        0
176
     1
 90
       50
176
     1
 90
        3
176
     1
 62
     5
420
      255
176
     1
290
     0
176
     1
 90
       50
176
     1
 90
       50
176
     1
 90
       50
176
     1
290
     0
176
     1
 90
       50
176
     1
 62
   256
176
     0
 40
1.0
176
     0
 90
        2
176
     1
  1
strokes_ogs.tif
176
     1
290
     0
176
     1
 40
1.0
176
     1
 40
1.0
176
     1
  0
VISUALSTYLE
  5
35
102
{ACAD_REACTORS
330
29
102
}
330
29
100
AcDbVisualStyle
  2
Brighten
 70
    12
177
     3
291
     1
 70
    58
 90
        2
176
     1
 90
        2
176
     1
 90
        0
176
     1
 90
        0
176
     1
 40
0.6
176
     1
 40
30.0
176
     1
 62
     7
420
 16777215
176
     1
 90
        1
176
     1
 90
        4
176
     1
 62
     7
176
     1
 62
   257
176
     1
 90
        1
176
     1
 90
        1
176
     1
 40
1.0
176
     1
 90
        8
176
     1
 62
     7
176
     1
 40
1.0
176
     1
 90
        1
176
     1
 90
        6
176
     1
 90
        2
176
     1
 62
     7
176
     1
 90
        5
176
     1
 90
        0
176
     1
 90
        0
176
     1
290
     0
176
     1
 90
        1
176
     1
 40
50.0
176
     1
 90
        0
176
     1
290
     0
176
     1
290
     1
176
     1
290
     1
176
     1
290
     0
176
     1
290
     0
176
     1
290
     0
176
     1
290
     0
176
     1
290
     0
176
     1
290
     0
176
     1
 90
       50
176
     1
 40
0.0
176
     1
 40
1.0
176
     1
 90
        0
176
     1
 62
    18
420
        0
176
     1
 90
       50
176
     1
 90
        3
176
     1
 62
     5
420
      255
176
     1
290
     0
176
     1
 90
       50
176
     1
 90
       50
176
     1
 90
       50
176
     1
290
     0
176
     1
 90
       50
176
     1
 62
   256
176
     0
 40
1.0
176
     0
 90
        2
176
     1
  1
strokes_ogs.tif
176
     1
290
     0
176
     1
 40
1.0
176
     1
 40
1.0
176
     1
  0
VISUALSTYLE
  5
39
102
{ACAD_REACTORS
330
29
102
}
330
29
100
AcDbVisualStyle
  2
ColorChange
 70
    16
177
     3
291
     1
 70
    58
 90
        2
176
     1
 90
        2
176
     1
 90
        3
176
     1
 90
        0
176
     1
 40
0.6
176
     1
 40
30.0
176
     1
 62
     8
420
  8421504
176
     1
 90
        1
176
     1
 90
        4
176
     1
 62
     7
176
     1
 62
   257
176
     1
 90
        1
176
     1
 90
        1
176
     1
 40
1.0
176
     1
 90
        8
176
     1
 62
     8
420
  8421504
176
     1
 40
1.0
176
     1
 90
        1
176
     1
 90
        6
176
     1
 90
        2
176
     1
 62
     7
176
     1
 90
        5
176
     1
 90
        0
176
     1
 90
        0
176
     1
290
     0
176
     1
 90
        1
176
     1
 40
0.0
176
     1
 90
        0
176
     1
290
     0
176
     1
290
     1
176
     1
290
     1
176
     1
290
     0
176
     1
290
     0
176
     1
290
     0
176
     1
290
     0
176
     1
290
     0
176
     1
290
     0
176
     1
 90
       50
176
     1
 40
0.0
176
     1
 40
1.0
176
     1
 90
        0
176
     1
 62
    18
420
        0
176
     1
 90
       50
176
     1
 90
        3
176
     1
 62
     5
420
      255
176
     1
290
     0
176
     1
 90
       50
176
     1
 90
       50
176
     1
 90
       50
176
     1
290
     0
176
     1
 90
       50
176
     1
 62
   256
176
     0
 40
1.0
176
     0
 90
        2
176
     1
  1
strokes_ogs.tif
176
     1
290
     0
176
     1
 40
1.0
176
     1
 40
1.0
176
     1
  0
VISUALSTYLE
  5
32
102
{ACAD_REACTORS
330
29
102
}
330
29
100
AcDbVisualStyle
  2
Conceptual
 70
     9
177
     3
291
     0
 70
    58
 90
        3
176
     1
 90
        2
176
     1
 90
        0
176
     1
 90
        0
176
     1
 40
0.6
176
     1
 40
30.0
176
     1
 62
     7
420
 16777215
176
     1
 90
        2
176
     1
 90
        2
176
     1
 62
     7
176
     1
 62
   257
176
     1
 90
        1
176
     1
 90
        1
176
     1
 40
179.0
176
     1
 90
        8
176
     1
 62
     7
176
     1
 40
1.0
176
     1
 90
        1
176
     1
 90
        6
176
     1
 90
        2
176
     1
 62
     7
176
     1
 90
        3
176
     1
 90
        0
176
     1
 90
        0
176
     1
290
     0
176
     1
 90
        1
176
     1
 40
0.0
176
     1
 90
        0
176
     1
290
     0
176
     1
290
     1
176
     1
290
     1
176
     1
290
     0
176
     1
290
     0
176
     1
290
     0
176
     1
290
     0
176
     1
290
     0
176
     1
290
     0
176
     1
 90
       50
176
     1
 40
0.0
176
     1
 40
1.0
176
     1
 90
        0
176
     1
 62
    18
420
        0
176
     1
 90
       50
176
     1
 90
        3
176
     1
 62
     5
420
      255
176
     1
290
     0
176
     1
 90
       50
176
     1
 90
       50
176
     1
 90
       50
176
     1
290
     0
176
     1
 90
       50
176
     1
 62
   256
176
     0
 40
1.0
176
     0
 90
        2
176
     1
  1
strokes_ogs.tif
176
     1
290
     0
176
     1
 40
1.0
176
     1
 40
1.0
176
     1
  0
VISUALSTYLE
  5
34
102
{ACAD_REACTORS
330
29
102
}
330
29
100
AcDbVisualStyle
  2
Dim
 70
    11
177
     3
291
     1
 70
    58
 90
        2
176
     1
 90
        2
176
     1
 90
        0
176
     1
 90
        0
176
     1
 40
0.6
176
     1
 40
30.0
176
     1
 62
     7
420
 16777215
176
     1
 90
        1
176
     1
 90
        4
176
     1
 62
     7
176
     1
 62
   257
176
     1
 90
        1
176
     1
 90
        1
176
     1
 40
1.0
176
     1
 90
        8
176
     1
 62
     7
176
     1
 40
1.0
176
     1
 90
        1
176
     1
 90
        6
176
     1
 90
        2
176
     1
 62
     7
176
     1
 90
        5
176
     1
 90
        0
176
     1
 90
        0
176
     1
290
     0
176
     1
 90
        1
176
     1
 40
-50.0
176
     1
 90
        0
176
     1
290
     0
176
     1
290
     1
176
     1
290
     1
176
     1
290
     0
176
     1
290
     0
176
     1
290
     0
176
     1
290
     0
176
     1
290
     0
176
     1
290
     0
176
     1
 90
       50
176
     1
 40
0.0
176
     1
 40
1.0
176
     1
 90
        0
176
     1
 62
    18
420
        0
176
     1
 90
       50
176
     1
 90
        3
176
     1
 62
     5
420
      255
176
     1
290
     0
176
     1
 90
       50
176
     1
 90
       50
176
     1
 90
       50
176
     1
290
     0
176
     1
 90
       50
176
     1
 62
   256
176
     0
 40
1.0
176
     0
 90
        2
176
     1
  1
strokes_ogs.tif
176
     1
290
     0
176
     1
 40
1.0
176
     1
 40
1.0
176
     1
  0
VISUALSTYLE
  5
41
102
{ACAD_REACTORS
330
29
102
}
330
29
100
AcDbVisualStyle
  2
EdgeColorOff
 70
    22
177
     3
291
     1
 70
    58
 90
        2
176
     0
 90
        2
176
     0
 90
        0
176
     0
 90
        0
176
     0
 40
0.6
176
     0
 40
30.0
176
     0
 62
     7
420
 16777215
176
     0
 90
        1
176
     0
 90
        4
176
     0
 62
     7
176
     0
 62
   257
176
     0
 90
        1
176
     0
 90
        1
176
     0
 40
1.0
176
     0
 90
        8
176
     2
 62
     7
176
     0
 40
1.0
176
     0
 90
        1
176
     0
 90
        6
176
     0
 90
        2
176
     0
 62
     7
176
     0
 90
        5
176
     0
 90
        0
176
     0
 90
        0
176
     0
290
     0
176
     0
 90
        1
176
     0
 40
0.0
176
     0
 90
        0
176
     0
290
     0
176
     0
290
     1
176
     0
290
     1
176
     0
290
     0
176
     0
290
     0
176
     0
290
     0
176
     0
290
     0
176
     0
290
     0
176
     0
290
     0
176
     0
 90
       50
176
     0
 40
0.0
176
     0
 40
1.0
176
     0
 90
        0
176
     0
 62
    18
420
        0
176
     0
 90
       50
176
     0
 90
        3
176
     0
 62
     5
420
      255
176
     0
290
     0
176
     0
 90
       50
176
     0
 90
       50
176
     0
 90
       50
176
     0
290
     0
176
     0
 90
       50
176
     0
 62
   256
176
     0
 40
1.0
176
     0
 90
        2
176
     0
  1
strokes_ogs.tif
176
     0
290
     0
176
     0
 40
1.0
176
     0
 40
1.0
176
     0
  0
VISUALSTYLE
  5
38
102
{ACAD_REACTORS
330
29
102
}
330
29
100
AcDbVisualStyle
  2
Facepattern
 70
    15
177
     3
291
     1
 70
    58
 90
        2
176
     1
 90
        2
176
     1
 90
        0
176
     1
 90
        0
176
     1
 40
0.6
176
     1
 40
30.0
176
     1
 62
     7
420
 16777215
176
     1
 90
        1
176
     1
 90
        4
176
     1
 62
     7
176
     1
 62
   257
176
     1
 90
        1
176
     1
 90
        1
176
     1
 40
1.0
176
     1
 90
        8
176
     1
 62
     7
176
     1
 40
1.0
176
     1
 90
        1
176
     1
 90
        6
176
     1
 90
        2
176
     1
 62
     7
176
     1
 90
        5
176
     1
 90
        0
176
     1
 90
        0
176
     1
290
     0
176
     1
 90
        1
176
     1
 40
0.0
176
     1
 90
        0
176
     1
290
     0
176
     1
290
     1
176
     1
290
     1
176
     1
290
     0
176
     1
290
     0
176
     1
290
     0
176
     1
290
     0
176
     1
290
     0
176
     1
290
     0
176
     1
 90
       50
176
     1
 40
0.0
176
     1
 40
1.0
176
     1
 90
        0
176
     1
 62
    18
420
        0
176
     1
 90
       50
176
     1
 90
        3
176
     1
 62
     5
420
      255
176
     1
290
     0
176
     1
 90
       50
176
     1
 90
       50
176
     1
 90
       50
176
     1
290
     0
176
     1
 90
       50
176
     1
 62
   256
176
     0
 40
1.0
176
     0
 90
        2
176
     1
  1
strokes_ogs.tif
176
     1
290
     0
176
     1
 40
1.0
176
     1
 40
1.0
176
     1
  0
VISUALSTYLE
  5
2A
102
{ACAD_REACTORS
330
29
102
}
330
29
100
AcDbVisualStyle
  2
Flat
 70
     0
177
     3
291
     1
 70
    58
 90
        2
176
     1
 90
        1
176
     1
 90
        1
176
     1
 90
        2
176
     1
 40
0.6
176
     1
 40
30.0
176
     1
 62
     7
420
 16777215
176
     1
 90
        0
176
     1
 90
        0
176
     1
 62
     7
176
     1
 62
   257
176
     1
 90
        1
176
     1
 90
        1
176
     1
 40
1.0
176
     1
 90
        8
176
     1
 62
     7
176
     1
 40
1.0
176
     1
 90
        1
176
     1
 90
        6
176
     1
 90
        2
176
     1
 62
     7
176
     1
 90
        5
176
     1
 90
        0
176
     1
 90
        0
176
     1
290
     0
176
     1
 90
       13
176
     1
 40
0.0
176
     1
 90
        0
176
     1
290
     0
176
     1
290
     1
176
     1
290
     1
176
     1
290
     0
176
     1
290
     0
176
     1
290
     0
176
     1
290
     0
176
     1
290
     0
176
     1
290
     0
176
     1
 90
       50
176
     1
 40
0.0
176
     1
 40
1.0
176
     1
 90
        0
176
     1
 62
    18
420
        0
176
     1
 90
       50
176
     1
 90
        3
176
     1
 62
     5
420
      255
176
     1
290
     0
176
     1
 90
       50
176
     1
 90
       50
176
     1
 90
       50
176
     1
290
     0
176
     1
 90
       50
176
     1
 62
   256
176
     0
 40
1.0
176
     0
 90
        2
176
     1
  1
strokes_ogs.tif
176
     1
290
     0
176
     1
 40
1.0
176
     1
 40
1.0
176
     1
  0
VISUALSTYLE
  5
2B
102
{ACAD_REACTORS
330
29
102
}
330
29
100
AcDbVisualStyle
  2
FlatWithEdges
 70
     1
177
     3
291
     1
 70
    58
 90
        2
176
     1
 90
        1
176
     1
 90
        1
176
     1
 90
        2
176
     1
 40
0.6
176
     1
 40
30.0
176
     1
 62
     7
420
 16777215
176
     1
 90
        1
176
     1
 90
        0
176
     1
 62
     7
176
     1
 62
   257
176
     1
 90
        1
176
     1
 90
        1
176
     1
 40
1.0
176
     1
 90
        0
176
     1
 62
   257
176
     1
 40
1.0
176
     1
 90
        1
176
     1
 90
        6
176
     1
 90
        2
176
     1
 62
     7
176
     1
 90
        5
176
     1
 90
        0
176
     1
 90
        0
176
     1
290
     0
176
     1
 90
       13
176
     1
 40
0.0
176
     1
 90
        0
176
     1
290
     0
176
     1
290
     1
176
     1
290
     1
176
     1
290
     0
176
     1
290
     0
176
     1
290
     0
176
     1
290
     0
176
     1
290
     0
176
     1
290
     0
176
     1
 90
       50
176
     1
 40
0.0
176
     1
 40
1.0
176
     1
 90
        0
176
     1
 62
    18
420
        0
176
     1
 90
       50
176
     1
 90
        3
176
     1
 62
     5
420
      255
176
     1
290
     0
176
     1
 90
       50
176
     1
 90
       50
176
     1
 90
       50
176
     1
290
     0
176
     1
 90
       50
176
     1
 62
   256
176
     0
 40
1.0
176
     0
 90
        2
176
     1
  1
strokes_ogs.tif
176
     1
290
     0
176
     1
 40
1.0
176
     1
 40
1.0
176
     1
  0
VISUALSTYLE
  5
2C
102
{ACAD_REACTORS
330
29
102
}
330
29
100
AcDbVisualStyle
  2
Gouraud
 70
     2
177
     3
291
     1
 70
    58
 90
        2
176
     1
 90
        2
176
     1
 90
        1
176
     1
 90
        2
176
     1
 40
0.6
176
     1
 40
30.0
176
     1
 62
     7
420
 16777215
176
     1
 90
        0
176
     1
 90
        0
176
     1
 62
     7
176
     1
 62
   257
176
     1
 90
        1
176
     1
 90
        1
176
     1
 40
1.0
176
     1
 90
        0
176
     1
 62
     7
176
     1
 40
1.0
176
     1
 90
        1
176
     1
 90
        6
176
     1
 90
        2
176
     1
 62
     7
176
     1
 90
        5
176
     1
 90
        0
176
     1
 90
        0
176
     1
290
     0
176
     1
 90
       13
176
     1
 40
0.0
176
     1
 90
        0
176
     1
290
     0
176
     1
290
     1
176
     1
290
     1
176
     1
290
     0
176
     1
290
     0
176
     1
290
     0
176
     1
290
     0
176
     1
290
     0
176
     1
290
     0
176
     1
 90
       50
176
     1
 40
0.0
176
     1
 40
1.0
176
     1
 90
        0
176
     1
 62
    18
420
        0
176
     1
 90
       50
176
     1
 90
        3
176
     1
 62
     5
420
      255
176
     1
290
     0
176
     1
 90
       50
176
     1
 90
       50
176
     1
 90
       50
176
     1
290
     0
176
     1
 90
       50
176
     1
 62
   256
176
     0
 40
1.0
176
     0
 90
        2
176
     1
  1
strokes_ogs.tif
176
     1
290
     0
176
     1
 40
1.0
176
     1
 40
1.0
176
     1
  0
VISUALSTYLE
  5
2D
102
{ACAD_REACTORS
330
29
102
}
330
29
100
AcDbVisualStyle
  2
GouraudWithEdges
 70
     3
177
     3
291
     1
 70
    58
 90
        2
176
     1
 90
        2
176
     1
 90
        1
176
     1
 90
        2
176
     1
 40
0.6
176
     1
 40
30.0
176
     1
 62
     7
420
 16777215
176
     1
 90
        1
176
     1
 90
        0
176
     1
 62
     7
176
     1
 62
   257
176
     1
 90
        1
176
     1
 90
        1
176
     1
 40
1.0
176
     1
 90
        0
176
     1
 62
   257
176
     1
 40
1.0
176
     1
 90
        1
176
     1
 90
        6
176
     1
 90
        2
176
     1
 62
     7
176
     1
 90
        5
176
     1
 90
        0
176
     1
 90
        0
176
     1
290
     0
176
     1
 90
       13
176
     1
 40
0.0
176
     1
 90
        0
176
     1
290
     0
176
     1
290
     1
176
     1
290
     1
176
     1
290
     0
176
     1
290
     0
176
     1
290
     0
176
     1
290
     0
176
     1
290
     0
176
     1
290
     0
176
     1
 90
       50
176
     1
 40
0.0
176
     1
 40
1.0
176
     1
 90
        0
176
     1
 62
    18
420
        0
176
     1
 90
       50
176
     1
 90
        3
176
     1
 62
     5
420
      255
176
     1
290
     0
176
     1
 90
       50
176
     1
 90
       50
176
     1
 90
       50
176
     1
290
     0
176
     1
 90
       50
176
     1
 62
   256
176
     0
 40
1.0
176
     0
 90
        2
176
     1
  1
strokes_ogs.tif
176
     1
290
     0
176
     1
 40
1.0
176
     1
 40
1.0
176
     1
  0
VISUALSTYLE
  5
31
102
{ACAD_REACTORS
330
29
102
}
330
29
100
AcDbVisualStyle
  2
Hidden
 70
     6
177
     3
291
     0
 70
    58
 90
        1
176
     1
 90
        2
176
     1
 90
        2
176
     1
 90
        0
176
     1
 40
0.6
176
     1
 40
30.0
176
     1
 62
     7
420
 16777215
176
     1
 90
        2
176
     1
 90
        2
176
     1
 62
     7
176
     1
 62
   257
176
     1
 90
        2
176
     1
 90
        1
176
     1
 40
40.0
176
     1
 90
        0
176
     1
 62
   257
176
     1
 40
1.0
176
     1
 90
        1
176
     1
 90
        6
176
     1
 90
        2
176
     1
 62
     7
176
     1
 90
        3
176
     1
 90
        0
176
     1
 90
        0
176
     1
290
     0
176
     1
 90
        1
176
     1
 40
0.0
176
     1
 90
        0
176
     1
290
     0
176
     1
290
     1
176
     1
290
     1
176
     1
290
     0
176
     1
290
     0
176
     1
290
     0
176
     1
290
     0
176
     1
290
     0
176
     1
290
     0
176
     1
 90
       50
176
     1
 40
0.0
176
     1
 40
1.0
176
     1
 90
        0
176
     1
 62
    18
420
        0
176
     1
 90
       50
176
     1
 90
        3
176
     1
 62
     5
420
      255
176
     1
290
     0
176
     1
 90
       50
176
     1
 90
       50
176
     1
 90
       50
176
     1
290
     0
176
     1
 90
       50
176
     1
 62
   256
176
     0
 40
1.0
176
     0
 90
        2
176
     1
  1
strokes_ogs.tif
176
     1
290
     0
176
     1
 40
1.0
176
     1
 40
1.0
176
     1
  0
VISUALSTYLE
  5
3F
102
{ACAD_REACTORS
330
29
102
}
330
29
100
AcDbVisualStyle
  2
JitterOff
 70
    20
177
     3
291
     1
 70
    58
 90
        2
176
     0
 90
        2
176
     0
 90
        0
176
     0
 90
        0
176
     0
 40
0.6
176
     0
 40
30.0
176
     0
 62
     7
420
 16777215
176
     0
 90
        1
176
     0
 90
        4
176
     0
 62
     7
176
     0
 62
   257
176
     0
 90
        1
176
     0
 90
        1
176
     0
 40
1.0
176
     0
 90
       10
176
     2
 62
     7
176
     0
 40
1.0
176
     0
 90
        1
176
     0
 90
        6
176
     0
 90
        2
176
     0
 62
     7
176
     0
 90
        5
176
     0
 90
        0
176
     0
 90
        0
176
     0
290
     0
176
     0
 90
        1
176
     0
 40
0.0
176
     0
 90
        0
176
     0
290
     0
176
     0
290
     1
176
     0
290
     1
176
     0
290
     0
176
     0
290
     0
176
     0
290
     0
176
     0
290
     0
176
     0
290
     0
176
     0
290
     0
176
     0
 90
       50
176
     0
 40
0.0
176
     0
 40
1.0
176
     0
 90
        0
176
     0
 62
    18
420
        0
176
     0
 90
       50
176
     0
 90
        3
176
     0
 62
     5
420
      255
176
     0
290
     0
176
     0
 90
       50
176
     0
 90
       50
176
     0
 90
       50
176
     0
290
     0
176
     0
 90
       50
176
     0
 62
   256
176
     0
 40
1.0
176
     0
 90
        2
176
     0
  1
strokes_ogs.tif
176
     0
290
     0
176
     0
 40
1.0
176
     0
 40
1.0
176
     0
  0
VISUALSTYLE
  5
37
102
{ACAD_REACTORS
330
29
102
}
330
29
100
AcDbVisualStyle
  2
Linepattern
 70
    14
177
     3
291
     1
 70
    58
 90
        2
176
     1
 90
        2
176
     1
 90
        0
176
     1
 90
        0
176
     1
 40
0.6
176
     1
 40
30.0
176
     1
 62
     7
420
 16777215
176
     1
 90
        1
176
     1
 90
        4
176
     1
 62
     7
176
     1
 62
   257
176
     1
 90
        7
176
     1
 90
        7
176
     1
 40
1.0
176
     1
 90
        8
176
     1
 62
     7
176
     1
 40
1.0
176
     1
 90
        1
176
     1
 90
        6
176
     1
 90
        2
176
     1
 62
     7
176
     1
 90
        5
176
     1
 90
        0
176
     1
 90
        0
176
     1
290
     0
176
     1
 90
        1
176
     1
 40
0.0
176
     1
 90
        0
176
     1
290
     0
176
     1
290
     1
176
     1
290
     1
176
     1
290
     0
176
     1
290
     0
176
     1
290
     0
176
     1
290
     0
176
     1
290
     0
176
     1
290
     0
176
     1
 90
       50
176
     1
 40
0.0
176
     1
 40
1.0
176
     1
 90
        0
176
     1
 62
    18
420
        0
176
     1
 90
       50
176
     1
 90
        3
176
     1
 62
     5
420
      255
176
     1
290
     0
176
     1
 90
       50
176
     1
 90
       50
176
     1
 90
       50
176
     1
290
     0
176
     1
 90
       50
176
     1
 62
   256
176
     0
 40
1.0
176
     0
 90
        2
176
     1
  1
strokes_ogs.tif
176
     1
290
     0
176
     1
 40
1.0
176
     1
 40
1.0
176
     1
  0
VISUALSTYLE
  5
40
102
{ACAD_REACTORS
330
29
102
}
330
29
100
AcDbVisualStyle
  2
OverhangOff
 70
    21
177
     3
291
     1
 70
    58
 90
        2
176
     0
 90
        2
176
     0
 90
        0
176
     0
 90
        0
176
     0
 40
0.6
176
     0
 40
30.0
176
     0
 62
     7
420
 16777215
176
     0
 90
        1
176
     0
 90
        4
176
     0
 62
     7
176
     0
 62
   257
176
     0
 90
        1
176
     0
 90
        1
176
     0
 40
1.0
176
     0
 90
        9
176
     2
 62
     7
176
     0
 40
1.0
176
     0
 90
        1
176
     0
 90
        6
176
     0
 90
        2
176
     0
 62
     7
176
     0
 90
        5
176
     0
 90
        0
176
     0
 90
        0
176
     0
290
     0
176
     0
 90
        1
176
     0
 40
0.0
176
     0
 90
        0
176
     0
290
     0
176
     0
290
     1
176
     0
290
     1
176
     0
290
     0
176
     0
290
     0
176
     0
290
     0
176
     0
290
     0
176
     0
290
     0
176
     0
290
     0
176
     0
 90
       50
176
     0
 40
0.0
176
     0
 40
1.0
176
     0
 90
        0
176
     0
 62
    18
420
        0
176
     0
 90
       50
176
     0
 90
        3
176
     0
 62
     5
420
      255
176
     0
290
     0
176
     0
 90
       50
176
     0
 90
       50
176
     0
 90
       50
176
     0
290
     0
176
     0
 90
       50
176
     0
 62
   256
176
     0
 40
1.0
176
     0
 90
        2
176
     0
  1
strokes_ogs.tif
176
     0
290
     0
176
     0
 40
1.0
176
     0
 40
1.0
176
     0
  0
VISUALSTYLE
  5
33
102
{ACAD_REACTORS
330
29
102
}
330
29
100
AcDbVisualStyle
  2
Realistic
 70
     8
177
     3
291
     0
 70
    58
 90
        2
176
     1
 90
        3
176
     1
 90
        0
176
     1
 90
        2
176
     1
 40
0.6
176
     1
 40
30.0
176
     1
 62
     7
420
 16777215
176
     1
 90
        0
176
     1
 90
        0
176
     1
 62
     7
176
     1
 62
   257
176
     1
 90
        1
176
     1
 90
        1
176
     1
 40
1.0
176
     1
 90
        8
176
     1
 62
   257
176
     1
 40
1.0
176
     1
 90
        1
176
     1
 90
        6
176
     1
 90
        2
176
     1
 62
     7
176
     1
 90
        3
176
     1
 90
        0
176
     1
 90
        0
176
     1
290
     0
176
     1
 90
       13
176
     1
 40
0.0
176
     1
 90
        0
176
     1
290
     0
176
     1
290
     1
176
     1
290
     1
176
     1
290
     0
176
     1
290
     0
176
     1
290
     0
176
     1
290
     0
176
     1
290
     0
176
     1
290
     0
176
     1
 90
       50
176
     1
 40
0.0
176
     1
 40
1.0
176
     1
 90
        0
176
     1
 62
    18
420
        0
176
     1
 90
       50
176
     1
 90
        3
176
     1
 62
     5
420
      255
176
     1
290
     0
176
     1
 90
       50
176
     1
 90
       50
176
     1
 90
       50
176
     1
290
     0
176
     1
 90
       50
176
     1
 62
   256
176
     0
 40
1.0
176
     0
 90
        2
176
     1
  1
strokes_ogs.tif
176
     1
290
     0
176
     1
 40
1.0
176
     1
 40
1.0
176
     1
  0
VISUALSTYLE
  5
3E
102
{ACAD_REACTORS
330
29
102
}
330
29
100
AcDbVisualStyle
  2
Shaded
 70
    27
177
     3
291
     0
 70
    58
 90
        2
176
     1
 90
        2
176
     1
 90
        1
176
     1
 90
        2
176
     1
 40
0.6
176
     1
 40
30.0
176
     1
 62
     7
420
 16777215
176
     1
 90
        0
176
     1
 90
        4
176
     1
 62
     7
176
     1
 62
   257
176
     1
 90
        1
176
     1
 90
        1
176
     1
 40
1.0
176
     1
 90
        8
176
     1
 62
   257
176
     1
 40
1.0
176
     1
 90
        1
176
     1
 90
        6
176
     1
 90
        2
176
     1
 62
     8
420
  7895160
176
     1
 90
        3
176
     1
 90
        0
176
     1
 90
        0
176
     1
290
     0
176
     1
 90
        5
176
     1
 40
0.0
176
     1
 90
        0
176
     1
290
     0
176
     1
290
     1
176
     1
290
     1
176
     1
290
     0
176
     1
290
     0
176
     1
290
     0
176
     1
290
     0
176
     1
290
     0
176
     1
290
     0
176
     1
 90
       50
176
     1
 40
0.0
176
     1
 40
1.0
176
     1
 90
        0
176
     1
 62
    18
420
        0
176
     1
 90
       50
176
     1
 90
        3
176
     1
 62
     5
420
      255
176
     1
290
     0
176
     1
 90
       50
176
     1
 90
       50
176
     1
 90
       50
176
     1
290
     0
176
     1
 90
       50
176
     1
 62
   256
176
     0
 40
1.0
176
     0
 90
        2
176
     1
  1
strokes_ogs.tif
176
     1
290
     0
176
     1
 40
1.0
176
     1
 40
1.0
176
     1
  0
VISUALSTYLE
  5
3D
102
{ACAD_REACTORS
330
29
102
}
330
29
100
AcDbVisualStyle
  2
Shaded with edges
 70
    26
177
     3
291
     0
 70
    58
 90
        2
176
     1
 90
        2
176
     1
 90
        1
176
     1
 90
        2
176
     1
 40
0.6
176
     1
 40
30.0
176
     1
 62
     7
420
 16777215
176
     1
 90
        1
176
     1
 90
       10
176
     1
 62
     7
176
     1
 62
   257
176
     1
 90
        2
176
     1
 90
        1
176
     1
 40
1.0
176
     1
 90
        8
176
     1
 62
   257
176
     1
 40
1.0
176
     1
 90
        1
176
     1
 90
        6
176
     1
 90
        2
176
     1
 62
     7
176
     1
 90
        3
176
     1
 90
        0
176
     1
 90
        0
176
     1
290
     0
176
     1
 90
        5
176
     1
 40
0.0
176
     1
 90
        0
176
     1
290
     0
176
     1
290
     1
176
     1
290
     1
176
     1
290
     0
176
     1
290
     0
176
     1
290
     0
176
     1
290
     0
176
     1
290
     0
176
     1
290
     0
176
     1
 90
       50
176
     1
 40
0.0
176
     1
 40
1.0
176
     1
 90
        0
176
     1
 62
    18
420
        0
176
     1
 90
       50
176
     1
 90
        3
176
     1
 62
     5
420
      255
176
     1
290
     0
176
     1
 90
       50
176
     1
 90
       50
176
     1
 90
       50
176
     1
290
     0
176
     1
 90
       50
176
     1
 62
   256
176
     0
 40
1.0
176
     0
 90
        2
176
     1
  1
strokes_ogs.tif
176
     1
290
     0
176
     1
 40
1.0
176
     1
 40
1.0
176
     1
  0
VISUALSTYLE
  5
3A
102
{ACAD_REACTORS
330
29
102
}
330
29
100
AcDbVisualStyle
  2
Shades of Gray
 70
    23
177
     3
291
     0
 70
    58
 90
        2
176
     1
 90
        2
176
     1
 90
        3
176
     1
 90
        0
176
     1
 40
0.6
176
     1
 40
30.0
176
     1
 62
     7
420
 16777215
176
     1
 90
        2
176
     1
 90
        2
176
     1
 62
     7
176
     1
 62
     7
176
     1
 90
        1
176
     1
 90
        1
176
     1
 40
40.0
176
     1
 90
        8
176
     1
 62
     7
176
     1
 40
1.0
176
     1
 90
        1
176
     1
 90
        6
176
     1
 90
        2
176
     1
 62
     7
176
     1
 90
        3
176
     1
 90
        0
176
     1
 90
        0
176
     1
290
     0
176
     1
 90
        1
176
     1
 40
0.0
176
     1
 90
        0
176
     1
290
     0
176
     1
290
     1
176
     1
290
     1
176
     1
290
     0
176
     1
290
     0
176
     1
290
     0
176
     1
290
     0
176
     1
290
     0
176
     1
290
     0
176
     1
 90
       50
176
     1
 40
0.0
176
     1
 40
1.0
176
     1
 90
        0
176
     1
 62
    18
420
        0
176
     1
 90
       50
176
     1
 90
        3
176
     1
 62
     5
420
      255
176
     1
290
     0
176
     1
 90
       50
176
     1
 90
       50
176
     1
 90
       50
176
     1
290
     0
176
     1
 90
       50
176
     1
 62
   256
176
     0
 40
1.0
176
     0
 90
        2
176
     1
  1
strokes_ogs.tif
176
     1
290
     0
176
     1
 40
1.0
176
     1
 40
1.0
176
     1
  0
VISUALSTYLE
  5
3B
102
{ACAD_REACTORS
330
29
102
}
330
29
100
AcDbVisualStyle
  2
Sketchy
 70
    24
177
     3
291
     0
 70
    58
 90
        1
176
     1
 90
        2
176
     1
 90
        2
176
     1
 90
        0
176
     1
 40
0.6
176
     1
 40
30.0
176
     1
 62
     7
420
 16777215
176
     1
 90
        2
176
     1
 90
        2
176
     1
 62
     7
176
     1
 62
     7
176
     1
 90
        1
176
     1
 90
        1
176
     1
 40
40.0
176
     1
 90
       11
176
     1
 62
     7
176
     1
 40
1.0
176
     1
 90
        1
176
     1
 90
        6
176
     1
 90
        2
176
     1
 62
     7
176
     1
 90
        6
176
     1
 90
        0
176
     1
 90
        0
176
     1
290
     0
176
     1
 90
        1
176
     1
 40
0.0
176
     1
 90
        0
176
     1
290
     0
176
     1
290
     1
176
     1
290
     1
176
     1
290
     0
176
     1
290
     0
176
     1
290
     0
176
     1
290
     0
176
     1
290
     0
176
     1
290
     0
176
     1
 90
       50
176
     1
 40
0.0
176
     1
 40
1.0
176
     1
 90
        0
176
     1
 62
    18
420
        0
176
     1
 90
       50
176
     1
 90
        3
176
     1
 62
     5
420
      255
176
     1
290
     0
176
     1
 90
       50
176
     1
 90
       50
176
     1
 90
       50
176
     1
290
     0
176
     1
 90
       50
176
     1
 62
   256
176
     0
 40
1.0
176
     0
 90
        2
176
     1
  1
strokes_ogs.tif
176
     1
290
     0
176
     1
 40
1.0
176
     1
 40
1.0
176
     1
  0
VISUALSTYLE
  5
36
102
{ACAD_REACTORS
330
29
102
}
330
29
100
AcDbVisualStyle
  2
Thicken
 70
    13
177
     3
291
     1
 70
    58
 90
        2
176
     1
 90
        2
176
     1
 90
        0
176
     1
 90
        0
176
     1
 40
0.6
176
     1
 40
30.0
176
     1
 62
     7
420
 16777215
176
     1
 90
        1
176
     1
 90
        4
176
     1
 62
     7
176
     1
 62
   257
176
     1
 90
        1
176
     1
 90
        1
176
     1
 40
1.0
176
     1
 90
       12
176
     1
 62
     7
176
     1
 40
1.0
176
     1
 90
        1
176
     1
 90
        6
176
     1
 90
        2
176
     1
 62
     7
176
     1
 90
        5
176
     1
 90
        0
176
     1
 90
        0
176
     1
290
     0
176
     1
 90
        1
176
     1
 40
0.0
176
     1
 90
        0
176
     1
290
     0
176
     1
290
     1
176
     1
290
     1
176
     1
290
     0
176
     1
290
     0
176
     1
290
     0
176
     1
290
     0
176
     1
290
     0
176
     1
290
     0
176
     1
 90
       50
176
     1
 40
0.0
176
     1
 40
1.0
176
     1
 90
        0
176
     1
 62
    18
420
        0
176
     1
 90
       50
176
     1
 90
        3
176
     1
 62
     5
420
      255
176
     1
290
     0
176
     1
 90
       50
176
     1
 90
       50
176
     1
 90
       50
176
     1
290
     0
176
     1
 90
       50
176
     1
 62
   256
176
     0
 40
1.0
176
     0
 90
        2
176
     1
  1
strokes_ogs.tif
176
     1
290
     0
176
     1
 40
1.0
176
     1
 40
1.0
176
     1
  0
VISUALSTYLE
  5
30
102
{ACAD_REACTORS
330
29
102
}
330
29
100
AcDbVisualStyle
  2
Wireframe
 70
     5
177
     3
291
     0
 70
    58
 90
        0
176
     1
 90
        2
176
     1
 90
        0
176
     1
 90
        0
176
     1
 40
0.6
176
     1
 40
30.0
176
     1
 62
     7
420
 16777215
176
     1
 90
        1
176
     1
 90
        4
176
     1
 62
     7
176
     1
 62
   257
176
     1
 90
        1
176
     1
 90
        1
176
     1
 40
1.0
176
     1
 90
        0
176
     1
 62
   257
176
     1
 40
1.0
176
     1
 90
        1
176
     1
 90
        6
176
     1
 90
        2
176
     1
 62
     7
176
     1
 90
        3
176
     1
 90
        0
176
     1
 90
        0
176
     1
290
     0
176
     1
 90
        1
176
     1
 40
0.0
176
     1
 90
        0
176
     1
290
     0
176
     1
290
     1
176
     1
290
     1
176
     1
290
     0
176
     1
290
     0
176
     1
290
     0
176
     1
290
     0
176
     1
290
     0
176
     1
290
     0
176
     1
 90
       50
176
     1
 40
0.0
176
     1
 40
1.0
176
     1
 90
        0
176
     1
 62
    18
420
        0
176
     1
 90
       50
176
     1
 90
        3
176
     1
 62
     5
420
      255
176
     1
290
     0
176
     1
 90
       50
176
     1
 90
       50
176
     1
 90
       50
176
     1
290
     0
176
     1
 90
       50
176
     1
 62
   256
176
     0
 40
1.0
176
     0
 90
        2
176
     1
  1
strokes_ogs.tif
176
     1
290
     0
176
     1
 40
1.0
176
     1
 40
1.0
176
     1
  0
VISUALSTYLE
  5
3C
102
{ACAD_REACTORS
330
29
102
}
330
29
100
AcDbVisualStyle
  2
X-Ray
 70
    25
177
     3
291
     0
 70
    58
 90
        2
176
     1
 90
        2
176
     1
 90
        1
176
     1
 90
        1
176
     1
 40
0.5
176
     1
 40
30.0
176
     1
 62
     7
420
 16777215
176
     1
 90
        1
176
     1
 90
        0
176
     1
 62
     7
176
     1
 62
   257
176
     1
 90
        1
176
     1
 90
        1
176
     1
 40
1.0
176
     1
 90
        8
176
     1
 62
     7
176
     1
 40
1.0
176
     1
 90
        1
176
     1
 90
        6
176
     1
 90
        2
176
     1
 62
     7
176
     1
 90
        3
176
     1
 90
        0
176
     1
 90
        0
176
     1
290
     0
176
     1
 90
       13
176
     1
 40
0.0
176
     1
 90
        0
176
     1
290
     0
176
     1
290
     1
176
     1
290
     1
176
     1
290
     0
176
     1
290
     0
176
     1
290
     0
176
     1
290
     0
176
     1
290
     0
176
     1
290
     0
176
     1
 90
       50
176
     1
 40
0.0
176
     1
 40
1.0
176
     1
 90
        0
176
     1
 62
    18
420
        0
176
     1
 90
       50
176
     1
 90
        3
176
     1
 62
     5
420
      255
176
     1
290
     0
176
     1
 90
       50
176
     1
 90
       50
176
     1
 90
       50
176
     1
290
     0
176
     1
 90
       50
176
     1
 62
   256
176
     0
 40
1.0
176
     0
 90
        2
176
     1
  1
strokes_ogs.tif
176
     1
290
     0
176
     1
 40
1.0
176
     1
 40
1.0
176
     1
  0
DICTIONARYVAR
  5
81
102
{ACAD_REACTORS
330
7C
102
}
330
7C
100
DictionaryVariables
280
     0
  1
1:1
  0
DICTIONARYVAR
  5
7E
102
{ACAD_REACTORS
330
7C
102
}
330
7C
100
DictionaryVariables
280
     0
  1
STANDARD
  0
DICTIONARYVAR
  5
7D
102
{ACAD_REACTORS
330
7C
102
}
330
7C
100
DictionaryVariables
280
     0
  1
STANDARD
  0
DICTIONARYVAR
  5
7F
102
{ACAD_REACTORS
330
7C
102
}
330
7C
100
DictionaryVariables
280
     0
  1
Imperial24
  0
DICTIONARYVAR
  5
80
102
{ACAD_REACTORS
330
7C
102
}
330
7C
100
DictionaryVariables
280
     0
  1
Imperial24
  0
XRECORD
  5
281
102
{ACAD_REACTORS
330
27D
102
}
330
27D
100
AcDbXrecord
280
     1
  1
BUILDING_ID
  1
Progetto per messa in tavola DXF, DWG
  1
FLOOR_ID
  1
694395
  0
XRECORD
  5
27F
102
{ACAD_REACTORS
330
27D
102
}
330
27D
100
AcDbXrecord
280
     1
  1
-2001160
  1
Apparecchi idraulici
  0
XRECORD
  5
280
102
{ACAD_REACTORS
330
27D
102
}
330
27D
100
AcDbXrecord
280
     1
  1
790271
  1
Body
  1
938184
  1
Handle
  1
939838
  1
Insulation
  0
XRECORD
  5
27E
102
{ACAD_REACTORS
330
27D
102
}
330
27D
100
AcDbXrecord
280
     1
  1
859151
  1
Automatic flow rate regulator valve_Caleffi_121 DN15 : 1/2''
  0
DICTIONARY
  5
1A
330
19
100
AcDbDictionary
280
     1
281
     1
  3
BUMPTILE
360
1C
  3
DIFFUSETILE
360
1B
  3
OPACITYTILE
360
1F
  3
REFLECTIONTILE
360
1E
  3
REFRACTIONTILE
360
20
  3
SPECULARTILE
360
1D
  0
DICTIONARY
  5
12
330
11
100
AcDbDictionary
280
     1
281
     1
  3
BUMPTILE
360
14
  3
DIFFUSETILE
360
13
  3
OPACITYTILE
360
17
  3
REFLECTIONTILE
360
16
  3
REFRACTIONTILE
360
18
  3
SPECULARTILE
360
15
  0
DICTIONARY
  5
22
330
21
100
AcDbDictionary
280
     1
281
     1
  3
BUMPTILE
360
24
  3
DIFFUSETILE
360
23
  3
OPACITYTILE
360
27
  3
REFLECTIONTILE
360
26
  3
REFRACTIONTILE
360
28
  3
SPECULARTILE
360
25
  0
DICTIONARY
  5
284
330
65
100
AcDbDictionary
280
     1
281
     1
  3
ACAD_ROUNDTRIP_2008_TABLESTYLE_CELLSTYLEMAP
360
285
  0
XRECORD
  5
1C
102
{ACAD_REACTORS
330
1A
102
}
330
1A
100
AcDbXrecord
280
     1
270
     1
271
     1
  0
XRECORD
  5
1B
102
{ACAD_REACTORS
330
1A
102
}
330
1A
100
AcDbXrecord
280
     1
270
     1
271
     1
  0
XRECORD
  5
1F
102
{ACAD_REACTORS
330
1A
102
}
330
1A
100
AcDbXrecord
280
     1
270
     1
271
     1
  0
XRECORD
  5
1E
102
{ACAD_REACTORS
330
1A
102
}
330
1A
100
AcDbXrecord
280
     1
270
     1
271
     1
  0
XRECORD
  5
20
102
{ACAD_REACTORS
330
1A
102
}
330
1A
100
AcDbXrecord
280
     1
270
     1
271
     1
  0
XRECORD
  5
1D
102
{ACAD_REACTORS
330
1A
102
}
330
1A
100
AcDbXrecord
280
     1
270
     1
271
     1
  0
XRECORD
  5
14
102
{ACAD_REACTORS
330
12
102
}
330
12
100
AcDbXrecord
280
     1
270
     1
271
     1
  0
XRECORD
  5
13
102
{ACAD_REACTORS
330
12
102
}
330
12
100
AcDbXrecord
280
     1
270
     1
271
     1
  0
XRECORD
  5
17
102
{ACAD_REACTORS
330
12
102
}
330
12
100
AcDbXrecord
280
     1
270
     1
271
     1
  0
XRECORD
  5
16
102
{ACAD_REACTORS
330
12
102
}
330
12
100
AcDbXrecord
280
     1
270
     1
271
     1
  0
XRECORD
  5
18
102
{ACAD_REACTORS
330
12
102
}
330
12
100
AcDbXrecord
280
     1
270
     1
271
     1
  0
XRECORD
  5
15
102
{ACAD_REACTORS
330
12
102
}
330
12
100
AcDbXrecord
280
     1
270
     1
271
     1
  0
XRECORD
  5
24
102
{ACAD_REACTORS
330
22
102
}
330
22
100
AcDbXrecord
280
     1
270
     1
271
     1
  0
XRECORD
  5
23
102
{ACAD_REACTORS
330
22
102
}
330
22
100
AcDbXrecord
280
     1
270
     1
271
     1
  0
XRECORD
  5
27
102
{ACAD_REACTORS
330
22
102
}
330
22
100
AcDbXrecord
280
     1
270
     1
271
     1
  0
XRECORD
  5
26
102
{ACAD_REACTORS
330
22
102
}
330
22
100
AcDbXrecord
280
     1
270
     1
271
     1
  0
XRECORD
  5
28
102
{ACAD_REACTORS
330
22
102
}
330
22
100
AcDbXrecord
280
     1
270
     1
271
     1
  0
XRECORD
  5
25
102
{ACAD_REACTORS
330
22
102
}
330
22
100
AcDbXrecord
280
     1
270
     1
271
     1
  0
CELLSTYLEMAP
  5
285
102
{ACAD_REACTORS
330
284
102
}
330
284
100
AcDbCellStyleMap
 90
        3
300
CELLSTYLE
  1
TABLEFORMAT_BEGIN
 90
        5
170
     1
 91
        0
 92
    32768
 62
   257
 93
        1
300
CONTENTFORMAT
  1
CONTENTFORMAT_BEGIN
 90
        0
 91
        0
 92
      512
 93
        0
300

 40
0.0
140
1.0
 94
        5
 62
     0
340
55
144
0.25
309
CONTENTFORMAT_END
171
     0
 94
        0
309
TABLEFORMAT_END
  1
CELLSTYLE_BEGIN
 90
        1
 91
        1
300
_TITLE
309
CELLSTYLE_END
300
CELLSTYLE
  1
TABLEFORMAT_BEGIN
 90
        5
170
     1
 91
        0
 92
        0
 62
   257
 93
        1
300
CONTENTFORMAT
  1
CONTENTFORMAT_BEGIN
 90
        0
 91
        0
 92
      512
 93
        0
300

 40
0.0
140
1.0
 94
        5
 62
     0
340
55
144
0.18
309
CONTENTFORMAT_END
171
     0
 94
        0
309
TABLEFORMAT_END
  1
CELLSTYLE_BEGIN
 90
        2
 91
        1
300
_HEADER
309
CELLSTYLE_END
300
CELLSTYLE
  1
TABLEFORMAT_BEGIN
 90
        5
170
     1
 91
        0
 92
        0
 62
   257
 93
        1
300
CONTENTFORMAT
  1
CONTENTFORMAT_BEGIN
 90
        0
 91
        0
 92
      512
 93
        0
300

 40
0.0
140
1.0
 94
        2
 62
     0
340
55
144
0.18
309
CONTENTFORMAT_END
171
     0
 94
        0
309
TABLEFORMAT_END
  1
CELLSTYLE_BEGIN
 90
        3
 91
        2
300
_DATA
309
CELLSTYLE_END
  0
ENDSEC
  0
EOF
