  0
SECTION
  2
HEADER
  9
$ACADVER
  1
AC1027
  9
$ACADMAINTVER
 70
    20
  9
$DWGCODEPAGE
  3
ANSI_1252
  9
$REQUIREDVERSIONS
160
                 0
  9
$INSBASE
 10
0.0
 20
0.0
 30
0.0
  9
$EXTMIN
 10
753.1664074331877
 20
1772.247075834252
 30
-0.00000001
  9
$EXTMAX
 10
1104.863156828896
 20
2077.498183850009
 30
0.00000001
  9
$LIMMIN
 10
0.0
 20
0.0
  9
$LIMMAX
 10
12.0
 20
9.0
  9
$ORTHOMODE
 70
     0
  9
$REGENMODE
 70
     1
  9
$FILLMODE
 70
     1
  9
$QTEXTMODE
 70
     0
  9
$MIRRTEXT
 70
     0
  9
$LTSCALE
 40
1.0
  9
$ATTMODE
 70
     1
  9
$TEXTSIZE
 40
0.2
  9
$TRACEWID
 40
0.05
  9
$TEXTSTYLE
  7
Standard
  9
$CLAYER
  8
0
  9
$CELTYPE
  6
ByLayer
  9
$CECOLOR
 62
   256
  9
$CELTSCALE
 40
1.0
  9
$DISPSILH
 70
     0
  9
$DIMSCALE
 40
1.0
  9
$DIMASZ
 40
0.18
  9
$DIMEXO
 40
0.0625
  9
$DIMDLI
 40
0.38
  9
$DIMRND
 40
0.0
  9
$DIMDLE
 40
0.0
  9
$DIMEXE
 40
0.18
  9
$DIMTP
 40
0.0
  9
$DIMTM
 40
0.0
  9
$DIMTXT
 40
0.18
  9
$DIMCEN
 40
0.09
  9
$DIMTSZ
 40
0.0
  9
$DIMTOL
 70
     0
  9
$DIMLIM
 70
     0
  9
$DIMTIH
 70
     1
  9
$DIMTOH
 70
     1
  9
$DIMSE1
 70
     0
  9
$DIMSE2
 70
     0
  9
$DIMTAD
 70
     0
  9
$DIMZIN
 70
     0
  9
$DIMBLK
  1

  9
$DIMASO
 70
     1
  9
$DIMSHO
 70
     1
  9
$DIMPOST
  1

  9
$DIMAPOST
  1

  9
$DIMALT
 70
     0
  9
$DIMALTD
 70
     2
  9
$DIMALTF
 40
25.4
  9
$DIMLFAC
 40
1.0
  9
$DIMTOFL
 70
     0
  9
$DIMTVP
 40
0.0
  9
$DIMTIX
 70
     0
  9
$DIMSOXD
 70
     0
  9
$DIMSAH
 70
     0
  9
$DIMBLK1
  1

  9
$DIMBLK2
  1

  9
$DIMSTYLE
  2
Standard
  9
$DIMCLRD
 70
     0
  9
$DIMCLRE
 70
     0
  9
$DIMCLRT
 70
     0
  9
$DIMTFAC
 40
1.0
  9
$DIMGAP
 40
0.09
  9
$DIMJUST
 70
     0
  9
$DIMSD1
 70
     0
  9
$DIMSD2
 70
     0
  9
$DIMTOLJ
 70
     1
  9
$DIMTZIN
 70
     0
  9
$DIMALTZ
 70
     0
  9
$DIMALTTZ
 70
     0
  9
$DIMUPT
 70
     0
  9
$DIMDEC
 70
     4
  9
$DIMTDEC
 70
     4
  9
$DIMALTU
 70
     2
  9
$DIMALTTD
 70
     2
  9
$DIMTXSTY
  7
Standard
  9
$DIMAUNIT
 70
     0
  9
$DIMADEC
 70
     0
  9
$DIMALTRND
 40
0.0
  9
$DIMAZIN
 70
     0
  9
$DIMDSEP
 70
    46
  9
$DIMATFIT
 70
     3
  9
$DIMFRAC
 70
     0
  9
$DIMLDRBLK
  1

  9
$DIMLUNIT
 70
     2
  9
$DIMLWD
 70
    -2
  9
$DIMLWE
 70
    -2
  9
$DIMTMOVE
 70
     0
  9
$DIMFXL
 40
1.0
  9
$DIMFXLON
 70
     0
  9
$DIMJOGANG
 40
0.7853981633974483
  9
$DIMTFILL
 70
     0
  9
$DIMTFILLCLR
 70
     0
  9
$DIMARCSYM
 70
     0
  9
$DIMLTYPE
  6

  9
$DIMLTEX1
  6

  9
$DIMLTEX2
  6

  9
$DIMTXTDIRECTION
 70
     0
  9
$LUNITS
 70
     2
  9
$LUPREC
 70
     4
  9
$SKETCHINC
 40
0.1
  9
$FILLETRAD
 40
0.0
  9
$AUNITS
 70
     0
  9
$AUPREC
 70
     0
  9
$MENU
  1
.
  9
$ELEVATION
 40
0.0
  9
$PELEVATION
 40
0.0
  9
$THICKNESS
 40
0.0
  9
$LIMCHECK
 70
     0
  9
$CHAMFERA
 40
0.0
  9
$CHAMFERB
 40
0.0
  9
$CHAMFERC
 40
0.0
  9
$CHAMFERD
 40
0.0
  9
$SKPOLY
 70
     0
  9
$TDCREATE
 40
2457569.584456493
  9
$TDUCREATE
 40
2457569.501123160
  9
$TDUPDATE
 40
2457569.584456493
  9
$TDUUPDATE
 40
2457569.501123160
  9
$TDINDWG
 40
0.0000118981
  9
$TDUSRTIMER
 40
0.0000118981
  9
$USRTIMER
 70
     1
  9
$ANGBASE
 50
0.0
  9
$ANGDIR
 70
     0
  9
$PDMODE
 70
     0
  9
$PDSIZE
 40
0.0
  9
$PLINEWID
 40
0.0
  9
$SPLFRAME
 70
     0
  9
$SPLINETYPE
 70
     6
  9
$SPLINESEGS
 70
     8
  9
$HANDSEED
  5
27F
  9
$SURFTAB1
 70
     6
  9
$SURFTAB2
 70
     6
  9
$SURFTYPE
 70
     6
  9
$SURFU
 70
     6
  9
$SURFV
 70
     6
  9
$UCSBASE
  2

  9
$UCSNAME
  2

  9
$UCSORG
 10
0.0
 20
0.0
 30
0.0
  9
$UCSXDIR
 10
1.0
 20
0.0
 30
0.0
  9
$UCSYDIR
 10
0.0
 20
1.0
 30
0.0
  9
$UCSORTHOREF
  2

  9
$UCSORTHOVIEW
 70
     0
  9
$UCSORGTOP
 10
0.0
 20
0.0
 30
0.0
  9
$UCSORGBOTTOM
 10
0.0
 20
0.0
 30
0.0
  9
$UCSORGLEFT
 10
0.0
 20
0.0
 30
0.0
  9
$UCSORGRIGHT
 10
0.0
 20
0.0
 30
0.0
  9
$UCSORGFRONT
 10
0.0
 20
0.0
 30
0.0
  9
$UCSORGBACK
 10
0.0
 20
0.0
 30
0.0
  9
$PUCSBASE
  2

  9
$PUCSNAME
  2

  9
$PUCSORG
 10
0.0
 20
0.0
 30
0.0
  9
$PUCSXDIR
 10
1.0
 20
0.0
 30
0.0
  9
$PUCSYDIR
 10
0.0
 20
1.0
 30
0.0
  9
$PUCSORTHOREF
  2

  9
$PUCSORTHOVIEW
 70
     0
  9
$PUCSORGTOP
 10
0.0
 20
0.0
 30
0.0
  9
$PUCSORGBOTTOM
 10
0.0
 20
0.0
 30
0.0
  9
$PUCSORGLEFT
 10
0.0
 20
0.0
 30
0.0
  9
$PUCSORGRIGHT
 10
0.0
 20
0.0
 30
0.0
  9
$PUCSORGFRONT
 10
0.0
 20
0.0
 30
0.0
  9
$PUCSORGBACK
 10
0.0
 20
0.0
 30
0.0
  9
$USERI1
 70
     0
  9
$USERI2
 70
     0
  9
$USERI3
 70
     0
  9
$USERI4
 70
     0
  9
$USERI5
 70
     0
  9
$USERR1
 40
0.0
  9
$USERR2
 40
0.0
  9
$USERR3
 40
0.0
  9
$USERR4
 40
0.0
  9
$USERR5
 40
0.0
  9
$WORLDVIEW
 70
     1
  9
$SHADEDGE
 70
     3
  9
$SHADEDIF
 70
    70
  9
$TILEMODE
 70
     1
  9
$MAXACTVP
 70
    64
  9
$PINSBASE
 10
0.0
 20
0.0
 30
0.0
  9
$PLIMCHECK
 70
     0
  9
$PEXTMIN
 10
1.000000000000000E+20
 20
1.000000000000000E+20
 30
1.000000000000000E+20
  9
$PEXTMAX
 10
-1.000000000000000E+20
 20
-1.000000000000000E+20
 30
-1.000000000000000E+20
  9
$PLIMMIN
 10
0.0
 20
0.0
  9
$PLIMMAX
 10
12.0
 20
9.0
  9
$UNITMODE
 70
     0
  9
$VISRETAIN
 70
     1
  9
$PLINEGEN
 70
     0
  9
$PSLTSCALE
 70
     1
  9
$TREEDEPTH
 70
  3020
  9
$CMLSTYLE
  2
Standard
  9
$CMLJUST
 70
     0
  9
$CMLSCALE
 40
1.0
  9
$PROXYGRAPHICS
 70
     1
  9
$MEASUREMENT
 70
     1
  9
$CELWEIGHT
370
    -1
  9
$ENDCAPS
280
     0
  9
$JOINSTYLE
280
     0
  9
$LWDISPLAY
290
     0
  9
$INSUNITS
 70
     4
  9
$HYPERLINKBASE
  1

  9
$STYLESHEET
  1

  9
$XEDIT
290
     1
  9
$CEPSNTYPE
380
     0
  9
$PSTYLEMODE
290
     1
  9
$FINGERPRINTGUID
  2
{C1D38041-A920-438B-B95A-049918431EAA}
  9
$VERSIONGUID
  2
{684A3AAD-0B3B-44EB-BA4C-1DE59E3F289E}
  9
$EXTNAMES
290
     1
  9
$PSVPSCALE
 40
0.0
  9
$OLESTARTUP
290
     0
  9
$SORTENTS
280
   127
  9
$INDEXCTL
280
     0
  9
$HIDETEXT
280
     1
  9
$XCLIPFRAME
280
     2
  9
$HALOGAP
280
     0
  9
$OBSCOLOR
 70
   257
  9
$OBSLTYPE
280
     0
  9
$INTERSECTIONDISPLAY
280
     0
  9
$INTERSECTIONCOLOR
 70
   257
  9
$DIMASSOC
280
     2
  9
$PROJECTNAME
  1

  9
$CAMERADISPLAY
290
     0
  9
$LENSLENGTH
 40
50.0
  9
$CAMERAHEIGHT
 40
0.0
  9
$STEPSPERSEC
 40
2.0
  9
$STEPSIZE
 40
6.0
  9
$3DDWFPREC
 40
2.0
  9
$PSOLWIDTH
 40
0.25
  9
$PSOLHEIGHT
 40
4.0
  9
$LOFTANG1
 40
1.570796326794896
  9
$LOFTANG2
 40
1.570796326794896
  9
$LOFTMAG1
 40
0.0
  9
$LOFTMAG2
 40
0.0
  9
$LOFTPARAM
 70
     7
  9
$LOFTNORMALS
280
     1
  9
$LATITUDE
 40
37.795
  9
$LONGITUDE
 40
-122.394
  9
$NORTHDIRECTION
 40
0.0
  9
$TIMEZONE
 70
 -8000
  9
$LIGHTGLYPHDISPLAY
280
     1
  9
$TILEMODELIGHTSYNCH
280
     1
  9
$CMATERIAL
347
11
  9
$SOLIDHIST
280
     0
  9
$SHOWHIST
280
     1
  9
$DWFFRAME
280
     2
  9
$DGNFRAME
280
     0
  9
$REALWORLDSCALE
290
     1
  9
$INTERFERECOLOR
 62
     1
  9
$INTERFEREOBJVS
345
33
  9
$INTERFEREVPVS
346
30
  9
$CSHADOW
280
     0
  9
$SHADOWPLANELOCATION
 40
0.0
  0
ENDSEC
  0
SECTION
  2
CLASSES
  0
CLASS
  1
ACDBDICTIONARYWDFLT
  2
AcDbDictionaryWithDefault
  3
ObjectDBX Classes
 90
        0
 91
        1
280
     0
281
     0
  0
CLASS
  1
MATERIAL
  2
AcDbMaterial
  3
ObjectDBX Classes
 90
     1153
 91
        3
280
     0
281
     0
  0
CLASS
  1
VISUALSTYLE
  2
AcDbVisualStyle
  3
ObjectDBX Classes
 90
     4095
 91
       24
280
     0
281
     0
  0
CLASS
  1
SCALE
  2
AcDbScale
  3
ObjectDBX Classes
 90
     1153
 91
       17
280
     0
281
     0
  0
CLASS
  1
TABLESTYLE
  2
AcDbTableStyle
  3
ObjectDBX Classes
 90
     4095
 91
        1
280
     0
281
     0
  0
CLASS
  1
MLEADERSTYLE
  2
AcDbMLeaderStyle
  3
ACDB_MLEADERSTYLE_CLASS
 90
     4095
 91
        1
280
     0
281
     0
  0
CLASS
  1
ACDBSECTIONVIEWSTYLE
  2
AcDbSectionViewStyle
  3
ObjectDBX Classes
 90
     1025
 91
        1
280
     0
281
     0
  0
CLASS
  1
ACDBDETAILVIEWSTYLE
  2
AcDbDetailViewStyle
  3
ObjectDBX Classes
 90
     1025
 91
        1
280
     0
281
     0
  0
CLASS
  1
RASTERVARIABLES
  2
AcDbRasterVariables
  3
ISM
 90
        0
 91
        1
280
     0
281
     0
  0
CLASS
  1
DICTIONARYVAR
  2
AcDbDictionaryVar
  3
ObjectDBX Classes
 90
        0
 91
        5
280
     0
281
     0
  0
CLASS
  1
CELLSTYLEMAP
  2
AcDbCellStyleMap
  3
ObjectDBX Classes
 90
     1152
 91
        2
280
     0
281
     0
  0
CLASS
  1
SORTENTSTABLE
  2
AcDbSortentsTable
  3
ObjectDBX Classes
 90
        0
 91
        1
280
     0
281
     0
  0
ENDSEC
  0
SECTION
  2
TABLES
  0
TABLE
  2
VPORT
  5
8
330
0
100
AcDbSymbolTable
 70
     1
  0
VPORT
  5
57
330
8
100
AcDbSymbolTableRecord
100
AcDbViewportTableRecord
  2
*Active
 70
     0
 10
0.0
 20
0.0
 11
1.0
 21
1.0
 12
929.0147821310421
 22
1924.872629842131
 13
0.0
 23
0.0
 14
1.0
 24
1.0
 15
0.0
 25
0.0
 16
0.0
 26
0.0
 36
1.0
 17
0.0
 27
0.0
 37
0.0
 40
305.2511080157558
 41
1.152155521013066
 42
50.0
 43
0.0
 44
0.0
 50
0.0
 51
0.0
 71
     0
 72
  1000
 73
     1
 74
     1
 75
     0
 76
     0
 77
     0
 78
     0
281
     0
 65
     1
110
0.0
120
0.0
130
0.0
111
1.0
121
0.0
131
0.0
112
0.0
122
1.0
132
0.0
 79
     0
146
0.0
 60
     3
 61
     5
292
     1
282
     1
141
0.0
142
0.0
 63
   250
421
  3355443
  0
ENDTAB
  0
TABLE
  2
LTYPE
  5
5
330
0
100
AcDbSymbolTable
 70
     3
  0
LTYPE
  5
5B
330
5
100
AcDbSymbolTableRecord
100
AcDbLinetypeTableRecord
  2
ByBlock
 70
     0
  3

 72
    65
 73
     0
 40
0.0
  0
LTYPE
  5
5C
330
5
100
AcDbSymbolTableRecord
100
AcDbLinetypeTableRecord
  2
ByLayer
 70
     0
  3

 72
    65
 73
     0
 40
0.0
  0
LTYPE
  5
5D
330
5
100
AcDbSymbolTableRecord
100
AcDbLinetypeTableRecord
  2
Continuous
 70
     0
  3
Solid line
 72
    65
 73
     0
 40
0.0
  0
LTYPE
  5
69
330
5
100
AcDbSymbolTableRecord
100
AcDbLinetypeTableRecord
  2
PHANTOM2
 70
     0
  3
___ _ _ ___ _ _ ___ _ _ ___ _ _
 72
    65
 73
     6
 40
1.25
 49
0.625
 74
     0
 49
-0.125
 74
     0
 49
0.125
 74
     0
 49
-0.125
 74
     0
 49
0.125
 74
     0
 49
-0.125
 74
     0
  0
LTYPE
  5
86
330
5
100
AcDbSymbolTableRecord
100
AcDbLinetypeTableRecord
  2
Nascosto 1_5 mm
 70
     0
  3

 72
    65
 73
     2
 40
2.2
 49
1.5
 74
     0
 49
-0.7000000000000001
 74
     0
  0
ENDTAB
  0
TABLE
  2
LAYER
  5
2
330
0
100
AcDbSymbolTable
 70
     4
  0
LAYER
  5
54
330
2
100
AcDbSymbolTableRecord
100
AcDbLayerTableRecord
  2
0
 70
     0
 62
     7
  6
Continuous
370
    -3
390
F
347
21
348
0
  0
LAYER
  5
85
330
2
100
AcDbSymbolTableRecord
100
AcDbLayerTableRecord
  2
P-SANR-FIXT
 70
     0
 62
     6
  6
Continuous
370
    18
390
F
347
21
348
0
  0
LAYER
  5
88
330
2
100
AcDbSymbolTableRecord
100
AcDbLayerTableRecord
  2
M-PIPE
 70
     0
 62
     3
  6
Continuous
370
    18
390
F
347
21
348
0
  0
ENDTAB
  0
TABLE
  2
STYLE
  5
3
330
0
100
AcDbSymbolTable
 70
     2
  0
STYLE
  5
55
330
3
100
AcDbSymbolTableRecord
100
AcDbTextStyleTableRecord
  2
Standard
 70
     0
 40
0.0
 41
1.0
 50
0.0
 71
     0
 42
0.2
  3
txt
  4

  0
STYLE
  5
5A
330
3
100
AcDbSymbolTableRecord
100
AcDbTextStyleTableRecord
  2
Annotative
 70
     0
 40
0.0
 41
1.0
 50
0.0
 71
     0
 42
0.2
  3
txt
  4

1001
AcadAnnotative
1000
AnnotativeData
1002
{
1070
     1
1070
     1
1002
}
  0
ENDTAB
  0
TABLE
  2
VIEW
  5
6
330
0
100
AcDbSymbolTable
 70
     0
  0
ENDTAB
  0
TABLE
  2
UCS
  5
7
330
0
100
AcDbSymbolTable
 70
     0
  0
ENDTAB
  0
TABLE
  2
APPID
  5
9
330
0
100
AcDbSymbolTable
 70
     3
  0
APPID
  5
56
330
9
100
AcDbSymbolTableRecord
100
AcDbRegAppTableRecord
  2
ACAD
 70
     0
  0
APPID
  5
5E
330
9
100
AcDbSymbolTableRecord
100
AcDbRegAppTableRecord
  2
AcadAnnotative
 70
     0
  0
APPID
  5
79
330
9
100
AcDbSymbolTableRecord
100
AcDbRegAppTableRecord
  2
REVIT
 70
     0
  0
ENDTAB
  0
TABLE
  2
DIMSTYLE
  5
A
330
0
100
AcDbSymbolTable
 70
     2
100
AcDbDimStyleTable
 71
     0
  0
DIMSTYLE
105
58
330
A
100
AcDbSymbolTableRecord
100
AcDbDimStyleTableRecord
  2
Standard
 70
     0
340
55
  0
DIMSTYLE
105
59
330
A
100
AcDbSymbolTableRecord
100
AcDbDimStyleTableRecord
  2
Annotative
 70
     0
340
55
1001
AcadAnnotative
1000
AnnotativeData
1002
{
1070
     1
1070
     1
1002
}
  0
ENDTAB
  0
TABLE
  2
BLOCK_RECORD
  5
1
330
0
100
AcDbSymbolTable
 70
     4
  0
BLOCK_RECORD
  5
71
102
{ACAD_XDICTIONARY
360
27A
102
}
330
1
100
AcDbSymbolTableRecord
100
AcDbBlockTableRecord
  2
*Model_Space
340
74
 70
     0
280
     1
281
     0
  0
BLOCK_RECORD
  5
6D
330
1
100
AcDbSymbolTableRecord
100
AcDbBlockTableRecord
  2
*Paper_Space
340
70
 70
     0
280
     1
281
     0
  0
BLOCK_RECORD
  5
75
330
1
100
AcDbSymbolTableRecord
100
AcDbBlockTableRecord
  2
*Paper_Space0
340
78
 70
     0
280
     1
281
     0
  0
BLOCK_RECORD
  5
87
330
1
100
AcDbSymbolTableRecord
100
AcDbBlockTableRecord
  2
Automatic flow rate regulator valve_Caleffi_121 DN15 - 1_2__-859151-Est - Idraulica
340
0
102
{BLKREFS
331
1A8
102
}
 70
     0
280
     1
281
     0
  0
BLOCK_RECORD
  5
1A9
330
1
100
AcDbSymbolTableRecord
100
AcDbBlockTableRecord
  2
Automatic flow rate regulator valve_Caleffi_121 DN15 - 1_2__-V1-Est - Idraulica
340
0
102
{BLKREFS
331
1E6
102
}
 70
     0
280
     1
281
     0
  0
BLOCK_RECORD
  5
1E7
330
1
100
AcDbSymbolTableRecord
100
AcDbBlockTableRecord
  2
Automatic flow rate regulator valve_Caleffi_121 DN15 - 1_2__-V2-Est - Idraulica
340
0
102
{BLKREFS
331
273
102
}
 70
     0
280
     1
281
     0
  0
ENDTAB
  0
ENDSEC
  0
SECTION
  2
BLOCKS
  0
BLOCK
  5
72
330
71
100
AcDbEntity
  8
0
100
AcDbBlockBegin
  2
*Model_Space
 70
     0
 10
0.0
 20
0.0
 30
0.0
  3
*Model_Space
  1

  0
ENDBLK
  5
73
330
71
100
AcDbEntity
  8
0
100
AcDbBlockEnd
  0
BLOCK
  5
6E
330
6D
100
AcDbEntity
 67
     1
  8
0
100
AcDbBlockBegin
  2
*Paper_Space
 70
     0
 10
0.0
 20
0.0
 30
0.0
  3
*Paper_Space
  1

  0
ENDBLK
  5
6F
330
6D
100
AcDbEntity
 67
     1
  8
0
100
AcDbBlockEnd
  0
BLOCK
  5
76
330
75
100
AcDbEntity
 67
     1
  8
0
100
AcDbBlockBegin
  2
*Paper_Space0
 70
     0
 10
0.0
 20
0.0
 30
0.0
  3
*Paper_Space0
  1

  0
ENDBLK
  5
77
330
75
100
AcDbEntity
 67
     1
  8
0
100
AcDbBlockEnd
  0
BLOCK
  5
1A6
330
87
100
AcDbEntity
  8
0
100
AcDbBlockBegin
  2
Automatic flow rate regulator valve_Caleffi_121 DN15 - 1_2__-859151-Est - Idraulica
 70
     0
 10
0.0
 20
0.0
 30
0.0
  3
Automatic flow rate regulator valve_Caleffi_121 DN15 - 1_2__-859151-Est - Idraulica
  1

  0
LWPOLYLINE
  5
89
330
87
100
AcDbEntity
  8
M-PIPE
100
AcDbPolyline
 90
       41
 70
   128
 43
0.0
 10
761.09879193398
 20
1929.937499999998
 10
760.7815811596808
 20
1929.943845061515
 10
760.4648778549525
 20
1929.96287009532
 10
760.1491886775229
 20
1929.994544665418
 10
759.8350186627325
 20
1930.038818099255
 10
759.5228704155855
 20
1930.095619568778
 10
759.2132433066892
 20
1930.164858203757
 10
758.9066326733674
 20
1930.246423237143
 10
758.6035290272272
 20
1930.340184182282
 10
758.3044172694434
 20
1930.445991041666
 10
758.0097759150212
 20
1930.563674546888
 10
757.7200763272746
 20
1930.693046429446
 10
757.4357819637444
 20
1930.833899721924
 10
757.1573476347663
 20
1930.986009089103
 10
756.8852187758701
 20
1931.149131188442
 10
756.6198307351793
 20
1931.323005059382
 10
756.361608076946
 20
1931.507352540818
 10
756.1109639023384
 20
1931.701878716107
 10
755.8682991885682
 20
1931.906272384864
 10
755.6340021474117
 20
1932.120206560821
 10
755.4084476041541
 20
1932.343338994934
 10
755.1919963979489
 20
1932.575312722906
 10
754.9849948045521
 20
1932.815756636258
 10
754.7877739823554
 20
1933.064286076022
 10
754.6006494426023
 20
1933.320503448109
 10
754.4239205446391
 20
1933.583998859382
 10
754.2578700170023
 20
1933.854350773392
 10
754.1027635051137
 20
1934.131126684747
 10
753.9588491463049
 20
1934.413883811033
 10
753.8263571728498
 20
1934.702169801167
 10
753.7054995436425
 20
1934.99552345906
 10
753.5964696051081
 20
1935.29347548144
 10
753.49944178189
 20
1935.59554920863
 10
753.4145712978069
 20
1935.901261387106
 10
753.3419939275286
 20
1936.210122942598
 10
753.2818257793653
 20
1936.521639762503
 10
753.2341631095189
 20
1936.835313486363
 10
753.1990821680937
 20
1937.150642303133
 10
753.1766390771124
 20
1937.467121753974
 10
753.166869740733
 20
1937.784245539275
 10
753.166407443189
 20
1937.869884490789
1001
REVIT
1002
{
1070
     3
1000
939838
1002
}
  0
LWPOLYLINE
  5
8A
330
87
100
AcDbEntity
  8
M-PIPE
100
AcDbPolyline
 90
       41
 70
   128
 43
0.0
 10
753.166407443189
 20
2004.005115509207
 10
753.1727525047057
 20
2004.322326283507
 10
753.1917775385111
 20
2004.639029588235
 10
753.2234521086094
 20
2004.954718765664
 10
753.2677255424455
 20
2005.268888780455
 10
753.3245270119695
 20
2005.581037027602
 10
753.3937656469474
 20
2005.890664136499
 10
753.4753306803333
 20
2006.19727476982
 10
753.5690916254733
 20
2006.50037841596
 10
753.6748984848567
 20
2006.799490173744
 10
753.792581990079
 20
2007.094131528166
 10
753.9219538726365
 20
2007.383831115912
 10
754.0628071651152
 20
2007.668125479443
 10
754.214916532294
 20
2007.946559808421
 10
754.3780386316337
 20
2008.218688667317
 10
754.551912502573
 20
2008.484076708008
 10
754.7362599840095
 20
2008.742299366241
 10
754.9307861592978
 20
2008.992943540849
 10
755.135179828055
 20
2009.235608254619
 10
755.349114004012
 20
2009.469905295775
 10
755.5722464381245
 20
2009.695459839033
 10
755.8042201660968
 20
2009.911911045239
 10
756.0446640794496
 20
2010.118912638635
 10
756.2931935192129
 20
2010.316133460832
 10
756.5494108913002
 20
2010.503258000585
 10
756.8129063025729
 20
2010.679986898548
 10
757.0832582165824
 20
2010.846037426185
 10
757.3600341279383
 20
2011.001143938074
 10
757.6427912542247
 20
2011.145058296882
 10
757.9310772443579
 20
2011.277550270337
 10
758.2244309022516
 20
2011.398407899545
 10
758.5223829246313
 20
2011.507437838079
 10
758.8244566518215
 20
2011.604465661297
 10
759.1301688302976
 20
2011.68933614538
 10
759.4390303857891
 20
2011.761913515659
 10
759.750547205694
 20
2011.822081663822
 10
760.0642209295541
 20
2011.869744333668
 10
760.3795497463246
 20
2011.904825275093
 10
760.696029197165
 20
2011.927268366075
 10
761.0131529824662
 20
2011.937037702454
 10
761.09879193398
 20
2011.937499999998
1001
REVIT
1002
{
1070
     3
1000
939838
1002
}
  0
LWPOLYLINE
  5
8B
330
87
100
AcDbEntity
  8
M-PIPE
100
AcDbPolyline
 90
       41
 70
   128
 43
0.0
 10
878.1664074431892
 20
1937.869884490789
 10
878.1600623816725
 20
1937.55267371649
 10
878.1410373478671
 20
1937.235970411762
 10
878.1093627777689
 20
1936.920281234332
 10
878.0650893439327
 20
1936.606111219542
 10
878.0082878744089
 20
1936.293962972395
 10
877.9390492394307
 20
1935.984335863498
 10
877.857484206045
 20
1935.677725230176
 10
877.763723260905
 20
1935.374621584036
 10
877.6579164015217
 20
1935.075509826252
 10
877.5402328962995
 20
1934.78086847183
 10
877.4108610137416
 20
1934.491168884084
 10
877.2700077212631
 20
1934.206874520554
 10
877.1178983540842
 20
1933.928440191575
 10
876.9547762547444
 20
1933.656311332679
 10
876.7809023838053
 20
1933.390923291988
 10
876.5965549023688
 20
1933.132700633755
 10
876.4020287270803
 20
1932.882056459147
 10
876.1976350583232
 20
1932.639391745377
 10
875.9837008823662
 20
1932.405094704221
 10
875.7605684482538
 20
1932.179540160963
 10
875.5285947202814
 20
1931.963088954758
 10
875.288150806929
 20
1931.756087361361
 10
875.0396213671654
 20
1931.558866539164
 10
874.7834039950781
 20
1931.371741999411
 10
874.5199085838052
 20
1931.195013101448
 10
874.2495566697957
 20
1931.028962573811
 10
873.9727807584399
 20
1930.873856061923
 10
873.6900236321536
 20
1930.729941703114
 10
873.4017376420204
 20
1930.597449729659
 10
873.108383984127
 20
1930.476592100452
 10
872.810431961747
 20
1930.367562161917
 10
872.5083582345567
 20
1930.270534338699
 10
872.2026460560808
 20
1930.185663854616
 10
871.8937845005893
 20
1930.113086484337
 10
871.5822676806844
 20
1930.052918336174
 10
871.2685939568242
 20
1930.005255666328
 10
870.9532651400538
 20
1929.970174724903
 10
870.6367856892132
 20
1929.947731633921
 10
870.319661903912
 20
1929.937962297542
 10
870.2340229523983
 20
1929.937499999998
1001
REVIT
1002
{
1070
     3
1000
939838
1002
}
  0
LWPOLYLINE
  5
8C
330
87
100
AcDbEntity
  8
M-PIPE
100
AcDbPolyline
 90
       41
 70
   128
 43
0.0
 10
870.2340229523983
 20
2011.937499999998
 10
870.5512337266977
 20
2011.931154938482
 10
870.8679370314259
 20
2011.912129904676
 10
871.1836262088553
 20
2011.880455334578
 10
871.497796223646
 20
2011.836181900742
 10
871.8099444707929
 20
2011.779380431218
 10
872.1195715796893
 20
2011.71014179624
 10
872.4261822130108
 20
2011.628576762854
 10
872.7292858591512
 20
2011.534815817714
 10
873.0283976169349
 20
2011.429008958331
 10
873.3230389713568
 20
2011.311325453108
 10
873.6127385591037
 20
2011.181953570551
 10
873.8970329226338
 20
2011.041100278072
 10
874.1754672516121
 20
2010.888990910893
 10
874.4475961105083
 20
2010.725868811554
 10
874.7129841511988
 20
2010.551994940614
 10
874.9712068094325
 20
2010.367647459178
 10
875.22185098404
 20
2010.173121283889
 10
875.4645156978101
 20
2009.968727615132
 10
875.6988127389666
 20
2009.754793439175
 10
875.924367282224
 20
2009.531661005063
 10
876.1408184884293
 20
2009.29968727709
 10
876.3478200818262
 20
2009.059243363738
 10
876.545040904023
 20
2008.810713923975
 10
876.7321654437759
 20
2008.554496551887
 10
876.9088943417392
 20
2008.291001140614
 10
877.0749448693759
 20
2008.020649226605
 10
877.2300513812643
 20
2007.743873315249
 10
877.3739657400733
 20
2007.461116188963
 10
877.5064577135283
 20
2007.172830198829
 10
877.6273153427357
 20
2006.879476540936
 10
877.7363452812702
 20
2006.581524518556
 10
877.8333731044883
 20
2006.279450791366
 10
877.9182435885713
 20
2005.973738612889
 10
877.9908209588496
 20
2005.664877057398
 10
878.050989107013
 20
2005.353360237493
 10
878.0986517768592
 20
2005.039686513633
 10
878.1337327182844
 20
2004.724357696863
 10
878.1561758092657
 20
2004.407878246022
 10
878.1659451456455
 20
2004.090754460721
 10
878.1664074431892
 20
2004.005115509207
1001
REVIT
1002
{
1070
     3
1000
939838
1002
}
  0
LINE
  5
8D
330
87
100
AcDbEntity
  8
M-PIPE
100
AcDbLine
 10
753.1664074431878
 20
1951.937499999998
 30
0.0
 11
753.1664074431878
 21
1989.937499999997
 31
0.0
1001
REVIT
1002
{
1070
     3
1000
939838
1002
}
  0
LINE
  5
8E
330
87
100
AcDbEntity
  8
M-PIPE
100
AcDbLine
 10
753.1664074431878
 20
1989.937499999997
 30
0.0
 11
753.1664074431878
 21
2004.005115509206
 31
0.0
1001
REVIT
1002
{
1070
     3
1000
939838
1002
}
  0
LINE
  5
8F
330
87
100
AcDbEntity
  8
M-PIPE
100
AcDbLine
 10
753.1664074431878
 20
1937.869884490788
 30
0.0
 11
753.1664074431878
 21
1951.937499999998
 31
0.0
1001
REVIT
1002
{
1070
     3
1000
939838
1002
}
  0
LINE
  5
90
330
87
100
AcDbEntity
  8
M-PIPE
100
AcDbLine
 10
851.4964074431878
 20
2004.937499999997
 30
0.0
 11
858.496407443188
 21
2011.937499999997
 31
0.0
1001
REVIT
1002
{
1070
     3
1000
939838
1002
}
  0
LINE
  5
91
330
87
100
AcDbEntity
  8
M-PIPE
100
AcDbLine
 10
772.8364074431879
 20
2011.937499999997
 30
0.0
 11
779.8364074431877
 21
2004.937499999997
 31
0.0
1001
REVIT
1002
{
1070
     3
1000
939838
1002
}
  0
LINE
  5
92
330
87
100
AcDbEntity
  8
M-PIPE
100
AcDbLine
 10
845.4664074431878
 20
2004.937499999997
 30
0.0
 11
851.4964074431878
 21
2004.937499999997
 31
0.0
1001
REVIT
1002
{
1070
     3
1000
939838
1002
}
  0
LINE
  5
93
330
87
100
AcDbEntity
  8
M-PIPE
100
AcDbLine
 10
779.8364074431877
 20
2004.937499999997
 30
0.0
 11
785.8664074431874
 21
2004.937499999997
 31
0.0
1001
REVIT
1002
{
1070
     3
1000
939838
1002
}
  0
LINE
  5
94
330
87
100
AcDbEntity
  8
M-PIPE
100
AcDbLine
 10
785.8664074431876
 20
2004.937499999997
 30
0.0
 11
796.6127988610852
 21
2004.937499999997
 31
0.0
1001
REVIT
1002
{
1070
     3
1000
939838
1002
}
  0
LINE
  5
95
330
87
100
AcDbEntity
  8
M-PIPE
100
AcDbLine
 10
878.1664074431876
 20
1989.937499999997
 30
0.0
 11
878.1664074431876
 21
1951.937499999998
 31
0.0
1001
REVIT
1002
{
1070
     3
1000
939838
1002
}
  0
LINE
  5
96
330
87
100
AcDbEntity
  8
M-PIPE
100
AcDbLine
 10
878.1664074431876
 20
1951.937499999998
 30
0.0
 11
878.1664074431876
 21
1937.869884490788
 31
0.0
1001
REVIT
1002
{
1070
     3
1000
939838
1002
}
  0
LINE
  5
97
330
87
100
AcDbEntity
  8
M-PIPE
100
AcDbLine
 10
878.1664074431876
 20
2004.005115509206
 30
0.0
 11
878.1664074431876
 21
1989.937499999997
 31
0.0
1001
REVIT
1002
{
1070
     3
1000
939838
1002
}
  0
LINE
  5
98
330
87
100
AcDbEntity
  8
M-PIPE
100
AcDbLine
 10
870.2340229523969
 20
1929.937499999997
 30
0.0
 11
761.0987919339788
 21
1929.937499999997
 31
0.0
1001
REVIT
1002
{
1070
     3
1000
939838
1002
}
  0
SPLINE
  5
99
330
87
100
AcDbEntity
  8
M-PIPE
100
AcDbSpline
210
0.0
220
0.0
230
1.0
 70
     8
 71
     3
 72
    19
 73
    15
 74
     0
 42
0.000000001
 43
0.0000000001
 40
-1.0
 40
-1.0
 40
-1.0
 40
-1.0
 40
-0.875
 40
-0.8125
 40
-0.75
 40
-0.6875
 40
-0.625
 40
-0.5625
 40
-0.5
 40
-0.46875
 40
-0.4375
 40
-0.375
 40
-0.3125
 40
-0.3094988624456121
 40
-0.3094988624456121
 40
-0.3094988624456121
 40
-0.3094988624456121
 10
858.4964074431878
 20
2011.937499999997
 30
0.0
 10
858.460890806875
 20
2011.937499999997
 30
0.0
 10
858.2739650625072
 20
2011.847498354722
 30
0.0
 10
857.7538181966033
 20
2011.572608490611
 30
0.0
 10
857.235473697702
 20
2011.295713730445
 30
0.0
 10
856.5600071670605
 20
2010.952666376919
 30
0.0
 10
855.7333188029382
 20
2010.54899905701
 30
0.0
 10
854.7948383646458
 20
2010.093744562853
 30
0.0
 10
853.953976258408
 20
2009.680203659794
 30
0.0
 10
853.2462472894524
 20
2009.333509154533
 30
0.0
 10
852.4967640461223
 20
2008.976022663278
 30
0.0
 10
851.5009720133436
 20
2008.511766482835
 30
0.0
 10
850.6348958584728
 20
2008.116966616147
 30
0.0
 10
850.184966812303
 20
2007.912284666181
 30
0.0
 10
850.1643376171294
 20
2007.902901071737
 30
0.0
1001
REVIT
1002
{
1070
     3
1000
939838
1002
}
  0
SPLINE
  5
9A
330
87
100
AcDbEntity
  8
M-PIPE
100
AcDbSpline
210
0.0
220
0.0
230
1.0
 70
     8
 71
     3
 72
     8
 73
     4
 74
     0
 42
0.000000001
 43
0.0000000001
 40
-0.2088649988865718
 40
-0.2088649988865718
 40
-0.2088649988865718
 40
-0.2088649988865718
 40
0.0
 40
0.0
 40
0.0
 40
0.0
 10
848.0352255217599
 20
2006.944792236605
 30
0.0
 10
846.5218214358326
 20
2006.274904499651
 30
0.0
 10
844.9204179327811
 20
2005.595592210584
 30
0.0
 10
843.212530582388
 20
2004.937499999997
 30
0.0
1001
REVIT
1002
{
1070
     3
1000
939838
1002
}
  0
LINE
  5
9B
330
87
100
AcDbEntity
  8
M-PIPE
100
AcDbLine
 10
858.4964074431878
 20
2011.937499999997
 30
0.0
 11
870.2340229523969
 21
2011.937499999997
 31
0.0
1001
REVIT
1002
{
1070
     3
1000
939838
1002
}
  0
LINE
  5
9C
330
87
100
AcDbEntity
  8
M-PIPE
100
AcDbLine
 10
761.0987919339788
 20
2011.937499999997
 30
0.0
 11
772.8364074431878
 21
2011.937499999997
 31
0.0
1001
REVIT
1002
{
1070
     3
1000
939838
1002
}
  0
SPLINE
  5
9D
330
87
100
AcDbEntity
  8
M-PIPE
100
AcDbSpline
210
0.0
220
0.0
230
1.0
 70
     8
 71
     3
 72
     8
 73
     4
 74
     0
 42
0.000000001
 43
0.0000000001
 40
-1.0
 40
-1.0
 40
-1.0
 40
-1.0
 40
-0.7911350011134255
 40
-0.7911350011134255
 40
-0.7911350011134255
 40
-0.7911350011134255
 10
788.1202843039877
 20
2004.937499999997
 30
0.0
 10
786.4123969535946
 20
2005.595592210584
 30
0.0
 10
784.8110736713851
 20
2006.274899645911
 30
0.0
 10
783.2976289632289
 20
2006.944789840702
 30
0.0
1001
REVIT
1002
{
1070
     3
1000
939838
1002
}
  0
SPLINE
  5
9E
330
87
100
AcDbEntity
  8
M-PIPE
100
AcDbSpline
210
0.0
220
0.0
230
1.0
 70
     8
 71
     3
 72
    19
 73
    15
 74
     0
 42
0.000000001
 43
0.0000000001
 40
-0.6905011375543799
 40
-0.6905011375543799
 40
-0.6905011375543799
 40
-0.6905011375543799
 40
-0.6875
 40
-0.625
 40
-0.5625
 40
-0.5
 40
-0.46875
 40
-0.4375
 40
-0.375
 40
-0.3125
 40
-0.25
 40
-0.1875
 40
-0.125
 40
0.0
 40
0.0
 40
0.0
 40
0.0
 10
781.1684677022521
 20
2007.902901650585
 30
0.0
 10
781.1478414406192
 20
2007.912285067537
 30
0.0
 10
780.6979818915745
 20
2008.116962812597
 30
0.0
 10
779.8322882293384
 20
2008.511739536674
 30
0.0
 10
778.6352259391297
 20
2009.06897473017
 30
0.0
 10
777.7245904749498
 20
2009.509635815568
 30
0.0
 10
777.0447643888756
 20
2009.845485240675
 30
0.0
 10
776.3802521822209
 20
2010.169698127325
 30
0.0
 10
775.599941464564
 20
2010.548972619711
 30
0.0
 10
774.7726883907869
 20
2010.952673460119
 30
0.0
 10
774.0973731216602
 20
2011.29571183494
 30
0.0
 10
773.5789882863549
 20
2011.572608989428
 30
0.0
 10
773.058854865919
 20
2011.847498055432
 30
0.0
 10
772.8719240795007
 20
2011.937499999997
 30
0.0
 10
772.8364074431878
 20
2011.937499999997
 30
0.0
1001
REVIT
1002
{
1070
     3
1000
939838
1002
}
  0
SPLINE
  5
9F
330
87
100
AcDbEntity
  8
M-PIPE
100
AcDbSpline
210
0.0
220
0.0
230
1.0
 70
     8
 71
     3
 72
     8
 73
     4
 74
     0
 42
0.000000001
 43
0.0000000001
 40
0.0
 40
0.0
 40
0.0
 40
0.0
 40
0.0156930275068793
 40
0.0156930275068793
 40
0.0156930275068793
 40
0.0156930275068793
 10
796.6127988610852
 20
2004.937499999997
 30
0.0
 10
796.7951442130428
 20
2004.874425972989
 30
0.0
 10
796.9780067710679
 20
2004.811973454013
 30
0.0
 10
797.1614010440876
 20
2004.750169679271
 30
0.0
1001
REVIT
1002
{
1070
     3
1000
939838
1002
}
  0
SPLINE
  5
A0
330
87
100
AcDbEntity
  8
M-PIPE
100
AcDbSpline
210
0.0
220
0.0
230
1.0
 70
     8
 71
     3
 72
     8
 73
     4
 74
     0
 42
0.000000001
 43
0.0000000001
 40
0.984310826052544
 40
0.984310826052544
 40
0.984310826052544
 40
0.984310826052544
 40
1.0
 40
1.0
 40
1.0
 40
1.0
 10
834.1711368218449
 20
2004.750231081524
 30
0.0
 10
834.3546103324575
 20
2004.81202251739
 30
0.0
 10
834.5375639866697
 20
2004.874455220752
 30
0.0
 10
834.7200160252906
 20
2004.937499999997
 30
0.0
1001
REVIT
1002
{
1070
     3
1000
939838
1002
}
  0
ARC
  5
A1
330
87
100
AcDbEntity
  8
M-PIPE
100
AcDbCircle
 10
812.7434450269701
 20
2023.292686344003
 30
0.0
 40
32.54670513282733
100
AcDbArc
 50
214.330415323
 51
237.2814998215027
1001
REVIT
1002
{
1070
     3
1000
939838
1002
}
  0
ARC
  5
A2
330
87
100
AcDbEntity
  8
M-PIPE
100
AcDbCircle
 10
818.5893698594053
 20
2023.292686344003
 30
0.0
 40
32.54670513282743
100
AcDbArc
 50
302.7185001785438
 51
325.6695846769986
1001
REVIT
1002
{
1070
     3
1000
939838
1002
}
  0
ARC
  5
A3
330
87
100
AcDbEntity
  8
M-PIPE
100
AcDbCircle
 10
761.0987919339788
 20
1937.869884490788
 30
0.0
 40
7.932384490790923
100
AcDbArc
 50
180.0
 51
269.9999999999997
1001
REVIT
1002
{
1070
     3
1000
939838
1002
}
  0
ARC
  5
A4
330
87
100
AcDbEntity
  8
M-PIPE
100
AcDbCircle
 10
761.0987919339788
 20
2004.005115509206
 30
0.0
 40
7.932384490791037
100
AcDbArc
 50
90.00000000000163
 51
180.0
1001
REVIT
1002
{
1070
     3
1000
939838
1002
}
  0
ARC
  5
A5
330
87
100
AcDbEntity
  8
M-PIPE
100
AcDbCircle
 10
870.234022952397
 20
1937.869884490788
 30
0.0
 40
7.932384490790923
100
AcDbArc
 50
269.9999999999997
 51
0.0
1001
REVIT
1002
{
1070
     3
1000
939838
1002
}
  0
ARC
  5
A6
330
87
100
AcDbEntity
  8
M-PIPE
100
AcDbCircle
 10
870.234022952397
 20
2004.005115509206
 30
0.0
 40
7.932384490790923
100
AcDbArc
 50
0.0
 51
90.0
1001
REVIT
1002
{
1070
     3
1000
939838
1002
}
  0
LINE
  5
A7
330
87
100
AcDbEntity
  8
M-PIPE
100
AcDbLine
 10
753.1664074431878
 20
1951.937499999998
 30
0.0
 11
878.1664074431876
 21
1951.937499999998
 31
0.0
1001
REVIT
1002
{
1070
     3
1000
939838
1002
}
  0
LINE
  5
A8
330
87
100
AcDbEntity
  8
M-PIPE
100
AcDbLine
 10
878.1664074431876
 20
1989.937499999997
 30
0.0
 11
833.1664074431881
 21
1989.937499999997
 31
0.0
1001
REVIT
1002
{
1070
     3
1000
939838
1002
}
  0
LINE
  5
A9
330
87
100
AcDbEntity
  8
M-PIPE
100
AcDbLine
 10
798.1664074431878
 20
1989.937499999997
 30
0.0
 11
753.1664074431878
 21
1989.937499999997
 31
0.0
1001
REVIT
1002
{
1070
     3
1000
939838
1002
}
  0
LINE
  5
AA
330
87
100
AcDbEntity
  8
M-PIPE
100
AcDbLine
 10
836.1664074432004
 20
1992.303525403717
 30
0.0
 11
836.1664074432004
 21
2000.071474596276
 31
0.0
1001
REVIT
1002
{
1070
     3
1000
790271
1002
}
  0
LINE
  5
AB
330
87
100
AcDbEntity
  8
M-PIPE
100
AcDbLine
 10
795.1664074432003
 20
2000.071474596276
 30
0.0
 11
795.1664074432003
 21
1992.303525403717
 31
0.0
1001
REVIT
1002
{
1070
     3
1000
790271
1002
}
  0
LINE
  5
AC
330
87
100
AcDbEntity
  8
M-PIPE
100
AcDbLine
 10
836.1664074431972
 20
2000.07147459627
 30
0.0
 11
834.6664074432974
 21
2000.937499999996
 31
0.0
1001
REVIT
1002
{
1070
     3
1000
790271
1002
}
  0
LINE
  5
AD
330
87
100
AcDbEntity
  8
M-PIPE
100
AcDbLine
 10
796.6664074430789
 20
2000.937499999997
 30
0.0
 11
795.1664074431954
 21
2000.07147459628
 31
0.0
1001
REVIT
1002
{
1070
     3
1000
790271
1002
}
  0
LINE
  5
AE
330
87
100
AcDbEntity
  8
M-PIPE
100
AcDbLine
 10
834.666407443299
 20
1991.437499999996
 30
0.0
 11
836.1664074431994
 21
1992.303525403723
 31
0.0
1001
REVIT
1002
{
1070
     3
1000
790271
1002
}
  0
LINE
  5
AF
330
87
100
AcDbEntity
  8
M-PIPE
100
AcDbLine
 10
795.1664074431974
 20
1992.303525403712
 30
0.0
 11
796.6664074430771
 21
1991.437499999997
 31
0.0
1001
REVIT
1002
{
1070
     3
1000
790271
1002
}
  0
LINE
  5
B0
330
87
100
AcDbEntity
  8
M-PIPE
100
AcDbLine
 10
796.6664074430776
 20
2000.937499999996
 30
0.0
 11
799.2119247711875
 21
2000.937499999996
 31
0.0
1001
REVIT
1002
{
1070
     3
1000
790271
1002
}
  0
LINE
  5
B1
330
87
100
AcDbEntity
  8
M-PIPE
100
AcDbLine
 10
799.2119247711875
 20
2000.937499999996
 30
0.0
 11
815.6664074431864
 21
2000.937499999996
 31
0.0
1001
REVIT
1002
{
1070
     3
1000
790271
1002
}
  0
LINE
  5
B2
330
87
100
AcDbEntity
  8
M-PIPE
100
AcDbLine
 10
815.6664074431864
 20
2000.937499999996
 30
0.0
 11
832.1208901151857
 21
2000.937499999995
 31
0.0
1001
REVIT
1002
{
1070
     3
1000
790271
1002
}
  0
LINE
  5
B3
330
87
100
AcDbEntity
  8
M-PIPE
100
AcDbLine
 10
832.1208901151857
 20
2000.937499999995
 30
0.0
 11
834.6664074432959
 21
2000.937499999996
 31
0.0
1001
REVIT
1002
{
1070
     3
1000
790271
1002
}
  0
LINE
  5
B4
330
87
100
AcDbEntity
  8
M-PIPE
100
AcDbLine
 10
834.6664074432975
 20
1991.437499999996
 30
0.0
 11
832.1208901151869
 21
1991.437499999995
 31
0.0
1001
REVIT
1002
{
1070
     3
1000
790271
1002
}
  0
LINE
  5
B5
330
87
100
AcDbEntity
  8
M-PIPE
100
AcDbLine
 10
832.1208901151869
 20
1991.437499999995
 30
0.0
 11
815.6664074431871
 21
1991.437499999995
 31
0.0
1001
REVIT
1002
{
1070
     3
1000
790271
1002
}
  0
LINE
  5
B6
330
87
100
AcDbEntity
  8
M-PIPE
100
AcDbLine
 10
815.6664074431871
 20
1991.437499999995
 30
0.0
 11
799.2119247711866
 21
1991.437499999996
 31
0.0
1001
REVIT
1002
{
1070
     3
1000
790271
1002
}
  0
LINE
  5
B7
330
87
100
AcDbEntity
  8
M-PIPE
100
AcDbLine
 10
799.2119247711866
 20
1991.437499999996
 30
0.0
 11
796.6664074430759
 21
1991.437499999996
 31
0.0
1001
REVIT
1002
{
1070
     3
1000
790271
1002
}
  0
LINE
  5
B8
330
87
100
AcDbEntity
  8
M-PIPE
100
AcDbLine
 10
835.9695911946886
 20
2000.071474596266
 30
0.0
 11
835.9695911946886
 21
1992.303525403724
 31
0.0
1001
REVIT
1002
{
1070
     3
1000
790271
1002
}
  0
LINE
  5
B9
330
87
100
AcDbEntity
  8
M-PIPE
100
AcDbLine
 10
835.9695911946886
 20
1992.303525403716
 30
0.0
 11
836.166407443199
 21
1992.303525403716
 31
0.0
1001
REVIT
1002
{
1070
     3
1000
790271
1002
}
  0
LINE
  5
BA
330
87
100
AcDbEntity
  8
M-PIPE
100
AcDbLine
 10
836.166407443199
 20
2000.071474596274
 30
0.0
 11
835.9695911946888
 21
2000.071474596274
 31
0.0
1001
REVIT
1002
{
1070
     3
1000
790271
1002
}
  0
LINE
  5
BB
330
87
100
AcDbEntity
  8
M-PIPE
100
AcDbLine
 10
795.1664074431991
 20
1992.303525403716
 30
0.0
 11
795.3632236917095
 21
1992.303525403716
 31
0.0
1001
REVIT
1002
{
1070
     3
1000
790271
1002
}
  0
LINE
  5
BC
330
87
100
AcDbEntity
  8
M-PIPE
100
AcDbLine
 10
795.3632236917095
 20
2000.071474596274
 30
0.0
 11
795.1664074431991
 21
2000.071474596274
 31
0.0
1001
REVIT
1002
{
1070
     3
1000
790271
1002
}
  0
LINE
  5
BD
330
87
100
AcDbEntity
  8
M-PIPE
100
AcDbLine
 10
795.3632236917096
 20
1992.30352540371
 30
0.0
 11
795.3632236917096
 21
2000.07147459628
 31
0.0
1001
REVIT
1002
{
1070
     3
1000
790271
1002
}
  0
SPLINE
  5
BE
330
87
100
AcDbEntity
  8
M-PIPE
100
AcDbSpline
210
0.0
220
0.0
230
1.0
 70
     8
 71
     3
 72
     9
 73
     5
 74
     0
 42
0.000000001
 43
0.0000000001
 40
0.0
 40
0.0
 40
0.0
 40
0.0
 40
0.5
 40
1.0
 40
1.0
 40
1.0
 40
1.0
 10
795.3632236917096
 20
1992.30352540371
 30
0.0
 10
795.9970891939019
 20
1992.020783215743
 30
0.0
 10
797.2724048760235
 20
1991.593703460489
 30
0.0
 10
798.5628899136186
 20
1991.443432946599
 30
0.0
 10
799.2119247712844
 20
1991.437499999995
 30
0.0
1001
REVIT
1002
{
1070
     3
1000
790271
1002
}
  0
SPLINE
  5
BF
330
87
100
AcDbEntity
  8
M-PIPE
100
AcDbSpline
210
0.0
220
0.0
230
1.0
 70
     8
 71
     3
 72
     9
 73
     5
 74
     0
 42
0.000000001
 43
0.0000000001
 40
0.0
 40
0.0
 40
0.0
 40
0.0
 40
0.5
 40
1.0
 40
1.0
 40
1.0
 40
1.0
 10
799.2119247712844
 20
1991.437499999995
 30
0.0
 10
799.8609596289538
 20
1991.443432946599
 30
0.0
 10
801.1514446665559
 20
1991.59370346049
 30
0.0
 10
802.426760348684
 20
1992.020783215748
 30
0.0
 10
803.0606258508797
 20
1992.303525403719
 30
0.0
1001
REVIT
1002
{
1070
     3
1000
790271
1002
}
  0
SPLINE
  5
C0
330
87
100
AcDbEntity
  8
M-PIPE
100
AcDbSpline
210
0.0
220
0.0
230
1.0
 70
     8
 71
     3
 72
     9
 73
     5
 74
     0
 42
0.000000001
 43
0.0000000001
 40
0.0
 40
0.0
 40
0.0
 40
0.0
 40
0.5
 40
1.0
 40
1.0
 40
1.0
 40
1.0
 10
803.0606258508797
 20
2000.071474596271
 30
0.0
 10
802.4267603486839
 20
2000.354216784242
 30
0.0
 10
801.1514446665556
 20
2000.7812965395
 30
0.0
 10
799.8609596289536
 20
2000.931567053392
 30
0.0
 10
799.2119247712841
 20
2000.937499999995
 30
0.0
1001
REVIT
1002
{
1070
     3
1000
790271
1002
}
  0
SPLINE
  5
C1
330
87
100
AcDbEntity
  8
M-PIPE
100
AcDbSpline
210
0.0
220
0.0
230
1.0
 70
     8
 71
     3
 72
     9
 73
     5
 74
     0
 42
0.000000001
 43
0.0000000001
 40
0.0
 40
0.0
 40
0.0
 40
0.0
 40
0.5
 40
1.0
 40
1.0
 40
1.0
 40
1.0
 10
799.2119247712841
 20
2000.937499999996
 30
0.0
 10
798.5628899136181
 20
2000.931567053392
 30
0.0
 10
797.2724048760231
 20
2000.781296539502
 30
0.0
 10
795.9970891939018
 20
2000.354216784248
 30
0.0
 10
795.3632236917096
 20
2000.07147459628
 30
0.0
1001
REVIT
1002
{
1070
     3
1000
790271
1002
}
  0
LINE
  5
C2
330
87
100
AcDbEntity
  8
M-PIPE
100
AcDbLine
 10
803.0606258508793
 20
1992.303525403719
 30
0.0
 11
803.0606258508793
 21
2000.071474596271
 31
0.0
1001
REVIT
1002
{
1070
     3
1000
790271
1002
}
  0
LINE
  5
C3
330
87
100
AcDbEntity
  8
M-PIPE
100
AcDbLine
 10
803.0606258508793
 20
1992.303525403716
 30
0.0
 11
807.9690052840279
 21
1992.303525403716
 31
0.0
1001
REVIT
1002
{
1070
     3
1000
790271
1002
}
  0
LINE
  5
C4
330
87
100
AcDbEntity
  8
M-PIPE
100
AcDbLine
 10
807.9690052840279
 20
2000.071474596274
 30
0.0
 11
803.0606258508793
 21
2000.071474596274
 31
0.0
1001
REVIT
1002
{
1070
     3
1000
790271
1002
}
  0
LINE
  5
C5
330
87
100
AcDbEntity
  8
M-PIPE
100
AcDbLine
 10
807.9690052840282
 20
1992.303525403722
 30
0.0
 11
807.9690052840282
 21
2000.071474596268
 31
0.0
1001
REVIT
1002
{
1070
     3
1000
790271
1002
}
  0
SPLINE
  5
C6
330
87
100
AcDbEntity
  8
M-PIPE
100
AcDbSpline
210
0.0
220
0.0
230
1.0
 70
     8
 71
     3
 72
     9
 73
     5
 74
     0
 42
0.000000001
 43
0.0000000001
 40
0.0
 40
0.0
 40
0.0
 40
0.0
 40
0.5
 40
1.0
 40
1.0
 40
1.0
 40
1.0
 10
807.9690052840282
 20
1992.303525403722
 30
0.0
 10
809.2367362884145
 20
1992.020783215756
 30
0.0
 10
811.7873676526606
 20
1991.593703460501
 30
0.0
 10
814.3683377278536
 20
1991.443432946605
 30
0.0
 10
815.6664074431867
 20
1991.437499999995
 30
0.0
1001
REVIT
1002
{
1070
     3
1000
790271
1002
}
  0
SPLINE
  5
C7
330
87
100
AcDbEntity
  8
M-PIPE
100
AcDbSpline
210
0.0
220
0.0
230
1.0
 70
     8
 71
     3
 72
     9
 73
     5
 74
     0
 42
0.000000001
 43
0.0000000001
 40
0.0
 40
0.0
 40
0.0
 40
0.0
 40
0.5
 40
1.0
 40
1.0
 40
1.0
 40
1.0
 10
815.6664074431867
 20
1991.437499999995
 30
0.0
 10
816.9644771585241
 20
1991.443432946605
 30
0.0
 10
819.5454472337251
 20
1991.593703460502
 30
0.0
 10
822.0960785979794
 20
1992.020783215759
 30
0.0
 10
823.3638096023694
 20
1992.303525403727
 30
0.0
1001
REVIT
1002
{
1070
     3
1000
790271
1002
}
  0
SPLINE
  5
C8
330
87
100
AcDbEntity
  8
M-PIPE
100
AcDbSpline
210
0.0
220
0.0
230
1.0
 70
     8
 71
     3
 72
     9
 73
     5
 74
     0
 42
0.000000001
 43
0.0000000001
 40
0.0
 40
0.0
 40
0.0
 40
0.0
 40
0.5
 40
1.0
 40
1.0
 40
1.0
 40
1.0
 10
823.3638096023694
 20
2000.071474596262
 30
0.0
 10
822.0960785979793
 20
2000.354216784231
 30
0.0
 10
819.5454472337249
 20
2000.781296539487
 30
0.0
 10
816.9644771585236
 20
2000.931567053386
 30
0.0
 10
815.6664074431864
 20
2000.937499999995
 30
0.0
1001
REVIT
1002
{
1070
     3
1000
790271
1002
}
  0
SPLINE
  5
C9
330
87
100
AcDbEntity
  8
M-PIPE
100
AcDbSpline
210
0.0
220
0.0
230
1.0
 70
     8
 71
     3
 72
     9
 73
     5
 74
     0
 42
0.000000001
 43
0.0000000001
 40
0.0
 40
0.0
 40
0.0
 40
0.0
 40
0.5
 40
1.0
 40
1.0
 40
1.0
 40
1.0
 10
815.6664074431864
 20
2000.937499999996
 30
0.0
 10
814.3683377278531
 20
2000.931567053386
 30
0.0
 10
811.7873676526603
 20
2000.781296539488
 30
0.0
 10
809.2367362884145
 20
2000.354216784234
 30
0.0
 10
807.9690052840282
 20
2000.071474596268
 30
0.0
1001
REVIT
1002
{
1070
     3
1000
790271
1002
}
  0
LINE
  5
CA
330
87
100
AcDbEntity
  8
M-PIPE
100
AcDbLine
 10
823.3638096023694
 20
1992.303525403727
 30
0.0
 11
823.3638096023694
 21
2000.071474596262
 31
0.0
1001
REVIT
1002
{
1070
     3
1000
790271
1002
}
  0
LINE
  5
CB
330
87
100
AcDbEntity
  8
M-PIPE
100
AcDbLine
 10
823.3638096023694
 20
1992.303525403716
 30
0.0
 11
828.2721890355178
 21
1992.303525403716
 31
0.0
1001
REVIT
1002
{
1070
     3
1000
790271
1002
}
  0
LINE
  5
CC
330
87
100
AcDbEntity
  8
M-PIPE
100
AcDbLine
 10
828.272189035518
 20
2000.071474596274
 30
0.0
 11
823.3638096023696
 21
2000.071474596274
 31
0.0
1001
REVIT
1002
{
1070
     3
1000
790271
1002
}
  0
SPLINE
  5
CD
330
87
100
AcDbEntity
  8
M-PIPE
100
AcDbSpline
210
0.0
220
0.0
230
1.0
 70
     8
 71
     3
 72
     9
 73
     5
 74
     0
 42
0.000000001
 43
0.0000000001
 40
0.0
 40
0.0
 40
0.0
 40
0.0
 40
0.5
 40
1.0
 40
1.0
 40
1.0
 40
1.0
 10
835.9695911946886
 20
2000.071474596266
 30
0.0
 10
835.3357256924951
 20
2000.354216784232
 30
0.0
 10
834.0604100103714
 20
2000.781296539487
 30
0.0
 10
832.7699249727743
 20
2000.931567053385
 30
0.0
 10
832.1208901151075
 20
2000.937499999995
 30
0.0
1001
REVIT
1002
{
1070
     3
1000
790271
1002
}
  0
SPLINE
  5
CE
330
87
100
AcDbEntity
  8
M-PIPE
100
AcDbSpline
210
0.0
220
0.0
230
1.0
 70
     8
 71
     3
 72
     9
 73
     5
 74
     0
 42
0.000000001
 43
0.0000000001
 40
0.0
 40
0.0
 40
0.0
 40
0.0
 40
0.5
 40
1.0
 40
1.0
 40
1.0
 40
1.0
 10
832.1208901151075
 20
2000.937499999996
 30
0.0
 10
831.4718552574392
 20
2000.931567053385
 30
0.0
 10
830.1813702198392
 20
2000.781296539486
 30
0.0
 10
828.9060545377127
 20
2000.35421678423
 30
0.0
 10
828.2721890355178
 20
2000.071474596262
 30
0.0
1001
REVIT
1002
{
1070
     3
1000
790271
1002
}
  0
LINE
  5
CF
330
87
100
AcDbEntity
  8
M-PIPE
100
AcDbLine
 10
828.2721890355178
 20
1992.303525403728
 30
0.0
 11
828.2721890355178
 21
2000.071474596262
 31
0.0
1001
REVIT
1002
{
1070
     3
1000
790271
1002
}
  0
SPLINE
  5
D0
330
87
100
AcDbEntity
  8
M-PIPE
100
AcDbSpline
210
0.0
220
0.0
230
1.0
 70
     8
 71
     3
 72
     9
 73
     5
 74
     0
 42
0.000000001
 43
0.0000000001
 40
0.0
 40
0.0
 40
0.0
 40
0.0
 40
0.5
 40
1.0
 40
1.0
 40
1.0
 40
1.0
 10
828.2721890355178
 20
1992.303525403728
 30
0.0
 10
828.9060545377127
 20
1992.02078321576
 30
0.0
 10
830.1813702198391
 20
1991.593703460504
 30
0.0
 10
831.471855257439
 20
1991.443432946605
 30
0.0
 10
832.1208901151074
 20
1991.437499999995
 30
0.0
1001
REVIT
1002
{
1070
     3
1000
790271
1002
}
  0
SPLINE
  5
D1
330
87
100
AcDbEntity
  8
M-PIPE
100
AcDbSpline
210
0.0
220
0.0
230
1.0
 70
     8
 71
     3
 72
     9
 73
     5
 74
     0
 42
0.000000001
 43
0.0000000001
 40
0.0
 40
0.0
 40
0.0
 40
0.0
 40
0.5
 40
1.0
 40
1.0
 40
1.0
 40
1.0
 10
832.1208901151074
 20
1991.437499999995
 30
0.0
 10
832.7699249727741
 20
1991.443432946605
 30
0.0
 10
834.0604100103714
 20
1991.593703460503
 30
0.0
 10
835.3357256924951
 20
1992.020783215758
 30
0.0
 10
835.9695911946886
 20
1992.303525403724
 30
0.0
1001
REVIT
1002
{
1070
     3
1000
790271
1002
}
  0
LINE
  5
D2
330
87
100
AcDbEntity
  8
M-PIPE
100
AcDbLine
 10
840.6404232666401
 20
2043.937499999994
 30
0.0
 11
840.6404232666401
 21
2073.937499999995
 31
0.0
1001
REVIT
1002
{
1070
     3
1000
938184
1002
}
  0
LINE
  5
D3
330
87
100
AcDbEntity
  8
M-PIPE
100
AcDbLine
 10
790.6923916197456
 20
2073.937499999995
 30
0.0
 11
790.6923916197456
 21
2043.937499999994
 31
0.0
1001
REVIT
1002
{
1070
     3
1000
938184
1002
}
  0
LINE
  5
D4
330
87
100
AcDbEntity
  8
M-PIPE
100
AcDbLine
 10
800.7163374607628
 20
2077.437499999994
 30
0.0
 11
794.300408537446
 21
2077.437499999994
 31
0.0
1001
REVIT
1002
{
1070
     3
1000
938184
1002
}
  0
LWPOLYLINE
  5
D5
330
87
100
AcDbEntity
  8
M-PIPE
100
AcDbPolyline
 90
       41
 70
   128
 43
0.0
 10
790.6923916197456
 20
2073.937499999995
 10
790.6951912464323
 20
2074.077462669647
 10
790.7035856476864
 20
2074.217201428887
 10
790.7175613942571
 20
2074.356492725506
 10
790.7370961279309
 20
2074.495113723144
 10
790.7621585973012
 20
2074.632842657777
 10
790.7927087077636
 20
2074.76945919249
 10
790.8286975856579
 20
2074.904744769969
 10
790.8700676564571
 20
2075.038482962151
 10
790.9167527368728
 20
2075.170459816457
 10
790.9686781407355
 20
2075.300464198075
 10
791.0257607984759
 20
2075.428288127726
 10
791.0879093900181
 20
2075.553727114389
 10
791.1550244908738
 20
2075.676580482447
 10
791.2269987311987
 20
2075.796651692717
 10
791.3037169675617
 20
2075.913748656877
 10
791.3850564671506
 20
2076.027684044763
 10
791.4708871041174
 20
2076.138275584059
 10
791.5610715677526
 20
2076.245346351894
 10
791.6554655821526
 20
2076.348725057882
 10
791.7539181370307
 20
2076.448246318143
 10
791.8562717293012
 20
2076.543750919892
 10
791.9623626150505
 20
2076.635086076141
 10
792.0720210714935
 20
2076.722105670122
 10
792.185071668492
 20
2076.804670489048
 10
792.3013335492071
 20
2076.882648446822
 10
792.4206207194308
 20
2076.955914795346
 10
792.5427423451375
 20
2077.024352324091
 10
792.6675030577772
 20
2077.087851547612
 10
792.7947032668236
 20
2077.146310880696
 10
792.9241394790773
 20
2077.19963680088
 10
793.05560462421
 20
2077.247743998068
 10
793.1888883860338
 20
2077.290555511007
 10
793.3237775389622
 20
2077.328002850408
 10
793.4600562891256
 20
2077.360026108518
 10
793.5975066195949
 20
2077.386574054954
 10
793.7359086391621
 20
2077.407604218665
 10
793.8750409341204
 20
2077.423082955876
 10
794.0146809224781
 20
2077.432985503909
 10
794.1546052100417
 20
2077.4372960208
 10
794.1923916197456
 20
2077.437499999994
1001
REVIT
1002
{
1070
     3
1000
938184
1002
}
  0
LWPOLYLINE
  5
D6
330
87
100
AcDbEntity
  8
M-PIPE
100
AcDbPolyline
 90
       41
 70
   128
 43
0.0
 10
837.1951313715394
 20
2077.436405691985
 10
837.2803859362933
 20
2077.434700373308
 10
837.4201246955323
 20
2077.426305972053
 10
837.5594159921513
 20
2077.412330225483
 10
837.6980369897902
 20
2077.392795491809
 10
837.8357659244228
 20
2077.367733022439
 10
837.9723824591351
 20
2077.337182911977
 10
838.1076680366145
 20
2077.301194034082
 10
838.2414062287965
 20
2077.259823963283
 10
838.373383083103
 20
2077.213138882867
 10
838.5033874647204
 20
2077.161213479004
 10
838.6312113943713
 20
2077.104130821265
 10
838.7566503810353
 20
2077.041982229722
 10
838.8795037490931
 20
2076.974867128866
 10
838.9995749593632
 20
2076.902892888542
 10
839.1166719235227
 20
2076.826174652179
 10
839.2306073114085
 20
2076.74483515259
 10
839.3411988507049
 20
2076.659004515623
 10
839.4482696185402
 20
2076.568820051988
 10
839.5516483245271
 20
2076.474426037588
 10
839.6511695847884
 20
2076.37597348271
 10
839.7466741865381
 20
2076.273619890439
 10
839.8380093427865
 20
2076.167529004689
 10
839.9250289367673
 20
2076.057870548247
 10
840.0075937556938
 20
2075.944819951248
 10
840.0855717134676
 20
2075.828558070533
 10
840.1588380619918
 20
2075.709270900309
 10
840.2272755907375
 20
2075.587149274602
 10
840.2907748142578
 20
2075.462388561963
 10
840.3492341473413
 20
2075.335188352916
 10
840.4025600675254
 20
2075.205752140663
 10
840.4506672647135
 20
2075.07428699553
 10
840.4934787776523
 20
2074.941003233707
 10
840.530926117054
 20
2074.806114080778
 10
840.5629493751638
 20
2074.669835330614
 10
840.5894973215996
 20
2074.532385000146
 10
840.6105274853109
 20
2074.393982980578
 10
840.6260062225218
 20
2074.254850685619
 10
840.6359087705547
 20
2074.115210697262
 10
840.640219287445
 20
2073.975286409698
 10
840.6404232666401
 20
2073.937499999995
1001
REVIT
1002
{
1070
     3
1000
938184
1002
}
  0
LINE
  5
D7
330
87
100
AcDbEntity
  8
M-PIPE
100
AcDbLine
 10
837.0324063489395
 20
2077.437499999994
 30
0.0
 11
830.6164774255801
 21
2077.437499999994
 31
0.0
1001
REVIT
1002
{
1070
     3
1000
938184
1002
}
  0
LINE
  5
D8
330
87
100
AcDbEntity
  8
M-PIPE
100
AcDbLine
 10
840.6403948298546
 20
2043.937499999993
 30
0.0
 11
840.2383710309289
 21
2043.937499999993
 31
0.0
1001
REVIT
1002
{
1070
     3
1000
938184
1002
}
  0
LINE
  5
D9
330
87
100
AcDbEntity
  8
M-PIPE
100
AcDbLine
 10
840.2383710309289
 20
2043.937499999993
 30
0.0
 11
838.8918169852223
 21
2043.937499999993
 31
0.0
1001
REVIT
1002
{
1070
     3
1000
938184
1002
}
  0
LINE
  5
DA
330
87
100
AcDbEntity
  8
M-PIPE
100
AcDbLine
 10
792.4409979011588
 20
2043.937499999993
 30
0.0
 11
791.0944438554536
 21
2043.937499999993
 31
0.0
1001
REVIT
1002
{
1070
     3
1000
938184
1002
}
  0
LINE
  5
DB
330
87
100
AcDbEntity
  8
M-PIPE
100
AcDbLine
 10
791.0944438554536
 20
2043.937499999993
 30
0.0
 11
790.6924200565285
 21
2043.937499999993
 31
0.0
1001
REVIT
1002
{
1070
     3
1000
938184
1002
}
  0
LINE
  5
DC
330
87
100
AcDbEntity
  8
M-PIPE
100
AcDbLine
 10
840.2383710309289
 20
2073.937499999993
 30
0.0
 11
840.2383710309289
 21
2043.937499999993
 31
0.0
1001
REVIT
1002
{
1070
     3
1000
938184
1002
}
  0
LINE
  5
DD
330
87
100
AcDbEntity
  8
M-PIPE
100
AcDbLine
 10
797.9484073314653
 20
2073.937499999993
 30
0.0
 11
797.9484073314653
 21
2048.305307718065
 31
0.0
1001
REVIT
1002
{
1070
     3
1000
938184
1002
}
  0
LINE
  5
DE
330
87
100
AcDbEntity
  8
M-PIPE
100
AcDbLine
 10
792.4409979011588
 20
2043.937499999993
 30
0.0
 11
792.4409979011588
 21
2048.305307718065
 31
0.0
1001
REVIT
1002
{
1070
     3
1000
938184
1002
}
  0
LINE
  5
DF
330
87
100
AcDbEntity
  8
M-PIPE
100
AcDbLine
 10
791.0944438554536
 20
2043.937499999993
 30
0.0
 11
791.0944438554536
 21
2073.937499999993
 31
0.0
1001
REVIT
1002
{
1070
     3
1000
938184
1002
}
  0
LINE
  5
E0
330
87
100
AcDbEntity
  8
M-PIPE
100
AcDbLine
 10
833.3844075548826
 20
2048.305307718065
 30
0.0
 11
833.3844075548826
 21
2073.937499999993
 31
0.0
1001
REVIT
1002
{
1070
     3
1000
938184
1002
}
  0
LINE
  5
E1
330
87
100
AcDbEntity
  8
M-PIPE
100
AcDbLine
 10
838.8918169852223
 20
2048.305307718065
 30
0.0
 11
838.8918169852223
 21
2043.937499999993
 31
0.0
1001
REVIT
1002
{
1070
     3
1000
938184
1002
}
  0
LINE
  5
E2
330
87
100
AcDbEntity
  8
M-PIPE
100
AcDbLine
 10
838.8918169852223
 20
2043.937499999993
 30
0.0
 11
792.4409979011588
 21
2043.937499999993
 31
0.0
1001
REVIT
1002
{
1070
     3
1000
938184
1002
}
  0
LINE
  5
E3
330
87
100
AcDbEntity
  8
M-PIPE
100
AcDbLine
 10
838.8918169852223
 20
2048.305307718065
 30
0.0
 11
792.4409979011588
 21
2048.305307718065
 31
0.0
1001
REVIT
1002
{
1070
     3
1000
938184
1002
}
  0
SPLINE
  5
E4
330
87
100
AcDbEntity
  8
M-PIPE
100
AcDbSpline
210
0.0
220
0.0
230
1.0
 70
     8
 71
     3
 72
    15
 73
    11
 74
     0
 42
0.000000001
 43
0.0000000001
 40
0.0
 40
0.0
 40
0.0
 40
0.0
 40
0.1428571428571428
 40
0.2857142857142857
 40
0.4285714285714286
 40
0.5714285714285714
 40
0.6785714285714287
 40
0.7321428571428572
 40
0.7857142857142857
 40
1.0
 40
1.0
 40
1.0
 40
1.0
 10
794.3004085374447
 20
2077.437499999993
 30
0.0
 10
794.0690104375931
 20
2077.437499999993
 30
0.0
 10
793.6102124071557
 20
2077.385939470437
 30
0.0
 10
792.9455253164001
 20
2077.150042987134
 30
0.0
 10
792.3382848118271
 20
2076.757519368936
 30
0.0
 10
791.8602309927528
 20
2076.261092253167
 30
0.0
 10
791.5624250634711
 20
2075.795413788785
 30
0.0
 10
791.3927388637878
 20
2075.436597537096
 30
0.0
 10
791.1783173830428
 20
2074.870451062873
 30
0.0
 10
791.0952456729806
 20
2074.354135343971
 30
0.0
 10
791.0944438554536
 20
2073.937499999993
 30
0.0
1001
REVIT
1002
{
1070
     3
1000
938184
1002
}
  0
SPLINE
  5
E5
330
87
100
AcDbEntity
  8
M-PIPE
100
AcDbSpline
210
0.0
220
0.0
230
1.0
 70
     8
 71
     3
 72
     8
 73
     4
 74
     0
 42
0.000000001
 43
0.0000000001
 40
0.0
 40
0.0
 40
0.0
 40
0.0
 40
0.007187982341335
 40
0.007187982341335
 40
0.007187982341335
 40
0.007187982341335
 10
800.7467610411925
 20
2077.437499999993
 30
0.0
 10
800.7364876776403
 20
2077.437499999993
 30
0.0
 10
800.7262190471573
 20
2077.437430725064
 30
0.0
 10
800.7159554391378
 20
2077.437292145402
 30
0.0
1001
REVIT
1002
{
1070
     3
1000
938184
1002
}
  0
SPLINE
  5
E6
330
87
100
AcDbEntity
  8
M-PIPE
100
AcDbSpline
210
0.0
220
0.0
230
1.0
 70
     8
 71
     3
 72
     8
 73
     4
 74
     0
 42
0.000000001
 43
0.0000000001
 40
-1.0
 40
-1.0
 40
-1.0
 40
-1.0
 40
-0.9930545138676528
 40
-0.9930545138676528
 40
-0.9930545138676528
 40
-0.9930545138676528
 10
830.5860538451497
 20
2077.437499999993
 30
0.0
 10
830.5964855657242
 20
2077.437499999993
 30
0.0
 10
830.6069083624509
 20
2077.437430753215
 30
0.0
 10
830.6173217636402
 20
2077.437292335899
 30
0.0
1001
REVIT
1002
{
1070
     3
1000
938184
1002
}
  0
SPLINE
  5
E7
330
87
100
AcDbEntity
  8
M-PIPE
100
AcDbSpline
210
0.0
220
0.0
230
1.0
 70
     8
 71
     3
 72
    14
 73
    10
 74
     0
 42
0.000000001
 43
0.0000000001
 40
-1.0
 40
-1.0
 40
-1.0
 40
-1.0
 40
-0.8333333333333332
 40
-0.6666666666666666
 40
-0.5
 40
-0.3333333333333333
 40
-0.25
 40
-0.1666666666666666
 40
0.0
 40
0.0
 40
0.0
 40
0.0
 10
837.032406348938
 20
2077.437499999993
 30
0.0
 10
837.3284488997454
 20
2077.437499999993
 30
0.0
 10
837.9024485176859
 20
2077.357080604086
 30
0.0
 10
838.6717863856679
 20
2077.003410237739
 30
0.0
 10
839.3390652679173
 20
2076.440811924391
 30
0.0
 10
839.7666646567396
 20
2075.829789045378
 30
0.0
 10
840.0047407649781
 20
2075.280717333422
 30
0.0
 10
840.1796276582379
 20
2074.701043060263
 30
0.0
 10
840.2352876526178
 20
2074.242932619092
 30
0.0
 10
840.2383710309289
 20
2073.937499999993
 30
0.0
1001
REVIT
1002
{
1070
     3
1000
938184
1002
}
  0
SPLINE
  5
E8
330
87
100
AcDbEntity
  8
M-PIPE
100
AcDbSpline
210
0.0
220
0.0
230
1.0
 70
     8
 71
     3
 72
    10
 73
     6
 74
     0
 42
0.000000001
 43
0.0000000001
 40
0.0
 40
0.0
 40
0.0
 40
0.0
 40
0.1666666666666666
 40
0.25
 40
0.3333333333333333
 40
0.3333333333333333
 40
0.3333333333333333
 40
0.3333333333333333
 10
797.9484073314445
 20
2073.937499999993
 30
0.0
 10
797.9464548518028
 20
2074.235701056552
 30
0.0
 10
797.9883329382585
 20
2074.685718651069
 30
0.0
 10
798.1347719642473
 20
2075.261489556972
 30
0.0
 10
798.2363785693308
 20
2075.535732507597
 30
0.0
 10
798.2953553959921
 20
2075.66867835127
 30
0.0
1001
REVIT
1002
{
1070
     3
1000
938184
1002
}
  0
SPLINE
  5
E9
330
87
100
AcDbEntity
  8
M-PIPE
100
AcDbSpline
210
0.0
220
0.0
230
1.0
 70
     8
 71
     3
 72
    11
 73
     7
 74
     0
 42
0.000000001
 43
0.0000000001
 40
0.3339187419626505
 40
0.3339187419626505
 40
0.3339187419626505
 40
0.3339187419626505
 40
0.5
 40
0.6666666666666666
 40
0.8333333333333332
 40
1.0
 40
1.0
 40
1.0
 40
1.0
 10
798.2965995252092
 20
2075.671479527723
 30
0.0
 10
798.4143676211427
 20
2075.936320207958
 30
0.0
 10
798.7152964930059
 20
2076.433618366838
 30
0.0
 10
799.3055969387807
 20
2077.005203877356
 30
0.0
 10
799.973319273243
 20
2077.357769609808
 30
0.0
 10
800.4652112876845
 20
2077.437499999993
 30
0.0
 10
800.7163374607618
 20
2077.437499999993
 30
0.0
1001
REVIT
1002
{
1070
     3
1000
938184
1002
}
  0
SPLINE
  5
EA
330
87
100
AcDbEntity
  8
M-PIPE
100
AcDbSpline
210
0.0
220
0.0
230
1.0
 70
     8
 71
     3
 72
    13
 73
     9
 74
     0
 42
0.000000001
 43
0.0000000001
 40
0.0
 40
0.0
 40
0.0
 40
0.0
 40
0.1428571428571428
 40
0.2857142857142857
 40
0.4285714285714286
 40
0.5714285714285714
 40
0.7857142857142857
 40
1.0
 40
1.0
 40
1.0
 40
1.0
 10
830.6164774255789
 20
2077.437499999993
 30
0.0
 10
830.8212058101947
 20
2077.437499999993
 30
0.0
 10
831.2269085987297
 20
2077.382831416092
 30
0.0
 10
831.8106162438747
 20
2077.13536301695
 30
0.0
 10
832.337376254358
 20
2076.729295150165
 30
0.0
 10
832.8572813754497
 20
2076.087070184291
 30
0.0
 10
833.2745124925034
 20
2075.148915557546
 30
0.0
 10
833.3840350257244
 20
2074.342228942342
 30
0.0
 10
833.3844075548952
 20
2073.937499999993
 30
0.0
1001
REVIT
1002
{
1070
     3
1000
938184
1002
}
  0
LINE
  5
EB
330
87
100
AcDbEntity
  8
P-SANR-FIXT
100
AcDbLine
 10
798.1664074431891
 20
1991.437499999997
 30
0.0
 11
798.1664074431891
 21
1986.437499999998
 31
0.0
  0
LINE
  5
EC
330
87
100
AcDbEntity
  8
P-SANR-FIXT
100
AcDbLine
 10
833.1664074431891
 20
1986.437499999998
 30
0.0
 11
833.1664074431891
 21
1991.437499999996
 31
0.0
  0
LINE
  5
ED
330
87
100
AcDbEntity
  8
P-SANR-FIXT
100
AcDbLine
 10
815.6664074431892
 20
1956.437499999998
 30
0.0
 11
831.6664074431892
 21
1956.437499999998
 31
0.0
  0
LINE
  5
EE
330
87
100
AcDbEntity
  8
P-SANR-FIXT
100
AcDbLine
 10
790.6664074431891
 20
1955.437499999998
 30
0.0
 11
798.6664074431891
 21
1955.437499999998
 31
0.0
  0
LINE
  5
EF
330
87
100
AcDbEntity
  8
P-SANR-FIXT
100
AcDbLine
 10
798.1664074431891
 20
1986.437499999998
 30
0.0
 11
790.5664074431891
 21
1986.437499999998
 31
0.0
  0
LINE
  5
F0
330
87
100
AcDbEntity
  8
P-SANR-FIXT
100
AcDbLine
 10
790.5664074431891
 20
1986.437499999998
 30
0.0
 11
787.2145083008627
 21
1989.789399142325
 31
0.0
  0
LINE
  5
F1
330
87
100
AcDbEntity
  8
P-SANR-FIXT
100
AcDbLine
 10
787.2052480202977
 20
1989.79865942289
 30
0.0
 11
787.1664074431893
 21
1989.837499999998
 31
0.0
  0
LINE
  5
F2
330
87
100
AcDbEntity
  8
P-SANR-FIXT
100
AcDbLine
 10
787.1664074431893
 20
1952.037499999998
 30
0.0
 11
787.2053092877583
 21
1952.076401844567
 31
0.0
  0
LINE
  5
F3
330
87
100
AcDbEntity
  8
P-SANR-FIXT
100
AcDbLine
 10
787.2145083008624
 20
1952.085600857671
 30
0.0
 11
790.5664074431891
 21
1955.437499999998
 31
0.0
  0
LINE
  5
F4
330
87
100
AcDbEntity
  8
P-SANR-FIXT
100
AcDbLine
 10
798.9332069125118
 20
2043.937499999994
 30
0.0
 11
798.9332069125118
 21
2037.934701883423
 31
0.0
  0
LINE
  5
F5
330
87
100
AcDbEntity
  8
P-SANR-FIXT
100
AcDbLine
 10
832.3996079738664
 20
2024.610146563086
 30
0.0
 11
832.3996079738664
 21
2043.937499999994
 31
0.0
  0
LINE
  5
F6
330
87
100
AcDbEntity
  8
P-SANR-FIXT
100
AcDbLine
 10
798.9332069125118
 20
2024.610146563086
 30
0.0
 11
798.9332069125118
 21
2019.937499999993
 31
0.0
  0
LINE
  5
F7
330
87
100
AcDbEntity
  8
P-SANR-FIXT
100
AcDbLine
 10
832.3996079738664
 20
2019.937499999993
 30
0.0
 11
832.3996079738664
 21
2024.610146563086
 31
0.0
  0
LINE
  5
F8
330
87
100
AcDbEntity
  8
P-SANR-FIXT
100
AcDbLine
 10
789.1664074431932
 20
2019.937499999993
 30
0.0
 11
781.1664074431936
 21
2014.337499999994
 31
0.0
  0
LINE
  5
F9
330
87
100
AcDbEntity
  8
P-SANR-FIXT
100
AcDbLine
 10
850.1664074431847
 20
2014.337499999994
 30
0.0
 11
842.166407443185
 21
2019.937499999993
 31
0.0
  0
LINE
  5
FA
330
87
100
AcDbEntity
  8
P-SANR-FIXT
100
AcDbLine
 10
781.1664074431936
 20
2014.337499999994
 30
0.0
 11
781.1664074431936
 21
2007.93470188336
 31
0.0
  0
LINE
  5
FB
330
87
100
AcDbEntity
  8
P-SANR-FIXT
100
AcDbLine
 10
850.1664074431847
 20
2007.93470188336
 30
0.0
 11
850.1664074431847
 21
2014.337499999994
 31
0.0
  0
LINE
  5
FC
330
87
100
AcDbEntity
  8
P-SANR-FIXT
100
AcDbLine
 10
832.666407443189
 20
1955.437499999998
 30
0.0
 11
840.766407443189
 21
1955.437499999998
 31
0.0
  0
LINE
  5
FD
330
87
100
AcDbEntity
  8
P-SANR-FIXT
100
AcDbLine
 10
840.6664074431891
 20
1986.437499999998
 30
0.0
 11
833.1664074431891
 21
1986.437499999998
 31
0.0
  0
LINE
  5
FE
330
87
100
AcDbEntity
  8
P-SANR-FIXT
100
AcDbLine
 10
781.1664074431936
 20
2007.93470188336
 30
0.0
 11
782.1636093265594
 21
2006.937499999994
 31
0.0
  0
LINE
  5
FF
330
87
100
AcDbEntity
  8
P-SANR-FIXT
100
AcDbLine
 10
849.1692055598189
 20
2006.937499999994
 30
0.0
 11
850.1664074431847
 21
2007.93470188336
 31
0.0
  0
LINE
  5
100
330
87
100
AcDbEntity
  8
P-SANR-FIXT
100
AcDbLine
 10
786.3941716789017
 20
2006.937499999994
 30
0.0
 11
788.9922478902149
 21
2005.437500000015
 31
0.0
  0
LINE
  5
101
330
87
100
AcDbEntity
  8
P-SANR-FIXT
100
AcDbLine
 10
842.3405669961633
 20
2005.437500000015
 30
0.0
 11
844.9386432074765
 21
2006.937499999994
 31
0.0
  0
LINE
  5
102
330
87
100
AcDbEntity
  8
P-SANR-FIXT
100
AcDbLine
 10
797.166407443224
 20
2005.437500000015
 30
0.0
 11
797.166407443224
 21
2000.937499999997
 31
0.0
  0
LINE
  5
103
330
87
100
AcDbEntity
  8
P-SANR-FIXT
100
AcDbLine
 10
834.1664074431541
 20
2000.937499999996
 30
0.0
 11
834.1664074431541
 21
2005.437500000015
 31
0.0
  0
LINE
  5
104
330
87
100
AcDbEntity
  8
P-SANR-FIXT
100
AcDbLine
 10
798.9332069125118
 20
2037.934701883423
 30
0.0
 11
789.6664074431931
 21
2037.934701883423
 31
0.0
  0
LINE
  5
105
330
87
100
AcDbEntity
  8
P-SANR-FIXT
100
AcDbLine
 10
789.6664074431931
 20
2024.610146563086
 30
0.0
 11
798.9332069125118
 21
2024.610146563086
 31
0.0
  0
LINE
  5
106
330
87
100
AcDbEntity
  8
P-SANR-FIXT
100
AcDbLine
 10
844.1664074431891
 20
1989.837499999998
 30
0.0
 11
844.1275717702122
 21
1989.798664327021
 31
0.0
  0
LINE
  5
107
330
87
100
AcDbEntity
  8
P-SANR-FIXT
100
AcDbLine
 10
844.1183065855161
 20
1989.789399142325
 30
0.0
 11
840.766407443189
 21
1986.437499999998
 31
0.0
  0
LINE
  5
108
330
87
100
AcDbEntity
  8
P-SANR-FIXT
100
AcDbLine
 10
840.766407443189
 20
1955.437499999998
 30
0.0
 11
844.1183065855161
 21
1952.085600857671
 31
0.0
  0
LINE
  5
109
330
87
100
AcDbEntity
  8
P-SANR-FIXT
100
AcDbLine
 10
844.1275382549152
 20
1952.076369188272
 30
0.0
 11
844.1664074431892
 21
1952.037499999998
 31
0.0
  0
LINE
  5
10A
330
87
100
AcDbEntity
  8
P-SANR-FIXT
100
AcDbLine
 10
831.6664074431892
 20
1956.437499999998
 30
0.0
 11
832.666407443189
 21
1955.437499999998
 31
0.0
  0
LINE
  5
10B
330
87
100
AcDbEntity
  8
P-SANR-FIXT
100
AcDbLine
 10
799.6664074431889
 20
1956.437499999998
 30
0.0
 11
815.6664074431892
 21
1956.437499999998
 31
0.0
  0
LINE
  5
10C
330
87
100
AcDbEntity
  8
P-SANR-FIXT
100
AcDbLine
 10
798.6664074431891
 20
1955.437499999998
 30
0.0
 11
799.6664074431889
 21
1956.437499999998
 31
0.0
  0
SPLINE
  5
10D
330
87
100
AcDbEntity
  8
P-SANR-FIXT
100
AcDbSpline
210
0.0
220
0.0
230
1.0
 70
     8
 71
     3
 72
     8
 73
     4
 74
     0
 42
0.000000001
 43
0.0000000001
 40
0.4209623225331148
 40
0.4209623225331148
 40
0.4209623225331148
 40
0.4209623225331148
 40
0.4228363528180097
 40
0.4228363528180097
 40
0.4228363528180097
 40
0.4228363528180097
 10
828.6188518819644
 20
1979.409349260461
 30
0.0
 10
828.6139595756843
 20
1979.401885847033
 30
0.0
 10
828.6090673552143
 20
1979.394417400905
 30
0.0
 10
828.604175236189
 20
1979.386943908748
 30
0.0
  0
SPLINE
  5
10E
330
87
100
AcDbEntity
  8
P-SANR-FIXT
100
AcDbSpline
210
0.0
220
0.0
230
1.0
 70
     8
 71
     3
 72
     8
 73
     4
 74
     0
 42
0.000000001
 43
0.0000000001
 40
0.5771636471819557
 40
0.5771636471819557
 40
0.5771636471819557
 40
0.5771636471819557
 40
0.5790376774668524
 40
0.5790376774668524
 40
0.5790376774668524
 40
0.5790376774668524
 10
802.728257411517
 20
1979.386989612382
 30
0.0
 10
802.7233744760355
 20
1979.394462012767
 30
0.0
 10
802.7184928627189
 20
1979.401926554246
 30
0.0
 10
802.7136122624209
 20
1979.409383939446
 30
0.0
  0
SPLINE
  5
10F
330
87
100
AcDbEntity
  8
P-SANR-FIXT
100
AcDbSpline
210
0.0
220
0.0
230
1.0
 70
     8
 71
     3
 72
     9
 73
     5
 74
     0
 42
0.000000001
 43
0.0000000001
 40
0.0
 40
0.0
 40
0.0
 40
0.0
 40
0.5
 40
1.0
 40
1.0
 40
1.0
 40
1.0
 10
798.1664074431878
 20
1986.437499999997
 30
0.0
 10
798.1664074431878
 20
1986.435583545818
 30
0.0
 10
798.2535620812996
 20
1986.339197845483
 30
0.0
 10
798.5038006898565
 20
1986.057706561196
 30
0.0
 10
798.6664074431878
 20
1985.870684523065
 30
0.0
  0
SPLINE
  5
110
330
87
100
AcDbEntity
  8
P-SANR-FIXT
100
AcDbSpline
210
0.0
220
0.0
230
1.0
 70
     8
 71
     3
 72
     9
 73
     5
 74
     0
 42
0.000000001
 43
0.0000000001
 40
0.0
 40
0.0
 40
0.0
 40
0.0
 40
0.5
 40
1.0
 40
1.0
 40
1.0
 40
1.0
 10
798.6664074431878
 20
1985.870684523065
 30
0.0
 10
798.8026363332218
 20
1985.566504497393
 30
0.0
 10
799.1163976634331
 20
1984.881645491322
 30
0.0
 10
799.479651388119
 20
1984.043788575797
 30
0.0
 10
799.6664074431878
 20
1983.586610640671
 30
0.0
  0
SPLINE
  5
111
330
87
100
AcDbEntity
  8
P-SANR-FIXT
100
AcDbSpline
210
0.0
220
0.0
230
1.0
 70
     8
 71
     3
 72
    10
 73
     6
 74
     0
 42
0.000000001
 43
0.0000000001
 40
0.0
 40
0.0
 40
0.0
 40
0.0
 40
0.3333333333333333
 40
0.6666666666666666
 40
1.0
 40
1.0
 40
1.0
 40
1.0
 10
799.6664074431878
 20
1983.586610640671
 30
0.0
 10
799.9488475237708
 20
1983.225662076913
 30
0.0
 10
800.5697731871805
 20
1982.434471018045
 30
0.0
 10
801.615471091161
 20
1981.026355625771
 30
0.0
 10
802.3484195693571
 20
1979.966953514765
 30
0.0
 10
802.7166599748824
 20
1979.404846661903
 30
0.0
  0
SPLINE
  5
112
330
87
100
AcDbEntity
  8
P-SANR-FIXT
100
AcDbSpline
210
0.0
220
0.0
230
1.0
 70
     8
 71
     3
 72
     8
 73
     4
 74
     0
 42
0.000000001
 43
0.0000000001
 40
0.0
 40
0.0
 40
0.0
 40
0.0
 40
0.0833333333333333
 40
0.0833333333333333
 40
0.0833333333333333
 40
0.0833333333333333
 10
802.7166599748824
 20
1979.404846661903
 30
0.0
 10
802.9408241652237
 20
1979.328369960829
 30
0.0
 10
803.1671366923802
 20
1979.237637688584
 30
0.0
 10
803.3955867275061
 20
1979.13289082546
 30
0.0
  0
SPLINE
  5
113
330
87
100
AcDbEntity
  8
P-SANR-FIXT
100
AcDbSpline
210
0.0
220
0.0
230
1.0
 70
     8
 71
     3
 72
     8
 73
     4
 74
     0
 42
0.000000001
 43
0.0000000001
 40
0.1666666666666666
 40
0.1666666666666666
 40
0.1666666666666666
 40
0.1666666666666666
 40
0.1760721152150405
 40
0.1760721152150405
 40
0.1760721152150405
 40
0.1760721152150405
 10
804.0873385279462
 20
1978.776847443746
 30
0.0
 10
804.1136039076688
 20
1978.761888822976
 30
0.0
 10
804.1398980931043
 20
1978.746756291625
 30
0.0
 10
804.1662143323559
 20
1978.731448602286
 30
0.0
  0
SPLINE
  5
114
330
87
100
AcDbEntity
  8
P-SANR-FIXT
100
AcDbSpline
210
0.0
220
0.0
230
1.0
 70
     8
 71
     3
 72
     8
 73
     4
 74
     0
 42
0.000000001
 43
0.0000000001
 40
0.25
 40
0.25
 40
0.25
 40
0.25
 40
0.3333333333333333
 40
0.3333333333333333
 40
0.3333333333333333
 40
0.3333333333333333
 10
804.7875689107868
 20
1978.337417863134
 30
0.0
 10
805.020244170066
 20
1978.176832022283
 30
0.0
 10
805.2502667647228
 20
1978.001636843744
 30
0.0
 10
805.4768210253778
 20
1977.810570202163
 30
0.0
  0
SPLINE
  5
115
330
87
100
AcDbEntity
  8
P-SANR-FIXT
100
AcDbSpline
210
0.0
220
0.0
230
1.0
 70
     8
 71
     3
 72
     8
 73
     4
 74
     0
 42
0.000000001
 43
0.0000000001
 40
0.4029689364483905
 40
0.4029689364483905
 40
0.4029689364483905
 40
0.4029689364483905
 40
0.4166666666666666
 40
0.4166666666666666
 40
0.4166666666666666
 40
0.4166666666666666
 10
806.0323971707266
 20
1977.297824655991
 30
0.0
 10
806.067973833584
 20
1977.262157378241
 30
0.0
 10
806.1034337372218
 20
1977.226152579853
 30
0.0
 10
806.1385392799367
 20
1977.189693792453
 30
0.0
  0
SPLINE
  5
116
330
87
100
AcDbEntity
  8
P-SANR-FIXT
100
AcDbSpline
210
0.0
220
0.0
230
1.0
 70
     8
 71
     3
 72
     8
 73
     4
 74
     0
 42
0.000000001
 43
0.0000000001
 40
0.5
 40
0.5
 40
0.5
 40
0.5
 40
0.5070554026901678
 40
0.5070554026901678
 40
0.5070554026901678
 40
0.5070554026901678
 10
806.7547725120258
 20
1976.483226341143
 30
0.0
 10
806.7713481605993
 20
1976.462079339662
 30
0.0
 10
806.7879627084723
 20
1976.440882861415
 30
0.0
 10
806.8045998816623
 20
1976.41963163111
 30
0.0
  0
SPLINE
  5
117
330
87
100
AcDbEntity
  8
P-SANR-FIXT
100
AcDbSpline
210
0.0
220
0.0
230
1.0
 70
     8
 71
     3
 72
     8
 73
     4
 74
     0
 42
0.000000001
 43
0.0000000001
 40
0.5833333333333333
 40
0.5833333333333333
 40
0.5833333333333333
 40
0.5833333333333333
 40
0.6080935082982335
 40
0.6080935082982335
 40
0.6080935082982335
 40
0.6080935082982335
 10
807.3074642341515
 20
1975.692928343714
 30
0.0
 10
807.3585039641809
 20
1975.61088405078
 30
0.0
 10
807.4097999773851
 20
1975.528351247852
 30
0.0
 10
807.4600022723045
 20
1975.44491766481
 30
0.0
  0
SPLINE
  5
118
330
87
100
AcDbEntity
  8
P-SANR-FIXT
100
AcDbSpline
210
0.0
220
0.0
230
1.0
 70
     8
 71
     3
 72
     8
 73
     4
 74
     0
 42
0.000000001
 43
0.0000000001
 40
0.6666666666666666
 40
0.6666666666666666
 40
0.6666666666666666
 40
0.6666666666666666
 40
0.75
 40
0.75
 40
0.75
 40
0.75
 10
807.780047202819
 20
1974.832220766744
 30
0.0
 10
807.9224209857862
 20
1974.535507901449
 30
0.0
 10
808.0216405855725
 20
1974.221979988543
 30
0.0
 10
808.0972259340132
 20
1973.899026963996
 30
0.0
  0
SPLINE
  5
119
330
87
100
AcDbEntity
  8
P-SANR-FIXT
100
AcDbSpline
210
0.0
220
0.0
230
1.0
 70
     8
 71
     3
 72
     8
 73
     4
 74
     0
 42
0.000000001
 43
0.0000000001
 40
0.805629077411276
 40
0.805629077411276
 40
0.805629077411276
 40
0.805629077411276
 40
0.8333333333333333
 40
0.8333333333333333
 40
0.8333333333333333
 40
0.8333333333333333
 10
808.3546289592126
 20
1973.280619184605
 30
0.0
 10
808.3834164696638
 20
1973.173474153497
 30
0.0
 10
808.4067807683188
 20
1973.064739290019
 30
0.0
 10
808.4261891046285
 20
1972.954839716874
 30
0.0
  0
SPLINE
  5
11A
330
87
100
AcDbEntity
  8
P-SANR-FIXT
100
AcDbSpline
210
0.0
220
0.0
230
1.0
 70
     8
 71
     3
 72
     8
 73
     4
 74
     0
 42
0.000000001
 43
0.0000000001
 40
0.9035785921161698
 40
0.9035785921161698
 40
0.9035785921161698
 40
0.9035785921161698
 40
0.9166666666666667
 40
0.9166666666666667
 40
0.9166666666666667
 40
0.9166666666666667
 10
808.5865586739394
 20
1972.119575078473
 30
0.0
 10
808.5935610616276
 20
1972.066868684109
 30
0.0
 10
808.5993064264609
 20
1972.013877100457
 30
0.0
 10
808.6041192909952
 20
1971.960673463852
 30
0.0
  0
SPLINE
  5
11B
330
87
100
AcDbEntity
  8
P-SANR-FIXT
100
AcDbSpline
210
0.0
220
0.0
230
1.0
 70
     8
 71
     3
 72
     8
 73
     4
 74
     0
 42
0.000000001
 43
0.0000000001
 40
0.0833333333333333
 40
0.0833333333333333
 40
0.0833333333333333
 40
0.0833333333333333
 40
0.0964214078838153
 40
0.0964214078838153
 40
0.0964214078838153
 40
0.0964214078838153
 10
822.7266094796087
 20
1971.961104235816
 30
0.0
 10
822.7327038750358
 20
1972.014043243014
 30
0.0
 10
822.7392543853927
 20
1972.066867875165
 30
0.0
 10
822.7462578063178
 20
1972.119572778692
 30
0.0
  0
SPLINE
  5
11C
330
87
100
AcDbEntity
  8
P-SANR-FIXT
100
AcDbSpline
210
0.0
220
0.0
230
1.0
 70
     8
 71
     3
 72
     8
 73
     4
 74
     0
 42
0.000000001
 43
0.0000000001
 40
0.1666666666666666
 40
0.1666666666666666
 40
0.1666666666666666
 40
0.1666666666666666
 40
0.1943709225887068
 40
0.1943709225887068
 40
0.1943709225887068
 40
0.1943709225887068
 10
822.897621112728
 20
1972.957084510088
 30
0.0
 10
822.922533626407
 20
1973.065611935075
 30
0.0
 10
822.9494007991968
 20
1973.173469896526
 30
0.0
 10
822.9781918865288
 20
1973.280608536543
 30
0.0
  0
SPLINE
  5
11D
330
87
100
AcDbEntity
  8
P-SANR-FIXT
100
AcDbSpline
210
0.0
220
0.0
230
1.0
 70
     8
 71
     3
 72
     8
 73
     4
 74
     0
 42
0.000000001
 43
0.0000000001
 40
0.25
 40
0.25
 40
0.25
 40
0.25
 40
0.3333333333333333
 40
0.3333333333333333
 40
0.3333333333333333
 40
0.3333333333333333
 10
823.1746159711692
 20
1973.916952721001
 30
0.0
 10
823.2840751980505
 20
1974.229946991656
 30
0.0
 10
823.4104107195092
 20
1974.535462613321
 30
0.0
 10
823.5527676835566
 20
1974.832220766744
 30
0.0
  0
SPLINE
  5
11E
330
87
100
AcDbEntity
  8
P-SANR-FIXT
100
AcDbSpline
210
0.0
220
0.0
230
1.0
 70
     8
 71
     3
 72
     8
 73
     4
 74
     0
 42
0.000000001
 43
0.0000000001
 40
0.3919064917017319
 40
0.3919064917017319
 40
0.3919064917017319
 40
0.3919064917017319
 40
0.4166666666666666
 40
0.4166666666666666
 40
0.4166666666666666
 40
0.4166666666666666
 10
823.8758384413452
 20
1975.443763255936
 30
0.0
 10
823.9244498795462
 20
1975.527803780137
 30
0.0
 10
823.9743073634269
 20
1975.610897614485
 30
0.0
 10
824.0253424214623
 20
1975.692959714018
 30
0.0
  0
SPLINE
  5
11F
330
87
100
AcDbEntity
  8
P-SANR-FIXT
100
AcDbSpline
210
0.0
220
0.0
230
1.0
 70
     8
 71
     3
 72
     8
 73
     4
 74
     0
 42
0.000000001
 43
0.0000000001
 40
0.4929445973097919
 40
0.4929445973097919
 40
0.4929445973097919
 40
0.4929445973097919
 40
0.5
 40
0.5
 40
0.5
 40
0.5
 10
824.528546044797
 20
1976.419472655331
 30
0.0
 10
824.5449674023261
 20
1976.440827527052
 30
0.0
 10
824.561466416029
 20
1976.462081230764
 30
0.0
 10
824.5780423743498
 20
1976.483226341143
 30
0.0
  0
SPLINE
  5
120
330
87
100
AcDbEntity
  8
P-SANR-FIXT
100
AcDbSpline
210
0.0
220
0.0
230
1.0
 70
     8
 71
     3
 72
     8
 73
     4
 74
     0
 42
0.000000001
 43
0.0000000001
 40
0.5833333333333333
 40
0.5833333333333333
 40
0.5833333333333333
 40
0.5833333333333333
 40
0.5970310635515668
 40
0.5970310635515668
 40
0.5970310635515668
 40
0.5970310635515668
 10
825.1942756064391
 20
1977.189693792454
 30
0.0
 10
825.2294556772177
 20
1977.226109423369
 30
0.0
 10
825.2648385073703
 20
1977.262203676417
 30
0.0
 10
825.300411334579
 20
1977.297940720044
 30
0.0
  0
SPLINE
  5
121
330
87
100
AcDbEntity
  8
P-SANR-FIXT
100
AcDbSpline
210
0.0
220
0.0
230
1.0
 70
     8
 71
     3
 72
     8
 73
     4
 74
     0
 42
0.000000001
 43
0.0000000001
 40
0.6666666666666666
 40
0.6666666666666666
 40
0.6666666666666666
 40
0.6666666666666666
 40
0.75
 40
0.75
 40
0.75
 40
0.75
 10
825.855993860998
 20
1977.810570202163
 30
0.0
 10
826.082061099094
 20
1978.001969015756
 30
0.0
 10
826.3121838495401
 20
1978.173008879566
 30
0.0
 10
826.5452459755891
 20
1978.337417863134
 30
0.0
  0
SPLINE
  5
122
330
87
100
AcDbEntity
  8
P-SANR-FIXT
100
AcDbSpline
210
0.0
220
0.0
230
1.0
 70
     8
 71
     3
 72
     8
 73
     4
 74
     0
 42
0.000000001
 43
0.0000000001
 40
0.8239278847849169
 40
0.8239278847849169
 40
0.8239278847849169
 40
0.8239278847849169
 40
0.8333333333333332
 40
0.8333333333333332
 40
0.8333333333333332
 40
0.8333333333333332
 10
827.1666051178211
 20
1978.731444488128
 30
0.0
 10
827.1929185080812
 20
1978.746754745765
 30
0.0
 10
827.2192367530395
 20
1978.762057812627
 30
0.0
 10
827.2454763584299
 20
1978.776847443747
 30
0.0
  0
SPLINE
  5
123
330
87
100
AcDbEntity
  8
P-SANR-FIXT
100
AcDbSpline
210
0.0
220
0.0
230
1.0
 70
     8
 71
     3
 72
     8
 73
     4
 74
     0
 42
0.000000001
 43
0.0000000001
 40
0.9166666666666667
 40
0.9166666666666667
 40
0.9166666666666667
 40
0.9166666666666667
 40
1.0
 40
1.0
 40
1.0
 40
1.0
 10
827.9372281588699
 20
1979.13289082546
 30
0.0
 10
828.1656781939958
 20
1979.237637688584
 30
0.0
 10
828.3919907211522
 20
1979.328369960829
 30
0.0
 10
828.6161549114938
 20
1979.404846661903
 30
0.0
  0
SPLINE
  5
124
330
87
100
AcDbEntity
  8
P-SANR-FIXT
100
AcDbSpline
210
0.0
220
0.0
230
1.0
 70
     8
 71
     3
 72
    10
 73
     6
 74
     0
 42
0.000000001
 43
0.0000000001
 40
0.0
 40
0.0
 40
0.0
 40
0.0
 40
0.3333333333333333
 40
0.6666666666666666
 40
1.0
 40
1.0
 40
1.0
 40
1.0
 10
828.6161549114938
 20
1979.404846661903
 30
0.0
 10
828.9843953170189
 20
1979.966953514765
 30
0.0
 10
829.7173437952148
 20
1981.026355625771
 30
0.0
 10
830.7630416991951
 20
1982.434471018044
 30
0.0
 10
831.3839673626048
 20
1983.225662076913
 30
0.0
 10
831.666407443188
 20
1983.586610640671
 30
0.0
  0
SPLINE
  5
125
330
87
100
AcDbEntity
  8
P-SANR-FIXT
100
AcDbSpline
210
0.0
220
0.0
230
1.0
 70
     8
 71
     3
 72
     9
 73
     5
 74
     0
 42
0.000000001
 43
0.0000000001
 40
0.0
 40
0.0
 40
0.0
 40
0.0
 40
0.5
 40
1.0
 40
1.0
 40
1.0
 40
1.0
 10
831.666407443188
 20
1983.586610640671
 30
0.0
 10
831.8531634982566
 20
1984.043788575797
 30
0.0
 10
832.2164172229424
 20
1984.881645491322
 30
0.0
 10
832.5301785531538
 20
1985.566504497393
 30
0.0
 10
832.6664074431878
 20
1985.870684523065
 30
0.0
  0
SPLINE
  5
126
330
87
100
AcDbEntity
  8
P-SANR-FIXT
100
AcDbSpline
210
0.0
220
0.0
230
1.0
 70
     8
 71
     3
 72
     9
 73
     5
 74
     0
 42
0.000000001
 43
0.0000000001
 40
0.0
 40
0.0
 40
0.0
 40
0.0
 40
0.5
 40
1.0
 40
1.0
 40
1.0
 40
1.0
 10
832.6664074431878
 20
1985.870684523065
 30
0.0
 10
832.829014196519
 20
1986.057706561196
 30
0.0
 10
833.0792528050759
 20
1986.339197845482
 30
0.0
 10
833.1664074431877
 20
1986.435583545817
 30
0.0
 10
833.1664074431877
 20
1986.437499999997
 30
0.0
  0
LINE
  5
127
330
87
100
AcDbEntity
  8
P-SANR-FIXT
100
AcDbLine
 10
831.666407443188
 20
1956.437499999997
 30
0.0
 11
831.666407443188
 21
1961.937499999997
 31
0.0
  0
SPLINE
  5
128
330
87
100
AcDbEntity
  8
P-SANR-FIXT
100
AcDbSpline
210
0.0
220
0.0
230
1.0
 70
     8
 71
     3
 72
     8
 73
     4
 74
     0
 42
0.000000001
 43
0.0000000001
 40
0.0714285714285714
 40
0.0714285714285714
 40
0.0714285714285714
 40
0.0714285714285714
 40
0.080646036976374
 40
0.080646036976374
 40
0.080646036976374
 40
0.080646036976374
 10
830.6222820079675
 20
1962.002895179154
 30
0.0
 10
830.5782095102255
 20
1962.007931105057
 30
0.0
 10
830.5342493960386
 20
1962.013250392895
 30
0.0
 10
830.4903970946671
 20
1962.018859925361
 30
0.0
  0
SPLINE
  5
129
330
87
100
AcDbEntity
  8
P-SANR-FIXT
100
AcDbSpline
210
0.0
220
0.0
230
1.0
 70
     8
 71
     3
 72
     8
 73
     4
 74
     0
 42
0.000000001
 43
0.0000000001
 40
0.1428571428571428
 40
0.1428571428571428
 40
0.1428571428571428
 40
0.1428571428571428
 40
0.1632956631942897
 40
0.1632956631942897
 40
0.1632956631942897
 40
0.1632956631942897
 10
829.6158130463796
 20
1962.174220783871
 30
0.0
 10
829.5213416224422
 20
1962.196041765881
 30
0.0
 10
829.4272486041013
 20
1962.219518195326
 30
0.0
 10
829.3335948610705
 20
1962.244599999296
 30
0.0
  0
SPLINE
  5
12A
330
87
100
AcDbEntity
  8
P-SANR-FIXT
100
AcDbSpline
210
0.0
220
0.0
230
1.0
 70
     8
 71
     3
 72
     9
 73
     5
 74
     0
 42
0.000000001
 43
0.0000000001
 40
0.2142857142857143
 40
0.2142857142857143
 40
0.2142857142857143
 40
0.2142857142857143
 40
0.25
 40
0.2857142857142857
 40
0.2857142857142857
 40
0.2857142857142857
 40
0.2857142857142857
 10
828.6417997292678
 20
1962.46152056603
 30
0.0
 10
828.4826410411945
 20
1962.518800899407
 30
0.0
 10
828.1679337525616
 20
1962.642402512082
 30
0.0
 10
827.864949690713
 20
1962.778579630407
 30
0.0
 10
827.7158445441004
 20
1962.850902892415
 30
0.0
  0
SPLINE
  5
12B
330
87
100
AcDbEntity
  8
P-SANR-FIXT
100
AcDbSpline
210
0.0
220
0.0
230
1.0
 70
     8
 71
     3
 72
     8
 73
     4
 74
     0
 42
0.000000001
 43
0.0000000001
 40
0.3311095605981333
 40
0.3311095605981333
 40
0.3311095605981333
 40
0.3311095605981333
 40
0.3571428571428571
 40
0.3571428571428571
 40
0.3571428571428571
 40
0.3571428571428571
 10
827.1591180883699
 20
1963.146641976582
 30
0.0
 10
827.0550115292547
 20
1963.206882495987
 30
0.0
 10
826.9522653610154
 20
1963.269187538288
 30
0.0
 10
826.8509295410936
 20
1963.333448866311
 30
0.0
  0
SPLINE
  5
12C
330
87
100
AcDbEntity
  8
P-SANR-FIXT
100
AcDbSpline
210
0.0
220
0.0
230
1.0
 70
     8
 71
     3
 72
     8
 73
     4
 74
     0
 42
0.000000001
 43
0.0000000001
 40
0.4162889196439068
 40
0.4162889196439068
 40
0.4162889196439068
 40
0.4162889196439068
 40
0.4285714285714286
 40
0.4285714285714286
 40
0.4285714285714286
 40
0.4285714285714286
 10
826.1826858408484
 20
1963.800975982099
 30
0.0
 10
826.1380216800274
 20
1963.835328875579
 30
0.0
 10
826.0936958045977
 20
1963.870083437021
 30
0.0
 10
826.0497152028445
 20
1963.905233773718
 30
0.0
  0
SPLINE
  5
12D
330
87
100
AcDbEntity
  8
P-SANR-FIXT
100
AcDbSpline
210
0.0
220
0.0
230
1.0
 70
     8
 71
     3
 72
     8
 73
     4
 74
     0
 42
0.000000001
 43
0.0000000001
 40
0.5
 40
0.5
 40
0.5
 40
0.5
 40
0.5014893358614401
 40
0.5014893358614401
 40
0.5014893358614401
 40
0.5014893358614401
 10
825.3178857108796
 20
1964.558223929783
 30
0.0
 10
825.3130499954959
 20
1964.563036328579
 30
0.0
 10
825.3082196157517
 20
1964.567854404797
 30
0.0
 10
825.3033945753699
 20
1964.572678154616
 30
0.0
  0
SPLINE
  5
12E
330
87
100
AcDbEntity
  8
P-SANR-FIXT
100
AcDbSpline
210
0.0
220
0.0
230
1.0
 70
     8
 71
     3
 72
     8
 73
     4
 74
     0
 42
0.000000001
 43
0.0000000001
 40
0.5714285714285714
 40
0.5714285714285714
 40
0.5714285714285714
 40
0.5714285714285714
 40
0.586453906276914
 40
0.586453906276914
 40
0.586453906276914
 40
0.586453906276914
 10
824.6593520186261
 20
1965.289387547405
 30
0.0
 10
824.6158280167954
 20
1965.343349680432
 30
0.0
 10
824.5728632620988
 20
1965.397870470917
 30
0.0
 10
824.5304834288027
 20
1965.452932878203
 30
0.0
  0
SPLINE
  5
12F
330
87
100
AcDbEntity
  8
P-SANR-FIXT
100
AcDbSpline
210
0.0
220
0.0
230
1.0
 70
     8
 71
     3
 72
    10
 73
     6
 74
     0
 42
0.000000001
 43
0.0000000001
 40
0.6428571428571427
 40
0.6428571428571427
 40
0.6428571428571427
 40
0.6428571428571427
 40
0.6785714285714287
 40
0.7321428571428572
 40
0.7857142857142857
 40
0.7857142857142857
 40
0.7857142857142857
 40
0.7857142857142857
 10
824.0794618152886
 20
1966.09509278459
 30
0.0
 10
823.9900257337335
 20
1966.235067325096
 30
0.0
 10
823.7758617013989
 20
1966.591677759873
 30
0.0
 10
823.475127378235
 20
1967.18680889206
 30
0.0
 10
823.280863922066
 20
1967.658345671054
 30
0.0
 10
823.1953134218576
 20
1967.899330681869
 30
0.0
  0
SPLINE
  5
130
330
87
100
AcDbEntity
  8
P-SANR-FIXT
100
AcDbSpline
210
0.0
220
0.0
230
1.0
 70
     8
 71
     3
 72
     9
 73
     5
 74
     0
 42
0.000000001
 43
0.0000000001
 40
0.8372804090521954
 40
0.8372804090521954
 40
0.8372804090521954
 40
0.8372804090521954
 40
0.8392857142857142
 40
0.8571428571428569
 40
0.8571428571428569
 40
0.8571428571428569
 40
0.8571428571428569
 10
822.973528105931
 20
1968.605132872242
 30
0.0
 10
822.9710438202031
 20
1968.614393644705
 30
0.0
 10
822.9466588643052
 20
1968.706170271444
 30
0.0
 10
822.9226078851915
 20
1968.797914026813
 30
0.0
 10
822.9022406775284
 20
1968.88068633638
 30
0.0
  0
SPLINE
  5
131
330
87
100
AcDbEntity
  8
P-SANR-FIXT
100
AcDbSpline
210
0.0
220
0.0
230
1.0
 70
     8
 71
     3
 72
     8
 73
     4
 74
     0
 42
0.000000001
 43
0.0000000001
 40
0.9193422566562926
 40
0.9193422566562926
 40
0.9193422566562926
 40
0.9193422566562926
 40
0.9285714285714282
 40
0.9285714285714282
 40
0.9285714285714282
 40
0.9285714285714282
 10
822.7459014642892
 20
1969.761044846342
 30
0.0
 10
822.7401562907481
 20
1969.805182544081
 30
0.0
 10
822.7352716719151
 20
1969.849551650636
 30
0.0
 10
822.731058772891
 20
1969.89410155338
 30
0.0
  0
SPLINE
  5
132
330
87
100
AcDbEntity
  8
P-SANR-FIXT
100
AcDbSpline
210
0.0
220
0.0
230
1.0
 70
     8
 71
     3
 72
     8
 73
     4
 74
     0
 42
0.000000001
 43
0.0000000001
 40
0.5
 40
0.5
 40
0.5
 40
0.5
 40
0.6227652562395862
 40
0.6227652562395862
 40
0.6227652562395862
 40
0.6227652562395862
 10
830.1093720038345
 20
1979.801790193837
 30
0.0
 10
830.2341936817175
 20
1979.823406036613
 30
0.0
 10
830.3606241347139
 20
1979.838555639316
 30
0.0
 10
830.4879506679377
 20
1979.850101389437
 30
0.0
  0
LINE
  5
133
330
87
100
AcDbEntity
  8
P-SANR-FIXT
100
AcDbLine
 10
831.666407443188
 20
1979.937499999997
 30
0.0
 11
831.666407443188
 21
1983.586610640671
 31
0.0
  0
LINE
  5
134
330
87
100
AcDbEntity
  8
P-SANR-FIXT
100
AcDbLine
 10
798.6664074431878
 20
1955.437499999997
 30
0.0
 11
798.6664074431878
 21
1961.993228089998
 31
0.0
  0
SPLINE
  5
135
330
87
100
AcDbEntity
  8
P-SANR-FIXT
100
AcDbSpline
210
0.0
220
0.0
230
1.0
 70
     8
 71
     3
 72
     8
 73
     4
 74
     0
 42
0.000000001
 43
0.0000000001
 40
0.0
 40
0.0
 40
0.0
 40
0.0
 40
0.0131416615370496
 40
0.0131416615370496
 40
0.0131416615370496
 40
0.0131416615370496
 10
798.6664074431878
 20
1961.993228089998
 30
0.0
 10
798.6067255762032
 20
1962.000806855765
 30
0.0
 10
798.547279848524
 20
1962.008854393289
 30
0.0
 10
798.4880732892826
 20
1962.017368435869
 30
0.0
  0
SPLINE
  5
136
330
87
100
AcDbEntity
  8
P-SANR-FIXT
100
AcDbSpline
210
0.0
220
0.0
230
1.0
 70
     8
 71
     3
 72
     8
 73
     4
 74
     0
 42
0.000000001
 43
0.0000000001
 40
0.0833333333333333
 40
0.0833333333333333
 40
0.0833333333333333
 40
0.0833333333333333
 40
0.1009733996292182
 40
0.1009733996292182
 40
0.1009733996292182
 40
0.1009733996292182
 10
797.5603092954537
 20
1962.193372860068
 30
0.0
 10
797.4843816703261
 20
1962.211403629588
 30
0.0
 10
797.40891773116
 20
1962.23025607872
 30
0.0
 10
797.3338932087077
 20
1962.249970104071
 30
0.0
  0
SPLINE
  5
137
330
87
100
AcDbEntity
  8
P-SANR-FIXT
100
AcDbSpline
210
0.0
220
0.0
230
1.0
 70
     8
 71
     3
 72
     8
 73
     4
 74
     0
 42
0.000000001
 43
0.0000000001
 40
0.1666666666666666
 40
0.1666666666666666
 40
0.1666666666666666
 40
0.1666666666666666
 40
0.1910259541294742
 40
0.1910259541294742
 40
0.1910259541294742
 40
0.1910259541294742
 10
796.5127272281676
 20
1962.508128665112
 30
0.0
 10
796.4132036083996
 20
1962.544996805139
 30
0.0
 10
796.3143350717991
 20
1962.583784823347
 30
0.0
 10
796.2162371220767
 20
1962.624393394863
 30
0.0
  0
SPLINE
  5
138
330
87
100
AcDbEntity
  8
P-SANR-FIXT
100
AcDbSpline
210
0.0
220
0.0
230
1.0
 70
     8
 71
     3
 72
     8
 73
     4
 74
     0
 42
0.000000001
 43
0.0000000001
 40
0.25
 40
0.25
 40
0.25
 40
0.25
 40
0.2817359741351302
 40
0.2817359741351302
 40
0.2817359741351302
 40
0.2817359741351302
 10
795.5189380708243
 20
1962.949937397263
 30
0.0
 10
795.3967682862436
 20
1963.013490810501
 30
0.0
 10
795.2764383129463
 20
1963.079756973133
 30
0.0
 10
795.1578657850976
 20
1963.148569555417
 30
0.0
  0
SPLINE
  5
139
330
87
100
AcDbEntity
  8
P-SANR-FIXT
100
AcDbSpline
210
0.0
220
0.0
230
1.0
 70
     8
 71
     3
 72
     8
 73
     4
 74
     0
 42
0.000000001
 43
0.0000000001
 40
0.3333333333333333
 40
0.3333333333333333
 40
0.3333333333333333
 40
0.3333333333333333
 40
0.5
 40
0.5
 40
0.5
 40
0.5
 10
794.5931113349384
 20
1963.503680887453
 30
0.0
 10
794.0012004212055
 20
1963.907488239765
 30
0.0
 10
793.4533172965775
 20
1964.374930146031
 30
0.0
 10
792.9831304915759
 20
1964.909746754545
 30
0.0
  0
SPLINE
  5
13A
330
87
100
AcDbEntity
  8
P-SANR-FIXT
100
AcDbSpline
210
0.0
220
0.0
230
1.0
 70
     8
 71
     3
 72
     8
 73
     4
 74
     0
 42
0.000000001
 43
0.0000000001
 40
0.5544514315331459
 40
0.5544514315331459
 40
0.5544514315331459
 40
0.5544514315331459
 40
0.5833333333333333
 40
0.5833333333333333
 40
0.5833333333333333
 40
0.5833333333333333
 10
792.5339033232919
 20
1965.448525870404
 30
0.0
 10
792.4580696456725
 20
1965.547035236079
 30
0.0
 10
792.3851473992422
 20
1965.647656503499
 30
0.0
 10
792.3144534660333
 20
1965.750030679497
 30
0.0
  0
SPLINE
  5
13B
330
87
100
AcDbEntity
  8
P-SANR-FIXT
100
AcDbSpline
210
0.0
220
0.0
230
1.0
 70
     8
 71
     3
 72
     8
 73
     4
 74
     0
 42
0.000000001
 43
0.0000000001
 40
0.6455216602705029
 40
0.6455216602705029
 40
0.6455216602705029
 40
0.6455216602705029
 40
0.6666666666666666
 40
0.6666666666666666
 40
0.6666666666666666
 40
0.6666666666666666
 10
791.8765418071889
 20
1966.429800463117
 30
0.0
 10
791.8304619721721
 20
1966.509473120514
 30
0.0
 10
791.7861457022963
 20
1966.590208753271
 30
0.0
 10
791.7417746670902
 20
1966.671331301504
 30
0.0
  0
SPLINE
  5
13C
330
87
100
AcDbEntity
  8
P-SANR-FIXT
100
AcDbSpline
210
0.0
220
0.0
230
1.0
 70
     8
 71
     3
 72
     8
 73
     4
 74
     0
 42
0.000000001
 43
0.0000000001
 40
0.7354958809930813
 40
0.7354958809930813
 40
0.7354958809930813
 40
0.7354958809930813
 40
0.75
 40
0.75
 40
0.75
 40
0.75
 10
791.3530489707548
 20
1967.489964025775
 30
0.0
 10
791.3285415834898
 20
1967.54903286067
 30
0.0
 10
791.3040174780471
 20
1967.608217923794
 30
0.0
 10
791.2797662699615
 20
1967.667582500632
 30
0.0
  0
SPLINE
  5
13D
330
87
100
AcDbEntity
  8
P-SANR-FIXT
100
AcDbSpline
210
0.0
220
0.0
230
1.0
 70
     8
 71
     3
 72
     8
 73
     4
 74
     0
 42
0.000000001
 43
0.0000000001
 40
0.8244411942456578
 40
0.8244411942456578
 40
0.8244411942456578
 40
0.8244411942456578
 40
0.8333333333333332
 40
0.8333333333333332
 40
0.8333333333333332
 40
0.8333333333333332
 10
790.9734916781462
 20
1968.606265738289
 30
0.0
 10
790.9633098102473
 20
1968.644308541067
 30
0.0
 10
790.9531463448054
 20
1968.682357587729
 30
0.0
 10
790.9437156359725
 20
1968.720599542976
 30
0.0
  0
SPLINE
  5
13E
330
87
100
AcDbEntity
  8
P-SANR-FIXT
100
AcDbSpline
210
0.0
220
0.0
230
1.0
 70
     8
 71
     3
 72
     8
 73
     4
 74
     0
 42
0.000000001
 43
0.0000000001
 40
0.9130524276416299
 40
0.9130524276416299
 40
0.9130524276416299
 40
0.9130524276416299
 40
0.9166666666666667
 40
0.9166666666666667
 40
0.9166666666666667
 40
0.9166666666666667
 10
790.7453306401049
 20
1969.76334711254
 30
0.0
 10
790.7432542348025
 20
1969.779347934636
 30
0.0
 10
790.7412969598827
 20
1969.795381288209
 30
0.0
 10
790.7394490540764
 20
1969.811444506984
 30
0.0
  0
SPLINE
  5
13F
330
87
100
AcDbEntity
  8
P-SANR-FIXT
100
AcDbSpline
210
0.0
220
0.0
230
1.0
 70
     8
 71
     3
 72
     8
 73
     4
 74
     0
 42
0.000000001
 43
0.0000000001
 40
0.0833333333333333
 40
0.0833333333333333
 40
0.0833333333333333
 40
0.0833333333333333
 40
0.0869475723583895
 40
0.0869475723583895
 40
0.0869475723583895
 40
0.0869475723583895
 10
790.7392253852411
 20
1972.063617209883
 30
0.0
 10
790.7412191700339
 20
1972.079640176315
 30
0.0
 10
790.7432541851122
 20
1972.09565211359
 30
0.0
 10
790.7453304974993
 20
1972.111653025874
 30
0.0
  0
SPLINE
  5
140
330
87
100
AcDbEntity
  8
P-SANR-FIXT
100
AcDbSpline
210
0.0
220
0.0
230
1.0
 70
     8
 71
     3
 72
     8
 73
     4
 74
     0
 42
0.000000001
 43
0.0000000001
 40
0.1666666666666666
 40
0.1666666666666666
 40
0.1666666666666666
 40
0.1666666666666666
 40
0.1755588057543591
 40
0.1755588057543591
 40
0.1755588057543591
 40
0.1755588057543591
 10
790.9437156359724
 20
1973.154400457018
 30
0.0
 10
790.9533835609908
 20
1973.192578755845
 30
0.0
 10
790.963310548367
 20
1973.230690654487
 30
0.0
 10
790.9734937743626
 20
1973.268731977142
 30
0.0
  0
SPLINE
  5
141
330
87
100
AcDbEntity
  8
P-SANR-FIXT
100
AcDbSpline
210
0.0
220
0.0
230
1.0
 70
     8
 71
     3
 72
     8
 73
     4
 74
     0
 42
0.000000001
 43
0.0000000001
 40
0.25
 40
0.25
 40
0.25
 40
0.25
 40
0.2645041190069393
 40
0.2645041190069393
 40
0.2645041190069393
 40
0.2645041190069393
 10
791.281362794476
 20
1974.206946565411
 30
0.0
 10
791.3046422776114
 20
1974.266597776287
 30
0.0
 10
791.3285437318121
 20
1974.325964505764
 30
0.0
 10
791.3530542939795
 20
1974.385029448647
 30
0.0
  0
SPLINE
  5
142
330
87
100
AcDbEntity
  8
P-SANR-FIXT
100
AcDbSpline
210
0.0
220
0.0
230
1.0
 70
     8
 71
     3
 72
     8
 73
     4
 74
     0
 42
0.000000001
 43
0.0000000001
 40
0.3333333333333333
 40
0.3333333333333333
 40
0.3333333333333333
 40
0.3333333333333333
 40
0.3544783397295123
 40
0.3544783397295123
 40
0.3544783397295123
 40
0.3544783397295123
 10
791.7417746670901
 20
1975.20366869849
 30
0.0
 10
791.7855313340973
 20
1975.285011358315
 30
0.0
 10
791.8304511211732
 20
1975.365541538701
 30
0.0
 10
791.8765133841921
 20
1975.445237935092
 30
0.0
  0
SPLINE
  5
143
330
87
100
AcDbEntity
  8
P-SANR-FIXT
100
AcDbSpline
210
0.0
220
0.0
230
1.0
 70
     8
 71
     3
 72
     8
 73
     4
 74
     0
 42
0.000000001
 43
0.0000000001
 40
0.4166666666666666
 40
0.4166666666666666
 40
0.4166666666666666
 40
0.4166666666666666
 40
0.4455485684668693
 40
0.4455485684668693
 40
0.4455485684668693
 40
0.4455485684668693
 10
792.3123003000053
 20
1976.125889506238
 30
0.0
 10
792.3841809271136
 20
1976.227756531932
 30
0.0
 10
792.4580480986162
 20
1976.327996639114
 30
0.0
 10
792.5338610856415
 20
1976.426536612997
 30
0.0
  0
SPLINE
  5
144
330
87
100
AcDbEntity
  8
P-SANR-FIXT
100
AcDbSpline
210
0.0
220
0.0
230
1.0
 70
     8
 71
     3
 72
     8
 73
     4
 74
     0
 42
0.000000001
 43
0.0000000001
 40
0.5
 40
0.5
 40
0.5
 40
0.5
 40
0.6666666666666666
 40
0.6666666666666666
 40
0.6666666666666666
 40
0.6666666666666666
 10
792.9831304915758
 20
1976.965253245449
 30
0.0
 10
793.4617635247071
 20
1977.49592663952
 30
0.0
 10
794.0022788082093
 20
1977.965500707473
 30
0.0
 10
794.5931113349383
 20
1978.371319112541
 30
0.0
  0
SPLINE
  5
145
330
87
100
AcDbEntity
  8
P-SANR-FIXT
100
AcDbSpline
210
0.0
220
0.0
230
1.0
 70
     8
 71
     3
 72
     8
 73
     4
 74
     0
 42
0.000000001
 43
0.0000000001
 40
0.7182640258648698
 40
0.7182640258648698
 40
0.7182640258648698
 40
0.7182640258648698
 40
0.75
 40
0.75
 40
0.75
 40
0.75
 10
795.1576065882582
 20
1978.726599016883
 30
0.0
 10
795.2762987726225
 20
1978.795333778871
 30
0.0
 10
795.3965587251566
 20
1978.861941080393
 30
0.0
 10
795.5189380708243
 20
1978.925062602732
 30
0.0
  0
SPLINE
  5
146
330
87
100
AcDbEntity
  8
P-SANR-FIXT
100
AcDbSpline
210
0.0
220
0.0
230
1.0
 70
     8
 71
     3
 72
     8
 73
     4
 74
     0
 42
0.000000001
 43
0.0000000001
 40
0.8089740458705257
 40
0.8089740458705257
 40
0.8089740458705257
 40
0.8089740458705257
 40
0.8333333333333332
 40
0.8333333333333332
 40
0.8333333333333332
 40
0.8333333333333332
 10
796.2162886155701
 20
1979.250569092095
 30
0.0
 10
796.3143593261094
 20
1979.29119750737
 30
0.0
 10
796.4135266481131
 20
1979.329339200751
 30
0.0
 10
796.5127272281675
 20
1979.366871334883
 30
0.0
  0
SPLINE
  5
147
330
87
100
AcDbEntity
  8
P-SANR-FIXT
100
AcDbSpline
210
0.0
220
0.0
230
1.0
 70
     8
 71
     3
 72
     8
 73
     4
 74
     0
 42
0.000000001
 43
0.0000000001
 40
0.8990266003707924
 40
0.8990266003707924
 40
0.8990266003707924
 40
0.8990266003707924
 40
0.9166666666666666
 40
0.9166666666666666
 40
0.9166666666666666
 40
0.9166666666666666
 10
797.3338846761026
 20
1979.625036890309
 30
0.0
 10
797.4089141232285
 20
1979.644746878784
 30
0.0
 10
797.48401624931
 20
1979.664282748372
 30
0.0
 10
797.5603092954537
 20
1979.681627139926
 30
0.0
  0
SPLINE
  5
148
330
87
100
AcDbEntity
  8
P-SANR-FIXT
100
AcDbSpline
210
0.0
220
0.0
230
1.0
 70
     8
 71
     3
 72
     8
 73
     4
 74
     0
 42
0.000000001
 43
0.0000000001
 40
0.9868583384629651
 40
0.9868583384629651
 40
0.9868583384629651
 40
0.9868583384629651
 40
1.0
 40
1.0
 40
1.0
 40
1.0
 10
798.4880732892827
 20
1979.857631564125
 30
0.0
 10
798.5472798485242
 20
1979.866145606705
 30
0.0
 10
798.6067255762034
 20
1979.874193144229
 30
0.0
 10
798.6664074431878
 20
1979.881771909996
 30
0.0
  0
LINE
  5
149
330
87
100
AcDbEntity
  8
P-SANR-FIXT
100
AcDbLine
 10
798.6664074431878
 20
1979.881771909996
 30
0.0
 11
798.6664074431878
 21
1985.870684523065
 31
0.0
  0
SPLINE
  5
14A
330
87
100
AcDbEntity
  8
P-SANR-FIXT
100
AcDbSpline
210
0.0
220
0.0
230
1.0
 70
     8
 71
     3
 72
    10
 73
     6
 74
     0
 42
0.000000001
 43
0.0000000001
 40
-1.0
 40
-1.0
 40
-1.0
 40
-1.0
 40
-0.6666666666666666
 40
-0.3333333333333333
 40
0.0
 40
0.0
 40
0.0
 40
0.0
 10
787.1664074431879
 20
1989.789399142324
 30
0.0
 10
788.00589091196
 20
1988.886124726031
 30
0.0
 10
789.1249519087481
 20
1987.068757990099
 30
0.0
 10
789.1035516941006
 20
1984.210792861151
 30
0.0
 10
787.9965048529042
 20
1982.416462055171
 30
0.0
 10
787.1664074431879
 20
1981.530464586342
 30
0.0
  0
SPLINE
  5
14B
330
87
100
AcDbEntity
  8
P-SANR-FIXT
100
AcDbSpline
210
0.0
220
0.0
230
1.0
 70
     8
 71
     3
 72
    10
 73
     6
 74
     0
 42
0.000000001
 43
0.0000000001
 40
-1.0
 40
-1.0
 40
-1.0
 40
-1.0
 40
-0.6666666666666666
 40
-0.3333333333333333
 40
0.0
 40
0.0
 40
0.0
 40
0.0
 10
787.1664074431879
 20
1979.196434555979
 30
0.0
 10
788.0058909119602
 20
1977.389885723394
 30
0.0
 10
789.1249519087483
 20
1973.755152251531
 30
0.0
 10
789.103551694101
 20
1968.039221993632
 30
0.0
 10
787.9965048529043
 20
1964.450560381672
 30
0.0
 10
787.1664074431879
 20
1962.678565444015
 30
0.0
  0
SPLINE
  5
14C
330
87
100
AcDbEntity
  8
P-SANR-FIXT
100
AcDbSpline
210
0.0
220
0.0
230
1.0
 70
     8
 71
     3
 72
    10
 73
     6
 74
     0
 42
0.000000001
 43
0.0000000001
 40
-1.0
 40
-1.0
 40
-1.0
 40
-1.0
 40
-0.6666666666666666
 40
-0.3333333333333333
 40
0.0
 40
0.0
 40
0.0
 40
0.0
 10
787.1664074431879
 20
1960.344535413653
 30
0.0
 10
788.0058909119603
 20
1959.441260997361
 30
0.0
 10
789.1249519087485
 20
1957.623894261429
 30
0.0
 10
789.1035516941011
 20
1954.76592913248
 30
0.0
 10
787.9965048529044
 20
1952.971598326499
 30
0.0
 10
787.1664074431879
 20
1952.085600857671
 30
0.0
  0
LWPOLYLINE
  5
14D
330
87
100
AcDbEntity
  8
P-SANR-FIXT
100
AcDbPolyline
 90
        3
 70
   128
 43
0.0
 10
790.6164074431878
 20
1970.937499999997
 10
790.5664074431878
 20
1959.977344891606
 10
790.5664074431878
 20
1955.437499999997
  0
LWPOLYLINE
  5
14E
330
87
100
AcDbEntity
  8
P-SANR-FIXT
100
AcDbPolyline
 90
        4
 70
   128
 43
0.0
 10
790.5664074431878
 20
1986.437499999997
 10
790.5664074431878
 20
1984.360893758656
 10
790.5664074431878
 20
1978.687499999997
 10
790.6048157641935
 20
1972.259222393975
  0
LINE
  5
14F
330
87
100
AcDbEntity
  8
P-SANR-FIXT
100
AcDbLine
 10
790.6054756150916
 20
1972.179799915809
 30
0.0
 11
790.6164074431878
 21
1970.937499999997
 31
0.0
  0
SPLINE
  5
150
330
87
100
AcDbEntity
  8
P-SANR-FIXT
100
AcDbSpline
210
0.0
220
0.0
230
1.0
 70
     8
 71
     3
 72
    24
 73
    20
 74
     0
 42
0.000000001
 43
0.0000000001
 40
0.0
 40
0.0
 40
0.0
 40
0.0
 40
0.1111111111111111
 40
0.2222222222222222
 40
0.2777777777777778
 40
0.3333333333333333
 40
0.3888888888888888
 40
0.4444444444444445
 40
0.4791666666666666
 40
0.5138888888888889
 40
0.5486111111111111
 40
0.5833333333333333
 40
0.6180555555555555
 40
0.6527777777777777
 40
0.6875
 40
0.7222222222222223
 40
0.7916666666666668
 40
0.861111111111111
 40
1.0
 40
1.0
 40
1.0
 40
1.0
 10
798.9332069125103
 20
2037.934701883422
 30
0.0
 10
798.9332069125103
 20
2037.923444055099
 30
0.0
 10
799.047929303943
 20
2037.65886495019
 30
0.0
 10
799.4087990925687
 20
2036.667355717655
 30
0.0
 10
799.7314418937122
 20
2035.577805236127
 30
0.0
 10
799.9634455218747
 20
2034.635654549472
 30
0.0
 10
800.1550701777748
 20
2033.576347755959
 30
0.0
 10
800.2713766205465
 20
2032.584978324566
 30
0.0
 10
800.3140316700262
 20
2031.720489009162
 30
0.0
 10
800.317484121178
 20
2030.971938333242
 30
0.0
 10
800.2877617060732
 20
2030.240685289685
 30
0.0
 10
800.2241931293525
 20
2029.538814293993
 30
0.0
 10
800.1278488791045
 20
2028.836389713481
 30
0.0
 10
800.0096626854103
 20
2028.169219224287
 30
0.0
 10
799.8783510413351
 20
2027.560155044454
 30
0.0
 10
799.6798822877567
 20
2026.7823950909
 30
0.0
 10
799.4296821510931
 20
2025.957845558513
 30
0.0
 10
799.0683918814535
 20
2024.932522674355
 30
0.0
 10
798.9332069125103
 20
2024.624439382681
 30
0.0
 10
798.9332069125103
 20
2024.610146563086
 30
0.0
  0
LINE
  5
151
330
87
100
AcDbEntity
  8
P-SANR-FIXT
100
AcDbLine
 10
842.1664074431838
 20
2019.937499999993
 30
0.0
 11
789.1664074431917
 21
2019.937499999993
 31
0.0
  0
LINE
  5
152
330
87
100
AcDbEntity
  8
P-SANR-FIXT
100
AcDbLine
 10
781.1664074431923
 20
2014.337499999993
 30
0.0
 11
850.1664074431834
 21
2014.337499999993
 31
0.0
  0
LINE
  5
153
330
87
100
AcDbEntity
  8
P-SANR-FIXT
100
AcDbLine
 10
808.6664074431878
 20
1970.937499999997
 30
0.0
 11
822.6664074431877
 21
1970.937499999997
 31
0.0
  0
LINE
  5
154
330
87
100
AcDbEntity
  8
P-SANR-FIXT
100
AcDbLine
 10
844.166407443188
 20
1989.789399142324
 30
0.0
 11
853.1664074431878
 21
1989.789399142324
 31
0.0
  0
LINE
  5
155
330
87
100
AcDbEntity
  8
P-SANR-FIXT
100
AcDbLine
 10
853.1664074431878
 20
1989.789399142324
 30
0.0
 11
853.1664074431878
 21
1989.837499999998
 31
0.0
  0
LINE
  5
156
330
87
100
AcDbEntity
  8
P-SANR-FIXT
100
AcDbLine
 10
853.1664074431878
 20
1952.037499999997
 30
0.0
 11
853.1664074431878
 21
1952.08560085767
 31
0.0
  0
LINE
  5
157
330
87
100
AcDbEntity
  8
P-SANR-FIXT
100
AcDbLine
 10
853.1664074431878
 20
1952.08560085767
 30
0.0
 11
844.166407443188
 21
1952.08560085767
 31
0.0
  0
LINE
  5
158
330
87
100
AcDbEntity
  8
P-SANR-FIXT
100
AcDbLine
 10
853.1664074431878
 20
1960.344535413653
 30
0.0
 11
853.1664074431878
 21
1962.678565444014
 31
0.0
  0
LINE
  5
159
330
87
100
AcDbEntity
  8
P-SANR-FIXT
100
AcDbLine
 10
853.1664074431878
 20
1962.678565444014
 30
0.0
 11
844.166407443188
 21
1962.678565444014
 31
0.0
  0
LINE
  5
15A
330
87
100
AcDbEntity
  8
P-SANR-FIXT
100
AcDbLine
 10
844.166407443188
 20
1960.344535413653
 30
0.0
 11
853.1664074431878
 21
1960.344535413653
 31
0.0
  0
LINE
  5
15B
330
87
100
AcDbEntity
  8
P-SANR-FIXT
100
AcDbLine
 10
853.1664074431878
 20
1979.196434555981
 30
0.0
 11
853.1664074431878
 21
1981.530464586341
 31
0.0
  0
LINE
  5
15C
330
87
100
AcDbEntity
  8
P-SANR-FIXT
100
AcDbLine
 10
853.1664074431878
 20
1981.530464586341
 30
0.0
 11
844.166407443188
 21
1981.530464586341
 31
0.0
  0
LINE
  5
15D
330
87
100
AcDbEntity
  8
P-SANR-FIXT
100
AcDbLine
 10
844.166407443188
 20
1979.196434555981
 30
0.0
 11
853.1664074431878
 21
1979.196434555981
 31
0.0
  0
SPLINE
  5
15E
330
87
100
AcDbEntity
  8
P-SANR-FIXT
100
AcDbSpline
210
0.0
220
0.0
230
1.0
 70
     8
 71
     3
 72
    11
 73
     7
 74
     0
 42
0.000000001
 43
0.0000000001
 40
0.0
 40
0.0
 40
0.0
 40
0.0
 40
0.25
 40
0.5
 40
0.75
 40
1.0
 40
1.0
 40
1.0
 40
1.0
 10
840.7664074431878
 20
1955.437499999997
 30
0.0
 10
840.774740776521
 20
1955.437499999997
 30
0.0
 10
840.7830741098544
 20
1956.244565741504
 30
0.0
 10
840.7705741098544
 20
1959.691973381174
 30
0.0
 10
840.7330741098544
 20
1964.851610083436
 30
0.0
 10
840.6914074431877
 20
1968.908554744554
 30
0.0
 10
840.6664074431876
 20
1970.937499999997
 30
0.0
  0
SPLINE
  5
15F
330
87
100
AcDbEntity
  8
P-SANR-FIXT
100
AcDbSpline
210
0.0
220
0.0
230
1.0
 70
     8
 71
     3
 72
     8
 73
     4
 74
     0
 42
0.000000001
 43
0.0000000001
 40
0.0833333333333333
 40
0.0833333333333333
 40
0.0833333333333333
 40
0.0833333333333333
 40
0.0869475723583832
 40
0.0869475723583832
 40
0.0869475723583832
 40
0.0869475723583832
 10
840.5935895011342
 20
1969.81138279011
 30
0.0
 10
840.5915957163415
 20
1969.795359823679
 30
0.0
 10
840.5895607012634
 20
1969.779347886404
 30
0.0
 10
840.5874843888762
 20
1969.76334697412
 30
0.0
  0
SPLINE
  5
160
330
87
100
AcDbEntity
  8
P-SANR-FIXT
100
AcDbSpline
210
0.0
220
0.0
230
1.0
 70
     8
 71
     3
 72
     8
 73
     4
 74
     0
 42
0.000000001
 43
0.0000000001
 40
0.1666666666666666
 40
0.1666666666666666
 40
0.1666666666666666
 40
0.1666666666666666
 40
0.1755588057543523
 40
0.1755588057543523
 40
0.1755588057543523
 40
0.1755588057543523
 10
840.3890992504031
 20
1968.720599542976
 30
0.0
 10
840.3794313253847
 20
1968.682421244149
 30
0.0
 10
840.3695043380086
 20
1968.644309345507
 30
0.0
 10
840.359321112013
 20
1968.606268022852
 30
0.0
  0
SPLINE
  5
161
330
87
100
AcDbEntity
  8
P-SANR-FIXT
100
AcDbSpline
210
0.0
220
0.0
230
1.0
 70
     8
 71
     3
 72
     8
 73
     4
 74
     0
 42
0.000000001
 43
0.0000000001
 40
0.25
 40
0.25
 40
0.25
 40
0.25
 40
0.2645041190069329
 40
0.2645041190069329
 40
0.2645041190069329
 40
0.2645041190069329
 10
840.0514520918994
 20
1967.668053434583
 30
0.0
 10
840.0281726087639
 20
1967.608402223706
 30
0.0
 10
840.0042711545633
 20
1967.54903549423
 30
0.0
 10
839.9797605923961
 20
1967.489970551347
 30
0.0
  0
SPLINE
  5
162
330
87
100
AcDbEntity
  8
P-SANR-FIXT
100
AcDbSpline
210
0.0
220
0.0
230
1.0
 70
     8
 71
     3
 72
     8
 73
     4
 74
     0
 42
0.000000001
 43
0.0000000001
 40
0.3333333333333333
 40
0.3333333333333333
 40
0.3333333333333333
 40
0.3333333333333333
 40
0.3544783397295046
 40
0.3544783397295046
 40
0.3544783397295046
 40
0.3544783397295046
 10
839.5910402192852
 20
1966.671331301504
 30
0.0
 10
839.5472835522779
 20
1966.589988641679
 30
0.0
 10
839.5023637652023
 20
1966.509458461294
 30
0.0
 10
839.4563015021834
 20
1966.429762064902
 30
0.0
  0
SPLINE
  5
163
330
87
100
AcDbEntity
  8
P-SANR-FIXT
100
AcDbSpline
210
0.0
220
0.0
230
1.0
 70
     8
 71
     3
 72
     8
 73
     4
 74
     0
 42
0.000000001
 43
0.0000000001
 40
0.4166666666666666
 40
0.4166666666666666
 40
0.4166666666666666
 40
0.4166666666666666
 40
0.4455485684668707
 40
0.4455485684668707
 40
0.4455485684668707
 40
0.4455485684668707
 10
839.0205145863701
 20
1965.749110493756
 30
0.0
 10
838.9486339592618
 20
1965.647243468063
 30
0.0
 10
838.8747667877591
 20
1965.54700336088
 30
0.0
 10
838.7989538007337
 20
1965.448463386997
 30
0.0
  0
SPLINE
  5
164
330
87
100
AcDbEntity
  8
P-SANR-FIXT
100
AcDbSpline
210
0.0
220
0.0
230
1.0
 70
     8
 71
     3
 72
     8
 73
     4
 74
     0
 42
0.000000001
 43
0.0000000001
 40
0.5
 40
0.5
 40
0.5
 40
0.5
 40
0.6666666666666666
 40
0.6666666666666666
 40
0.6666666666666666
 40
0.6666666666666666
 10
838.3496843947996
 20
1964.909746754545
 30
0.0
 10
837.8710513616685
 20
1964.379073360474
 30
0.0
 10
837.3305360781662
 20
1963.909499292521
 30
0.0
 10
836.739703551437
 20
1963.503680887453
 30
0.0
  0
SPLINE
  5
165
330
87
100
AcDbEntity
  8
P-SANR-FIXT
100
AcDbSpline
210
0.0
220
0.0
230
1.0
 70
     8
 71
     3
 72
     8
 73
     4
 74
     0
 42
0.000000001
 43
0.0000000001
 40
0.718264025864885
 40
0.718264025864885
 40
0.718264025864885
 40
0.718264025864885
 40
0.75
 40
0.75
 40
0.75
 40
0.75
 10
836.1752082981171
 20
1963.148400983112
 30
0.0
 10
836.0565161137529
 20
1963.079666221123
 30
0.0
 10
835.9362561612188
 20
1963.013058919601
 30
0.0
 10
835.8138768155512
 20
1962.949937397263
 30
0.0
  0
SPLINE
  5
166
330
87
100
AcDbEntity
  8
P-SANR-FIXT
100
AcDbSpline
210
0.0
220
0.0
230
1.0
 70
     8
 71
     3
 72
     8
 73
     4
 74
     0
 42
0.000000001
 43
0.0000000001
 40
0.8089740458705501
 40
0.8089740458705501
 40
0.8089740458705501
 40
0.8089740458705501
 40
0.8333333333333332
 40
0.8333333333333332
 40
0.8333333333333332
 40
0.8333333333333332
 10
835.116526270805
 20
1962.624430907899
 30
0.0
 10
835.0184555602659
 20
1962.583802492624
 30
0.0
 10
834.9192882382622
 20
1962.545660799244
 30
0.0
 10
834.8200876582081
 20
1962.508128665112
 30
0.0
  0
SPLINE
  5
167
330
87
100
AcDbEntity
  8
P-SANR-FIXT
100
AcDbSpline
210
0.0
220
0.0
230
1.0
 70
     8
 71
     3
 72
     8
 73
     4
 74
     0
 42
0.000000001
 43
0.0000000001
 40
0.8990266003708089
 40
0.8990266003708089
 40
0.8990266003708089
 40
0.8990266003708089
 40
0.9166666666666666
 40
0.9166666666666666
 40
0.9166666666666666
 40
0.9166666666666666
 10
833.9989302102727
 20
1962.249963109686
 30
0.0
 10
833.9239007631469
 20
1962.23025312121
 30
0.0
 10
833.8487986370655
 20
1962.210717251622
 30
0.0
 10
833.7725055909217
 20
1962.193372860068
 30
0.0
  0
SPLINE
  5
168
330
87
100
AcDbEntity
  8
P-SANR-FIXT
100
AcDbSpline
210
0.0
220
0.0
230
1.0
 70
     8
 71
     3
 72
     8
 73
     4
 74
     0
 42
0.000000001
 43
0.0000000001
 40
0.9868583384629886
 40
0.9868583384629886
 40
0.9868583384629886
 40
0.9868583384629886
 40
1.0
 40
1.0
 40
1.0
 40
1.0
 10
832.8447415970925
 20
1962.017368435869
 30
0.0
 10
832.7855350378513
 20
1962.008854393289
 30
0.0
 10
832.7260893101721
 20
1962.000806855765
 30
0.0
 10
832.6664074431876
 20
1961.993228089998
 30
0.0
  0
SPLINE
  5
169
330
87
100
AcDbEntity
  8
P-SANR-FIXT
100
AcDbSpline
210
0.0
220
0.0
230
1.0
 70
     8
 71
     3
 72
     8
 73
     4
 74
     0
 42
0.000000001
 43
0.0000000001
 40
0.0
 40
0.0
 40
0.0
 40
0.0
 40
0.0131416615370221
 40
0.0131416615370221
 40
0.0131416615370221
 40
0.0131416615370221
 10
832.6664074431876
 20
1979.881771909996
 30
0.0
 10
832.7260893101723
 20
1979.874193144229
 30
0.0
 10
832.7855350378513
 20
1979.866145606704
 30
0.0
 10
832.8447415970927
 20
1979.857631564125
 30
0.0
  0
SPLINE
  5
16A
330
87
100
AcDbEntity
  8
P-SANR-FIXT
100
AcDbSpline
210
0.0
220
0.0
230
1.0
 70
     8
 71
     3
 72
     8
 73
     4
 74
     0
 42
0.000000001
 43
0.0000000001
 40
0.0833333333333333
 40
0.0833333333333333
 40
0.0833333333333333
 40
0.0833333333333333
 40
0.100973399629194
 40
0.100973399629194
 40
0.100973399629194
 40
0.100973399629194
 10
833.7725055909219
 20
1979.681627139926
 30
0.0
 10
833.8484332160495
 20
1979.663596370406
 30
0.0
 10
833.9238971552155
 20
1979.644743921274
 30
0.0
 10
833.9989216776677
 20
1979.625029895923
 30
0.0
  0
SPLINE
  5
16B
330
87
100
AcDbEntity
  8
P-SANR-FIXT
100
AcDbSpline
210
0.0
220
0.0
230
1.0
 70
     8
 71
     3
 72
     8
 73
     4
 74
     0
 42
0.000000001
 43
0.0000000001
 40
0.1666666666666666
 40
0.1666666666666666
 40
0.1666666666666666
 40
0.1666666666666666
 40
0.1910259541294458
 40
0.1910259541294458
 40
0.1910259541294458
 40
0.1910259541294458
 10
834.8200876582081
 20
1979.366871334882
 30
0.0
 10
834.9196112779761
 20
1979.330003194855
 30
0.0
 10
835.0184798145765
 20
1979.291215176647
 30
0.0
 10
835.1165777642988
 20
1979.250606605131
 30
0.0
  0
SPLINE
  5
16C
330
87
100
AcDbEntity
  8
P-SANR-FIXT
100
AcDbSpline
210
0.0
220
0.0
230
1.0
 70
     8
 71
     3
 72
     8
 73
     4
 74
     0
 42
0.000000001
 43
0.0000000001
 40
0.25
 40
0.25
 40
0.25
 40
0.25
 40
0.2817359741350998
 40
0.2817359741350998
 40
0.2817359741350998
 40
0.2817359741350998
 10
835.8138768155512
 20
1978.925062602732
 30
0.0
 10
835.9360466001319
 20
1978.861509189493
 30
0.0
 10
836.0563765734292
 20
1978.795243026861
 30
0.0
 10
836.1749491012776
 20
1978.726430444577
 30
0.0
  0
SPLINE
  5
16D
330
87
100
AcDbEntity
  8
P-SANR-FIXT
100
AcDbSpline
210
0.0
220
0.0
230
1.0
 70
     8
 71
     3
 72
     8
 73
     4
 74
     0
 42
0.000000001
 43
0.0000000001
 40
0.3333333333333333
 40
0.3333333333333333
 40
0.3333333333333333
 40
0.3333333333333333
 40
0.5
 40
0.5
 40
0.5
 40
0.5
 10
836.739703551437
 20
1978.371319112541
 30
0.0
 10
837.3316144651701
 20
1977.967511760229
 30
0.0
 10
837.8794975897982
 20
1977.500069853963
 30
0.0
 10
838.3496843947996
 20
1976.965253245449
 30
0.0
  0
SPLINE
  5
16E
330
87
100
AcDbEntity
  8
P-SANR-FIXT
100
AcDbSpline
210
0.0
220
0.0
230
1.0
 70
     8
 71
     3
 72
     8
 73
     4
 74
     0
 42
0.000000001
 43
0.0000000001
 40
0.5544514315331292
 40
0.5544514315331292
 40
0.5544514315331292
 40
0.5544514315331292
 40
0.5833333333333333
 40
0.5833333333333333
 40
0.5833333333333333
 40
0.5833333333333333
 10
838.7989115630835
 20
1976.42647412959
 30
0.0
 10
838.8747452407027
 20
1976.327964763915
 30
0.0
 10
838.9476674871334
 20
1976.227343496494
 30
0.0
 10
839.0183614203422
 20
1976.124969320497
 30
0.0
  0
SPLINE
  5
16F
330
87
100
AcDbEntity
  8
P-SANR-FIXT
100
AcDbSpline
210
0.0
220
0.0
230
1.0
 70
     8
 71
     3
 72
     8
 73
     4
 74
     0
 42
0.000000001
 43
0.0000000001
 40
0.6455216602704848
 40
0.6455216602704848
 40
0.6455216602704848
 40
0.6455216602704848
 40
0.6666666666666666
 40
0.6666666666666666
 40
0.6666666666666666
 40
0.6666666666666666
 10
839.4562730791864
 20
1975.445199536878
 30
0.0
 10
839.5023529142033
 20
1975.36552687948
 30
0.0
 10
839.5466691840791
 20
1975.284791246722
 30
0.0
 10
839.5910402192853
 20
1975.20366869849
 30
0.0
  0
SPLINE
  5
170
330
87
100
AcDbEntity
  8
P-SANR-FIXT
100
AcDbSpline
210
0.0
220
0.0
230
1.0
 70
     8
 71
     3
 72
     8
 73
     4
 74
     0
 42
0.000000001
 43
0.0000000001
 40
0.7354958809930601
 40
0.7354958809930601
 40
0.7354958809930601
 40
0.7354958809930601
 40
0.75
 40
0.75
 40
0.75
 40
0.75
 10
839.9797659156204
 20
1974.38503597422
 30
0.0
 10
840.0042733028858
 20
1974.325967139324
 30
0.0
 10
840.0287974083285
 20
1974.2667820762
 30
0.0
 10
840.0530486164139
 20
1974.207417499362
 30
0.0
  0
SPLINE
  5
171
330
87
100
AcDbEntity
  8
P-SANR-FIXT
100
AcDbSpline
210
0.0
220
0.0
230
1.0
 70
     8
 71
     3
 72
     8
 73
     4
 74
     0
 42
0.000000001
 43
0.0000000001
 40
0.8244411942456409
 40
0.8244411942456409
 40
0.8244411942456409
 40
0.8244411942456409
 40
0.8333333333333332
 40
0.8333333333333332
 40
0.8333333333333332
 40
0.8333333333333332
 10
840.3593232082293
 20
1973.268734261706
 30
0.0
 10
840.3695050761282
 20
1973.230691458927
 30
0.0
 10
840.3796685415702
 20
1973.192642412266
 30
0.0
 10
840.3890992504031
 20
1973.154400457018
 30
0.0
  0
SPLINE
  5
172
330
87
100
AcDbEntity
  8
P-SANR-FIXT
100
AcDbSpline
210
0.0
220
0.0
230
1.0
 70
     8
 71
     3
 72
     8
 73
     4
 74
     0
 42
0.000000001
 43
0.0000000001
 40
0.9130524276416105
 40
0.9130524276416105
 40
0.9130524276416105
 40
0.9130524276416105
 40
0.9166666666666667
 40
0.9166666666666667
 40
0.9166666666666667
 40
0.9166666666666667
 10
840.5874842462704
 20
1972.111652887454
 30
0.0
 10
840.5895606515731
 20
1972.095652065358
 30
0.0
 10
840.5915179264926
 20
1972.079618711785
 30
0.0
 10
840.5933658322991
 20
1972.06355549301
 30
0.0
  0
SPLINE
  5
173
330
87
100
AcDbEntity
  8
P-SANR-FIXT
100
AcDbSpline
210
0.0
220
0.0
230
1.0
 70
     8
 71
     3
 72
    10
 73
     6
 74
     0
 42
0.000000001
 43
0.0000000001
 40
0.0
 40
0.0
 40
0.0
 40
0.0
 40
0.3333333333333333
 40
0.6666666666666666
 40
1.0
 40
1.0
 40
1.0
 40
1.0
 10
840.6664074431876
 20
1970.937499999997
 30
0.0
 10
840.7164074431877
 20
1973.642760340588
 30
0.0
 10
840.7897407765211
 20
1979.049235169769
 30
0.0
 10
840.759740776521
 20
1984.988536394905
 30
0.0
 10
840.7664074431878
 20
1986.437499999997
 30
0.0
 10
840.7664074431878
 20
1986.437499999997
 30
0.0
  0
ARC
  5
174
330
87
100
AcDbEntity
  8
P-SANR-FIXT
100
AcDbCircle
 10
799.6664074431876
 20
1970.937499999997
 30
0.0
 40
8.999999999999886
100
AcDbArc
 50
180.0
 51
0.0
  0
ARC
  5
175
330
87
100
AcDbEntity
  8
P-SANR-FIXT
100
AcDbCircle
 10
799.6664074431876
 20
1970.937499999997
 30
0.0
 40
9.0
100
AcDbArc
 50
0.0
 51
180.0
  0
LINE
  5
176
330
87
100
AcDbEntity
  8
P-SANR-FIXT
100
AcDbLine
 10
781.1664074431923
 20
2007.934701883359
 30
0.0
 11
850.1664074431834
 21
2007.934701883359
 31
0.0
  0
LINE
  5
177
330
87
100
AcDbEntity
  8
P-SANR-FIXT
100
AcDbLine
 10
782.1636093265581
 20
2006.937499999993
 30
0.0
 11
849.1692055598175
 21
2006.937499999993
 31
0.0
  0
LINE
  5
178
330
87
100
AcDbEntity
  8
P-SANR-FIXT
100
AcDbLine
 10
788.9922478902136
 20
2005.437500000014
 30
0.0
 11
842.3405669961621
 21
2005.437500000014
 31
0.0
  0
LINE
  5
179
330
87
100
AcDbEntity
  8
P-SANR-FIXT
100
AcDbLine
 10
789.6664074431918
 20
2037.934701883422
 30
0.0
 11
789.6664074431916
 21
2024.610146563086
 31
0.0
  0
LINE
  5
17A
330
87
100
AcDbEntity
  8
P-SANR-FIXT
100
AcDbLine
 10
844.1664074431876
 20
1952.08560085767
 30
0.0
 11
844.1664074431876
 21
1952.037499999997
 31
0.0
  0
SPLINE
  5
17B
330
87
100
AcDbEntity
  8
P-SANR-FIXT
100
AcDbSpline
210
0.0
220
0.0
230
1.0
 70
     8
 71
     3
 72
    10
 73
     6
 74
     0
 42
0.000000001
 43
0.0000000001
 40
-1.0
 40
-1.0
 40
-1.0
 40
-1.0
 40
-0.6666666666666666
 40
-0.3333333333333333
 40
0.0
 40
0.0
 40
0.0
 40
0.0
 10
844.166407443188
 20
1952.08560085767
 30
0.0
 10
843.3363100334716
 20
1952.971598326499
 30
0.0
 10
842.2292631922745
 20
1954.765929132479
 30
0.0
 10
842.2078629776272
 20
1957.623894261428
 30
0.0
 10
843.3269239744156
 20
1959.441260997361
 30
0.0
 10
844.166407443188
 20
1960.344535413653
 30
0.0
  0
LINE
  5
17C
330
87
100
AcDbEntity
  8
P-SANR-FIXT
100
AcDbLine
 10
844.166407443188
 20
1962.678565444014
 30
0.0
 11
844.166407443188
 21
1960.344535413653
 31
0.0
  0
SPLINE
  5
17D
330
87
100
AcDbEntity
  8
P-SANR-FIXT
100
AcDbSpline
210
0.0
220
0.0
230
1.0
 70
     8
 71
     3
 72
    10
 73
     6
 74
     0
 42
0.000000001
 43
0.0000000001
 40
-1.0
 40
-1.0
 40
-1.0
 40
-1.0
 40
-0.6666666666666666
 40
-0.3333333333333333
 40
0.0
 40
0.0
 40
0.0
 40
0.0
 10
844.166407443188
 20
1962.678565444014
 30
0.0
 10
843.3363100334716
 20
1964.450560381672
 30
0.0
 10
842.2292631922745
 20
1968.039221993632
 30
0.0
 10
842.2078629776272
 20
1973.755152251531
 30
0.0
 10
843.3269239744156
 20
1977.389885723395
 30
0.0
 10
844.166407443188
 20
1979.196434555981
 30
0.0
  0
LINE
  5
17E
330
87
100
AcDbEntity
  8
P-SANR-FIXT
100
AcDbLine
 10
844.166407443188
 20
1981.530464586341
 30
0.0
 11
844.166407443188
 21
1979.196434555981
 31
0.0
  0
SPLINE
  5
17F
330
87
100
AcDbEntity
  8
P-SANR-FIXT
100
AcDbSpline
210
0.0
220
0.0
230
1.0
 70
     8
 71
     3
 72
    10
 73
     6
 74
     0
 42
0.000000001
 43
0.0000000001
 40
-1.0
 40
-1.0
 40
-1.0
 40
-1.0
 40
-0.6666666666666666
 40
-0.3333333333333333
 40
0.0
 40
0.0
 40
0.0
 40
0.0
 10
844.166407443188
 20
1981.530464586341
 30
0.0
 10
843.3363100334716
 20
1982.41646205517
 30
0.0
 10
842.2292631922745
 20
1984.21079286115
 30
0.0
 10
842.2078629776272
 20
1987.068757990099
 30
0.0
 10
843.3269239744156
 20
1988.886124726032
 30
0.0
 10
844.166407443188
 20
1989.789399142324
 30
0.0
  0
LINE
  5
180
330
87
100
AcDbEntity
  8
P-SANR-FIXT
100
AcDbLine
 10
844.166407443188
 20
1989.837499999998
 30
0.0
 11
844.166407443188
 21
1989.789399142324
 31
0.0
  0
LINE
  5
181
330
87
100
AcDbEntity
  8
P-SANR-FIXT
100
AcDbLine
 10
832.6664074431876
 20
1985.870684523065
 30
0.0
 11
832.6664074431876
 21
1979.881771909996
 31
0.0
  0
LINE
  5
182
330
87
100
AcDbEntity
  8
P-SANR-FIXT
100
AcDbLine
 10
832.6664074431876
 20
1961.993228089998
 30
0.0
 11
832.6664074431876
 21
1955.437499999997
 31
0.0
  0
SPLINE
  5
183
330
87
100
AcDbEntity
  8
P-SANR-FIXT
100
AcDbSpline
210
0.0
220
0.0
230
1.0
 70
     8
 71
     3
 72
     8
 73
     4
 74
     0
 42
0.000000001
 43
0.0000000001
 40
-0.5
 40
-0.5
 40
-0.5
 40
-0.5
 40
-0.3772347437602641
 40
-0.3772347437602641
 40
-0.3772347437602641
 40
-0.3772347437602641
 10
801.2234428825415
 20
1979.801790193837
 30
0.0
 10
801.0986212046583
 20
1979.823406036613
 30
0.0
 10
800.9721907516617
 20
1979.838555639316
 30
0.0
 10
800.8448642184376
 20
1979.850101389437
 30
0.0
  0
SPLINE
  5
184
330
87
100
AcDbEntity
  8
P-SANR-FIXT
100
AcDbSpline
210
0.0
220
0.0
230
1.0
 70
     8
 71
     3
 72
     8
 73
     4
 74
     0
 42
0.000000001
 43
0.0000000001
 40
-0.9285714285714286
 40
-0.9285714285714286
 40
-0.9285714285714286
 40
-0.9285714285714286
 40
-0.9193539630236486
 40
-0.9193539630236486
 40
-0.9193539630236486
 40
-0.9193539630236486
 10
800.7106586154277
 20
1962.003018339366
 30
0.0
 10
800.7547616095729
 20
1962.00809351997
 30
0.0
 10
800.7987579904124
 20
1962.01346014892
 30
0.0
 10
800.8426472230832
 20
1962.019118298077
 30
0.0
  0
SPLINE
  5
185
330
87
100
AcDbEntity
  8
P-SANR-FIXT
100
AcDbSpline
210
0.0
220
0.0
230
1.0
 70
     8
 71
     3
 72
     9
 73
     5
 74
     0
 42
0.000000001
 43
0.0000000001
 40
-0.8571428571428572
 40
-0.8571428571428572
 40
-0.8571428571428572
 40
-0.8571428571428572
 40
-0.8392857142857142
 40
-0.8367043368057228
 40
-0.8367043368057228
 40
-0.8367043368057228
 40
-0.8367043368057228
 10
801.716950345601
 20
1962.174157163503
 30
0.0
 10
801.7993537291541
 20
1962.19305508746
 30
0.0
 10
801.8933224817221
 20
1962.216114395712
 30
0.0
 10
801.9869628137964
 20
1962.240911253174
 30
0.0
 10
801.9987840712937
 20
1962.244070554628
 30
0.0
  0
SPLINE
  5
186
330
87
100
AcDbEntity
  8
P-SANR-FIXT
100
AcDbSpline
210
0.0
220
0.0
230
1.0
 70
     8
 71
     3
 72
     9
 73
     5
 74
     0
 42
0.000000001
 43
0.0000000001
 40
-0.7857142857142857
 40
-0.7857142857142857
 40
-0.7857142857142857
 40
-0.7857142857142857
 40
-0.7321428571428572
 40
-0.7142857142857144
 40
-0.7142857142857144
 40
-0.7142857142857144
 40
-0.7142857142857144
 10
802.6910151571076
 20
1962.46152056603
 30
0.0
 10
802.9298806906744
 20
1962.547591148211
 30
0.0
 10
803.2424738762856
 20
1962.675296937105
 30
0.0
 10
803.5424858153698
 20
1962.814876770074
 30
0.0
 10
803.6168782475812
 20
1962.850783673573
 30
0.0
  0
SPLINE
  5
187
330
87
100
AcDbEntity
  8
P-SANR-FIXT
100
AcDbSpline
210
0.0
220
0.0
230
1.0
 70
     8
 71
     3
 72
     8
 73
     4
 74
     0
 42
0.000000001
 43
0.0000000001
 40
-0.6688904394018806
 40
-0.6688904394018806
 40
-0.6688904394018806
 40
-0.6688904394018806
 40
-0.6428571428571429
 40
-0.6428571428571429
 40
-0.6428571428571429
 40
-0.6428571428571429
 10
804.1730969836002
 20
1963.145648023584
 30
0.0
 10
804.2771981187696
 20
1963.205858222862
 30
0.0
 10
804.3798565227529
 20
1963.26822650586
 30
0.0
 10
804.4811004476523
 20
1963.332612061308
 30
0.0
  0
SPLINE
  5
188
330
87
100
AcDbEntity
  8
P-SANR-FIXT
100
AcDbSpline
210
0.0
220
0.0
230
1.0
 70
     8
 71
     3
 72
     8
 73
     4
 74
     0
 42
0.000000001
 43
0.0000000001
 40
-0.5837110803561084
 40
-0.5837110803561084
 40
-0.5837110803561084
 40
-0.5837110803561084
 40
-0.5714285714285714
 40
-0.5714285714285714
 40
-0.5714285714285714
 40
-0.5714285714285714
 10
805.1500044878045
 20
1963.800772997506
 30
0.0
 10
805.1947091259179
 20
1963.83519482619
 30
0.0
 10
805.2390449249706
 20
1963.87003631991
 30
0.0
 10
805.2830996835311
 20
1963.905233773718
 30
0.0
  0
SPLINE
  5
189
330
87
100
AcDbEntity
  8
P-SANR-FIXT
100
AcDbSpline
210
0.0
220
0.0
230
1.0
 70
     8
 71
     3
 72
     8
 73
     4
 74
     0
 42
0.000000001
 43
0.0000000001
 40
-0.5000000000000001
 40
-0.5000000000000001
 40
-0.5000000000000001
 40
-0.5000000000000001
 40
-0.4985106641385642
 40
-0.4985106641385642
 40
-0.4985106641385642
 40
-0.4985106641385642
 10
806.0155168755777
 20
1964.558941251299
 30
0.0
 10
806.0203541068787
 20
1964.563754656573
 30
0.0
 10
806.0251871002378
 20
1964.568573009945
 30
0.0
 10
806.0300157759641
 20
1964.573396345398
 30
0.0
  0
SPLINE
  5
18A
330
87
100
AcDbEntity
  8
P-SANR-FIXT
100
AcDbSpline
210
0.0
220
0.0
230
1.0
 70
     8
 71
     3
 72
     8
 73
     4
 74
     0
 42
0.000000001
 43
0.0000000001
 40
-0.4285714285714286
 40
-0.4285714285714286
 40
-0.4285714285714286
 40
-0.4285714285714286
 40
-0.4135460937230974
 40
-0.4135460937230974
 40
-0.4135460937230974
 40
-0.4135460937230974
 10
806.6734628677492
 20
1965.289387547406
 30
0.0
 10
806.7168738655928
 20
1965.343228777857
 30
0.0
 10
806.7594076759034
 20
1965.397749701767
 30
0.0
 10
806.8011445177429
 20
1965.452899782208
 30
0.0
  0
SPLINE
  5
18B
330
87
100
AcDbEntity
  8
P-SANR-FIXT
100
AcDbSpline
210
0.0
220
0.0
230
1.0
 70
     8
 71
     3
 72
     9
 73
     5
 74
     0
 42
0.000000001
 43
0.0000000001
 40
-0.3571428571428573
 40
-0.3571428571428573
 40
-0.3571428571428573
 40
-0.3571428571428573
 40
-0.2857142857142857
 40
-0.2142857142857145
 40
-0.2142857142857145
 40
-0.2142857142857145
 40
-0.2142857142857145
 10
807.2516398008874
 20
1966.093333157835
 30
0.0
 10
807.4302871178511
 20
1966.373056043011
 30
0.0
 10
807.7487758436088
 20
1966.958225223757
 30
0.0
 10
808.0431444626849
 20
1967.574520591102
 30
0.0
 10
808.1641339922676
 20
1967.892904124674
 30
0.0
  0
SPLINE
  5
18C
330
87
100
AcDbEntity
  8
P-SANR-FIXT
100
AcDbSpline
210
0.0
220
0.0
230
1.0
 70
     8
 71
     3
 72
     8
 73
     4
 74
     0
 42
0.000000001
 43
0.0000000001
 40
-0.1627195909478036
 40
-0.1627195909478036
 40
-0.1627195909478036
 40
-0.1627195909478036
 40
-0.1428571428571428
 40
-0.1428571428571428
 40
-0.1428571428571428
 40
-0.1428571428571428
 10
808.3589912919318
 20
1968.604740370973
 30
0.0
 10
808.3835905099961
 20
1968.696475780873
 30
0.0
 10
808.4080040121436
 20
1968.788321473311
 30
0.0
 10
808.4283534878641
 20
1968.88121657834
 30
0.0
  0
SPLINE
  5
18D
330
87
100
AcDbEntity
  8
P-SANR-FIXT
100
AcDbSpline
210
0.0
220
0.0
230
1.0
 70
     8
 71
     3
 72
     8
 73
     4
 74
     0
 42
0.000000001
 43
0.0000000001
 40
-0.0806577433437137
 40
-0.0806577433437137
 40
-0.0806577433437137
 40
-0.0806577433437137
 40
-0.0714285714285717
 40
-0.0714285714285717
 40
-0.0714285714285717
 40
-0.0714285714285717
 10
808.5876861417828
 20
1969.762026572457
 30
0.0
 10
808.5934171248004
 20
1969.80614589997
 30
0.0
 10
808.598283678182
 20
1969.850491814131
 30
0.0
 10
808.6024753667258
 20
1969.895014608425
 30
0.0
  0
LINE
  5
18E
330
87
100
AcDbEntity
  8
P-SANR-FIXT
100
AcDbLine
 10
799.6664074431876
 20
1983.586610640671
 30
0.0
 11
799.6664074431876
 21
1979.937499999997
 31
0.0
  0
LINE
  5
18F
330
87
100
AcDbEntity
  8
P-SANR-FIXT
100
AcDbLine
 10
799.6664074431876
 20
1961.937499999997
 30
0.0
 11
799.6664074431876
 21
1956.437499999997
 31
0.0
  0
LINE
  5
190
330
87
100
AcDbEntity
  8
P-SANR-FIXT
100
AcDbLine
 10
778.1664074431878
 20
1989.789399142324
 30
0.0
 11
787.1664074431879
 21
1989.789399142324
 31
0.0
  0
LINE
  5
191
330
87
100
AcDbEntity
  8
P-SANR-FIXT
100
AcDbLine
 10
787.1664074431879
 20
1989.837499999997
 30
0.0
 11
787.1664074431879
 21
1989.789399142324
 31
0.0
  0
LINE
  5
192
330
87
100
AcDbEntity
  8
P-SANR-FIXT
100
AcDbLine
 10
787.1664074431879
 20
1952.085600857671
 30
0.0
 11
787.1664074431879
 21
1952.037499999997
 31
0.0
  0
LINE
  5
193
330
87
100
AcDbEntity
  8
P-SANR-FIXT
100
AcDbLine
 10
787.1664074431879
 20
1952.085600857671
 30
0.0
 11
778.1664074431878
 21
1952.085600857671
 31
0.0
  0
LINE
  5
194
330
87
100
AcDbEntity
  8
P-SANR-FIXT
100
AcDbLine
 10
787.1664074431879
 20
1981.530464586342
 30
0.0
 11
787.1664074431879
 21
1979.19643455598
 31
0.0
  0
LINE
  5
195
330
87
100
AcDbEntity
  8
P-SANR-FIXT
100
AcDbLine
 10
787.1664074431879
 20
1981.530464586342
 30
0.0
 11
778.1664074431878
 21
1981.530464586342
 31
0.0
  0
LINE
  5
196
330
87
100
AcDbEntity
  8
P-SANR-FIXT
100
AcDbLine
 10
778.1664074431878
 20
1979.196434555979
 30
0.0
 11
787.1664074431879
 21
1979.196434555979
 31
0.0
  0
LINE
  5
197
330
87
100
AcDbEntity
  8
P-SANR-FIXT
100
AcDbLine
 10
787.1664074431879
 20
1962.678565444015
 30
0.0
 11
787.1664074431879
 21
1960.344535413653
 31
0.0
  0
LINE
  5
198
330
87
100
AcDbEntity
  8
P-SANR-FIXT
100
AcDbLine
 10
787.1664074431879
 20
1962.678565444015
 30
0.0
 11
778.1664074431878
 21
1962.678565444015
 31
0.0
  0
LINE
  5
199
330
87
100
AcDbEntity
  8
P-SANR-FIXT
100
AcDbLine
 10
778.1664074431878
 20
1960.344535413653
 30
0.0
 11
787.1664074431879
 21
1960.344535413653
 31
0.0
  0
LINE
  5
19A
330
87
100
AcDbEntity
  8
P-SANR-FIXT
100
AcDbLine
 10
778.1664074431878
 20
1952.085600857671
 30
0.0
 11
778.1664074431878
 21
1952.037499999997
 31
0.0
  0
LINE
  5
19B
330
87
100
AcDbEntity
  8
P-SANR-FIXT
100
AcDbLine
 10
778.1664074431878
 20
1952.085600857671
 30
0.0
 11
778.1664074431878
 21
1960.344535413653
 31
0.0
  0
LINE
  5
19C
330
87
100
AcDbEntity
  8
P-SANR-FIXT
100
AcDbLine
 10
778.1664074431878
 20
1962.678565444015
 30
0.0
 11
778.1664074431878
 21
1960.344535413653
 31
0.0
  0
LINE
  5
19D
330
87
100
AcDbEntity
  8
P-SANR-FIXT
100
AcDbLine
 10
778.1664074431878
 20
1962.678565444015
 30
0.0
 11
778.1664074431878
 21
1979.196434555979
 31
0.0
  0
LINE
  5
19E
330
87
100
AcDbEntity
  8
P-SANR-FIXT
100
AcDbLine
 10
778.1664074431878
 20
1981.530464586342
 30
0.0
 11
778.1664074431878
 21
1979.19643455598
 31
0.0
  0
LINE
  5
19F
330
87
100
AcDbEntity
  8
P-SANR-FIXT
100
AcDbLine
 10
778.1664074431878
 20
1981.530464586342
 30
0.0
 11
778.1664074431878
 21
1989.789399142324
 31
0.0
  0
LINE
  5
1A0
330
87
100
AcDbEntity
  8
P-SANR-FIXT
100
AcDbLine
 10
778.1664074431878
 20
1989.837499999997
 30
0.0
 11
778.1664074431878
 21
1989.789399142324
 31
0.0
  0
LINE
  5
1A1
330
87
100
AcDbEntity
  8
P-SANR-FIXT
100
AcDbLine
 10
853.1664074431878
 20
1989.789399142324
 30
0.0
 11
853.1664074431878
 21
1981.530464586341
 31
0.0
  0
LINE
  5
1A2
330
87
100
AcDbEntity
  8
P-SANR-FIXT
100
AcDbLine
 10
853.1664074431878
 20
1979.196434555981
 30
0.0
 11
853.1664074431878
 21
1962.678565444014
 31
0.0
  0
LINE
  5
1A3
330
87
100
AcDbEntity
  8
P-SANR-FIXT
100
AcDbLine
 10
853.1664074431878
 20
1960.344535413653
 30
0.0
 11
853.1664074431878
 21
1952.08560085767
 31
0.0
  0
ARC
  5
1A4
330
87
100
AcDbEntity
  8
P-SANR-FIXT
100
AcDbCircle
 10
831.6664074431876
 20
1970.937499999997
 30
0.0
 40
9.0
100
AcDbArc
 50
180.0
 51
359.9999999999982
  0
ARC
  5
1A5
330
87
100
AcDbEntity
  8
P-SANR-FIXT
100
AcDbCircle
 10
831.6664074431876
 20
1970.937499999997
 30
0.0
 40
8.999999999999886
100
AcDbArc
 50
0.0
 51
180.0
  0
ENDBLK
  5
1A7
330
87
100
AcDbEntity
  8
0
100
AcDbBlockEnd
  0
BLOCK
  5
1E4
330
1A9
100
AcDbEntity
  8
0
100
AcDbBlockBegin
  2
Automatic flow rate regulator valve_Caleffi_121 DN15 - 1_2__-V1-Est - Idraulica
 70
     0
 10
0.0
 20
0.0
 30
0.0
  3
Automatic flow rate regulator valve_Caleffi_121 DN15 - 1_2__-V1-Est - Idraulica
  1

  0
LINE
  5
1AA
330
1A9
100
AcDbEntity
  8
M-PIPE
100
AcDbLine
 10
870.2340229523983
 20
1847.747075844249
 30
0.0
 11
761.0987919339797
 21
1847.747075844249
 31
0.0
1001
REVIT
1002
{
1070
     3
1000
939838
1002
}
  0
LWPOLYLINE
  5
1AB
330
1A9
100
AcDbEntity
  8
M-PIPE
100
AcDbPolyline
 90
       41
 70
   128
 43
0.0
 10
753.1682768216668
 20
1839.908147814502
 10
753.1727525047056
 20
1840.131902127757
 10
753.1917775385108
 20
1840.448605432485
 10
753.2234521086093
 20
1840.764294609915
 10
753.2677255424451
 20
1841.078464624706
 10
753.3245270119692
 20
1841.390612871853
 10
753.3937656469472
 20
1841.700239980749
 10
753.475330680333
 20
1842.00685061407
 10
753.5690916254731
 20
1842.309954260211
 10
753.6748984848562
 20
1842.609066017995
 10
753.7925819900788
 20
1842.903707372417
 10
753.9219538726364
 20
1843.193406960163
 10
754.0628071651151
 20
1843.477701323694
 10
754.2149165322939
 20
1843.756135652672
 10
754.3780386316337
 20
1844.028264511568
 10
754.5519125025728
 20
1844.293652552259
 10
754.7362599840091
 20
1844.551875210492
 10
754.9307861592978
 20
1844.8025193851
 10
755.1351798280549
 20
1845.04518409887
 10
755.3491140040119
 20
1845.279481140026
 10
755.5722464381244
 20
1845.505035683284
 10
755.8042201660967
 20
1845.721486889489
 10
756.0446640794492
 20
1845.928488482886
 10
756.2931935192126
 20
1846.125709305083
 10
756.5494108913
 20
1846.312833844836
 10
756.8129063025727
 20
1846.489562742799
 10
757.0832582165823
 20
1846.655613270436
 10
757.3600341279382
 20
1846.810719782324
 10
757.6427912542246
 20
1846.954634141133
 10
757.9310772443577
 20
1847.087126114588
 10
758.2244309022511
 20
1847.207983743795
 10
758.5223829246313
 20
1847.31701368233
 10
758.8244566518215
 20
1847.414041505548
 10
759.1301688302976
 20
1847.498911989631
 10
759.439030385789
 20
1847.57148935991
 10
759.750547205694
 20
1847.631657508072
 10
760.0642209295541
 20
1847.679320177919
 10
760.3795497463246
 20
1847.714401119344
 10
760.6960291971648
 20
1847.736844210325
 10
761.0131529824662
 20
1847.746613546705
 10
761.0987919339797
 20
1847.747075844249
1001
REVIT
1002
{
1070
     3
1000
939838
1002
}
  0
LWPOLYLINE
  5
1AC
330
1A9
100
AcDbEntity
  8
M-PIPE
100
AcDbPolyline
 90
       41
 70
   128
 43
0.0
 10
870.2340229523983
 20
1847.747075844249
 10
870.5512337266974
 20
1847.740730782732
 10
870.8679370314255
 20
1847.721705748926
 10
871.1836262088553
 20
1847.690031178828
 10
871.4977962236456
 20
1847.645757744993
 10
871.8099444707929
 20
1847.588956275468
 10
872.1195715796893
 20
1847.51971764049
 10
872.4261822130108
 20
1847.438152607104
 10
872.7292858591511
 20
1847.344391661964
 10
873.0283976169348
 20
1847.238584802581
 10
873.3230389713568
 20
1847.120901297359
 10
873.6127385591036
 20
1846.991529414801
 10
873.8970329226336
 20
1846.850676122322
 10
874.1754672516119
 20
1846.698566755144
 10
874.4475961105079
 20
1846.535444655804
 10
874.7129841511988
 20
1846.361570784864
 10
874.9712068094323
 20
1846.177223303428
 10
875.2218509840398
 20
1845.98269712814
 10
875.4645156978099
 20
1845.778303459383
 10
875.6988127389664
 20
1845.564369283426
 10
875.9243672822238
 20
1845.341236849313
 10
876.1408184884292
 20
1845.109263121341
 10
876.347820081826
 20
1844.868819207988
 10
876.5450409040228
 20
1844.620289768225
 10
876.7321654437758
 20
1844.364072396137
 10
876.908894341739
 20
1844.100576984865
 10
877.0749448693758
 20
1843.830225070855
 10
877.2300513812643
 20
1843.553449159499
 10
877.3739657400732
 20
1843.270692033213
 10
877.5064577135282
 20
1842.98240604308
 10
877.6273153427355
 20
1842.689052385186
 10
877.73634528127
 20
1842.391100362807
 10
877.8333731044881
 20
1842.089026635616
 10
877.9182435885713
 20
1841.78331445714
 10
877.9908209588494
 20
1841.474452901649
 10
878.0509891070128
 20
1841.162936081744
 10
878.0986517768591
 20
1840.849262357884
 10
878.1337327182843
 20
1840.533933541113
 10
878.1561758092657
 20
1840.217454090273
 10
878.165945145645
 20
1839.900330304971
 10
878.1664074431891
 20
1839.814691353458
1001
REVIT
1002
{
1070
     3
1000
939838
1002
}
  0
LINE
  5
1AD
330
1A9
100
AcDbEntity
  8
M-PIPE
100
AcDbLine
 10
851.4964074431874
 20
1806.747075844248
 30
0.0
 11
858.4964074431876
 21
1806.747075844248
 31
0.0
1001
REVIT
1002
{
1070
     3
1000
939838
1002
}
  0
LINE
  5
1AE
330
1A9
100
AcDbEntity
  8
M-PIPE
100
AcDbLine
 10
772.8364074431874
 20
1806.747075844248
 30
0.0
 11
779.8364074431873
 21
1806.747075844248
 31
0.0
1001
REVIT
1002
{
1070
     3
1000
939838
1002
}
  0
ARC
  5
1AF
330
1A9
100
AcDbEntity
  8
M-PIPE
100
AcDbCircle
 10
815.6664074431873
 20
1806.747075844248
 30
0.0
 40
35.83000000000001
100
AcDbArc
 50
0.0
 51
39.75370028083475
1001
REVIT
1002
{
1070
     3
1000
939838
1002
}
  0
LINE
  5
1B0
330
1A9
100
AcDbEntity
  8
M-PIPE
100
AcDbLine
 10
850.1664074431829
 20
1806.747075844248
 30
0.0
 11
851.4964074431874
 21
1806.747075844248
 31
0.0
1001
REVIT
1002
{
1070
     3
1000
939838
1002
}
  0
ARC
  5
1B1
330
1A9
100
AcDbEntity
  8
M-PIPE
100
AcDbCircle
 10
815.6664074431873
 20
1806.747075844248
 30
0.0
 40
35.82999999999986
100
AcDbArc
 50
140.2462997191645
 51
179.9999999999998
1001
REVIT
1002
{
1070
     3
1000
939838
1002
}
  0
LINE
  5
1B2
330
1A9
100
AcDbEntity
  8
M-PIPE
100
AcDbLine
 10
779.8364074431873
 20
1806.747075844248
 30
0.0
 11
781.1664074431917
 21
1806.747075844248
 31
0.0
1001
REVIT
1002
{
1070
     3
1000
939838
1002
}
  0
SPLINE
  5
1B3
330
1A9
100
AcDbEntity
  8
M-PIPE
100
AcDbSpline
210
0.0
220
0.0
230
1.0
 70
     8
 71
     3
 72
    20
 73
    16
 74
     0
 42
0.000000001
 43
0.0000000001
 40
-1.0
 40
-1.0
 40
-1.0
 40
-1.0
 40
-0.875
 40
-0.8125
 40
-0.75
 40
-0.6875
 40
-0.625
 40
-0.5625
 40
-0.5
 40
-0.46875
 40
-0.4375
 40
-0.375
 40
-0.3125
 40
-0.25
 40
0.0
 40
0.0
 40
0.0
 40
0.0
 10
858.4964074431873
 20
1806.747075844248
 30
0.0
 10
858.4608908068744
 20
1808.027917766641
 30
0.0
 10
858.2739650625066
 20
1809.903929047121
 30
0.0
 10
857.7538181966028
 20
1812.301431725712
 30
0.0
 10
857.2354736977015
 20
1814.042773491156
 30
0.0
 10
856.5600071670601
 20
1815.733587403797
 30
0.0
 10
855.7333188029376
 20
1817.37013953784
 30
0.0
 10
854.7948383646454
 20
1818.939086251617
 30
0.0
 10
853.9539762584075
 20
1820.180563777415
 30
0.0
 10
853.2462472894522
 20
1821.13231960089
 30
0.0
 10
852.496764046122
 20
1822.06039137124
 30
0.0
 10
851.5009720133432
 20
1823.174021102303
 30
0.0
 10
850.2323170455758
 20
1824.436490214137
 30
0.0
 10
847.6213920104964
 20
1826.81313884698
 30
0.0
 10
845.2567784931165
 20
1828.491100079596
 30
0.0
 10
843.2125305823877
 20
1829.659954319027
 30
0.0
1001
REVIT
1002
{
1070
     3
1000
939838
1002
}
  0
LINE
  5
1B4
330
1A9
100
AcDbEntity
  8
M-PIPE
100
AcDbLine
 10
858.4964074431873
 20
1806.747075844248
 30
0.0
 11
870.2340229523965
 21
1806.747075844248
 31
0.0
1001
REVIT
1002
{
1070
     3
1000
939838
1002
}
  0
LINE
  5
1B5
330
1A9
100
AcDbEntity
  8
M-PIPE
100
AcDbLine
 10
761.0987919339783
 20
1806.747075844248
 30
0.0
 11
772.8364074431874
 21
1806.747075844248
 31
0.0
1001
REVIT
1002
{
1070
     3
1000
939838
1002
}
  0
SPLINE
  5
1B6
330
1A9
100
AcDbEntity
  8
M-PIPE
100
AcDbSpline
210
0.0
220
0.0
230
1.0
 70
     8
 71
     3
 72
    20
 73
    16
 74
     0
 42
0.000000001
 43
0.0000000001
 40
-1.0
 40
-1.0
 40
-1.0
 40
-1.0
 40
-0.75
 40
-0.6875
 40
-0.625
 40
-0.5625
 40
-0.5
 40
-0.46875
 40
-0.4375
 40
-0.375
 40
-0.3125
 40
-0.25
 40
-0.1875
 40
-0.125
 40
0.0
 40
0.0
 40
0.0
 40
0.0
 10
788.1202843039872
 20
1829.659954319028
 30
0.0
 10
786.0760363932584
 20
1828.491100079596
 30
0.0
 10
783.7115665392033
 20
1826.813163773969
 30
0.0
 10
781.1003829101395
 20
1824.436470272545
 30
0.0
 10
779.8322882293385
 20
1823.174098375969
 30
0.0
 10
778.6352259391294
 20
1821.837376271957
 30
0.0
 10
777.7245904749494
 20
1820.662940308134
 30
0.0
 10
777.0447643888752
 20
1819.684383841529
 30
0.0
 10
776.3802521822205
 20
1818.677357798785
 30
0.0
 10
775.5999414645636
 20
1817.370220170501
 30
0.0
 10
774.7726883907866
 20
1815.73356580033
 30
0.0
 10
774.0973731216597
 20
1814.042779272366
 30
0.0
 10
773.5789882863543
 20
1812.301430204342
 30
0.0
 10
773.0588548659186
 20
1809.903929959943
 30
0.0
 10
772.8719240795002
 20
1808.027917766642
 30
0.0
 10
772.8364074431874
 20
1806.747075844248
 30
0.0
1001
REVIT
1002
{
1070
     3
1000
939838
1002
}
  0
LINE
  5
1B7
330
1A9
100
AcDbEntity
  8
M-PIPE
100
AcDbLine
 10
789.9129407750389
 20
1829.659954319027
 30
0.0
 11
788.1202843039872
 21
1829.659954319028
 31
0.0
1001
REVIT
1002
{
1070
     3
1000
939838
1002
}
  0
LINE
  5
1B8
330
1A9
100
AcDbEntity
  8
M-PIPE
100
AcDbLine
 10
843.2125305823877
 20
1829.659954319027
 30
0.0
 11
841.4198741113361
 21
1829.659954319027
 31
0.0
1001
REVIT
1002
{
1070
     3
1000
939838
1002
}
  0
LINE
  5
1B9
330
1A9
100
AcDbEntity
  8
M-PIPE
100
AcDbLine
 10
753.1664074431874
 20
1806.747075844248
 30
0.0
 11
761.0987919339781
 21
1806.747075844248
 31
0.0
1001
REVIT
1002
{
1070
     3
1000
939838
1002
}
  0
LINE
  5
1BA
330
1A9
100
AcDbEntity
  8
M-PIPE
100
AcDbLine
 10
870.2340229523967
 20
1806.747075844248
 30
0.0
 11
878.1664074431875
 21
1806.747075844248
 31
0.0
1001
REVIT
1002
{
1070
     3
1000
939838
1002
}
  0
LINE
  5
1BB
330
1A9
100
AcDbEntity
  8
M-PIPE
100
AcDbLine
 10
791.0944438554547
 20
1802.55989151578
 30
0.0
 11
797.9484073314456
 21
1798.602753857901
 31
0.0
1001
REVIT
1002
{
1070
     3
1000
938184
1002
}
  0
LWPOLYLINE
  5
1BC
330
1A9
100
AcDbEntity
  8
M-PIPE
100
AcDbPolyline
 90
       11
 70
   128
 43
0.0
 10
791.1080186977016
 20
1811.002768707342
 10
790.9550831353254
 20
1810.136219536242
 10
790.8369226294788
 20
1809.264247720739
 10
790.7537262117656
 20
1808.388248229727
 10
790.7056269787058
 20
1807.509622475522
 10
790.6927018788122
 20
1806.629776071901
 10
790.7149715894871
 20
1805.750116585418
 10
790.7724004839446
 20
1804.872051283601
 10
790.8648966882037
 20
1803.996984883622
 10
790.9923122280695
 20
1803.126317305051
 10
791.0944438554547
 20
1802.55989151578
1001
REVIT
1002
{
1070
     3
1000
938184
1002
}
  0
LINE
  5
1BD
330
1A9
100
AcDbEntity
  8
M-PIPE
100
AcDbLine
 10
797.9872737992779
 20
1814.974508492061
 30
0.0
 11
791.1080186977016
 21
1811.002768707342
 31
0.0
1001
REVIT
1002
{
1070
     3
1000
938184
1002
}
  0
LWPOLYLINE
  5
1BE
330
1A9
100
AcDbEntity
  8
M-PIPE
100
AcDbPolyline
 90
       58
 70
   128
 43
0.0
 10
833.3455410870652
 20
1814.974508492081
 10
833.0023716777656
 20
1815.674903838188
 10
832.6314684238321
 20
1816.361015826531
 10
832.2334246913495
 20
1817.031746824292
 10
831.8088772653787
 20
1817.686023804957
 10
831.3585053312353
 20
1818.322800064927
 10
830.8830293879404
 20
1818.941056898026
 10
830.383210095573
 20
1819.539805225209
 10
829.859847058379
 20
1820.118087176877
 10
829.3137775455731
 20
1820.674977625269
 10
828.7458751518871
 20
1821.209585664464
 10
828.1570484000047
 20
1821.721056035643
 10
827.5482392871193
 20
1822.20857049532
 10
826.9204217779391
 20
1822.671349124357
 10
826.2746002465519
 20
1823.108651575667
 10
825.6118078696395
 20
1823.519778258617
 10
824.9331049736172
 20
1823.904071458215
 10
824.2395773383362
 20
1824.26091638732
 10
823.5323344600683
 20
1824.589742170168
 10
822.8125077765481
 20
1824.890022755652
 10
822.0812488569148
 20
1825.161277758892
 10
821.3397275594461
 20
1825.403073229749
 10
820.5891301600349
 20
1825.615022347047
 10
819.8306574544018
 20
1825.796786037414
 10
819.0655228370767
 20
1825.948073517718
 10
818.2949503602269
 20
1826.068642760265
 10
817.5201727754362
 20
1826.158300879986
 10
816.7424295615624
 20
1826.216904443015
 10
815.9629649418386
 20
1826.244359696155
 10
815.183025893379
 20
1826.240622716855
 10
814.4038601522833
 20
1826.205699483486
 10
813.6267142175238
 20
1826.139645865771
 10
812.8528313568143
 20
1826.042567535408
 10
812.0834496176451
 20
1825.914619797017
 10
811.3197998466734
 20
1825.756007339684
 10
810.563103720629
 20
1825.566983909507
 10
809.8145717918942
 20
1825.347851903651
 10
809.0754015518763
 20
1825.098961886578
 10
808.3467755152783
 20
1824.820712029224
 10
807.6298593283267
 20
1824.513547472002
 10
806.9257999039868
 20
1824.177959612681
 10
806.2357235871457
 20
1823.814485320245
 10
805.5607343527027
 20
1823.423706076026
 10
804.9019120394426
 20
1823.006247043453
 10
804.2603106225252
 20
1822.562776067925
 10
803.6369565273497
 20
1822.094002608401
 10
803.0328469874937
 20
1821.600676602416
 10
802.4489484493511
 20
1821.083587266342
 10
801.8861950260239
 20
1820.543561832812
 10
801.3454870029427
 20
1819.981464227318
 10
800.827689397599
 20
1819.398193686122
 10
800.333630575704
 20
1818.794683317666
 10
799.8641009259788
 20
1818.171898609797
 10
799.4198515957024
 20
1817.530835885194
 10
799.0015932890347
 20
1816.872520707464
 10
798.6099951300429
 20
1816.198006240458
 10
798.2456835922449
 20
1815.508371563434
 10
797.9872737992779
 20
1814.974508492061
1001
REVIT
1002
{
1070
     3
1000
938184
1002
}
  0
LINE
  5
1BF
330
1A9
100
AcDbEntity
  8
M-PIPE
100
AcDbLine
 10
840.2247961886841
 20
1811.002768707338
 30
0.0
 11
833.3455410870666
 21
1814.974508492082
 31
0.0
1001
REVIT
1002
{
1070
     3
1000
938184
1002
}
  0
LWPOLYLINE
  5
1C0
330
1A9
100
AcDbEntity
  8
M-PIPE
100
AcDbPolyline
 90
       11
 70
   128
 43
0.0
 10
840.2383710309301
 20
1802.559891515776
 10
840.3885192553833
 20
1803.426927998785
 10
840.5038751656009
 20
1804.29927527261
 10
840.5842542167347
 20
1805.175537767706
 10
840.6295278194491
 20
1806.054313651007
 10
840.639623545638
 20
1806.934197068561
 10
840.6145252442929
 20
1807.813780394598
 10
840.554273067342
 20
1808.691656483432
 10
840.4589634054151
 20
1809.56642092059
 10
840.3287487336401
 20
1810.43667426958
 10
840.2247961886841
 20
1811.002768707338
1001
REVIT
1002
{
1070
     3
1000
938184
1002
}
  0
LINE
  5
1C1
330
1A9
100
AcDbEntity
  8
M-PIPE
100
AcDbLine
 10
833.3844075548965
 20
1798.602753857874
 30
0.0
 11
840.2383710309301
 21
1802.559891515776
 31
0.0
1001
REVIT
1002
{
1070
     3
1000
938184
1002
}
  0
LWPOLYLINE
  5
1C2
330
1A9
100
AcDbEntity
  8
M-PIPE
100
AcDbPolyline
 90
       58
 70
   128
 43
0.0
 10
797.9484073314442
 20
1798.6027538579
 10
798.2882474209438
 20
1797.900737050484
 10
798.6558888593361
 20
1797.212871760544
 10
799.050743498745
 20
1796.54025842581
 10
799.4721796559795
 20
1795.883973084131
 10
799.9195231230888
 20
1795.245065652056
 10
800.3920582459544
 20
1794.624558245183
 10
800.8890290691814
 20
1794.023443542994
 10
801.4096405454674
 20
1793.442683200782
 10
801.9530598075084
 20
1792.883206311207
 10
802.5184175004083
 20
1792.345907917942
 10
803.1048091724617
 20
1791.831647583799
 10
803.7112967220837
 20
1791.34124801561
 10
804.3369098985717
 20
1790.875493748071
 10
804.9806478543004
 20
1790.435129888655
 10
805.6414807458645
 20
1790.020860925596
 10
806.3183513816071
 20
1789.633349600864
 10
807.0101769129026
 20
1789.273215849913
 10
807.7158505664826
 20
1788.941035809921
 10
808.4342434150368
 20
1788.637340898089
 10
809.1642061832569
 20
1788.362616961493
 10
809.9045710864304
 20
1788.117303499826
 10
810.6541536986485
 20
1787.901792962296
 10
811.4117548476341
 20
1787.716430119789
 10
812.1761625331616
 20
1787.561511513313
 10
812.9461538659995
 20
1787.43728497959
 10
813.7204970242711
 20
1787.343949254573
 10
814.4979532241073
 20
1787.281653655512
 10
815.2772787014372
 20
1787.250497842077
 10
816.0572267017442
 20
1787.250531656922
 10
816.836549474608
 20
1787.281755045952
 10
817.6140002698382
 20
1787.344118058404
 10
818.38833533201
 20
1787.437520926761
 10
819.1583158902068
 20
1787.561814226361
 10
819.9227101397889
 20
1787.716799114436
 10
820.6802952130194
 20
1787.902227648229
 10
821.4298591353905
 20
1788.117803181641
 10
822.170202764525
 20
1788.363180839806
 10
822.9001417085475
 20
1788.637968070815
 10
823.6185082208599
 20
1788.941725273717
 10
824.3241530682855
 20
1789.273966501784
 10
825.0159473695982
 20
1789.634160239928
 10
825.6927844014908
 20
1790.021730255002
 10
826.3535813690966
 20
1790.436056517662
 10
826.9972811382293
 20
1790.876476194271
 10
827.6228539265746
 20
1791.342284707298
 10
828.2292989511187
 20
1791.83273686249
 10
828.8156460291908
 20
1792.347048041021
 10
829.3809571305464
 20
1792.884395454721
 10
829.9243278780171
 20
1793.443919462356
 10
830.4448889943193
 20
1794.024724944872
 10
830.9418076927144
 20
1794.625882737395
 10
831.4142890092883
 20
1795.246431115699
 10
831.8615770747255
 20
1795.885377334753
 10
832.2829563235373
 20
1796.541699216909
 10
832.6777526388154
 20
1797.214346787163
 10
833.0453344306738
 20
1797.902243952894
 10
833.3844075548965
 20
1798.602753857874
1001
REVIT
1002
{
1070
     3
1000
938184
1002
}
  0
ARC
  5
1C3
330
1A9
100
AcDbEntity
  8
M-PIPE
100
AcDbCircle
 10
815.6664074431906
 20
1806.746614861186
 30
0.0
 40
23.75
100
AcDbArc
 50
192.0647594055305
 51
347.9352405944581
1001
REVIT
1002
{
1070
     3
1000
938184
1002
}
  0
ARC
  5
1C4
330
1A9
100
AcDbEntity
  8
M-PIPE
100
AcDbCircle
 10
815.6664074431906
 20
1806.746614861186
 30
0.0
 40
23.74999999999996
100
AcDbArc
 50
12.2383336182281
 51
167.7616663817651
1001
REVIT
1002
{
1070
     3
1000
938184
1002
}
  0
SPLINE
  5
1C5
330
1A9
100
AcDbEntity
  8
M-PIPE
100
AcDbSpline
210
0.0
220
0.0
230
1.0
 70
     8
 71
     3
 72
    15
 73
    11
 74
     0
 42
0.000000001
 43
0.0000000001
 40
0.0
 40
0.0
 40
0.0
 40
0.0
 40
0.1428571428571428
 40
0.2857142857142857
 40
0.4285714285714286
 40
0.5714285714285714
 40
0.6785714285714287
 40
0.7321428571428572
 40
0.7857142857142857
 40
1.0
 40
1.0
 40
1.0
 40
1.0
 10
794.3004085374442
 20
1804.750378827947
 30
0.0
 10
794.0690104375927
 20
1804.601438299939
 30
0.0
 10
793.6102124071553
 20
1804.296272388561
 30
0.0
 10
792.9455253163995
 20
1803.850161701239
 30
0.0
 10
792.3382848118267
 20
1803.433826944166
 30
0.0
 10
791.8602309927524
 20
1803.10092708777
 30
0.0
 10
791.5624250634706
 20
1802.892182588433
 30
0.0
 10
791.3927388637874
 20
1802.771477684911
 30
0.0
 10
791.1783173830424
 20
1802.620002432277
 30
0.0
 10
791.0952456729802
 20
1802.559428586215
 30
0.0
 10
791.0944438554532
 20
1802.55989151578
 30
0.0
1001
REVIT
1002
{
1070
     3
1000
938184
1002
}
  0
SPLINE
  5
1C6
330
1A9
100
AcDbEntity
  8
M-PIPE
100
AcDbSpline
210
0.0
220
0.0
230
1.0
 70
     8
 71
     3
 72
    13
 73
     9
 74
     0
 42
0.000000001
 43
0.0000000001
 40
-1.0
 40
-1.0
 40
-1.0
 40
-1.0
 40
-0.8333333333333332
 40
-0.6666666666666666
 40
-0.5
 40
-0.3333333333333333
 40
-0.1666666666666666
 40
0.0
 40
0.0
 40
0.0
 40
0.0
 10
794.3076677234304
 20
1808.808635049332
 30
0.0
 10
794.0122562178576
 20
1808.990762346779
 30
0.0
 10
793.4394197827336
 20
1809.36536935064
 30
0.0
 10
792.6716506549971
 20
1809.908022452505
 30
0.0
 10
792.0054024120787
 20
1810.369990529334
 30
0.0
 10
791.4942631171422
 20
1810.72452513497
 30
0.0
 10
791.1860127307469
 20
1810.95493775206
 30
0.0
 10
791.1110905870213
 20
1811.004542263468
 30
0.0
 10
791.1080186977002
 20
1811.002768707341
 30
0.0
1001
REVIT
1002
{
1070
     3
1000
938184
1002
}
  0
SPLINE
  5
1C7
330
1A9
100
AcDbEntity
  8
M-PIPE
100
AcDbSpline
210
0.0
220
0.0
230
1.0
 70
     8
 71
     3
 72
    13
 73
     9
 74
     0
 42
0.000000001
 43
0.0000000001
 40
0.0
 40
0.0
 40
0.0
 40
0.0
 40
0.1428571428571428
 40
0.2857142857142857
 40
0.4285714285714286
 40
0.5714285714285714
 40
0.7857142857142857
 40
1.0
 40
1.0
 40
1.0
 40
1.0
 10
800.7467610411922
 20
1812.526247309678
 30
0.0
 10
800.542583666386
 20
1812.699570141936
 30
0.0
 10
800.1379679797194
 20
1813.05154131699
 30
0.0
 10
799.5558925905428
 20
1813.561481701825
 30
0.0
 10
799.030702835779
 20
1814.029065366164
 30
0.0
 10
798.5124761724136
 20
1814.495441292519
 30
0.0
 10
798.0967437546435
 20
1814.874013056776
 30
0.0
 10
797.9876407561997
 20
1814.974720354738
 30
0.0
 10
797.9872737992764
 20
1814.97450849206
 30
0.0
1001
REVIT
1002
{
1070
     3
1000
938184
1002
}
  0
SPLINE
  5
1C8
330
1A9
100
AcDbEntity
  8
M-PIPE
100
AcDbSpline
210
0.0
220
0.0
230
1.0
 70
     8
 71
     3
 72
    11
 73
     7
 74
     0
 42
0.000000001
 43
0.0000000001
 40
-1.0
 40
-1.0
 40
-1.0
 40
-1.0
 40
-0.8333333333333332
 40
-0.6666666666666666
 40
-0.5
 40
-0.3333333333333333
 40
-0.3333333333333333
 40
-0.3333333333333333
 40
-0.3333333333333333
 10
830.5860538451494
 20
1812.526247309699
 30
0.0
 10
830.8363775896079
 20
1812.732349118093
 30
0.0
 10
831.3267478894019
 20
1813.152961183978
 30
0.0
 10
831.9923655459113
 20
1813.756280193844
 30
0.0
 10
832.5816619394615
 20
1814.276215019542
 30
0.0
 10
832.8811502203063
 20
1814.53837364101
 30
0.0
 10
832.9993027099041
 20
1814.645233594862
 30
0.0
1001
REVIT
1002
{
1070
     3
1000
938184
1002
}
  0
SPLINE
  5
1C9
330
1A9
100
AcDbEntity
  8
M-PIPE
100
AcDbSpline
210
0.0
220
0.0
230
1.0
 70
     8
 71
     3
 72
     9
 73
     5
 74
     0
 42
0.000000001
 43
0.0000000001
 40
-0.3309321679349982
 40
-0.3309321679349982
 40
-0.3309321679349982
 40
-0.3309321679349982
 40
-0.1666666666666666
 40
0.0
 40
0.0
 40
0.0
 40
0.0
 10
833.0043897118738
 20
1814.64983709624
 30
0.0
 10
833.1199433282606
 20
1814.75446908563
 30
0.0
 10
833.2909863189657
 20
1814.917778506875
 30
0.0
 10
833.3474162097154
 20
1814.973425889514
 30
0.0
 10
833.3455410870652
 20
1814.974508492081
 30
0.0
1001
REVIT
1002
{
1070
     3
1000
938184
1002
}
  0
SPLINE
  5
1CA
330
1A9
100
AcDbEntity
  8
M-PIPE
100
AcDbSpline
210
0.0
220
0.0
230
1.0
 70
     8
 71
     3
 72
    15
 73
    11
 74
     0
 42
0.000000001
 43
0.0000000001
 40
0.0
 40
0.0
 40
0.0
 40
0.0
 40
0.1428571428571428
 40
0.2857142857142857
 40
0.4285714285714286
 40
0.5714285714285714
 40
0.6785714285714287
 40
0.7321428571428572
 40
0.7857142857142857
 40
1.0
 40
1.0
 40
1.0
 40
1.0
 10
837.0251471629522
 20
1808.808635049328
 30
0.0
 10
837.2561765916591
 20
1808.957927359245
 30
0.0
 10
837.7142375163252
 20
1809.263767239484
 30
0.0
 10
838.3777901452445
 20
1809.71078616902
 30
0.0
 10
838.9838870485025
 20
1810.127848941731
 30
0.0
 10
839.4609267832864
 20
1810.461220127486
 30
0.0
 10
839.7580255909813
 20
1810.670201309014
 30
0.0
 10
839.9272944818047
 20
1810.79101959575
 30
0.0
 10
840.1411586868531
 20
1810.942625284153
 30
0.0
 10
840.2240022441269
 20
1811.00322709144
 30
0.0
 10
840.2247961886828
 20
1811.002768707338
 30
0.0
1001
REVIT
1002
{
1070
     3
1000
938184
1002
}
  0
SPLINE
  5
1CB
330
1A9
100
AcDbEntity
  8
M-PIPE
100
AcDbSpline
210
0.0
220
0.0
230
1.0
 70
     8
 71
     3
 72
    14
 73
    10
 74
     0
 42
0.000000001
 43
0.0000000001
 40
-1.0
 40
-1.0
 40
-1.0
 40
-1.0
 40
-0.8333333333333332
 40
-0.6666666666666666
 40
-0.5
 40
-0.3333333333333333
 40
-0.25
 40
-0.1666666666666666
 40
0.0
 40
0.0
 40
0.0
 40
0.0
 10
837.0324063489377
 20
1804.750378827944
 30
0.0
 10
837.3284488997452
 20
1804.568615864632
 30
0.0
 10
837.9024485176856
 20
1804.194679261825
 30
0.0
 10
838.6717863856675
 20
1803.652937105425
 30
0.0
 10
839.3390652679167
 20
1803.191544881329
 30
0.0
 10
839.7666646567392
 20
1802.897111587426
 30
0.0
 10
840.0047407649775
 20
1802.721979341058
 30
0.0
 10
840.1796276582373
 20
1802.595667860799
 30
0.0
 10
840.2352876526173
 20
1802.558111326478
 30
0.0
 10
840.2383710309283
 20
1802.559891515776
 30
0.0
1001
REVIT
1002
{
1070
     3
1000
938184
1002
}
  0
SPLINE
  5
1CC
330
1A9
100
AcDbEntity
  8
M-PIPE
100
AcDbSpline
210
0.0
220
0.0
230
1.0
 70
     8
 71
     3
 72
    14
 73
    10
 74
     0
 42
0.000000001
 43
0.0000000001
 40
0.0
 40
0.0
 40
0.0
 40
0.0
 40
0.1666666666666666
 40
0.25
 40
0.3333333333333333
 40
0.5
 40
0.6666666666666666
 40
0.8333333333333332
 40
1.0
 40
1.0
 40
1.0
 40
1.0
 10
797.9484073314441
 20
1798.6027538579
 30
0.0
 10
797.9464548518024
 20
1798.603881122546
 30
0.0
 10
797.988332938258
 20
1798.646074053939
 30
0.0
 10
798.1347719642469
 20
1798.783203237586
 30
0.0
 10
798.3379851744139
 20
1798.972880686676
 30
0.0
 10
798.7146045489157
 20
1799.299613638283
 30
0.0
 10
799.3055969387802
 20
1799.818673341038
 30
0.0
 10
799.9733192732427
 20
1800.420829032956
 30
0.0
 10
800.4652112876842
 20
1800.840532663172
 30
0.0
 10
800.7163374607612
 20
1801.046140536968
 30
0.0
1001
REVIT
1002
{
1070
     3
1000
938184
1002
}
  0
SPLINE
  5
1CD
330
1A9
100
AcDbEntity
  8
M-PIPE
100
AcDbSpline
210
0.0
220
0.0
230
1.0
 70
     8
 71
     3
 72
    13
 73
     9
 74
     0
 42
0.000000001
 43
0.0000000001
 40
0.0
 40
0.0
 40
0.0
 40
0.0
 40
0.1428571428571428
 40
0.2857142857142857
 40
0.4285714285714286
 40
0.5714285714285714
 40
0.7857142857142857
 40
1.0
 40
1.0
 40
1.0
 40
1.0
 10
830.6164774255783
 20
1801.046140536941
 30
0.0
 10
830.8212058101943
 20
1800.873291018101
 30
0.0
 10
831.2269085987292
 20
1800.522220708392
 30
0.0
 10
831.8106162438743
 20
1800.013485637449
 30
0.0
 10
832.3373762543575
 20
1799.546856691173
 30
0.0
 10
832.8572813754492
 20
1799.081271066376
 30
0.0
 10
833.2745124925029
 20
1798.703162916209
 30
0.0
 10
833.384035025724
 20
1798.602538778055
 30
0.0
 10
833.3844075548949
 20
1798.602753857873
 30
0.0
1001
REVIT
1002
{
1070
     3
1000
938184
1002
}
  0
LINE
  5
1CE
330
1A9
100
AcDbEntity
  8
P-SANR-FIXT
100
AcDbLine
 10
792.8861941536122
 20
1813.409353504417
 30
0.0
 11
789.6664074431927
 21
1813.409353504417
 31
0.0
  0
LINE
  5
1CF
330
1A9
100
AcDbEntity
  8
P-SANR-FIXT
100
AcDbLine
 10
789.6664074431929
 20
1800.08479818408
 30
0.0
 11
792.883991928377
 21
1800.08479818408
 31
0.0
  0
ARC
  5
1D0
330
1A9
100
AcDbEntity
  8
P-SANR-FIXT
100
AcDbCircle
 10
815.6664074431873
 20
1806.747075844248
 30
0.0
 40
26.49999999999602
100
AcDbArc
 50
194.5686250323403
 51
0.0
  0
ARC
  5
1D1
330
1A9
100
AcDbEntity
  8
P-SANR-FIXT
100
AcDbCircle
 10
815.6664074431873
 20
1806.747075844248
 30
0.0
 40
26.49999999999594
100
AcDbArc
 50
180.0000000000001
 51
191.1126113172624
  0
ARC
  5
1D2
330
1A9
100
AcDbEntity
  8
P-SANR-FIXT
100
AcDbCircle
 10
815.6664074431873
 20
1806.747075844248
 30
0.0
 40
34.49999999999543
100
AcDbArc
 50
179.9999999999997
 51
359.9999999999993
  0
LINE
  5
1D3
330
1A9
100
AcDbEntity
  8
P-SANR-FIXT
100
AcDbLine
 10
850.1075720144202
 20
1805.399522977922
 30
0.0
 11
853.1664074431873
 21
1805.399522977922
 31
0.0
  0
LINE
  5
1D4
330
1A9
100
AcDbEntity
  8
P-SANR-FIXT
100
AcDbLine
 10
853.1664074431873
 20
1805.399522977922
 30
0.0
 11
853.1664074431873
 21
1806.747075844248
 31
0.0
  0
LINE
  5
1D5
330
1A9
100
AcDbEntity
  8
P-SANR-FIXT
100
AcDbLine
 10
853.1664074431873
 20
1789.747075844247
 30
0.0
 11
853.1664074431873
 21
1791.094628710573
 31
0.0
  0
LINE
  5
1D6
330
1A9
100
AcDbEntity
  8
P-SANR-FIXT
100
AcDbLine
 10
853.1664074431873
 20
1791.094628710573
 30
0.0
 11
846.375917257469
 21
1791.094628710573
 31
0.0
  0
LINE
  5
1D7
330
1A9
100
AcDbEntity
  8
P-SANR-FIXT
100
AcDbLine
 10
845.6744256363833
 20
1789.747075844247
 30
0.0
 11
853.1664074431873
 21
1789.747075844247
 31
0.0
  0
ARC
  5
1D8
330
1A9
100
AcDbEntity
  8
P-SANR-FIXT
100
AcDbCircle
 10
815.6664074431873
 20
1806.747075844248
 30
0.0
 40
26.49999999999614
100
AcDbArc
 50
359.9999999999992
 51
165.4313749676594
  0
ARC
  5
1D9
330
1A9
100
AcDbEntity
  8
P-SANR-FIXT
100
AcDbCircle
 10
815.6664074431873
 20
1806.747075844248
 30
0.0
 40
26.49999999999602
100
AcDbArc
 50
168.8873886827367
 51
179.9999999999995
  0
ARC
  5
1DA
330
1A9
100
AcDbEntity
  8
P-SANR-FIXT
100
AcDbCircle
 10
815.6664074431873
 20
1806.747075844248
 30
0.0
 40
34.49999999999559
100
AcDbArc
 50
359.9999999999992
 51
179.9999999999991
  0
LINE
  5
1DB
330
1A9
100
AcDbEntity
  8
P-SANR-FIXT
100
AcDbLine
 10
789.6664074431915
 20
1813.409353504416
 30
0.0
 11
789.6664074431915
 21
1806.747075844248
 31
0.0
  0
LINE
  5
1DC
330
1A9
100
AcDbEntity
  8
P-SANR-FIXT
100
AcDbLine
 10
789.6664074431915
 20
1806.747075844248
 30
0.0
 11
789.6664074431915
 21
1800.084798184079
 31
0.0
  0
LINE
  5
1DD
330
1A9
100
AcDbEntity
  8
P-SANR-FIXT
100
AcDbLine
 10
778.1664074431874
 20
1805.399522977921
 30
0.0
 11
781.2252428719548
 21
1805.399522977921
 31
0.0
  0
LINE
  5
1DE
330
1A9
100
AcDbEntity
  8
P-SANR-FIXT
100
AcDbLine
 10
784.9568976289048
 20
1791.094628710575
 30
0.0
 11
778.1664074431873
 21
1791.094628710575
 31
0.0
  0
LINE
  5
1DF
330
1A9
100
AcDbEntity
  8
P-SANR-FIXT
100
AcDbLine
 10
778.1664074431873
 20
1789.747075844248
 30
0.0
 11
785.658389249991
 21
1789.747075844248
 31
0.0
  0
LINE
  5
1E0
330
1A9
100
AcDbEntity
  8
P-SANR-FIXT
100
AcDbLine
 10
778.1664074431873
 20
1791.094628710575
 30
0.0
 11
778.1664074431873
 21
1789.747075844248
 31
0.0
  0
LINE
  5
1E1
330
1A9
100
AcDbEntity
  8
P-SANR-FIXT
100
AcDbLine
 10
778.1664074431873
 20
1791.094628710575
 30
0.0
 11
778.1664074431874
 21
1805.399522977922
 31
0.0
  0
LINE
  5
1E2
330
1A9
100
AcDbEntity
  8
P-SANR-FIXT
100
AcDbLine
 10
778.1664074431874
 20
1806.747075844248
 30
0.0
 11
778.1664074431874
 21
1805.399522977922
 31
0.0
  0
LINE
  5
1E3
330
1A9
100
AcDbEntity
  8
P-SANR-FIXT
100
AcDbLine
 10
853.1664074431873
 20
1805.399522977922
 30
0.0
 11
853.1664074431873
 21
1791.094628710573
 31
0.0
  0
ENDBLK
  5
1E5
330
1A9
100
AcDbEntity
  8
0
100
AcDbBlockEnd
  0
BLOCK
  5
271
330
1E7
100
AcDbEntity
  8
0
100
AcDbBlockBegin
  2
Automatic flow rate regulator valve_Caleffi_121 DN15 - 1_2__-V2-Est - Idraulica
 70
     0
 10
0.0
 20
0.0
 30
0.0
  3
Automatic flow rate regulator valve_Caleffi_121 DN15 - 1_2__-V2-Est - Idraulica
  1

  0
LWPOLYLINE
  5
1E8
330
1E7
100
AcDbEntity
  8
M-PIPE
100
AcDbPolyline
 90
       41
 70
   128
 43
0.0
 10
1029.3631568289
 20
1970.998183850012
 10
1029.3959524558
 20
1969.35862114836
 10
1029.494286870493
 20
1967.721681397276
 10
1029.658002758892
 20
1966.089983351166
 10
1029.886838210499
 20
1964.466137378828
 10
1030.180427137409
 20
1962.852741287414
 10
1030.538299859967
 20
1961.252376166499
 10
1030.959883858159
 20
1959.667602258883
 10
1031.44450468752
 20
1958.100954864751
 10
1031.991387058105
 20
1956.554940285733
 10
1032.599656074782
 20
1955.032031815357
 10
1033.268338636882
 20
1953.534665782306
 10
1033.996364994949
 20
1952.065237652811
 10
1034.782570462117
 20
1950.626098198419
 10
1035.62569727735
 20
1949.219549735255
 10
1036.524396617604
 20
1947.847842440815
 10
1037.477230755644
 20
1946.513170754154
 10
1038.482675360112
 20
1945.217669865255
 10
1039.539121934124
 20
1943.963412299182
 10
1040.644880388523
 20
1942.752404600479
 10
1041.798181745667
 20
1941.586584123131
 10
1042.997180969407
 20
1940.467815931207
 10
1044.239959916759
 20
1939.397889815154
 10
1045.524530406518
 20
1938.378517428521
 10
1046.84883739993
 20
1937.411329549671
 10
1048.210762288307
 20
1936.497873472888
 10
1049.608126282356
 20
1935.639610533035
 10
1051.038693897777
 20
1934.837913767729
 10
1052.500176531555
 20
1934.094065720776
 10
1053.990236123243
 20
1933.409256390369
 10
1055.506488895357
 20
1932.784581325355
 10
1057.046509166911
 20
1932.221039872581
 10
1058.60783323399
 20
1931.719533578154
 10
1060.187963311153
 20
1931.280864745163
 10
1061.784371527352
 20
1930.905735150164
 10
1063.39450396999
 20
1930.594744920485
 10
1065.015784770636
 20
1930.348391574153
 10
1066.645620225864
 20
1930.167069223969
 10
1068.281402946623
 20
1930.051067947013
 10
1069.920516029511
 20
1930.000573320583
 10
1070.3631568289
 20
1929.998183850012
1001
REVIT
1002
{
1070
     3
1000
939838
1002
}
  0
LWPOLYLINE
  5
1E9
330
1E7
100
AcDbEntity
  8
M-PIPE
100
AcDbPolyline
 90
       41
 70
   128
 43
0.0
 10
1070.3631568289
 20
2011.998183850012
 10
1068.723594127248
 20
2011.965388223112
 10
1067.086654376164
 20
2011.86705380842
 10
1065.454956330054
 20
2011.703337920021
 10
1063.831110357716
 20
2011.474502468413
 10
1062.217714266302
 20
2011.180913541503
 10
1060.617349145387
 20
2010.823040818945
 10
1059.032575237771
 20
2010.401456820754
 10
1057.465927843639
 20
2009.916835991392
 10
1055.919913264621
 20
2009.369953620808
 10
1054.397004794245
 20
2008.76168460413
 10
1052.899638761194
 20
2008.093002042031
 10
1051.430210631699
 20
2007.364975683963
 10
1049.991071177307
 20
2006.578770216796
 10
1048.584522714143
 20
2005.735643401562
 10
1047.212815419703
 20
2004.836944061309
 10
1045.878143733042
 20
2003.884109923268
 10
1044.582642844143
 20
2002.8786653188
 10
1043.328385278069
 20
2001.822218744789
 10
1042.117377579367
 20
2000.716460290389
 10
1040.95155710202
 20
1999.563158933246
 10
1039.832788910095
 20
1998.364159709506
 10
1038.762862794042
 20
1997.121380762154
 10
1037.743490407409
 20
1995.836810272393
 10
1036.776302528559
 20
1994.512503278983
 10
1035.862846451776
 20
1993.150578390606
 10
1035.004583511923
 20
1991.753214396555
 10
1034.202886746617
 20
1990.322646781135
 10
1033.459038699663
 20
1988.861164147357
 10
1032.774229369258
 20
1987.371104555669
 10
1032.149554304244
 20
1985.854851783555
 10
1031.586012851469
 20
1984.314831512001
 10
1031.084506557042
 20
1982.753507444922
 10
1030.645837724051
 20
1981.173377367759
 10
1030.270708129052
 20
1979.57696915156
 10
1029.959717899373
 20
1977.966836708921
 10
1029.713364553041
 20
1976.345555908276
 10
1029.532042202857
 20
1974.715720453048
 10
1029.416040925901
 20
1973.079937732288
 10
1029.365546299472
 20
1971.4408246494
 10
1029.3631568289
 20
1970.998183850012
1001
REVIT
1002
{
1070
     3
1000
939838
1002
}
  0
ARC
  5
1EA
330
1E7
100
AcDbEntity
  8
M-PIPE
100
AcDbCircle
 10
1070.363156828898
 20
1970.998183850011
 30
0.0
 40
18.99999999999932
100
AcDbArc
 50
90.00000000000067
 51
269.9999999999997
1001
REVIT
1002
{
1070
     3
1000
939838
1002
}
  0
LINE
  5
1EB
330
1E7
100
AcDbEntity
  8
M-PIPE
100
AcDbLine
 10
1070.363156828898
 20
1989.99818385001
 30
0.0
 11
1070.363156828898
 21
2004.065799359221
 31
0.0
1001
REVIT
1002
{
1070
     3
1000
939838
1002
}
  0
LINE
  5
1EC
330
1E7
100
AcDbEntity
  8
M-PIPE
100
AcDbLine
 10
1070.363156828898
 20
1937.930568340802
 30
0.0
 11
1070.363156828898
 21
1951.998183850012
 31
0.0
1001
REVIT
1002
{
1070
     3
1000
939838
1002
}
  0
LINE
  5
1ED
330
1E7
100
AcDbEntity
  8
M-PIPE
100
AcDbLine
 10
1047.496864476447
 20
2004.998183850011
 30
0.0
 11
1047.450278354119
 21
2004.998183850011
 31
0.0
1001
REVIT
1002
{
1070
     3
1000
939838
1002
}
  0
LINE
  5
1EE
330
1E7
100
AcDbEntity
  8
M-PIPE
100
AcDbLine
 10
1047.495688681677
 20
2004.998183850011
 30
0.0
 11
1047.450278354118
 21
2004.998183850011
 31
0.0
1001
REVIT
1002
{
1070
     3
1000
939838
1002
}
  0
SPLINE
  5
1EF
330
1E7
100
AcDbEntity
  8
M-PIPE
100
AcDbSpline
210
0.0
220
0.0
230
1.0
 70
     8
 71
     3
 72
     8
 73
     4
 74
     0
 42
0.000000001
 43
0.0000000001
 40
-0.0519331949089889
 40
-0.0519331949089889
 40
-0.0519331949089889
 40
-0.0519331949089889
 40
0.0
 40
0.0
 40
0.0
 40
0.0
 10
1048.201349876747
 20
2005.492542126777
 30
0.0
 10
1047.943384700265
 20
2005.326758171192
 30
0.0
 10
1047.693087694265
 20
2005.16181505305
 30
0.0
 10
1047.450278354119
 20
2004.998183850011
 30
0.0
1001
REVIT
1002
{
1070
     3
1000
939838
1002
}
  0
SPLINE
  5
1F0
330
1E7
100
AcDbEntity
  8
M-PIPE
100
AcDbSpline
210
0.0
220
0.0
230
1.0
 70
     8
 71
     3
 72
    10
 73
     6
 74
     0
 42
0.000000001
 43
0.0000000001
 40
-1.0
 40
-1.0
 40
-1.0
 40
-1.0
 40
-0.75
 40
-0.6875
 40
-0.625
 40
-0.625
 40
-0.625
 40
-0.625
 10
1047.450278354119
 20
2004.998183850011
 30
0.0
 10
1048.61913259355
 20
2005.785884295388
 30
0.0
 10
1050.297068899177
 20
2006.808503092115
 30
0.0
 10
1052.673762400601
 20
2007.994142309047
 30
0.0
 10
1053.515343664985
 20
2008.379663027473
 30
0.0
 10
1053.948525998416
 20
2008.568915739329
 30
0.0
1001
REVIT
1002
{
1070
     3
1000
939838
1002
}
  0
SPLINE
  5
1F1
330
1E7
100
AcDbEntity
  8
M-PIPE
100
AcDbSpline
210
0.0
220
0.0
230
1.0
 70
     8
 71
     3
 72
    16
 73
    12
 74
     0
 42
0.000000001
 43
0.0000000001
 40
-0.5625
 40
-0.5625
 40
-0.5625
 40
-0.5625
 40
-0.5
 40
-0.46875
 40
-0.4375
 40
-0.375
 40
-0.3125
 40
-0.25
 40
-0.1875
 40
-0.125
 40
0.0
 40
0.0
 40
0.0
 40
0.0
 10
1055.284956576618
 20
2009.124918265014
 30
0.0
 10
1055.742630786718
 20
2009.305923014343
 30
0.0
 10
1056.447292365012
 20
2009.570319665582
 30
0.0
 10
1057.425848831618
 20
2009.906169090689
 30
0.0
 10
1058.432874874361
 20
2010.230381977338
 30
0.0
 10
1059.740012502645
 20
2010.609656469725
 30
0.0
 10
1061.376666872817
 20
2011.013357310133
 30
0.0
 10
1063.067453400781
 20
2011.356395684954
 30
0.0
 10
1064.808802468805
 20
2011.633292839443
 30
0.0
 10
1067.206302713203
 20
2011.908181905446
 30
0.0
 10
1069.082314906504
 20
2011.998183850011
 30
0.0
 10
1070.363156828898
 20
2011.998183850011
 30
0.0
1001
REVIT
1002
{
1070
     3
1000
939838
1002
}
  0
SPLINE
  5
1F2
330
1E7
100
AcDbEntity
  8
M-PIPE
100
AcDbSpline
210
0.0
220
0.0
230
1.0
 70
     9
 71
     3
 72
    12
 73
     8
 74
     0
 42
0.000000001
 43
0.0000000001
 40
0.0
 40
0.0
 40
0.0
 40
0.0
 40
0.2
 40
0.4
 40
0.7
 40
0.85
 40
1.0
 40
1.0
 40
1.0
 40
1.0
 10
1047.450278354119
 20
2004.998183850011
 30
0.0
 10
1046.257463373631
 20
2004.194336064987
 30
0.0
 10
1044.429485096576
 20
2002.788534424901
 30
0.0
 10
1042.885840898478
 20
2001.429662306545
 30
0.0
 10
1043.240621411446
 20
2001.766271304251
 30
0.0
 10
1045.080659635426
 20
2003.301817772452
 30
0.0
 10
1046.555862323132
 20
2004.395429561073
 30
0.0
 10
1047.450278354119
 20
2004.998183850011
 30
0.0
1001
REVIT
1002
{
1070
     3
1000
939838
1002
}
  0
LINE
  5
1F3
330
1E7
100
AcDbEntity
  8
M-PIPE
100
AcDbLine
 10
1070.363156828898
 20
1929.998183850011
 30
0.0
 11
1070.363156828898
 21
1937.930568340802
 31
0.0
1001
REVIT
1002
{
1070
     3
1000
939838
1002
}
  0
LINE
  5
1F4
330
1E7
100
AcDbEntity
  8
M-PIPE
100
AcDbLine
 10
1070.363156828898
 20
2004.065799359221
 30
0.0
 11
1070.363156828898
 21
2011.998183850011
 31
0.0
1001
REVIT
1002
{
1070
     3
1000
939838
1002
}
  0
LINE
  5
1F5
330
1E7
100
AcDbEntity
  8
M-PIPE
100
AcDbLine
 10
1070.363156828902
 20
2000.99818385001
 30
0.0
 11
1079.863156828955
 21
2000.99818385001
 31
0.0
1001
REVIT
1002
{
1070
     3
1000
790271
1002
}
  0
LINE
  5
1F6
330
1E7
100
AcDbEntity
  8
M-PIPE
100
AcDbLine
 10
1079.863156828955
 20
2000.99818385001
 30
0.0
 11
1089.363156829011
 21
2000.998183850009
 31
0.0
1001
REVIT
1002
{
1070
     3
1000
790271
1002
}
  0
LINE
  5
1F7
330
1E7
100
AcDbEntity
  8
M-PIPE
100
AcDbLine
 10
1089.363156829012
 20
1991.498183850009
 30
0.0
 11
1079.863156828957
 21
1991.49818385001
 31
0.0
1001
REVIT
1002
{
1070
     3
1000
790271
1002
}
  0
LINE
  5
1F8
330
1E7
100
AcDbEntity
  8
M-PIPE
100
AcDbLine
 10
1079.863156828957
 20
1991.49818385001
 30
0.0
 11
1070.363156828902
 21
1991.49818385001
 31
0.0
1001
REVIT
1002
{
1070
     3
1000
790271
1002
}
  0
LINE
  5
1F9
330
1E7
100
AcDbEntity
  8
M-PIPE
100
AcDbLine
 10
1070.363156828901
 20
1992.36420925373
 30
0.0
 11
1073.197011015931
 21
1992.36420925373
 31
0.0
1001
REVIT
1002
{
1070
     3
1000
790271
1002
}
  0
LINE
  5
1FA
330
1E7
100
AcDbEntity
  8
M-PIPE
100
AcDbLine
 10
1073.197011015931
 20
2000.132158446289
 30
0.0
 11
1070.363156828901
 21
2000.132158446289
 31
0.0
1001
REVIT
1002
{
1070
     3
1000
790271
1002
}
  0
LINE
  5
1FB
330
1E7
100
AcDbEntity
  8
M-PIPE
100
AcDbLine
 10
1073.197011015931
 20
1992.364209253724
 30
0.0
 11
1073.197011015931
 21
2000.132158446294
 31
0.0
1001
REVIT
1002
{
1070
     3
1000
790271
1002
}
  0
SPLINE
  5
1FC
330
1E7
100
AcDbEntity
  8
M-PIPE
100
AcDbSpline
210
0.0
220
0.0
230
1.0
 70
     8
 71
     3
 72
     9
 73
     5
 74
     0
 42
0.000000001
 43
0.0000000001
 40
0.0
 40
0.0
 40
0.0
 40
0.0
 40
0.5
 40
1.0
 40
1.0
 40
1.0
 40
1.0
 10
1073.197011015931
 20
1992.364209253724
 30
0.0
 10
1074.294898270894
 20
1992.081467065757
 30
0.0
 10
1076.503809828018
 20
1991.654387310503
 30
0.0
 10
1078.73899547954
 20
1991.504116796613
 30
0.0
 10
1079.863156828901
 20
1991.498183850009
 30
0.0
1001
REVIT
1002
{
1070
     3
1000
790271
1002
}
  0
SPLINE
  5
1FD
330
1E7
100
AcDbEntity
  8
M-PIPE
100
AcDbSpline
210
0.0
220
0.0
230
1.0
 70
     8
 71
     3
 72
     9
 73
     5
 74
     0
 42
0.000000001
 43
0.0000000001
 40
0.0
 40
0.0
 40
0.0
 40
0.0
 40
0.5
 40
1.0
 40
1.0
 40
1.0
 40
1.0
 10
1079.863156828901
 20
1991.498183850009
 30
0.0
 10
1080.987318178267
 20
1991.504116796613
 30
0.0
 10
1083.222503829801
 20
1991.654387310505
 30
0.0
 10
1085.431415386937
 20
1992.081467065762
 30
0.0
 10
1086.529302641904
 20
1992.364209253733
 30
0.0
1001
REVIT
1002
{
1070
     3
1000
790271
1002
}
  0
SPLINE
  5
1FE
330
1E7
100
AcDbEntity
  8
M-PIPE
100
AcDbSpline
210
0.0
220
0.0
230
1.0
 70
     8
 71
     3
 72
     9
 73
     5
 74
     0
 42
0.000000001
 43
0.0000000001
 40
0.0
 40
0.0
 40
0.0
 40
0.0
 40
0.5
 40
1.0
 40
1.0
 40
1.0
 40
1.0
 10
1086.529302641904
 20
2000.132158446285
 30
0.0
 10
1085.431415386936
 20
2000.414900634256
 30
0.0
 10
1083.222503829801
 20
2000.841980389514
 30
0.0
 10
1080.987318178267
 20
2000.992250903406
 30
0.0
 10
1079.8631568289
 20
2000.998183850009
 30
0.0
1001
REVIT
1002
{
1070
     3
1000
790271
1002
}
  0
SPLINE
  5
1FF
330
1E7
100
AcDbEntity
  8
M-PIPE
100
AcDbSpline
210
0.0
220
0.0
230
1.0
 70
     8
 71
     3
 72
     9
 73
     5
 74
     0
 42
0.000000001
 43
0.0000000001
 40
0.0
 40
0.0
 40
0.0
 40
0.0
 40
0.5
 40
1.0
 40
1.0
 40
1.0
 40
1.0
 10
1079.8631568289
 20
2000.998183850009
 30
0.0
 10
1078.738995479539
 20
2000.992250903406
 30
0.0
 10
1076.503809828017
 20
2000.841980389516
 30
0.0
 10
1074.294898270894
 20
2000.414900634262
 30
0.0
 10
1073.197011015931
 20
2000.132158446294
 30
0.0
1001
REVIT
1002
{
1070
     3
1000
790271
1002
}
  0
LINE
  5
200
330
1E7
100
AcDbEntity
  8
M-PIPE
100
AcDbLine
 10
1086.529302641904
 20
1992.364209253733
 30
0.0
 11
1086.529302641904
 21
2000.132158446285
 31
0.0
1001
REVIT
1002
{
1070
     3
1000
790271
1002
}
  0
LINE
  5
201
330
1E7
100
AcDbEntity
  8
M-PIPE
100
AcDbLine
 10
1086.529302641904
 20
1992.36420925373
 30
0.0
 11
1089.363156828918
 21
1992.36420925373
 31
0.0
1001
REVIT
1002
{
1070
     3
1000
790271
1002
}
  0
LINE
  5
202
330
1E7
100
AcDbEntity
  8
M-PIPE
100
AcDbLine
 10
1089.363156828918
 20
2000.132158446289
 30
0.0
 11
1086.529302641904
 21
2000.132158446289
 31
0.0
1001
REVIT
1002
{
1070
     3
1000
790271
1002
}
  0
LINE
  5
203
330
1E7
100
AcDbEntity
  8
M-PIPE
100
AcDbLine
 10
1089.363156828918
 20
1992.364209253736
 30
0.0
 11
1089.363156828918
 21
2000.132158446282
 31
0.0
1001
REVIT
1002
{
1070
     3
1000
790271
1002
}
  0
SPLINE
  5
204
330
1E7
100
AcDbEntity
  8
M-PIPE
100
AcDbSpline
210
0.0
220
0.0
230
1.0
 70
    24
 71
     3
 72
     9
 73
     5
 74
     0
 42
0.000000001
 43
0.0000000001
 40
0.0
 40
0.0
 40
0.0
 40
0.0
 40
0.5
 40
1.0
 40
1.0
 40
1.0
 40
1.0
 10
1089.363156828918
 20
1992.364209253736
 30
0.0
 10
1089.363156828918
 20
1992.08146706577
 30
0.0
 10
1089.363156828918
 20
1991.654387310515
 30
0.0
 10
1089.363156828918
 20
1991.504116796619
 30
0.0
 10
1089.363156828918
 20
1991.498183850009
 30
0.0
1001
REVIT
1002
{
1070
     3
1000
790271
1002
}
  0
SPLINE
  5
205
330
1E7
100
AcDbEntity
  8
M-PIPE
100
AcDbSpline
210
0.0
220
0.0
230
1.0
 70
    24
 71
     3
 72
     9
 73
     5
 74
     0
 42
0.000000001
 43
0.0000000001
 40
0.0
 40
0.0
 40
0.0
 40
0.0
 40
0.5
 40
1.0
 40
1.0
 40
1.0
 40
1.0
 10
1089.363156828918
 20
2000.998183850009
 30
0.0
 10
1089.363156828918
 20
2000.9922509034
 30
0.0
 10
1089.363156828918
 20
2000.841980389502
 30
0.0
 10
1089.363156828918
 20
2000.414900634249
 30
0.0
 10
1089.363156828918
 20
2000.132158446282
 30
0.0
1001
REVIT
1002
{
1070
     3
1000
790271
1002
}
  0
LINE
  5
206
330
1E7
100
AcDbEntity
  8
M-PIPE
100
AcDbLine
 10
1050.863617811946
 20
2073.998183850009
 30
0.0
 11
1050.863617811946
 21
2048.36599156808
 31
0.0
1001
REVIT
1002
{
1070
     3
1000
938184
1002
}
  0
LINE
  5
207
330
1E7
100
AcDbEntity
  8
M-PIPE
100
AcDbLine
 10
1089.863617811946
 20
2048.36599156808
 30
0.0
 11
1089.863617811946
 21
2073.998183850009
 31
0.0
1001
REVIT
1002
{
1070
     3
1000
938184
1002
}
  0
LINE
  5
208
330
1E7
100
AcDbEntity
  8
M-PIPE
100
AcDbLine
 10
1094.113617811963
 20
2043.998183850009
 30
0.0
 11
1094.113617811963
 21
2048.36599156808
 31
0.0
1001
REVIT
1002
{
1070
     3
1000
938184
1002
}
  0
LINE
  5
209
330
1E7
100
AcDbEntity
  8
M-PIPE
100
AcDbLine
 10
1046.613617811962
 20
2048.36599156808
 30
0.0
 11
1046.613617811962
 21
2043.998183850008
 31
0.0
1001
REVIT
1002
{
1070
     3
1000
938184
1002
}
  0
LINE
  5
20A
330
1E7
100
AcDbEntity
  8
M-PIPE
100
AcDbLine
 10
1076.064092136181
 20
2077.498183850009
 30
0.0
 11
1072.359853845201
 21
2077.498183850009
 31
0.0
1001
REVIT
1002
{
1070
     3
1000
938184
1002
}
  0
LINE
  5
20B
330
1E7
100
AcDbEntity
  8
M-PIPE
100
AcDbLine
 10
1068.301597623817
 20
2077.498183850009
 30
0.0
 11
1064.583985363471
 21
2077.498183850009
 31
0.0
1001
REVIT
1002
{
1070
     3
1000
938184
1002
}
  0
LWPOLYLINE
  5
20C
330
1E7
100
AcDbEntity
  8
M-PIPE
100
AcDbPolyline
 90
       41
 70
   128
 43
0.0
 10
1050.863617811975
 20
2073.998183850009
 10
1050.866417438661
 20
2074.138146519661
 10
1050.874811839916
 20
2074.277885278901
 10
1050.888787586486
 20
2074.417176575519
 10
1050.90832232016
 20
2074.555797573158
 10
1050.933384789531
 20
2074.693526507791
 10
1050.963934899993
 20
2074.830143042504
 10
1050.999923777887
 20
2074.965428619983
 10
1051.041293848686
 20
2075.099166812165
 10
1051.087978929102
 20
2075.231143666471
 10
1051.139904332965
 20
2075.361148048088
 10
1051.196986990705
 20
2075.48897197774
 10
1051.259135582247
 20
2075.614410964403
 10
1051.326250683103
 20
2075.737264332461
 10
1051.398224923428
 20
2075.857335542732
 10
1051.474943159791
 20
2075.974432506891
 10
1051.55628265938
 20
2076.088367894777
 10
1051.642113296346
 20
2076.198959434073
 10
1051.732297759982
 20
2076.306030201909
 10
1051.826691774381
 20
2076.409408907895
 10
1051.92514432926
 20
2076.508930168157
 10
1052.02749792153
 20
2076.604434769906
 10
1052.13358880728
 20
2076.695769926155
 10
1052.243247263723
 20
2076.782789520136
 10
1052.356297860721
 20
2076.865354339062
 10
1052.472559741436
 20
2076.943332296836
 10
1052.59184691166
 20
2077.01659864536
 10
1052.713968537367
 20
2077.085036174105
 10
1052.838729250006
 20
2077.148535397626
 10
1052.965929459053
 20
2077.20699473071
 10
1053.095365671306
 20
2077.260320650894
 10
1053.226830816439
 20
2077.308427848082
 10
1053.360114578263
 20
2077.35123936102
 10
1053.495003731192
 20
2077.388686700423
 10
1053.631282481355
 20
2077.420709958532
 10
1053.768732811824
 20
2077.447257904968
 10
1053.907134831391
 20
2077.468288068679
 10
1054.04626712635
 20
2077.48376680589
 10
1054.185907114707
 20
2077.493669353923
 10
1054.325831402271
 20
2077.497979870813
 10
1054.363617811975
 20
2077.498183850009
1001
REVIT
1002
{
1070
     3
1000
938184
1002
}
  0
LWPOLYLINE
  5
20D
330
1E7
100
AcDbEntity
  8
M-PIPE
100
AcDbPolyline
 90
       41
 70
   128
 43
0.0
 10
1086.363617811975
 20
2077.498183850009
 10
1086.503580481628
 20
2077.495384223322
 10
1086.643319240867
 20
2077.486989822068
 10
1086.782610537486
 20
2077.473014075497
 10
1086.921231535125
 20
2077.453479341823
 10
1087.058960469758
 20
2077.428416872453
 10
1087.19557700447
 20
2077.397866761991
 10
1087.330862581949
 20
2077.361877884096
 10
1087.464600774131
 20
2077.320507813297
 10
1087.596577628437
 20
2077.273822732882
 10
1087.726582010055
 20
2077.221897329018
 10
1087.854405939706
 20
2077.164814671278
 10
1087.97984492637
 20
2077.102666079736
 10
1088.102698294428
 20
2077.03555097888
 10
1088.222769504698
 20
2076.963576738555
 10
1088.339866468857
 20
2076.886858502192
 10
1088.453801856744
 20
2076.805519002604
 10
1088.564393396039
 20
2076.719688365637
 10
1088.671464163875
 20
2076.629503902001
 10
1088.774842869862
 20
2076.535109887602
 10
1088.874364130123
 20
2076.436657332723
 10
1088.969868731873
 20
2076.334303740453
 10
1089.061203888121
 20
2076.228212854704
 10
1089.148223482102
 20
2076.118554398261
 10
1089.230788301028
 20
2076.005503801262
 10
1089.308766258803
 20
2075.889241920547
 10
1089.382032607326
 20
2075.769954750323
 10
1089.450470136072
 20
2075.647833124617
 10
1089.513969359593
 20
2075.523072411977
 10
1089.572428692676
 20
2075.395872202931
 10
1089.62575461286
 20
2075.266435990677
 10
1089.673861810048
 20
2075.134970845544
 10
1089.716673322987
 20
2075.00168708372
 10
1089.754120662389
 20
2074.866797930792
 10
1089.786143920498
 20
2074.730519180629
 10
1089.812691866935
 20
2074.593068850159
 10
1089.833722030646
 20
2074.454666830592
 10
1089.849200767857
 20
2074.315534535633
 10
1089.859103315889
 20
2074.175894547276
 10
1089.86341383278
 20
2074.035970259712
 10
1089.863617811975
 20
2073.998183850009
1001
REVIT
1002
{
1070
     3
1000
938184
1002
}
  0
LINE
  5
20E
330
1E7
100
AcDbEntity
  8
M-PIPE
100
AcDbLine
 10
1075.327774498133
 20
2043.998183850007
 30
0.0
 11
1074.550341157367
 21
2043.998183850007
 31
0.0
1001
REVIT
1002
{
1070
     3
1000
938184
1002
}
  0
LINE
  5
20F
330
1E7
100
AcDbEntity
  8
M-PIPE
100
AcDbLine
 10
1074.550341157367
 20
2043.998183850007
 30
0.0
 11
1066.107463965805
 21
2043.998183850007
 31
0.0
1001
REVIT
1002
{
1070
     3
1000
938184
1002
}
  0
LINE
  5
210
330
1E7
100
AcDbEntity
  8
M-PIPE
100
AcDbLine
 10
1066.107463965805
 20
2043.998183850007
 30
0.0
 11
1065.329123992992
 21
2043.998183850007
 31
0.0
1001
REVIT
1002
{
1070
     3
1000
938184
1002
}
  0
LINE
  5
211
330
1E7
100
AcDbEntity
  8
M-PIPE
100
AcDbLine
 10
1078.507478815259
 20
2073.998183850008
 30
0.0
 11
1078.507478815259
 21
2048.365991568079
 31
0.0
1001
REVIT
1002
{
1070
     3
1000
938184
1002
}
  0
LINE
  5
212
330
1E7
100
AcDbEntity
  8
M-PIPE
100
AcDbLine
 10
1062.135724181094
 20
2048.365991568079
 30
0.0
 11
1062.135724181094
 21
2073.998183850008
 31
0.0
1001
REVIT
1002
{
1070
     3
1000
938184
1002
}
  0
LINE
  5
213
330
1E7
100
AcDbEntity
  8
M-PIPE
100
AcDbLine
 10
1065.329123992992
 20
2048.365991568079
 30
0.0
 11
1065.329123992992
 21
2043.998183850007
 31
0.0
1001
REVIT
1002
{
1070
     3
1000
938184
1002
}
  0
LINE
  5
214
330
1E7
100
AcDbEntity
  8
M-PIPE
100
AcDbLine
 10
1066.107463965805
 20
2043.998183850007
 30
0.0
 11
1066.107463965805
 21
2073.998183850008
 31
0.0
1001
REVIT
1002
{
1070
     3
1000
938184
1002
}
  0
LINE
  5
215
330
1E7
100
AcDbEntity
  8
M-PIPE
100
AcDbLine
 10
1075.327774498133
 20
2043.998183850007
 30
0.0
 11
1075.327774498133
 21
2048.365991568079
 31
0.0
1001
REVIT
1002
{
1070
     3
1000
938184
1002
}
  0
LINE
  5
216
330
1E7
100
AcDbEntity
  8
M-PIPE
100
AcDbLine
 10
1074.550341157367
 20
2043.998183850007
 30
0.0
 11
1074.550341157367
 21
2073.998183850008
 31
0.0
1001
REVIT
1002
{
1070
     3
1000
938184
1002
}
  0
LINE
  5
217
330
1E7
100
AcDbEntity
  8
M-PIPE
100
AcDbLine
 10
1094.11361781196
 20
2043.998183850008
 30
0.0
 11
1075.327774498133
 21
2043.998183850007
 31
0.0
1001
REVIT
1002
{
1070
     3
1000
938184
1002
}
  0
LINE
  5
218
330
1E7
100
AcDbEntity
  8
M-PIPE
100
AcDbLine
 10
1065.329123992992
 20
2043.998183850007
 30
0.0
 11
1046.61361781196
 21
2043.998183850007
 31
0.0
1001
REVIT
1002
{
1070
     3
1000
938184
1002
}
  0
LINE
  5
219
330
1E7
100
AcDbEntity
  8
M-PIPE
100
AcDbLine
 10
1094.11361781196
 20
2048.365991568079
 30
0.0
 11
1075.327774498133
 21
2048.365991568079
 31
0.0
1001
REVIT
1002
{
1070
     3
1000
938184
1002
}
  0
LINE
  5
21A
330
1E7
100
AcDbEntity
  8
M-PIPE
100
AcDbLine
 10
1065.329123992992
 20
2048.365991568079
 30
0.0
 11
1046.61361781196
 21
2048.365991568078
 31
0.0
1001
REVIT
1002
{
1070
     3
1000
938184
1002
}
  0
SPLINE
  5
21B
330
1E7
100
AcDbEntity
  8
M-PIPE
100
AcDbSpline
210
0.0
220
0.0
230
1.0
 70
     8
 71
     3
 72
    15
 73
    11
 74
     0
 42
0.000000001
 43
0.0000000001
 40
0.0
 40
0.0
 40
0.0
 40
0.0
 40
0.1428571428571428
 40
0.2857142857142857
 40
0.4285714285714286
 40
0.5714285714285714
 40
0.6785714285714287
 40
0.7321428571428572
 40
0.7857142857142857
 40
1.0
 40
1.0
 40
1.0
 40
1.0
 10
1072.359853845199
 20
2077.498183850007
 30
0.0
 10
1072.508794373208
 20
2077.498183850007
 30
0.0
 10
1072.813960284586
 20
2077.44662332045
 30
0.0
 10
1073.260070971908
 20
2077.210726837148
 30
0.0
 10
1073.676405728981
 20
2076.81820321895
 30
0.0
 10
1074.009305585376
 20
2076.321776103181
 30
0.0
 10
1074.218050084714
 20
2075.856097638799
 30
0.0
 10
1074.338754988235
 20
2075.497281387111
 30
0.0
 10
1074.490230240869
 20
2074.931134912887
 30
0.0
 10
1074.550804086932
 20
2074.414819193985
 30
0.0
 10
1074.550341157367
 20
2073.998183850008
 30
0.0
1001
REVIT
1002
{
1070
     3
1000
938184
1002
}
  0
SPLINE
  5
21C
330
1E7
100
AcDbEntity
  8
M-PIPE
100
AcDbSpline
210
0.0
220
0.0
230
1.0
 70
     8
 71
     3
 72
    13
 73
     9
 74
     0
 42
0.000000001
 43
0.0000000001
 40
-1.0
 40
-1.0
 40
-1.0
 40
-1.0
 40
-0.8333333333333332
 40
-0.6666666666666666
 40
-0.5
 40
-0.3333333333333333
 40
-0.1666666666666666
 40
0.0
 40
0.0
 40
0.0
 40
0.0
 10
1068.301597623815
 20
2077.498183850007
 30
0.0
 10
1068.119470326367
 20
2077.498183850007
 30
0.0
 10
1067.744863322507
 20
2077.417764011123
 30
0.0
 10
1067.202210220641
 20
2077.064095638172
 30
0.0
 10
1066.740242143812
 20
2076.501490015704
 30
0.0
 10
1066.385707538177
 20
2075.768289803974
 30
0.0
 10
1066.155294921087
 20
2074.914453868447
 30
0.0
 10
1066.105690409679
 20
2074.303616469107
 30
0.0
 10
1066.107463965805
 20
2073.998183850008
 30
0.0
1001
REVIT
1002
{
1070
     3
1000
938184
1002
}
  0
SPLINE
  5
21D
330
1E7
100
AcDbEntity
  8
M-PIPE
100
AcDbSpline
210
0.0
220
0.0
230
1.0
 70
     8
 71
     3
 72
    13
 73
     9
 74
     0
 42
0.000000001
 43
0.0000000001
 40
0.0
 40
0.0
 40
0.0
 40
0.0
 40
0.1428571428571428
 40
0.2857142857142857
 40
0.4285714285714286
 40
0.5714285714285714
 40
0.7857142857142857
 40
1.0
 40
1.0
 40
1.0
 40
1.0
 10
1064.583985363469
 20
2077.498183850007
 30
0.0
 10
1064.410662531211
 20
2077.498183850007
 30
0.0
 10
1064.058691356156
 20
2077.443457560203
 30
0.0
 10
1063.548750971322
 20
2077.195785505118
 30
0.0
 10
1063.081167306982
 20
2076.789491578008
 30
0.0
 10
1062.614791380628
 20
2076.147101613077
 30
0.0
 10
1062.23621961637
 20
2075.20906970004
 30
0.0
 10
1062.135512318408
 20
2074.402721173207
 30
0.0
 10
1062.135724181087
 20
2073.998183850008
 30
0.0
1001
REVIT
1002
{
1070
     3
1000
938184
1002
}
  0
SPLINE
  5
21E
330
1E7
100
AcDbEntity
  8
M-PIPE
100
AcDbSpline
210
0.0
220
0.0
230
1.0
 70
     8
 71
     3
 72
    14
 73
    10
 74
     0
 42
0.000000001
 43
0.0000000001
 40
0.0
 40
0.0
 40
0.0
 40
0.0
 40
0.1666666666666666
 40
0.25
 40
0.3333333333333333
 40
0.5
 40
0.6666666666666666
 40
0.8333333333333332
 40
1.0
 40
1.0
 40
1.0
 40
1.0
 10
1078.507478815247
 20
2073.998183850008
 30
0.0
 10
1078.5063515506
 20
2074.296384906566
 30
0.0
 10
1078.464158619207
 20
2074.746402501084
 30
0.0
 10
1078.32702943556
 20
2075.322173406987
 30
0.0
 10
1078.13735198647
 20
2075.870659308235
 30
0.0
 10
1077.810619034863
 20
2076.493632210216
 30
0.0
 10
1077.291559332109
 20
2077.06588772737
 30
0.0
 10
1076.68940364019
 20
2077.418453459821
 30
0.0
 10
1076.269700009975
 20
2077.498183850007
 30
0.0
 10
1076.064092136179
 20
2077.498183850007
 30
0.0
1001
REVIT
1002
{
1070
     3
1000
938184
1002
}
  0
LINE
  5
21F
330
1E7
100
AcDbEntity
  8
P-SANR-FIXT
100
AcDbLine
 10
1052.863156828901
 20
1978.351583953372
 30
0.0
 11
1052.863156828901
 21
1970.998183850012
 31
0.0
  0
LINE
  5
220
330
1E7
100
AcDbEntity
  8
P-SANR-FIXT
100
AcDbLine
 10
1087.863156828901
 20
1980.001585351574
 30
0.0
 11
1087.863156828901
 21
1991.49818385001
 31
0.0
  0
LINE
  5
221
330
1E7
100
AcDbEntity
  8
P-SANR-FIXT
100
AcDbLine
 10
1087.096357359578
 20
2024.6708304131
 30
0.0
 11
1087.096357359578
 21
2043.998183850008
 31
0.0
  0
LINE
  5
222
330
1E7
100
AcDbEntity
  8
P-SANR-FIXT
100
AcDbLine
 10
1087.096357359578
 20
2019.998183850008
 30
0.0
 11
1087.096357359578
 21
2024.6708304131
 31
0.0
  0
LINE
  5
223
330
1E7
100
AcDbEntity
  8
P-SANR-FIXT
100
AcDbLine
 10
1104.863156828896
 20
2014.398183850008
 30
0.0
 11
1096.863156828897
 21
2019.998183850008
 31
0.0
  0
LINE
  5
224
330
1E7
100
AcDbEntity
  8
P-SANR-FIXT
100
AcDbLine
 10
1104.863156828896
 20
2007.995385733373
 30
0.0
 11
1104.863156828896
 21
2014.398183850008
 31
0.0
  0
LINE
  5
225
330
1E7
100
AcDbEntity
  8
P-SANR-FIXT
100
AcDbLine
 10
1086.97120174088
 20
1961.998183850012
 30
0.0
 11
1091.363156828901
 21
1961.998183850012
 31
0.0
  0
LINE
  5
226
330
1E7
100
AcDbEntity
  8
P-SANR-FIXT
100
AcDbLine
 10
1091.363156828901
 20
1979.998183850012
 30
0.0
 11
1086.970204804099
 21
1979.998183850012
 31
0.0
  0
LINE
  5
227
330
1E7
100
AcDbEntity
  8
P-SANR-FIXT
100
AcDbLine
 10
1053.629956298223
 20
2043.998183850008
 30
0.0
 11
1053.629956298223
 21
2024.6708304131
 31
0.0
  0
LINE
  5
228
330
1E7
100
AcDbEntity
  8
P-SANR-FIXT
100
AcDbLine
 10
1053.629956298223
 20
2024.6708304131
 30
0.0
 11
1053.629956298223
 21
2019.998183850008
 31
0.0
  0
LINE
  5
229
330
1E7
100
AcDbEntity
  8
P-SANR-FIXT
100
AcDbLine
 10
1043.863156828905
 20
2019.998183850008
 30
0.0
 11
1035.863156828905
 21
2014.398183850008
 31
0.0
  0
LINE
  5
22A
330
1E7
100
AcDbEntity
  8
P-SANR-FIXT
100
AcDbLine
 10
1035.863156828905
 20
2014.398183850008
 30
0.0
 11
1035.863156828905
 21
2007.995385733373
 31
0.0
  0
LINE
  5
22B
330
1E7
100
AcDbEntity
  8
P-SANR-FIXT
100
AcDbLine
 10
1035.863156828905
 20
2007.995385733373
 30
0.0
 11
1036.860358712271
 21
2006.998183850008
 31
0.0
  0
LINE
  5
22C
330
1E7
100
AcDbEntity
  8
P-SANR-FIXT
100
AcDbLine
 10
1103.86595494553
 20
2006.998183850008
 30
0.0
 11
1104.863156828896
 21
2007.995385733373
 31
0.0
  0
LINE
  5
22D
330
1E7
100
AcDbEntity
  8
P-SANR-FIXT
100
AcDbLine
 10
1041.090921064613
 20
2006.998183850008
 30
0.0
 11
1043.688997275926
 21
2005.498183850029
 31
0.0
  0
LINE
  5
22E
330
1E7
100
AcDbEntity
  8
P-SANR-FIXT
100
AcDbLine
 10
1097.037316381875
 20
2005.498183850029
 30
0.0
 11
1099.635392593188
 21
2006.998183850008
 31
0.0
  0
LINE
  5
22F
330
1E7
100
AcDbEntity
  8
P-SANR-FIXT
100
AcDbLine
 10
1088.863156828866
 20
2000.998183850011
 30
0.0
 11
1088.863156828866
 21
2005.498183850029
 31
0.0
  0
SPLINE
  5
230
330
1E7
100
AcDbEntity
  8
P-SANR-FIXT
100
AcDbSpline
210
0.0
220
0.0
230
1.0
 70
     8
 71
     3
 72
     8
 73
     4
 74
     0
 42
0.000000001
 43
0.0000000001
 40
0.037037037037037
 40
0.037037037037037
 40
0.037037037037037
 40
0.037037037037037
 40
0.0740740740740741
 40
0.0740740740740741
 40
0.0740740740740741
 40
0.0740740740740741
 10
1071.158900586143
 20
2037.943371947212
 30
0.0
 10
1071.418771222071
 20
2037.912311349218
 30
0.0
 10
1071.673408509466
 20
2037.867390732029
 30
0.0
 10
1071.923244252647
 20
2037.808198045772
 30
0.0
  0
SPLINE
  5
231
330
1E7
100
AcDbEntity
  8
P-SANR-FIXT
100
AcDbSpline
210
0.0
220
0.0
230
1.0
 70
     8
 71
     3
 72
     8
 73
     4
 74
     0
 42
0.000000001
 43
0.0000000001
 40
0.1102517734072808
 40
0.1102517734072808
 40
0.1102517734072808
 40
0.1102517734072808
 40
0.1111111111111111
 40
0.1111111111111111
 40
0.1111111111111111
 40
0.1111111111111111
 10
1072.642019815754
 20
2037.593503741748
 30
0.0
 10
1072.647608451118
 20
2037.591474306065
 30
0.0
 10
1072.65319472869
 20
2037.589436970506
 30
0.0
 10
1072.658778653864
 20
2037.587391729925
 30
0.0
  0
SPLINE
  5
232
330
1E7
100
AcDbEntity
  8
P-SANR-FIXT
100
AcDbSpline
210
0.0
220
0.0
230
1.0
 70
     8
 71
     3
 72
     8
 73
     4
 74
     0
 42
0.000000001
 43
0.0000000001
 40
0.1481481481481481
 40
0.1481481481481481
 40
0.1481481481481481
 40
0.1481481481481481
 40
0.1851851851851852
 40
0.1851851851851852
 40
0.1851851851851852
 40
0.1851851851851852
 10
1073.365650083771
 20
2037.280128900002
 30
0.0
 10
1073.595562336044
 20
2037.16384793749
 30
0.0
 10
1073.819092122207
 20
2037.03411900552
 30
0.0
 10
1074.034226715288
 20
2036.892178253829
 30
0.0
  0
SPLINE
  5
233
330
1E7
100
AcDbEntity
  8
P-SANR-FIXT
100
AcDbSpline
210
0.0
220
0.0
230
1.0
 70
     8
 71
     3
 72
     9
 73
     5
 74
     0
 42
0.000000001
 43
0.0000000001
 40
0.2592592592592593
 40
0.2592592592592593
 40
0.2592592592592593
 40
0.2592592592592593
 40
0.2777777777777778
 40
0.2962962962962963
 40
0.2962962962962963
 40
0.2962962962962963
 40
0.2962962962962963
 10
1075.209860903941
 20
2035.903789829043
 30
0.0
 10
1075.297447740682
 20
2035.810822475617
 30
0.0
 10
1075.467246469141
 20
2035.619972371747
 30
0.0
 10
1075.626124329501
 20
2035.419863908448
 30
0.0
 10
1075.702657593151
 20
2035.317543431462
 30
0.0
  0
SPLINE
  5
234
330
1E7
100
AcDbEntity
  8
P-SANR-FIXT
100
AcDbSpline
210
0.0
220
0.0
230
1.0
 70
     8
 71
     3
 72
     8
 73
     4
 74
     0
 42
0.000000001
 43
0.0000000001
 40
0.3333333333333333
 40
0.3333333333333333
 40
0.3333333333333333
 40
0.3333333333333333
 40
0.3340107145936788
 40
0.3340107145936788
 40
0.3340107145936788
 40
0.3340107145936788
 10
1076.125585580658
 20
2034.676812381677
 30
0.0
 10
1076.127934248038
 20
2034.672745132305
 30
0.0
 10
1076.130278558154
 20
2034.668674980084
 30
0.0
 10
1076.132618511371
 20
2034.664601938146
 30
0.0
  0
SPLINE
  5
235
330
1E7
100
AcDbEntity
  8
P-SANR-FIXT
100
AcDbSpline
210
0.0
220
0.0
230
1.0
 70
     8
 71
     3
 72
     9
 73
     5
 74
     0
 42
0.000000001
 43
0.0000000001
 40
0.3703703703703703
 40
0.3703703703703703
 40
0.3703703703703703
 40
0.3703703703703703
 40
0.3888888888888888
 40
0.4074074074074074
 40
0.4074074074074074
 40
0.4074074074074074
 40
0.4074074074074074
 10
1076.471819696374
 20
2033.98577182822
 30
0.0
 10
1076.523032272687
 20
2033.866974831023
 30
0.0
 10
1076.618974311752
 20
2033.626115045221
 30
0.0
 10
1076.701980220168
 20
2033.379796940852
 30
0.0
 10
1076.739930372529
 20
2033.25557882149
 30
0.0
  0
SPLINE
  5
236
330
1E7
100
AcDbEntity
  8
P-SANR-FIXT
100
AcDbSpline
210
0.0
220
0.0
230
1.0
 70
     8
 71
     3
 72
     9
 73
     5
 74
     0
 42
0.000000001
 43
0.0000000001
 40
0.4814814814814815
 40
0.4814814814814815
 40
0.4814814814814815
 40
0.4814814814814815
 40
0.5138888888888889
 40
0.5185185185185186
 40
0.5185185185185186
 40
0.5185185185185186
 40
0.5185185185185186
 10
1077.009811361862
 20
2031.727456796541
 30
0.0
 10
1077.022286451134
 20
2031.498399861334
 30
0.0
 10
1077.024203222611
 20
2031.232452770284
 30
0.0
 10
1077.011610322508
 20
2030.96978753391
 30
0.0
 10
1077.009807778122
 20
2030.937010416749
 30
0.0
  0
SPLINE
  5
237
330
1E7
100
AcDbEntity
  8
P-SANR-FIXT
100
AcDbSpline
210
0.0
220
0.0
230
1.0
 70
     8
 71
     3
 72
     8
 73
     4
 74
     0
 42
0.000000001
 43
0.0000000001
 40
0.5549887185127071
 40
0.5549887185127071
 40
0.5549887185127071
 40
0.5549887185127071
 40
0.5555555555555556
 40
0.5555555555555556
 40
0.5555555555555556
 40
0.5555555555555556
 10
1076.92384007775
 20
2030.175116259942
 30
0.0
 10
1076.923165604917
 20
2030.171243609867
 30
0.0
 10
1076.92248750643
 20
2030.167372017782
 30
0.0
 10
1076.921805779016
 20
2030.163501462153
 30
0.0
  0
SPLINE
  5
238
330
1E7
100
AcDbEntity
  8
P-SANR-FIXT
100
AcDbSpline
210
0.0
220
0.0
230
1.0
 70
     8
 71
     3
 72
     9
 73
     5
 74
     0
 42
0.000000001
 43
0.0000000001
 40
0.5925925925925926
 40
0.5925925925925926
 40
0.5925925925925926
 40
0.5925925925925926
 40
0.6180555555555555
 40
0.6296296296296296
 40
0.6296296296296296
 40
0.6296296296296296
 40
0.6296296296296296
 10
1076.740858898099
 20
2029.412259956633
 30
0.0
 10
1076.688501229111
 20
2029.240898962457
 30
0.0
 10
1076.601793270902
 20
2028.992850060044
 30
0.0
 10
1076.502144354153
 20
2028.751396910342
 30
0.0
 10
1076.46981346044
 20
2028.676739921268
 30
0.0
  0
SPLINE
  5
239
330
1E7
100
AcDbEntity
  8
P-SANR-FIXT
100
AcDbSpline
210
0.0
220
0.0
230
1.0
 70
     8
 71
     3
 72
     8
 73
     4
 74
     0
 42
0.000000001
 43
0.0000000001
 40
0.66595887216387
 40
0.66595887216387
 40
0.66595887216387
 40
0.66595887216387
 40
0.6666666666666666
 40
0.6666666666666666
 40
0.6666666666666666
 40
0.6666666666666666
 10
1076.13226621364
 20
2028.001239942133
 30
0.0
 10
1076.129861446589
 20
2027.997038081482
 30
0.0
 10
1076.127451974567
 20
2027.992839614707
 30
0.0
 10
1076.125037773257
 20
2027.98864447438
 30
0.0
  0
SPLINE
  5
23A
330
1E7
100
AcDbEntity
  8
P-SANR-FIXT
100
AcDbSpline
210
0.0
220
0.0
230
1.0
 70
     8
 71
     3
 72
     9
 73
     5
 74
     0
 42
0.000000001
 43
0.0000000001
 40
0.7037037037037035
 40
0.7037037037037035
 40
0.7037037037037035
 40
0.7037037037037035
 40
0.7222222222222223
 40
0.7407407407407405
 40
0.7407407407407405
 40
0.7407407407407405
 40
0.7407407407407405
 10
1075.703820073071
 20
2027.350274203272
 30
0.0
 10
1075.626492330656
 20
2027.247065248789
 30
0.0
 10
1075.465972531109
 20
2027.043665889375
 30
0.0
 10
1075.294374993791
 20
2026.85505213222
 30
0.0
 10
1075.20611455879
 20
2026.763578965612
 30
0.0
  0
SPLINE
  5
23B
330
1E7
100
AcDbEntity
  8
P-SANR-FIXT
100
AcDbSpline
210
0.0
220
0.0
230
1.0
 70
     8
 71
     3
 72
     8
 73
     4
 74
     0
 42
0.000000001
 43
0.0000000001
 40
0.8148148148148145
 40
0.8148148148148145
 40
0.8148148148148145
 40
0.8148148148148145
 40
0.8518518518518513
 40
0.8518518518518513
 40
0.8518518518518513
 40
0.8518518518518513
 10
1074.03503687848
 20
2025.774982704691
 30
0.0
 10
1073.819187887696
 20
2025.632597959425
 30
0.0
 10
1073.598503484921
 20
2025.490763583735
 30
0.0
 10
1073.366622823231
 20
2025.378729919973
 30
0.0
  0
SPLINE
  5
23C
330
1E7
100
AcDbEntity
  8
P-SANR-FIXT
100
AcDbSpline
210
0.0
220
0.0
230
1.0
 70
     8
 71
     3
 72
     8
 73
     4
 74
     0
 42
0.000000001
 43
0.0000000001
 40
0.8888888888888883
 40
0.8888888888888883
 40
0.8888888888888883
 40
0.8888888888888883
 40
0.8897234395629794
 40
0.8897234395629794
 40
0.8897234395629794
 40
0.8897234395629794
 10
1072.658700925777
 20
2025.079078780892
 30
0.0
 10
1072.653294185183
 20
2025.077102810663
 30
0.0
 10
1072.647879808968
 20
2025.075148224011
 30
0.0
 10
1072.642457911559
 20
2025.073214700535
 30
0.0
  0
SPLINE
  5
23D
330
1E7
100
AcDbEntity
  8
P-SANR-FIXT
100
AcDbSpline
210
0.0
220
0.0
230
1.0
 70
     8
 71
     3
 72
     8
 73
     4
 74
     0
 42
0.000000001
 43
0.0000000001
 40
0.9259259259259254
 40
0.9259259259259254
 40
0.9259259259259254
 40
0.9259259259259254
 40
0.9623842592592568
 40
0.9623842592592568
 40
0.9623842592592568
 40
0.9623842592592568
 10
1071.92414766311
 20
2024.858853828341
 30
0.0
 10
1071.678230445319
 20
2024.800568229752
 30
0.0
 10
1071.422177455079
 20
2024.769459527539
 30
0.0
 10
1071.163554458987
 20
2024.745339786675
 30
0.0
  0
LINE
  5
23E
330
1E7
100
AcDbEntity
  8
P-SANR-FIXT
100
AcDbLine
 10
1096.863156828894
 20
2019.998183850006
 30
0.0
 11
1070.363156828898
 21
2019.998183850006
 31
0.0
  0
LINE
  5
23F
330
1E7
100
AcDbEntity
  8
P-SANR-FIXT
100
AcDbLine
 10
1070.363156828898
 20
2014.398183850007
 30
0.0
 11
1104.863156828894
 21
2014.398183850007
 31
0.0
  0
LINE
  5
240
330
1E7
100
AcDbEntity
  8
P-SANR-FIXT
100
AcDbLine
 10
1050.800615825357
 20
2006.998183850007
 30
0.0
 11
1036.860358712269
 21
2006.998183850007
 31
0.0
  0
LINE
  5
241
330
1E7
100
AcDbEntity
  8
P-SANR-FIXT
100
AcDbLine
 10
1052.863156828899
 20
1970.998183850011
 30
0.0
 11
1053.338071387898
 21
1970.998183850011
 31
0.0
  0
LINE
  5
242
330
1E7
100
AcDbEntity
  8
P-SANR-FIXT
100
AcDbLine
 10
1091.363156828898
 20
1970.998183850011
 30
0.0
 11
1091.363156828898
 21
1961.998183850011
 31
0.0
  0
LINE
  5
243
330
1E7
100
AcDbEntity
  8
P-SANR-FIXT
100
AcDbLine
 10
1091.363156828898
 20
1979.998183850011
 30
0.0
 11
1091.363156828898
 21
1970.998183850011
 31
0.0
  0
SPLINE
  5
244
330
1E7
100
AcDbEntity
  8
P-SANR-FIXT
100
AcDbSpline
210
0.0
220
0.0
230
1.0
 70
     8
 71
     3
 72
     8
 73
     4
 74
     0
 42
0.000000001
 43
0.0000000001
 40
0.0376157407407425
 40
0.0376157407407425
 40
0.0376157407407425
 40
0.0376157407407425
 40
0.0740740740740741
 40
0.0740740740740741
 40
0.0740740740740741
 40
0.0740740740740741
 10
1069.555224978383
 20
2024.724452315628
 30
0.0
 10
1069.299587040816
 20
2024.755480571744
 30
0.0
 10
1069.049035281745
 20
2024.799919472678
 30
0.0
 10
1068.803179225511
 20
2024.858141369863
 30
0.0
  0
SPLINE
  5
245
330
1E7
100
AcDbEntity
  8
P-SANR-FIXT
100
AcDbSpline
210
0.0
220
0.0
230
1.0
 70
     8
 71
     3
 72
     8
 73
     4
 74
     0
 42
0.000000001
 43
0.0000000001
 40
0.1102765604370372
 40
0.1102765604370372
 40
0.1102765604370372
 40
0.1102765604370372
 40
0.1111111111111111
 40
0.1111111111111111
 40
0.1111111111111111
 40
0.1111111111111111
 10
1068.084294730442
 20
2025.072716599885
 30
0.0
 10
1068.07887160682
 20
2025.07468430645
 30
0.0
 10
1068.073450740471
 20
2025.076659428715
 30
0.0
 10
1068.068032126713
 20
2025.078641971146
 30
0.0
  0
SPLINE
  5
246
330
1E7
100
AcDbEntity
  8
P-SANR-FIXT
100
AcDbSpline
210
0.0
220
0.0
230
1.0
 70
     8
 71
     3
 72
     8
 73
     4
 74
     0
 42
0.000000001
 43
0.0000000001
 40
0.1481481481481481
 40
0.1481481481481481
 40
0.1481481481481481
 40
0.1481481481481481
 40
0.1851851851851852
 40
0.1851851851851852
 40
0.1851851851851852
 40
0.1851851851851852
 10
1067.361857323605
 20
2025.385267449562
 30
0.0
 10
1067.13219790916
 20
2025.501309601294
 30
0.0
 10
1066.908918481514
 20
2025.630795046147
 30
0.0
 10
1066.693962435509
 20
2025.772552688348
 30
0.0
  0
SPLINE
  5
247
330
1E7
100
AcDbEntity
  8
P-SANR-FIXT
100
AcDbSpline
210
0.0
220
0.0
230
1.0
 70
     8
 71
     3
 72
     9
 73
     5
 74
     0
 42
0.000000001
 43
0.0000000001
 40
0.2592592592592593
 40
0.2592592592592593
 40
0.2592592592592593
 40
0.2592592592592593
 40
0.2777777777777778
 40
0.2962962962962963
 40
0.2962962962962963
 40
0.2962962962962963
 40
0.2962962962962963
 10
1065.518139688608
 20
2026.760943387901
 30
0.0
 10
1065.430438110067
 20
2026.853998035422
 30
0.0
 10
1065.260382924069
 20
2027.045045959029
 30
0.0
 10
1065.101238286315
 20
2027.245359206278
 30
0.0
 10
1065.02457863639
 20
2027.347772085772
 30
0.0
  0
SPLINE
  5
248
330
1E7
100
AcDbEntity
  8
P-SANR-FIXT
100
AcDbSpline
210
0.0
220
0.0
230
1.0
 70
     8
 71
     3
 72
     8
 73
     4
 74
     0
 42
0.000000001
 43
0.0000000001
 40
0.3333333333333333
 40
0.3333333333333333
 40
0.3333333333333333
 40
0.3333333333333333
 40
0.3340411278361333
 40
0.3340411278361333
 40
0.3340411278361333
 40
0.3340411278361333
 10
1064.601053019402
 20
2027.988843832845
 30
0.0
 10
1064.598596606578
 20
2027.993093905399
 30
0.0
 10
1064.596144989282
 20
2027.997347098463
 30
0.0
 10
1064.593698166611
 20
2028.00160339768
 30
0.0
  0
SPLINE
  5
249
330
1E7
100
AcDbEntity
  8
P-SANR-FIXT
100
AcDbSpline
210
0.0
220
0.0
230
1.0
 70
     8
 71
     3
 72
     9
 73
     5
 74
     0
 42
0.000000001
 43
0.0000000001
 40
0.3703703703703703
 40
0.3703703703703703
 40
0.3703703703703703
 40
0.3703703703703703
 40
0.3888888888888888
 40
0.4074074074074074
 40
0.4074074074074074
 40
0.4074074074074074
 40
0.4074074074074074
 10
1064.254703294228
 20
2028.679605775465
 30
0.0
 10
1064.203500613741
 20
2028.798319351167
 30
0.0
 10
1064.107595881603
 20
2029.038990307217
 30
0.0
 10
1064.024627834644
 20
2029.285120275257
 30
0.0
 10
1063.986692810036
 20
2029.409249657316
 30
0.0
  0
SPLINE
  5
24A
330
1E7
100
AcDbEntity
  8
P-SANR-FIXT
100
AcDbSpline
210
0.0
220
0.0
230
1.0
 70
     8
 71
     3
 72
     8
 73
     4
 74
     0
 42
0.000000001
 43
0.0000000001
 40
0.4444444444444445
 40
0.4444444444444445
 40
0.4444444444444445
 40
0.4444444444444445
 40
0.4450112814872941
 40
0.4450112814872941
 40
0.4450112814872941
 40
0.4450112814872941
 10
1063.804189269478
 20
2030.164395886437
 30
0.0
 10
1063.803501188188
 20
2030.168288931073
 30
0.0
 10
1063.802817021858
 20
2030.172182410251
 30
0.0
 10
1063.802136760375
 20
2030.176076337365
 30
0.0
  0
SPLINE
  5
24B
330
1E7
100
AcDbEntity
  8
P-SANR-FIXT
100
AcDbSpline
210
0.0
220
0.0
230
1.0
 70
     8
 71
     3
 72
     9
 73
     5
 74
     0
 42
0.000000001
 43
0.0000000001
 40
0.4814814814814815
 40
0.4814814814814815
 40
0.4814814814814815
 40
0.4814814814814815
 40
0.5138888888888889
 40
0.5185185185185186
 40
0.5185185185185186
 40
0.5185185185185186
 40
0.5185185185185186
 10
1063.716633892448
 20
2030.936807237873
 30
0.0
 10
1063.704086292761
 20
2031.165853914357
 30
0.0
 10
1063.70208335103
 20
2031.431803686968
 30
0.0
 10
1063.714579785268
 20
2031.694466060256
 30
0.0
 10
1063.716370336221
 20
2031.727243043462
 30
0.0
  0
SPLINE
  5
24C
330
1E7
100
AcDbEntity
  8
P-SANR-FIXT
100
AcDbSpline
210
0.0
220
0.0
230
1.0
 70
     8
 71
     3
 72
     8
 73
     4
 74
     0
 42
0.000000001
 43
0.0000000001
 40
0.5925925925925926
 40
0.5925925925925926
 40
0.5925925925925926
 40
0.5925925925925926
 40
0.6296296296296296
 40
0.6296296296296296
 40
0.6296296296296296
 40
0.6296296296296296
 10
1063.985077194288
 20
2033.252291559782
 30
0.0
 10
1064.061157050477
 20
2033.501311353199
 30
0.0
 10
1064.152452297027
 20
2033.748618783882
 30
0.0
 10
1064.256036095096
 20
2033.98799719147
 30
0.0
  0
SPLINE
  5
24D
330
1E7
100
AcDbEntity
  8
P-SANR-FIXT
100
AcDbSpline
210
0.0
220
0.0
230
1.0
 70
     8
 71
     3
 72
     8
 73
     4
 74
     0
 42
0.000000001
 43
0.0000000001
 40
0.6659892854063222
 40
0.6659892854063222
 40
0.6659892854063222
 40
0.6659892854063222
 40
0.6666666666666666
 40
0.6666666666666666
 40
0.6666666666666666
 40
0.6666666666666666
 10
1064.594061948266
 20
2034.665073400979
 30
0.0
 10
1064.596361868358
 20
2034.66909443929
 30
0.0
 10
1064.598666051512
 20
2034.673112253294
 30
0.0
 10
1064.600974519847
 20
2034.677126906004
 30
0.0
  0
SPLINE
  5
24E
330
1E7
100
AcDbEntity
  8
P-SANR-FIXT
100
AcDbSpline
210
0.0
220
0.0
230
1.0
 70
     8
 71
     3
 72
     9
 73
     5
 74
     0
 42
0.000000001
 43
0.0000000001
 40
0.7037037037037035
 40
0.7037037037037035
 40
0.7037037037037035
 40
0.7037037037037035
 40
0.7222222222222223
 40
0.7407407407407405
 40
0.7407407407407405
 40
0.7407407407407405
 40
0.7407407407407405
 10
1065.021577323219
 20
2035.315016631101
 30
0.0
 10
1065.098774371492
 20
2035.418133575778
 30
0.0
 10
1065.259020632612
 20
2035.621353192224
 30
0.0
 10
1065.430373986007
 20
2035.809791167333
 30
0.0
 10
1065.518526773495
 20
2035.901185790304
 30
0.0
  0
SPLINE
  5
24F
330
1E7
100
AcDbEntity
  8
P-SANR-FIXT
100
AcDbSpline
210
0.0
220
0.0
230
1.0
 70
     8
 71
     3
 72
     8
 73
     4
 74
     0
 42
0.000000001
 43
0.0000000001
 40
0.8148148148148145
 40
0.8148148148148145
 40
0.8148148148148145
 40
0.8148148148148145
 40
0.8518518518518513
 40
0.8518518518518513
 40
0.8518518518518513
 40
0.8518518518518513
 10
1066.689450497655
 20
2036.889795753591
 30
0.0
 10
1066.905500623509
 20
2037.032384412311
 30
0.0
 10
1067.126491144441
 20
2037.174521813328
 30
0.0
 10
1067.358612784347
 20
2037.286782593613
 30
0.0
  0
SPLINE
  5
250
330
1E7
100
AcDbEntity
  8
P-SANR-FIXT
100
AcDbSpline
210
0.0
220
0.0
230
1.0
 70
     8
 71
     3
 72
     8
 73
     4
 74
     0
 42
0.000000001
 43
0.0000000001
 40
0.8888888888888883
 40
0.8888888888888883
 40
0.8888888888888883
 40
0.8888888888888883
 40
0.88974822659271
 40
0.88974822659271
 40
0.88974822659271
 40
0.88974822659271
 10
1068.067131242394
 20
2037.586975753786
 30
0.0
 10
1068.072702156052
 20
2037.589013483604
 30
0.0
 10
1068.078281110427
 20
2037.591028483035
 30
0.0
 10
1068.083867981452
 20
2037.593021102743
 30
0.0
  0
SPLINE
  5
251
330
1E7
100
AcDbEntity
  8
P-SANR-FIXT
100
AcDbSpline
210
0.0
220
0.0
230
1.0
 70
     8
 71
     3
 72
     8
 73
     4
 74
     0
 42
0.000000001
 43
0.0000000001
 40
0.9259259259259254
 40
0.9259259259259254
 40
0.9259259259259254
 40
0.9259259259259254
 40
0.9629629629629622
 40
0.9629629629629622
 40
0.9629629629629622
 40
0.9629629629629622
 10
1068.802022602382
 20
2037.80745830162
 30
0.0
 10
1069.051918162138
 20
2037.866712613977
 30
0.0
 10
1069.312143027541
 20
2037.898079408179
 30
0.0
 10
1069.574923348619
 20
2037.922440156167
 30
0.0
  0
LINE
  5
252
330
1E7
100
AcDbEntity
  8
P-SANR-FIXT
100
AcDbLine
 10
1043.863156828902
 20
2019.998183850006
 30
0.0
 11
1070.363156828898
 21
2019.998183850006
 31
0.0
  0
LINE
  5
253
330
1E7
100
AcDbEntity
  8
P-SANR-FIXT
100
AcDbLine
 10
1035.863156828903
 20
2014.398183850007
 30
0.0
 11
1070.363156828898
 21
2014.398183850007
 31
0.0
  0
LINE
  5
254
330
1E7
100
AcDbEntity
  8
P-SANR-FIXT
100
AcDbLine
 10
1035.863156828903
 20
2007.995385733373
 30
0.0
 11
1052.71674641453
 21
2007.995385733373
 31
0.0
  0
LINE
  5
255
330
1E7
100
AcDbEntity
  8
P-SANR-FIXT
100
AcDbLine
 10
1070.363156828898
 20
2007.995385733373
 30
0.0
 11
1104.863156828894
 21
2007.995385733373
 31
0.0
  0
LINE
  5
256
330
1E7
100
AcDbEntity
  8
P-SANR-FIXT
100
AcDbLine
 10
1070.363156828898
 20
2006.998183850007
 30
0.0
 11
1103.865954945528
 21
2006.998183850007
 31
0.0
  0
LINE
  5
257
330
1E7
100
AcDbEntity
  8
P-SANR-FIXT
100
AcDbLine
 10
1043.688997275924
 20
2005.498183850028
 30
0.0
 11
1048.265670383064
 21
2005.498183850028
 31
0.0
  0
LINE
  5
258
330
1E7
100
AcDbEntity
  8
P-SANR-FIXT
100
AcDbLine
 10
1070.363156828898
 20
2005.498183850028
 30
0.0
 11
1097.037316381873
 21
2005.498183850028
 31
0.0
  0
ARC
  5
259
330
1E7
100
AcDbEntity
  8
P-SANR-FIXT
100
AcDbCircle
 10
1070.363156828898
 20
2031.333108073268
 30
0.0
 40
6.662277660168456
100
AcDbArc
 50
90.0
 51
269.9999999999997
  0
ARC
  5
25A
330
1E7
100
AcDbEntity
  8
P-SANR-FIXT
100
AcDbCircle
 10
1070.363156828898
 20
2031.333108073268
 30
0.0
 40
6.662277660168456
100
AcDbArc
 50
269.9999999999997
 51
90.0
  0
LINE
  5
25B
330
1E7
100
AcDbEntity
  8
P-SANR-FIXT
100
AcDbLine
 10
1053.995276697373
 20
1961.54818385001
 30
0.0
 11
1053.988550878364
 21
1961.55984289597
 31
0.0
  0
ARC
  5
25C
330
1E7
100
AcDbEntity
  8
P-SANR-FIXT
100
AcDbCircle
 10
1070.363156828899
 20
1970.998183850011
 30
0.0
 40
18.9000000000003
100
AcDbArc
 50
330.0000000000013
 51
330.158986642842
  0
LINE
  5
25D
330
1E7
100
AcDbEntity
  8
P-SANR-FIXT
100
AcDbLine
 10
1053.995276697373
 20
1961.548183850011
 30
0.0
 11
1053.988550878364
 21
1961.55984289597
 31
0.0
  0
ARC
  5
25E
330
1E7
100
AcDbEntity
  8
P-SANR-FIXT
100
AcDbCircle
 10
1070.363156828898
 20
1970.998183850011
 30
0.0
 40
18.89999999999982
100
AcDbArc
 50
150.0000000000007
 51
150.1589866428405
  0
LINE
  5
25F
330
1E7
100
AcDbEntity
  8
P-SANR-FIXT
100
AcDbLine
 10
1086.731036960424
 20
1980.448183850012
 30
0.0
 11
1086.737762779432
 21
1980.436524804053
 31
0.0
  0
ARC
  5
260
330
1E7
100
AcDbEntity
  8
P-SANR-FIXT
100
AcDbCircle
 10
1070.363156828898
 20
1970.998183850011
 30
0.0
 40
18.89999999999999
100
AcDbArc
 50
330.0000000000015
 51
330.1589866428416
  0
ARC
  5
261
330
1E7
100
AcDbEntity
  8
P-SANR-FIXT
100
AcDbCircle
 10
1070.363156828898
 20
1970.998183850011
 30
0.0
 40
18.9
100
AcDbArc
 50
90.0
 51
94.08860625378148
  0
LINE
  5
262
330
1E7
100
AcDbEntity
  8
P-SANR-FIXT
100
AcDbLine
 10
1069.015603962571
 20
1989.850082992338
 30
0.0
 11
1054.710709695225
 21
1981.591148436356
 31
0.0
  0
ARC
  5
263
330
1E7
100
AcDbEntity
  8
P-SANR-FIXT
100
AcDbCircle
 10
1070.363156828898
 20
1970.998183850011
 30
0.0
 40
18.89999999999974
100
AcDbArc
 50
145.9113937462198
 51
154.088606253781
  0
LINE
  5
264
330
1E7
100
AcDbEntity
  8
P-SANR-FIXT
100
AcDbLine
 10
1053.363156828898
 20
1979.257118405993
 30
0.0
 11
1053.363156828898
 21
1962.739249294029
 31
0.0
  0
ARC
  5
265
330
1E7
100
AcDbEntity
  8
P-SANR-FIXT
100
AcDbCircle
 10
1070.363156828898
 20
1970.998183850011
 30
0.0
 40
18.89999999999967
100
AcDbArc
 50
205.9113937462206
 51
214.0886062537791
  0
LINE
  5
266
330
1E7
100
AcDbEntity
  8
P-SANR-FIXT
100
AcDbLine
 10
1054.710709695224
 20
1960.405219263667
 30
0.0
 11
1069.015603962573
 21
1952.146284707685
 31
0.0
  0
ARC
  5
267
330
1E7
100
AcDbEntity
  8
P-SANR-FIXT
100
AcDbCircle
 10
1070.363156828898
 20
1970.998183850011
 30
0.0
 40
18.89999999999986
100
AcDbArc
 50
265.911393746223
 51
269.9999999999997
  0
ARC
  5
268
330
1E7
100
AcDbEntity
  8
P-SANR-FIXT
100
AcDbCircle
 10
1070.363156828898
 20
1970.998183850011
 30
0.0
 40
9.549999999999954
100
AcDbArc
 50
90.0
 51
269.9999999999997
  0
ARC
  5
269
330
1E7
100
AcDbEntity
  8
P-SANR-FIXT
100
AcDbCircle
 10
1070.363156828898
 20
1970.998183850011
 30
0.0
 40
18.89999999999995
100
AcDbArc
 50
269.9999999999997
 51
274.0886062537791
  0
LINE
  5
26A
330
1E7
100
AcDbEntity
  8
P-SANR-FIXT
100
AcDbLine
 10
1071.710709695224
 20
1952.146284707685
 30
0.0
 11
1086.015603962573
 21
1960.405219263667
 31
0.0
  0
ARC
  5
26B
330
1E7
100
AcDbEntity
  8
P-SANR-FIXT
100
AcDbCircle
 10
1070.363156828898
 20
1970.998183850011
 30
0.0
 40
18.89999999999984
100
AcDbArc
 50
325.9113937462229
 51
334.0886062537811
  0
LINE
  5
26C
330
1E7
100
AcDbEntity
  8
P-SANR-FIXT
100
AcDbLine
 10
1087.363156828898
 20
1962.739249294029
 30
0.0
 11
1087.363156828898
 21
1979.257118405994
 31
0.0
  0
ARC
  5
26D
330
1E7
100
AcDbEntity
  8
P-SANR-FIXT
100
AcDbCircle
 10
1070.363156828898
 20
1970.998183850011
 30
0.0
 40
18.90000000000012
100
AcDbArc
 50
25.91139374622235
 51
34.08860625378245
  0
LINE
  5
26E
330
1E7
100
AcDbEntity
  8
P-SANR-FIXT
100
AcDbLine
 10
1086.015603962572
 20
1981.591148436356
 30
0.0
 11
1071.710709695225
 21
1989.850082992338
 31
0.0
  0
ARC
  5
26F
330
1E7
100
AcDbEntity
  8
P-SANR-FIXT
100
AcDbCircle
 10
1070.363156828898
 20
1970.998183850011
 30
0.0
 40
18.90000000000009
100
AcDbArc
 50
85.9113937462199
 51
90.0
  0
ARC
  5
270
330
1E7
100
AcDbEntity
  8
P-SANR-FIXT
100
AcDbCircle
 10
1070.363156828898
 20
1970.998183850011
 30
0.0
 40
9.550000000000181
100
AcDbArc
 50
269.9999999999997
 51
90.0
  0
ENDBLK
  5
272
330
1E7
100
AcDbEntity
  8
0
100
AcDbBlockEnd
  0
ENDSEC
  0
SECTION
  2
ENTITIES
  0
INSERT
  5
1A8
330
71
100
AcDbEntity
  8
P-SANR-FIXT
100
AcDbBlockReference
  2
Automatic flow rate regulator valve_Caleffi_121 DN15 - 1_2__-859151-Est - Idraulica
 10
0.0
 20
0.0
 30
0.0
1001
REVIT
1002
{
1070
     1
1000
863131
1002
}
1002
{
1070
     5
1000
859151
1002
}
1002
{
1070
     2
1000
-2001160
1002
}
  0
INSERT
  5
1E6
330
71
100
AcDbEntity
  8
P-SANR-FIXT
100
AcDbBlockReference
  2
Automatic flow rate regulator valve_Caleffi_121 DN15 - 1_2__-V1-Est - Idraulica
 10
0.0
 20
0.0
 30
0.0
1001
REVIT
1002
{
1070
     1
1000
863152
1002
}
1002
{
1070
     5
1000
859151
1002
}
1002
{
1070
     2
1000
-2001160
1002
}
  0
INSERT
  5
273
330
71
100
AcDbEntity
  8
P-SANR-FIXT
100
AcDbBlockReference
  2
Automatic flow rate regulator valve_Caleffi_121 DN15 - 1_2__-V2-Est - Idraulica
 10
0.0
 20
0.0
 30
0.0
1001
REVIT
1002
{
1070
     1
1000
863172
1002
}
1002
{
1070
     5
1000
859151
1002
}
1002
{
1070
     2
1000
-2001160
1002
}
  0
ENDSEC
  0
SECTION
  2
OBJECTS
  0
DICTIONARY
  5
C
330
0
100
AcDbDictionary
281
     1
  3
ACAD_CIP_PREVIOUS_PRODUCT_INFO
350
7A
  3
ACAD_COLOR
350
63
  3
ACAD_DETAILVIEWSTYLE
350
6B
  3
ACAD_GROUP
350
D
  3
ACAD_IMAGE_VARS
350
7B
  3
ACAD_LAYOUT
350
62
  3
ACAD_MATERIAL
350
10
  3
ACAD_MLEADERSTYLE
350
66
  3
ACAD_MLINESTYLE
350
5F
  3
ACAD_PLOTSETTINGS
350
61
  3
ACAD_PLOTSTYLENAME
350
E
  3
ACAD_SCALELIST
350
42
  3
ACAD_SECTIONVIEWSTYLE
350
68
  3
ACAD_TABLESTYLE
350
64
  3
ACAD_VISUALSTYLE
350
29
  3
ACDB_RECOMPOSE_DATA
350
27E
  3
AcDbVariableDictionary
350
7C
  3
REVIT_DICTIONARY
350
275
  0
DICTIONARY
  5
27A
330
71
100
AcDbDictionary
280
     1
281
     1
  3
ACAD_SORTENTS
360
27B
  0
XRECORD
  5
7A
102
{ACAD_REACTORS
330
C
102
}
330
C
100
AcDbXrecord
280
     1
300
RVT
300
2013
300
RVT2013
  0
DICTIONARY
  5
63
102
{ACAD_REACTORS
330
C
102
}
330
C
100
AcDbDictionary
281
     1
  0
DICTIONARY
  5
6B
102
{ACAD_REACTORS
330
C
102
}
330
C
100
AcDbDictionary
281
     1
  3
Imperial24
350
6C
  0
DICTIONARY
  5
D
102
{ACAD_REACTORS
330
C
102
}
330
C
100
AcDbDictionary
281
     1
  0
RASTERVARIABLES
  5
7B
102
{ACAD_REACTORS
330
C
102
}
330
C
100
AcDbRasterVariables
 90
        0
 70
     0
 71
     1
 72
     1
  0
DICTIONARY
  5
62
102
{ACAD_REACTORS
330
C
102
}
330
C
100
AcDbDictionary
281
     1
  3
Layout1
350
70
  3
Layout2
350
78
  3
Model
350
74
  0
DICTIONARY
  5
10
102
{ACAD_REACTORS
330
C
102
}
330
C
100
AcDbDictionary
281
     1
  3
ByBlock
350
19
  3
ByLayer
350
11
  3
Global
350
21
  0
DICTIONARY
  5
66
102
{ACAD_REACTORS
330
C
102
}
330
C
100
AcDbDictionary
281
     1
  3
Standard
350
67
  0
DICTIONARY
  5
5F
102
{ACAD_REACTORS
330
C
102
}
330
C
100
AcDbDictionary
281
     1
  3
Standard
350
60
  0
DICTIONARY
  5
61
102
{ACAD_REACTORS
330
C
102
}
330
C
100
AcDbDictionary
281
     1
  0
ACDBDICTIONARYWDFLT
  5
E
102
{ACAD_REACTORS
330
C
102
}
330
C
100
AcDbDictionary
281
     1
  3
Normal
350
F
100
AcDbDictionaryWithDefault
340
F
  0
DICTIONARY
  5
42
102
{ACAD_REACTORS
330
C
102
}
330
C
100
AcDbDictionary
281
     1
  3
A0
350
43
  3
A1
350
44
  3
A2
350
45
  3
A3
350
46
  3
A4
350
47
  3
A5
350
48
  3
A6
350
49
  3
A7
350
4A
  3
A8
350
4B
  3
A9
350
4C
  3
B0
350
4D
  3
B1
350
4E
  3
B2
350
4F
  3
B3
350
50
  3
B4
350
51
  3
B5
350
52
  3
B6
350
53
  0
DICTIONARY
  5
68
102
{ACAD_REACTORS
330
C
102
}
330
C
100
AcDbDictionary
281
     1
  3
Imperial24
350
6A
  0
DICTIONARY
  5
64
102
{ACAD_REACTORS
330
C
102
}
330
C
100
AcDbDictionary
281
     1
  3
Standard
350
65
  0
DICTIONARY
  5
29
102
{ACAD_REACTORS
330
C
102
}
330
C
100
AcDbDictionary
281
     1
  3
2dWireframe
350
2F
  3
Basic
350
2E
  3
Brighten
350
35
  3
ColorChange
350
39
  3
Conceptual
350
32
  3
Dim
350
34
  3
EdgeColorOff
350
41
  3
Facepattern
350
38
  3
Flat
350
2A
  3
FlatWithEdges
350
2B
  3
Gouraud
350
2C
  3
GouraudWithEdges
350
2D
  3
Hidden
350
31
  3
JitterOff
350
3F
  3
Linepattern
350
37
  3
OverhangOff
350
40
  3
Realistic
350
33
  3
Shaded
350
3E
  3
Shaded with edges
350
3D
  3
Shades of Gray
350
3A
  3
Sketchy
350
3B
  3
Thicken
350
36
  3
Wireframe
350
30
  3
X-Ray
350
3C
  0
XRECORD
  5
27E
102
{ACAD_REACTORS
330
C
102
}
330
C
100
AcDbXrecord
280
     1
 90
        1
330
65
  0
DICTIONARY
  5
7C
102
{ACAD_REACTORS
330
C
102
}
330
C
100
AcDbDictionary
281
     1
  3
CANNOSCALE
350
81
  3
CMLEADERSTYLE
350
7E
  3
CTABLESTYLE
350
7D
  3
CVIEWDETAILSTYLE
350
7F
  3
CVIEWSECTIONSTYLE
350
80
  0
DICTIONARY
  5
275
102
{ACAD_REACTORS
330
C
102
}
330
C
100
AcDbDictionary
281
     1
  3
DRAWING_TOOL
350
279
  3
REVIT_CATEGORY_MAPPING
350
277
  3
REVIT_SUB_CATEGORY_MAPPING
350
278
  3
REVIT_TYPE_MAPPING
350
276
  0
SORTENTSTABLE
  5
27B
102
{ACAD_REACTORS
330
27A
102
}
330
27A
100
AcDbSortentsTable
330
71
  0
ACDBDETAILVIEWSTYLE
  5
6C
102
{ACAD_REACTORS
330
6B
102
}
330
6B
100
AcDbModelDocViewStyle
 70
     0
  3
Imperial24
290
     1
100
AcDbDetailViewStyle
 70
     0
 71
     0
 90
        3
 71
     1
340
55
 62
   256
 40
0.24
340
0
 62
   256
 40
0.24
300

 40
0.36
280
     3
 71
     2
340
5D
 90
       25
 62
   256
 71
     3
340
55
 62
   256
 40
0.24
 90
        1
 40
0.75
 90
        1
300
%<\AcVar ViewType \f "%tc1">% %<\AcVar ViewDetailId>%\PSCALA %<\AcVar ViewScale \f "%sn">%
 71
     4
340
5D
 90
       25
 62
   256
340
5D
 90
       25
 62
   256
280
     0
  0
LAYOUT
  5
70
102
{ACAD_REACTORS
330
62
102
}
330
62
100
AcDbPlotSettings
  1

  2

  4

  6

 40
0.0
 41
0.0
 42
0.0
 43
0.0
 44
0.0
 45
0.0
 46
0.0
 47
0.0
 48
0.0
 49
0.0
140
0.0
141
0.0
142
1.0
143
1.0
 70
   688
 72
     0
 73
     0
 74
     5
  7

 75
    16
147
1.0
 76
     0
 77
     2
 78
   300
148
0.0
149
0.0
100
AcDbLayout
  1
Layout1
 70
     1
 71
     1
 10
0.0
 20
0.0
 11
12.0
 21
9.0
 12
0.0
 22
0.0
 32
0.0
 14
0.0
 24
0.0
 34
0.0
 15
0.0
 25
0.0
 35
0.0
146
0.0
 13
0.0
 23
0.0
 33
0.0
 16
1.0
 26
0.0
 36
0.0
 17
0.0
 27
1.0
 37
0.0
 76
     0
330
6D
  0
LAYOUT
  5
78
102
{ACAD_REACTORS
330
62
102
}
330
62
100
AcDbPlotSettings
  1

  2

  4

  6

 40
0.0
 41
0.0
 42
0.0
 43
0.0
 44
0.0
 45
0.0
 46
0.0
 47
0.0
 48
0.0
 49
0.0
140
0.0
141
0.0
142
1.0
143
1.0
 70
   688
 72
     0
 73
     0
 74
     5
  7

 75
    16
147
1.0
 76
     0
 77
     2
 78
   300
148
0.0
149
0.0
100
AcDbLayout
  1
Layout2
 70
     1
 71
     2
 10
0.0
 20
0.0
 11
12.0
 21
9.0
 12
0.0
 22
0.0
 32
0.0
 14
0.0
 24
0.0
 34
0.0
 15
0.0
 25
0.0
 35
0.0
146
0.0
 13
0.0
 23
0.0
 33
0.0
 16
1.0
 26
0.0
 36
0.0
 17
0.0
 27
1.0
 37
0.0
 76
     0
330
75
  0
LAYOUT
  5
74
102
{ACAD_REACTORS
330
62
102
}
330
62
100
AcDbPlotSettings
  1

  2

  4

  6

 40
0.0
 41
0.0
 42
0.0
 43
0.0
 44
0.0
 45
0.0
 46
0.0
 47
0.0
 48
0.0
 49
0.0
140
0.0
141
0.0
142
1.0
143
1.0
 70
  1712
 72
     0
 73
     0
 74
     0
  7

 75
     0
147
1.0
 76
     0
 77
     2
 78
   300
148
0.0
149
0.0
100
AcDbLayout
  1
Model
 70
     1
 71
     0
 10
0.0
 20
0.0
 11
12.0
 21
9.0
 12
0.0
 22
0.0
 32
0.0
 14
0.0
 24
0.0
 34
0.0
 15
0.0
 25
0.0
 35
0.0
146
0.0
 13
0.0
 23
0.0
 33
0.0
 16
1.0
 26
0.0
 36
0.0
 17
0.0
 27
1.0
 37
0.0
 76
     0
330
71
  0
MATERIAL
  5
19
102
{ACAD_XDICTIONARY
360
1A
102
}
102
{ACAD_REACTORS
330
10
102
}
330
10
100
AcDbMaterial
  1
ByBlock
 72
     0
 43
0.0208333333333333
 43
0.0
 43
0.0
 43
0.0
 43
0.0
 43
0.0208333333333333
 43
0.0
 43
0.0
 43
0.0
 43
0.0
 43
1.0
 43
0.0
 43
0.0
 43
0.0
 43
0.0
 43
1.0
 77
     0
 47
0.0208333333333333
 47
0.0
 47
0.0
 47
0.0
 47
0.0
 47
0.0208333333333333
 47
0.0
 47
0.0
 47
0.0
 47
0.0
 47
1.0
 47
0.0
 47
0.0
 47
0.0
 47
0.0
 47
1.0
171
     0
 49
0.0208333333333333
 49
0.0
 49
0.0
 49
0.0
 49
0.0
 49
0.0208333333333333
 49
0.0
 49
0.0
 49
0.0
 49
0.0
 49
1.0
 49
0.0
 49
0.0
 49
0.0
 49
0.0
 49
1.0
175
     0
142
0.0208333333333333
142
0.0
142
0.0
142
0.0
142
0.0
142
0.0208333333333333
142
0.0
142
0.0
142
0.0
142
0.0
142
1.0
142
0.0
142
0.0
142
0.0
142
0.0
142
1.0
179
     0
144
0.0208333333333333
144
0.0
144
0.0
144
0.0
144
0.0
144
0.0208333333333333
144
0.0
144
0.0
144
0.0
144
0.0
144
1.0
144
0.0
144
0.0
144
0.0
144
0.0
144
1.0
147
0.0208333333333333
147
0.0
147
0.0
147
0.0
147
0.0
147
0.0208333333333333
147
0.0
147
0.0
147
0.0
147
0.0
147
1.0
147
0.0
147
0.0
147
0.0
147
0.0
147
1.0
  0
MATERIAL
  5
11
102
{ACAD_XDICTIONARY
360
12
102
}
102
{ACAD_REACTORS
330
10
102
}
330
10
100
AcDbMaterial
  1
ByLayer
 72
     0
 43
0.0208333333333333
 43
0.0
 43
0.0
 43
0.0
 43
0.0
 43
0.0208333333333333
 43
0.0
 43
0.0
 43
0.0
 43
0.0
 43
1.0
 43
0.0
 43
0.0
 43
0.0
 43
0.0
 43
1.0
 77
     0
 47
0.0208333333333333
 47
0.0
 47
0.0
 47
0.0
 47
0.0
 47
0.0208333333333333
 47
0.0
 47
0.0
 47
0.0
 47
0.0
 47
1.0
 47
0.0
 47
0.0
 47
0.0
 47
0.0
 47
1.0
171
     0
 49
0.0208333333333333
 49
0.0
 49
0.0
 49
0.0
 49
0.0
 49
0.0208333333333333
 49
0.0
 49
0.0
 49
0.0
 49
0.0
 49
1.0
 49
0.0
 49
0.0
 49
0.0
 49
0.0
 49
1.0
175
     0
142
0.0208333333333333
142
0.0
142
0.0
142
0.0
142
0.0
142
0.0208333333333333
142
0.0
142
0.0
142
0.0
142
0.0
142
1.0
142
0.0
142
0.0
142
0.0
142
0.0
142
1.0
179
     0
144
0.0208333333333333
144
0.0
144
0.0
144
0.0
144
0.0
144
0.0208333333333333
144
0.0
144
0.0
144
0.0
144
0.0
144
1.0
144
0.0
144
0.0
144
0.0
144
0.0
144
1.0
147
0.0208333333333333
147
0.0
147
0.0
147
0.0
147
0.0
147
0.0208333333333333
147
0.0
147
0.0
147
0.0
147
0.0
147
1.0
147
0.0
147
0.0
147
0.0
147
0.0
147
1.0
  0
MATERIAL
  5
21
102
{ACAD_XDICTIONARY
360
22
102
}
102
{ACAD_REACTORS
330
10
102
}
330
10
100
AcDbMaterial
  1
Global
 72
     0
 43
0.0208333333333333
 43
0.0
 43
0.0
 43
0.0
 43
0.0
 43
0.0208333333333333
 43
0.0
 43
0.0
 43
0.0
 43
0.0
 43
1.0
 43
0.0
 43
0.0
 43
0.0
 43
0.0
 43
1.0
 77
     0
 47
0.0208333333333333
 47
0.0
 47
0.0
 47
0.0
 47
0.0
 47
0.0208333333333333
 47
0.0
 47
0.0
 47
0.0
 47
0.0
 47
1.0
 47
0.0
 47
0.0
 47
0.0
 47
0.0
 47
1.0
171
     0
 49
0.0208333333333333
 49
0.0
 49
0.0
 49
0.0
 49
0.0
 49
0.0208333333333333
 49
0.0
 49
0.0
 49
0.0
 49
0.0
 49
1.0
 49
0.0
 49
0.0
 49
0.0
 49
0.0
 49
1.0
175
     0
142
0.0208333333333333
142
0.0
142
0.0
142
0.0
142
0.0
142
0.0208333333333333
142
0.0
142
0.0
142
0.0
142
0.0
142
1.0
142
0.0
142
0.0
142
0.0
142
0.0
142
1.0
179
     0
144
0.0208333333333333
144
0.0
144
0.0
144
0.0
144
0.0
144
0.0208333333333333
144
0.0
144
0.0
144
0.0
144
0.0
144
1.0
144
0.0
144
0.0
144
0.0
144
0.0
144
1.0
147
0.0208333333333333
147
0.0
147
0.0
147
0.0
147
0.0
147
0.0208333333333333
147
0.0
147
0.0
147
0.0
147
0.0
147
1.0
147
0.0
147
0.0
147
0.0
147
0.0
147
1.0
  0
MLEADERSTYLE
  5
67
102
{ACAD_REACTORS
330
66
102
}
330
66
100
AcDbMLeaderStyle
179
     2
170
     2
171
     1
172
     0
 90
        2
 40
0.0
 41
0.0
173
     1
 91
-1056964608
340
5B
 92
       -2
290
     1
 42
0.09
291
     1
 43
0.36
  3
Standard
 44
0.18
300

342
55
174
     1
178
     6
175
     1
176
     0
 93
-1056964608
 45
0.18
292
     0
297
     0
 46
0.18
 94
-1056964608
 47
1.0
 49
1.0
140
1.0
293
     1
141
0.0
294
     1
177
     0
142
1.0
295
     1
296
     0
143
0.125
271
     0
272
     9
273
     9
298
     1
  0
MLINESTYLE
  5
60
102
{ACAD_REACTORS
330
5F
102
}
330
5F
100
AcDbMlineStyle
  2
STANDARD
 70
     0
  3

 62
   256
 51
90.0
 52
90.0
 71
     2
 49
0.5
 62
   256
  6
BYLAYER
 49
-0.5
 62
   256
  6
BYLAYER
  0
ACDBPLACEHOLDER
  5
F
102
{ACAD_REACTORS
330
E
102
}
330
E
  0
SCALE
  5
43
102
{ACAD_REACTORS
330
42
102
}
330
42
100
AcDbScale
 70
     0
300
1:1
140
1.0
141
1.0
290
     1
  0
SCALE
  5
44
102
{ACAD_REACTORS
330
42
102
}
330
42
100
AcDbScale
 70
     0
300
1/128" = 1'-0"
140
0.0078125
141
12.0
290
     0
  0
SCALE
  5
45
102
{ACAD_REACTORS
330
42
102
}
330
42
100
AcDbScale
 70
     0
300
1/64" = 1'-0"
140
0.015625
141
12.0
290
     0
  0
SCALE
  5
46
102
{ACAD_REACTORS
330
42
102
}
330
42
100
AcDbScale
 70
     0
300
1/32" = 1'-0"
140
0.03125
141
12.0
290
     0
  0
SCALE
  5
47
102
{ACAD_REACTORS
330
42
102
}
330
42
100
AcDbScale
 70
     0
300
1/16" = 1'-0"
140
0.0625
141
12.0
290
     0
  0
SCALE
  5
48
102
{ACAD_REACTORS
330
42
102
}
330
42
100
AcDbScale
 70
     0
300
3/32" = 1'-0"
140
0.09375
141
12.0
290
     0
  0
SCALE
  5
49
102
{ACAD_REACTORS
330
42
102
}
330
42
100
AcDbScale
 70
     0
300
1/8" = 1'-0"
140
0.125
141
12.0
290
     0
  0
SCALE
  5
4A
102
{ACAD_REACTORS
330
42
102
}
330
42
100
AcDbScale
 70
     0
300
3/16" = 1'-0"
140
0.1875
141
12.0
290
     0
  0
SCALE
  5
4B
102
{ACAD_REACTORS
330
42
102
}
330
42
100
AcDbScale
 70
     0
300
1/4" = 1'-0"
140
0.25
141
12.0
290
     0
  0
SCALE
  5
4C
102
{ACAD_REACTORS
330
42
102
}
330
42
100
AcDbScale
 70
     0
300
3/8" = 1'-0"
140
0.375
141
12.0
290
     0
  0
SCALE
  5
4D
102
{ACAD_REACTORS
330
42
102
}
330
42
100
AcDbScale
 70
     0
300
1/2" = 1'-0"
140
0.5
141
12.0
290
     0
  0
SCALE
  5
4E
102
{ACAD_REACTORS
330
42
102
}
330
42
100
AcDbScale
 70
     0
300
3/4" = 1'-0"
140
0.75
141
12.0
290
     0
  0
SCALE
  5
4F
102
{ACAD_REACTORS
330
42
102
}
330
42
100
AcDbScale
 70
     0
300
1" = 1'-0"
140
1.0
141
12.0
290
     0
  0
SCALE
  5
50
102
{ACAD_REACTORS
330
42
102
}
330
42
100
AcDbScale
 70
     0
300
1-1/2" = 1'-0"
140
1.5
141
12.0
290
     0
  0
SCALE
  5
51
102
{ACAD_REACTORS
330
42
102
}
330
42
100
AcDbScale
 70
     0
300
3" = 1'-0"
140
3.0
141
12.0
290
     0
  0
SCALE
  5
52
102
{ACAD_REACTORS
330
42
102
}
330
42
100
AcDbScale
 70
     0
300
6" = 1'-0"
140
6.0
141
12.0
290
     0
  0
SCALE
  5
53
102
{ACAD_REACTORS
330
42
102
}
330
42
100
AcDbScale
 70
     0
300
1'-0" = 1'-0"
140
12.0
141
12.0
290
     0
  0
ACDBSECTIONVIEWSTYLE
  5
6A
102
{ACAD_REACTORS
330
68
102
}
330
68
100
AcDbModelDocViewStyle
 70
     0
  3
Imperial24
290
     1
100
AcDbSectionViewStyle
 70
     0
 71
     0
 90
       78
 71
     1
340
55
 62
   256
 40
0.24
340
0
340
0
 62
   256
 40
0.24
300
I, O, Q, S, X, Z
 40
0.48
 90
        3
 40
0.18
 90
        1
 71
     2
340
69
 90
       25
 62
   256
340
5D
 90
       50
 62
   256
 40
0.24
 40
0.0
 40
0.24
 71
     3
340
55
 62
   256
 40
0.24
 90
        1
 40
0.75
 90
        1
300
%<\AcVar ViewType \f "%tc1">% %<\AcVar ViewSectionStartId>%-%<\AcVar ViewSectionEndId>%\PSCALA %<\AcVar ViewScale \f "%sn">%
 71
     4
 62
   256
 62
   257
300
ANSI31
 40
1.0
 90
        0
290
     0
290
     0
 90
        6
 40
0.0
 40
1.570796326794896
 40
0.2617993877991494
 40
1.308996938995747
 40
-0.2617993877991494
 40
1.832595714594046
  0
TABLESTYLE
  5
65
102
{ACAD_XDICTIONARY
360
27C
102
}
102
{ACAD_REACTORS
330
64
102
}
330
64
100
AcDbTableStyle
280
     0
  3
Standard
 70
     0
 71
     0
 40
0.06
 41
0.06
280
     0
281
     0
  7
Standard
140
0.18
170
     2
 62
     0
 63
     7
283
     0
 90
      512
 91
        0
  1

274
    -2
284
     1
 64
     0
275
    -2
285
     1
 65
     0
276
    -2
286
     1
 66
     0
277
    -2
287
     1
 67
     0
278
    -2
288
     1
 68
     0
279
    -2
289
     1
 69
     0
  7
Standard
140
0.25
170
     5
 62
     0
 63
     7
283
     0
 90
      512
 91
        0
  1

274
    -2
284
     1
 64
     0
275
    -2
285
     1
 65
     0
276
    -2
286
     1
 66
     0
277
    -2
287
     1
 67
     0
278
    -2
288
     1
 68
     0
279
    -2
289
     1
 69
     0
  7
Standard
140
0.18
170
     5
 62
     0
 63
     7
283
     0
 90
      512
 91
        0
  1

274
    -2
284
     1
 64
     0
275
    -2
285
     1
 65
     0
276
    -2
286
     1
 66
     0
277
    -2
287
     1
 67
     0
278
    -2
288
     1
 68
     0
279
    -2
289
     1
 69
     0
  0
VISUALSTYLE
  5
2F
102
{ACAD_REACTORS
330
29
102
}
330
29
100
AcDbVisualStyle
  2
2dWireframe
 70
     4
177
     3
291
     0
 70
    58
 90
        0
176
     1
 90
        2
176
     1
 90
        0
176
     1
 90
        0
176
     1
 40
0.6
176
     1
 40
30.0
176
     1
 62
     7
420
 16777215
176
     1
 90
        1
176
     1
 90
        4
176
     1
 62
     7
176
     1
 62
   257
176
     1
 90
        1
176
     1
 90
        1
176
     1
 40
1.0
176
     1
 90
        0
176
     1
 62
   257
176
     1
 40
1.0
176
     1
 90
        1
176
     1
 90
        6
176
     1
 90
        2
176
     1
 62
     7
176
     1
 90
        5
176
     1
 90
        0
176
     1
 90
        0
176
     1
290
     0
176
     1
 90
        1
176
     1
 40
0.0
176
     1
 90
        0
176
     1
290
     1
176
     1
290
     1
176
     1
290
     0
176
     1
290
     0
176
     1
290
     0
176
     1
290
     0
176
     1
290
     0
176
     1
290
     0
176
     1
290
     0
176
     1
 90
       50
176
     1
 40
0.0
176
     1
 40
1.0
176
     1
 90
        0
176
     1
 62
    18
420
        0
176
     1
 90
       50
176
     1
 90
        3
176
     1
 62
     5
420
      255
176
     1
290
     0
176
     1
 90
       50
176
     1
 90
       50
176
     1
 90
       50
176
     1
290
     0
176
     1
 90
       50
176
     1
 62
   256
176
     0
 40
1.0
176
     0
 90
        2
176
     1
  1
strokes_ogs.tif
176
     1
290
     0
176
     1
 40
1.0
176
     1
 40
1.0
176
     1
  0
VISUALSTYLE
  5
2E
102
{ACAD_REACTORS
330
29
102
}
330
29
100
AcDbVisualStyle
  2
Basic
 70
     7
177
     3
291
     1
 70
    58
 90
        1
176
     1
 90
        0
176
     1
 90
        1
176
     1
 90
        0
176
     1
 40
0.6
176
     1
 40
30.0
176
     1
 62
     7
420
 16777215
176
     1
 90
        0
176
     1
 90
        4
176
     1
 62
     7
176
     1
 62
   257
176
     1
 90
        1
176
     1
 90
        1
176
     1
 40
1.0
176
     1
 90
        8
176
     1
 62
     7
176
     1
 40
1.0
176
     1
 90
        1
176
     1
 90
        6
176
     1
 90
        2
176
     1
 62
     7
176
     1
 90
        5
176
     1
 90
        0
176
     1
 90
        0
176
     1
290
     0
176
     1
 90
        1
176
     1
 40
0.0
176
     1
 90
        0
176
     1
290
     0
176
     1
290
     1
176
     1
290
     1
176
     1
290
     0
176
     1
290
     0
176
     1
290
     0
176
     1
290
     0
176
     1
290
     0
176
     1
290
     0
176
     1
 90
       50
176
     1
 40
0.0
176
     1
 40
1.0
176
     1
 90
        0
176
     1
 62
    18
420
        0
176
     1
 90
       50
176
     1
 90
        3
176
     1
 62
     5
420
      255
176
     1
290
     0
176
     1
 90
       50
176
     1
 90
       50
176
     1
 90
       50
176
     1
290
     0
176
     1
 90
       50
176
     1
 62
   256
176
     0
 40
1.0
176
     0
 90
        2
176
     1
  1
strokes_ogs.tif
176
     1
290
     0
176
     1
 40
1.0
176
     1
 40
1.0
176
     1
  0
VISUALSTYLE
  5
35
102
{ACAD_REACTORS
330
29
102
}
330
29
100
AcDbVisualStyle
  2
Brighten
 70
    12
177
     3
291
     1
 70
    58
 90
        2
176
     1
 90
        2
176
     1
 90
        0
176
     1
 90
        0
176
     1
 40
0.6
176
     1
 40
30.0
176
     1
 62
     7
420
 16777215
176
     1
 90
        1
176
     1
 90
        4
176
     1
 62
     7
176
     1
 62
   257
176
     1
 90
        1
176
     1
 90
        1
176
     1
 40
1.0
176
     1
 90
        8
176
     1
 62
     7
176
     1
 40
1.0
176
     1
 90
        1
176
     1
 90
        6
176
     1
 90
        2
176
     1
 62
     7
176
     1
 90
        5
176
     1
 90
        0
176
     1
 90
        0
176
     1
290
     0
176
     1
 90
        1
176
     1
 40
50.0
176
     1
 90
        0
176
     1
290
     0
176
     1
290
     1
176
     1
290
     1
176
     1
290
     0
176
     1
290
     0
176
     1
290
     0
176
     1
290
     0
176
     1
290
     0
176
     1
290
     0
176
     1
 90
       50
176
     1
 40
0.0
176
     1
 40
1.0
176
     1
 90
        0
176
     1
 62
    18
420
        0
176
     1
 90
       50
176
     1
 90
        3
176
     1
 62
     5
420
      255
176
     1
290
     0
176
     1
 90
       50
176
     1
 90
       50
176
     1
 90
       50
176
     1
290
     0
176
     1
 90
       50
176
     1
 62
   256
176
     0
 40
1.0
176
     0
 90
        2
176
     1
  1
strokes_ogs.tif
176
     1
290
     0
176
     1
 40
1.0
176
     1
 40
1.0
176
     1
  0
VISUALSTYLE
  5
39
102
{ACAD_REACTORS
330
29
102
}
330
29
100
AcDbVisualStyle
  2
ColorChange
 70
    16
177
     3
291
     1
 70
    58
 90
        2
176
     1
 90
        2
176
     1
 90
        3
176
     1
 90
        0
176
     1
 40
0.6
176
     1
 40
30.0
176
     1
 62
     8
420
  8421504
176
     1
 90
        1
176
     1
 90
        4
176
     1
 62
     7
176
     1
 62
   257
176
     1
 90
        1
176
     1
 90
        1
176
     1
 40
1.0
176
     1
 90
        8
176
     1
 62
     8
420
  8421504
176
     1
 40
1.0
176
     1
 90
        1
176
     1
 90
        6
176
     1
 90
        2
176
     1
 62
     7
176
     1
 90
        5
176
     1
 90
        0
176
     1
 90
        0
176
     1
290
     0
176
     1
 90
        1
176
     1
 40
0.0
176
     1
 90
        0
176
     1
290
     0
176
     1
290
     1
176
     1
290
     1
176
     1
290
     0
176
     1
290
     0
176
     1
290
     0
176
     1
290
     0
176
     1
290
     0
176
     1
290
     0
176
     1
 90
       50
176
     1
 40
0.0
176
     1
 40
1.0
176
     1
 90
        0
176
     1
 62
    18
420
        0
176
     1
 90
       50
176
     1
 90
        3
176
     1
 62
     5
420
      255
176
     1
290
     0
176
     1
 90
       50
176
     1
 90
       50
176
     1
 90
       50
176
     1
290
     0
176
     1
 90
       50
176
     1
 62
   256
176
     0
 40
1.0
176
     0
 90
        2
176
     1
  1
strokes_ogs.tif
176
     1
290
     0
176
     1
 40
1.0
176
     1
 40
1.0
176
     1
  0
VISUALSTYLE
  5
32
102
{ACAD_REACTORS
330
29
102
}
330
29
100
AcDbVisualStyle
  2
Conceptual
 70
     9
177
     3
291
     0
 70
    58
 90
        3
176
     1
 90
        2
176
     1
 90
        0
176
     1
 90
        0
176
     1
 40
0.6
176
     1
 40
30.0
176
     1
 62
     7
420
 16777215
176
     1
 90
        2
176
     1
 90
        2
176
     1
 62
     7
176
     1
 62
   257
176
     1
 90
        1
176
     1
 90
        1
176
     1
 40
179.0
176
     1
 90
        8
176
     1
 62
     7
176
     1
 40
1.0
176
     1
 90
        1
176
     1
 90
        6
176
     1
 90
        2
176
     1
 62
     7
176
     1
 90
        3
176
     1
 90
        0
176
     1
 90
        0
176
     1
290
     0
176
     1
 90
        1
176
     1
 40
0.0
176
     1
 90
        0
176
     1
290
     0
176
     1
290
     1
176
     1
290
     1
176
     1
290
     0
176
     1
290
     0
176
     1
290
     0
176
     1
290
     0
176
     1
290
     0
176
     1
290
     0
176
     1
 90
       50
176
     1
 40
0.0
176
     1
 40
1.0
176
     1
 90
        0
176
     1
 62
    18
420
        0
176
     1
 90
       50
176
     1
 90
        3
176
     1
 62
     5
420
      255
176
     1
290
     0
176
     1
 90
       50
176
     1
 90
       50
176
     1
 90
       50
176
     1
290
     0
176
     1
 90
       50
176
     1
 62
   256
176
     0
 40
1.0
176
     0
 90
        2
176
     1
  1
strokes_ogs.tif
176
     1
290
     0
176
     1
 40
1.0
176
     1
 40
1.0
176
     1
  0
VISUALSTYLE
  5
34
102
{ACAD_REACTORS
330
29
102
}
330
29
100
AcDbVisualStyle
  2
Dim
 70
    11
177
     3
291
     1
 70
    58
 90
        2
176
     1
 90
        2
176
     1
 90
        0
176
     1
 90
        0
176
     1
 40
0.6
176
     1
 40
30.0
176
     1
 62
     7
420
 16777215
176
     1
 90
        1
176
     1
 90
        4
176
     1
 62
     7
176
     1
 62
   257
176
     1
 90
        1
176
     1
 90
        1
176
     1
 40
1.0
176
     1
 90
        8
176
     1
 62
     7
176
     1
 40
1.0
176
     1
 90
        1
176
     1
 90
        6
176
     1
 90
        2
176
     1
 62
     7
176
     1
 90
        5
176
     1
 90
        0
176
     1
 90
        0
176
     1
290
     0
176
     1
 90
        1
176
     1
 40
-50.0
176
     1
 90
        0
176
     1
290
     0
176
     1
290
     1
176
     1
290
     1
176
     1
290
     0
176
     1
290
     0
176
     1
290
     0
176
     1
290
     0
176
     1
290
     0
176
     1
290
     0
176
     1
 90
       50
176
     1
 40
0.0
176
     1
 40
1.0
176
     1
 90
        0
176
     1
 62
    18
420
        0
176
     1
 90
       50
176
     1
 90
        3
176
     1
 62
     5
420
      255
176
     1
290
     0
176
     1
 90
       50
176
     1
 90
       50
176
     1
 90
       50
176
     1
290
     0
176
     1
 90
       50
176
     1
 62
   256
176
     0
 40
1.0
176
     0
 90
        2
176
     1
  1
strokes_ogs.tif
176
     1
290
     0
176
     1
 40
1.0
176
     1
 40
1.0
176
     1
  0
VISUALSTYLE
  5
41
102
{ACAD_REACTORS
330
29
102
}
330
29
100
AcDbVisualStyle
  2
EdgeColorOff
 70
    22
177
     3
291
     1
 70
    58
 90
        2
176
     0
 90
        2
176
     0
 90
        0
176
     0
 90
        0
176
     0
 40
0.6
176
     0
 40
30.0
176
     0
 62
     7
420
 16777215
176
     0
 90
        1
176
     0
 90
        4
176
     0
 62
     7
176
     0
 62
   257
176
     0
 90
        1
176
     0
 90
        1
176
     0
 40
1.0
176
     0
 90
        8
176
     2
 62
     7
176
     0
 40
1.0
176
     0
 90
        1
176
     0
 90
        6
176
     0
 90
        2
176
     0
 62
     7
176
     0
 90
        5
176
     0
 90
        0
176
     0
 90
        0
176
     0
290
     0
176
     0
 90
        1
176
     0
 40
0.0
176
     0
 90
        0
176
     0
290
     0
176
     0
290
     1
176
     0
290
     1
176
     0
290
     0
176
     0
290
     0
176
     0
290
     0
176
     0
290
     0
176
     0
290
     0
176
     0
290
     0
176
     0
 90
       50
176
     0
 40
0.0
176
     0
 40
1.0
176
     0
 90
        0
176
     0
 62
    18
420
        0
176
     0
 90
       50
176
     0
 90
        3
176
     0
 62
     5
420
      255
176
     0
290
     0
176
     0
 90
       50
176
     0
 90
       50
176
     0
 90
       50
176
     0
290
     0
176
     0
 90
       50
176
     0
 62
   256
176
     0
 40
1.0
176
     0
 90
        2
176
     0
  1
strokes_ogs.tif
176
     0
290
     0
176
     0
 40
1.0
176
     0
 40
1.0
176
     0
  0
VISUALSTYLE
  5
38
102
{ACAD_REACTORS
330
29
102
}
330
29
100
AcDbVisualStyle
  2
Facepattern
 70
    15
177
     3
291
     1
 70
    58
 90
        2
176
     1
 90
        2
176
     1
 90
        0
176
     1
 90
        0
176
     1
 40
0.6
176
     1
 40
30.0
176
     1
 62
     7
420
 16777215
176
     1
 90
        1
176
     1
 90
        4
176
     1
 62
     7
176
     1
 62
   257
176
     1
 90
        1
176
     1
 90
        1
176
     1
 40
1.0
176
     1
 90
        8
176
     1
 62
     7
176
     1
 40
1.0
176
     1
 90
        1
176
     1
 90
        6
176
     1
 90
        2
176
     1
 62
     7
176
     1
 90
        5
176
     1
 90
        0
176
     1
 90
        0
176
     1
290
     0
176
     1
 90
        1
176
     1
 40
0.0
176
     1
 90
        0
176
     1
290
     0
176
     1
290
     1
176
     1
290
     1
176
     1
290
     0
176
     1
290
     0
176
     1
290
     0
176
     1
290
     0
176
     1
290
     0
176
     1
290
     0
176
     1
 90
       50
176
     1
 40
0.0
176
     1
 40
1.0
176
     1
 90
        0
176
     1
 62
    18
420
        0
176
     1
 90
       50
176
     1
 90
        3
176
     1
 62
     5
420
      255
176
     1
290
     0
176
     1
 90
       50
176
     1
 90
       50
176
     1
 90
       50
176
     1
290
     0
176
     1
 90
       50
176
     1
 62
   256
176
     0
 40
1.0
176
     0
 90
        2
176
     1
  1
strokes_ogs.tif
176
     1
290
     0
176
     1
 40
1.0
176
     1
 40
1.0
176
     1
  0
VISUALSTYLE
  5
2A
102
{ACAD_REACTORS
330
29
102
}
330
29
100
AcDbVisualStyle
  2
Flat
 70
     0
177
     3
291
     1
 70
    58
 90
        2
176
     1
 90
        1
176
     1
 90
        1
176
     1
 90
        2
176
     1
 40
0.6
176
     1
 40
30.0
176
     1
 62
     7
420
 16777215
176
     1
 90
        0
176
     1
 90
        0
176
     1
 62
     7
176
     1
 62
   257
176
     1
 90
        1
176
     1
 90
        1
176
     1
 40
1.0
176
     1
 90
        8
176
     1
 62
     7
176
     1
 40
1.0
176
     1
 90
        1
176
     1
 90
        6
176
     1
 90
        2
176
     1
 62
     7
176
     1
 90
        5
176
     1
 90
        0
176
     1
 90
        0
176
     1
290
     0
176
     1
 90
       13
176
     1
 40
0.0
176
     1
 90
        0
176
     1
290
     0
176
     1
290
     1
176
     1
290
     1
176
     1
290
     0
176
     1
290
     0
176
     1
290
     0
176
     1
290
     0
176
     1
290
     0
176
     1
290
     0
176
     1
 90
       50
176
     1
 40
0.0
176
     1
 40
1.0
176
     1
 90
        0
176
     1
 62
    18
420
        0
176
     1
 90
       50
176
     1
 90
        3
176
     1
 62
     5
420
      255
176
     1
290
     0
176
     1
 90
       50
176
     1
 90
       50
176
     1
 90
       50
176
     1
290
     0
176
     1
 90
       50
176
     1
 62
   256
176
     0
 40
1.0
176
     0
 90
        2
176
     1
  1
strokes_ogs.tif
176
     1
290
     0
176
     1
 40
1.0
176
     1
 40
1.0
176
     1
  0
VISUALSTYLE
  5
2B
102
{ACAD_REACTORS
330
29
102
}
330
29
100
AcDbVisualStyle
  2
FlatWithEdges
 70
     1
177
     3
291
     1
 70
    58
 90
        2
176
     1
 90
        1
176
     1
 90
        1
176
     1
 90
        2
176
     1
 40
0.6
176
     1
 40
30.0
176
     1
 62
     7
420
 16777215
176
     1
 90
        1
176
     1
 90
        0
176
     1
 62
     7
176
     1
 62
   257
176
     1
 90
        1
176
     1
 90
        1
176
     1
 40
1.0
176
     1
 90
        0
176
     1
 62
   257
176
     1
 40
1.0
176
     1
 90
        1
176
     1
 90
        6
176
     1
 90
        2
176
     1
 62
     7
176
     1
 90
        5
176
     1
 90
        0
176
     1
 90
        0
176
     1
290
     0
176
     1
 90
       13
176
     1
 40
0.0
176
     1
 90
        0
176
     1
290
     0
176
     1
290
     1
176
     1
290
     1
176
     1
290
     0
176
     1
290
     0
176
     1
290
     0
176
     1
290
     0
176
     1
290
     0
176
     1
290
     0
176
     1
 90
       50
176
     1
 40
0.0
176
     1
 40
1.0
176
     1
 90
        0
176
     1
 62
    18
420
        0
176
     1
 90
       50
176
     1
 90
        3
176
     1
 62
     5
420
      255
176
     1
290
     0
176
     1
 90
       50
176
     1
 90
       50
176
     1
 90
       50
176
     1
290
     0
176
     1
 90
       50
176
     1
 62
   256
176
     0
 40
1.0
176
     0
 90
        2
176
     1
  1
strokes_ogs.tif
176
     1
290
     0
176
     1
 40
1.0
176
     1
 40
1.0
176
     1
  0
VISUALSTYLE
  5
2C
102
{ACAD_REACTORS
330
29
102
}
330
29
100
AcDbVisualStyle
  2
Gouraud
 70
     2
177
     3
291
     1
 70
    58
 90
        2
176
     1
 90
        2
176
     1
 90
        1
176
     1
 90
        2
176
     1
 40
0.6
176
     1
 40
30.0
176
     1
 62
     7
420
 16777215
176
     1
 90
        0
176
     1
 90
        0
176
     1
 62
     7
176
     1
 62
   257
176
     1
 90
        1
176
     1
 90
        1
176
     1
 40
1.0
176
     1
 90
        0
176
     1
 62
     7
176
     1
 40
1.0
176
     1
 90
        1
176
     1
 90
        6
176
     1
 90
        2
176
     1
 62
     7
176
     1
 90
        5
176
     1
 90
        0
176
     1
 90
        0
176
     1
290
     0
176
     1
 90
       13
176
     1
 40
0.0
176
     1
 90
        0
176
     1
290
     0
176
     1
290
     1
176
     1
290
     1
176
     1
290
     0
176
     1
290
     0
176
     1
290
     0
176
     1
290
     0
176
     1
290
     0
176
     1
290
     0
176
     1
 90
       50
176
     1
 40
0.0
176
     1
 40
1.0
176
     1
 90
        0
176
     1
 62
    18
420
        0
176
     1
 90
       50
176
     1
 90
        3
176
     1
 62
     5
420
      255
176
     1
290
     0
176
     1
 90
       50
176
     1
 90
       50
176
     1
 90
       50
176
     1
290
     0
176
     1
 90
       50
176
     1
 62
   256
176
     0
 40
1.0
176
     0
 90
        2
176
     1
  1
strokes_ogs.tif
176
     1
290
     0
176
     1
 40
1.0
176
     1
 40
1.0
176
     1
  0
VISUALSTYLE
  5
2D
102
{ACAD_REACTORS
330
29
102
}
330
29
100
AcDbVisualStyle
  2
GouraudWithEdges
 70
     3
177
     3
291
     1
 70
    58
 90
        2
176
     1
 90
        2
176
     1
 90
        1
176
     1
 90
        2
176
     1
 40
0.6
176
     1
 40
30.0
176
     1
 62
     7
420
 16777215
176
     1
 90
        1
176
     1
 90
        0
176
     1
 62
     7
176
     1
 62
   257
176
     1
 90
        1
176
     1
 90
        1
176
     1
 40
1.0
176
     1
 90
        0
176
     1
 62
   257
176
     1
 40
1.0
176
     1
 90
        1
176
     1
 90
        6
176
     1
 90
        2
176
     1
 62
     7
176
     1
 90
        5
176
     1
 90
        0
176
     1
 90
        0
176
     1
290
     0
176
     1
 90
       13
176
     1
 40
0.0
176
     1
 90
        0
176
     1
290
     0
176
     1
290
     1
176
     1
290
     1
176
     1
290
     0
176
     1
290
     0
176
     1
290
     0
176
     1
290
     0
176
     1
290
     0
176
     1
290
     0
176
     1
 90
       50
176
     1
 40
0.0
176
     1
 40
1.0
176
     1
 90
        0
176
     1
 62
    18
420
        0
176
     1
 90
       50
176
     1
 90
        3
176
     1
 62
     5
420
      255
176
     1
290
     0
176
     1
 90
       50
176
     1
 90
       50
176
     1
 90
       50
176
     1
290
     0
176
     1
 90
       50
176
     1
 62
   256
176
     0
 40
1.0
176
     0
 90
        2
176
     1
  1
strokes_ogs.tif
176
     1
290
     0
176
     1
 40
1.0
176
     1
 40
1.0
176
     1
  0
VISUALSTYLE
  5
31
102
{ACAD_REACTORS
330
29
102
}
330
29
100
AcDbVisualStyle
  2
Hidden
 70
     6
177
     3
291
     0
 70
    58
 90
        1
176
     1
 90
        2
176
     1
 90
        2
176
     1
 90
        0
176
     1
 40
0.6
176
     1
 40
30.0
176
     1
 62
     7
420
 16777215
176
     1
 90
        2
176
     1
 90
        2
176
     1
 62
     7
176
     1
 62
   257
176
     1
 90
        2
176
     1
 90
        1
176
     1
 40
40.0
176
     1
 90
        0
176
     1
 62
   257
176
     1
 40
1.0
176
     1
 90
        1
176
     1
 90
        6
176
     1
 90
        2
176
     1
 62
     7
176
     1
 90
        3
176
     1
 90
        0
176
     1
 90
        0
176
     1
290
     0
176
     1
 90
        1
176
     1
 40
0.0
176
     1
 90
        0
176
     1
290
     0
176
     1
290
     1
176
     1
290
     1
176
     1
290
     0
176
     1
290
     0
176
     1
290
     0
176
     1
290
     0
176
     1
290
     0
176
     1
290
     0
176
     1
 90
       50
176
     1
 40
0.0
176
     1
 40
1.0
176
     1
 90
        0
176
     1
 62
    18
420
        0
176
     1
 90
       50
176
     1
 90
        3
176
     1
 62
     5
420
      255
176
     1
290
     0
176
     1
 90
       50
176
     1
 90
       50
176
     1
 90
       50
176
     1
290
     0
176
     1
 90
       50
176
     1
 62
   256
176
     0
 40
1.0
176
     0
 90
        2
176
     1
  1
strokes_ogs.tif
176
     1
290
     0
176
     1
 40
1.0
176
     1
 40
1.0
176
     1
  0
VISUALSTYLE
  5
3F
102
{ACAD_REACTORS
330
29
102
}
330
29
100
AcDbVisualStyle
  2
JitterOff
 70
    20
177
     3
291
     1
 70
    58
 90
        2
176
     0
 90
        2
176
     0
 90
        0
176
     0
 90
        0
176
     0
 40
0.6
176
     0
 40
30.0
176
     0
 62
     7
420
 16777215
176
     0
 90
        1
176
     0
 90
        4
176
     0
 62
     7
176
     0
 62
   257
176
     0
 90
        1
176
     0
 90
        1
176
     0
 40
1.0
176
     0
 90
       10
176
     2
 62
     7
176
     0
 40
1.0
176
     0
 90
        1
176
     0
 90
        6
176
     0
 90
        2
176
     0
 62
     7
176
     0
 90
        5
176
     0
 90
        0
176
     0
 90
        0
176
     0
290
     0
176
     0
 90
        1
176
     0
 40
0.0
176
     0
 90
        0
176
     0
290
     0
176
     0
290
     1
176
     0
290
     1
176
     0
290
     0
176
     0
290
     0
176
     0
290
     0
176
     0
290
     0
176
     0
290
     0
176
     0
290
     0
176
     0
 90
       50
176
     0
 40
0.0
176
     0
 40
1.0
176
     0
 90
        0
176
     0
 62
    18
420
        0
176
     0
 90
       50
176
     0
 90
        3
176
     0
 62
     5
420
      255
176
     0
290
     0
176
     0
 90
       50
176
     0
 90
       50
176
     0
 90
       50
176
     0
290
     0
176
     0
 90
       50
176
     0
 62
   256
176
     0
 40
1.0
176
     0
 90
        2
176
     0
  1
strokes_ogs.tif
176
     0
290
     0
176
     0
 40
1.0
176
     0
 40
1.0
176
     0
  0
VISUALSTYLE
  5
37
102
{ACAD_REACTORS
330
29
102
}
330
29
100
AcDbVisualStyle
  2
Linepattern
 70
    14
177
     3
291
     1
 70
    58
 90
        2
176
     1
 90
        2
176
     1
 90
        0
176
     1
 90
        0
176
     1
 40
0.6
176
     1
 40
30.0
176
     1
 62
     7
420
 16777215
176
     1
 90
        1
176
     1
 90
        4
176
     1
 62
     7
176
     1
 62
   257
176
     1
 90
        7
176
     1
 90
        7
176
     1
 40
1.0
176
     1
 90
        8
176
     1
 62
     7
176
     1
 40
1.0
176
     1
 90
        1
176
     1
 90
        6
176
     1
 90
        2
176
     1
 62
     7
176
     1
 90
        5
176
     1
 90
        0
176
     1
 90
        0
176
     1
290
     0
176
     1
 90
        1
176
     1
 40
0.0
176
     1
 90
        0
176
     1
290
     0
176
     1
290
     1
176
     1
290
     1
176
     1
290
     0
176
     1
290
     0
176
     1
290
     0
176
     1
290
     0
176
     1
290
     0
176
     1
290
     0
176
     1
 90
       50
176
     1
 40
0.0
176
     1
 40
1.0
176
     1
 90
        0
176
     1
 62
    18
420
        0
176
     1
 90
       50
176
     1
 90
        3
176
     1
 62
     5
420
      255
176
     1
290
     0
176
     1
 90
       50
176
     1
 90
       50
176
     1
 90
       50
176
     1
290
     0
176
     1
 90
       50
176
     1
 62
   256
176
     0
 40
1.0
176
     0
 90
        2
176
     1
  1
strokes_ogs.tif
176
     1
290
     0
176
     1
 40
1.0
176
     1
 40
1.0
176
     1
  0
VISUALSTYLE
  5
40
102
{ACAD_REACTORS
330
29
102
}
330
29
100
AcDbVisualStyle
  2
OverhangOff
 70
    21
177
     3
291
     1
 70
    58
 90
        2
176
     0
 90
        2
176
     0
 90
        0
176
     0
 90
        0
176
     0
 40
0.6
176
     0
 40
30.0
176
     0
 62
     7
420
 16777215
176
     0
 90
        1
176
     0
 90
        4
176
     0
 62
     7
176
     0
 62
   257
176
     0
 90
        1
176
     0
 90
        1
176
     0
 40
1.0
176
     0
 90
        9
176
     2
 62
     7
176
     0
 40
1.0
176
     0
 90
        1
176
     0
 90
        6
176
     0
 90
        2
176
     0
 62
     7
176
     0
 90
        5
176
     0
 90
        0
176
     0
 90
        0
176
     0
290
     0
176
     0
 90
        1
176
     0
 40
0.0
176
     0
 90
        0
176
     0
290
     0
176
     0
290
     1
176
     0
290
     1
176
     0
290
     0
176
     0
290
     0
176
     0
290
     0
176
     0
290
     0
176
     0
290
     0
176
     0
290
     0
176
     0
 90
       50
176
     0
 40
0.0
176
     0
 40
1.0
176
     0
 90
        0
176
     0
 62
    18
420
        0
176
     0
 90
       50
176
     0
 90
        3
176
     0
 62
     5
420
      255
176
     0
290
     0
176
     0
 90
       50
176
     0
 90
       50
176
     0
 90
       50
176
     0
290
     0
176
     0
 90
       50
176
     0
 62
   256
176
     0
 40
1.0
176
     0
 90
        2
176
     0
  1
strokes_ogs.tif
176
     0
290
     0
176
     0
 40
1.0
176
     0
 40
1.0
176
     0
  0
VISUALSTYLE
  5
33
102
{ACAD_REACTORS
330
29
102
}
330
29
100
AcDbVisualStyle
  2
Realistic
 70
     8
177
     3
291
     0
 70
    58
 90
        2
176
     1
 90
        3
176
     1
 90
        0
176
     1
 90
        2
176
     1
 40
0.6
176
     1
 40
30.0
176
     1
 62
     7
420
 16777215
176
     1
 90
        0
176
     1
 90
        0
176
     1
 62
     7
176
     1
 62
   257
176
     1
 90
        1
176
     1
 90
        1
176
     1
 40
1.0
176
     1
 90
        8
176
     1
 62
   257
176
     1
 40
1.0
176
     1
 90
        1
176
     1
 90
        6
176
     1
 90
        2
176
     1
 62
     7
176
     1
 90
        3
176
     1
 90
        0
176
     1
 90
        0
176
     1
290
     0
176
     1
 90
       13
176
     1
 40
0.0
176
     1
 90
        0
176
     1
290
     0
176
     1
290
     1
176
     1
290
     1
176
     1
290
     0
176
     1
290
     0
176
     1
290
     0
176
     1
290
     0
176
     1
290
     0
176
     1
290
     0
176
     1
 90
       50
176
     1
 40
0.0
176
     1
 40
1.0
176
     1
 90
        0
176
     1
 62
    18
420
        0
176
     1
 90
       50
176
     1
 90
        3
176
     1
 62
     5
420
      255
176
     1
290
     0
176
     1
 90
       50
176
     1
 90
       50
176
     1
 90
       50
176
     1
290
     0
176
     1
 90
       50
176
     1
 62
   256
176
     0
 40
1.0
176
     0
 90
        2
176
     1
  1
strokes_ogs.tif
176
     1
290
     0
176
     1
 40
1.0
176
     1
 40
1.0
176
     1
  0
VISUALSTYLE
  5
3E
102
{ACAD_REACTORS
330
29
102
}
330
29
100
AcDbVisualStyle
  2
Shaded
 70
    27
177
     3
291
     0
 70
    58
 90
        2
176
     1
 90
        2
176
     1
 90
        1
176
     1
 90
        2
176
     1
 40
0.6
176
     1
 40
30.0
176
     1
 62
     7
420
 16777215
176
     1
 90
        0
176
     1
 90
        4
176
     1
 62
     7
176
     1
 62
   257
176
     1
 90
        1
176
     1
 90
        1
176
     1
 40
1.0
176
     1
 90
        8
176
     1
 62
   257
176
     1
 40
1.0
176
     1
 90
        1
176
     1
 90
        6
176
     1
 90
        2
176
     1
 62
     8
420
  7895160
176
     1
 90
        3
176
     1
 90
        0
176
     1
 90
        0
176
     1
290
     0
176
     1
 90
        5
176
     1
 40
0.0
176
     1
 90
        0
176
     1
290
     0
176
     1
290
     1
176
     1
290
     1
176
     1
290
     0
176
     1
290
     0
176
     1
290
     0
176
     1
290
     0
176
     1
290
     0
176
     1
290
     0
176
     1
 90
       50
176
     1
 40
0.0
176
     1
 40
1.0
176
     1
 90
        0
176
     1
 62
    18
420
        0
176
     1
 90
       50
176
     1
 90
        3
176
     1
 62
     5
420
      255
176
     1
290
     0
176
     1
 90
       50
176
     1
 90
       50
176
     1
 90
       50
176
     1
290
     0
176
     1
 90
       50
176
     1
 62
   256
176
     0
 40
1.0
176
     0
 90
        2
176
     1
  1
strokes_ogs.tif
176
     1
290
     0
176
     1
 40
1.0
176
     1
 40
1.0
176
     1
  0
VISUALSTYLE
  5
3D
102
{ACAD_REACTORS
330
29
102
}
330
29
100
AcDbVisualStyle
  2
Shaded with edges
 70
    26
177
     3
291
     0
 70
    58
 90
        2
176
     1
 90
        2
176
     1
 90
        1
176
     1
 90
        2
176
     1
 40
0.6
176
     1
 40
30.0
176
     1
 62
     7
420
 16777215
176
     1
 90
        1
176
     1
 90
       10
176
     1
 62
     7
176
     1
 62
   257
176
     1
 90
        2
176
     1
 90
        1
176
     1
 40
1.0
176
     1
 90
        8
176
     1
 62
   257
176
     1
 40
1.0
176
     1
 90
        1
176
     1
 90
        6
176
     1
 90
        2
176
     1
 62
     7
176
     1
 90
        3
176
     1
 90
        0
176
     1
 90
        0
176
     1
290
     0
176
     1
 90
        5
176
     1
 40
0.0
176
     1
 90
        0
176
     1
290
     0
176
     1
290
     1
176
     1
290
     1
176
     1
290
     0
176
     1
290
     0
176
     1
290
     0
176
     1
290
     0
176
     1
290
     0
176
     1
290
     0
176
     1
 90
       50
176
     1
 40
0.0
176
     1
 40
1.0
176
     1
 90
        0
176
     1
 62
    18
420
        0
176
     1
 90
       50
176
     1
 90
        3
176
     1
 62
     5
420
      255
176
     1
290
     0
176
     1
 90
       50
176
     1
 90
       50
176
     1
 90
       50
176
     1
290
     0
176
     1
 90
       50
176
     1
 62
   256
176
     0
 40
1.0
176
     0
 90
        2
176
     1
  1
strokes_ogs.tif
176
     1
290
     0
176
     1
 40
1.0
176
     1
 40
1.0
176
     1
  0
VISUALSTYLE
  5
3A
102
{ACAD_REACTORS
330
29
102
}
330
29
100
AcDbVisualStyle
  2
Shades of Gray
 70
    23
177
     3
291
     0
 70
    58
 90
        2
176
     1
 90
        2
176
     1
 90
        3
176
     1
 90
        0
176
     1
 40
0.6
176
     1
 40
30.0
176
     1
 62
     7
420
 16777215
176
     1
 90
        2
176
     1
 90
        2
176
     1
 62
     7
176
     1
 62
     7
176
     1
 90
        1
176
     1
 90
        1
176
     1
 40
40.0
176
     1
 90
        8
176
     1
 62
     7
176
     1
 40
1.0
176
     1
 90
        1
176
     1
 90
        6
176
     1
 90
        2
176
     1
 62
     7
176
     1
 90
        3
176
     1
 90
        0
176
     1
 90
        0
176
     1
290
     0
176
     1
 90
        1
176
     1
 40
0.0
176
     1
 90
        0
176
     1
290
     0
176
     1
290
     1
176
     1
290
     1
176
     1
290
     0
176
     1
290
     0
176
     1
290
     0
176
     1
290
     0
176
     1
290
     0
176
     1
290
     0
176
     1
 90
       50
176
     1
 40
0.0
176
     1
 40
1.0
176
     1
 90
        0
176
     1
 62
    18
420
        0
176
     1
 90
       50
176
     1
 90
        3
176
     1
 62
     5
420
      255
176
     1
290
     0
176
     1
 90
       50
176
     1
 90
       50
176
     1
 90
       50
176
     1
290
     0
176
     1
 90
       50
176
     1
 62
   256
176
     0
 40
1.0
176
     0
 90
        2
176
     1
  1
strokes_ogs.tif
176
     1
290
     0
176
     1
 40
1.0
176
     1
 40
1.0
176
     1
  0
VISUALSTYLE
  5
3B
102
{ACAD_REACTORS
330
29
102
}
330
29
100
AcDbVisualStyle
  2
Sketchy
 70
    24
177
     3
291
     0
 70
    58
 90
        1
176
     1
 90
        2
176
     1
 90
        2
176
     1
 90
        0
176
     1
 40
0.6
176
     1
 40
30.0
176
     1
 62
     7
420
 16777215
176
     1
 90
        2
176
     1
 90
        2
176
     1
 62
     7
176
     1
 62
     7
176
     1
 90
        1
176
     1
 90
        1
176
     1
 40
40.0
176
     1
 90
       11
176
     1
 62
     7
176
     1
 40
1.0
176
     1
 90
        1
176
     1
 90
        6
176
     1
 90
        2
176
     1
 62
     7
176
     1
 90
        6
176
     1
 90
        0
176
     1
 90
        0
176
     1
290
     0
176
     1
 90
        1
176
     1
 40
0.0
176
     1
 90
        0
176
     1
290
     0
176
     1
290
     1
176
     1
290
     1
176
     1
290
     0
176
     1
290
     0
176
     1
290
     0
176
     1
290
     0
176
     1
290
     0
176
     1
290
     0
176
     1
 90
       50
176
     1
 40
0.0
176
     1
 40
1.0
176
     1
 90
        0
176
     1
 62
    18
420
        0
176
     1
 90
       50
176
     1
 90
        3
176
     1
 62
     5
420
      255
176
     1
290
     0
176
     1
 90
       50
176
     1
 90
       50
176
     1
 90
       50
176
     1
290
     0
176
     1
 90
       50
176
     1
 62
   256
176
     0
 40
1.0
176
     0
 90
        2
176
     1
  1
strokes_ogs.tif
176
     1
290
     0
176
     1
 40
1.0
176
     1
 40
1.0
176
     1
  0
VISUALSTYLE
  5
36
102
{ACAD_REACTORS
330
29
102
}
330
29
100
AcDbVisualStyle
  2
Thicken
 70
    13
177
     3
291
     1
 70
    58
 90
        2
176
     1
 90
        2
176
     1
 90
        0
176
     1
 90
        0
176
     1
 40
0.6
176
     1
 40
30.0
176
     1
 62
     7
420
 16777215
176
     1
 90
        1
176
     1
 90
        4
176
     1
 62
     7
176
     1
 62
   257
176
     1
 90
        1
176
     1
 90
        1
176
     1
 40
1.0
176
     1
 90
       12
176
     1
 62
     7
176
     1
 40
1.0
176
     1
 90
        1
176
     1
 90
        6
176
     1
 90
        2
176
     1
 62
     7
176
     1
 90
        5
176
     1
 90
        0
176
     1
 90
        0
176
     1
290
     0
176
     1
 90
        1
176
     1
 40
0.0
176
     1
 90
        0
176
     1
290
     0
176
     1
290
     1
176
     1
290
     1
176
     1
290
     0
176
     1
290
     0
176
     1
290
     0
176
     1
290
     0
176
     1
290
     0
176
     1
290
     0
176
     1
 90
       50
176
     1
 40
0.0
176
     1
 40
1.0
176
     1
 90
        0
176
     1
 62
    18
420
        0
176
     1
 90
       50
176
     1
 90
        3
176
     1
 62
     5
420
      255
176
     1
290
     0
176
     1
 90
       50
176
     1
 90
       50
176
     1
 90
       50
176
     1
290
     0
176
     1
 90
       50
176
     1
 62
   256
176
     0
 40
1.0
176
     0
 90
        2
176
     1
  1
strokes_ogs.tif
176
     1
290
     0
176
     1
 40
1.0
176
     1
 40
1.0
176
     1
  0
VISUALSTYLE
  5
30
102
{ACAD_REACTORS
330
29
102
}
330
29
100
AcDbVisualStyle
  2
Wireframe
 70
     5
177
     3
291
     0
 70
    58
 90
        0
176
     1
 90
        2
176
     1
 90
        0
176
     1
 90
        0
176
     1
 40
0.6
176
     1
 40
30.0
176
     1
 62
     7
420
 16777215
176
     1
 90
        1
176
     1
 90
        4
176
     1
 62
     7
176
     1
 62
   257
176
     1
 90
        1
176
     1
 90
        1
176
     1
 40
1.0
176
     1
 90
        0
176
     1
 62
   257
176
     1
 40
1.0
176
     1
 90
        1
176
     1
 90
        6
176
     1
 90
        2
176
     1
 62
     7
176
     1
 90
        3
176
     1
 90
        0
176
     1
 90
        0
176
     1
290
     0
176
     1
 90
        1
176
     1
 40
0.0
176
     1
 90
        0
176
     1
290
     0
176
     1
290
     1
176
     1
290
     1
176
     1
290
     0
176
     1
290
     0
176
     1
290
     0
176
     1
290
     0
176
     1
290
     0
176
     1
290
     0
176
     1
 90
       50
176
     1
 40
0.0
176
     1
 40
1.0
176
     1
 90
        0
176
     1
 62
    18
420
        0
176
     1
 90
       50
176
     1
 90
        3
176
     1
 62
     5
420
      255
176
     1
290
     0
176
     1
 90
       50
176
     1
 90
       50
176
     1
 90
       50
176
     1
290
     0
176
     1
 90
       50
176
     1
 62
   256
176
     0
 40
1.0
176
     0
 90
        2
176
     1
  1
strokes_ogs.tif
176
     1
290
     0
176
     1
 40
1.0
176
     1
 40
1.0
176
     1
  0
VISUALSTYLE
  5
3C
102
{ACAD_REACTORS
330
29
102
}
330
29
100
AcDbVisualStyle
  2
X-Ray
 70
    25
177
     3
291
     0
 70
    58
 90
        2
176
     1
 90
        2
176
     1
 90
        1
176
     1
 90
        1
176
     1
 40
0.5
176
     1
 40
30.0
176
     1
 62
     7
420
 16777215
176
     1
 90
        1
176
     1
 90
        0
176
     1
 62
     7
176
     1
 62
   257
176
     1
 90
        1
176
     1
 90
        1
176
     1
 40
1.0
176
     1
 90
        8
176
     1
 62
     7
176
     1
 40
1.0
176
     1
 90
        1
176
     1
 90
        6
176
     1
 90
        2
176
     1
 62
     7
176
     1
 90
        3
176
     1
 90
        0
176
     1
 90
        0
176
     1
290
     0
176
     1
 90
       13
176
     1
 40
0.0
176
     1
 90
        0
176
     1
290
     0
176
     1
290
     1
176
     1
290
     1
176
     1
290
     0
176
     1
290
     0
176
     1
290
     0
176
     1
290
     0
176
     1
290
     0
176
     1
290
     0
176
     1
 90
       50
176
     1
 40
0.0
176
     1
 40
1.0
176
     1
 90
        0
176
     1
 62
    18
420
        0
176
     1
 90
       50
176
     1
 90
        3
176
     1
 62
     5
420
      255
176
     1
290
     0
176
     1
 90
       50
176
     1
 90
       50
176
     1
 90
       50
176
     1
290
     0
176
     1
 90
       50
176
     1
 62
   256
176
     0
 40
1.0
176
     0
 90
        2
176
     1
  1
strokes_ogs.tif
176
     1
290
     0
176
     1
 40
1.0
176
     1
 40
1.0
176
     1
  0
DICTIONARYVAR
  5
81
102
{ACAD_REACTORS
330
7C
102
}
330
7C
100
DictionaryVariables
280
     0
  1
1:1
  0
DICTIONARYVAR
  5
7E
102
{ACAD_REACTORS
330
7C
102
}
330
7C
100
DictionaryVariables
280
     0
  1
STANDARD
  0
DICTIONARYVAR
  5
7D
102
{ACAD_REACTORS
330
7C
102
}
330
7C
100
DictionaryVariables
280
     0
  1
STANDARD
  0
DICTIONARYVAR
  5
7F
102
{ACAD_REACTORS
330
7C
102
}
330
7C
100
DictionaryVariables
280
     0
  1
Imperial24
  0
DICTIONARYVAR
  5
80
102
{ACAD_REACTORS
330
7C
102
}
330
7C
100
DictionaryVariables
280
     0
  1
Imperial24
  0
XRECORD
  5
279
102
{ACAD_REACTORS
330
275
102
}
330
275
100
AcDbXrecord
280
     1
  1
BUILDING_ID
  1
Progetto per messa in tavola DXF, DWG
  1
FLOOR_ID
  1
694395
  0
XRECORD
  5
277
102
{ACAD_REACTORS
330
275
102
}
330
275
100
AcDbXrecord
280
     1
  1
-2001160
  1
Apparecchi idraulici
  0
XRECORD
  5
278
102
{ACAD_REACTORS
330
275
102
}
330
275
100
AcDbXrecord
280
     1
  1
790271
  1
Body
  1
938184
  1
Handle
  1
939838
  1
Insulation
  0
XRECORD
  5
276
102
{ACAD_REACTORS
330
275
102
}
330
275
100
AcDbXrecord
280
     1
  1
859151
  1
Automatic flow rate regulator valve_Caleffi_121 DN15 : 1/2''
  0
DICTIONARY
  5
1A
330
19
100
AcDbDictionary
280
     1
281
     1
  3
BUMPTILE
360
1C
  3
DIFFUSETILE
360
1B
  3
OPACITYTILE
360
1F
  3
REFLECTIONTILE
360
1E
  3
REFRACTIONTILE
360
20
  3
SPECULARTILE
360
1D
  0
DICTIONARY
  5
12
330
11
100
AcDbDictionary
280
     1
281
     1
  3
BUMPTILE
360
14
  3
DIFFUSETILE
360
13
  3
OPACITYTILE
360
17
  3
REFLECTIONTILE
360
16
  3
REFRACTIONTILE
360
18
  3
SPECULARTILE
360
15
  0
DICTIONARY
  5
22
330
21
100
AcDbDictionary
280
     1
281
     1
  3
BUMPTILE
360
24
  3
DIFFUSETILE
360
23
  3
OPACITYTILE
360
27
  3
REFLECTIONTILE
360
26
  3
REFRACTIONTILE
360
28
  3
SPECULARTILE
360
25
  0
DICTIONARY
  5
27C
330
65
100
AcDbDictionary
280
     1
281
     1
  3
ACAD_ROUNDTRIP_2008_TABLESTYLE_CELLSTYLEMAP
360
27D
  0
XRECORD
  5
1C
102
{ACAD_REACTORS
330
1A
102
}
330
1A
100
AcDbXrecord
280
     1
270
     1
271
     1
  0
XRECORD
  5
1B
102
{ACAD_REACTORS
330
1A
102
}
330
1A
100
AcDbXrecord
280
     1
270
     1
271
     1
  0
XRECORD
  5
1F
102
{ACAD_REACTORS
330
1A
102
}
330
1A
100
AcDbXrecord
280
     1
270
     1
271
     1
  0
XRECORD
  5
1E
102
{ACAD_REACTORS
330
1A
102
}
330
1A
100
AcDbXrecord
280
     1
270
     1
271
     1
  0
XRECORD
  5
20
102
{ACAD_REACTORS
330
1A
102
}
330
1A
100
AcDbXrecord
280
     1
270
     1
271
     1
  0
XRECORD
  5
1D
102
{ACAD_REACTORS
330
1A
102
}
330
1A
100
AcDbXrecord
280
     1
270
     1
271
     1
  0
XRECORD
  5
14
102
{ACAD_REACTORS
330
12
102
}
330
12
100
AcDbXrecord
280
     1
270
     1
271
     1
  0
XRECORD
  5
13
102
{ACAD_REACTORS
330
12
102
}
330
12
100
AcDbXrecord
280
     1
270
     1
271
     1
  0
XRECORD
  5
17
102
{ACAD_REACTORS
330
12
102
}
330
12
100
AcDbXrecord
280
     1
270
     1
271
     1
  0
XRECORD
  5
16
102
{ACAD_REACTORS
330
12
102
}
330
12
100
AcDbXrecord
280
     1
270
     1
271
     1
  0
XRECORD
  5
18
102
{ACAD_REACTORS
330
12
102
}
330
12
100
AcDbXrecord
280
     1
270
     1
271
     1
  0
XRECORD
  5
15
102
{ACAD_REACTORS
330
12
102
}
330
12
100
AcDbXrecord
280
     1
270
     1
271
     1
  0
XRECORD
  5
24
102
{ACAD_REACTORS
330
22
102
}
330
22
100
AcDbXrecord
280
     1
270
     1
271
     1
  0
XRECORD
  5
23
102
{ACAD_REACTORS
330
22
102
}
330
22
100
AcDbXrecord
280
     1
270
     1
271
     1
  0
XRECORD
  5
27
102
{ACAD_REACTORS
330
22
102
}
330
22
100
AcDbXrecord
280
     1
270
     1
271
     1
  0
XRECORD
  5
26
102
{ACAD_REACTORS
330
22
102
}
330
22
100
AcDbXrecord
280
     1
270
     1
271
     1
  0
XRECORD
  5
28
102
{ACAD_REACTORS
330
22
102
}
330
22
100
AcDbXrecord
280
     1
270
     1
271
     1
  0
XRECORD
  5
25
102
{ACAD_REACTORS
330
22
102
}
330
22
100
AcDbXrecord
280
     1
270
     1
271
     1
  0
CELLSTYLEMAP
  5
27D
102
{ACAD_REACTORS
330
27C
102
}
330
27C
100
AcDbCellStyleMap
 90
        3
300
CELLSTYLE
  1
TABLEFORMAT_BEGIN
 90
        5
170
     1
 91
        0
 92
    32768
 62
   257
 93
        1
300
CONTENTFORMAT
  1
CONTENTFORMAT_BEGIN
 90
        0
 91
        0
 92
      512
 93
        0
300

 40
0.0
140
1.0
 94
        5
 62
     0
340
55
144
0.25
309
CONTENTFORMAT_END
171
     0
 94
        0
309
TABLEFORMAT_END
  1
CELLSTYLE_BEGIN
 90
        1
 91
        1
300
_TITLE
309
CELLSTYLE_END
300
CELLSTYLE
  1
TABLEFORMAT_BEGIN
 90
        5
170
     1
 91
        0
 92
        0
 62
   257
 93
        1
300
CONTENTFORMAT
  1
CONTENTFORMAT_BEGIN
 90
        0
 91
        0
 92
      512
 93
        0
300

 40
0.0
140
1.0
 94
        5
 62
     0
340
55
144
0.18
309
CONTENTFORMAT_END
171
     0
 94
        0
309
TABLEFORMAT_END
  1
CELLSTYLE_BEGIN
 90
        2
 91
        1
300
_HEADER
309
CELLSTYLE_END
300
CELLSTYLE
  1
TABLEFORMAT_BEGIN
 90
        5
170
     1
 91
        0
 92
        0
 62
   257
 93
        1
300
CONTENTFORMAT
  1
CONTENTFORMAT_BEGIN
 90
        0
 91
        0
 92
      512
 93
        0
300

 40
0.0
140
1.0
 94
        2
 62
     0
340
55
144
0.18
309
CONTENTFORMAT_END
171
     0
 94
        0
309
TABLEFORMAT_END
  1
CELLSTYLE_BEGIN
 90
        3
 91
        2
300
_DATA
309
CELLSTYLE_END
  0
ENDSEC
  0
EOF
