  0
SECTION
  2
HEADER
  9
$ACADVER
  1
AC1027
  9
$ACADMAINTVER
 70
    20
  9
$DWGCODEPAGE
  3
ANSI_1252
  9
$REQUIREDVERSIONS
160
                 0
  9
$INSBASE
 10
0.0
 20
0.0
 30
0.0
  9
$EXTMIN
 10
740.1664074431878
 20
1778.216815033827
 30
-0.00000001
  9
$EXTMAX
 10
1095.114353953096
 20
2090.999999999994
 30
0.00000001
  9
$LIMMIN
 10
0.0
 20
0.0
  9
$LIMMAX
 10
12.0
 20
9.0
  9
$ORTHOMODE
 70
     0
  9
$REGENMODE
 70
     1
  9
$FILLMODE
 70
     1
  9
$QTEXTMODE
 70
     0
  9
$MIRRTEXT
 70
     0
  9
$LTSCALE
 40
1.0
  9
$ATTMODE
 70
     1
  9
$TEXTSIZE
 40
0.2
  9
$TRACEWID
 40
0.05
  9
$TEXTSTYLE
  7
Standard
  9
$CLAYER
  8
0
  9
$CELTYPE
  6
ByLayer
  9
$CECOLOR
 62
   256
  9
$CELTSCALE
 40
1.0
  9
$DISPSILH
 70
     0
  9
$DIMSCALE
 40
1.0
  9
$DIMASZ
 40
0.18
  9
$DIMEXO
 40
0.0625
  9
$DIMDLI
 40
0.38
  9
$DIMRND
 40
0.0
  9
$DIMDLE
 40
0.0
  9
$DIMEXE
 40
0.18
  9
$DIMTP
 40
0.0
  9
$DIMTM
 40
0.0
  9
$DIMTXT
 40
0.18
  9
$DIMCEN
 40
0.09
  9
$DIMTSZ
 40
0.0
  9
$DIMTOL
 70
     0
  9
$DIMLIM
 70
     0
  9
$DIMTIH
 70
     1
  9
$DIMTOH
 70
     1
  9
$DIMSE1
 70
     0
  9
$DIMSE2
 70
     0
  9
$DIMTAD
 70
     0
  9
$DIMZIN
 70
     0
  9
$DIMBLK
  1

  9
$DIMASO
 70
     1
  9
$DIMSHO
 70
     1
  9
$DIMPOST
  1

  9
$DIMAPOST
  1

  9
$DIMALT
 70
     0
  9
$DIMALTD
 70
     2
  9
$DIMALTF
 40
25.4
  9
$DIMLFAC
 40
1.0
  9
$DIMTOFL
 70
     0
  9
$DIMTVP
 40
0.0
  9
$DIMTIX
 70
     0
  9
$DIMSOXD
 70
     0
  9
$DIMSAH
 70
     0
  9
$DIMBLK1
  1

  9
$DIMBLK2
  1

  9
$DIMSTYLE
  2
Standard
  9
$DIMCLRD
 70
     0
  9
$DIMCLRE
 70
     0
  9
$DIMCLRT
 70
     0
  9
$DIMTFAC
 40
1.0
  9
$DIMGAP
 40
0.09
  9
$DIMJUST
 70
     0
  9
$DIMSD1
 70
     0
  9
$DIMSD2
 70
     0
  9
$DIMTOLJ
 70
     1
  9
$DIMTZIN
 70
     0
  9
$DIMALTZ
 70
     0
  9
$DIMALTTZ
 70
     0
  9
$DIMUPT
 70
     0
  9
$DIMDEC
 70
     4
  9
$DIMTDEC
 70
     4
  9
$DIMALTU
 70
     2
  9
$DIMALTTD
 70
     2
  9
$DIMTXSTY
  7
Standard
  9
$DIMAUNIT
 70
     0
  9
$DIMADEC
 70
     0
  9
$DIMALTRND
 40
0.0
  9
$DIMAZIN
 70
     0
  9
$DIMDSEP
 70
    46
  9
$DIMATFIT
 70
     3
  9
$DIMFRAC
 70
     0
  9
$DIMLDRBLK
  1

  9
$DIMLUNIT
 70
     2
  9
$DIMLWD
 70
    -2
  9
$DIMLWE
 70
    -2
  9
$DIMTMOVE
 70
     0
  9
$DIMFXL
 40
1.0
  9
$DIMFXLON
 70
     0
  9
$DIMJOGANG
 40
0.7853981633974483
  9
$DIMTFILL
 70
     0
  9
$DIMTFILLCLR
 70
     0
  9
$DIMARCSYM
 70
     0
  9
$DIMLTYPE
  6

  9
$DIMLTEX1
  6

  9
$DIMLTEX2
  6

  9
$DIMTXTDIRECTION
 70
     0
  9
$LUNITS
 70
     2
  9
$LUPREC
 70
     4
  9
$SKETCHINC
 40
0.1
  9
$FILLETRAD
 40
0.0
  9
$AUNITS
 70
     0
  9
$AUPREC
 70
     0
  9
$MENU
  1
.
  9
$ELEVATION
 40
0.0
  9
$PELEVATION
 40
0.0
  9
$THICKNESS
 40
0.0
  9
$LIMCHECK
 70
     0
  9
$CHAMFERA
 40
0.0
  9
$CHAMFERB
 40
0.0
  9
$CHAMFERC
 40
0.0
  9
$CHAMFERD
 40
0.0
  9
$SKPOLY
 70
     0
  9
$TDCREATE
 40
2457569.573651910
  9
$TDUCREATE
 40
2457569.490318577
  9
$TDUPDATE
 40
2457569.573651910
  9
$TDUUPDATE
 40
2457569.490318577
  9
$TDINDWG
 40
0.0000085532
  9
$TDUSRTIMER
 40
0.0000085532
  9
$USRTIMER
 70
     1
  9
$ANGBASE
 50
0.0
  9
$ANGDIR
 70
     0
  9
$PDMODE
 70
     0
  9
$PDSIZE
 40
0.0
  9
$PLINEWID
 40
0.0
  9
$SPLFRAME
 70
     0
  9
$SPLINETYPE
 70
     6
  9
$SPLINESEGS
 70
     8
  9
$HANDSEED
  5
29D
  9
$SURFTAB1
 70
     6
  9
$SURFTAB2
 70
     6
  9
$SURFTYPE
 70
     6
  9
$SURFU
 70
     6
  9
$SURFV
 70
     6
  9
$UCSBASE
  2

  9
$UCSNAME
  2

  9
$UCSORG
 10
0.0
 20
0.0
 30
0.0
  9
$UCSXDIR
 10
1.0
 20
0.0
 30
0.0
  9
$UCSYDIR
 10
0.0
 20
1.0
 30
0.0
  9
$UCSORTHOREF
  2

  9
$UCSORTHOVIEW
 70
     0
  9
$UCSORGTOP
 10
0.0
 20
0.0
 30
0.0
  9
$UCSORGBOTTOM
 10
0.0
 20
0.0
 30
0.0
  9
$UCSORGLEFT
 10
0.0
 20
0.0
 30
0.0
  9
$UCSORGRIGHT
 10
0.0
 20
0.0
 30
0.0
  9
$UCSORGFRONT
 10
0.0
 20
0.0
 30
0.0
  9
$UCSORGBACK
 10
0.0
 20
0.0
 30
0.0
  9
$PUCSBASE
  2

  9
$PUCSNAME
  2

  9
$PUCSORG
 10
0.0
 20
0.0
 30
0.0
  9
$PUCSXDIR
 10
1.0
 20
0.0
 30
0.0
  9
$PUCSYDIR
 10
0.0
 20
1.0
 30
0.0
  9
$PUCSORTHOREF
  2

  9
$PUCSORTHOVIEW
 70
     0
  9
$PUCSORGTOP
 10
0.0
 20
0.0
 30
0.0
  9
$PUCSORGBOTTOM
 10
0.0
 20
0.0
 30
0.0
  9
$PUCSORGLEFT
 10
0.0
 20
0.0
 30
0.0
  9
$PUCSORGRIGHT
 10
0.0
 20
0.0
 30
0.0
  9
$PUCSORGFRONT
 10
0.0
 20
0.0
 30
0.0
  9
$PUCSORGBACK
 10
0.0
 20
0.0
 30
0.0
  9
$USERI1
 70
     0
  9
$USERI2
 70
     0
  9
$USERI3
 70
     0
  9
$USERI4
 70
     0
  9
$USERI5
 70
     0
  9
$USERR1
 40
0.0
  9
$USERR2
 40
0.0
  9
$USERR3
 40
0.0
  9
$USERR4
 40
0.0
  9
$USERR5
 40
0.0
  9
$WORLDVIEW
 70
     1
  9
$SHADEDGE
 70
     3
  9
$SHADEDIF
 70
    70
  9
$TILEMODE
 70
     1
  9
$MAXACTVP
 70
    64
  9
$PINSBASE
 10
0.0
 20
0.0
 30
0.0
  9
$PLIMCHECK
 70
     0
  9
$PEXTMIN
 10
1.000000000000000E+20
 20
1.000000000000000E+20
 30
1.000000000000000E+20
  9
$PEXTMAX
 10
-1.000000000000000E+20
 20
-1.000000000000000E+20
 30
-1.000000000000000E+20
  9
$PLIMMIN
 10
0.0
 20
0.0
  9
$PLIMMAX
 10
12.0
 20
9.0
  9
$UNITMODE
 70
     0
  9
$VISRETAIN
 70
     1
  9
$PLINEGEN
 70
     0
  9
$PSLTSCALE
 70
     1
  9
$TREEDEPTH
 70
  3020
  9
$CMLSTYLE
  2
Standard
  9
$CMLJUST
 70
     0
  9
$CMLSCALE
 40
1.0
  9
$PROXYGRAPHICS
 70
     1
  9
$MEASUREMENT
 70
     1
  9
$CELWEIGHT
370
    -1
  9
$ENDCAPS
280
     0
  9
$JOINSTYLE
280
     0
  9
$LWDISPLAY
290
     0
  9
$INSUNITS
 70
     4
  9
$HYPERLINKBASE
  1

  9
$STYLESHEET
  1

  9
$XEDIT
290
     1
  9
$CEPSNTYPE
380
     0
  9
$PSTYLEMODE
290
     1
  9
$FINGERPRINTGUID
  2
{F6F40CAB-6B79-4038-9CC1-E9962B2BD050}
  9
$VERSIONGUID
  2
{2142DFD7-B465-4A65-BECB-72926ABCA187}
  9
$EXTNAMES
290
     1
  9
$PSVPSCALE
 40
0.0
  9
$OLESTARTUP
290
     0
  9
$SORTENTS
280
   127
  9
$INDEXCTL
280
     0
  9
$HIDETEXT
280
     1
  9
$XCLIPFRAME
280
     2
  9
$HALOGAP
280
     0
  9
$OBSCOLOR
 70
   257
  9
$OBSLTYPE
280
     0
  9
$INTERSECTIONDISPLAY
280
     0
  9
$INTERSECTIONCOLOR
 70
   257
  9
$DIMASSOC
280
     2
  9
$PROJECTNAME
  1

  9
$CAMERADISPLAY
290
     0
  9
$LENSLENGTH
 40
50.0
  9
$CAMERAHEIGHT
 40
0.0
  9
$STEPSPERSEC
 40
2.0
  9
$STEPSIZE
 40
6.0
  9
$3DDWFPREC
 40
2.0
  9
$PSOLWIDTH
 40
0.25
  9
$PSOLHEIGHT
 40
4.0
  9
$LOFTANG1
 40
1.570796326794896
  9
$LOFTANG2
 40
1.570796326794896
  9
$LOFTMAG1
 40
0.0
  9
$LOFTMAG2
 40
0.0
  9
$LOFTPARAM
 70
     7
  9
$LOFTNORMALS
280
     1
  9
$LATITUDE
 40
37.795
  9
$LONGITUDE
 40
-122.394
  9
$NORTHDIRECTION
 40
0.0
  9
$TIMEZONE
 70
 -8000
  9
$LIGHTGLYPHDISPLAY
280
     1
  9
$TILEMODELIGHTSYNCH
280
     1
  9
$CMATERIAL
347
11
  9
$SOLIDHIST
280
     0
  9
$SHOWHIST
280
     1
  9
$DWFFRAME
280
     2
  9
$DGNFRAME
280
     0
  9
$REALWORLDSCALE
290
     1
  9
$INTERFERECOLOR
 62
     1
  9
$INTERFEREOBJVS
345
33
  9
$INTERFEREVPVS
346
30
  9
$CSHADOW
280
     0
  9
$SHADOWPLANELOCATION
 40
0.0
  0
ENDSEC
  0
SECTION
  2
CLASSES
  0
CLASS
  1
ACDBDICTIONARYWDFLT
  2
AcDbDictionaryWithDefault
  3
ObjectDBX Classes
 90
        0
 91
        1
280
     0
281
     0
  0
CLASS
  1
MATERIAL
  2
AcDbMaterial
  3
ObjectDBX Classes
 90
     1153
 91
        3
280
     0
281
     0
  0
CLASS
  1
VISUALSTYLE
  2
AcDbVisualStyle
  3
ObjectDBX Classes
 90
     4095
 91
       24
280
     0
281
     0
  0
CLASS
  1
SCALE
  2
AcDbScale
  3
ObjectDBX Classes
 90
     1153
 91
       17
280
     0
281
     0
  0
CLASS
  1
TABLESTYLE
  2
AcDbTableStyle
  3
ObjectDBX Classes
 90
     4095
 91
        1
280
     0
281
     0
  0
CLASS
  1
MLEADERSTYLE
  2
AcDbMLeaderStyle
  3
ACDB_MLEADERSTYLE_CLASS
 90
     4095
 91
        1
280
     0
281
     0
  0
CLASS
  1
ACDBSECTIONVIEWSTYLE
  2
AcDbSectionViewStyle
  3
ObjectDBX Classes
 90
     1025
 91
        1
280
     0
281
     0
  0
CLASS
  1
ACDBDETAILVIEWSTYLE
  2
AcDbDetailViewStyle
  3
ObjectDBX Classes
 90
     1025
 91
        1
280
     0
281
     0
  0
CLASS
  1
RASTERVARIABLES
  2
AcDbRasterVariables
  3
ISM
 90
        0
 91
        1
280
     0
281
     0
  0
CLASS
  1
DICTIONARYVAR
  2
AcDbDictionaryVar
  3
ObjectDBX Classes
 90
        0
 91
        5
280
     0
281
     0
  0
CLASS
  1
CELLSTYLEMAP
  2
AcDbCellStyleMap
  3
ObjectDBX Classes
 90
     1152
 91
        2
280
     0
281
     0
  0
CLASS
  1
SORTENTSTABLE
  2
AcDbSortentsTable
  3
ObjectDBX Classes
 90
        0
 91
        1
280
     0
281
     0
  0
ENDSEC
  0
SECTION
  2
TABLES
  0
TABLE
  2
VPORT
  5
8
330
0
100
AcDbSymbolTable
 70
     1
  0
VPORT
  5
57
330
8
100
AcDbSymbolTableRecord
100
AcDbViewportTableRecord
  2
*Active
 70
     0
 10
0.0
 20
0.0
 11
1.0
 21
1.0
 12
917.6403806981422
 22
1934.60840751691
 13
0.0
 23
0.0
 14
1.0
 24
1.0
 15
0.0
 25
0.0
 16
0.0
 26
0.0
 36
1.0
 17
0.0
 27
0.0
 37
0.0
 40
312.7831849661673
 41
1.134805077671622
 42
50.0
 43
0.0
 44
0.0
 50
0.0
 51
0.0
 71
     0
 72
  1000
 73
     1
 74
     1
 75
     0
 76
     0
 77
     0
 78
     0
281
     0
 65
     1
110
0.0
120
0.0
130
0.0
111
1.0
121
0.0
131
0.0
112
0.0
122
1.0
132
0.0
 79
     0
146
0.0
 60
     3
 61
     5
292
     1
282
     1
141
0.0
142
0.0
 63
   250
421
  3355443
  0
ENDTAB
  0
TABLE
  2
LTYPE
  5
5
330
0
100
AcDbSymbolTable
 70
     3
  0
LTYPE
  5
5B
330
5
100
AcDbSymbolTableRecord
100
AcDbLinetypeTableRecord
  2
ByBlock
 70
     0
  3

 72
    65
 73
     0
 40
0.0
  0
LTYPE
  5
5C
330
5
100
AcDbSymbolTableRecord
100
AcDbLinetypeTableRecord
  2
ByLayer
 70
     0
  3

 72
    65
 73
     0
 40
0.0
  0
LTYPE
  5
5D
330
5
100
AcDbSymbolTableRecord
100
AcDbLinetypeTableRecord
  2
Continuous
 70
     0
  3
Solid line
 72
    65
 73
     0
 40
0.0
  0
LTYPE
  5
69
330
5
100
AcDbSymbolTableRecord
100
AcDbLinetypeTableRecord
  2
PHANTOM2
 70
     0
  3
___ _ _ ___ _ _ ___ _ _ ___ _ _
 72
    65
 73
     6
 40
1.25
 49
0.625
 74
     0
 49
-0.125
 74
     0
 49
0.125
 74
     0
 49
-0.125
 74
     0
 49
0.125
 74
     0
 49
-0.125
 74
     0
  0
LTYPE
  5
86
330
5
100
AcDbSymbolTableRecord
100
AcDbLinetypeTableRecord
  2
Nascosto 1_5 mm
 70
     0
  3

 72
    65
 73
     2
 40
2.2
 49
1.5
 74
     0
 49
-0.7000000000000001
 74
     0
  0
ENDTAB
  0
TABLE
  2
LAYER
  5
2
330
0
100
AcDbSymbolTable
 70
     4
  0
LAYER
  5
54
330
2
100
AcDbSymbolTableRecord
100
AcDbLayerTableRecord
  2
0
 70
     0
 62
     7
  6
Continuous
370
    -3
390
F
347
21
348
0
  0
LAYER
  5
85
330
2
100
AcDbSymbolTableRecord
100
AcDbLayerTableRecord
  2
P-SANR-FIXT
 70
     0
 62
     6
  6
Continuous
370
    18
390
F
347
21
348
0
  0
LAYER
  5
88
330
2
100
AcDbSymbolTableRecord
100
AcDbLayerTableRecord
  2
M-PIPE
 70
     0
 62
     3
  6
Continuous
370
    18
390
F
347
21
348
0
  0
ENDTAB
  0
TABLE
  2
STYLE
  5
3
330
0
100
AcDbSymbolTable
 70
     2
  0
STYLE
  5
55
330
3
100
AcDbSymbolTableRecord
100
AcDbTextStyleTableRecord
  2
Standard
 70
     0
 40
0.0
 41
1.0
 50
0.0
 71
     0
 42
0.2
  3
txt
  4

  0
STYLE
  5
5A
330
3
100
AcDbSymbolTableRecord
100
AcDbTextStyleTableRecord
  2
Annotative
 70
     0
 40
0.0
 41
1.0
 50
0.0
 71
     0
 42
0.2
  3
txt
  4

1001
AcadAnnotative
1000
AnnotativeData
1002
{
1070
     1
1070
     1
1002
}
  0
ENDTAB
  0
TABLE
  2
VIEW
  5
6
330
0
100
AcDbSymbolTable
 70
     0
  0
ENDTAB
  0
TABLE
  2
UCS
  5
7
330
0
100
AcDbSymbolTable
 70
     0
  0
ENDTAB
  0
TABLE
  2
APPID
  5
9
330
0
100
AcDbSymbolTable
 70
     3
  0
APPID
  5
56
330
9
100
AcDbSymbolTableRecord
100
AcDbRegAppTableRecord
  2
ACAD
 70
     0
  0
APPID
  5
5E
330
9
100
AcDbSymbolTableRecord
100
AcDbRegAppTableRecord
  2
AcadAnnotative
 70
     0
  0
APPID
  5
79
330
9
100
AcDbSymbolTableRecord
100
AcDbRegAppTableRecord
  2
REVIT
 70
     0
  0
ENDTAB
  0
TABLE
  2
DIMSTYLE
  5
A
330
0
100
AcDbSymbolTable
 70
     2
100
AcDbDimStyleTable
 71
     0
  0
DIMSTYLE
105
58
330
A
100
AcDbSymbolTableRecord
100
AcDbDimStyleTableRecord
  2
Standard
 70
     0
340
55
  0
DIMSTYLE
105
59
330
A
100
AcDbSymbolTableRecord
100
AcDbDimStyleTableRecord
  2
Annotative
 70
     0
340
55
1001
AcadAnnotative
1000
AnnotativeData
1002
{
1070
     1
1070
     1
1002
}
  0
ENDTAB
  0
TABLE
  2
BLOCK_RECORD
  5
1
330
0
100
AcDbSymbolTable
 70
     4
  0
BLOCK_RECORD
  5
71
102
{ACAD_XDICTIONARY
360
298
102
}
330
1
100
AcDbSymbolTableRecord
100
AcDbBlockTableRecord
  2
*Model_Space
340
74
 70
     0
280
     1
281
     0
  0
BLOCK_RECORD
  5
6D
330
1
100
AcDbSymbolTableRecord
100
AcDbBlockTableRecord
  2
*Paper_Space
340
70
 70
     0
280
     1
281
     0
  0
BLOCK_RECORD
  5
75
330
1
100
AcDbSymbolTableRecord
100
AcDbBlockTableRecord
  2
*Paper_Space0
340
78
 70
     0
280
     1
281
     0
  0
BLOCK_RECORD
  5
87
330
1
100
AcDbSymbolTableRecord
100
AcDbBlockTableRecord
  2
Automatic flow rate regulator valve_Caleffi_121 DN15 - 1_2__-859151-Est - Idraulica
340
0
102
{BLKREFS
331
13E
102
}
 70
     0
280
     1
281
     0
  0
BLOCK_RECORD
  5
13F
330
1
100
AcDbSymbolTableRecord
100
AcDbBlockTableRecord
  2
Automatic flow rate regulator valve_Caleffi_121 DN15 - 1_2__-V1-Est - Idraulica
340
0
102
{BLKREFS
331
22B
102
}
 70
     0
280
     1
281
     0
  0
BLOCK_RECORD
  5
22C
330
1
100
AcDbSymbolTableRecord
100
AcDbBlockTableRecord
  2
Automatic flow rate regulator valve_Caleffi_121 DN15 - 1_2__-V2-Est - Idraulica
340
0
102
{BLKREFS
331
291
102
}
 70
     0
280
     1
281
     0
  0
ENDTAB
  0
ENDSEC
  0
SECTION
  2
BLOCKS
  0
BLOCK
  5
72
330
71
100
AcDbEntity
  8
0
100
AcDbBlockBegin
  2
*Model_Space
 70
     0
 10
0.0
 20
0.0
 30
0.0
  3
*Model_Space
  1

  0
ENDBLK
  5
73
330
71
100
AcDbEntity
  8
0
100
AcDbBlockEnd
  0
BLOCK
  5
6E
330
6D
100
AcDbEntity
 67
     1
  8
0
100
AcDbBlockBegin
  2
*Paper_Space
 70
     0
 10
0.0
 20
0.0
 30
0.0
  3
*Paper_Space
  1

  0
ENDBLK
  5
6F
330
6D
100
AcDbEntity
 67
     1
  8
0
100
AcDbBlockEnd
  0
BLOCK
  5
76
330
75
100
AcDbEntity
 67
     1
  8
0
100
AcDbBlockBegin
  2
*Paper_Space0
 70
     0
 10
0.0
 20
0.0
 30
0.0
  3
*Paper_Space0
  1

  0
ENDBLK
  5
77
330
75
100
AcDbEntity
 67
     1
  8
0
100
AcDbBlockEnd
  0
BLOCK
  5
13C
330
87
100
AcDbEntity
  8
0
100
AcDbBlockBegin
  2
Automatic flow rate regulator valve_Caleffi_121 DN15 - 1_2__-859151-Est - Idraulica
 70
     0
 10
0.0
 20
0.0
 30
0.0
  3
Automatic flow rate regulator valve_Caleffi_121 DN15 - 1_2__-859151-Est - Idraulica
  1

  0
LINE
  5
89
330
87
100
AcDbEntity
  8
M-PIPE
100
AcDbLine
 10
862.2650423762424
 20
2062.626665944466
 30
0.0
 11
810.5903105404005
 21
2062.626665944467
 31
0.0
1001
REVIT
1002
{
1070
     3
1000
790271
1002
}
  0
LINE
  5
8A
330
87
100
AcDbEntity
  8
M-PIPE
100
AcDbLine
 10
862.265042376241
 20
2062.615376337999
 30
0.0
 11
862.265042376241
 21
2044.581510851593
 31
0.0
1001
REVIT
1002
{
1070
     3
1000
790271
1002
}
  0
LINE
  5
8B
330
87
100
AcDbEntity
  8
M-PIPE
100
AcDbLine
 10
810.5903105403989
 20
2044.008458407951
 30
0.0
 11
810.5903105403989
 21
2062.615376337999
 31
0.0
1001
REVIT
1002
{
1070
     3
1000
790271
1002
}
  0
SPLINE
  5
8C
330
87
100
AcDbEntity
  8
M-PIPE
100
AcDbSpline
210
0.0
220
0.0
230
1.0
 70
     8
 71
     3
 72
    11
 73
     7
 74
     0
 42
0.000000001
 43
0.0000000001
 40
0.0838924027580648
 40
0.0838924027580648
 40
0.0838924027580648
 40
0.0838924027580648
 40
0.1111111111111111
 40
0.1666666666666666
 40
0.2222222222222222
 40
0.2468952470127627
 40
0.2468952470127627
 40
0.2468952470127627
 40
0.2468952470127627
 10
837.2719173295058
 20
2050.787502789173
 30
0.0
 10
837.2937311306266
 20
2050.868729295322
 30
0.0
 10
837.3707898887218
 20
2051.112533679571
 30
0.0
 10
837.5577437061171
 20
2051.509261724966
 30
0.0
 10
837.8008126457821
 20
2051.859006322508
 30
0.0
 10
837.9701175575874
 20
2052.044750568276
 30
0.0
 10
838.0243385453127
 20
2052.099805945498
 30
0.0
1001
REVIT
1002
{
1070
     3
1000
790271
1002
}
  0
SPLINE
  5
8D
330
87
100
AcDbEntity
  8
M-PIPE
100
AcDbSpline
210
0.0
220
0.0
230
1.0
 70
     8
 71
     3
 72
    12
 73
     8
 74
     0
 42
0.000000001
 43
0.0000000001
 40
0.4156801454513998
 40
0.4156801454513998
 40
0.4156801454513998
 40
0.4156801454513998
 40
0.4444444444444445
 40
0.5138888888888889
 40
0.5486111111111111
 40
0.5833333333333333
 40
0.5843914818994274
 40
0.5843914818994274
 40
0.5843914818994274
 40
0.5843914818994274
 10
839.3788237024203
 20
2052.894160995109
 30
0.0
 10
839.4660303394889
 20
2052.918192996576
 30
0.0
 10
839.7675260390544
 20
2052.986811219983
 30
0.0
 10
840.1894452529342
 20
2053.011704463161
 30
0.0
 10
840.6269029905821
 20
2052.970767427605
 30
0.0
 10
840.8407463092411
 20
2052.925122821681
 30
0.0
 10
840.9488306877706
 20
2052.895559885712
 30
0.0
 10
840.952026687102
 20
2052.894680029053
 30
0.0
1001
REVIT
1002
{
1070
     3
1000
790271
1002
}
  0
SPLINE
  5
8E
330
87
100
AcDbEntity
  8
M-PIPE
100
AcDbSpline
210
0.0
220
0.0
230
1.0
 70
     8
 71
     3
 72
    10
 73
     6
 74
     0
 42
0.000000001
 43
0.0000000001
 40
0.7532038070020235
 40
0.7532038070020235
 40
0.7532038070020235
 40
0.7532038070020235
 40
0.7916666666666668
 40
0.861111111111111
 40
0.9161234179106459
 40
0.9161234179106459
 40
0.9161234179106459
 40
0.9161234179106459
 10
842.3071427075543
 20
2052.101143012589
 30
0.0
 10
842.3912238754729
 20
2052.01571857979
 30
0.0
 10
842.6107500349159
 20
2051.760280181999
 30
0.0
 10
842.899326588072
 20
2051.320136934409
 30
0.0
 10
842.9903262982218
 20
2050.942927439093
 30
0.0
 10
843.0219886711624
 20
2050.77358860413
 30
0.0
1001
REVIT
1002
{
1070
     3
1000
790271
1002
}
  0
LINE
  5
8F
330
87
100
AcDbEntity
  8
M-PIPE
100
AcDbLine
 10
843.1664074431882
 20
2044.000000000056
 30
0.0
 11
843.1664074431882
 21
2050.000000000057
 31
0.0
1001
REVIT
1002
{
1070
     3
1000
790271
1002
}
  0
ARC
  5
90
330
87
100
AcDbEntity
  8
M-PIPE
100
AcDbCircle
 10
840.1664074431883
 20
2050.000000000057
 30
0.0
 40
3.0
100
AcDbArc
 50
0.0
 51
180.0
1001
REVIT
1002
{
1070
     3
1000
790271
1002
}
  0
LINE
  5
91
330
87
100
AcDbEntity
  8
M-PIPE
100
AcDbLine
 10
837.1664074431883
 20
2050.000000000057
 30
0.0
 11
837.1664074431883
 21
2044.000000000056
 31
0.0
1001
REVIT
1002
{
1070
     3
1000
790271
1002
}
  0
LINE
  5
92
330
87
100
AcDbEntity
  8
M-PIPE
100
AcDbLine
 10
874.1664074431897
 20
2064.500000000017
 30
0.0
 11
874.16640744319
 21
2087.999999999994
 31
0.0
1001
REVIT
1002
{
1070
     3
1000
790271
1002
}
  0
LINE
  5
93
330
87
100
AcDbEntity
  8
M-PIPE
100
AcDbLine
 10
868.1664074431902
 20
2087.999999999994
 30
0.0
 11
868.1664074431896
 21
2064.500000000017
 31
0.0
1001
REVIT
1002
{
1070
     3
1000
790271
1002
}
  0
LWPOLYLINE
  5
94
330
87
100
AcDbEntity
  8
M-PIPE
100
AcDbPolyline
 90
       41
 70
   128
 43
0.0
 10
868.1664074431902
 20
2087.999999999994
 10
868.1688071232072
 20
2088.119968002554
 10
868.1760023242825
 20
2088.239744081902
 10
868.1879815356285
 20
2088.359136621861
 10
868.2047255930633
 20
2088.477954619837
 10
868.2262077096666
 20
2088.596007992379
 10
868.252393518634
 20
2088.713107879275
 10
868.2832411282578
 20
2088.829066945686
 10
868.318701188943
 20
2088.943699681843
 10
868.3587169721564
 20
2089.05682269982
 10
868.4032244611815
 20
2089.16825502692
 10
868.4521524535302
 20
2089.277818395192
 10
868.5054226748524
 20
2089.385337526619
 10
868.5629499041572
 20
2089.490640413526
 10
868.62464211015
 20
2089.593558593757
 10
868.6904005984612
 20
2089.69392742018
 10
868.7601201695374
 20
2089.791586324082
 10
868.8336892869374
 20
2089.88637907205
 10
868.9109902557676
 20
2089.978154015908
 10
868.9918994109675
 20
2090.066764335326
 10
869.0762873151488
 20
2090.152068272693
 10
869.1640189656661
 20
2090.233929359907
 10
869.2549540105945
 20
2090.312216636691
 10
869.3489469732599
 20
2090.386804860103
 10
869.4458474849728
 20
2090.457574704897
 10
869.5455005255858
 20
2090.524412954418
 10
869.6477466714918
 20
2090.587212681724
 10
869.7524223506691
 20
2090.645873420649
 10
869.8593601043603
 20
2090.700301326524
 10
869.9683888549714
 20
2090.750409326309
 10
870.0793341797604
 20
2090.796117257896
 10
870.1920185898739
 20
2090.837351998343
 10
870.3062618142944
 20
2090.874047580862
 10
870.4218810882331
 20
2090.906145300349
 10
870.5386914455159
 20
2090.9335938073
 10
870.6565060144894
 20
2090.956349189959
 10
870.7751363169759
 20
2090.974375044569
 10
870.8943925697973
 20
2090.987642533607
 10
871.0140839883894
 20
2090.996130431921
 10
871.1340190920154
 20
2090.999825160684
 10
871.1664074431901
 20
2090.999999999994
1001
REVIT
1002
{
1070
     3
1000
790271
1002
}
  0
LWPOLYLINE
  5
95
330
87
100
AcDbEntity
  8
M-PIPE
100
AcDbPolyline
 90
       41
 70
   128
 43
0.0
 10
871.1664074431901
 20
2090.999999999994
 10
871.2863754457499
 20
2090.997600319977
 10
871.4061515250975
 20
2090.990405118902
 10
871.5255440650567
 20
2090.978425907556
 10
871.6443620630327
 20
2090.961681850121
 10
871.7624154355751
 20
2090.940199733518
 10
871.8795153224716
 20
2090.91401392455
 10
871.9954743888822
 20
2090.883166314926
 10
872.1101071250382
 20
2090.847706254241
 10
872.2232301430153
 20
2090.807690471028
 10
872.3346624701159
 20
2090.763182982003
 10
872.4442258383879
 20
2090.714254989654
 10
872.5517449698143
 20
2090.660984768332
 10
872.6570478567211
 20
2090.603457539027
 10
872.7599660369525
 20
2090.541765333034
 10
872.860334863375
 20
2090.476006844723
 10
872.957993767277
 20
2090.406287273647
 10
873.0527865152453
 20
2090.332718156247
 10
873.1445614591043
 20
2090.255417187417
 10
873.2331717785214
 20
2090.174508032217
 10
873.3184757158884
 20
2090.090120128035
 10
873.4003368031023
 20
2090.002388477518
 10
873.4786240798868
 20
2089.911453432589
 10
873.553212303299
 20
2089.817460469924
 10
873.6239821480928
 20
2089.720559958211
 10
873.6908203976135
 20
2089.620906917598
 10
873.7536201249199
 20
2089.518660771692
 10
873.8122808638447
 20
2089.413985092515
 10
873.8667087697193
 20
2089.307047338824
 10
873.9168167695051
 20
2089.198018588213
 10
873.9625247010915
 20
2089.087073263424
 10
874.0037594415383
 20
2088.97438885331
 10
874.0404550240576
 20
2088.86014562889
 10
874.0725527435445
 20
2088.744526354951
 10
874.1000012504958
 20
2088.627715997668
 10
874.122756633155
 20
2088.509901428694
 10
874.1407824877647
 20
2088.391271126209
 10
874.1540499768028
 20
2088.272014873387
 10
874.1625378751164
 20
2088.152323454795
 10
874.1662326038795
 20
2088.032388351169
 10
874.1664074431897
 20
2087.999999999994
1001
REVIT
1002
{
1070
     3
1000
790271
1002
}
  0
LINE
  5
96
330
87
100
AcDbEntity
  8
M-PIPE
100
AcDbLine
 10
882.1664074430477
 20
2032.500000000018
 30
0.0
 11
882.1664074430479
 21
2033.800000000018
 31
0.0
1001
REVIT
1002
{
1070
     3
1000
790271
1002
}
  0
LINE
  5
97
330
87
100
AcDbEntity
  8
M-PIPE
100
AcDbLine
 10
860.166407443331
 20
2033.800000000018
 30
0.0
 11
860.166407443331
 21
2032.500000000018
 31
0.0
1001
REVIT
1002
{
1070
     3
1000
790271
1002
}
  0
LINE
  5
98
330
87
100
AcDbEntity
  8
M-PIPE
100
AcDbLine
 10
882.1664074431884
 20
2033.800000000018
 30
0.0
 11
882.0821130166214
 21
2033.830680662203
 31
0.0
1001
REVIT
1002
{
1070
     3
1000
790271
1002
}
  0
LINE
  5
99
330
87
100
AcDbEntity
  8
M-PIPE
100
AcDbLine
 10
882.0723009181611
 20
2033.834251973978
 30
0.0
 11
880.6664074431894
 21
2034.345955351417
 31
0.0
1001
REVIT
1002
{
1070
     3
1000
790271
1002
}
  0
LINE
  5
9A
330
87
100
AcDbEntity
  8
M-PIPE
100
AcDbLine
 10
861.6664074431893
 20
2034.345955351417
 30
0.0
 11
860.2605139682179
 21
2033.834251973978
 31
0.0
1001
REVIT
1002
{
1070
     3
1000
790271
1002
}
  0
LINE
  5
9B
330
87
100
AcDbEntity
  8
M-PIPE
100
AcDbLine
 10
860.2507018697579
 20
2033.830680662203
 30
0.0
 11
860.1664074431903
 21
2033.800000000018
 31
0.0
1001
REVIT
1002
{
1070
     3
1000
790271
1002
}
  0
LINE
  5
9C
330
87
100
AcDbEntity
  8
M-PIPE
100
AcDbLine
 10
880.6664074431875
 20
2034.345955351417
 30
0.0
 11
880.6664074431877
 21
2048.999999999994
 31
0.0
1001
REVIT
1002
{
1070
     3
1000
790271
1002
}
  0
LINE
  5
9D
330
87
100
AcDbEntity
  8
M-PIPE
100
AcDbLine
 10
861.6664074431913
 20
2039.499999999994
 30
0.0
 11
861.6664074431913
 21
2034.345955351417
 31
0.0
1001
REVIT
1002
{
1070
     3
1000
790271
1002
}
  0
LINE
  5
9E
330
87
100
AcDbEntity
  8
M-PIPE
100
AcDbLine
 10
880.6664074431894
 20
2048.999999999994
 30
0.0
 11
879.6664074431895
 21
2049.999999999994
 31
0.0
1001
REVIT
1002
{
1070
     3
1000
790271
1002
}
  0
LINE
  5
9F
330
87
100
AcDbEntity
  8
M-PIPE
100
AcDbLine
 10
879.6664074431877
 20
2049.999999999996
 30
0.0
 11
879.6664074431877
 21
2064.500000000017
 31
0.0
1001
REVIT
1002
{
1070
     3
1000
790271
1002
}
  0
LINE
  5
A0
330
87
100
AcDbEntity
  8
M-PIPE
100
AcDbLine
 10
862.6664074431916
 20
2064.500000000017
 30
0.0
 11
862.6664074431916
 21
2060.499999999994
 31
0.0
1001
REVIT
1002
{
1070
     3
1000
790271
1002
}
  0
LINE
  5
A1
330
87
100
AcDbEntity
  8
M-PIPE
100
AcDbLine
 10
826.6664074431895
 20
2032.500000000027
 30
0.0
 11
826.6664074431895
 21
2033.800000000026
 31
0.0
1001
REVIT
1002
{
1070
     3
1000
790271
1002
}
  0
LINE
  5
A2
330
87
100
AcDbEntity
  8
M-PIPE
100
AcDbLine
 10
804.6664074431896
 20
2033.800000000026
 30
0.0
 11
804.6664074431896
 21
2032.500000000027
 31
0.0
1001
REVIT
1002
{
1070
     3
1000
790271
1002
}
  0
LINE
  5
A3
330
87
100
AcDbEntity
  8
M-PIPE
100
AcDbLine
 10
826.6664074431895
 20
2033.800000000026
 30
0.0
 11
826.5821130167621
 21
2033.83068066216
 31
0.0
1001
REVIT
1002
{
1070
     3
1000
790271
1002
}
  0
LINE
  5
A4
330
87
100
AcDbEntity
  8
M-PIPE
100
AcDbLine
 10
826.5723009183012
 20
2033.834251973936
 30
0.0
 11
825.1664074431895
 21
2034.345955351426
 31
0.0
1001
REVIT
1002
{
1070
     3
1000
790271
1002
}
  0
LINE
  5
A5
330
87
100
AcDbEntity
  8
M-PIPE
100
AcDbLine
 10
806.1664074431895
 20
2034.345955351426
 30
0.0
 11
804.7605139680777
 21
2033.834251973936
 31
0.0
1001
REVIT
1002
{
1070
     3
1000
790271
1002
}
  0
LINE
  5
A6
330
87
100
AcDbEntity
  8
M-PIPE
100
AcDbLine
 10
804.7507018696169
 20
2033.83068066216
 30
0.0
 11
804.6664074431896
 21
2033.800000000026
 31
0.0
1001
REVIT
1002
{
1070
     3
1000
790271
1002
}
  0
LINE
  5
A7
330
87
100
AcDbEntity
  8
M-PIPE
100
AcDbLine
 10
825.1664074431895
 20
2034.345955351426
 30
0.0
 11
825.1664074431895
 21
2039.499999999994
 31
0.0
1001
REVIT
1002
{
1070
     3
1000
790271
1002
}
  0
LINE
  5
A8
330
87
100
AcDbEntity
  8
M-PIPE
100
AcDbLine
 10
806.1664074431895
 20
2036.999999999994
 30
0.0
 11
806.1664074431895
 21
2034.345955351426
 31
0.0
1001
REVIT
1002
{
1070
     3
1000
790271
1002
}
  0
LINE
  5
A9
330
87
100
AcDbEntity
  8
M-PIPE
100
AcDbLine
 10
862.6664074431916
 20
2060.499999999994
 30
0.0
 11
862.2650423762426
 21
2060.499999999994
 31
0.0
1001
REVIT
1002
{
1070
     3
1000
790271
1002
}
  0
LINE
  5
AA
330
87
100
AcDbEntity
  8
M-PIPE
100
AcDbLine
 10
825.1664074431895
 20
2039.499999999994
 30
0.0
 11
861.6664074431913
 21
2039.499999999994
 31
0.0
1001
REVIT
1002
{
1070
     3
1000
790271
1002
}
  0
LINE
  5
AB
330
87
100
AcDbEntity
  8
M-PIPE
100
AcDbLine
 10
810.5903105404005
 20
2061.499999999994
 30
0.0
 11
810.1664074431896
 21
2061.499999999994
 31
0.0
1001
REVIT
1002
{
1070
     3
1000
790271
1002
}
  0
LINE
  5
AC
330
87
100
AcDbEntity
  8
M-PIPE
100
AcDbLine
 10
810.1664074431896
 20
2061.499999999994
 30
0.0
 11
808.6664074431896
 21
2062.999999999995
 31
0.0
1001
REVIT
1002
{
1070
     3
1000
790271
1002
}
  0
LINE
  5
AD
330
87
100
AcDbEntity
  8
M-PIPE
100
AcDbLine
 10
808.6664074431896
 20
2062.999999999995
 30
0.0
 11
806.1664074431895
 21
2062.999999999995
 31
0.0
1001
REVIT
1002
{
1070
     3
1000
790271
1002
}
  0
LINE
  5
AE
330
87
100
AcDbEntity
  8
M-PIPE
100
AcDbLine
 10
860.1664074433296
 20
2032.500000000017
 30
0.0
 11
882.1664074430463
 21
2032.500000000017
 31
0.0
1001
REVIT
1002
{
1070
     3
1000
790271
1002
}
  0
LINE
  5
AF
330
87
100
AcDbEntity
  8
M-PIPE
100
AcDbLine
 10
882.166407443187
 20
2033.800000000017
 30
0.0
 11
860.1664074431887
 21
2033.800000000017
 31
0.0
1001
REVIT
1002
{
1070
     3
1000
790271
1002
}
  0
LINE
  5
B0
330
87
100
AcDbEntity
  8
M-PIPE
100
AcDbLine
 10
880.6664074431861
 20
2034.345955351415
 30
0.0
 11
861.6664074431897
 21
2034.345955351416
 31
0.0
1001
REVIT
1002
{
1070
     3
1000
790271
1002
}
  0
SPLINE
  5
B1
330
87
100
AcDbEntity
  8
M-PIPE
100
AcDbSpline
210
0.0
220
0.0
230
1.0
 70
     8
 71
     3
 72
     9
 73
     5
 74
     0
 42
0.000000001
 43
0.0000000001
 40
0.0
 40
0.0
 40
0.0
 40
0.0
 40
0.5
 40
1.0
 40
1.0
 40
1.0
 40
1.0
 10
869.1664074431866
 20
2045.101020514422
 30
0.0
 10
868.7099530533281
 20
2044.897652537092
 30
0.0
 10
867.8327391690675
 20
2044.453399678986
 30
0.0
 10
867.0398590533064
 20
2043.934113013987
 30
0.0
 10
866.6664074431867
 20
2043.655711229765
 30
0.0
1001
REVIT
1002
{
1070
     3
1000
790271
1002
}
  0
LINE
  5
B2
330
87
100
AcDbEntity
  8
M-PIPE
100
AcDbLine
 10
866.6664074431867
 20
2042.999999999993
 30
0.0
 11
866.6664074431867
 21
2042.578615552142
 31
0.0
1001
REVIT
1002
{
1070
     3
1000
790271
1002
}
  0
SPLINE
  5
B3
330
87
100
AcDbEntity
  8
M-PIPE
100
AcDbSpline
210
0.0
220
0.0
230
1.0
 70
     8
 71
     3
 72
    11
 73
     7
 74
     0
 42
0.000000001
 43
0.0000000001
 40
0.0
 40
0.0
 40
0.0
 40
0.0
 40
0.3333333333333333
 40
0.5
 40
0.6666666666666666
 40
1.0
 40
1.0
 40
1.0
 40
1.0
 10
866.6664074431864
 20
2040.050125628924
 30
0.0
 10
866.1325310398783
 20
2039.795173481915
 30
0.0
 10
865.3724983366565
 20
2039.416180483564
 30
0.0
 10
864.4756256262462
 20
2038.890727222209
 30
0.0
 10
863.6557737755694
 20
2038.378854159699
 30
0.0
 10
863.1310406681802
 20
2038.040601757879
 30
0.0
 10
862.8329342547587
 20
2037.826390207401
 30
0.0
1001
REVIT
1002
{
1070
     3
1000
790271
1002
}
  0
SPLINE
  5
B4
330
87
100
AcDbEntity
  8
M-PIPE
100
AcDbSpline
210
0.0
220
0.0
230
1.0
 70
     8
 71
     3
 72
     9
 73
     5
 74
     0
 42
0.000000001
 43
0.0000000001
 40
0.0
 40
0.0
 40
0.0
 40
0.0
 40
0.5
 40
1.0
 40
1.0
 40
1.0
 40
1.0
 10
862.8329342547587
 20
2040.542369462575
 30
0.0
 10
862.4688248906354
 20
2040.207130879321
 30
0.0
 10
861.8836327068246
 20
2039.698164052302
 30
0.0
 10
861.66640744319
 20
2039.512217904266
 30
0.0
 10
861.66640744319
 20
2039.499999999994
 30
0.0
1001
REVIT
1002
{
1070
     3
1000
790271
1002
}
  0
LINE
  5
B5
330
87
100
AcDbEntity
  8
M-PIPE
100
AcDbLine
 10
880.6664074431861
 20
2048.999999999995
 30
0.0
 11
869.1664074431884
 21
2048.999999999995
 31
0.0
1001
REVIT
1002
{
1070
     3
1000
790271
1002
}
  0
SPLINE
  5
B6
330
87
100
AcDbEntity
  8
M-PIPE
100
AcDbSpline
210
0.0
220
0.0
230
1.0
 70
     8
 71
     3
 72
     9
 73
     5
 74
     0
 42
0.000000001
 43
0.0000000001
 40
0.0
 40
0.0
 40
0.0
 40
0.0
 40
0.5
 40
1.0
 40
1.0
 40
1.0
 40
1.0
 10
862.66640744319
 20
2060.499999999994
 30
0.0
 10
862.66640744319
 20
2060.49974538623
 30
0.0
 10
862.694627398945
 20
2060.477099712449
 30
0.0
 10
862.7779554400248
 20
2060.410181146161
 30
0.0
 10
862.8329342547591
 20
2060.36565363989
 30
0.0
1001
REVIT
1002
{
1070
     3
1000
790271
1002
}
  0
SPLINE
  5
B7
330
87
100
AcDbEntity
  8
M-PIPE
100
AcDbSpline
210
0.0
220
0.0
230
1.0
 70
     8
 71
     3
 72
    14
 73
    10
 74
     0
 42
0.000000001
 43
0.0000000001
 40
0.0
 40
0.0
 40
0.0
 40
0.0
 40
0.25
 40
0.375
 40
0.5
 40
0.5625
 40
0.625
 40
0.75
 40
1.0
 40
1.0
 40
1.0
 40
1.0
 10
862.8329342547591
 20
2062.891732830854
 30
0.0
 10
862.9510864327464
 20
2062.808434766251
 30
0.0
 10
863.2201939858354
 20
2062.644151299537
 30
0.0
 10
863.7372834897195
 20
2062.324386186864
 30
0.0
 10
864.1214185688298
 20
2062.096440349789
 30
0.0
 10
864.4619972772014
 20
2061.905099584226
 30
0.0
 10
864.8228205507283
 20
2061.701087138887
 30
0.0
 10
865.5089690278762
 20
2061.336425525061
 30
0.0
 10
866.1861781233389
 20
2061.027712706436
 30
0.0
 10
866.6664074431867
 20
2060.816653826387
 30
0.0
1001
REVIT
1002
{
1070
     3
1000
790271
1002
}
  0
SPLINE
  5
B8
330
87
100
AcDbEntity
  8
M-PIPE
100
AcDbSpline
210
0.0
220
0.0
230
1.0
 70
     8
 71
     3
 72
     9
 73
     5
 74
     0
 42
0.000000001
 43
0.0000000001
 40
0.0
 40
0.0
 40
0.0
 40
0.0
 40
0.5
 40
1.0
 40
1.0
 40
1.0
 40
1.0
 10
866.6664074431867
 20
2057.632168761233
 30
0.0
 10
867.0366541144948
 20
2057.402517391457
 30
0.0
 10
867.8277838709888
 20
2056.980961344543
 30
0.0
 10
868.7083044040063
 20
2056.634898682904
 30
0.0
 10
869.1664074431868
 20
2056.480740698404
 30
0.0
1001
REVIT
1002
{
1070
     3
1000
790271
1002
}
  0
LINE
  5
B9
330
87
100
AcDbEntity
  8
M-PIPE
100
AcDbLine
 10
879.6664074431863
 20
2049.999999999995
 30
0.0
 11
869.1664074431884
 21
2049.999999999995
 31
0.0
1001
REVIT
1002
{
1070
     3
1000
790271
1002
}
  0
LINE
  5
BA
330
87
100
AcDbEntity
  8
M-PIPE
100
AcDbLine
 10
879.6664074431863
 20
2064.500000000016
 30
0.0
 11
862.66640744319
 21
2064.500000000016
 31
0.0
1001
REVIT
1002
{
1070
     3
1000
790271
1002
}
  0
LINE
  5
BB
330
87
100
AcDbEntity
  8
M-PIPE
100
AcDbLine
 10
804.9551050613656
 20
2032.500000000025
 30
0.0
 11
826.6664074431881
 21
2032.500000000025
 31
0.0
1001
REVIT
1002
{
1070
     3
1000
790271
1002
}
  0
LINE
  5
BC
330
87
100
AcDbEntity
  8
M-PIPE
100
AcDbLine
 10
826.6664074431881
 20
2033.800000000026
 30
0.0
 11
804.6664074431882
 21
2033.800000000026
 31
0.0
1001
REVIT
1002
{
1070
     3
1000
790271
1002
}
  0
LINE
  5
BD
330
87
100
AcDbEntity
  8
M-PIPE
100
AcDbLine
 10
825.1664074431882
 20
2034.345955351425
 30
0.0
 11
806.1664074431881
 21
2034.345955351425
 31
0.0
1001
REVIT
1002
{
1070
     3
1000
790271
1002
}
  0
SPLINE
  5
BE
330
87
100
AcDbEntity
  8
M-PIPE
100
AcDbSpline
210
0.0
220
0.0
230
1.0
 70
     8
 71
     3
 72
    11
 73
     7
 74
     0
 42
0.000000001
 43
0.0000000001
 40
0.0
 40
0.0
 40
0.0
 40
0.0
 40
0.3333333333333333
 40
0.5
 40
0.6666666666666666
 40
1.0
 40
1.0
 40
1.0
 40
1.0
 10
825.1664074431882
 20
2039.499999999994
 30
0.0
 10
825.1664074431882
 20
2039.506035763425
 30
0.0
 10
825.0586141945037
 20
2039.595857213354
 30
0.0
 10
824.722145010395
 20
2039.90158182703
 30
0.0
 10
824.2689594342014
 20
2040.306854490124
 30
0.0
 10
823.8162555443889
 20
2040.695320088307
 30
0.0
 10
823.4766571190949
 20
2040.999999999993
 30
0.0
1001
REVIT
1002
{
1070
     3
1000
790271
1002
}
  0
SPLINE
  5
BF
330
87
100
AcDbEntity
  8
M-PIPE
100
AcDbSpline
210
0.0
220
0.0
230
1.0
 70
     8
 71
     3
 72
     9
 73
     5
 74
     0
 42
0.000000001
 43
0.0000000001
 40
0.0
 40
0.0
 40
0.0
 40
0.0
 40
0.5
 40
1.0
 40
1.0
 40
1.0
 40
1.0
 10
809.9128367431823
 20
2040.999999999993
 30
0.0
 10
809.7074755816114
 20
2040.599171503145
 30
0.0
 10
809.2907320047201
 20
2039.814567247054
 30
0.0
 10
808.8726185572497
 20
2039.064068466173
 30
0.0
 10
808.666407443188
 20
2038.697345444536
 30
0.0
1001
REVIT
1002
{
1070
     3
1000
790271
1002
}
  0
SPLINE
  5
C0
330
87
100
AcDbEntity
  8
M-PIPE
100
AcDbSpline
210
0.0
220
0.0
230
1.0
 70
     8
 71
     3
 72
    12
 73
     8
 74
     0
 42
0.000000001
 43
0.0000000001
 40
0.0
 40
0.0
 40
0.0
 40
0.0
 40
0.3333333333333333
 40
0.5
 40
0.6666666666666666
 40
0.8333333333333332
 40
1.0
 40
1.0
 40
1.0
 40
1.0
 10
808.666407443188
 20
2038.697345444536
 30
0.0
 10
808.162670221335
 20
2038.366906188841
 30
0.0
 10
807.4908625782578
 20
2037.941297490448
 30
0.0
 10
806.822297128073
 20
2037.474658286154
 30
0.0
 10
806.4499645126467
 20
2037.203562862847
 30
0.0
 10
806.2194196195061
 20
2037.047668131268
 30
0.0
 10
806.1664074431881
 20
2037.004834247341
 30
0.0
 10
806.1664074431881
 20
2036.999999999993
 30
0.0
1001
REVIT
1002
{
1070
     3
1000
790271
1002
}
  0
LINE
  5
C1
330
87
100
AcDbEntity
  8
M-PIPE
100
AcDbLine
 10
869.1664074431868
 20
2045.101020514422
 30
0.0
 11
869.1664074431868
 21
2056.480740698404
 31
0.0
1001
REVIT
1002
{
1070
     3
1000
790271
1002
}
  0
LINE
  5
C2
330
87
100
AcDbEntity
  8
M-PIPE
100
AcDbLine
 10
866.6664074431867
 20
2042.999999999993
 30
0.0
 11
866.6664074431867
 21
2042.542637370435
 31
0.0
1001
REVIT
1002
{
1070
     3
1000
790271
1002
}
  0
LINE
  5
C3
330
87
100
AcDbEntity
  8
M-PIPE
100
AcDbLine
 10
866.6664074431867
 20
2042.464101464233
 30
0.0
 11
866.6664074431867
 21
2040.050125628924
 31
0.0
1001
REVIT
1002
{
1070
     3
1000
790271
1002
}
  0
SPLINE
  5
C4
330
87
100
AcDbEntity
  8
M-PIPE
100
AcDbSpline
210
0.0
220
0.0
230
1.0
 70
     8
 71
     3
 72
     8
 73
     4
 74
     0
 42
0.000000001
 43
0.0000000001
 40
0.1428571428571428
 40
0.1428571428571428
 40
0.1428571428571428
 40
0.1428571428571428
 40
0.1774098834213856
 40
0.1774098834213856
 40
0.1774098834213856
 40
0.1774098834213856
 10
866.6210306611233
 20
2042.577514687746
 30
0.0
 10
866.6139158122781
 20
2042.544402013059
 30
0.0
 10
866.6059743363836
 20
2042.511539235753
 30
0.0
 10
866.5972130598348
 20
2042.478941043595
 30
0.0
1001
REVIT
1002
{
1070
     3
1000
790271
1002
}
  0
SPLINE
  5
C5
330
87
100
AcDbEntity
  8
M-PIPE
100
AcDbSpline
210
0.0
220
0.0
230
1.0
 70
     8
 71
     3
 72
     8
 73
     4
 74
     0
 42
0.000000001
 43
0.0000000001
 40
0.2857142857142857
 40
0.2857142857142857
 40
0.2857142857142857
 40
0.2857142857142857
 40
0.4285714285714286
 40
0.4285714285714286
 40
0.4285714285714286
 40
0.4285714285714286
 10
866.4908741771666
 20
2042.180658107618
 30
0.0
 10
866.4336798496711
 20
2042.053336550049
 30
0.0
 10
866.3628378920583
 20
2041.931324430986
 30
0.0
 10
866.2787797549432
 20
2041.816676067893
 30
0.0
1001
REVIT
1002
{
1070
     3
1000
790271
1002
}
  0
SPLINE
  5
C6
330
87
100
AcDbEntity
  8
M-PIPE
100
AcDbSpline
210
0.0
220
0.0
230
1.0
 70
     8
 71
     3
 72
     8
 73
     4
 74
     0
 42
0.000000001
 43
0.0000000001
 40
0.5319989560612927
 40
0.5319989560612927
 40
0.5319989560612927
 40
0.5319989560612927
 40
0.5714285714285714
 40
0.5714285714285714
 40
0.5714285714285714
 40
0.5714285714285714
 10
866.0753627390917
 20
2041.58037207103
 30
0.0
 10
866.0468512665429
 20
2041.552098868042
 30
0.0
 10
866.0173170925057
 20
2041.524543548387
 30
0.0
 10
865.9867439769428
 20
2041.497764519907
 30
0.0
1001
REVIT
1002
{
1070
     3
1000
790271
1002
}
  0
SPLINE
  5
C7
330
87
100
AcDbEntity
  8
M-PIPE
100
AcDbSpline
210
0.0
220
0.0
230
1.0
 70
     8
 71
     3
 72
     8
 73
     4
 74
     0
 42
0.000000001
 43
0.0000000001
 40
0.6944110628201735
 40
0.6944110628201735
 40
0.6944110628201735
 40
0.6944110628201735
 40
0.7142857142857143
 40
0.7142857142857143
 40
0.7142857142857143
 40
0.7142857142857143
 10
865.6710313682225
 20
2041.270320816276
 30
0.0
 10
865.6524996649009
 20
2041.259659391057
 30
0.0
 10
865.6337114845586
 20
2041.249305742526
 30
0.0
 10
865.61465490048
 20
2041.239190978583
 30
0.0
1001
REVIT
1002
{
1070
     3
1000
790271
1002
}
  0
SPLINE
  5
C8
330
87
100
AcDbEntity
  8
M-PIPE
100
AcDbSpline
210
0.0
220
0.0
230
1.0
 70
     8
 71
     3
 72
     8
 73
     4
 74
     0
 42
0.000000001
 43
0.0000000001
 40
0.8515985125735221
 40
0.8515985125735221
 40
0.8515985125735221
 40
0.8515985125735221
 40
0.8571428571428569
 40
0.8571428571428569
 40
0.8571428571428569
 40
0.8571428571428569
 10
865.1850384125982
 20
2041.06829507591
 30
0.0
 10
865.1789168466191
 20
2041.066680945302
 30
0.0
 10
865.1727975605943
 20
2041.065072146501
 30
0.0
 10
865.1666750746242
 20
2041.063478834836
 30
0.0
1001
REVIT
1002
{
1070
     3
1000
790271
1002
}
  0
LINE
  5
C9
330
87
100
AcDbEntity
  8
M-PIPE
100
AcDbLine
 10
866.6664074431883
 20
2060.816653826387
 30
0.0
 11
866.6664074431883
 21
2050.000000000057
 31
0.0
1001
REVIT
1002
{
1070
     3
1000
790271
1002
}
  0
LINE
  5
CA
330
87
100
AcDbEntity
  8
M-PIPE
100
AcDbLine
 10
862.8329342547605
 20
2040.999999999994
 30
0.0
 11
862.8329342547605
 21
2037.826390207401
 31
0.0
1001
REVIT
1002
{
1070
     3
1000
790271
1002
}
  0
LINE
  5
CB
330
87
100
AcDbEntity
  8
M-PIPE
100
AcDbLine
 10
862.8329342547591
 20
2062.891732830854
 30
0.0
 11
862.8329342547591
 21
2050.000000000057
 31
0.0
1001
REVIT
1002
{
1070
     3
1000
790271
1002
}
  0
LINE
  5
CC
330
87
100
AcDbEntity
  8
M-PIPE
100
AcDbLine
 10
810.166407443188
 20
2061.499999999994
 30
0.0
 11
810.1664074431882
 21
2044.068000541116
 31
0.0
1001
REVIT
1002
{
1070
     3
1000
790271
1002
}
  0
LINE
  5
CD
330
87
100
AcDbEntity
  8
M-PIPE
100
AcDbLine
 10
808.6664074431881
 20
2040.999999999993
 30
0.0
 11
808.6664074431881
 21
2038.697345444536
 31
0.0
1001
REVIT
1002
{
1070
     3
1000
790271
1002
}
  0
SPLINE
  5
CE
330
87
100
AcDbEntity
  8
M-PIPE
100
AcDbSpline
210
0.0
220
0.0
230
1.0
 70
     8
 71
     3
 72
     8
 73
     4
 74
     0
 42
0.000000001
 43
0.0000000001
 40
0.1428571428571428
 40
0.1428571428571428
 40
0.1428571428571428
 40
0.1428571428571428
 40
0.1484014874264777
 40
0.1484014874264777
 40
0.1484014874264777
 40
0.1484014874264777
 10
807.6661556429936
 20
2041.063573358883
 30
0.0
 10
807.6599983010208
 20
2041.065146288329
 30
0.0
 10
807.6538508979618
 20
2041.06675199962
 30
0.0
 10
807.6477139153482
 20
2041.068389765959
 30
0.0
1001
REVIT
1002
{
1070
     3
1000
790271
1002
}
  0
SPLINE
  5
CF
330
87
100
AcDbEntity
  8
M-PIPE
100
AcDbSpline
210
0.0
220
0.0
230
1.0
 70
     8
 71
     3
 72
     8
 73
     4
 74
     0
 42
0.000000001
 43
0.0000000001
 40
0.2857142857142857
 40
0.2857142857142857
 40
0.2857142857142857
 40
0.2857142857142857
 40
0.3055889371798266
 40
0.3055889371798266
 40
0.3055889371798266
 40
0.3055889371798266
 10
807.218175600493
 20
2041.239075137173
 30
0.0
 10
807.1990605434057
 20
2041.24932787351
 30
0.0
 10
807.1802311963804
 20
2041.259843938002
 30
0.0
 10
807.1616708836417
 20
2041.270614636227
 30
0.0
1001
REVIT
1002
{
1070
     3
1000
790271
1002
}
  0
SPLINE
  5
D0
330
87
100
AcDbEntity
  8
M-PIPE
100
AcDbSpline
210
0.0
220
0.0
230
1.0
 70
     8
 71
     3
 72
     8
 73
     4
 74
     0
 42
0.000000001
 43
0.0000000001
 40
0.4285714285714286
 40
0.4285714285714286
 40
0.4285714285714286
 40
0.4285714285714286
 40
0.4680010439387073
 40
0.4680010439387073
 40
0.4680010439387073
 40
0.4680010439387073
 10
806.8460709094321
 20
2041.497764519907
 30
0.0
 10
806.8154778073424
 20
2041.524626189673
 30
0.0
 10
806.7862541025315
 20
2041.552308254968
 30
0.0
 10
806.7578551435811
 20
2041.580604546917
 30
0.0
1001
REVIT
1002
{
1070
     3
1000
790271
1002
}
  0
SPLINE
  5
D1
330
87
100
AcDbEntity
  8
M-PIPE
100
AcDbSpline
210
0.0
220
0.0
230
1.0
 70
     8
 71
     3
 72
     8
 73
     4
 74
     0
 42
0.000000001
 43
0.0000000001
 40
0.5714285714285714
 40
0.5714285714285714
 40
0.5714285714285714
 40
0.5714285714285714
 40
0.7142857142857143
 40
0.7142857142857143
 40
0.7142857142857143
 40
0.7142857142857143
 10
806.5540351314318
 20
2041.816676067893
 30
0.0
 10
806.4699633880193
 20
2041.931252479746
 30
0.0
 10
806.4179368911124
 20
2042.058534568528
 30
0.0
 10
806.3795777276304
 20
2042.191451332327
 30
0.0
1001
REVIT
1002
{
1070
     3
1000
790271
1002
}
  0
SPLINE
  5
D2
330
87
100
AcDbEntity
  8
M-PIPE
100
AcDbSpline
210
0.0
220
0.0
230
1.0
 70
     8
 71
     3
 72
     8
 73
     4
 74
     0
 42
0.000000001
 43
0.0000000001
 40
0.8225901165786201
 40
0.8225901165786201
 40
0.8225901165786201
 40
0.8225901165786201
 40
0.8571428571428569
 40
0.8571428571428569
 40
0.8571428571428569
 40
0.8571428571428569
 10
806.2355632392533
 20
2042.478336648929
 30
0.0
 10
806.2268048402195
 20
2042.510977654428
 30
0.0
 10
806.2202198704484
 20
2042.544233012909
 30
0.0
 10
806.2150241954764
 20
2042.577883254254
 30
0.0
1001
REVIT
1002
{
1070
     3
1000
790271
1002
}
  0
LINE
  5
D3
330
87
100
AcDbEntity
  8
M-PIPE
100
AcDbLine
 10
808.666407443188
 20
2062.999999999993
 30
0.0
 11
808.6664074431881
 21
2049.999999999993
 31
0.0
1001
REVIT
1002
{
1070
     3
1000
790271
1002
}
  0
LINE
  5
D4
330
87
100
AcDbEntity
  8
M-PIPE
100
AcDbLine
 10
806.1664074431881
 20
2062.999999999993
 30
0.0
 11
806.1664074431881
 21
2049.999999999993
 31
0.0
1001
REVIT
1002
{
1070
     3
1000
790271
1002
}
  0
LINE
  5
D5
330
87
100
AcDbEntity
  8
M-PIPE
100
AcDbLine
 10
806.1664074431881
 20
2036.999999999993
 30
0.0
 11
806.1664074431881
 21
2037.034233002523
 31
0.0
1001
REVIT
1002
{
1070
     3
1000
790271
1002
}
  0
LINE
  5
D6
330
87
100
AcDbEntity
  8
M-PIPE
100
AcDbLine
 10
806.1664074431881
 20
2042.547785853862
 30
0.0
 11
806.1664074431881
 21
2042.999999999993
 31
0.0
1001
REVIT
1002
{
1070
     3
1000
790271
1002
}
  0
LINE
  5
D7
330
87
100
AcDbEntity
  8
M-PIPE
100
AcDbLine
 10
806.1664074431881
 20
2042.999999999993
 30
0.0
 11
806.1664074431881
 21
2042.547961378225
 31
0.0
1001
REVIT
1002
{
1070
     3
1000
790271
1002
}
  0
LINE
  5
D8
330
87
100
AcDbEntity
  8
M-PIPE
100
AcDbLine
 10
806.1664074431881
 20
2042.468303727256
 30
0.0
 11
806.1664074431881
 21
2036.999999999993
 31
0.0
1001
REVIT
1002
{
1070
     3
1000
790271
1002
}
  0
LINE
  5
D9
330
87
100
AcDbEntity
  8
M-PIPE
100
AcDbLine
 10
845.1664074431883
 20
2044.000000000056
 30
0.0
 11
835.1664074431882
 21
2044.000000000056
 31
0.0
1001
REVIT
1002
{
1070
     3
1000
790271
1002
}
  0
LINE
  5
DA
330
87
100
AcDbEntity
  8
M-PIPE
100
AcDbLine
 10
835.1664074431882
 20
2044.000000000056
 30
0.0
 11
835.1664074431882
 21
2040.000000000056
 31
0.0
1001
REVIT
1002
{
1070
     3
1000
790271
1002
}
  0
LINE
  5
DB
330
87
100
AcDbEntity
  8
M-PIPE
100
AcDbLine
 10
835.1664074431882
 20
2040.000000000056
 30
0.0
 11
845.1664074431883
 21
2040.000000000057
 31
0.0
1001
REVIT
1002
{
1070
     3
1000
790271
1002
}
  0
LINE
  5
DC
330
87
100
AcDbEntity
  8
M-PIPE
100
AcDbLine
 10
845.1664074431883
 20
2040.000000000057
 30
0.0
 11
845.1664074431883
 21
2044.000000000056
 31
0.0
1001
REVIT
1002
{
1070
     3
1000
790271
1002
}
  0
ARC
  5
DD
330
87
100
AcDbEntity
  8
M-PIPE
100
AcDbCircle
 10
810.6664074431881
 20
2045.999999999994
 30
0.0
 40
2.0
100
AcDbArc
 50
180.0
 51
269.9999999999997
1001
REVIT
1002
{
1070
     3
1000
790271
1002
}
  0
LINE
  5
DE
330
87
100
AcDbEntity
  8
M-PIPE
100
AcDbLine
 10
808.6664074431881
 20
2045.999999999994
 30
0.0
 11
808.6664074431881
 21
2049.999999999993
 31
0.0
1001
REVIT
1002
{
1070
     3
1000
790271
1002
}
  0
LINE
  5
DF
330
87
100
AcDbEntity
  8
M-PIPE
100
AcDbLine
 10
806.1664074431881
 20
2042.999999999993
 30
0.0
 11
806.1664074431881
 21
2049.999999999993
 31
0.0
1001
REVIT
1002
{
1070
     3
1000
790271
1002
}
  0
ARC
  5
E0
330
87
100
AcDbEntity
  8
M-PIPE
100
AcDbCircle
 10
808.1664074431881
 20
2042.999999999993
 30
0.0
 40
2.0
100
AcDbArc
 50
180.0
 51
269.9999999999997
1001
REVIT
1002
{
1070
     3
1000
790271
1002
}
  0
LINE
  5
E1
330
87
100
AcDbEntity
  8
M-PIPE
100
AcDbLine
 10
808.1664074431881
 20
2040.999999999993
 30
0.0
 11
835.1664074431882
 21
2040.999999999993
 31
0.0
1001
REVIT
1002
{
1070
     3
1000
790271
1002
}
  0
LINE
  5
E2
330
87
100
AcDbEntity
  8
M-PIPE
100
AcDbLine
 10
810.6664074431881
 20
2043.999999999993
 30
0.0
 11
835.1664074431882
 21
2044.000000000056
 31
0.0
1001
REVIT
1002
{
1070
     3
1000
790271
1002
}
  0
ARC
  5
E3
330
87
100
AcDbEntity
  8
M-PIPE
100
AcDbCircle
 10
864.6664074431868
 20
2042.999999999993
 30
0.0
 40
2.00000000000024
100
AcDbArc
 50
269.999999999998
 51
359.999999999998
1001
REVIT
1002
{
1070
     3
1000
790271
1002
}
  0
LINE
  5
E4
330
87
100
AcDbEntity
  8
M-PIPE
100
AcDbLine
 10
866.6664074431867
 20
2050.000000000057
 30
0.0
 11
866.6664074431867
 21
2042.999999999993
 31
0.0
1001
REVIT
1002
{
1070
     3
1000
790271
1002
}
  0
LINE
  5
E5
330
87
100
AcDbEntity
  8
M-PIPE
100
AcDbLine
 10
862.8329342547605
 20
2045.999999999994
 30
0.0
 11
862.8329342547605
 21
2050.000000000057
 31
0.0
1001
REVIT
1002
{
1070
     3
1000
790271
1002
}
  0
ARC
  5
E6
330
87
100
AcDbEntity
  8
M-PIPE
100
AcDbCircle
 10
860.8329342547605
 20
2045.999999999994
 30
0.0
 40
2.0
100
AcDbArc
 50
269.9999999999997
 51
0.0
1001
REVIT
1002
{
1070
     3
1000
790271
1002
}
  0
LINE
  5
E7
330
87
100
AcDbEntity
  8
M-PIPE
100
AcDbLine
 10
845.1664074431883
 20
2044.000000000056
 30
0.0
 11
860.8329342547605
 21
2043.999999999993
 31
0.0
1001
REVIT
1002
{
1070
     3
1000
790271
1002
}
  0
LINE
  5
E8
330
87
100
AcDbEntity
  8
M-PIPE
100
AcDbLine
 10
845.1664074431883
 20
2040.999999999993
 30
0.0
 11
864.6664074431868
 21
2040.999999999993
 31
0.0
1001
REVIT
1002
{
1070
     3
1000
790271
1002
}
  0
LINE
  5
E9
330
87
100
AcDbEntity
  8
P-SANR-FIXT
100
AcDbLine
 10
780.0664074431749
 20
2054.299999999993
 30
0.0
 11
792.266407443175
 21
2054.299999999993
 31
0.0
  0
LINE
  5
EA
330
87
100
AcDbEntity
  8
P-SANR-FIXT
100
AcDbLine
 10
780.0664074431749
 20
2054.299999999993
 30
0.0
 11
780.0664074431749
 21
2045.299999999993
 31
0.0
  0
LINE
  5
EB
330
87
100
AcDbEntity
  8
P-SANR-FIXT
100
AcDbLine
 10
792.266407443175
 20
2045.299999999993
 30
0.0
 11
792.266407443175
 21
2054.299999999993
 31
0.0
  0
LINE
  5
EC
330
87
100
AcDbEntity
  8
P-SANR-FIXT
100
AcDbLine
 10
770.2664074431765
 20
2045.299999999994
 30
0.0
 11
770.2664074431765
 21
2032.499999999994
 31
0.0
  0
LINE
  5
ED
330
87
100
AcDbEntity
  8
P-SANR-FIXT
100
AcDbLine
 10
802.0664074431765
 20
2032.499999999996
 30
0.0
 11
802.0664074431765
 21
2045.299999999994
 31
0.0
  0
LINE
  5
EE
330
87
100
AcDbEntity
  8
P-SANR-FIXT
100
AcDbLine
 10
802.0664074431749
 20
2045.299999999993
 30
0.0
 11
770.266407443175
 21
2045.299999999993
 31
0.0
  0
LINE
  5
EF
330
87
100
AcDbEntity
  8
P-SANR-FIXT
100
AcDbLine
 10
770.266407443175
 20
2032.499999999993
 30
0.0
 11
801.8682002451642
 21
2032.499999999993
 31
0.0
  0
LINE
  5
F0
330
87
100
AcDbEntity
  8
P-SANR-FIXT
100
AcDbLine
 10
801.8501821903901
 20
2032.499999999995
 30
0.0
 11
804.9721988736301
 21
2032.499999999995
 31
0.0
  0
LINE
  5
F1
330
87
100
AcDbEntity
  8
P-SANR-FIXT
100
AcDbLine
 10
911.1664074431805
 20
2030.799999999995
 30
0.0
 11
890.1664074431806
 21
2030.799999999995
 31
0.0
  0
LINE
  5
F2
330
87
100
AcDbEntity
  8
P-SANR-FIXT
100
AcDbLine
 10
890.1664074431808
 20
1969.199999999996
 30
0.0
 11
911.1664074431805
 21
1969.199999999996
 31
0.0
  0
LINE
  5
F3
330
87
100
AcDbEntity
  8
P-SANR-FIXT
100
AcDbLine
 10
767.4664074431886
 20
1975.499999999995
 30
0.0
 11
776.9664074431891
 21
1975.499999999995
 31
0.0
  0
LINE
  5
F4
330
87
100
AcDbEntity
  8
P-SANR-FIXT
100
AcDbLine
 10
770.5164074431893
 20
2024.499999999996
 30
0.0
 11
767.4664074431886
 21
2024.499999999996
 31
0.0
  0
LINE
  5
F5
330
87
100
AcDbEntity
  8
P-SANR-FIXT
100
AcDbLine
 10
882.1664074431893
 20
2022.800000000004
 30
0.0
 11
882.1664074431891
 21
2032.499999999996
 31
0.0
  0
LINE
  5
F6
330
87
100
AcDbEntity
  8
P-SANR-FIXT
100
AcDbLine
 10
860.1664074431893
 20
2032.499999999996
 30
0.0
 11
860.1664074431893
 21
2020.499999999996
 31
0.0
  0
LINE
  5
F7
330
87
100
AcDbEntity
  8
P-SANR-FIXT
100
AcDbLine
 10
761.1664074431888
 20
2030.799999999996
 30
0.0
 11
740.1664074431892
 21
2030.799999999996
 31
0.0
  0
LINE
  5
F8
330
87
100
AcDbEntity
  8
P-SANR-FIXT
100
AcDbLine
 10
740.1664074431892
 20
1969.199999999996
 30
0.0
 11
761.1664074431891
 21
1969.199999999996
 31
0.0
  0
LINE
  5
F9
330
87
100
AcDbEntity
  8
P-SANR-FIXT
100
AcDbLine
 10
804.1664074431896
 20
1979.499999999996
 30
0.0
 11
879.866407443181
 21
1979.499999999996
 31
0.0
  0
LINE
  5
FA
330
87
100
AcDbEntity
  8
P-SANR-FIXT
100
AcDbLine
 10
860.1664074431893
 20
2020.499999999996
 30
0.0
 11
826.6664074431893
 21
2020.499999999996
 31
0.0
  0
LINE
  5
FB
330
87
100
AcDbEntity
  8
P-SANR-FIXT
100
AcDbLine
 10
826.6664074431893
 20
2020.499999999996
 30
0.0
 11
826.6664074431893
 21
2032.499999999996
 31
0.0
  0
LINE
  5
FC
330
87
100
AcDbEntity
  8
P-SANR-FIXT
100
AcDbLine
 10
770.5164074431893
 20
2032.499999999994
 30
0.0
 11
770.5164074431893
 21
2024.499999999997
 31
0.0
  0
LINE
  5
FD
330
87
100
AcDbEntity
  8
P-SANR-FIXT
100
AcDbLine
 10
778.3664074431891
 20
1976.899999999995
 30
0.0
 11
801.5664074431894
 21
1976.899999999995
 31
0.0
  0
LINE
  5
FE
330
87
100
AcDbEntity
  8
P-SANR-FIXT
100
AcDbLine
 10
801.5664074431894
 20
1976.899999999996
 30
0.0
 11
801.6136656148207
 21
1976.947258171627
 31
0.0
  0
LINE
  5
FF
330
87
100
AcDbEntity
  8
P-SANR-FIXT
100
AcDbLine
 10
801.6322439811204
 20
1976.965836537926
 30
0.0
 11
804.1664074431896
 21
1979.499999999996
 31
0.0
  0
LINE
  5
100
330
87
100
AcDbEntity
  8
P-SANR-FIXT
100
AcDbLine
 10
879.866407443181
 20
1979.499999999996
 30
0.0
 11
890.1664074431808
 21
1969.199999999996
 31
0.0
  0
LINE
  5
101
330
87
100
AcDbEntity
  8
P-SANR-FIXT
100
AcDbLine
 10
890.1664074431806
 20
2030.799999999995
 30
0.0
 11
882.1664074431893
 21
2022.800000000004
 31
0.0
  0
LINE
  5
102
330
87
100
AcDbEntity
  8
P-SANR-FIXT
100
AcDbLine
 10
761.1664074431891
 20
1969.199999999996
 30
0.0
 11
767.4664074431886
 21
1975.499999999996
 31
0.0
  0
LINE
  5
103
330
87
100
AcDbEntity
  8
P-SANR-FIXT
100
AcDbLine
 10
767.4664074431886
 20
2024.499999999996
 30
0.0
 11
761.1664074431888
 21
2030.799999999996
 31
0.0
  0
LINE
  5
104
330
87
100
AcDbEntity
  8
P-SANR-FIXT
100
AcDbLine
 10
776.9664074431891
 20
1975.499999999996
 30
0.0
 11
778.3664074431891
 21
1976.899999999996
 31
0.0
  0
LINE
  5
105
330
87
100
AcDbEntity
  8
P-SANR-FIXT
100
AcDbLine
 10
890.166407443179
 20
2030.799999999995
 30
0.0
 11
890.166407443179
 21
2030.664317278897
 31
0.0
  0
LINE
  5
106
330
87
100
AcDbEntity
  8
P-SANR-FIXT
100
AcDbLine
 10
890.166407443179
 20
2030.664317278897
 30
0.0
 11
911.1664074431791
 21
2030.664317278897
 31
0.0
  0
LINE
  5
107
330
87
100
AcDbEntity
  8
P-SANR-FIXT
100
AcDbLine
 10
911.1664074431791
 20
1969.335682721093
 30
0.0
 11
890.166407443179
 21
1969.335682721093
 31
0.0
  0
LINE
  5
108
330
87
100
AcDbEntity
  8
P-SANR-FIXT
100
AcDbLine
 10
890.166407443179
 20
1969.335682721093
 30
0.0
 11
890.166407443179
 21
1969.199999999995
 31
0.0
  0
LINE
  5
109
330
87
100
AcDbEntity
  8
P-SANR-FIXT
100
AcDbLine
 10
890.166407443179
 20
2017.833105333022
 30
0.0
 11
890.166407443179
 21
2012.83121194587
 31
0.0
  0
LINE
  5
10A
330
87
100
AcDbEntity
  8
P-SANR-FIXT
100
AcDbLine
 10
890.166407443179
 20
2012.83121194587
 30
0.0
 11
911.1664074431791
 21
2012.83121194587
 31
0.0
  0
LINE
  5
10B
330
87
100
AcDbEntity
  8
P-SANR-FIXT
100
AcDbLine
 10
911.1664074431791
 20
2017.833105333022
 30
0.0
 11
890.166407443179
 21
2017.833105333022
 31
0.0
  0
LINE
  5
10C
330
87
100
AcDbEntity
  8
P-SANR-FIXT
100
AcDbLine
 10
890.166407443179
 20
1987.168788054119
 30
0.0
 11
890.166407443179
 21
1982.166894666969
 31
0.0
  0
LINE
  5
10D
330
87
100
AcDbEntity
  8
P-SANR-FIXT
100
AcDbLine
 10
890.166407443179
 20
1982.166894666969
 30
0.0
 11
911.1664074431791
 21
1982.166894666969
 31
0.0
  0
LINE
  5
10E
330
87
100
AcDbEntity
  8
P-SANR-FIXT
100
AcDbLine
 10
911.1664074431791
 20
1987.168788054119
 30
0.0
 11
890.166407443179
 21
1987.168788054119
 31
0.0
  0
LINE
  5
10F
330
87
100
AcDbEntity
  8
P-SANR-FIXT
100
AcDbLine
 10
911.1664074431791
 20
2030.664317278897
 30
0.0
 11
911.1664074431791
 21
2030.799999999995
 31
0.0
  0
LINE
  5
110
330
87
100
AcDbEntity
  8
P-SANR-FIXT
100
AcDbLine
 10
911.1664074431791
 20
2030.664317278897
 30
0.0
 11
911.1664074431791
 21
2017.833105333022
 31
0.0
  0
LINE
  5
111
330
87
100
AcDbEntity
  8
P-SANR-FIXT
100
AcDbLine
 10
911.1664074431791
 20
2012.83121194587
 30
0.0
 11
911.1664074431791
 21
2017.833105333022
 31
0.0
  0
LINE
  5
112
330
87
100
AcDbEntity
  8
P-SANR-FIXT
100
AcDbLine
 10
911.1664074431791
 20
2012.83121194587
 30
0.0
 11
911.1664074431791
 21
1987.168788054119
 31
0.0
  0
LINE
  5
113
330
87
100
AcDbEntity
  8
P-SANR-FIXT
100
AcDbLine
 10
911.1664074431791
 20
1982.166894666969
 30
0.0
 11
911.1664074431791
 21
1987.168788054119
 31
0.0
  0
LINE
  5
114
330
87
100
AcDbEntity
  8
P-SANR-FIXT
100
AcDbLine
 10
911.1664074431791
 20
1982.166894666969
 30
0.0
 11
911.1664074431791
 21
1969.335682721093
 31
0.0
  0
LINE
  5
115
330
87
100
AcDbEntity
  8
P-SANR-FIXT
100
AcDbLine
 10
911.1664074431791
 20
1969.199999999995
 30
0.0
 11
911.1664074431791
 21
1969.335682721093
 31
0.0
  0
LINE
  5
116
330
87
100
AcDbEntity
  8
P-SANR-FIXT
100
AcDbLine
 10
740.1664074431879
 20
1969.335682721093
 30
0.0
 11
740.1664074431879
 21
1982.166894666968
 31
0.0
  0
LINE
  5
117
330
87
100
AcDbEntity
  8
P-SANR-FIXT
100
AcDbLine
 10
740.1664074431879
 20
1987.168788054119
 30
0.0
 11
740.1664074431879
 21
2012.83121194587
 31
0.0
  0
LINE
  5
118
330
87
100
AcDbEntity
  8
P-SANR-FIXT
100
AcDbLine
 10
740.1664074431879
 20
2017.833105333021
 30
0.0
 11
740.1664074431879
 21
2030.664317278897
 31
0.0
  0
LINE
  5
119
330
87
100
AcDbEntity
  8
P-SANR-FIXT
100
AcDbLine
 10
767.4664074431874
 20
2024.499999999996
 30
0.0
 11
767.4664074431874
 21
1975.499999999994
 31
0.0
  0
SPLINE
  5
11A
330
87
100
AcDbEntity
  8
P-SANR-FIXT
100
AcDbSpline
210
0.0
220
0.0
230
1.0
 70
     8
 71
     3
 72
    37
 73
    33
 74
     0
 42
0.000000001
 43
0.0000000001
 40
0.0
 40
0.0
 40
0.0
 40
0.0
 40
0.1
 40
0.15
 40
0.2
 40
0.225
 40
0.25
 40
0.275
 40
0.3
 40
0.325
 40
0.35
 40
0.375
 40
0.4
 40
0.425
 40
0.45
 40
0.475
 40
0.5
 40
0.525
 40
0.55
 40
0.6
 40
0.65
 40
0.7
 40
0.75
 40
0.775
 40
0.8
 40
0.825
 40
0.85
 40
0.875
 40
0.9
 40
0.925
 40
0.95
 40
1.0
 40
1.0
 40
1.0
 40
1.0
 10
860.1664074431878
 20
2020.499999999995
 30
0.0
 10
860.1664074431878
 20
2020.492126258542
 30
0.0
 10
860.346186823156
 20
2020.405155453611
 30
0.0
 10
860.9184518773462
 20
2020.102846468773
 30
0.0
 10
861.4057576519263
 20
2019.85929521768
 30
0.0
 10
861.8656959211843
 20
2019.64301723785
 30
0.0
 10
862.2437895244898
 20
2019.462567809011
 30
0.0
 10
862.6540792247073
 20
2019.274119184368
 30
0.0
 10
863.0962932449479
 20
2019.087262274484
 30
0.0
 10
863.5676876716692
 20
2018.896427137661
 30
0.0
 10
864.065606074609
 20
2018.697008559411
 30
0.0
 10
864.5901719580081
 20
2018.499635163528
 30
0.0
 10
865.1418034375813
 20
2018.315330960321
 30
0.0
 10
865.718377218157
 20
2018.138304575755
 30
0.0
 10
866.3164276706993
 20
2017.963152077968
 30
0.0
 10
866.9354730413038
 20
2017.801380911675
 30
0.0
 10
867.5741164358477
 20
2017.663767162261
 30
0.0
 10
868.2315871059355
 20
2017.547100975852
 30
0.0
 10
869.1292531516166
 20
2017.41061426612
 30
0.0
 10
870.2767779718231
 20
2017.300392345491
 30
0.0
 10
871.6771276519061
 20
2017.294802813262
 30
0.0
 10
873.0674788950731
 20
2017.383073711656
 30
0.0
 10
874.1871421153163
 20
2017.551968311129
 30
0.0
 10
875.0537120850783
 20
2017.731791587157
 30
0.0
 10
875.6853025147922
 20
2017.875772567797
 30
0.0
 10
876.2951985504747
 20
2018.035612269403
 30
0.0
 10
876.8821172946655
 20
2018.215913341112
 30
0.0
 10
877.4458870277726
 20
2018.405058423938
 30
0.0
 10
877.9862971310295
 20
2018.593488359679
 30
0.0
 10
878.501510997013
 20
2018.779631195131
 30
0.0
 10
879.1508146123758
 20
2019.034473482264
 30
0.0
 10
879.5932939777822
 20
2019.230360024891
 30
0.0
 10
879.8664074431794
 20
2019.363367475717
 30
0.0
  0
SPLINE
  5
11B
330
87
100
AcDbEntity
  8
P-SANR-FIXT
100
AcDbSpline
210
0.0
220
0.0
230
1.0
 70
     8
 71
     3
 72
    17
 73
    13
 74
     0
 42
0.000000001
 43
0.0000000001
 40
0.0
 40
0.0
 40
0.0
 40
0.0
 40
0.1666666666666666
 40
0.25
 40
0.3333333333333333
 40
0.4166666666666666
 40
0.5
 40
0.5833333333333333
 40
0.6666666666666666
 40
0.75
 40
0.8333333333333332
 40
1.0
 40
1.0
 40
1.0
 40
1.0
 10
879.8664074431794
 20
2019.363367475717
 30
0.0
 10
880.0687868530472
 20
2019.684271111705
 30
0.0
 10
880.3659801225434
 20
2020.137290943604
 30
0.0
 10
880.738473329425
 20
2020.68622308049
 30
0.0
 10
881.0027632523683
 20
2021.067221153296
 30
0.0
 10
881.2494194927309
 20
2021.43013370438
 30
0.0
 10
881.4748265098845
 20
2021.772426368269
 30
0.0
 10
881.6748169627285
 20
2022.076696502042
 30
0.0
 10
881.845556635814
 20
2022.325541462784
 30
0.0
 10
881.9839184185827
 20
2022.516426885019
 30
0.0
 10
882.1213440492666
 20
2022.710482074172
 30
0.0
 10
882.1664074431877
 20
2022.783276604929
 30
0.0
 10
882.1664074431877
 20
2022.800000000003
 30
0.0
  0
LINE
  5
11C
330
87
100
AcDbEntity
  8
P-SANR-FIXT
100
AcDbLine
 10
740.1664074431878
 20
2030.664317278897
 30
0.0
 11
740.1664074431878
 21
2030.799999999995
 31
0.0
  0
LINE
  5
11D
330
87
100
AcDbEntity
  8
P-SANR-FIXT
100
AcDbLine
 10
740.1664074431879
 20
2030.664317278897
 30
0.0
 11
761.1664074431875
 21
2030.664317278897
 31
0.0
  0
LINE
  5
11E
330
87
100
AcDbEntity
  8
P-SANR-FIXT
100
AcDbLine
 10
761.1664074431875
 20
1969.335682721093
 30
0.0
 11
740.1664074431879
 21
1969.335682721093
 31
0.0
  0
LINE
  5
11F
330
87
100
AcDbEntity
  8
P-SANR-FIXT
100
AcDbLine
 10
740.1664074431879
 20
1969.199999999995
 30
0.0
 11
740.1664074431879
 21
1969.335682721093
 31
0.0
  0
LINE
  5
120
330
87
100
AcDbEntity
  8
P-SANR-FIXT
100
AcDbLine
 10
740.1664074431879
 20
2012.83121194587
 30
0.0
 11
740.1664074431879
 21
2017.833105333021
 31
0.0
  0
LINE
  5
121
330
87
100
AcDbEntity
  8
P-SANR-FIXT
100
AcDbLine
 10
740.1664074431879
 20
2012.83121194587
 30
0.0
 11
761.1664074431875
 21
2012.83121194587
 31
0.0
  0
LINE
  5
122
330
87
100
AcDbEntity
  8
P-SANR-FIXT
100
AcDbLine
 10
761.1664074431875
 20
2017.833105333021
 30
0.0
 11
740.1664074431879
 21
2017.833105333021
 31
0.0
  0
LINE
  5
123
330
87
100
AcDbEntity
  8
P-SANR-FIXT
100
AcDbLine
 10
740.1664074431879
 20
1982.166894666968
 30
0.0
 11
740.1664074431879
 21
1987.168788054119
 31
0.0
  0
LINE
  5
124
330
87
100
AcDbEntity
  8
P-SANR-FIXT
100
AcDbLine
 10
740.1664074431879
 20
1982.166894666968
 30
0.0
 11
761.1664074431875
 21
1982.166894666968
 31
0.0
  0
LINE
  5
125
330
87
100
AcDbEntity
  8
P-SANR-FIXT
100
AcDbLine
 10
761.1664074431875
 20
1987.168788054119
 30
0.0
 11
740.1664074431879
 21
1987.168788054119
 31
0.0
  0
LINE
  5
126
330
87
100
AcDbEntity
  8
P-SANR-FIXT
100
AcDbLine
 10
804.1664074431883
 20
2020.346677502981
 30
0.0
 11
804.1664074431883
 21
1979.499999999995
 31
0.0
  0
LINE
  5
127
330
87
100
AcDbEntity
  8
P-SANR-FIXT
100
AcDbLine
 10
882.1664074431877
 20
2032.499999999995
 30
0.0
 11
860.1664074431878
 21
2032.499999999995
 31
0.0
  0
SPLINE
  5
128
330
87
100
AcDbEntity
  8
P-SANR-FIXT
100
AcDbSpline
210
0.0
220
0.0
230
1.0
 70
     8
 71
     3
 72
    48
 73
    44
 74
     0
 42
0.000000001
 43
0.0000000001
 40
-1.0
 40
-1.0
 40
-1.0
 40
-1.0
 40
-0.9444444444444444
 40
-0.9166666666666666
 40
-0.8888888888888889
 40
-0.861111111111111
 40
-0.8333333333333332
 40
-0.8055555555555555
 40
-0.7916666666666668
 40
-0.7777777777777778
 40
-0.7638888888888889
 40
-0.75
 40
-0.7222222222222223
 40
-0.6944444444444445
 40
-0.6805555555555556
 40
-0.6666666666666666
 40
-0.6527777777777777
 40
-0.6388888888888889
 40
-0.6111111111111112
 40
-0.5833333333333334
 40
-0.5555555555555556
 40
-0.5277777777777778
 40
-0.5
 40
-0.4722222222222223
 40
-0.4444444444444445
 40
-0.4166666666666666
 40
-0.3888888888888888
 40
-0.3611111111111111
 40
-0.3472222222222222
 40
-0.3333333333333333
 40
-0.3194444444444444
 40
-0.3055555555555556
 40
-0.2777777777777778
 40
-0.25
 40
-0.2361111111111111
 40
-0.2222222222222222
 40
-0.2083333333333333
 40
-0.1944444444444444
 40
-0.1666666666666666
 40
-0.1388888888888889
 40
-0.1111111111111111
 40
-0.0833333333333333
 40
-0.0715773426692742
 40
-0.0715773426692742
 40
-0.0715773426692742
 40
-0.0715773426692742
 10
826.6664074431878
 20
2020.499999999995
 30
0.0
 10
826.6664074431878
 20
2020.485986898767
 30
0.0
 10
826.5778249047359
 20
2020.430982339636
 30
0.0
 10
826.2915007964963
 20
2020.287779726488
 30
0.0
 10
825.9957154821183
 20
2020.149232938935
 30
0.0
 10
825.6232447076506
 20
2019.964394232511
 30
0.0
 10
825.1785746230559
 20
2019.735910167852
 30
0.0
 10
824.7505049320359
 20
2019.527979420214
 30
0.0
 10
824.3752588142754
 20
2019.35872510536
 30
0.0
 10
824.0775426183402
 20
2019.234778284604
 30
0.0
 10
823.764958204668
 20
2019.10752790371
 30
0.0
 10
823.330184843321
 20
2018.925859935716
 30
0.0
 10
822.75303962332
 20
2018.688425785195
 30
0.0
 10
822.13228465423
 20
2018.454971873564
 30
0.0
 10
821.6098693545177
 20
2018.281198038123
 30
0.0
 10
821.2049557585894
 20
2018.162355917819
 30
0.0
 10
820.7878543834905
 20
2018.048774257009
 30
0.0
 10
820.21765230159
 20
2017.895657638336
 30
0.0
 10
819.4799784746034
 20
2017.713392127623
 30
0.0
 10
818.5612062200819
 20
2017.526757155083
 30
0.0
 10
817.6173482728682
 20
2017.397924325881
 30
0.0
 10
816.6503211870693
 20
2017.330002886317
 30
0.0
 10
815.6681646848349
 20
2017.305306224703
 30
0.0
 10
814.6859126923688
 20
2017.329778147761
 30
0.0
 10
813.7186989705625
 20
2017.397545113377
 30
0.0
 10
812.7742849529759
 20
2017.526372556371
 30
0.0
 10
811.8546745372301
 20
2017.713078101513
 30
0.0
 10
811.1164198665036
 20
2017.895397699875
 30
0.0
 10
810.5459660493783
 20
2018.048513834722
 30
0.0
 10
810.128806113018
 20
2018.162065935442
 30
0.0
 10
809.7240259353759
 20
2018.280828053934
 30
0.0
 10
809.2019943714575
 20
2018.454435263493
 30
0.0
 10
808.5819081241007
 20
2018.687617113871
 30
0.0
 10
808.0052841050244
 20
2018.924803752068
 30
0.0
 10
807.570661338374
 20
2019.106355452279
 30
0.0
 10
807.2580220460777
 20
2019.233576438937
 30
0.0
 10
806.9600814671353
 20
2019.357567228084
 30
0.0
 10
806.5844067726686
 20
2019.526955357707
 30
0.0
 10
806.1556698723103
 20
2019.735153192071
 30
0.0
 10
805.7102870724024
 20
2019.963997412492
 30
0.0
 10
805.337407615965
 20
2020.14907834953
 30
0.0
 10
805.0983463028584
 20
2020.261072449803
 30
0.0
 10
804.9853241920331
 20
2020.316325192801
 30
0.0
 10
804.9541754964973
 20
2020.331776667984
 30
0.0
  0
LINE
  5
129
330
87
100
AcDbEntity
  8
P-SANR-FIXT
100
AcDbLine
 10
826.6664074431878
 20
2032.499999999995
 30
0.0
 11
804.9551050613652
 21
2032.499999999995
 31
0.0
  0
SPLINE
  5
12A
330
87
100
AcDbEntity
  8
P-SANR-FIXT
100
AcDbSpline
210
0.0
220
0.0
230
1.0
 70
     8
 71
     3
 72
    17
 73
    13
 74
     0
 42
0.000000001
 43
0.0000000001
 40
-1.0
 40
-1.0
 40
-1.0
 40
-1.0
 40
-0.875
 40
-0.75
 40
-0.6875
 40
-0.625
 40
-0.5625
 40
-0.5
 40
-0.4375
 40
-0.375
 40
-0.25
 40
0.0
 40
0.0
 40
0.0
 40
0.0
 10
776.9664074431878
 20
2020.975402260738
 30
0.0
 10
776.4862756062516
 20
2021.200234251049
 30
0.0
 10
775.5625272707889
 20
2021.639586440697
 30
0.0
 10
774.5155651035629
 20
2022.156629169671
 30
0.0
 10
773.7538996736518
 20
2022.562437303179
 30
0.0
 10
773.2228474030815
 20
2022.86383631372
 30
0.0
 10
772.7327289818909
 20
2023.150494211822
 30
0.0
 10
772.2848823559359
 20
2023.409367007234
 30
0.0
 10
771.8814843246284
 20
2023.645190537417
 30
0.0
 10
771.4072126319408
 20
2023.939400899558
 30
0.0
 10
770.7527791595447
 20
2024.350290793385
 30
0.0
 10
770.516407443188
 20
2024.488490296397
 30
0.0
 10
770.516407443188
 20
2024.499999999996
 30
0.0
  0
SPLINE
  5
12B
330
87
100
AcDbEntity
  8
P-SANR-FIXT
100
AcDbSpline
210
0.0
220
0.0
230
1.0
 70
     8
 71
     3
 72
     9
 73
     5
 74
     0
 42
0.000000001
 43
0.0000000001
 40
0.0
 40
0.0
 40
0.0
 40
0.0
 40
0.5
 40
1.0
 40
1.0
 40
1.0
 40
1.0
 10
776.9664074431878
 20
2020.975402260738
 30
0.0
 10
777.1985923462532
 20
2020.601884742363
 30
0.0
 10
777.6650965801677
 20
2019.848409276418
 30
0.0
 10
778.1328797500656
 20
2019.082052952087
 30
0.0
 10
778.3664074431877
 20
2018.695654575324
 30
0.0
  0
SPLINE
  5
12C
330
87
100
AcDbEntity
  8
P-SANR-FIXT
100
AcDbSpline
210
0.0
220
0.0
230
1.0
 70
     8
 71
     3
 72
    36
 73
    32
 74
     0
 42
0.000000001
 43
0.0000000001
 40
0.0
 40
0.0
 40
0.0
 40
0.0
 40
0.0625
 40
0.125
 40
0.1875
 40
0.25
 40
0.3125
 40
0.34375
 40
0.375
 40
0.40625
 40
0.4375
 40
0.46875
 40
0.484375
 40
0.5
 40
0.515625
 40
0.53125
 40
0.5625
 40
0.59375
 40
0.609375
 40
0.625
 40
0.640625
 40
0.65625
 40
0.6875
 40
0.71875
 40
0.75
 40
0.78125
 40
0.8125
 40
0.84375
 40
0.875
 40
0.9375
 40
1.0
 40
1.0
 40
1.0
 40
1.0
 10
778.3664074431877
 20
2018.695654575324
 30
0.0
 10
778.8928819502256
 20
2018.454934874151
 30
0.0
 10
779.9915824687136
 20
2018.021763053476
 30
0.0
 10
781.7527521561117
 20
2017.530429644881
 30
0.0
 10
783.6260043249713
 20
2017.156655826489
 30
0.0
 10
785.5531012487299
 20
2016.958329678518
 30
0.0
 10
787.1739473294448
 20
2017.010231134776
 30
0.0
 10
788.4607177232841
 20
2017.14704265685
 30
0.0
 10
789.4056034320265
 20
2017.287677301136
 30
0.0
 10
790.3267511418931
 20
2017.478709451691
 30
0.0
 10
791.2264944880273
 20
2017.723397027794
 30
0.0
 10
791.9553039138957
 20
2017.953493886335
 30
0.0
 10
792.5247272927471
 20
2018.146403777604
 30
0.0
 10
792.9449113249603
 20
2018.291696158674
 30
0.0
 10
793.3570259611167
 20
2018.442111320455
 30
0.0
 10
793.8948599496884
 20
2018.65577802839
 30
0.0
 10
794.5465002662879
 20
2018.938944063561
 30
0.0
 10
795.1720210450323
 20
2019.232215462818
 30
0.0
 10
795.6573415824449
 20
2019.465964639169
 30
0.0
 10
796.0142471246698
 20
2019.637697260346
 30
0.0
 10
796.3627459818716
 20
2019.809536630856
 30
0.0
 10
796.8145433708355
 20
2020.044258770072
 30
0.0
 10
797.3564766069824
 20
2020.340820182155
 30
0.0
 10
797.9706484569484
 20
2020.692581790575
 30
0.0
 10
798.5497684410354
 20
2021.02320483485
 30
0.0
 10
799.0905232782921
 20
2021.339794862064
 30
0.0
 10
799.5884873175788
 20
2021.650384673028
 30
0.0
 10
800.0426423598547
 20
2021.940446428008
 30
0.0
 10
800.5871917222535
 20
2022.283601660348
 30
0.0
 10
801.146770751094
 20
2022.633185138526
 30
0.0
 10
801.4519971638915
 20
2022.844292286997
 30
0.0
 10
801.5664074431878
 20
2022.931364983354
 30
0.0
  0
SPLINE
  5
12D
330
87
100
AcDbEntity
  8
P-SANR-FIXT
100
AcDbSpline
210
0.0
220
0.0
230
1.0
 70
     8
 71
     3
 72
     8
 73
     4
 74
     0
 42
0.000000001
 43
0.0000000001
 40
0.0
 40
0.0
 40
0.0
 40
0.0
 40
0.1031552923448724
 40
0.1031552923448724
 40
0.1031552923448724
 40
0.1031552923448724
 10
801.5664074431878
 20
2022.931364983354
 30
0.0
 10
801.583539458112
 20
2022.925710624021
 30
0.0
 10
801.5997989731186
 20
2022.920350939793
 30
0.0
 10
801.6151833285345
 20
2022.91528593067
 30
0.0
  0
LINE
  5
12E
330
87
100
AcDbEntity
  8
P-SANR-FIXT
100
AcDbLine
 10
778.3664074431877
 20
2018.695654575324
 30
0.0
 11
778.3664074431877
 21
1976.899999999994
 31
0.0
  0
LINE
  5
12F
330
87
100
AcDbEntity
  8
P-SANR-FIXT
100
AcDbLine
 10
801.5664074431878
 20
1976.899999999995
 30
0.0
 11
801.5664074431878
 21
2022.931364983354
 31
0.0
  0
SPLINE
  5
130
330
87
100
AcDbEntity
  8
P-SANR-FIXT
100
AcDbSpline
210
0.0
220
0.0
230
1.0
 70
     8
 71
     3
 72
    10
 73
     6
 74
     0
 42
0.000000001
 43
0.0000000001
 40
-1.0
 40
-1.0
 40
-1.0
 40
-1.0
 40
-0.6666666666666666
 40
-0.3333333333333333
 40
0.0
 40
0.0
 40
0.0
 40
0.0
 10
890.166407443179
 20
1969.335682721093
 30
0.0
 10
888.9409327490385
 20
1970.716295356533
 30
0.0
 10
887.3066454379941
 20
1973.509350078652
 30
0.0
 10
887.2791954757124
 20
1977.938416704483
 30
0.0
 10
888.9288932918974
 20
1980.762791772275
 30
0.0
 10
890.166407443179
 20
1982.166894666969
 30
0.0
  0
SPLINE
  5
131
330
87
100
AcDbEntity
  8
P-SANR-FIXT
100
AcDbSpline
210
0.0
220
0.0
230
1.0
 70
     8
 71
     3
 72
    10
 73
     6
 74
     0
 42
0.000000001
 43
0.0000000001
 40
-1.0
 40
-1.0
 40
-1.0
 40
-1.0
 40
-0.6666666666666666
 40
-0.3333333333333333
 40
0.0
 40
0.0
 40
0.0
 40
0.0
 10
890.166407443179
 20
1987.168788054119
 30
0.0
 10
888.9409327490387
 20
1989.930013324999
 30
0.0
 10
887.3066454379944
 20
1995.516122769237
 30
0.0
 10
887.2791954757129
 20
2004.374256020899
 30
0.0
 10
888.9288932918978
 20
2010.023006156483
 30
0.0
 10
890.166407443179
 20
2012.83121194587
 30
0.0
  0
SPLINE
  5
132
330
87
100
AcDbEntity
  8
P-SANR-FIXT
100
AcDbSpline
210
0.0
220
0.0
230
1.0
 70
     8
 71
     3
 72
    10
 73
     6
 74
     0
 42
0.000000001
 43
0.0000000001
 40
-1.0
 40
-1.0
 40
-1.0
 40
-1.0
 40
-0.6666666666666666
 40
-0.3333333333333333
 40
0.0
 40
0.0
 40
0.0
 40
0.0
 10
890.166407443179
 20
2017.833105333022
 30
0.0
 10
888.940932749039
 20
2019.213717968462
 30
0.0
 10
887.306645437995
 20
2022.006772690581
 30
0.0
 10
887.2791954757133
 20
2026.435839316412
 30
0.0
 10
888.9288932918979
 20
2029.260214384203
 30
0.0
 10
890.166407443179
 20
2030.664317278897
 30
0.0
  0
LINE
  5
133
330
87
100
AcDbEntity
  8
P-SANR-FIXT
100
AcDbLine
 10
879.8664074431794
 20
1979.499999999995
 30
0.0
 11
879.8664074431794
 21
2019.363367475717
 31
0.0
  0
LINE
  5
134
330
87
100
AcDbEntity
  8
P-SANR-FIXT
100
AcDbLine
 10
761.1664074431877
 20
2030.664317278897
 30
0.0
 11
761.1664074431877
 21
2030.799999999995
 31
0.0
  0
SPLINE
  5
135
330
87
100
AcDbEntity
  8
P-SANR-FIXT
100
AcDbSpline
210
0.0
220
0.0
230
1.0
 70
     8
 71
     3
 72
    10
 73
     6
 74
     0
 42
0.000000001
 43
0.0000000001
 40
-1.0
 40
-1.0
 40
-1.0
 40
-1.0
 40
-0.6666666666666666
 40
-0.3333333333333333
 40
0.0
 40
0.0
 40
0.0
 40
0.0
 10
761.1664074431875
 20
2030.664317278897
 30
0.0
 10
762.3918821373279
 20
2029.283704643457
 30
0.0
 10
764.0261694483723
 20
2026.490649921338
 30
0.0
 10
764.053619410654
 20
2022.061583295507
 30
0.0
 10
762.4039215944691
 20
2019.237208227716
 30
0.0
 10
761.1664074431875
 20
2017.833105333021
 30
0.0
  0
LINE
  5
136
330
87
100
AcDbEntity
  8
P-SANR-FIXT
100
AcDbLine
 10
761.1664074431875
 20
2012.83121194587
 30
0.0
 11
761.1664074431875
 21
2017.833105333021
 31
0.0
  0
SPLINE
  5
137
330
87
100
AcDbEntity
  8
P-SANR-FIXT
100
AcDbSpline
210
0.0
220
0.0
230
1.0
 70
     8
 71
     3
 72
    10
 73
     6
 74
     0
 42
0.000000001
 43
0.0000000001
 40
-1.0
 40
-1.0
 40
-1.0
 40
-1.0
 40
-0.6666666666666666
 40
-0.3333333333333333
 40
0.0
 40
0.0
 40
0.0
 40
0.0
 10
761.1664074431875
 20
2012.83121194587
 30
0.0
 10
762.3918821373279
 20
2010.069986674992
 30
0.0
 10
764.0261694483723
 20
2004.483877230753
 30
0.0
 10
764.053619410654
 20
1995.62574397909
 30
0.0
 10
762.4039215944691
 20
1989.976993843507
 30
0.0
 10
761.1664074431875
 20
1987.168788054119
 30
0.0
  0
LINE
  5
138
330
87
100
AcDbEntity
  8
P-SANR-FIXT
100
AcDbLine
 10
761.1664074431875
 20
1982.166894666968
 30
0.0
 11
761.1664074431875
 21
1987.168788054119
 31
0.0
  0
SPLINE
  5
139
330
87
100
AcDbEntity
  8
P-SANR-FIXT
100
AcDbSpline
210
0.0
220
0.0
230
1.0
 70
     8
 71
     3
 72
    10
 73
     6
 74
     0
 42
0.000000001
 43
0.0000000001
 40
-1.0
 40
-1.0
 40
-1.0
 40
-1.0
 40
-0.6666666666666666
 40
-0.3333333333333333
 40
0.0
 40
0.0
 40
0.0
 40
0.0
 10
761.1664074431875
 20
1982.166894666968
 30
0.0
 10
762.3918821373279
 20
1980.786282031529
 30
0.0
 10
764.0261694483722
 20
1977.99322730941
 30
0.0
 10
764.053619410654
 20
1973.564160683578
 30
0.0
 10
762.4039215944691
 20
1970.739785615787
 30
0.0
 10
761.1664074431875
 20
1969.335682721093
 30
0.0
  0
LINE
  5
13A
330
87
100
AcDbEntity
  8
P-SANR-FIXT
100
AcDbLine
 10
761.1664074431875
 20
1969.199999999995
 30
0.0
 11
761.1664074431875
 21
1969.335682721093
 31
0.0
  0
LINE
  5
13B
330
87
100
AcDbEntity
  8
P-SANR-FIXT
100
AcDbLine
 10
776.9664074431878
 20
1975.499999999995
 30
0.0
 11
776.9664074431878
 21
2020.975402260738
 31
0.0
  0
ENDBLK
  5
13D
330
87
100
AcDbEntity
  8
0
100
AcDbBlockEnd
  0
BLOCK
  5
229
330
13F
100
AcDbEntity
  8
0
100
AcDbBlockBegin
  2
Automatic flow rate regulator valve_Caleffi_121 DN15 - 1_2__-V1-Est - Idraulica
 70
     0
 10
0.0
 20
0.0
 30
0.0
  3
Automatic flow rate regulator valve_Caleffi_121 DN15 - 1_2__-V1-Est - Idraulica
  1

  0
LINE
  5
140
330
13F
100
AcDbEntity
  8
M-PIPE
100
AcDbLine
 10
810.5903105404005
 20
1793.619212785582
 30
0.0
 11
837.1664074431889
 21
1793.619212785582
 31
0.0
1001
REVIT
1002
{
1070
     3
1000
790271
1002
}
  0
LINE
  5
141
330
13F
100
AcDbEntity
  8
M-PIPE
100
AcDbLine
 10
843.1664074431903
 20
1793.619212785582
 30
0.0
 11
862.2650423762424
 21
1793.619212785582
 31
0.0
1001
REVIT
1002
{
1070
     3
1000
790271
1002
}
  0
LINE
  5
142
330
13F
100
AcDbEntity
  8
M-PIPE
100
AcDbLine
 10
862.2650423762424
 20
1818.872544674523
 30
0.0
 11
843.1664074431903
 21
1818.872544674523
 31
0.0
1001
REVIT
1002
{
1070
     3
1000
790271
1002
}
  0
LINE
  5
143
330
13F
100
AcDbEntity
  8
M-PIPE
100
AcDbLine
 10
837.1664074431889
 20
1818.872544674523
 30
0.0
 11
810.5903105404001
 21
1818.872544674523
 31
0.0
1001
REVIT
1002
{
1070
     3
1000
790271
1002
}
  0
LINE
  5
144
330
13F
100
AcDbEntity
  8
M-PIPE
100
AcDbLine
 10
837.1664074431896
 20
1821.745878730053
 30
0.0
 11
837.1664074431896
 21
1818.872544674523
 31
0.0
1001
REVIT
1002
{
1070
     3
1000
790271
1002
}
  0
LINE
  5
145
330
13F
100
AcDbEntity
  8
M-PIPE
100
AcDbLine
 10
837.1664074431896
 20
1793.619212785582
 30
0.0
 11
837.1664074431896
 21
1790.745878730053
 31
0.0
1001
REVIT
1002
{
1070
     3
1000
790271
1002
}
  0
LINE
  5
146
330
13F
100
AcDbEntity
  8
M-PIPE
100
AcDbLine
 10
843.1664074431898
 20
1790.745878730053
 30
0.0
 11
843.1664074431898
 21
1793.619212785582
 31
0.0
1001
REVIT
1002
{
1070
     3
1000
790271
1002
}
  0
LINE
  5
147
330
13F
100
AcDbEntity
  8
M-PIPE
100
AcDbLine
 10
843.1664074431896
 20
1818.872544674523
 30
0.0
 11
843.1664074431896
 21
1821.745878730053
 31
0.0
1001
REVIT
1002
{
1070
     3
1000
790271
1002
}
  0
LINE
  5
148
330
13F
100
AcDbEntity
  8
M-PIPE
100
AcDbLine
 10
862.2650423762408
 20
1818.872544674522
 30
0.0
 11
862.265042376241
 21
1793.619212785582
 31
0.0
1001
REVIT
1002
{
1070
     3
1000
790271
1002
}
  0
LINE
  5
149
330
13F
100
AcDbEntity
  8
M-PIPE
100
AcDbLine
 10
810.5903105403989
 20
1793.619212785581
 30
0.0
 11
810.5903105403989
 21
1818.872544674522
 31
0.0
1001
REVIT
1002
{
1070
     3
1000
790271
1002
}
  0
SPLINE
  5
14A
330
13F
100
AcDbEntity
  8
M-PIPE
100
AcDbSpline
210
0.0
220
0.0
230
1.0
 70
     8
 71
     3
 72
    23
 73
    19
 74
     0
 42
0.000000001
 43
0.0000000001
 40
0.0
 40
0.0
 40
0.0
 40
0.0
 40
0.0555555555555556
 40
0.1111111111111111
 40
0.1666666666666666
 40
0.2222222222222222
 40
0.2777777777777778
 40
0.3333333333333333
 40
0.3888888888888888
 40
0.4444444444444445
 40
0.5138888888888889
 40
0.5486111111111111
 40
0.5833333333333333
 40
0.6527777777777777
 40
0.7222222222222223
 40
0.7916666666666668
 40
0.861111111111111
 40
1.0
 40
1.0
 40
1.0
 40
1.0
 10
843.166407443188
 20
1818.872544674522
 30
0.0
 10
843.1643658905851
 20
1818.872544674521
 30
0.0
 10
843.1315549042817
 20
1818.864618005028
 30
0.0
 10
843.0003239514752
 20
1818.833521988138
 30
0.0
 10
842.7745710154939
 20
1818.784780869036
 30
0.0
 10
842.4757161971225
 20
1818.72483829927
 30
0.0
 10
842.103908908745
 20
1818.661327824544
 30
0.0
 10
841.6770800564334
 20
1818.600690629191
 30
0.0
 10
841.199036782871
 20
1818.551642588274
 30
0.0
 10
840.6494617510643
 20
1818.515511953497
 30
0.0
 10
840.1425379933916
 20
1818.508107403406
 30
0.0
 10
839.7050792466307
 20
1818.518157062893
 30
0.0
 10
839.2841769137932
 20
1818.539779643905
 30
0.0
 10
838.7629616010412
 20
1818.586334980327
 30
0.0
 10
838.2230947320529
 20
1818.661093823621
 30
0.0
 10
837.7697961627442
 20
1818.740816562477
 30
0.0
 10
837.3101612928078
 20
1818.836690028754
 30
0.0
 10
837.1716282870268
 20
1818.87254467452
 30
0.0
 10
837.166407443188
 20
1818.872544674522
 30
0.0
1001
REVIT
1002
{
1070
     3
1000
790271
1002
}
  0
SPLINE
  5
14B
330
13F
100
AcDbEntity
  8
M-PIPE
100
AcDbSpline
210
0.0
220
0.0
230
1.0
 70
     8
 71
     3
 72
    23
 73
    19
 74
     0
 42
0.000000001
 43
0.0000000001
 40
0.0
 40
0.0
 40
0.0
 40
0.0
 40
0.0555555555555556
 40
0.1111111111111111
 40
0.1666666666666666
 40
0.2222222222222222
 40
0.2777777777777778
 40
0.3333333333333333
 40
0.3888888888888888
 40
0.4444444444444445
 40
0.5138888888888889
 40
0.5486111111111111
 40
0.5833333333333333
 40
0.6527777777777777
 40
0.7222222222222223
 40
0.7916666666666668
 40
0.861111111111111
 40
1.0
 40
1.0
 40
1.0
 40
1.0
 10
837.1664074431883
 20
1793.619212785582
 30
0.0
 10
837.1684957807238
 20
1793.619212785582
 30
0.0
 10
837.2013294727839
 20
1793.627139728954
 30
0.0
 10
837.3324924228324
 20
1793.658229796756
 30
0.0
 10
837.5577437018657
 20
1793.70690390549
 30
0.0
 10
837.8560958793897
 20
1793.766735105592
 30
0.0
 10
838.228349964543
 20
1793.830305511621
 30
0.0
 10
838.6556409544363
 20
1793.891060771257
 30
0.0
 10
839.1333122531429
 20
1793.940093351884
 30
0.0
 10
839.6824978769958
 20
1793.976199924126
 30
0.0
 10
840.1894278401066
 20
1793.9836537751
 30
0.0
 10
840.6269326077133
 20
1793.973634545106
 30
0.0
 10
841.0480103399621
 20
1793.952013392534
 30
0.0
 10
841.5698056203996
 20
1793.905409433249
 30
0.0
 10
842.1091614913537
 20
1793.830793939871
 30
0.0
 10
842.5619803027222
 20
1793.751119341251
 30
0.0
 10
843.0228081572847
 20
1793.65503198516
 30
0.0
 10
843.1613035616811
 20
1793.619212785584
 30
0.0
 10
843.1664074431882
 20
1793.619212785582
 30
0.0
1001
REVIT
1002
{
1070
     3
1000
790271
1002
}
  0
LINE
  5
14C
330
13F
100
AcDbEntity
  8
M-PIPE
100
AcDbLine
 10
843.1664074431882
 20
1790.745878730052
 30
0.0
 11
837.1664074431883
 21
1790.745878730052
 31
0.0
1001
REVIT
1002
{
1070
     3
1000
790271
1002
}
  0
LINE
  5
14D
330
13F
100
AcDbEntity
  8
M-PIPE
100
AcDbLine
 10
837.166407443188
 20
1821.745878730052
 30
0.0
 11
843.166407443188
 21
1821.745878730052
 31
0.0
1001
REVIT
1002
{
1070
     3
1000
790271
1002
}
  0
LWPOLYLINE
  5
14E
330
13F
100
AcDbEntity
  8
M-PIPE
100
AcDbPolyline
 90
       80
 70
   128
 43
0.0
 10
874.1664074431897
 20
1806.245878730053
 10
874.1640077631727
 20
1806.365846732613
 10
874.1568125620977
 20
1806.48562281196
 10
874.1448333507513
 20
1806.605015351919
 10
874.1280892933167
 20
1806.723833349895
 10
874.1066071767132
 20
1806.841886722438
 10
874.0804213677458
 20
1806.958986609334
 10
874.049573758122
 20
1807.074945675745
 10
874.0141136974372
 20
1807.189578411901
 10
873.9740979142235
 20
1807.302701429878
 10
873.9295904251983
 20
1807.414133756979
 10
873.8806624328496
 20
1807.523697125251
 10
873.8273922115277
 20
1807.631216256677
 10
873.7698649822226
 20
1807.736519143584
 10
873.70817277623
 20
1807.839437323815
 10
873.6424142879188
 20
1807.939806150238
 10
873.5726947168425
 20
1808.037465054139
 10
873.4991255994426
 20
1808.132257802108
 10
873.4218246306124
 20
1808.224032745967
 10
873.3409154754124
 20
1808.312643065384
 10
873.2565275712314
 20
1808.397947002751
 10
873.1687959207137
 20
1808.479808089965
 10
873.0778608757857
 20
1808.558095366749
 10
872.9838679131201
 20
1808.632683590162
 10
872.8869674014072
 20
1808.703453434955
 10
872.7873143607942
 20
1808.770291684476
 10
872.6850682148882
 20
1808.833091411782
 10
872.580392535711
 20
1808.891752150707
 10
872.4734547820201
 20
1808.946180056582
 10
872.3644260314086
 20
1808.996288056368
 10
872.25348070662
 20
1809.041995987954
 10
872.1407962965061
 20
1809.083230728401
 10
872.0265530720855
 20
1809.11992631092
 10
871.9109337981471
 20
1809.152024030407
 10
871.7941234408641
 20
1809.179472537358
 10
871.6763088718906
 20
1809.202227920018
 10
871.5576785694043
 20
1809.220253774627
 10
871.4384223165829
 20
1809.233521263665
 10
871.3187308979907
 20
1809.242009161979
 10
871.1987957943646
 20
1809.245703890742
 10
871.0788088762861
 20
1809.244599539177
 10
870.9589620972277
 20
1809.23869787401
 10
870.8394471864702
 20
1809.228008336647
 10
870.7204553423759
 20
1809.212548028067
 10
870.6021769265115
 20
1809.192341681465
 10
870.4848011591108
 20
1809.167421622687
 10
870.3685158163631
 20
1809.13782771851
 10
870.2535069300104
 20
1809.103607312867
 10
870.1399584897373
 20
1809.064815151108
 10
870.0280521488256
 20
1809.021513292417
 10
869.9179669335485
 20
1808.97377101053
 10
869.8098789567673
 20
1808.921664682913
 10
869.7039611361871
 20
1808.865277668575
 10
869.6003829177259
 20
1808.804700174711
 10
869.4993100044383
 20
1808.740029112388
 10
869.400904091424
 20
1808.671367941511
 10
869.3053226071519
 20
1808.598826505306
 10
869.2127184616074
 20
1808.522520854596
 10
869.1232398016687
 20
1808.442573062143
 10
869.0370297741038
 20
1808.359111027363
 10
868.9542262965662
 20
1808.272268271706
 10
868.8749618369568
 20
1808.182183725056
 10
868.7993632015016
 20
1808.08900150347
 10
868.7275513318903
 20
1807.992870678625
 10
868.6596411117958
 20
1807.893945039334
 10
868.5957411830832
 20
1807.792382845517
 10
868.5359537720072
 20
1807.688346575018
 10
868.4803745256717
 20
1807.582002663678
 10
868.4290923590141
 20
1807.473521239069
 10
868.3821893125623
 20
1807.363075848328
 10
868.3397404211843
 20
1807.25084318052
 10
868.3018135940512
 20
1807.137002783973
 10
868.2684695059963
 20
1807.021736779036
 10
868.2397615004468
 20
1806.905229566728
 10
868.2157355040882
 20
1806.787667533735
 10
868.1964299533888
 20
1806.669238754232
 10
868.1818757331118
 20
1806.550132689002
 10
868.1720961269048
 20
1806.430539882342
 10
868.1671067800515
 20
1806.310651657231
 10
868.1664074431902
 20
1806.245878730053
1001
REVIT
1002
{
1070
     3
1000
790271
1002
}
  0
LWPOLYLINE
  5
14F
330
13F
100
AcDbEntity
  8
M-PIPE
100
AcDbPolyline
 90
       80
 70
   128
 43
0.0
 10
868.1664074431902
 20
1806.245878730053
 10
868.1688071232072
 20
1806.125910727493
 10
868.1760023242825
 20
1806.006134648145
 10
868.1879815356285
 20
1805.886742108186
 10
868.2047255930633
 20
1805.76792411021
 10
868.2262077096666
 20
1805.649870737667
 10
868.252393518634
 20
1805.532770850771
 10
868.2832411282578
 20
1805.41681178436
 10
868.3187011889428
 20
1805.302179048204
 10
868.3587169721564
 20
1805.189056030227
 10
868.4032244611815
 20
1805.077623703127
 10
868.4521524535302
 20
1804.968060334855
 10
868.5054226748521
 20
1804.860541203428
 10
868.5629499041572
 20
1804.755238316522
 10
868.6246421101499
 20
1804.65232013629
 10
868.6904005984612
 20
1804.551951309868
 10
868.7601201695374
 20
1804.454292405966
 10
868.8336892869374
 20
1804.359499657998
 10
868.9109902557675
 20
1804.267724714138
 10
868.9918994109675
 20
1804.179114394721
 10
869.0762873151484
 20
1804.093810457354
 10
869.1640189656661
 20
1804.01194937014
 10
869.2549540105945
 20
1803.933662093356
 10
869.3489469732597
 20
1803.859073869944
 10
869.4458474849726
 20
1803.78830402515
 10
869.5455005255857
 20
1803.721465775629
 10
869.6477466714917
 20
1803.658666048323
 10
869.7524223506688
 20
1803.600005309398
 10
869.8593601043597
 20
1803.545577403523
 10
869.9683888549712
 20
1803.495469403738
 10
870.0793341797599
 20
1803.449761472151
 10
870.1920185898737
 20
1803.408526731704
 10
870.3062618142944
 20
1803.371831149185
 10
870.4218810882327
 20
1803.339733429698
 10
870.5386914455157
 20
1803.312284922746
 10
870.6565060144894
 20
1803.289529540087
 10
870.7751363169755
 20
1803.271503685478
 10
870.8943925697969
 20
1803.25823619644
 10
871.0140839883891
 20
1803.249748298126
 10
871.1340190920152
 20
1803.246053569363
 10
871.2540060100939
 20
1803.247157920928
 10
871.3738527891521
 20
1803.253059586095
 10
871.4933676999097
 20
1803.263749123459
 10
871.612359544004
 20
1803.279209432039
 10
871.7306379598683
 20
1803.29941577864
 10
871.848013727269
 20
1803.324335837418
 10
871.9642990700167
 20
1803.353929741595
 10
872.0793079563694
 20
1803.388150147238
 10
872.1928563966425
 20
1803.426942308997
 10
872.3047627375542
 20
1803.470244167689
 10
872.4148479528313
 20
1803.517986449576
 10
872.5229359296127
 20
1803.570092777193
 10
872.6288537501929
 20
1803.62647979153
 10
872.7324319686539
 20
1803.687057285394
 10
872.8335048819415
 20
1803.751728347717
 10
872.9319107949558
 20
1803.820389518594
 10
873.0274922792279
 20
1803.8929309548
 10
873.1200964247724
 20
1803.96923660551
 10
873.2095750847113
 20
1804.049184397962
 10
873.2957851122762
 20
1804.132646432742
 10
873.3785885898136
 20
1804.219489188399
 10
873.4578530494232
 20
1804.30957373505
 10
873.5334516848784
 20
1804.402755956636
 10
873.6052635544895
 20
1804.498886781481
 10
873.673173774584
 20
1804.597812420771
 10
873.7370737032966
 20
1804.699374614589
 10
873.7968611143726
 20
1804.803410885087
 10
873.8524403607081
 20
1804.909754796427
 10
873.9037225273657
 20
1805.018236221037
 10
873.9506255738177
 20
1805.128681611778
 10
873.9930744651958
 20
1805.240914279585
 10
874.0310012923286
 20
1805.354754676132
 10
874.0643453803837
 20
1805.47002068107
 10
874.093053385933
 20
1805.586527893377
 10
874.1170793822917
 20
1805.70408992637
 10
874.1363849329911
 20
1805.822518705873
 10
874.150939153268
 20
1805.941624771103
 10
874.1607187594752
 20
1806.061217577763
 10
874.1657081063285
 20
1806.181105802874
 10
874.1664074431897
 20
1806.245878730053
1001
REVIT
1002
{
1070
     3
1000
790271
1002
}
  0
LINE
  5
150
330
13F
100
AcDbEntity
  8
M-PIPE
100
AcDbLine
 10
869.166407443188
 20
1816.745878730053
 30
0.0
 11
866.6664074431897
 21
1816.745878730053
 31
0.0
1001
REVIT
1002
{
1070
     3
1000
790271
1002
}
  0
LINE
  5
151
330
13F
100
AcDbEntity
  8
M-PIPE
100
AcDbLine
 10
866.6664074431897
 20
1795.745878730053
 30
0.0
 11
869.1664074431882
 21
1795.745878730053
 31
0.0
1001
REVIT
1002
{
1070
     3
1000
790271
1002
}
  0
LINE
  5
152
330
13F
100
AcDbEntity
  8
M-PIPE
100
AcDbLine
 10
866.6664074431881
 20
1819.245878730053
 30
0.0
 11
862.8329342547619
 21
1819.245878730053
 31
0.0
1001
REVIT
1002
{
1070
     3
1000
790271
1002
}
  0
LINE
  5
153
330
13F
100
AcDbEntity
  8
M-PIPE
100
AcDbLine
 10
862.8329342547607
 20
1793.245878730053
 30
0.0
 11
866.6664074431897
 21
1793.245878730053
 31
0.0
1001
REVIT
1002
{
1070
     3
1000
790271
1002
}
  0
LINE
  5
154
330
13F
100
AcDbEntity
  8
M-PIPE
100
AcDbLine
 10
862.8329342547605
 20
1816.745878730053
 30
0.0
 11
862.2650423762424
 21
1816.745878730053
 31
0.0
1001
REVIT
1002
{
1070
     3
1000
790271
1002
}
  0
LINE
  5
155
330
13F
100
AcDbEntity
  8
M-PIPE
100
AcDbLine
 10
862.2650423762426
 20
1795.745878730053
 30
0.0
 11
862.8329342547605
 21
1795.745878730053
 31
0.0
1001
REVIT
1002
{
1070
     3
1000
790271
1002
}
  0
LINE
  5
156
330
13F
100
AcDbEntity
  8
M-PIPE
100
AcDbLine
 10
810.5903105404005
 20
1817.745878730052
 30
0.0
 11
810.1664074431896
 21
1817.745878730052
 31
0.0
1001
REVIT
1002
{
1070
     3
1000
790271
1002
}
  0
LINE
  5
157
330
13F
100
AcDbEntity
  8
M-PIPE
100
AcDbLine
 10
810.1664074431898
 20
1794.745878730052
 30
0.0
 11
810.5903105404005
 21
1794.745878730052
 31
0.0
1001
REVIT
1002
{
1070
     3
1000
790271
1002
}
  0
LINE
  5
158
330
13F
100
AcDbEntity
  8
M-PIPE
100
AcDbLine
 10
810.1664074431896
 20
1817.745878730052
 30
0.0
 11
808.6664074431896
 21
1819.245878730052
 31
0.0
1001
REVIT
1002
{
1070
     3
1000
790271
1002
}
  0
LINE
  5
159
330
13F
100
AcDbEntity
  8
M-PIPE
100
AcDbLine
 10
808.6664074431896
 20
1793.245878730052
 30
0.0
 11
810.1664074431898
 21
1794.745878730052
 31
0.0
1001
REVIT
1002
{
1070
     3
1000
790271
1002
}
  0
LINE
  5
15A
330
13F
100
AcDbEntity
  8
M-PIPE
100
AcDbLine
 10
808.6664074431896
 20
1819.245878730052
 30
0.0
 11
806.1664074431895
 21
1819.245878730052
 31
0.0
1001
REVIT
1002
{
1070
     3
1000
790271
1002
}
  0
LINE
  5
15B
330
13F
100
AcDbEntity
  8
M-PIPE
100
AcDbLine
 10
806.1664074431897
 20
1793.245878730052
 30
0.0
 11
808.6664074431896
 21
1793.245878730052
 31
0.0
1001
REVIT
1002
{
1070
     3
1000
790271
1002
}
  0
ARC
  5
15C
330
13F
100
AcDbEntity
  8
M-PIPE
100
AcDbCircle
 10
871.166407443188
 20
1806.245878730052
 30
0.0
 40
10.99999999999916
100
AcDbArc
 50
0.0000000000023686
 51
107.1335479206142
1001
REVIT
1002
{
1070
     3
1000
790271
1002
}
  0
ARC
  5
15D
330
13F
100
AcDbEntity
  8
M-PIPE
100
AcDbCircle
 10
871.166407443188
 20
1806.245878730052
 30
0.0
 40
10.99999999999903
100
AcDbArc
 50
252.8664520793926
 51
0.000000000000299
1001
REVIT
1002
{
1070
     3
1000
790271
1002
}
  0
ARC
  5
15E
330
13F
100
AcDbEntity
  8
M-PIPE
100
AcDbCircle
 10
871.166407443188
 20
1806.245878730052
 30
0.0
 40
9.499999999998111
100
AcDbArc
 50
82.50000000000106
 51
102.1768071119368
1001
REVIT
1002
{
1070
     3
1000
790271
1002
}
  0
ARC
  5
15F
330
13F
100
AcDbEntity
  8
M-PIPE
100
AcDbCircle
 10
871.166407443188
 20
1806.245878730052
 30
0.0
 40
9.499999999998085
100
AcDbArc
 50
75.00000000000044
 51
76.59736635240005
1001
REVIT
1002
{
1070
     3
1000
790271
1002
}
  0
ARC
  5
160
330
13F
100
AcDbEntity
  8
M-PIPE
100
AcDbCircle
 10
871.166407443188
 20
1806.245878730052
 30
0.0
 40
9.499999999998131
100
AcDbArc
 50
67.50000000000115
 51
68.0891626543914
1001
REVIT
1002
{
1070
     3
1000
790271
1002
}
  0
ARC
  5
161
330
13F
100
AcDbEntity
  8
M-PIPE
100
AcDbCircle
 10
871.166407443188
 20
1806.245878730052
 30
0.0
 40
9.499999999998143
100
AcDbArc
 50
59.57288291002136
 51
60.00000000000137
1001
REVIT
1002
{
1070
     3
1000
790271
1002
}
  0
ARC
  5
162
330
13F
100
AcDbEntity
  8
M-PIPE
100
AcDbCircle
 10
871.166407443188
 20
1806.245878730052
 30
0.0
 40
9.499999999998099
100
AcDbArc
 50
51.01141159724174
 51
52.49999999999197
1001
REVIT
1002
{
1070
     3
1000
790271
1002
}
  0
ARC
  5
163
330
13F
100
AcDbEntity
  8
M-PIPE
100
AcDbCircle
 10
871.166407443188
 20
1806.245878730052
 30
0.0
 40
9.499999999998067
100
AcDbArc
 50
22.50000000000667
 51
45.00000000000145
1001
REVIT
1002
{
1070
     3
1000
790271
1002
}
  0
ARC
  5
164
330
13F
100
AcDbEntity
  8
M-PIPE
100
AcDbCircle
 10
871.166407443188
 20
1806.245878730052
 30
0.0
 40
9.499999999998093
100
AcDbArc
 50
15.00000000000617
 51
17.05741896281965
1001
REVIT
1002
{
1070
     3
1000
790271
1002
}
  0
ARC
  5
165
330
13F
100
AcDbEntity
  8
M-PIPE
100
AcDbCircle
 10
871.166407443188
 20
1806.245878730052
 30
0.0
 40
9.499999999998086
100
AcDbArc
 50
7.500000000001103
 51
8.523259523995154
1001
REVIT
1002
{
1070
     3
1000
790271
1002
}
  0
ARC
  5
166
330
13F
100
AcDbEntity
  8
M-PIPE
100
AcDbCircle
 10
871.166407443188
 20
1806.245878730052
 30
0.0
 40
9.499999999998108
100
AcDbArc
 50
351.4767404760044
 51
352.4999999999999
1001
REVIT
1002
{
1070
     3
1000
790271
1002
}
  0
ARC
  5
167
330
13F
100
AcDbEntity
  8
M-PIPE
100
AcDbCircle
 10
871.166407443188
 20
1806.245878730052
 30
0.0
 40
9.499999999998019
100
AcDbArc
 50
342.9425810371814
 51
344.9999999999964
1001
REVIT
1002
{
1070
     3
1000
790271
1002
}
  0
ARC
  5
168
330
13F
100
AcDbEntity
  8
M-PIPE
100
AcDbCircle
 10
871.166407443188
 20
1806.245878730052
 30
0.0
 40
9.499999999998047
100
AcDbArc
 50
315.0000000000002
 51
337.4999999999952
1001
REVIT
1002
{
1070
     3
1000
790271
1002
}
  0
ARC
  5
169
330
13F
100
AcDbEntity
  8
M-PIPE
100
AcDbCircle
 10
871.166407443188
 20
1806.245878730052
 30
0.0
 40
9.499999999998109
100
AcDbArc
 50
307.5000000000092
 51
308.9885884027591
1001
REVIT
1002
{
1070
     3
1000
790271
1002
}
  0
ARC
  5
16A
330
13F
100
AcDbEntity
  8
M-PIPE
100
AcDbCircle
 10
871.166407443188
 20
1806.245878730052
 30
0.0
 40
9.499999999998031
100
AcDbArc
 50
300.0000000000007
 51
300.4271170899816
1001
REVIT
1002
{
1070
     3
1000
790271
1002
}
  0
ARC
  5
16B
330
13F
100
AcDbEntity
  8
M-PIPE
100
AcDbCircle
 10
871.166407443188
 20
1806.245878730052
 30
0.0
 40
9.499999999998102
100
AcDbArc
 50
291.9108373456102
 51
292.4999999999998
1001
REVIT
1002
{
1070
     3
1000
790271
1002
}
  0
ARC
  5
16C
330
13F
100
AcDbEntity
  8
M-PIPE
100
AcDbCircle
 10
871.166407443188
 20
1806.245878730052
 30
0.0
 40
9.499999999998042
100
AcDbArc
 50
283.4026336476017
 51
285.0000000000001
1001
REVIT
1002
{
1070
     3
1000
790271
1002
}
  0
ARC
  5
16D
330
13F
100
AcDbEntity
  8
M-PIPE
100
AcDbCircle
 10
871.166407443188
 20
1806.245878730052
 30
0.0
 40
9.49999999999801
100
AcDbArc
 50
257.8231928880642
 51
277.5000000000001
1001
REVIT
1002
{
1070
     3
1000
790271
1002
}
  0
ARC
  5
16E
330
13F
100
AcDbEntity
  8
M-PIPE
100
AcDbCircle
 10
871.166407443188
 20
1806.245878730052
 30
0.0
 40
9.500000000000012
100
AcDbArc
 50
0.0000000000013713
 51
102.15319746901
1001
REVIT
1002
{
1070
     3
1000
790271
1002
}
  0
ARC
  5
16F
330
13F
100
AcDbEntity
  8
M-PIPE
100
AcDbCircle
 10
871.166407443188
 20
1806.245878730052
 30
0.0
 40
9.499999999998204
100
AcDbArc
 50
257.8468025309911
 51
0.0000000000010305
1001
REVIT
1002
{
1070
     3
1000
790271
1002
}
  0
ARC
  5
170
330
13F
100
AcDbEntity
  8
M-PIPE
100
AcDbCircle
 10
871.166407443188
 20
1806.245878730052
 30
0.0
 40
8.499999999998101
100
AcDbArc
 50
94.97488057821987
 51
97.52062912120786
1001
REVIT
1002
{
1070
     3
1000
790271
1002
}
  0
ARC
  5
171
330
13F
100
AcDbEntity
  8
M-PIPE
100
AcDbCircle
 10
871.166407443188
 20
1806.245878730052
 30
0.0
 40
8.499999999998511
100
AcDbArc
 50
82.4779238457045
 51
90.00121649462819
1001
REVIT
1002
{
1070
     3
1000
790271
1002
}
  0
ARC
  5
172
330
13F
100
AcDbEntity
  8
M-PIPE
100
AcDbCircle
 10
871.166407443188
 20
1806.245878730052
 30
0.0
 40
8.499999999998205
100
AcDbArc
 50
74.9595298751204
 51
77.70672047308735
1001
REVIT
1002
{
1070
     3
1000
790271
1002
}
  0
ARC
  5
173
330
13F
100
AcDbEntity
  8
M-PIPE
100
AcDbCircle
 10
871.166407443188
 20
1806.245878730052
 30
0.0
 40
8.499999999998076
100
AcDbArc
 50
67.45584095842255
 51
69.07264042052384
1001
REVIT
1002
{
1070
     3
1000
790271
1002
}
  0
ARC
  5
174
330
13F
100
AcDbEntity
  8
M-PIPE
100
AcDbCircle
 10
871.166407443188
 20
1806.245878730052
 30
0.0
 40
8.499999999998166
100
AcDbArc
 50
59.9796464244622
 51
60.43856036795931
1001
REVIT
1002
{
1070
     3
1000
790271
1002
}
  0
ARC
  5
175
330
13F
100
AcDbEntity
  8
M-PIPE
100
AcDbCircle
 10
871.166407443188
 20
1806.245878730052
 30
0.0
 40
8.499999999998134
100
AcDbArc
 50
51.80448031539307
 51
52.46662808728813
1001
REVIT
1002
{
1070
     3
1000
790271
1002
}
  0
ARC
  5
176
330
13F
100
AcDbEntity
  8
M-PIPE
100
AcDbCircle
 10
871.166407443188
 20
1806.245878730052
 30
0.0
 40
8.499999999998207
100
AcDbArc
 50
43.17040026282917
 51
44.89879939139412
1001
REVIT
1002
{
1070
     3
1000
790271
1002
}
  0
ARC
  5
177
330
13F
100
AcDbEntity
  8
M-PIPE
100
AcDbCircle
 10
871.166407443188
 20
1806.245878730052
 30
0.0
 40
8.499999999998204
100
AcDbArc
 50
34.53632021026369
 51
37.61703247546333
1001
REVIT
1002
{
1070
     3
1000
790271
1002
}
  0
ARC
  5
178
330
13F
100
AcDbEntity
  8
M-PIPE
100
AcDbCircle
 10
871.166407443188
 20
1806.245878730052
 30
0.0
 40
8.499999999998166
100
AcDbArc
 50
22.56230973207856
 51
30.0943234329234
1001
REVIT
1002
{
1070
     3
1000
790271
1002
}
  0
ARC
  5
179
330
13F
100
AcDbEntity
  8
M-PIPE
100
AcDbCircle
 10
871.166407443188
 20
1806.245878730052
 30
0.0
 40
8.499999999998122
100
AcDbArc
 50
15.03049044720197
 51
17.26816010513229
1001
REVIT
1002
{
1070
     3
1000
790271
1002
}
  0
ARC
  5
17A
330
13F
100
AcDbEntity
  8
M-PIPE
100
AcDbCircle
 10
871.166407443188
 20
1806.245878730052
 30
0.0
 40
8.499999999998095
100
AcDbArc
 50
7.506979626422443
 51
8.634080052567098
1001
REVIT
1002
{
1070
     3
1000
790271
1002
}
  0
SPLINE
  5
17B
330
13F
100
AcDbEntity
  8
M-PIPE
100
AcDbSpline
210
0.0
220
0.0
230
1.0
 70
     8
 71
     3
 72
     8
 73
     4
 74
     0
 42
0.000000001
 43
0.0000000001
 40
0.0
 40
0.0
 40
0.0
 40
0.0
 40
0.0759574366975053
 40
0.0759574366975053
 40
0.0759574366975053
 40
0.0759574366975053
 10
869.1664074431868
 20
1814.507234550979
 30
0.0
 10
869.0968147779878
 20
1814.490386792159
 30
0.0
 10
869.027633890594
 20
1814.47270616444
 30
0.0
 10
868.958880574859
 20
1814.454213721313
 30
0.0
1001
REVIT
1002
{
1070
     3
1000
790271
1002
}
  0
SPLINE
  5
17C
330
13F
100
AcDbEntity
  8
M-PIPE
100
AcDbSpline
210
0.0
220
0.0
230
1.0
 70
     8
 71
     3
 72
     8
 73
     4
 74
     0
 42
0.000000001
 43
0.0000000001
 40
0.4758915649738055
 40
0.4758915649738055
 40
0.4758915649738055
 40
0.4758915649738055
 40
0.5
 40
0.5
 40
0.5
 40
0.5
 10
867.9107382349348
 20
1814.097668114729
 30
0.0
 10
867.8904843929176
 20
1814.089270634832
 30
0.0
 10
867.8702291416149
 20
1814.080862393732
 30
0.0
 10
867.8501315651196
 20
1814.07226450514
 30
0.0
1001
REVIT
1002
{
1070
     3
1000
790271
1002
}
  0
SPLINE
  5
17D
330
13F
100
AcDbEntity
  8
M-PIPE
100
AcDbSpline
210
0.0
220
0.0
230
1.0
 70
     8
 71
     3
 72
     8
 73
     4
 74
     0
 42
0.000000001
 43
0.0000000001
 40
0.894401070583304
 40
0.894401070583304
 40
0.894401070583304
 40
0.894401070583304
 40
1.0
 40
1.0
 40
1.0
 40
1.0
 10
866.9043532930679
 20
1813.600116801431
 30
0.0
 10
866.8239273584898
 20
1813.55350939589
 30
0.0
 10
866.7446027474071
 20
1813.505778100396
 30
0.0
 10
866.6664074431867
 20
1813.456981280977
 30
0.0
1001
REVIT
1002
{
1070
     3
1000
790271
1002
}
  0
SPLINE
  5
17E
330
13F
100
AcDbEntity
  8
M-PIPE
100
AcDbSpline
210
0.0
220
0.0
230
1.0
 70
     8
 71
     3
 72
     8
 73
     4
 74
     0
 42
0.000000001
 43
0.0000000001
 40
0.1206406404845597
 40
0.1206406404845597
 40
0.1206406404845597
 40
0.1206406404845597
 40
0.125
 40
0.125
 40
0.125
 40
0.125
 10
865.9924912962733
 20
1812.989698396039
 30
0.0
 10
865.9846452656161
 20
1812.98367834114
 30
0.0
 10
865.9768095580616
 20
1812.977644545713
 30
0.0
 10
865.9689842322176
 20
1812.971597052596
 30
0.0
1001
REVIT
1002
{
1070
     3
1000
790271
1002
}
  0
SPLINE
  5
17F
330
13F
100
AcDbEntity
  8
M-PIPE
100
AcDbSpline
210
0.0
220
0.0
230
1.0
 70
     8
 71
     3
 72
     8
 73
     4
 74
     0
 42
0.000000001
 43
0.0000000001
 40
0.25
 40
0.25
 40
0.25
 40
0.25
 40
0.2830026665502309
 40
0.2830026665502309
 40
0.2830026665502309
 40
0.2830026665502309
 10
865.3228245868714
 20
1812.418604173592
 30
0.0
 10
865.2684522998024
 20
1812.367142981566
 30
0.0
 10
865.2147721679252
 20
1812.314966666846
 30
0.0
 10
865.1617919925106
 20
1812.262087230251
 30
0.0
1001
REVIT
1002
{
1070
     3
1000
790271
1002
}
  0
SPLINE
  5
180
330
13F
100
AcDbEntity
  8
M-PIPE
100
AcDbSpline
210
0.0
220
0.0
230
1.0
 70
     8
 71
     3
 72
     9
 73
     5
 74
     0
 42
0.000000001
 43
0.0000000001
 40
0.375
 40
0.375
 40
0.375
 40
0.375
 40
0.4375
 40
0.5
 40
0.5
 40
0.5
 40
0.5
 10
864.7352198632264
 20
1811.803740397214
 30
0.0
 10
864.6424067973889
 20
1811.696341033602
 30
0.0
 10
864.4619260820388
 20
1811.476753351061
 30
0.0
 10
864.2918524299169
 20
1811.246748216028
 30
0.0
 10
864.2093357996795
 20
1811.129438307558
 30
0.0
1001
REVIT
1002
{
1070
     3
1000
790271
1002
}
  0
SPLINE
  5
181
330
13F
100
AcDbEntity
  8
M-PIPE
100
AcDbSpline
210
0.0
220
0.0
230
1.0
 70
     8
 71
     3
 72
     8
 73
     4
 74
     0
 42
0.000000001
 43
0.0000000001
 40
0.6082676482857309
 40
0.6082676482857309
 40
0.6082676482857309
 40
0.6082676482857309
 40
0.625
 40
0.625
 40
0.625
 40
0.625
 10
863.8069071647139
 20
1810.498849583289
 30
0.0
 10
863.7875469525086
 20
1810.465347540683
 30
0.0
 10
863.7685129114723
 20
1810.431634850257
 30
0.0
 10
863.749474317556
 20
1810.397878610817
 30
0.0
1001
REVIT
1002
{
1070
     3
1000
790271
1002
}
  0
SPLINE
  5
182
330
13F
100
AcDbEntity
  8
M-PIPE
100
AcDbSpline
210
0.0
220
0.0
230
1.0
 70
     8
 71
     3
 72
     8
 73
     4
 74
     0
 42
0.000000001
 43
0.0000000001
 40
0.75
 40
0.75
 40
0.75
 40
0.75
 40
0.767570473040245
 40
0.767570473040245
 40
0.767570473040245
 40
0.767570473040245
 10
863.3626563145647
 20
1809.615072746798
 30
0.0
 10
863.3463364963985
 20
1809.577264891617
 30
0.0
 10
863.3308041632146
 20
1809.539077765604
 30
0.0
 10
863.3159512160187
 20
1809.500563191019
 30
0.0
1001
REVIT
1002
{
1070
     3
1000
790271
1002
}
  0
SPLINE
  5
183
330
13F
100
AcDbEntity
  8
M-PIPE
100
AcDbSpline
210
0.0
220
0.0
230
1.0
 70
     8
 71
     3
 72
     8
 73
     4
 74
     0
 42
0.000000001
 43
0.0000000001
 40
0.875
 40
0.875
 40
0.875
 40
0.875
 40
0.9242035452006389
 40
0.9242035452006389
 40
0.9242035452006389
 40
0.9242035452006389
 10
863.0550254155968
 20
1808.786418912629
 30
0.0
 10
863.0201358321924
 20
1808.675032308746
 30
0.0
 10
862.9902711539578
 20
1808.561689055428
 30
0.0
 10
862.9621699095958
 20
1808.447642481486
 30
0.0
1001
REVIT
1002
{
1070
     3
1000
790271
1002
}
  0
SPLINE
  5
184
330
13F
100
AcDbEntity
  8
M-PIPE
100
AcDbSpline
210
0.0
220
0.0
230
1.0
 70
     8
 71
     3
 72
     8
 73
     4
 74
     0
 42
0.000000001
 43
0.0000000001
 40
0.3400946198854951
 40
0.3400946198854951
 40
0.3400946198854951
 40
0.3400946198854951
 40
0.5
 40
0.5
 40
0.5
 40
0.5
 10
862.7393722848102
 20
1807.357208005906
 30
0.0
 10
862.7276506440061
 20
1807.268328924493
 30
0.0
 10
862.7162424292109
 20
1807.179297266102
 30
0.0
 10
862.7084044202762
 20
1807.089789189982
 30
0.0
1001
REVIT
1002
{
1070
     3
1000
790271
1002
}
  0
SPLINE
  5
185
330
13F
100
AcDbEntity
  8
M-PIPE
100
AcDbSpline
210
0.0
220
0.0
230
1.0
 70
     8
 71
     3
 72
     8
 73
     4
 74
     0
 42
0.000000001
 43
0.0000000001
 40
0.5
 40
0.5
 40
0.5
 40
0.5
 40
0.659905380114556
 40
0.659905380114556
 40
0.659905380114556
 40
0.659905380114556
 10
862.7084044202762
 20
1805.401968270122
 30
0.0
 10
862.7173229826937
 20
1805.312582462976
 30
0.0
 10
862.7295251110728
 20
1805.223864587563
 30
0.0
 10
862.7431972617978
 20
1805.135439247735
 30
0.0
1001
REVIT
1002
{
1070
     3
1000
790271
1002
}
  0
SPLINE
  5
186
330
13F
100
AcDbEntity
  8
M-PIPE
100
AcDbSpline
210
0.0
220
0.0
230
1.0
 70
     8
 71
     3
 72
     8
 73
     4
 74
     0
 42
0.000000001
 43
0.0000000001
 40
0.0757964547993671
 40
0.0757964547993671
 40
0.0757964547993671
 40
0.0757964547993671
 40
0.125
 40
0.125
 40
0.125
 40
0.125
 10
862.9570551432971
 20
1804.042310767766
 30
0.0
 10
862.9874655870363
 20
1803.929067680252
 30
0.0
 10
863.0201530811737
 20
1803.816709602682
 30
0.0
 10
863.0550493905719
 20
1803.705324272751
 30
0.0
1001
REVIT
1002
{
1070
     3
1000
790271
1002
}
  0
SPLINE
  5
187
330
13F
100
AcDbEntity
  8
M-PIPE
100
AcDbSpline
210
0.0
220
0.0
230
1.0
 70
     8
 71
     3
 72
     8
 73
     4
 74
     0
 42
0.000000001
 43
0.0000000001
 40
0.2324295269597614
 40
0.2324295269597614
 40
0.2324295269597614
 40
0.2324295269597614
 40
0.25
 40
0.25
 40
0.25
 40
0.25
 10
863.314490137197
 20
1802.990551908449
 30
0.0
 10
863.3302829545918
 20
1802.95244554414
 30
0.0
 10
863.3463401763341
 20
1802.914489246982
 30
0.0
 10
863.3626563145647
 20
1802.876684713306
 30
0.0
1001
REVIT
1002
{
1070
     3
1000
790271
1002
}
  0
SPLINE
  5
188
330
13F
100
AcDbEntity
  8
M-PIPE
100
AcDbSpline
210
0.0
220
0.0
230
1.0
 70
     8
 71
     3
 72
     8
 73
     4
 74
     0
 42
0.000000001
 43
0.0000000001
 40
0.375
 40
0.375
 40
0.375
 40
0.375
 40
0.3917323517142836
 40
0.3917323517142836
 40
0.3917323517142836
 40
0.3917323517142836
 10
863.7494743175562
 20
1802.093878849287
 30
0.0
 10
863.7684104142019
 20
1802.060055120294
 30
0.0
 10
863.7875700060966
 20
1802.02638899191
 30
0.0
 10
863.8069484223292
 20
1801.992880703889
 30
0.0
1001
REVIT
1002
{
1070
     3
1000
790271
1002
}
  0
SPLINE
  5
189
330
13F
100
AcDbEntity
  8
M-PIPE
100
AcDbSpline
210
0.0
220
0.0
230
1.0
 70
     8
 71
     3
 72
     9
 73
     5
 74
     0
 42
0.000000001
 43
0.0000000001
 40
0.5
 40
0.5
 40
0.5
 40
0.5
 40
0.5625
 40
0.625
 40
0.625
 40
0.625
 40
0.625
 10
864.2093357996797
 20
1801.362319152545
 30
0.0
 10
864.2917079230155
 20
1801.244972381392
 30
0.0
 10
864.461557819448
 20
1801.014500278528
 30
0.0
 10
864.6432878294714
 20
1800.796460950212
 30
0.0
 10
864.7352198632264
 20
1800.68801706289
 30
0.0
1001
REVIT
1002
{
1070
     3
1000
790271
1002
}
  0
SPLINE
  5
18A
330
13F
100
AcDbEntity
  8
M-PIPE
100
AcDbSpline
210
0.0
220
0.0
230
1.0
 70
     8
 71
     3
 72
     8
 73
     4
 74
     0
 42
0.000000001
 43
0.0000000001
 40
0.7169973334497777
 40
0.7169973334497777
 40
0.7169973334497777
 40
0.7169973334497777
 40
0.75
 40
0.75
 40
0.75
 40
0.75
 10
865.1617861085314
 20
1800.229668999905
 30
0.0
 10
865.2147692288155
 20
1800.176790636269
 30
0.0
 10
865.2679258293096
 20
1800.123921120228
 30
0.0
 10
865.3228245868714
 20
1800.073153286511
 30
0.0
1001
REVIT
1002
{
1070
     3
1000
790271
1002
}
  0
SPLINE
  5
18B
330
13F
100
AcDbEntity
  8
M-PIPE
100
AcDbSpline
210
0.0
220
0.0
230
1.0
 70
     8
 71
     3
 72
     8
 73
     4
 74
     0
 42
0.000000001
 43
0.0000000001
 40
0.875
 40
0.875
 40
0.875
 40
0.875
 40
0.8793593595154391
 40
0.8793593595154391
 40
0.8793593595154391
 40
0.8793593595154391
 10
865.9689853223957
 20
1799.520158886624
 30
0.0
 10
865.976810615048
 20
1799.514111396213
 30
0.0
 10
865.9846647111123
 20
1799.508105314654
 30
0.0
 10
865.9925456267648
 20
1799.50213778708
 30
0.0
1001
REVIT
1002
{
1070
     3
1000
790271
1002
}
  0
SPLINE
  5
18C
330
13F
100
AcDbEntity
  8
M-PIPE
100
AcDbSpline
210
0.0
220
0.0
230
1.0
 70
     8
 71
     3
 72
     8
 73
     4
 74
     0
 42
0.000000001
 43
0.0000000001
 40
0.0
 40
0.0
 40
0.0
 40
0.0
 40
0.1055989294166395
 40
0.1055989294166395
 40
0.1055989294166395
 40
0.1055989294166395
 10
866.6664074431867
 20
1799.034776179127
 30
0.0
 10
866.7446027474071
 20
1798.985979359708
 30
0.0
 10
866.8239273584896
 20
1798.938248064214
 30
0.0
 10
866.9043532930677
 20
1798.891640658673
 30
0.0
1001
REVIT
1002
{
1070
     3
1000
790271
1002
}
  0
SPLINE
  5
18D
330
13F
100
AcDbEntity
  8
M-PIPE
100
AcDbSpline
210
0.0
220
0.0
230
1.0
 70
     8
 71
     3
 72
     8
 73
     4
 74
     0
 42
0.000000001
 43
0.0000000001
 40
0.5
 40
0.5
 40
0.5
 40
0.5
 40
0.524108435026259
 40
0.524108435026259
 40
0.524108435026259
 40
0.524108435026259
 10
867.8501315651196
 20
1798.419492954963
 30
0.0
 10
867.8702820013153
 20
1798.410954919522
 30
0.0
 10
867.8905728444847
 20
1798.402633891656
 30
0.0
 10
867.9109907950634
 20
1798.394509271284
 30
0.0
1001
REVIT
1002
{
1070
     3
1000
790271
1002
}
  0
SPLINE
  5
18E
330
13F
100
AcDbEntity
  8
M-PIPE
100
AcDbSpline
210
0.0
220
0.0
230
1.0
 70
     8
 71
     3
 72
     8
 73
     4
 74
     0
 42
0.000000001
 43
0.0000000001
 40
0.9240425633024946
 40
0.9240425633024946
 40
0.9240425633024946
 40
0.9240425633024946
 40
1.0
 40
1.0
 40
1.0
 40
1.0
 10
868.958880574859
 20
1798.037543738791
 30
0.0
 10
869.027633890594
 20
1798.019051295664
 30
0.0
 10
869.0968147779878
 20
1798.001370667945
 30
0.0
 10
869.1664074431868
 20
1797.984522909125
 30
0.0
1001
REVIT
1002
{
1070
     3
1000
790271
1002
}
  0
ARC
  5
18F
330
13F
100
AcDbEntity
  8
M-PIPE
100
AcDbCircle
 10
871.166407443188
 20
1806.245878730052
 30
0.0
 40
8.499999999998207
100
AcDbArc
 50
351.3659199474352
 51
352.4930203735768
1001
REVIT
1002
{
1070
     3
1000
790271
1002
}
  0
ARC
  5
190
330
13F
100
AcDbEntity
  8
M-PIPE
100
AcDbCircle
 10
871.166407443188
 20
1806.245878730052
 30
0.0
 40
8.499999999998122
100
AcDbArc
 50
342.7318398948702
 51
344.9695095527987
1001
REVIT
1002
{
1070
     3
1000
790271
1002
}
  0
ARC
  5
191
330
13F
100
AcDbEntity
  8
M-PIPE
100
AcDbCircle
 10
871.166407443188
 20
1806.245878730052
 30
0.0
 40
8.499999999998044
100
AcDbArc
 50
329.9056765670758
 51
337.4376902679204
1001
REVIT
1002
{
1070
     3
1000
790271
1002
}
  0
ARC
  5
192
330
13F
100
AcDbEntity
  8
M-PIPE
100
AcDbCircle
 10
871.166407443188
 20
1806.245878730052
 30
0.0
 40
8.499999999998081
100
AcDbArc
 50
322.3829675245358
 51
325.4636797897394
1001
REVIT
1002
{
1070
     3
1000
790271
1002
}
  0
ARC
  5
193
330
13F
100
AcDbEntity
  8
M-PIPE
100
AcDbCircle
 10
871.166407443188
 20
1806.245878730052
 30
0.0
 40
8.499999999998099
100
AcDbArc
 50
315.1012006086058
 51
316.9055127779694
1001
REVIT
1002
{
1070
     3
1000
790271
1002
}
  0
ARC
  5
194
330
13F
100
AcDbEntity
  8
M-PIPE
100
AcDbCircle
 10
871.166407443188
 20
1806.245878730052
 30
0.0
 40
8.499999999998101
100
AcDbArc
 50
307.5333719127143
 51
308.1955196846078
1001
REVIT
1002
{
1070
     3
1000
790271
1002
}
  0
ARC
  5
195
330
13F
100
AcDbEntity
  8
M-PIPE
100
AcDbCircle
 10
871.166407443188
 20
1806.245878730052
 30
0.0
 40
8.499999999998109
100
AcDbArc
 50
299.5614396320421
 51
300.0203535755372
1001
REVIT
1002
{
1070
     3
1000
790271
1002
}
  0
ARC
  5
196
330
13F
100
AcDbEntity
  8
M-PIPE
100
AcDbCircle
 10
871.166407443188
 20
1806.245878730052
 30
0.0
 40
8.499999999998065
100
AcDbArc
 50
290.927359579477
 51
292.5441590415783
1001
REVIT
1002
{
1070
     3
1000
790271
1002
}
  0
ARC
  5
197
330
13F
100
AcDbEntity
  8
M-PIPE
100
AcDbCircle
 10
871.166407443188
 20
1806.245878730052
 30
0.0
 40
8.499999999998106
100
AcDbArc
 50
282.2932795269133
 51
285.0404701248818
1001
REVIT
1002
{
1070
     3
1000
790271
1002
}
  0
ARC
  5
198
330
13F
100
AcDbEntity
  8
M-PIPE
100
AcDbCircle
 10
871.166407443188
 20
1806.245878730052
 30
0.0
 40
8.499999999998035
100
AcDbArc
 50
269.9987835053733
 51
277.5220761542986
1001
REVIT
1002
{
1070
     3
1000
790271
1002
}
  0
ARC
  5
199
330
13F
100
AcDbEntity
  8
M-PIPE
100
AcDbCircle
 10
871.166407443188
 20
1806.245878730052
 30
0.0
 40
8.499999999998077
100
AcDbArc
 50
262.4793708787933
 51
265.0251194217806
1001
REVIT
1002
{
1070
     3
1000
790271
1002
}
  0
ARC
  5
19A
330
13F
100
AcDbEntity
  8
M-PIPE
100
AcDbCircle
 10
871.1664074431881
 20
1806.245878730052
 30
0.0
 40
8.499999999998252
100
AcDbArc
 50
359.9999999999988
 51
180.0000000000007
1001
REVIT
1002
{
1070
     3
1000
790271
1002
}
  0
ARC
  5
19B
330
13F
100
AcDbEntity
  8
M-PIPE
100
AcDbCircle
 10
871.1664074431881
 20
1806.245878730052
 30
0.0
 40
8.499999999998168
100
AcDbArc
 50
180.0000000000019
 51
0.0000000000003562
1001
REVIT
1002
{
1070
     3
1000
790271
1002
}
  0
ARC
  5
19C
330
13F
100
AcDbEntity
  8
M-PIPE
100
AcDbCircle
 10
815.666407443188
 20
1806.245878730052
 30
0.0
 40
10.99999999999976
100
AcDbArc
 50
149.753443066713
 51
180.0000000000003
1001
REVIT
1002
{
1070
     3
1000
790271
1002
}
  0
ARC
  5
19D
330
13F
100
AcDbEntity
  8
M-PIPE
100
AcDbCircle
 10
815.666407443188
 20
1806.245878730052
 30
0.0
 40
10.9999999999999
100
AcDbArc
 50
180.0
 51
210.2465569332871
1001
REVIT
1002
{
1070
     3
1000
790271
1002
}
  0
LINE
  5
19E
330
13F
100
AcDbEntity
  8
M-PIPE
100
AcDbLine
 10
869.1664074431866
 20
1814.507234550979
 30
0.0
 11
869.1664074431866
 21
1816.730612174771
 31
0.0
1001
REVIT
1002
{
1070
     3
1000
790271
1002
}
  0
LINE
  5
19F
330
13F
100
AcDbEntity
  8
M-PIPE
100
AcDbLine
 10
869.1664074431868
 20
1795.761145285333
 30
0.0
 11
869.1664074431868
 21
1797.984522909125
 31
0.0
1001
REVIT
1002
{
1070
     3
1000
790271
1002
}
  0
LINE
  5
1A0
330
13F
100
AcDbEntity
  8
M-PIPE
100
AcDbLine
 10
866.6664074431867
 20
1819.245878730052
 30
0.0
 11
866.6664074431867
 21
1813.456981280977
 31
0.0
1001
REVIT
1002
{
1070
     3
1000
790271
1002
}
  0
LINE
  5
1A1
330
13F
100
AcDbEntity
  8
M-PIPE
100
AcDbLine
 10
866.6664074431883
 20
1799.034776179127
 30
0.0
 11
866.6664074431883
 21
1793.245878730052
 31
0.0
1001
REVIT
1002
{
1070
     3
1000
790271
1002
}
  0
LINE
  5
1A2
330
13F
100
AcDbEntity
  8
M-PIPE
100
AcDbLine
 10
862.8329342547603
 20
1819.245878730052
 30
0.0
 11
862.8329342547605
 21
1807.920162044698
 31
0.0
1001
REVIT
1002
{
1070
     3
1000
790271
1002
}
  0
LINE
  5
1A3
330
13F
100
AcDbEntity
  8
M-PIPE
100
AcDbLine
 10
862.8329342547591
 20
1804.571595415406
 30
0.0
 11
862.8329342547591
 21
1793.245878730052
 31
0.0
1001
REVIT
1002
{
1070
     3
1000
790271
1002
}
  0
SPLINE
  5
1A4
330
13F
100
AcDbEntity
  8
M-PIPE
100
AcDbSpline
210
0.0
220
0.0
230
1.0
 70
     8
 71
     3
 72
     8
 73
     4
 74
     0
 42
0.000000001
 43
0.0000000001
 40
0.0
 40
0.0
 40
0.0
 40
0.0
 40
0.0111593580468699
 40
0.0111593580468699
 40
0.0111593580468699
 40
0.0111593580468699
 10
862.8329342547587
 20
1815.954122649526
 30
0.0
 10
862.8328761265475
 20
1815.949312095625
 30
0.0
 10
862.8327221567207
 20
1815.944484519137
 30
0.0
 10
862.8324726655595
 20
1815.939640501745
 30
0.0
1001
REVIT
1002
{
1070
     3
1000
790271
1002
}
  0
SPLINE
  5
1A5
330
13F
100
AcDbEntity
  8
M-PIPE
100
AcDbSpline
210
0.0
220
0.0
230
1.0
 70
     8
 71
     3
 72
     8
 73
     4
 74
     0
 42
0.000000001
 43
0.0000000001
 40
0.9888406419533517
 40
0.9888406419533517
 40
0.9888406419533517
 40
0.9888406419533517
 40
1.0
 40
1.0
 40
1.0
 40
1.0
 10
862.8324693849194
 20
1796.552123579458
 30
0.0
 10
862.8327210305254
 20
1796.547275214425
 30
0.0
 10
862.8328761265475
 20
1796.542445364479
 30
0.0
 10
862.8329342547587
 20
1796.537634810578
 30
0.0
1001
REVIT
1002
{
1070
     3
1000
790271
1002
}
  0
LINE
  5
1A6
330
13F
100
AcDbEntity
  8
M-PIPE
100
AcDbLine
 10
810.166407443188
 20
1817.745878730052
 30
0.0
 11
810.166407443188
 21
1806.245878730052
 31
0.0
1001
REVIT
1002
{
1070
     3
1000
790271
1002
}
  0
LINE
  5
1A7
330
13F
100
AcDbEntity
  8
M-PIPE
100
AcDbLine
 10
810.166407443188
 20
1806.245878730052
 30
0.0
 11
810.1664074431882
 21
1794.745878730052
 31
0.0
1001
REVIT
1002
{
1070
     3
1000
790271
1002
}
  0
LINE
  5
1A8
330
13F
100
AcDbEntity
  8
M-PIPE
100
AcDbLine
 10
808.666407443188
 20
1819.245878730052
 30
0.0
 11
808.6664074431881
 21
1806.245878730052
 31
0.0
1001
REVIT
1002
{
1070
     3
1000
790271
1002
}
  0
SPLINE
  5
1A9
330
13F
100
AcDbEntity
  8
M-PIPE
100
AcDbSpline
210
0.0
220
0.0
230
1.0
 70
     8
 71
     3
 72
     8
 73
     4
 74
     0
 42
0.000000001
 43
0.0000000001
 40
0.9261016029270564
 40
0.9261016029270564
 40
0.9261016029270564
 40
0.9261016029270564
 40
1.0
 40
1.0
 40
1.0
 40
1.0
 10
806.1791071800824
 20
1795.436320952599
 30
0.0
 10
806.1710110413597
 20
1795.38752993036
 30
0.0
 10
806.1667563680401
 20
1795.339161803291
 30
0.0
 10
806.1664074431881
 20
1795.291427579948
 30
0.0
1001
REVIT
1002
{
1070
     3
1000
790271
1002
}
  0
LINE
  5
1AA
330
13F
100
AcDbEntity
  8
M-PIPE
100
AcDbLine
 10
808.666407443188
 20
1806.245878730052
 30
0.0
 11
808.6664074431881
 21
1793.245878730052
 31
0.0
1001
REVIT
1002
{
1070
     3
1000
790271
1002
}
  0
LINE
  5
1AB
330
13F
100
AcDbEntity
  8
M-PIPE
100
AcDbLine
 10
806.1664074431881
 20
1806.245878730052
 30
0.0
 11
806.1664074431881
 21
1793.245878730052
 31
0.0
1001
REVIT
1002
{
1070
     3
1000
790271
1002
}
  0
LINE
  5
1AC
330
13F
100
AcDbEntity
  8
M-PIPE
100
AcDbLine
 10
806.1664074431881
 20
1819.245878730052
 30
0.0
 11
806.1664074431881
 21
1806.245878730052
 31
0.0
1001
REVIT
1002
{
1070
     3
1000
790271
1002
}
  0
LINE
  5
1AD
330
13F
100
AcDbEntity
  8
M-PIPE
100
AcDbLine
 10
845.1664074431883
 20
1787.945878730052
 30
0.0
 11
835.1664074431882
 21
1787.945878730052
 31
0.0
1001
REVIT
1002
{
1070
     3
1000
790271
1002
}
  0
LINE
  5
1AE
330
13F
100
AcDbEntity
  8
M-PIPE
100
AcDbLine
 10
835.166407443188
 20
1824.545878730052
 30
0.0
 11
845.1664074431882
 21
1824.545878730052
 31
0.0
1001
REVIT
1002
{
1070
     3
1000
790271
1002
}
  0
LINE
  5
1AF
330
13F
100
AcDbEntity
  8
M-PIPE
100
AcDbLine
 10
845.1664074431883
 20
1787.945878730052
 30
0.0
 11
845.1664074431883
 21
1793.245878730052
 31
0.0
1001
REVIT
1002
{
1070
     3
1000
790271
1002
}
  0
LINE
  5
1B0
330
13F
100
AcDbEntity
  8
M-PIPE
100
AcDbLine
 10
845.1664074431882
 20
1819.245878730052
 30
0.0
 11
845.166407443188
 21
1824.545878730052
 31
0.0
1001
REVIT
1002
{
1070
     3
1000
790271
1002
}
  0
LINE
  5
1B1
330
13F
100
AcDbEntity
  8
M-PIPE
100
AcDbLine
 10
835.1664074431882
 20
1793.245878730052
 30
0.0
 11
835.1664074431882
 21
1787.945878730052
 31
0.0
1001
REVIT
1002
{
1070
     3
1000
790271
1002
}
  0
LINE
  5
1B2
330
13F
100
AcDbEntity
  8
M-PIPE
100
AcDbLine
 10
835.166407443188
 20
1824.545878730052
 30
0.0
 11
835.166407443188
 21
1819.245878730052
 31
0.0
1001
REVIT
1002
{
1070
     3
1000
790271
1002
}
  0
LINE
  5
1B3
330
13F
100
AcDbEntity
  8
M-PIPE
100
AcDbLine
 10
810.6664074431881
 20
1793.245878730052
 30
0.0
 11
808.6664074431881
 21
1793.245878730052
 31
0.0
1001
REVIT
1002
{
1070
     3
1000
790271
1002
}
  0
LINE
  5
1B4
330
13F
100
AcDbEntity
  8
M-PIPE
100
AcDbLine
 10
810.6664074431881
 20
1793.245878730052
 30
0.0
 11
835.1664074431882
 21
1793.245878730052
 31
0.0
1001
REVIT
1002
{
1070
     3
1000
790271
1002
}
  0
LINE
  5
1B5
330
13F
100
AcDbEntity
  8
M-PIPE
100
AcDbLine
 10
862.8329342547605
 20
1793.245878730052
 30
0.0
 11
860.8329342547605
 21
1793.245878730052
 31
0.0
1001
REVIT
1002
{
1070
     3
1000
790271
1002
}
  0
LINE
  5
1B6
330
13F
100
AcDbEntity
  8
M-PIPE
100
AcDbLine
 10
845.1664074431883
 20
1793.245878730052
 30
0.0
 11
860.8329342547605
 21
1793.245878730052
 31
0.0
1001
REVIT
1002
{
1070
     3
1000
790271
1002
}
  0
LINE
  5
1B7
330
13F
100
AcDbEntity
  8
M-PIPE
100
AcDbLine
 10
860.8329342547603
 20
1819.245878730052
 30
0.0
 11
862.8329342547603
 21
1819.245878730052
 31
0.0
1001
REVIT
1002
{
1070
     3
1000
790271
1002
}
  0
LINE
  5
1B8
330
13F
100
AcDbEntity
  8
M-PIPE
100
AcDbLine
 10
860.8329342547603
 20
1819.245878730052
 30
0.0
 11
845.1664074431882
 21
1819.245878730052
 31
0.0
1001
REVIT
1002
{
1070
     3
1000
790271
1002
}
  0
LINE
  5
1B9
330
13F
100
AcDbEntity
  8
M-PIPE
100
AcDbLine
 10
808.666407443188
 20
1819.245878730052
 30
0.0
 11
810.6664074431879
 21
1819.245878730052
 31
0.0
1001
REVIT
1002
{
1070
     3
1000
790271
1002
}
  0
LINE
  5
1BA
330
13F
100
AcDbEntity
  8
M-PIPE
100
AcDbLine
 10
835.166407443188
 20
1819.245878730052
 30
0.0
 11
810.6664074431879
 21
1819.245878730052
 31
0.0
1001
REVIT
1002
{
1070
     3
1000
790271
1002
}
  0
LINE
  5
1BB
330
13F
100
AcDbEntity
  8
P-SANR-FIXT
100
AcDbLine
 10
780.0664074431749
 20
1800.145878730053
 30
0.0
 11
792.266407443175
 21
1800.145878730053
 31
0.0
  0
LINE
  5
1BC
330
13F
100
AcDbEntity
  8
P-SANR-FIXT
100
AcDbLine
 10
792.266407443175
 20
1800.145878730053
 30
0.0
 11
792.266407443175
 21
1812.345878730052
 31
0.0
  0
LINE
  5
1BD
330
13F
100
AcDbEntity
  8
P-SANR-FIXT
100
AcDbLine
 10
792.266407443175
 20
1812.345878730052
 30
0.0
 11
780.0664074431749
 21
1812.345878730052
 31
0.0
  0
LINE
  5
1BE
330
13F
100
AcDbEntity
  8
P-SANR-FIXT
100
AcDbLine
 10
780.0664074431749
 20
1812.345878730052
 30
0.0
 11
780.0664074431749
 21
1800.145878730053
 31
0.0
  0
ARC
  5
1BF
330
13F
100
AcDbEntity
  8
P-SANR-FIXT
100
AcDbCircle
 10
786.1664074431749
 20
1806.245878730052
 30
0.0
 40
15.89999999999998
100
AcDbArc
 50
180.0
 51
0.0
  0
ARC
  5
1C0
330
13F
100
AcDbEntity
  8
P-SANR-FIXT
100
AcDbCircle
 10
786.1664074431749
 20
1806.245878730052
 30
0.0
 40
15.89999999999995
100
AcDbArc
 50
0.0000000000002036
 51
180.0000000000002
  0
LINE
  5
1C1
330
13F
100
AcDbEntity
  8
P-SANR-FIXT
100
AcDbLine
 10
801.85018219039
 20
1803.745878730052
 30
0.0
 11
804.9721988736305
 21
1803.745878730052
 31
0.0
  0
LINE
  5
1C2
330
13F
100
AcDbEntity
  8
P-SANR-FIXT
100
AcDbLine
 10
804.9721988736305
 20
1808.745878730052
 30
0.0
 11
801.85018219039
 21
1808.745878730052
 31
0.0
  0
LINE
  5
1C3
330
13F
100
AcDbEntity
  8
P-SANR-FIXT
100
AcDbLine
 10
767.4664074431886
 20
1781.745878730053
 30
0.0
 11
776.9664074431891
 21
1781.745878730053
 31
0.0
  0
LINE
  5
1C4
330
13F
100
AcDbEntity
  8
P-SANR-FIXT
100
AcDbLine
 10
776.9664074431891
 20
1830.745878730054
 30
0.0
 11
767.4664074431886
 21
1830.745878730054
 31
0.0
  0
LINE
  5
1C5
330
13F
100
AcDbEntity
  8
P-SANR-FIXT
100
AcDbLine
 10
804.1664074431896
 20
1785.745878730053
 30
0.0
 11
879.866407443181
 21
1785.745878730053
 31
0.0
  0
LINE
  5
1C6
330
13F
100
AcDbEntity
  8
P-SANR-FIXT
100
AcDbLine
 10
879.866407443181
 20
1826.745878730053
 30
0.0
 11
804.1664074431896
 21
1826.745878730053
 31
0.0
  0
LINE
  5
1C7
330
13F
100
AcDbEntity
  8
P-SANR-FIXT
100
AcDbLine
 10
778.3664074431891
 20
1783.145878730053
 30
0.0
 11
801.5664074431894
 21
1783.145878730053
 31
0.0
  0
LINE
  5
1C8
330
13F
100
AcDbEntity
  8
P-SANR-FIXT
100
AcDbLine
 10
801.5664074431892
 20
1829.345878730054
 30
0.0
 11
778.3664074431891
 21
1829.345878730054
 31
0.0
  0
LINE
  5
1C9
330
13F
100
AcDbEntity
  8
P-SANR-FIXT
100
AcDbLine
 10
801.5664074431894
 20
1783.145878730053
 30
0.0
 11
804.1664074431896
 21
1785.745878730053
 31
0.0
  0
LINE
  5
1CA
330
13F
100
AcDbEntity
  8
P-SANR-FIXT
100
AcDbLine
 10
804.1664074431896
 20
1826.745878730053
 30
0.0
 11
801.5664074431894
 21
1829.345878730053
 31
0.0
  0
LINE
  5
1CB
330
13F
100
AcDbEntity
  8
P-SANR-FIXT
100
AcDbLine
 10
879.866407443181
 20
1785.745878730053
 30
0.0
 11
887.3954711394073
 21
1778.216815033827
 31
0.0
  0
LINE
  5
1CC
330
13F
100
AcDbEntity
  8
P-SANR-FIXT
100
AcDbLine
 10
887.3954711394073
 20
1834.274942426279
 30
0.0
 11
879.866407443181
 21
1826.745878730053
 31
0.0
  0
LINE
  5
1CD
330
13F
100
AcDbEntity
  8
P-SANR-FIXT
100
AcDbLine
 10
763.9373437469624
 20
1778.216815033827
 30
0.0
 11
767.4664074431886
 21
1781.745878730053
 31
0.0
  0
LINE
  5
1CE
330
13F
100
AcDbEntity
  8
P-SANR-FIXT
100
AcDbLine
 10
767.4664074431886
 20
1830.745878730053
 30
0.0
 11
763.9373437469624
 21
1834.274942426279
 31
0.0
  0
LINE
  5
1CF
330
13F
100
AcDbEntity
  8
P-SANR-FIXT
100
AcDbLine
 10
776.9664074431891
 20
1781.745878730053
 30
0.0
 11
777.0156954082564
 21
1781.79516669512
 31
0.0
  0
LINE
  5
1D0
330
13F
100
AcDbEntity
  8
P-SANR-FIXT
100
AcDbLine
 10
777.0351899313822
 20
1781.814661218246
 30
0.0
 11
778.3664074431891
 21
1783.145878730053
 31
0.0
  0
LINE
  5
1D1
330
13F
100
AcDbEntity
  8
P-SANR-FIXT
100
AcDbLine
 10
778.3664074431891
 20
1829.345878730053
 30
0.0
 11
777.0351899313822
 21
1830.67709624186
 31
0.0
  0
LINE
  5
1D2
330
13F
100
AcDbEntity
  8
P-SANR-FIXT
100
AcDbLine
 10
777.0156954082563
 20
1830.696590764986
 30
0.0
 11
776.9664074431891
 21
1830.745878730053
 31
0.0
  0
LINE
  5
1D3
330
13F
100
AcDbEntity
  8
P-SANR-FIXT
100
AcDbLine
 10
890.166407443179
 20
1806.245878730052
 30
0.0
 11
890.166407443179
 21
1803.358034236521
 31
0.0
  0
LINE
  5
1D4
330
13F
100
AcDbEntity
  8
P-SANR-FIXT
100
AcDbLine
 10
890.166407443179
 20
1803.358034236521
 30
0.0
 11
911.1664074431791
 21
1803.358034236521
 31
0.0
  0
LINE
  5
1D5
330
13F
100
AcDbEntity
  8
P-SANR-FIXT
100
AcDbLine
 10
890.166407443179
 20
1781.133723223582
 30
0.0
 11
890.166407443179
 21
1778.245878730052
 31
0.0
  0
LINE
  5
1D6
330
13F
100
AcDbEntity
  8
P-SANR-FIXT
100
AcDbLine
 10
890.166407443179
 20
1778.245878730052
 30
0.0
 11
911.1664074431791
 21
1778.245878730052
 31
0.0
  0
LINE
  5
1D7
330
13F
100
AcDbEntity
  8
P-SANR-FIXT
100
AcDbLine
 10
911.1664074431791
 20
1781.133723223582
 30
0.0
 11
890.166407443179
 21
1781.133723223582
 31
0.0
  0
LINE
  5
1D8
330
13F
100
AcDbEntity
  8
P-SANR-FIXT
100
AcDbLine
 10
911.1664074431791
 20
1809.133723223583
 30
0.0
 11
890.166407443179
 21
1809.133723223583
 31
0.0
  0
LINE
  5
1D9
330
13F
100
AcDbEntity
  8
P-SANR-FIXT
100
AcDbLine
 10
890.166407443179
 20
1809.133723223583
 30
0.0
 11
890.166407443179
 21
1806.245878730053
 31
0.0
  0
LINE
  5
1DA
330
13F
100
AcDbEntity
  8
P-SANR-FIXT
100
AcDbLine
 10
890.166407443179
 20
1834.245878730052
 30
0.0
 11
890.166407443179
 21
1831.358034236522
 31
0.0
  0
LINE
  5
1DB
330
13F
100
AcDbEntity
  8
P-SANR-FIXT
100
AcDbLine
 10
890.166407443179
 20
1831.358034236522
 30
0.0
 11
911.1664074431791
 21
1831.358034236522
 31
0.0
  0
LINE
  5
1DC
330
13F
100
AcDbEntity
  8
P-SANR-FIXT
100
AcDbLine
 10
911.1664074431791
 20
1834.245878730052
 30
0.0
 11
890.166407443179
 21
1834.245878730052
 31
0.0
  0
LINE
  5
1DD
330
13F
100
AcDbEntity
  8
P-SANR-FIXT
100
AcDbLine
 10
911.1664074431791
 20
1803.358034236521
 30
0.0
 11
911.1664074431791
 21
1806.245878730052
 31
0.0
  0
LINE
  5
1DE
330
13F
100
AcDbEntity
  8
P-SANR-FIXT
100
AcDbLine
 10
911.1664074431791
 20
1803.358034236521
 30
0.0
 11
911.1664074431791
 21
1781.133723223582
 31
0.0
  0
LINE
  5
1DF
330
13F
100
AcDbEntity
  8
P-SANR-FIXT
100
AcDbLine
 10
911.1664074431791
 20
1778.245878730052
 30
0.0
 11
911.1664074431791
 21
1781.133723223582
 31
0.0
  0
LINE
  5
1E0
330
13F
100
AcDbEntity
  8
P-SANR-FIXT
100
AcDbLine
 10
911.1664074431791
 20
1831.358034236522
 30
0.0
 11
911.1664074431791
 21
1834.245878730052
 31
0.0
  0
LINE
  5
1E1
330
13F
100
AcDbEntity
  8
P-SANR-FIXT
100
AcDbLine
 10
911.1664074431791
 20
1831.358034236522
 30
0.0
 11
911.1664074431791
 21
1809.133723223583
 31
0.0
  0
LINE
  5
1E2
330
13F
100
AcDbEntity
  8
P-SANR-FIXT
100
AcDbLine
 10
911.1664074431791
 20
1806.245878730052
 30
0.0
 11
911.1664074431791
 21
1809.133723223582
 31
0.0
  0
LINE
  5
1E3
330
13F
100
AcDbEntity
  8
P-SANR-FIXT
100
AcDbLine
 10
740.1664074431879
 20
1781.133723223582
 30
0.0
 11
740.1664074431879
 21
1803.358034236523
 31
0.0
  0
LINE
  5
1E4
330
13F
100
AcDbEntity
  8
P-SANR-FIXT
100
AcDbLine
 10
740.1664074431879
 20
1809.133723223581
 30
0.0
 11
740.1664074431879
 21
1831.358034236523
 31
0.0
  0
LINE
  5
1E5
330
13F
100
AcDbEntity
  8
P-SANR-FIXT
100
AcDbLine
 10
767.4664074431874
 20
1806.245878730052
 30
0.0
 11
767.4664074431874
 21
1781.745878730052
 31
0.0
  0
LINE
  5
1E6
330
13F
100
AcDbEntity
  8
P-SANR-FIXT
100
AcDbLine
 10
767.4664074431874
 20
1830.745878730053
 30
0.0
 11
767.4664074431874
 21
1806.245878730053
 31
0.0
  0
SPLINE
  5
1E7
330
13F
100
AcDbEntity
  8
P-SANR-FIXT
100
AcDbSpline
210
0.0
220
0.0
230
1.0
 70
     8
 71
     3
 72
     8
 73
     4
 74
     0
 42
0.000000001
 43
0.0000000001
 40
0.5281436886321118
 40
0.5281436886321118
 40
0.5281436886321118
 40
0.5281436886321118
 40
0.5333333333333333
 40
0.5333333333333333
 40
0.5333333333333333
 40
0.5333333333333333
 10
868.3180072109548
 20
1795.621069223292
 30
0.0
 10
868.3641812073405
 20
1795.60869164547
 30
0.0
 10
868.4104634680194
 20
1795.596607819662
 30
0.0
 10
868.4568456411074
 20
1795.584820484161
 30
0.0
  0
SPLINE
  5
1E8
330
13F
100
AcDbEntity
  8
P-SANR-FIXT
100
AcDbSpline
210
0.0
220
0.0
230
1.0
 70
     8
 71
     3
 72
     8
 73
     4
 74
     0
 42
0.000000001
 43
0.0000000001
 40
0.5666666666666666
 40
0.5666666666666666
 40
0.5666666666666666
 40
0.5666666666666666
 40
0.6
 40
0.6
 40
0.6
 40
0.6
 10
869.3609123185195
 20
1795.395052562255
 30
0.0
 10
869.6651965843026
 20
1795.344416728803
 30
0.0
 10
869.9720668913164
 20
1795.30650929793
 30
0.0
 10
870.2806646211291
 20
1795.281597647684
 30
0.0
  0
SPLINE
  5
1E9
330
13F
100
AcDbEntity
  8
P-SANR-FIXT
100
AcDbSpline
210
0.0
220
0.0
230
1.0
 70
     8
 71
     3
 72
     8
 73
     4
 74
     0
 42
0.000000001
 43
0.0000000001
 40
0.6317863607320362
 40
0.6317863607320362
 40
0.6317863607320362
 40
0.6317863607320362
 40
0.6333333333333333
 40
0.6333333333333333
 40
0.6333333333333333
 40
0.6333333333333333
 10
871.1667780952833
 20
1795.24589864341
 30
0.0
 10
871.1811833188978
 20
1795.245898372095
 30
0.0
 10
871.1955888838094
 20
1795.245926363025
 30
0.0
 10
871.2099946255252
 20
1795.245982629485
 30
0.0
  0
SPLINE
  5
1EA
330
13F
100
AcDbEntity
  8
P-SANR-FIXT
100
AcDbSpline
210
0.0
220
0.0
230
1.0
 70
     8
 71
     3
 72
     8
 73
     4
 74
     0
 42
0.000000001
 43
0.0000000001
 40
0.6666666666666666
 40
0.6666666666666666
 40
0.6666666666666666
 40
0.6666666666666666
 40
0.7
 40
0.7
 40
0.7
 40
0.7
 10
872.139795702874
 20
1795.289069478806
 30
0.0
 10
872.4486791688715
 20
1795.316535941111
 30
0.0
 10
872.7559142753211
 20
1795.356993753177
 30
0.0
 10
873.0596863319272
 20
1795.410035659508
 30
0.0
  0
SPLINE
  5
1EB
330
13F
100
AcDbEntity
  8
P-SANR-FIXT
100
AcDbSpline
210
0.0
220
0.0
230
1.0
 70
     8
 71
     3
 72
     8
 73
     4
 74
     0
 42
0.000000001
 43
0.0000000001
 40
0.7333333333333333
 40
0.7333333333333333
 40
0.7333333333333333
 40
0.7333333333333333
 40
0.7353736010178502
 40
0.7353736010178502
 40
0.7353736010178502
 40
0.7353736010178502
 10
873.9600407979233
 20
1795.606512624782
 30
0.0
 10
873.9781751475375
 20
1795.611275106874
 30
0.0
 10
873.9962943851896
 20
1795.616083221571
 30
0.0
 10
874.0143983787943
 20
1795.62093687796
 30
0.0
  0
SPLINE
  5
1EC
330
13F
100
AcDbEntity
  8
P-SANR-FIXT
100
AcDbSpline
210
0.0
220
0.0
230
1.0
 70
     8
 71
     3
 72
     9
 73
     5
 74
     0
 42
0.000000001
 43
0.0000000001
 40
0.7666666666666666
 40
0.7666666666666666
 40
0.7666666666666666
 40
0.7666666666666666
 40
0.775
 40
0.8
 40
0.8
 40
0.8
 40
0.8
 10
874.8360740575508
 20
1795.876044704327
 30
0.0
 10
874.9079254569618
 20
1795.901469947583
 30
0.0
 10
875.1940647511318
 20
1796.006082964128
 30
0.0
 10
875.4747769481843
 20
1796.122165662294
 30
0.0
 10
875.6816867824536
 20
1796.215312819377
 30
0.0
  0
SPLINE
  5
1ED
330
13F
100
AcDbEntity
  8
P-SANR-FIXT
100
AcDbSpline
210
0.0
220
0.0
230
1.0
 70
     8
 71
     3
 72
    10
 73
     6
 74
     0
 42
0.000000001
 43
0.0000000001
 40
0.8333333333333332
 40
0.8333333333333332
 40
0.8333333333333332
 40
0.8333333333333332
 40
0.85
 40
0.875
 40
0.9
 40
0.9
 40
0.9
 40
0.9
 10
876.48956055568
 20
1796.619661254437
 30
0.0
 10
876.620835834079
 20
1796.69225402574
 30
0.0
 10
876.944803703695
 20
1796.880103076881
 30
0.0
 10
877.445642258878
 20
1797.206270588289
 30
0.0
 10
877.8066771642773
 20
1797.472474154593
 30
0.0
 10
877.9820977581508
 20
1797.611855013932
 30
0.0
  0
SPLINE
  5
1EE
330
13F
100
AcDbEntity
  8
P-SANR-FIXT
100
AcDbSpline
210
0.0
220
0.0
230
1.0
 70
     8
 71
     3
 72
     9
 73
     5
 74
     0
 42
0.000000001
 43
0.0000000001
 40
0.9333333333333332
 40
0.9333333333333332
 40
0.9333333333333332
 40
0.9333333333333332
 40
0.95
 40
0.9666666666666666
 40
0.9666666666666666
 40
0.9666666666666666
 40
0.9666666666666666
 10
878.6622594020897
 20
1798.195273215913
 30
0.0
 10
878.7715048077831
 20
1798.296989679666
 30
0.0
 10
878.9880945859032
 20
1798.502870721996
 30
0.0
 10
879.1864838118327
 20
1798.724719692662
 30
0.0
 10
879.2837954705833
 20
1798.837323925614
 30
0.0
  0
SPLINE
  5
1EF
330
13F
100
AcDbEntity
  8
P-SANR-FIXT
100
AcDbSpline
210
0.0
220
0.0
230
1.0
 70
     8
 71
     3
 72
     8
 73
     4
 74
     0
 42
0.000000001
 43
0.0000000001
 40
0.0
 40
0.0
 40
0.0
 40
0.0
 40
0.1111111111111111
 40
0.1111111111111111
 40
0.1111111111111111
 40
0.1111111111111111
 10
879.8664074431794
 20
1799.514608419023
 30
0.0
 10
880.0013270497581
 20
1799.688988665692
 30
0.0
 10
880.1343575169866
 20
1799.871751120017
 30
0.0
 10
880.2644111613924
 20
1800.063128525284
 30
0.0
  0
SPLINE
  5
1F0
330
13F
100
AcDbEntity
  8
P-SANR-FIXT
100
AcDbSpline
210
0.0
220
0.0
230
1.0
 70
     8
 71
     3
 72
     9
 73
     5
 74
     0
 42
0.000000001
 43
0.0000000001
 40
0.2222222222222222
 40
0.2222222222222222
 40
0.2222222222222222
 40
0.2222222222222222
 40
0.25
 40
0.3333333333333333
 40
0.3333333333333333
 40
0.3333333333333333
 40
0.3333333333333333
 10
880.6445319900463
 20
1800.663305564317
 30
0.0
 10
880.6752740925581
 20
1800.715499190485
 30
0.0
 10
880.7972035001887
 20
1800.926453547953
 30
0.0
 10
880.9146721507294
 20
1801.146111531189
 30
0.0
 10
880.9998243052715
 20
1801.315978851101
 30
0.0
  0
SPLINE
  5
1F1
330
13F
100
AcDbEntity
  8
P-SANR-FIXT
100
AcDbSpline
210
0.0
220
0.0
230
1.0
 70
     8
 71
     3
 72
     8
 73
     4
 74
     0
 42
0.000000001
 43
0.0000000001
 40
0.4444444444444445
 40
0.4444444444444445
 40
0.4444444444444445
 40
0.4444444444444445
 40
0.4466814222231828
 40
0.4466814222231828
 40
0.4466814222231828
 40
0.4466814222231828
 10
881.323348928387
 20
1802.022549218204
 30
0.0
 10
881.3253954680904
 20
1802.027471122976
 30
0.0
 10
881.3274393457403
 20
1802.032396537212
 30
0.0
 10
881.3294805410453
 20
1802.037325458126
 30
0.0
  0
SPLINE
  5
1F2
330
13F
100
AcDbEntity
  8
P-SANR-FIXT
100
AcDbSpline
210
0.0
220
0.0
230
1.0
 70
     8
 71
     3
 72
     9
 73
     5
 74
     0
 42
0.000000001
 43
0.0000000001
 40
0.5555555555555556
 40
0.5555555555555556
 40
0.5555555555555556
 40
0.5555555555555556
 40
0.5833333333333333
 40
0.6666666666666666
 40
0.6666666666666666
 40
0.6666666666666666
 40
0.6666666666666666
 10
881.6065521031237
 20
1802.781293690641
 30
0.0
 10
881.6282079154477
 20
1802.846550024485
 30
0.0
 10
881.7126507696967
 20
1803.109572699843
 30
0.0
 10
881.7892934670902
 20
1803.379609757833
 30
0.0
 10
881.8401603207613
 20
1803.586743624705
 30
0.0
  0
SPLINE
  5
1F3
330
13F
100
AcDbEntity
  8
P-SANR-FIXT
100
AcDbSpline
210
0.0
220
0.0
230
1.0
 70
     8
 71
     3
 72
     9
 73
     5
 74
     0
 42
0.000000001
 43
0.0000000001
 40
0.7777777777777779
 40
0.7777777777777779
 40
0.7777777777777779
 40
0.7777777777777779
 40
0.8333333333333332
 40
0.8888888888888891
 40
0.8888888888888891
 40
0.8888888888888891
 40
0.8888888888888891
 10
882.0162932766811
 20
1804.434813312155
 30
0.0
 10
882.0404629766875
 20
1804.579611531804
 30
0.0
 10
882.0865872161103
 20
1804.871236679528
 30
0.0
 10
882.1085327889893
 20
1805.174492986921
 30
0.0
 10
882.1170132723192
 20
1805.327352658639
 30
0.0
  0
LINE
  5
1F4
330
13F
100
AcDbEntity
  8
P-SANR-FIXT
100
AcDbLine
 10
740.1664074431878
 20
1803.358034236523
 30
0.0
 11
740.1664074431878
 21
1806.245878730052
 31
0.0
  0
LINE
  5
1F5
330
13F
100
AcDbEntity
  8
P-SANR-FIXT
100
AcDbLine
 10
740.1664074431879
 20
1803.358034236523
 30
0.0
 11
761.1664074431875
 21
1803.358034236523
 31
0.0
  0
LINE
  5
1F6
330
13F
100
AcDbEntity
  8
P-SANR-FIXT
100
AcDbLine
 10
740.1664074431879
 20
1778.245878730052
 30
0.0
 11
740.1664074431879
 21
1781.133723223582
 31
0.0
  0
LINE
  5
1F7
330
13F
100
AcDbEntity
  8
P-SANR-FIXT
100
AcDbLine
 10
740.1664074431879
 20
1778.245878730052
 30
0.0
 11
761.1664074431875
 21
1778.245878730052
 31
0.0
  0
LINE
  5
1F8
330
13F
100
AcDbEntity
  8
P-SANR-FIXT
100
AcDbLine
 10
761.1664074431875
 20
1781.133723223582
 30
0.0
 11
740.1664074431879
 21
1781.133723223582
 31
0.0
  0
LINE
  5
1F9
330
13F
100
AcDbEntity
  8
P-SANR-FIXT
100
AcDbLine
 10
761.1664074431875
 20
1809.133723223582
 30
0.0
 11
740.1664074431879
 21
1809.133723223582
 31
0.0
  0
LINE
  5
1FA
330
13F
100
AcDbEntity
  8
P-SANR-FIXT
100
AcDbLine
 10
740.1664074431879
 20
1806.245878730052
 30
0.0
 11
740.1664074431879
 21
1809.133723223581
 31
0.0
  0
LINE
  5
1FB
330
13F
100
AcDbEntity
  8
P-SANR-FIXT
100
AcDbLine
 10
740.1664074431879
 20
1831.358034236522
 30
0.0
 11
740.1664074431879
 21
1834.245878730052
 31
0.0
  0
LINE
  5
1FC
330
13F
100
AcDbEntity
  8
P-SANR-FIXT
100
AcDbLine
 10
740.1664074431879
 20
1831.358034236523
 30
0.0
 11
761.1664074431875
 21
1831.358034236523
 31
0.0
  0
LINE
  5
1FD
330
13F
100
AcDbEntity
  8
P-SANR-FIXT
100
AcDbLine
 10
761.1664074431875
 20
1834.245878730052
 30
0.0
 11
740.1664074431879
 21
1834.245878730052
 31
0.0
  0
LINE
  5
1FE
330
13F
100
AcDbEntity
  8
P-SANR-FIXT
100
AcDbLine
 10
804.1664074431883
 20
1803.743337104126
 30
0.0
 11
804.1664074431883
 21
1785.745878730052
 31
0.0
  0
LINE
  5
1FF
330
13F
100
AcDbEntity
  8
P-SANR-FIXT
100
AcDbLine
 10
804.1664074431883
 20
1826.745878730052
 30
0.0
 11
804.1664074431883
 21
1808.748420355978
 31
0.0
  0
SPLINE
  5
200
330
13F
100
AcDbEntity
  8
P-SANR-FIXT
100
AcDbSpline
210
0.0
220
0.0
230
1.0
 70
     8
 71
     3
 72
     9
 73
     5
 74
     0
 42
0.000000001
 43
0.0000000001
 40
0.1111111111111111
 40
0.1111111111111111
 40
0.1111111111111111
 40
0.1111111111111111
 40
0.1666666666666666
 40
0.2222222222222222
 40
0.2222222222222222
 40
0.2222222222222222
 40
0.2222222222222222
 10
882.1276138764813
 20
1807.168852340195
 30
0.0
 10
882.1148931514867
 20
1807.319932996422
 30
0.0
 10
882.0834073430816
 20
1807.619186929119
 30
0.0
 10
882.0404623602478
 20
1807.912145107977
 30
0.0
 10
882.0162927116111
 20
1808.056943395985
 30
0.0
  0
SPLINE
  5
201
330
13F
100
AcDbEntity
  8
P-SANR-FIXT
100
AcDbSpline
210
0.0
220
0.0
230
1.0
 70
     8
 71
     3
 72
     9
 73
     5
 74
     0
 42
0.000000001
 43
0.0000000001
 40
0.3333333333333333
 40
0.3333333333333333
 40
0.3333333333333333
 40
0.3333333333333333
 40
0.4166666666666666
 40
0.4444444444444445
 40
0.4444444444444445
 40
0.4444444444444445
 40
0.4444444444444445
 10
881.8401603207613
 20
1808.905013835399
 30
0.0
 10
881.7886434114521
 20
1809.111796358026
 30
0.0
 10
881.7127477804501
 20
1809.382222987958
 30
0.0
 10
881.6282154700163
 20
1809.645220988738
 30
0.0
 10
881.6065634349767
 20
1809.710484099142
 30
0.0
  0
SPLINE
  5
202
330
13F
100
AcDbEntity
  8
P-SANR-FIXT
100
AcDbSpline
210
0.0
220
0.0
230
1.0
 70
     8
 71
     3
 72
     8
 73
     4
 74
     0
 42
0.000000001
 43
0.0000000001
 40
0.5533185777768174
 40
0.5533185777768174
 40
0.5533185777768174
 40
0.5533185777768174
 40
0.5555555555555556
 40
0.5555555555555556
 40
0.5555555555555556
 40
0.5555555555555556
 10
881.3294803776274
 20
1810.45443189235
 30
0.0
 10
881.3274392889821
 20
1810.459360884816
 30
0.0
 10
881.3253953845229
 20
1810.464286161059
 30
0.0
 10
881.3233486963694
 20
1810.46920775306
 30
0.0
  0
SPLINE
  5
203
330
13F
100
AcDbEntity
  8
P-SANR-FIXT
100
AcDbSpline
210
0.0
220
0.0
230
1.0
 70
     8
 71
     3
 72
     9
 73
     5
 74
     0
 42
0.000000001
 43
0.0000000001
 40
0.6666666666666666
 40
0.6666666666666666
 40
0.6666666666666666
 40
0.6666666666666666
 40
0.75
 40
0.7777777777777779
 40
0.7777777777777779
 40
0.7777777777777779
 40
0.7777777777777779
 10
880.9998243052715
 20
1811.175778609004
 30
0.0
 10
880.9146666113873
 20
1811.345641716179
 30
0.0
 10
880.7966611872064
 20
1811.563741238911
 30
0.0
 10
880.6756362500289
 20
1811.777300519862
 30
0.0
 10
880.6450752262522
 20
1811.830015271151
 30
0.0
  0
SPLINE
  5
204
330
13F
100
AcDbEntity
  8
P-SANR-FIXT
100
AcDbSpline
210
0.0
220
0.0
230
1.0
 70
     8
 71
     3
 72
     8
 73
     4
 74
     0
 42
0.000000001
 43
0.0000000001
 40
0.8888888888888891
 40
0.8888888888888891
 40
0.8888888888888891
 40
0.8888888888888891
 40
1.0
 40
1.0
 40
1.0
 40
1.0
 10
880.2644111613924
 20
1812.42862893482
 30
0.0
 10
880.1343575169868
 20
1812.620006340087
 30
0.0
 10
880.0013270497581
 20
1812.802768794412
 30
0.0
 10
879.8664074431794
 20
1812.977149041081
 30
0.0
  0
SPLINE
  5
205
330
13F
100
AcDbEntity
  8
P-SANR-FIXT
100
AcDbSpline
210
0.0
220
0.0
230
1.0
 70
     8
 71
     3
 72
     8
 73
     4
 74
     0
 42
0.000000001
 43
0.0000000001
 40
-0.4718563113678883
 40
-0.4718563113678883
 40
-0.4718563113678883
 40
-0.4718563113678883
 40
-0.4666666666666667
 40
-0.4666666666666667
 40
-0.4666666666666667
 40
-0.4666666666666667
 10
868.3180072099396
 20
1816.870688237314
 30
0.0
 10
868.3641812057043
 20
1816.883065815442
 30
0.0
 10
868.4104634655952
 20
1816.895149641329
 30
0.0
 10
868.4568456379665
 20
1816.906936976785
 30
0.0
  0
SPLINE
  5
206
330
13F
100
AcDbEntity
  8
P-SANR-FIXT
100
AcDbSpline
210
0.0
220
0.0
230
1.0
 70
     8
 71
     3
 72
     8
 73
     4
 74
     0
 42
0.000000001
 43
0.0000000001
 40
-0.4333333333333334
 40
-0.4333333333333334
 40
-0.4333333333333334
 40
-0.4333333333333334
 40
-0.4
 40
-0.4
 40
-0.4
 40
-0.4
 10
869.3609123468812
 20
1817.096704883849
 30
0.0
 10
869.6651966334259
 20
1817.147340707053
 30
0.0
 10
869.9720669679075
 20
1817.185248160854
 30
0.0
 10
870.2806646211291
 20
1817.21015981242
 30
0.0
  0
SPLINE
  5
207
330
13F
100
AcDbEntity
  8
P-SANR-FIXT
100
AcDbSpline
210
0.0
220
0.0
230
1.0
 70
     8
 71
     3
 72
     8
 73
     4
 74
     0
 42
0.000000001
 43
0.0000000001
 40
-0.3682136392679701
 40
-0.3682136392679701
 40
-0.3682136392679701
 40
-0.3682136392679701
 40
-0.3666666666666667
 40
-0.3666666666666667
 40
-0.3666666666666667
 40
-0.3666666666666667
 10
871.1667779141354
 20
1817.245858906111
 30
0.0
 10
871.1811831380543
 20
1817.245859177277
 30
0.0
 10
871.1955887034481
 20
1817.245831185784
 30
0.0
 10
871.2099944458833
 20
1817.245774918403
 30
0.0
  0
SPLINE
  5
208
330
13F
100
AcDbEntity
  8
P-SANR-FIXT
100
AcDbSpline
210
0.0
220
0.0
230
1.0
 70
     8
 71
     3
 72
     8
 73
     4
 74
     0
 42
0.000000001
 43
0.0000000001
 40
-0.3333333333333334
 40
-0.3333333333333334
 40
-0.3333333333333334
 40
-0.3333333333333334
 40
-0.3
 40
-0.3
 40
-0.3
 40
-0.3
 10
872.1397961575995
 20
1817.202687756838
 30
0.0
 10
872.4486799198267
 20
1817.175221148309
 30
0.0
 10
872.7559153568909
 20
1817.134763557168
 30
0.0
 10
873.0596863319272
 20
1817.081721800596
 30
0.0
  0
SPLINE
  5
209
330
13F
100
AcDbEntity
  8
P-SANR-FIXT
100
AcDbSpline
210
0.0
220
0.0
230
1.0
 70
     8
 71
     3
 72
     8
 73
     4
 74
     0
 42
0.000000001
 43
0.0000000001
 40
-0.2666666666666667
 40
-0.2666666666666667
 40
-0.2666666666666667
 40
-0.2666666666666667
 40
-0.2646263989821501
 40
-0.2646263989821501
 40
-0.2646263989821501
 40
-0.2646263989821501
 10
873.9600382903521
 20
1816.885246073102
 30
0.0
 10
873.9781726580979
 20
1816.880483582061
 30
0.0
 10
873.9962919184103
 20
1816.87567544917
 30
0.0
 10
874.0143959413257
 20
1816.870821766869
 30
0.0
  0
SPLINE
  5
20A
330
13F
100
AcDbEntity
  8
P-SANR-FIXT
100
AcDbSpline
210
0.0
220
0.0
230
1.0
 70
     8
 71
     3
 72
     9
 73
     5
 74
     0
 42
0.000000001
 43
0.0000000001
 40
-0.2333333333333334
 40
-0.2333333333333334
 40
-0.2333333333333334
 40
-0.2333333333333334
 40
-0.225
 40
-0.2
 40
-0.2
 40
-0.2
 40
-0.2
 10
874.8360777792838
 20
1816.615710918666
 30
0.0
 10
874.907928902277
 20
1816.590285811854
 30
0.0
 10
875.1940648689197
 20
1816.485676027178
 30
0.0
 10
875.4747452336225
 20
1816.369597916599
 30
0.0
 10
875.6816867824538
 20
1816.276444640727
 30
0.0
  0
SPLINE
  5
20B
330
13F
100
AcDbEntity
  8
P-SANR-FIXT
100
AcDbSpline
210
0.0
220
0.0
230
1.0
 70
     8
 71
     3
 72
    10
 73
     6
 74
     0
 42
0.000000001
 43
0.0000000001
 40
-0.1666666666666667
 40
-0.1666666666666667
 40
-0.1666666666666667
 40
-0.1666666666666667
 40
-0.15
 40
-0.125
 40
-0.1
 40
-0.1
 40
-0.1
 40
-0.1
 10
876.4895474521456
 20
1815.872102673796
 30
0.0
 10
876.6208211824048
 20
1815.799510666681
 30
0.0
 10
876.9448140707359
 20
1815.611649265875
 30
0.0
 10
877.445639022885
 20
1815.285488469156
 30
0.0
 10
877.8066766699808
 20
1815.019283549505
 30
0.0
 10
877.9820977581508
 20
1814.879902446172
 30
0.0
  0
SPLINE
  5
20C
330
13F
100
AcDbEntity
  8
P-SANR-FIXT
100
AcDbSpline
210
0.0
220
0.0
230
1.0
 70
     8
 71
     3
 72
     9
 73
     5
 74
     0
 42
0.000000001
 43
0.0000000001
 40
-0.0666666666666668
 40
-0.0666666666666668
 40
-0.0666666666666668
 40
-0.0666666666666668
 40
-0.05
 40
-0.0333333333333334
 40
-0.0333333333333334
 40
-0.0333333333333334
 40
-0.0333333333333334
 10
878.66225933126
 20
1814.296484279154
 30
0.0
 10
878.7715047268347
 20
1814.194767820396
 30
0.0
 10
878.9880946061403
 20
1813.988886728119
 30
0.0
 10
879.1864838523071
 20
1813.767037747463
 30
0.0
 10
879.2837955110575
 20
1813.654433514511
 30
0.0
  0
SPLINE
  5
20D
330
13F
100
AcDbEntity
  8
P-SANR-FIXT
100
AcDbSpline
210
0.0
220
0.0
230
1.0
 70
     8
 71
     3
 72
     8
 73
     4
 74
     0
 42
0.000000001
 43
0.0000000001
 40
-0.1657073909053438
 40
-0.1657073909053438
 40
-0.1657073909053438
 40
-0.1657073909053438
 40
-0.1481481481481486
 40
-0.1481481481481486
 40
-0.1481481481481486
 40
-0.1481481481481486
 10
806.1506540239863
 20
1800.727686796637
 30
0.0
 10
806.050030045989
 20
1800.901203143781
 30
0.0
 10
805.9542075529169
 20
1801.077765740177
 30
0.0
 10
805.8629534201099
 20
1801.257108389578
 30
0.0
  0
SPLINE
  5
20E
330
13F
100
AcDbEntity
  8
P-SANR-FIXT
100
AcDbSpline
210
0.0
220
0.0
230
1.0
 70
     8
 71
     3
 72
     8
 73
     4
 74
     0
 42
0.000000001
 43
0.0000000001
 40
-0.1235013754246932
 40
-0.1235013754246932
 40
-0.1235013754246932
 40
-0.1235013754246932
 40
-0.1111111111111111
 40
-0.1111111111111111
 40
-0.1111111111111111
 40
-0.1111111111111111
 10
805.5069818127323
 20
1802.028527115211
 30
0.0
 10
805.4522231578966
 20
1802.160436377537
 30
0.0
 10
805.3995858803377
 20
1802.293523722947
 30
0.0
 10
805.3502269041974
 20
1802.427971045606
 30
0.0
  0
SPLINE
  5
20F
330
13F
100
AcDbEntity
  8
P-SANR-FIXT
100
AcDbSpline
210
0.0
220
0.0
230
1.0
 70
     8
 71
     3
 72
     8
 73
     4
 74
     0
 42
0.000000001
 43
0.0000000001
 40
-0.0819163063138286
 40
-0.0819163063138286
 40
-0.0819163063138286
 40
-0.0819163063138286
 40
-0.0740740740740746
 40
-0.0740740740740746
 40
-0.0740740740740746
 40
-0.0740740740740746
 10
805.042040195277
 20
1803.395818828898
 30
0.0
 10
805.0183946668365
 20
1803.48395752387
 30
0.0
 10
804.9948008560084
 20
1803.572268669048
 30
0.0
 10
804.9721876724786
 20
1803.660894709683
 30
0.0
  0
SPLINE
  5
210
330
13F
100
AcDbEntity
  8
P-SANR-FIXT
100
AcDbSpline
210
0.0
220
0.0
230
1.0
 70
     8
 71
     3
 72
     8
 73
     4
 74
     0
 42
0.000000001
 43
0.0000000001
 40
-0.9259259259259259
 40
-0.9259259259259259
 40
-0.9259259259259259
 40
-0.9259259259259259
 40
-0.9180836936861819
 40
-0.9180836936861819
 40
-0.9180836936861819
 40
-0.9180836936861819
 10
804.9743540632519
 20
1808.830467505779
 30
0.0
 10
804.9958287943786
 20
1808.919301250037
 30
0.0
 10
805.0183946668365
 20
1809.007799936234
 30
0.0
 10
805.042040195277
 20
1809.095938631206
 30
0.0
  0
SPLINE
  5
211
330
13F
100
AcDbEntity
  8
P-SANR-FIXT
100
AcDbSpline
210
0.0
220
0.0
230
1.0
 70
     8
 71
     3
 72
     8
 73
     4
 74
     0
 42
0.000000001
 43
0.0000000001
 40
-0.8888888888888889
 40
-0.8888888888888889
 40
-0.8888888888888889
 40
-0.8888888888888889
 40
-0.8764986245753194
 40
-0.8764986245753194
 40
-0.8764986245753194
 40
-0.8764986245753194
 10
805.3502269041974
 20
1810.063786414499
 30
0.0
 10
805.3999497671632
 20
1810.198144570837
 30
0.0
 10
805.4522231578964
 20
1810.331321082567
 30
0.0
 10
805.5069818127321
 20
1810.463230344893
 30
0.0
  0
SPLINE
  5
212
330
13F
100
AcDbEntity
  8
P-SANR-FIXT
100
AcDbSpline
210
0.0
220
0.0
230
1.0
 70
     8
 71
     3
 72
     8
 73
     4
 74
     0
 42
0.000000001
 43
0.0000000001
 40
-0.8518518518518519
 40
-0.8518518518518519
 40
-0.8518518518518519
 40
-0.8518518518518519
 40
-0.8342926090946566
 40
-0.8342926090946566
 40
-0.8342926090946566
 40
-0.8342926090946566
 10
805.8627549700773
 20
1811.234710688565
 30
0.0
 10
805.9540159561432
 20
1811.414051210053
 30
0.0
 10
806.050030045989
 20
1811.590554316324
 30
0.0
 10
806.1506540239863
 20
1811.764070663467
 30
0.0
  0
LINE
  5
213
330
13F
100
AcDbEntity
  8
P-SANR-FIXT
100
AcDbLine
 10
778.3664074431877
 20
1792.398690710236
 30
0.0
 11
778.3664074431877
 21
1783.145878730052
 31
0.0
  0
LINE
  5
214
330
13F
100
AcDbEntity
  8
P-SANR-FIXT
100
AcDbLine
 10
778.3664074431879
 20
1829.345878730053
 30
0.0
 11
778.3664074431879
 21
1820.093066749869
 31
0.0
  0
LINE
  5
215
330
13F
100
AcDbEntity
  8
P-SANR-FIXT
100
AcDbLine
 10
801.5664074431878
 20
1783.145878730052
 30
0.0
 11
801.5664074431878
 21
1802.36504623526
 31
0.0
  0
LINE
  5
216
330
13F
100
AcDbEntity
  8
P-SANR-FIXT
100
AcDbLine
 10
801.5664074431878
 20
1810.126711224844
 30
0.0
 11
801.5664074431878
 21
1829.345878730052
 31
0.0
  0
SPLINE
  5
217
330
13F
100
AcDbEntity
  8
P-SANR-FIXT
100
AcDbSpline
210
0.0
220
0.0
230
1.0
 70
    24
 71
     3
 72
     9
 73
     5
 74
     0
 42
0.000000001
 43
0.0000000001
 40
-0.5
 40
-0.5
 40
-0.5
 40
-0.5
 40
-0.3333333333333333
 40
0.0
 40
0.0
 40
0.0
 40
0.0
 10
887.3955449920796
 20
1778.245878730052
 30
0.0
 10
887.39259532508
 20
1778.245878730052
 30
0.0
 10
887.6916199297593
 20
1778.245878730052
 30
0.0
 10
888.9288932918978
 20
1778.245878730052
 30
0.0
 10
890.166407443179
 20
1778.245878730052
 30
0.0
  0
SPLINE
  5
218
330
13F
100
AcDbEntity
  8
P-SANR-FIXT
100
AcDbSpline
210
0.0
220
0.0
230
1.0
 70
     8
 71
     3
 72
    10
 73
     6
 74
     0
 42
0.000000001
 43
0.0000000001
 40
-1.0
 40
-1.0
 40
-1.0
 40
-1.0
 40
-0.6666666666666666
 40
-0.3333333333333333
 40
0.0
 40
0.0
 40
0.0
 40
0.0
 10
890.166407443179
 20
1781.133723223582
 30
0.0
 10
888.940932749039
 20
1783.525014453735
 30
0.0
 10
887.306645437995
 20
1788.362727140765
 30
0.0
 10
887.2791954757133
 20
1796.034095566812
 30
0.0
 10
888.9288932918979
 20
1800.926056683858
 30
0.0
 10
890.166407443179
 20
1803.358034236521
 30
0.0
  0
LINE
  5
219
330
13F
100
AcDbEntity
  8
P-SANR-FIXT
100
AcDbLine
 10
879.8664074431794
 20
1799.545524467236
 30
0.0
 11
879.8664074431794
 21
1799.510928243059
 31
0.0
  0
LINE
  5
21A
330
13F
100
AcDbEntity
  8
P-SANR-FIXT
100
AcDbLine
 10
879.8664074431794
 20
1785.745878730052
 30
0.0
 11
879.8664074431794
 21
1799.514608419022
 31
0.0
  0
LINE
  5
21B
330
13F
100
AcDbEntity
  8
P-SANR-FIXT
100
AcDbLine
 10
879.8664074431794
 20
1812.977149041081
 30
0.0
 11
879.8664074431794
 21
1826.745878730052
 31
0.0
  0
LINE
  5
21C
330
13F
100
AcDbEntity
  8
P-SANR-FIXT
100
AcDbLine
 10
879.8664074431794
 20
1812.980829217046
 30
0.0
 11
879.8664074431794
 21
1812.946232992868
 31
0.0
  0
SPLINE
  5
21D
330
13F
100
AcDbEntity
  8
P-SANR-FIXT
100
AcDbSpline
210
0.0
220
0.0
230
1.0
 70
     8
 71
     3
 72
    10
 73
     6
 74
     0
 42
0.000000001
 43
0.0000000001
 40
-1.0
 40
-1.0
 40
-1.0
 40
-1.0
 40
-0.6666666666666666
 40
-0.3333333333333333
 40
0.0
 40
0.0
 40
0.0
 40
0.0
 10
890.166407443179
 20
1809.133723223583
 30
0.0
 10
888.940932749039
 20
1811.525014453735
 30
0.0
 10
887.306645437995
 20
1816.362727140766
 30
0.0
 10
887.2791954757133
 20
1824.034095566813
 30
0.0
 10
888.9288932918979
 20
1828.926056683858
 30
0.0
 10
890.166407443179
 20
1831.358034236522
 30
0.0
  0
SPLINE
  5
21E
330
13F
100
AcDbEntity
  8
P-SANR-FIXT
100
AcDbSpline
210
0.0
220
0.0
230
1.0
 70
    24
 71
     3
 72
     9
 73
     5
 74
     0
 42
0.000000001
 43
0.0000000001
 40
-1.0
 40
-1.0
 40
-1.0
 40
-1.0
 40
-0.6666666666666666
 40
-0.4980626657126713
 40
-0.4980626657126713
 40
-0.4980626657126713
 40
-0.4980626657126713
 10
890.166407443179
 20
1834.245878730052
 30
0.0
 10
888.9409327490387
 20
1834.245878730052
 30
0.0
 10
887.710468024491
 20
1834.245878730052
 30
0.0
 10
887.3960539155786
 20
1834.245878730052
 30
0.0
 10
887.3954837329089
 20
1834.245878730052
 30
0.0
  0
LINE
  5
21F
330
13F
100
AcDbEntity
  8
P-SANR-FIXT
100
AcDbLine
 10
761.1664074431877
 20
1803.358034236523
 30
0.0
 11
761.1664074431877
 21
1806.245878730052
 31
0.0
  0
SPLINE
  5
220
330
13F
100
AcDbEntity
  8
P-SANR-FIXT
100
AcDbSpline
210
0.0
220
0.0
230
1.0
 70
     8
 71
     3
 72
    10
 73
     6
 74
     0
 42
0.000000001
 43
0.0000000001
 40
-1.0
 40
-1.0
 40
-1.0
 40
-1.0
 40
-0.6666666666666666
 40
-0.3333333333333333
 40
0.0
 40
0.0
 40
0.0
 40
0.0
 10
761.1664074431875
 20
1803.358034236523
 30
0.0
 10
762.3918821373279
 20
1800.96674300637
 30
0.0
 10
764.0261694483723
 20
1796.129030319339
 30
0.0
 10
764.053619410654
 20
1788.457661893292
 30
0.0
 10
762.4039215944691
 20
1783.565700776246
 30
0.0
 10
761.1664074431875
 20
1781.133723223582
 30
0.0
  0
LINE
  5
221
330
13F
100
AcDbEntity
  8
P-SANR-FIXT
100
AcDbLine
 10
761.1664074431875
 20
1778.245878730052
 30
0.0
 11
761.1664074431875
 21
1781.133723223582
 31
0.0
  0
SPLINE
  5
222
330
13F
100
AcDbEntity
  8
P-SANR-FIXT
100
AcDbSpline
210
0.0
220
0.0
230
1.0
 70
    24
 71
     3
 72
     9
 73
     5
 74
     0
 42
0.000000001
 43
0.0000000001
 40
-1.0
 40
-1.0
 40
-1.0
 40
-1.0
 40
-0.6666666666666666
 40
-0.4980626657126776
 40
-0.4980626657126776
 40
-0.4980626657126776
 40
-0.4980626657126776
 10
761.1664074431875
 20
1778.245878730052
 30
0.0
 10
762.3918821373279
 20
1778.245878730052
 30
0.0
 10
763.6223468618758
 20
1778.245878730052
 30
0.0
 10
763.9367609707881
 20
1778.245878730052
 30
0.0
 10
763.937331153458
 20
1778.245878730052
 30
0.0
  0
SPLINE
  5
223
330
13F
100
AcDbEntity
  8
P-SANR-FIXT
100
AcDbSpline
210
0.0
220
0.0
230
1.0
 70
    24
 71
     3
 72
     9
 73
     5
 74
     0
 42
0.000000001
 43
0.0000000001
 40
-0.5
 40
-0.5
 40
-0.5
 40
-0.5
 40
-0.3333333333333333
 40
0.0
 40
0.0
 40
0.0
 40
0.0
 10
763.9372698942873
 20
1834.245878730052
 30
0.0
 10
763.9402195612867
 20
1834.245878730052
 30
0.0
 10
763.6411949566077
 20
1834.245878730052
 30
0.0
 10
762.403921594469
 20
1834.245878730052
 30
0.0
 10
761.1664074431875
 20
1834.245878730052
 30
0.0
  0
LINE
  5
224
330
13F
100
AcDbEntity
  8
P-SANR-FIXT
100
AcDbLine
 10
761.1664074431875
 20
1831.358034236522
 30
0.0
 11
761.1664074431875
 21
1834.245878730052
 31
0.0
  0
SPLINE
  5
225
330
13F
100
AcDbEntity
  8
P-SANR-FIXT
100
AcDbSpline
210
0.0
220
0.0
230
1.0
 70
     8
 71
     3
 72
    10
 73
     6
 74
     0
 42
0.000000001
 43
0.0000000001
 40
-1.0
 40
-1.0
 40
-1.0
 40
-1.0
 40
-0.6666666666666666
 40
-0.3333333333333333
 40
0.0
 40
0.0
 40
0.0
 40
0.0
 10
761.1664074431875
 20
1831.358034236523
 30
0.0
 10
762.3918821373279
 20
1828.96674300637
 30
0.0
 10
764.0261694483723
 20
1824.129030319339
 30
0.0
 10
764.053619410654
 20
1816.457661893292
 30
0.0
 10
762.403921594469
 20
1811.565700776245
 30
0.0
 10
761.1664074431875
 20
1809.133723223581
 30
0.0
  0
LINE
  5
226
330
13F
100
AcDbEntity
  8
P-SANR-FIXT
100
AcDbLine
 10
761.1664074431875
 20
1806.245878730052
 30
0.0
 11
761.1664074431875
 21
1809.133723223581
 31
0.0
  0
LINE
  5
227
330
13F
100
AcDbEntity
  8
P-SANR-FIXT
100
AcDbLine
 10
776.9664074431878
 20
1781.74754647562
 30
0.0
 11
776.9664074431878
 21
1793.2904367119
 31
0.0
  0
LINE
  5
228
330
13F
100
AcDbEntity
  8
P-SANR-FIXT
100
AcDbLine
 10
776.9664074431878
 20
1819.201320748204
 30
0.0
 11
776.9664074431878
 21
1830.744210984484
 31
0.0
  0
ENDBLK
  5
22A
330
13F
100
AcDbEntity
  8
0
100
AcDbBlockEnd
  0
BLOCK
  5
28F
330
22C
100
AcDbEntity
  8
0
100
AcDbBlockBegin
  2
Automatic flow rate regulator valve_Caleffi_121 DN15 - 1_2__-V2-Est - Idraulica
 70
     0
 10
0.0
 20
0.0
 30
0.0
  3
Automatic flow rate regulator valve_Caleffi_121 DN15 - 1_2__-V2-Est - Idraulica
  1

  0
LINE
  5
22D
330
22C
100
AcDbEntity
  8
M-PIPE
100
AcDbLine
 10
1082.614353943099
 20
2052.982558850073
 30
0.0
 11
1079.748380270171
 21
2052.982558850073
 31
0.0
1001
REVIT
1002
{
1070
     3
1000
790271
1002
}
  0
LINE
  5
22E
330
22C
100
AcDbEntity
  8
M-PIPE
100
AcDbLine
 10
1054.486790488044
 20
2052.982558850073
 30
0.0
 11
1051.614353943099
 21
2052.982558850073
 31
0.0
1001
REVIT
1002
{
1070
     3
1000
790271
1002
}
  0
LINE
  5
22F
330
22C
100
AcDbEntity
  8
M-PIPE
100
AcDbLine
 10
1082.614353943097
 20
2052.982558850072
 30
0.0
 11
1082.614353943097
 21
2049.982558850072
 31
0.0
1001
REVIT
1002
{
1070
     3
1000
790271
1002
}
  0
LINE
  5
230
330
22C
100
AcDbEntity
  8
M-PIPE
100
AcDbLine
 10
1082.614353943097
 20
2049.982558850072
 30
0.0
 11
1082.614353943097
 21
2045.282558850009
 31
0.0
1001
REVIT
1002
{
1070
     3
1000
790271
1002
}
  0
LINE
  5
231
330
22C
100
AcDbEntity
  8
M-PIPE
100
AcDbLine
 10
1051.614353943097
 20
2045.282558850009
 30
0.0
 11
1051.614353943097
 21
2049.982558850073
 31
0.0
1001
REVIT
1002
{
1070
     3
1000
790271
1002
}
  0
LINE
  5
232
330
22C
100
AcDbEntity
  8
M-PIPE
100
AcDbLine
 10
1051.614353943097
 20
2049.982558850073
 30
0.0
 11
1051.614353943097
 21
2052.982558850072
 31
0.0
1001
REVIT
1002
{
1070
     3
1000
790271
1002
}
  0
LINE
  5
233
330
22C
100
AcDbEntity
  8
M-PIPE
100
AcDbLine
 10
1064.114353943099
 20
2087.98255885001
 30
0.0
 11
1064.114353943099
 21
2064.482558850032
 31
0.0
1001
REVIT
1002
{
1070
     3
1000
790271
1002
}
  0
LINE
  5
234
330
22C
100
AcDbEntity
  8
M-PIPE
100
AcDbLine
 10
1070.114353943099
 20
2064.482558850032
 30
0.0
 11
1070.114353943099
 21
2087.98255885001
 31
0.0
1001
REVIT
1002
{
1070
     3
1000
790271
1002
}
  0
LWPOLYLINE
  5
235
330
22C
100
AcDbEntity
  8
M-PIPE
100
AcDbPolyline
 90
       41
 70
   128
 43
0.0
 10
1064.114353943099
 20
2087.98255885001
 10
1064.116753623117
 20
2088.10252685257
 10
1064.123948824192
 20
2088.222302931917
 10
1064.135928035538
 20
2088.341695471877
 10
1064.152672092973
 20
2088.460513469853
 10
1064.174154209576
 20
2088.578566842395
 10
1064.200340018544
 20
2088.695666729292
 10
1064.231187628168
 20
2088.811625795703
 10
1064.266647688852
 20
2088.926258531858
 10
1064.306663472066
 20
2089.039381549835
 10
1064.351170961091
 20
2089.150813876936
 10
1064.40009895344
 20
2089.260377245208
 10
1064.453369174762
 20
2089.367896376634
 10
1064.510896404067
 20
2089.473199263541
 10
1064.57258861006
 20
2089.576117443773
 10
1064.638347098371
 20
2089.676486270195
 10
1064.708066669447
 20
2089.774145174096
 10
1064.781635786847
 20
2089.868937922066
 10
1064.858936755677
 20
2089.960712865924
 10
1064.939845910877
 20
2090.049323185342
 10
1065.024233815058
 20
2090.134627122708
 10
1065.111965465576
 20
2090.216488209923
 10
1065.202900510504
 20
2090.294775486707
 10
1065.29689347317
 20
2090.369363710119
 10
1065.393793984883
 20
2090.440133554913
 10
1065.493447025495
 20
2090.506971804434
 10
1065.595693171402
 20
2090.56977153174
 10
1065.700368850579
 20
2090.628432270665
 10
1065.80730660427
 20
2090.68286017654
 10
1065.916335354881
 20
2090.732968176325
 10
1066.02728067967
 20
2090.778676107912
 10
1066.139965089784
 20
2090.819910848359
 10
1066.254208314204
 20
2090.856606430878
 10
1066.369827588143
 20
2090.888704150364
 10
1066.486637945426
 20
2090.916152657316
 10
1066.604452514399
 20
2090.938908039975
 10
1066.723082816885
 20
2090.956933894585
 10
1066.842339069707
 20
2090.970201383623
 10
1066.962030488299
 20
2090.978689281937
 10
1067.081965591925
 20
2090.9823840107
 10
1067.1143539431
 20
2090.98255885001
1001
REVIT
1002
{
1070
     3
1000
790271
1002
}
  0
LWPOLYLINE
  5
236
330
22C
100
AcDbEntity
  8
M-PIPE
100
AcDbPolyline
 90
       41
 70
   128
 43
0.0
 10
1067.1143539431
 20
2090.98255885001
 10
1067.23432194566
 20
2090.980159169992
 10
1067.354098025007
 20
2090.972963968917
 10
1067.473490564966
 20
2090.960984757571
 10
1067.592308562942
 20
2090.944240700137
 10
1067.710361935485
 20
2090.922758583534
 10
1067.827461822381
 20
2090.896572774566
 10
1067.943420888792
 20
2090.865725164942
 10
1068.058053624948
 20
2090.830265104257
 10
1068.171176642925
 20
2090.790249321043
 10
1068.282608970025
 20
2090.745741832018
 10
1068.392172338298
 20
2090.69681383967
 10
1068.499691469724
 20
2090.643543618348
 10
1068.604994356631
 20
2090.586016389043
 10
1068.707912536862
 20
2090.52432418305
 10
1068.808281363285
 20
2090.458565694739
 10
1068.905940267186
 20
2090.388846123663
 10
1069.000733015155
 20
2090.315277006263
 10
1069.092507959014
 20
2090.237976037432
 10
1069.181118278431
 20
2090.157066882232
 10
1069.266422215798
 20
2090.072678978051
 10
1069.348283303012
 20
2089.984947327534
 10
1069.426570579796
 20
2089.894012282605
 10
1069.501158803209
 20
2089.80001931994
 10
1069.571928648002
 20
2089.703118808227
 10
1069.638766897523
 20
2089.603465767615
 10
1069.701566624829
 20
2089.501219621708
 10
1069.760227363754
 20
2089.39654394253
 10
1069.814655269629
 20
2089.28960618884
 10
1069.864763269415
 20
2089.180577438229
 10
1069.910471201001
 20
2089.06963211344
 10
1069.951705941448
 20
2088.956947703326
 10
1069.988401523967
 20
2088.842704478905
 10
1070.020499243454
 20
2088.727085204967
 10
1070.047947750405
 20
2088.610274847684
 10
1070.070703133065
 20
2088.49246027871
 10
1070.088728987674
 20
2088.373829976224
 10
1070.101996476712
 20
2088.254573723402
 10
1070.110484375026
 20
2088.13488230481
 10
1070.114179103789
 20
2088.014947201184
 10
1070.114353943099
 20
2087.98255885001
1001
REVIT
1002
{
1070
     3
1000
790271
1002
}
  0
LINE
  5
237
330
22C
100
AcDbEntity
  8
M-PIPE
100
AcDbLine
 10
1058.614353943101
 20
2064.482558850032
 30
0.0
 11
1058.614353943101
 21
2059.798825462898
 31
0.0
1001
REVIT
1002
{
1070
     3
1000
790271
1002
}
  0
LINE
  5
238
330
22C
100
AcDbEntity
  8
M-PIPE
100
AcDbLine
 10
1075.614353943097
 20
2059.802491049969
 30
0.0
 11
1075.614353943097
 21
2064.482558850032
 31
0.0
1001
REVIT
1002
{
1070
     3
1000
790271
1002
}
  0
LINE
  5
239
330
22C
100
AcDbEntity
  8
M-PIPE
100
AcDbLine
 10
1059.903251392172
 20
2060.778728156817
 30
0.0
 11
1059.903251392172
 21
2060.799212676403
 31
0.0
1001
REVIT
1002
{
1070
     3
1000
790271
1002
}
  0
SPLINE
  5
23A
330
22C
100
AcDbEntity
  8
M-PIPE
100
AcDbSpline
210
0.0
220
0.0
230
1.0
 70
     8
 71
     3
 72
     8
 73
     4
 74
     0
 42
0.000000001
 43
0.0000000001
 40
0.125
 40
0.125
 40
0.125
 40
0.125
 40
0.25
 40
0.25
 40
0.25
 40
0.25
 10
1060.388635643826
 20
2061.11272464132
 30
0.0
 10
1060.562041517443
 20
2061.216496324982
 30
0.0
 10
1060.746709977855
 20
2061.319832306617
 30
0.0
 10
1060.941628499557
 20
2061.423601660814
 30
0.0
1001
REVIT
1002
{
1070
     3
1000
790271
1002
}
  0
LINE
  5
23B
330
22C
100
AcDbEntity
  8
M-PIPE
100
AcDbLine
 10
1068.788637257743
 20
2062.860616928835
 30
0.0
 11
1068.788637257743
 21
2062.87429168087
 31
0.0
1001
REVIT
1002
{
1070
     3
1000
790271
1002
}
  0
SPLINE
  5
23C
330
22C
100
AcDbEntity
  8
M-PIPE
100
AcDbSpline
210
0.0
220
0.0
230
1.0
 70
     8
 71
     3
 72
     8
 73
     4
 74
     0
 42
0.000000001
 43
0.0000000001
 40
0.7409384038620655
 40
0.7409384038620655
 40
0.7409384038620655
 40
0.7409384038620655
 40
0.75
 40
0.75
 40
0.75
 40
0.75
 10
1073.244528361219
 20
2061.446173413603
 30
0.0
 10
1073.258765701783
 20
2061.438647723803
 30
0.0
 10
1073.273006601169
 20
2061.431125809419
 30
0.0
 10
1073.287079386637
 20
2061.423601660814
 30
0.0
1001
REVIT
1002
{
1070
     3
1000
790271
1002
}
  0
LINE
  5
23D
330
22C
100
AcDbEntity
  8
M-PIPE
100
AcDbLine
 10
1067.114353943097
 20
2064.482558850032
 30
0.0
 11
1058.903984419642
 21
2064.482558850032
 31
0.0
1001
REVIT
1002
{
1070
     3
1000
790271
1002
}
  0
LINE
  5
23E
330
22C
100
AcDbEntity
  8
M-PIPE
100
AcDbLine
 10
1058.903969705847
 20
2064.482558850032
 30
0.0
 11
1058.614353943099
 21
2064.482558850032
 31
0.0
1001
REVIT
1002
{
1070
     3
1000
790271
1002
}
  0
LINE
  5
23F
330
22C
100
AcDbEntity
  8
M-PIPE
100
AcDbLine
 10
1075.614353943095
 20
2064.482558850032
 30
0.0
 11
1067.114353943097
 21
2064.482558850032
 31
0.0
1001
REVIT
1002
{
1070
     3
1000
790271
1002
}
  0
ARC
  5
240
330
22C
100
AcDbEntity
  8
M-PIPE
100
AcDbCircle
 10
1067.114353943097
 20
2049.982558850009
 30
0.0
 40
13.00000000000001
100
AcDbArc
 50
164.5349711025233
 51
166.2332893034415
1001
REVIT
1002
{
1070
     3
1000
790271
1002
}
  0
ARC
  5
241
330
22C
100
AcDbEntity
  8
M-PIPE
100
AcDbCircle
 10
1067.114353943097
 20
2049.982558850009
 30
0.0
 40
12.99999999999997
100
AcDbArc
 50
118.0498018664655
 51
159.3499339553023
1001
REVIT
1002
{
1070
     3
1000
790271
1002
}
  0
ARC
  5
242
330
22C
100
AcDbEntity
  8
M-PIPE
100
AcDbCircle
 10
1067.114353943097
 20
2049.982558850009
 30
0.0
 40
12.99999999999999
100
AcDbArc
 50
111.1664465183264
 51
112.8663125755597
1001
REVIT
1002
{
1070
     3
1000
790271
1002
}
  0
ARC
  5
243
330
22C
100
AcDbEntity
  8
M-PIPE
100
AcDbCircle
 10
1067.114353943097
 20
2049.982558850009
 30
0.0
 40
12.9999999999998
100
AcDbArc
 50
104.2830911701858
 51
105.3561237153691
1001
REVIT
1002
{
1070
     3
1000
790271
1002
}
  0
ARC
  5
244
330
22C
100
AcDbEntity
  8
M-PIPE
100
AcDbCircle
 10
1067.114353943097
 20
2049.982558850009
 30
0.0
 40
12.99999999999992
100
AcDbArc
 50
97.39973582204678
 51
97.79620772717782
1001
REVIT
1002
{
1070
     3
1000
790271
1002
}
  0
ARC
  5
245
330
22C
100
AcDbEntity
  8
M-PIPE
100
AcDbCircle
 10
1067.114353943097
 20
2049.982558850009
 30
0.0
 40
12.99999999999994
100
AcDbArc
 50
73.28857594386869
 51
75.71690882981387
1001
REVIT
1002
{
1070
     3
1000
790271
1002
}
  0
ARC
  5
246
330
22C
100
AcDbEntity
  8
M-PIPE
100
AcDbCircle
 10
1067.114353943097
 20
2049.982558850009
 30
0.0
 40
12.99999999999978
100
AcDbArc
 50
67.76208412100749
 51
68.83355348167349
1001
REVIT
1002
{
1070
     3
1000
790271
1002
}
  0
ARC
  5
247
330
22C
100
AcDbEntity
  8
M-PIPE
100
AcDbCircle
 10
1067.114353943097
 20
2049.982558850009
 30
0.0
 40
12.99999999999984
100
AcDbArc
 50
61.95019813353464
 51
62.2261206189319
1001
REVIT
1002
{
1070
     3
1000
790271
1002
}
  0
ARC
  5
248
330
22C
100
AcDbEntity
  8
M-PIPE
100
AcDbCircle
 10
1067.114353943097
 20
2049.982558850009
 30
0.0
 40
13.0
100
AcDbArc
 50
55.06684278539506
 51
56.61149911410421
1001
REVIT
1002
{
1070
     3
1000
790271
1002
}
  0
LINE
  5
249
330
22C
100
AcDbEntity
  8
M-PIPE
100
AcDbLine
 10
1074.675392875308
 20
2060.557561935852
 30
0.0
 11
1074.687038784892
 21
2060.549225509218
 31
0.0
1001
REVIT
1002
{
1070
     3
1000
790271
1002
}
  0
ARC
  5
24A
330
22C
100
AcDbEntity
  8
M-PIPE
100
AcDbCircle
 10
1067.114353943097
 20
2049.982558850009
 30
0.0
 40
12.99999999999995
100
AcDbArc
 50
45.53833239540653
 51
50.9792613358597
1001
REVIT
1002
{
1070
     3
1000
790271
1002
}
  0
ARC
  5
24B
330
22C
100
AcDbEntity
  8
M-PIPE
100
AcDbCircle
 10
1067.114353943097
 20
2049.982558850009
 30
0.0
 40
12.9999999999999
100
AcDbArc
 50
39.85674757386249
 51
41.30013208911569
1001
REVIT
1002
{
1070
     3
1000
790271
1002
}
  0
ARC
  5
24C
330
22C
100
AcDbEntity
  8
M-PIPE
100
AcDbCircle
 10
1067.114353943097
 20
2049.982558850009
 30
0.0
 40
12.99999999999976
100
AcDbArc
 50
34.15752359706928
 51
34.41677674097629
1001
REVIT
1002
{
1070
     3
1000
790271
1002
}
  0
ARC
  5
24D
330
22C
100
AcDbEntity
  8
M-PIPE
100
AcDbCircle
 10
1067.114353943097
 20
2049.982558850009
 30
0.0
 40
12.99999999999984
100
AcDbArc
 50
27.5334213928361
 51
28.51095775405347
1001
REVIT
1002
{
1070
     3
1000
790271
1002
}
  0
ARC
  5
24E
330
22C
100
AcDbEntity
  8
M-PIPE
100
AcDbCircle
 10
1067.114353943097
 20
2049.982558850009
 30
0.0
 40
12.99999999999987
100
AcDbArc
 50
20.65006604469796
 51
22.84701607453492
1001
REVIT
1002
{
1070
     3
1000
790271
1002
}
  0
ARC
  5
24F
330
22C
100
AcDbEntity
  8
M-PIPE
100
AcDbCircle
 10
1067.114353943097
 20
2049.982558850009
 30
0.0
 40
12.99999999999978
100
AcDbArc
 50
13.36804903799313
 51
13.76671069655829
1001
REVIT
1002
{
1070
     3
1000
790271
1002
}
  0
ARC
  5
250
330
22C
100
AcDbEntity
  8
M-PIPE
100
AcDbCircle
 10
1067.114353943097
 20
2049.982558850009
 30
0.0
 40
13.00000000000003
100
AcDbArc
 50
172.360580920385
 51
172.5000000000001
1001
REVIT
1002
{
1070
     3
1000
790271
1002
}
  0
ARC
  5
251
330
22C
100
AcDbEntity
  8
M-PIPE
100
AcDbCircle
 10
1067.114353943097
 20
2049.982558850009
 30
0.0
 40
12.99999999999992
100
AcDbArc
 50
164.7825930952278
 51
164.9999999999979
1001
REVIT
1002
{
1070
     3
1000
790271
1002
}
  0
ARC
  5
252
330
22C
100
AcDbEntity
  8
M-PIPE
100
AcDbCircle
 10
1067.114353943097
 20
2049.982558850009
 30
0.0
 40
12.99999999999991
100
AcDbArc
 50
157.2675002358865
 51
157.4999999999981
1001
REVIT
1002
{
1070
     3
1000
790271
1002
}
  0
ARC
  5
253
330
22C
100
AcDbEntity
  8
M-PIPE
100
AcDbCircle
 10
1067.114353943097
 20
2049.982558850009
 30
0.0
 40
13.0
100
AcDbArc
 50
149.8169601520364
 51
149.9999999999989
1001
REVIT
1002
{
1070
     3
1000
790271
1002
}
  0
ARC
  5
254
330
22C
100
AcDbEntity
  8
M-PIPE
100
AcDbCircle
 10
1067.114353943097
 20
2049.982558850009
 30
0.0
 40
13.00000000000008
100
AcDbArc
 50
134.9999999999996
 51
135.2516937980573
1001
REVIT
1002
{
1070
     3
1000
790271
1002
}
  0
ARC
  5
255
330
22C
100
AcDbEntity
  8
M-PIPE
100
AcDbCircle
 10
1067.114353943097
 20
2049.982558850009
 30
0.0
 40
13.00000000000007
100
AcDbArc
 50
127.4999999999985
 51
128.0513005250907
1001
REVIT
1002
{
1070
     3
1000
790271
1002
}
  0
ARC
  5
256
330
22C
100
AcDbEntity
  8
M-PIPE
100
AcDbCircle
 10
1067.114353943097
 20
2049.982558850009
 30
0.0
 40
13.00000000000008
100
AcDbArc
 50
119.999999999999
 51
120.6753544684668
1001
REVIT
1002
{
1070
     3
1000
790271
1002
}
  0
ARC
  5
257
330
22C
100
AcDbEntity
  8
M-PIPE
100
AcDbCircle
 10
1067.114353943097
 20
2049.982558850009
 30
0.0
 40
12.99999999999997
100
AcDbArc
 50
112.5
 51
113.1437709076159
1001
REVIT
1002
{
1070
     3
1000
790271
1002
}
  0
ARC
  5
258
330
22C
100
AcDbEntity
  8
M-PIPE
100
AcDbCircle
 10
1067.114353943097
 20
2049.982558850009
 30
0.0
 40
13.0000000000001
100
AcDbArc
 50
104.9999999999986
 51
105.5195023316651
1001
REVIT
1002
{
1070
     3
1000
790271
1002
}
  0
ARC
  5
259
330
22C
100
AcDbEntity
  8
M-PIPE
100
AcDbCircle
 10
1067.114353943097
 20
2049.982558850009
 30
0.0
 40
13.00000000000004
100
AcDbArc
 50
97.49999999999891
 51
97.80427210047152
1001
REVIT
1002
{
1070
     3
1000
790271
1002
}
  0
ARC
  5
25A
330
22C
100
AcDbEntity
  8
M-PIPE
100
AcDbCircle
 10
1067.114353943097
 20
2049.982558850009
 30
0.0
 40
13.00000000000012
100
AcDbArc
 50
82.49999999999916
 51
84.3679614032368
1001
REVIT
1002
{
1070
     3
1000
790271
1002
}
  0
ARC
  5
25B
330
22C
100
AcDbEntity
  8
M-PIPE
100
AcDbCircle
 10
1067.114353943097
 20
2049.982558850009
 30
0.0
 40
13.00000000000015
100
AcDbArc
 50
73.09475308960705
 51
74.99999999999957
1001
REVIT
1002
{
1070
     3
1000
790271
1002
}
  0
ARC
  5
25C
330
22C
100
AcDbEntity
  8
M-PIPE
100
AcDbCircle
 10
1067.114353943097
 20
2049.982558850009
 30
0.0
 40
13.0000000000002
100
AcDbArc
 50
59.99999999999967
 51
61.82859487052646
1001
REVIT
1002
{
1070
     3
1000
790271
1002
}
  0
ARC
  5
25D
330
22C
100
AcDbEntity
  8
M-PIPE
100
AcDbCircle
 10
1067.114353943097
 20
2049.982558850009
 30
0.0
 40
13.00000000000019
100
AcDbArc
 50
50.54526691495977
 51
52.50000000000013
1001
REVIT
1002
{
1070
     3
1000
790271
1002
}
  0
ARC
  5
25E
330
22C
100
AcDbEntity
  8
M-PIPE
100
AcDbCircle
 10
1067.114353943097
 20
2049.982558850009
 30
0.0
 40
13.00000000000031
100
AcDbArc
 50
37.4999999999995
 51
39.45473308504129
1001
REVIT
1002
{
1070
     3
1000
790271
1002
}
  0
ARC
  5
25F
330
22C
100
AcDbEntity
  8
M-PIPE
100
AcDbCircle
 10
1067.114353943097
 20
2049.982558850009
 30
0.0
 40
13.00000000000008
100
AcDbArc
 50
28.17140512947373
 51
30.00000000000017
1001
REVIT
1002
{
1070
     3
1000
790271
1002
}
  0
ARC
  5
260
330
22C
100
AcDbEntity
  8
M-PIPE
100
AcDbCircle
 10
1067.114353943097
 20
2049.982558850009
 30
0.0
 40
13.00000000000023
100
AcDbArc
 50
15.00000000000099
 51
16.90524691039262
1001
REVIT
1002
{
1070
     3
1000
790271
1002
}
  0
ARC
  5
261
330
22C
100
AcDbEntity
  8
M-PIPE
100
AcDbCircle
 10
1067.114353943097
 20
2049.982558850009
 30
0.0
 40
13.00000000000022
100
AcDbArc
 50
5.632038596762318
 51
7.499999999999854
1001
REVIT
1002
{
1070
     3
1000
790271
1002
}
  0
ARC
  5
262
330
22C
100
AcDbEntity
  8
M-PIPE
100
AcDbCircle
 10
1067.114353943097
 20
2049.982558850009
 30
0.0
 40
13.00000000000037
100
AcDbArc
 50
359.9999999999986
 51
89.999999999999
1001
REVIT
1002
{
1070
     3
1000
790271
1002
}
  0
ARC
  5
263
330
22C
100
AcDbEntity
  8
M-PIPE
100
AcDbCircle
 10
1067.114353943097
 20
2049.982558850009
 30
0.0
 40
12.99999999999988
100
AcDbArc
 50
89.99999999999849
 51
180.0000000000005
1001
REVIT
1002
{
1070
     3
1000
790271
1002
}
  0
LINE
  5
264
330
22C
100
AcDbEntity
  8
M-PIPE
100
AcDbLine
 10
1085.414353943097
 20
2043.982558850072
 30
0.0
 11
1085.414353943097
 21
2039.982558850072
 31
0.0
1001
REVIT
1002
{
1070
     3
1000
790271
1002
}
  0
LINE
  5
265
330
22C
100
AcDbEntity
  8
M-PIPE
100
AcDbLine
 10
1048.814353943097
 20
2039.982558850073
 30
0.0
 11
1048.814353943097
 21
2043.982558850073
 31
0.0
1001
REVIT
1002
{
1070
     3
1000
790271
1002
}
  0
LINE
  5
266
330
22C
100
AcDbEntity
  8
M-PIPE
100
AcDbLine
 10
1083.014353943096
 20
2043.982558850072
 30
0.0
 11
1085.414353943097
 21
2043.982558850072
 31
0.0
1001
REVIT
1002
{
1070
     3
1000
790271
1002
}
  0
LINE
  5
267
330
22C
100
AcDbEntity
  8
M-PIPE
100
AcDbLine
 10
1048.814353943097
 20
2043.982558850073
 30
0.0
 11
1051.214353943096
 21
2043.982558850073
 31
0.0
1001
REVIT
1002
{
1070
     3
1000
790271
1002
}
  0
LINE
  5
268
330
22C
100
AcDbEntity
  8
M-PIPE
100
AcDbLine
 10
1083.014353943096
 20
2039.982558850072
 30
0.0
 11
1085.414353943097
 21
2039.982558850072
 31
0.0
1001
REVIT
1002
{
1070
     3
1000
790271
1002
}
  0
LINE
  5
269
330
22C
100
AcDbEntity
  8
M-PIPE
100
AcDbLine
 10
1048.814353943097
 20
2039.982558850073
 30
0.0
 11
1051.214353943096
 21
2039.982558850073
 31
0.0
1001
REVIT
1002
{
1070
     3
1000
790271
1002
}
  0
LINE
  5
26A
330
22C
100
AcDbEntity
  8
M-PIPE
100
AcDbLine
 10
1080.114353943097
 20
2045.282558850009
 30
0.0
 11
1080.114353943097
 21
2049.982558850009
 31
0.0
1001
REVIT
1002
{
1070
     3
1000
790271
1002
}
  0
LINE
  5
26B
330
22C
100
AcDbEntity
  8
M-PIPE
100
AcDbLine
 10
1054.114353943097
 20
2049.982558850009
 30
0.0
 11
1054.114353943097
 21
2045.282558850009
 31
0.0
1001
REVIT
1002
{
1070
     3
1000
790271
1002
}
  0
LINE
  5
26C
330
22C
100
AcDbEntity
  8
P-SANR-FIXT
100
AcDbLine
 10
1061.014353943096
 20
2054.282558850009
 30
0.0
 11
1073.214353943096
 21
2054.282558850009
 31
0.0
  0
LINE
  5
26D
330
22C
100
AcDbEntity
  8
P-SANR-FIXT
100
AcDbLine
 10
1073.214353943096
 20
2054.282558850009
 30
0.0
 11
1073.214353943096
 21
2045.282558850009
 31
0.0
  0
LINE
  5
26E
330
22C
100
AcDbEntity
  8
P-SANR-FIXT
100
AcDbLine
 10
1061.014353943096
 20
2045.282558850009
 30
0.0
 11
1061.014353943096
 21
2054.282558850009
 31
0.0
  0
LINE
  5
26F
330
22C
100
AcDbEntity
  8
P-SANR-FIXT
100
AcDbLine
 10
1083.014353943099
 20
2032.48255885001
 30
0.0
 11
1083.014353943099
 21
2045.28255885001
 31
0.0
  0
LINE
  5
270
330
22C
100
AcDbEntity
  8
P-SANR-FIXT
100
AcDbLine
 10
1051.214353943099
 20
2045.28255885001
 30
0.0
 11
1051.214353943099
 21
2032.48255885001
 31
0.0
  0
LINE
  5
271
330
22C
100
AcDbEntity
  8
P-SANR-FIXT
100
AcDbLine
 10
1083.014353943096
 20
2045.282558850009
 30
0.0
 11
1067.114353943096
 21
2045.282558850009
 31
0.0
  0
LINE
  5
272
330
22C
100
AcDbEntity
  8
P-SANR-FIXT
100
AcDbLine
 10
1067.114353943096
 20
2045.282558850009
 30
0.0
 11
1051.214353943096
 21
2045.282558850009
 31
0.0
  0
LINE
  5
273
330
22C
100
AcDbEntity
  8
P-SANR-FIXT
100
AcDbLine
 10
1067.114353943096
 20
2032.482558850009
 30
0.0
 11
1083.014353943096
 21
2032.482558850009
 31
0.0
  0
LINE
  5
274
330
22C
100
AcDbEntity
  8
P-SANR-FIXT
100
AcDbLine
 10
1051.214353943096
 20
2032.482558850009
 30
0.0
 11
1067.114353943096
 21
2032.482558850009
 31
0.0
  0
LINE
  5
275
330
22C
100
AcDbEntity
  8
P-SANR-FIXT
100
AcDbLine
 10
1082.764353943098
 20
2023.278642211813
 30
0.0
 11
1082.764353943098
 21
2032.48255885001
 31
0.0
  0
LINE
  5
276
330
22C
100
AcDbEntity
  8
P-SANR-FIXT
100
AcDbLine
 10
1051.464353943099
 20
2032.48255885001
 30
0.0
 11
1051.464353943099
 21
2023.278642211813
 31
0.0
  0
LINE
  5
277
330
22C
100
AcDbEntity
  8
P-SANR-FIXT
100
AcDbLine
 10
1068.559869043295
 20
1969.21649822966
 30
0.0
 11
1068.545494615214
 21
1969.215826225687
 31
0.0
  0
LINE
  5
278
330
22C
100
AcDbEntity
  8
P-SANR-FIXT
100
AcDbLine
 10
1093.787936379657
 20
2015.38255885001
 30
0.0
 11
1093.812471684874
 21
2015.339984058885
 31
0.0
  0
LINE
  5
279
330
22C
100
AcDbEntity
  8
P-SANR-FIXT
100
AcDbLine
 10
1040.440771506536
 20
1984.582558850011
 30
0.0
 11
1040.41623620132
 21
1984.625133641136
 31
0.0
  0
ARC
  5
27A
330
22C
100
AcDbEntity
  8
P-SANR-FIXT
100
AcDbCircle
 10
1067.114353943096
 20
1999.982558850011
 30
0.0
 40
19.04999999999972
100
AcDbArc
 50
269.9999999999997
 51
90.0
  0
LINE
  5
27B
330
22C
100
AcDbEntity
  8
P-SANR-FIXT
100
AcDbLine
 10
1070.002198436625
 20
1969.318241571108
 30
0.0
 11
1092.226509449567
 21
1982.149453516984
 31
0.0
  0
LINE
  5
27C
330
22C
100
AcDbEntity
  8
P-SANR-FIXT
100
AcDbLine
 10
1095.114353943096
 20
1987.151346904135
 30
0.0
 11
1095.114353943096
 21
2012.813770795887
 31
0.0
  0
LINE
  5
27D
330
22C
100
AcDbEntity
  8
P-SANR-FIXT
100
AcDbLine
 10
1092.226509449567
 20
2017.815664183038
 30
0.0
 11
1070.002198436626
 21
2030.646876128913
 31
0.0
  0
ARC
  5
27E
330
22C
100
AcDbEntity
  8
P-SANR-FIXT
100
AcDbCircle
 10
1067.114353943096
 20
1999.982558850011
 30
0.0
 40
19.04999999999995
100
AcDbArc
 50
90.00000000000067
 51
269.9999999999997
  0
LINE
  5
27F
330
22C
100
AcDbEntity
  8
P-SANR-FIXT
100
AcDbLine
 10
1064.226509449567
 20
2030.646876128913
 30
0.0
 11
1042.002198436626
 21
2017.815664183038
 31
0.0
  0
LINE
  5
280
330
22C
100
AcDbEntity
  8
P-SANR-FIXT
100
AcDbLine
 10
1039.114353943096
 20
2012.813770795887
 30
0.0
 11
1039.114353943096
 21
1987.151346904135
 31
0.0
  0
LINE
  5
281
330
22C
100
AcDbEntity
  8
P-SANR-FIXT
100
AcDbLine
 10
1042.002198436626
 20
1982.149453516984
 30
0.0
 11
1064.226509449567
 21
1969.318241571108
 31
0.0
  0
ARC
  5
282
330
22C
100
AcDbEntity
  8
P-SANR-FIXT
100
AcDbCircle
 10
1067.114353943096
 20
1999.982558850011
 30
0.0
 40
30.79999999999985
100
AcDbArc
 50
84.61997732865532
 51
90.0
  0
ARC
  5
283
330
22C
100
AcDbEntity
  8
P-SANR-FIXT
100
AcDbCircle
 10
1067.114353943096
 20
1999.982558850011
 30
0.0
 40
30.79999999999948
100
AcDbArc
 50
269.999999999999
 51
275.3800226713429
  0
ARC
  5
284
330
22C
100
AcDbEntity
  8
P-SANR-FIXT
100
AcDbCircle
 10
1067.114353943096
 20
1999.982558850011
 30
0.0
 40
30.79999999999949
100
AcDbArc
 50
24.619977328655
 51
35.38002267134356
  0
ARC
  5
285
330
22C
100
AcDbEntity
  8
P-SANR-FIXT
100
AcDbCircle
 10
1067.114353943096
 20
1999.982558850011
 30
0.0
 40
30.79999999999968
100
AcDbArc
 50
324.6199773286546
 51
335.3800226713433
  0
ARC
  5
286
330
22C
100
AcDbEntity
  8
P-SANR-FIXT
100
AcDbCircle
 10
1067.114353943096
 20
1999.982558850011
 30
0.0
 40
30.79999999999973
100
AcDbArc
 50
90.0
 51
95.38002267134388
  0
ARC
  5
287
330
22C
100
AcDbEntity
  8
P-SANR-FIXT
100
AcDbCircle
 10
1067.114353943096
 20
1999.982558850011
 30
0.0
 40
30.79999999999964
100
AcDbArc
 50
264.6199773286545
 51
269.9999999999992
  0
ARC
  5
288
330
22C
100
AcDbEntity
  8
P-SANR-FIXT
100
AcDbCircle
 10
1067.114353943096
 20
1999.982558850011
 30
0.0
 40
30.79999999999979
100
AcDbArc
 50
204.6199773286548
 51
215.3800226713435
  0
ARC
  5
289
330
22C
100
AcDbEntity
  8
P-SANR-FIXT
100
AcDbCircle
 10
1067.114353943096
 20
1999.982558850011
 30
0.0
 40
30.79999999999987
100
AcDbArc
 50
144.6199773286552
 51
155.3800226713436
  0
LINE
  5
28A
330
22C
100
AcDbEntity
  8
P-SANR-FIXT
100
AcDbLine
 10
1093.812471684874
 20
2015.339984058885
 30
0.0
 11
1093.787936379657
 21
2015.38255885001
 31
0.0
  0
LINE
  5
28B
330
22C
100
AcDbEntity
  8
P-SANR-FIXT
100
AcDbLine
 10
1068.545494615213
 20
1969.215826225687
 30
0.0
 11
1068.559869043295
 21
1969.21649822966
 31
0.0
  0
LINE
  5
28C
330
22C
100
AcDbEntity
  8
P-SANR-FIXT
100
AcDbLine
 10
1040.416236201319
 20
1984.625133641136
 30
0.0
 11
1040.440771506536
 21
1984.582558850011
 31
0.0
  0
LINE
  5
28D
330
22C
100
AcDbEntity
  8
P-SANR-FIXT
100
AcDbLine
 10
1065.683213270979
 20
2030.749291474334
 30
0.0
 11
1065.668838842898
 21
2030.748619470361
 31
0.0
  0
LINE
  5
28E
330
22C
100
AcDbEntity
  8
P-SANR-FIXT
100
AcDbLine
 10
1058.894210279873
 20
2017.167777444954
 30
0.0
 11
1058.9052144429
 21
2017.173036698701
 31
0.0
  0
ENDBLK
  5
290
330
22C
100
AcDbEntity
  8
0
100
AcDbBlockEnd
  0
ENDSEC
  0
SECTION
  2
ENTITIES
  0
INSERT
  5
13E
330
71
100
AcDbEntity
  8
P-SANR-FIXT
100
AcDbBlockReference
  2
Automatic flow rate regulator valve_Caleffi_121 DN15 - 1_2__-859151-Est - Idraulica
 10
0.0
 20
0.0
 30
0.0
1001
REVIT
1002
{
1070
     1
1000
863131
1002
}
1002
{
1070
     5
1000
859151
1002
}
1002
{
1070
     2
1000
-2001160
1002
}
  0
INSERT
  5
22B
330
71
100
AcDbEntity
  8
P-SANR-FIXT
100
AcDbBlockReference
  2
Automatic flow rate regulator valve_Caleffi_121 DN15 - 1_2__-V1-Est - Idraulica
 10
0.0
 20
0.0
 30
0.0
1001
REVIT
1002
{
1070
     1
1000
863152
1002
}
1002
{
1070
     5
1000
859151
1002
}
1002
{
1070
     2
1000
-2001160
1002
}
  0
INSERT
  5
291
330
71
100
AcDbEntity
  8
P-SANR-FIXT
100
AcDbBlockReference
  2
Automatic flow rate regulator valve_Caleffi_121 DN15 - 1_2__-V2-Est - Idraulica
 10
0.0
 20
0.0
 30
0.0
1001
REVIT
1002
{
1070
     1
1000
863172
1002
}
1002
{
1070
     5
1000
859151
1002
}
1002
{
1070
     2
1000
-2001160
1002
}
  0
ENDSEC
  0
SECTION
  2
OBJECTS
  0
DICTIONARY
  5
C
330
0
100
AcDbDictionary
281
     1
  3
ACAD_CIP_PREVIOUS_PRODUCT_INFO
350
7A
  3
ACAD_COLOR
350
63
  3
ACAD_DETAILVIEWSTYLE
350
6B
  3
ACAD_GROUP
350
D
  3
ACAD_IMAGE_VARS
350
7B
  3
ACAD_LAYOUT
350
62
  3
ACAD_MATERIAL
350
10
  3
ACAD_MLEADERSTYLE
350
66
  3
ACAD_MLINESTYLE
350
5F
  3
ACAD_PLOTSETTINGS
350
61
  3
ACAD_PLOTSTYLENAME
350
E
  3
ACAD_SCALELIST
350
42
  3
ACAD_SECTIONVIEWSTYLE
350
68
  3
ACAD_TABLESTYLE
350
64
  3
ACAD_VISUALSTYLE
350
29
  3
ACDB_RECOMPOSE_DATA
350
29C
  3
AcDbVariableDictionary
350
7C
  3
REVIT_DICTIONARY
350
293
  0
DICTIONARY
  5
298
330
71
100
AcDbDictionary
280
     1
281
     1
  3
ACAD_SORTENTS
360
299
  0
XRECORD
  5
7A
102
{ACAD_REACTORS
330
C
102
}
330
C
100
AcDbXrecord
280
     1
300
RVT
300
2013
300
RVT2013
  0
DICTIONARY
  5
63
102
{ACAD_REACTORS
330
C
102
}
330
C
100
AcDbDictionary
281
     1
  0
DICTIONARY
  5
6B
102
{ACAD_REACTORS
330
C
102
}
330
C
100
AcDbDictionary
281
     1
  3
Imperial24
350
6C
  0
DICTIONARY
  5
D
102
{ACAD_REACTORS
330
C
102
}
330
C
100
AcDbDictionary
281
     1
  0
RASTERVARIABLES
  5
7B
102
{ACAD_REACTORS
330
C
102
}
330
C
100
AcDbRasterVariables
 90
        0
 70
     0
 71
     1
 72
     1
  0
DICTIONARY
  5
62
102
{ACAD_REACTORS
330
C
102
}
330
C
100
AcDbDictionary
281
     1
  3
Layout1
350
70
  3
Layout2
350
78
  3
Model
350
74
  0
DICTIONARY
  5
10
102
{ACAD_REACTORS
330
C
102
}
330
C
100
AcDbDictionary
281
     1
  3
ByBlock
350
19
  3
ByLayer
350
11
  3
Global
350
21
  0
DICTIONARY
  5
66
102
{ACAD_REACTORS
330
C
102
}
330
C
100
AcDbDictionary
281
     1
  3
Standard
350
67
  0
DICTIONARY
  5
5F
102
{ACAD_REACTORS
330
C
102
}
330
C
100
AcDbDictionary
281
     1
  3
Standard
350
60
  0
DICTIONARY
  5
61
102
{ACAD_REACTORS
330
C
102
}
330
C
100
AcDbDictionary
281
     1
  0
ACDBDICTIONARYWDFLT
  5
E
102
{ACAD_REACTORS
330
C
102
}
330
C
100
AcDbDictionary
281
     1
  3
Normal
350
F
100
AcDbDictionaryWithDefault
340
F
  0
DICTIONARY
  5
42
102
{ACAD_REACTORS
330
C
102
}
330
C
100
AcDbDictionary
281
     1
  3
A0
350
43
  3
A1
350
44
  3
A2
350
45
  3
A3
350
46
  3
A4
350
47
  3
A5
350
48
  3
A6
350
49
  3
A7
350
4A
  3
A8
350
4B
  3
A9
350
4C
  3
B0
350
4D
  3
B1
350
4E
  3
B2
350
4F
  3
B3
350
50
  3
B4
350
51
  3
B5
350
52
  3
B6
350
53
  0
DICTIONARY
  5
68
102
{ACAD_REACTORS
330
C
102
}
330
C
100
AcDbDictionary
281
     1
  3
Imperial24
350
6A
  0
DICTIONARY
  5
64
102
{ACAD_REACTORS
330
C
102
}
330
C
100
AcDbDictionary
281
     1
  3
Standard
350
65
  0
DICTIONARY
  5
29
102
{ACAD_REACTORS
330
C
102
}
330
C
100
AcDbDictionary
281
     1
  3
2dWireframe
350
2F
  3
Basic
350
2E
  3
Brighten
350
35
  3
ColorChange
350
39
  3
Conceptual
350
32
  3
Dim
350
34
  3
EdgeColorOff
350
41
  3
Facepattern
350
38
  3
Flat
350
2A
  3
FlatWithEdges
350
2B
  3
Gouraud
350
2C
  3
GouraudWithEdges
350
2D
  3
Hidden
350
31
  3
JitterOff
350
3F
  3
Linepattern
350
37
  3
OverhangOff
350
40
  3
Realistic
350
33
  3
Shaded
350
3E
  3
Shaded with edges
350
3D
  3
Shades of Gray
350
3A
  3
Sketchy
350
3B
  3
Thicken
350
36
  3
Wireframe
350
30
  3
X-Ray
350
3C
  0
XRECORD
  5
29C
102
{ACAD_REACTORS
330
C
102
}
330
C
100
AcDbXrecord
280
     1
 90
        1
330
65
  0
DICTIONARY
  5
7C
102
{ACAD_REACTORS
330
C
102
}
330
C
100
AcDbDictionary
281
     1
  3
CANNOSCALE
350
81
  3
CMLEADERSTYLE
350
7E
  3
CTABLESTYLE
350
7D
  3
CVIEWDETAILSTYLE
350
7F
  3
CVIEWSECTIONSTYLE
350
80
  0
DICTIONARY
  5
293
102
{ACAD_REACTORS
330
C
102
}
330
C
100
AcDbDictionary
281
     1
  3
DRAWING_TOOL
350
297
  3
REVIT_CATEGORY_MAPPING
350
295
  3
REVIT_SUB_CATEGORY_MAPPING
350
296
  3
REVIT_TYPE_MAPPING
350
294
  0
SORTENTSTABLE
  5
299
102
{ACAD_REACTORS
330
298
102
}
330
298
100
AcDbSortentsTable
330
71
  0
ACDBDETAILVIEWSTYLE
  5
6C
102
{ACAD_REACTORS
330
6B
102
}
330
6B
100
AcDbModelDocViewStyle
 70
     0
  3
Imperial24
290
     1
100
AcDbDetailViewStyle
 70
     0
 71
     0
 90
        3
 71
     1
340
55
 62
   256
 40
0.24
340
0
 62
   256
 40
0.24
300

 40
0.36
280
     3
 71
     2
340
5D
 90
       25
 62
   256
 71
     3
340
55
 62
   256
 40
0.24
 90
        1
 40
0.75
 90
        1
300
%<\AcVar ViewType \f "%tc1">% %<\AcVar ViewDetailId>%\PSCALA %<\AcVar ViewScale \f "%sn">%
 71
     4
340
5D
 90
       25
 62
   256
340
5D
 90
       25
 62
   256
280
     0
  0
LAYOUT
  5
70
102
{ACAD_REACTORS
330
62
102
}
330
62
100
AcDbPlotSettings
  1

  2

  4

  6

 40
0.0
 41
0.0
 42
0.0
 43
0.0
 44
0.0
 45
0.0
 46
0.0
 47
0.0
 48
0.0
 49
0.0
140
0.0
141
0.0
142
1.0
143
1.0
 70
   688
 72
     0
 73
     0
 74
     5
  7

 75
    16
147
1.0
 76
     0
 77
     2
 78
   300
148
0.0
149
0.0
100
AcDbLayout
  1
Layout1
 70
     1
 71
     1
 10
0.0
 20
0.0
 11
12.0
 21
9.0
 12
0.0
 22
0.0
 32
0.0
 14
0.0
 24
0.0
 34
0.0
 15
0.0
 25
0.0
 35
0.0
146
0.0
 13
0.0
 23
0.0
 33
0.0
 16
1.0
 26
0.0
 36
0.0
 17
0.0
 27
1.0
 37
0.0
 76
     0
330
6D
  0
LAYOUT
  5
78
102
{ACAD_REACTORS
330
62
102
}
330
62
100
AcDbPlotSettings
  1

  2

  4

  6

 40
0.0
 41
0.0
 42
0.0
 43
0.0
 44
0.0
 45
0.0
 46
0.0
 47
0.0
 48
0.0
 49
0.0
140
0.0
141
0.0
142
1.0
143
1.0
 70
   688
 72
     0
 73
     0
 74
     5
  7

 75
    16
147
1.0
 76
     0
 77
     2
 78
   300
148
0.0
149
0.0
100
AcDbLayout
  1
Layout2
 70
     1
 71
     2
 10
0.0
 20
0.0
 11
12.0
 21
9.0
 12
0.0
 22
0.0
 32
0.0
 14
0.0
 24
0.0
 34
0.0
 15
0.0
 25
0.0
 35
0.0
146
0.0
 13
0.0
 23
0.0
 33
0.0
 16
1.0
 26
0.0
 36
0.0
 17
0.0
 27
1.0
 37
0.0
 76
     0
330
75
  0
LAYOUT
  5
74
102
{ACAD_REACTORS
330
62
102
}
330
62
100
AcDbPlotSettings
  1

  2

  4

  6

 40
0.0
 41
0.0
 42
0.0
 43
0.0
 44
0.0
 45
0.0
 46
0.0
 47
0.0
 48
0.0
 49
0.0
140
0.0
141
0.0
142
1.0
143
1.0
 70
  1712
 72
     0
 73
     0
 74
     0
  7

 75
     0
147
1.0
 76
     0
 77
     2
 78
   300
148
0.0
149
0.0
100
AcDbLayout
  1
Model
 70
     1
 71
     0
 10
0.0
 20
0.0
 11
12.0
 21
9.0
 12
0.0
 22
0.0
 32
0.0
 14
0.0
 24
0.0
 34
0.0
 15
0.0
 25
0.0
 35
0.0
146
0.0
 13
0.0
 23
0.0
 33
0.0
 16
1.0
 26
0.0
 36
0.0
 17
0.0
 27
1.0
 37
0.0
 76
     0
330
71
  0
MATERIAL
  5
19
102
{ACAD_XDICTIONARY
360
1A
102
}
102
{ACAD_REACTORS
330
10
102
}
330
10
100
AcDbMaterial
  1
ByBlock
 72
     0
 43
0.0208333333333333
 43
0.0
 43
0.0
 43
0.0
 43
0.0
 43
0.0208333333333333
 43
0.0
 43
0.0
 43
0.0
 43
0.0
 43
1.0
 43
0.0
 43
0.0
 43
0.0
 43
0.0
 43
1.0
 77
     0
 47
0.0208333333333333
 47
0.0
 47
0.0
 47
0.0
 47
0.0
 47
0.0208333333333333
 47
0.0
 47
0.0
 47
0.0
 47
0.0
 47
1.0
 47
0.0
 47
0.0
 47
0.0
 47
0.0
 47
1.0
171
     0
 49
0.0208333333333333
 49
0.0
 49
0.0
 49
0.0
 49
0.0
 49
0.0208333333333333
 49
0.0
 49
0.0
 49
0.0
 49
0.0
 49
1.0
 49
0.0
 49
0.0
 49
0.0
 49
0.0
 49
1.0
175
     0
142
0.0208333333333333
142
0.0
142
0.0
142
0.0
142
0.0
142
0.0208333333333333
142
0.0
142
0.0
142
0.0
142
0.0
142
1.0
142
0.0
142
0.0
142
0.0
142
0.0
142
1.0
179
     0
144
0.0208333333333333
144
0.0
144
0.0
144
0.0
144
0.0
144
0.0208333333333333
144
0.0
144
0.0
144
0.0
144
0.0
144
1.0
144
0.0
144
0.0
144
0.0
144
0.0
144
1.0
147
0.0208333333333333
147
0.0
147
0.0
147
0.0
147
0.0
147
0.0208333333333333
147
0.0
147
0.0
147
0.0
147
0.0
147
1.0
147
0.0
147
0.0
147
0.0
147
0.0
147
1.0
  0
MATERIAL
  5
11
102
{ACAD_XDICTIONARY
360
12
102
}
102
{ACAD_REACTORS
330
10
102
}
330
10
100
AcDbMaterial
  1
ByLayer
 72
     0
 43
0.0208333333333333
 43
0.0
 43
0.0
 43
0.0
 43
0.0
 43
0.0208333333333333
 43
0.0
 43
0.0
 43
0.0
 43
0.0
 43
1.0
 43
0.0
 43
0.0
 43
0.0
 43
0.0
 43
1.0
 77
     0
 47
0.0208333333333333
 47
0.0
 47
0.0
 47
0.0
 47
0.0
 47
0.0208333333333333
 47
0.0
 47
0.0
 47
0.0
 47
0.0
 47
1.0
 47
0.0
 47
0.0
 47
0.0
 47
0.0
 47
1.0
171
     0
 49
0.0208333333333333
 49
0.0
 49
0.0
 49
0.0
 49
0.0
 49
0.0208333333333333
 49
0.0
 49
0.0
 49
0.0
 49
0.0
 49
1.0
 49
0.0
 49
0.0
 49
0.0
 49
0.0
 49
1.0
175
     0
142
0.0208333333333333
142
0.0
142
0.0
142
0.0
142
0.0
142
0.0208333333333333
142
0.0
142
0.0
142
0.0
142
0.0
142
1.0
142
0.0
142
0.0
142
0.0
142
0.0
142
1.0
179
     0
144
0.0208333333333333
144
0.0
144
0.0
144
0.0
144
0.0
144
0.0208333333333333
144
0.0
144
0.0
144
0.0
144
0.0
144
1.0
144
0.0
144
0.0
144
0.0
144
0.0
144
1.0
147
0.0208333333333333
147
0.0
147
0.0
147
0.0
147
0.0
147
0.0208333333333333
147
0.0
147
0.0
147
0.0
147
0.0
147
1.0
147
0.0
147
0.0
147
0.0
147
0.0
147
1.0
  0
MATERIAL
  5
21
102
{ACAD_XDICTIONARY
360
22
102
}
102
{ACAD_REACTORS
330
10
102
}
330
10
100
AcDbMaterial
  1
Global
 72
     0
 43
0.0208333333333333
 43
0.0
 43
0.0
 43
0.0
 43
0.0
 43
0.0208333333333333
 43
0.0
 43
0.0
 43
0.0
 43
0.0
 43
1.0
 43
0.0
 43
0.0
 43
0.0
 43
0.0
 43
1.0
 77
     0
 47
0.0208333333333333
 47
0.0
 47
0.0
 47
0.0
 47
0.0
 47
0.0208333333333333
 47
0.0
 47
0.0
 47
0.0
 47
0.0
 47
1.0
 47
0.0
 47
0.0
 47
0.0
 47
0.0
 47
1.0
171
     0
 49
0.0208333333333333
 49
0.0
 49
0.0
 49
0.0
 49
0.0
 49
0.0208333333333333
 49
0.0
 49
0.0
 49
0.0
 49
0.0
 49
1.0
 49
0.0
 49
0.0
 49
0.0
 49
0.0
 49
1.0
175
     0
142
0.0208333333333333
142
0.0
142
0.0
142
0.0
142
0.0
142
0.0208333333333333
142
0.0
142
0.0
142
0.0
142
0.0
142
1.0
142
0.0
142
0.0
142
0.0
142
0.0
142
1.0
179
     0
144
0.0208333333333333
144
0.0
144
0.0
144
0.0
144
0.0
144
0.0208333333333333
144
0.0
144
0.0
144
0.0
144
0.0
144
1.0
144
0.0
144
0.0
144
0.0
144
0.0
144
1.0
147
0.0208333333333333
147
0.0
147
0.0
147
0.0
147
0.0
147
0.0208333333333333
147
0.0
147
0.0
147
0.0
147
0.0
147
1.0
147
0.0
147
0.0
147
0.0
147
0.0
147
1.0
  0
MLEADERSTYLE
  5
67
102
{ACAD_REACTORS
330
66
102
}
330
66
100
AcDbMLeaderStyle
179
     2
170
     2
171
     1
172
     0
 90
        2
 40
0.0
 41
0.0
173
     1
 91
-1056964608
340
5B
 92
       -2
290
     1
 42
0.09
291
     1
 43
0.36
  3
Standard
 44
0.18
300

342
55
174
     1
178
     6
175
     1
176
     0
 93
-1056964608
 45
0.18
292
     0
297
     0
 46
0.18
 94
-1056964608
 47
1.0
 49
1.0
140
1.0
293
     1
141
0.0
294
     1
177
     0
142
1.0
295
     1
296
     0
143
0.125
271
     0
272
     9
273
     9
298
     1
  0
MLINESTYLE
  5
60
102
{ACAD_REACTORS
330
5F
102
}
330
5F
100
AcDbMlineStyle
  2
STANDARD
 70
     0
  3

 62
   256
 51
90.0
 52
90.0
 71
     2
 49
0.5
 62
   256
  6
BYLAYER
 49
-0.5
 62
   256
  6
BYLAYER
  0
ACDBPLACEHOLDER
  5
F
102
{ACAD_REACTORS
330
E
102
}
330
E
  0
SCALE
  5
43
102
{ACAD_REACTORS
330
42
102
}
330
42
100
AcDbScale
 70
     0
300
1:1
140
1.0
141
1.0
290
     1
  0
SCALE
  5
44
102
{ACAD_REACTORS
330
42
102
}
330
42
100
AcDbScale
 70
     0
300
1/128" = 1'-0"
140
0.0078125
141
12.0
290
     0
  0
SCALE
  5
45
102
{ACAD_REACTORS
330
42
102
}
330
42
100
AcDbScale
 70
     0
300
1/64" = 1'-0"
140
0.015625
141
12.0
290
     0
  0
SCALE
  5
46
102
{ACAD_REACTORS
330
42
102
}
330
42
100
AcDbScale
 70
     0
300
1/32" = 1'-0"
140
0.03125
141
12.0
290
     0
  0
SCALE
  5
47
102
{ACAD_REACTORS
330
42
102
}
330
42
100
AcDbScale
 70
     0
300
1/16" = 1'-0"
140
0.0625
141
12.0
290
     0
  0
SCALE
  5
48
102
{ACAD_REACTORS
330
42
102
}
330
42
100
AcDbScale
 70
     0
300
3/32" = 1'-0"
140
0.09375
141
12.0
290
     0
  0
SCALE
  5
49
102
{ACAD_REACTORS
330
42
102
}
330
42
100
AcDbScale
 70
     0
300
1/8" = 1'-0"
140
0.125
141
12.0
290
     0
  0
SCALE
  5
4A
102
{ACAD_REACTORS
330
42
102
}
330
42
100
AcDbScale
 70
     0
300
3/16" = 1'-0"
140
0.1875
141
12.0
290
     0
  0
SCALE
  5
4B
102
{ACAD_REACTORS
330
42
102
}
330
42
100
AcDbScale
 70
     0
300
1/4" = 1'-0"
140
0.25
141
12.0
290
     0
  0
SCALE
  5
4C
102
{ACAD_REACTORS
330
42
102
}
330
42
100
AcDbScale
 70
     0
300
3/8" = 1'-0"
140
0.375
141
12.0
290
     0
  0
SCALE
  5
4D
102
{ACAD_REACTORS
330
42
102
}
330
42
100
AcDbScale
 70
     0
300
1/2" = 1'-0"
140
0.5
141
12.0
290
     0
  0
SCALE
  5
4E
102
{ACAD_REACTORS
330
42
102
}
330
42
100
AcDbScale
 70
     0
300
3/4" = 1'-0"
140
0.75
141
12.0
290
     0
  0
SCALE
  5
4F
102
{ACAD_REACTORS
330
42
102
}
330
42
100
AcDbScale
 70
     0
300
1" = 1'-0"
140
1.0
141
12.0
290
     0
  0
SCALE
  5
50
102
{ACAD_REACTORS
330
42
102
}
330
42
100
AcDbScale
 70
     0
300
1-1/2" = 1'-0"
140
1.5
141
12.0
290
     0
  0
SCALE
  5
51
102
{ACAD_REACTORS
330
42
102
}
330
42
100
AcDbScale
 70
     0
300
3" = 1'-0"
140
3.0
141
12.0
290
     0
  0
SCALE
  5
52
102
{ACAD_REACTORS
330
42
102
}
330
42
100
AcDbScale
 70
     0
300
6" = 1'-0"
140
6.0
141
12.0
290
     0
  0
SCALE
  5
53
102
{ACAD_REACTORS
330
42
102
}
330
42
100
AcDbScale
 70
     0
300
1'-0" = 1'-0"
140
12.0
141
12.0
290
     0
  0
ACDBSECTIONVIEWSTYLE
  5
6A
102
{ACAD_REACTORS
330
68
102
}
330
68
100
AcDbModelDocViewStyle
 70
     0
  3
Imperial24
290
     1
100
AcDbSectionViewStyle
 70
     0
 71
     0
 90
       78
 71
     1
340
55
 62
   256
 40
0.24
340
0
340
0
 62
   256
 40
0.24
300
I, O, Q, S, X, Z
 40
0.48
 90
        3
 40
0.18
 90
        1
 71
     2
340
69
 90
       25
 62
   256
340
5D
 90
       50
 62
   256
 40
0.24
 40
0.0
 40
0.24
 71
     3
340
55
 62
   256
 40
0.24
 90
        1
 40
0.75
 90
        1
300
%<\AcVar ViewType \f "%tc1">% %<\AcVar ViewSectionStartId>%-%<\AcVar ViewSectionEndId>%\PSCALA %<\AcVar ViewScale \f "%sn">%
 71
     4
 62
   256
 62
   257
300
ANSI31
 40
1.0
 90
        0
290
     0
290
     0
 90
        6
 40
0.0
 40
1.570796326794896
 40
0.2617993877991494
 40
1.308996938995747
 40
-0.2617993877991494
 40
1.832595714594046
  0
TABLESTYLE
  5
65
102
{ACAD_XDICTIONARY
360
29A
102
}
102
{ACAD_REACTORS
330
64
102
}
330
64
100
AcDbTableStyle
280
     0
  3
Standard
 70
     0
 71
     0
 40
0.06
 41
0.06
280
     0
281
     0
  7
Standard
140
0.18
170
     2
 62
     0
 63
     7
283
     0
 90
      512
 91
        0
  1

274
    -2
284
     1
 64
     0
275
    -2
285
     1
 65
     0
276
    -2
286
     1
 66
     0
277
    -2
287
     1
 67
     0
278
    -2
288
     1
 68
     0
279
    -2
289
     1
 69
     0
  7
Standard
140
0.25
170
     5
 62
     0
 63
     7
283
     0
 90
      512
 91
        0
  1

274
    -2
284
     1
 64
     0
275
    -2
285
     1
 65
     0
276
    -2
286
     1
 66
     0
277
    -2
287
     1
 67
     0
278
    -2
288
     1
 68
     0
279
    -2
289
     1
 69
     0
  7
Standard
140
0.18
170
     5
 62
     0
 63
     7
283
     0
 90
      512
 91
        0
  1

274
    -2
284
     1
 64
     0
275
    -2
285
     1
 65
     0
276
    -2
286
     1
 66
     0
277
    -2
287
     1
 67
     0
278
    -2
288
     1
 68
     0
279
    -2
289
     1
 69
     0
  0
VISUALSTYLE
  5
2F
102
{ACAD_REACTORS
330
29
102
}
330
29
100
AcDbVisualStyle
  2
2dWireframe
 70
     4
177
     3
291
     0
 70
    58
 90
        0
176
     1
 90
        2
176
     1
 90
        0
176
     1
 90
        0
176
     1
 40
0.6
176
     1
 40
30.0
176
     1
 62
     7
420
 16777215
176
     1
 90
        1
176
     1
 90
        4
176
     1
 62
     7
176
     1
 62
   257
176
     1
 90
        1
176
     1
 90
        1
176
     1
 40
1.0
176
     1
 90
        0
176
     1
 62
   257
176
     1
 40
1.0
176
     1
 90
        1
176
     1
 90
        6
176
     1
 90
        2
176
     1
 62
     7
176
     1
 90
        5
176
     1
 90
        0
176
     1
 90
        0
176
     1
290
     0
176
     1
 90
        1
176
     1
 40
0.0
176
     1
 90
        0
176
     1
290
     1
176
     1
290
     1
176
     1
290
     0
176
     1
290
     0
176
     1
290
     0
176
     1
290
     0
176
     1
290
     0
176
     1
290
     0
176
     1
290
     0
176
     1
 90
       50
176
     1
 40
0.0
176
     1
 40
1.0
176
     1
 90
        0
176
     1
 62
    18
420
        0
176
     1
 90
       50
176
     1
 90
        3
176
     1
 62
     5
420
      255
176
     1
290
     0
176
     1
 90
       50
176
     1
 90
       50
176
     1
 90
       50
176
     1
290
     0
176
     1
 90
       50
176
     1
 62
   256
176
     0
 40
1.0
176
     0
 90
        2
176
     1
  1
strokes_ogs.tif
176
     1
290
     0
176
     1
 40
1.0
176
     1
 40
1.0
176
     1
  0
VISUALSTYLE
  5
2E
102
{ACAD_REACTORS
330
29
102
}
330
29
100
AcDbVisualStyle
  2
Basic
 70
     7
177
     3
291
     1
 70
    58
 90
        1
176
     1
 90
        0
176
     1
 90
        1
176
     1
 90
        0
176
     1
 40
0.6
176
     1
 40
30.0
176
     1
 62
     7
420
 16777215
176
     1
 90
        0
176
     1
 90
        4
176
     1
 62
     7
176
     1
 62
   257
176
     1
 90
        1
176
     1
 90
        1
176
     1
 40
1.0
176
     1
 90
        8
176
     1
 62
     7
176
     1
 40
1.0
176
     1
 90
        1
176
     1
 90
        6
176
     1
 90
        2
176
     1
 62
     7
176
     1
 90
        5
176
     1
 90
        0
176
     1
 90
        0
176
     1
290
     0
176
     1
 90
        1
176
     1
 40
0.0
176
     1
 90
        0
176
     1
290
     0
176
     1
290
     1
176
     1
290
     1
176
     1
290
     0
176
     1
290
     0
176
     1
290
     0
176
     1
290
     0
176
     1
290
     0
176
     1
290
     0
176
     1
 90
       50
176
     1
 40
0.0
176
     1
 40
1.0
176
     1
 90
        0
176
     1
 62
    18
420
        0
176
     1
 90
       50
176
     1
 90
        3
176
     1
 62
     5
420
      255
176
     1
290
     0
176
     1
 90
       50
176
     1
 90
       50
176
     1
 90
       50
176
     1
290
     0
176
     1
 90
       50
176
     1
 62
   256
176
     0
 40
1.0
176
     0
 90
        2
176
     1
  1
strokes_ogs.tif
176
     1
290
     0
176
     1
 40
1.0
176
     1
 40
1.0
176
     1
  0
VISUALSTYLE
  5
35
102
{ACAD_REACTORS
330
29
102
}
330
29
100
AcDbVisualStyle
  2
Brighten
 70
    12
177
     3
291
     1
 70
    58
 90
        2
176
     1
 90
        2
176
     1
 90
        0
176
     1
 90
        0
176
     1
 40
0.6
176
     1
 40
30.0
176
     1
 62
     7
420
 16777215
176
     1
 90
        1
176
     1
 90
        4
176
     1
 62
     7
176
     1
 62
   257
176
     1
 90
        1
176
     1
 90
        1
176
     1
 40
1.0
176
     1
 90
        8
176
     1
 62
     7
176
     1
 40
1.0
176
     1
 90
        1
176
     1
 90
        6
176
     1
 90
        2
176
     1
 62
     7
176
     1
 90
        5
176
     1
 90
        0
176
     1
 90
        0
176
     1
290
     0
176
     1
 90
        1
176
     1
 40
50.0
176
     1
 90
        0
176
     1
290
     0
176
     1
290
     1
176
     1
290
     1
176
     1
290
     0
176
     1
290
     0
176
     1
290
     0
176
     1
290
     0
176
     1
290
     0
176
     1
290
     0
176
     1
 90
       50
176
     1
 40
0.0
176
     1
 40
1.0
176
     1
 90
        0
176
     1
 62
    18
420
        0
176
     1
 90
       50
176
     1
 90
        3
176
     1
 62
     5
420
      255
176
     1
290
     0
176
     1
 90
       50
176
     1
 90
       50
176
     1
 90
       50
176
     1
290
     0
176
     1
 90
       50
176
     1
 62
   256
176
     0
 40
1.0
176
     0
 90
        2
176
     1
  1
strokes_ogs.tif
176
     1
290
     0
176
     1
 40
1.0
176
     1
 40
1.0
176
     1
  0
VISUALSTYLE
  5
39
102
{ACAD_REACTORS
330
29
102
}
330
29
100
AcDbVisualStyle
  2
ColorChange
 70
    16
177
     3
291
     1
 70
    58
 90
        2
176
     1
 90
        2
176
     1
 90
        3
176
     1
 90
        0
176
     1
 40
0.6
176
     1
 40
30.0
176
     1
 62
     8
420
  8421504
176
     1
 90
        1
176
     1
 90
        4
176
     1
 62
     7
176
     1
 62
   257
176
     1
 90
        1
176
     1
 90
        1
176
     1
 40
1.0
176
     1
 90
        8
176
     1
 62
     8
420
  8421504
176
     1
 40
1.0
176
     1
 90
        1
176
     1
 90
        6
176
     1
 90
        2
176
     1
 62
     7
176
     1
 90
        5
176
     1
 90
        0
176
     1
 90
        0
176
     1
290
     0
176
     1
 90
        1
176
     1
 40
0.0
176
     1
 90
        0
176
     1
290
     0
176
     1
290
     1
176
     1
290
     1
176
     1
290
     0
176
     1
290
     0
176
     1
290
     0
176
     1
290
     0
176
     1
290
     0
176
     1
290
     0
176
     1
 90
       50
176
     1
 40
0.0
176
     1
 40
1.0
176
     1
 90
        0
176
     1
 62
    18
420
        0
176
     1
 90
       50
176
     1
 90
        3
176
     1
 62
     5
420
      255
176
     1
290
     0
176
     1
 90
       50
176
     1
 90
       50
176
     1
 90
       50
176
     1
290
     0
176
     1
 90
       50
176
     1
 62
   256
176
     0
 40
1.0
176
     0
 90
        2
176
     1
  1
strokes_ogs.tif
176
     1
290
     0
176
     1
 40
1.0
176
     1
 40
1.0
176
     1
  0
VISUALSTYLE
  5
32
102
{ACAD_REACTORS
330
29
102
}
330
29
100
AcDbVisualStyle
  2
Conceptual
 70
     9
177
     3
291
     0
 70
    58
 90
        3
176
     1
 90
        2
176
     1
 90
        0
176
     1
 90
        0
176
     1
 40
0.6
176
     1
 40
30.0
176
     1
 62
     7
420
 16777215
176
     1
 90
        2
176
     1
 90
        2
176
     1
 62
     7
176
     1
 62
   257
176
     1
 90
        1
176
     1
 90
        1
176
     1
 40
179.0
176
     1
 90
        8
176
     1
 62
     7
176
     1
 40
1.0
176
     1
 90
        1
176
     1
 90
        6
176
     1
 90
        2
176
     1
 62
     7
176
     1
 90
        3
176
     1
 90
        0
176
     1
 90
        0
176
     1
290
     0
176
     1
 90
        1
176
     1
 40
0.0
176
     1
 90
        0
176
     1
290
     0
176
     1
290
     1
176
     1
290
     1
176
     1
290
     0
176
     1
290
     0
176
     1
290
     0
176
     1
290
     0
176
     1
290
     0
176
     1
290
     0
176
     1
 90
       50
176
     1
 40
0.0
176
     1
 40
1.0
176
     1
 90
        0
176
     1
 62
    18
420
        0
176
     1
 90
       50
176
     1
 90
        3
176
     1
 62
     5
420
      255
176
     1
290
     0
176
     1
 90
       50
176
     1
 90
       50
176
     1
 90
       50
176
     1
290
     0
176
     1
 90
       50
176
     1
 62
   256
176
     0
 40
1.0
176
     0
 90
        2
176
     1
  1
strokes_ogs.tif
176
     1
290
     0
176
     1
 40
1.0
176
     1
 40
1.0
176
     1
  0
VISUALSTYLE
  5
34
102
{ACAD_REACTORS
330
29
102
}
330
29
100
AcDbVisualStyle
  2
Dim
 70
    11
177
     3
291
     1
 70
    58
 90
        2
176
     1
 90
        2
176
     1
 90
        0
176
     1
 90
        0
176
     1
 40
0.6
176
     1
 40
30.0
176
     1
 62
     7
420
 16777215
176
     1
 90
        1
176
     1
 90
        4
176
     1
 62
     7
176
     1
 62
   257
176
     1
 90
        1
176
     1
 90
        1
176
     1
 40
1.0
176
     1
 90
        8
176
     1
 62
     7
176
     1
 40
1.0
176
     1
 90
        1
176
     1
 90
        6
176
     1
 90
        2
176
     1
 62
     7
176
     1
 90
        5
176
     1
 90
        0
176
     1
 90
        0
176
     1
290
     0
176
     1
 90
        1
176
     1
 40
-50.0
176
     1
 90
        0
176
     1
290
     0
176
     1
290
     1
176
     1
290
     1
176
     1
290
     0
176
     1
290
     0
176
     1
290
     0
176
     1
290
     0
176
     1
290
     0
176
     1
290
     0
176
     1
 90
       50
176
     1
 40
0.0
176
     1
 40
1.0
176
     1
 90
        0
176
     1
 62
    18
420
        0
176
     1
 90
       50
176
     1
 90
        3
176
     1
 62
     5
420
      255
176
     1
290
     0
176
     1
 90
       50
176
     1
 90
       50
176
     1
 90
       50
176
     1
290
     0
176
     1
 90
       50
176
     1
 62
   256
176
     0
 40
1.0
176
     0
 90
        2
176
     1
  1
strokes_ogs.tif
176
     1
290
     0
176
     1
 40
1.0
176
     1
 40
1.0
176
     1
  0
VISUALSTYLE
  5
41
102
{ACAD_REACTORS
330
29
102
}
330
29
100
AcDbVisualStyle
  2
EdgeColorOff
 70
    22
177
     3
291
     1
 70
    58
 90
        2
176
     0
 90
        2
176
     0
 90
        0
176
     0
 90
        0
176
     0
 40
0.6
176
     0
 40
30.0
176
     0
 62
     7
420
 16777215
176
     0
 90
        1
176
     0
 90
        4
176
     0
 62
     7
176
     0
 62
   257
176
     0
 90
        1
176
     0
 90
        1
176
     0
 40
1.0
176
     0
 90
        8
176
     2
 62
     7
176
     0
 40
1.0
176
     0
 90
        1
176
     0
 90
        6
176
     0
 90
        2
176
     0
 62
     7
176
     0
 90
        5
176
     0
 90
        0
176
     0
 90
        0
176
     0
290
     0
176
     0
 90
        1
176
     0
 40
0.0
176
     0
 90
        0
176
     0
290
     0
176
     0
290
     1
176
     0
290
     1
176
     0
290
     0
176
     0
290
     0
176
     0
290
     0
176
     0
290
     0
176
     0
290
     0
176
     0
290
     0
176
     0
 90
       50
176
     0
 40
0.0
176
     0
 40
1.0
176
     0
 90
        0
176
     0
 62
    18
420
        0
176
     0
 90
       50
176
     0
 90
        3
176
     0
 62
     5
420
      255
176
     0
290
     0
176
     0
 90
       50
176
     0
 90
       50
176
     0
 90
       50
176
     0
290
     0
176
     0
 90
       50
176
     0
 62
   256
176
     0
 40
1.0
176
     0
 90
        2
176
     0
  1
strokes_ogs.tif
176
     0
290
     0
176
     0
 40
1.0
176
     0
 40
1.0
176
     0
  0
VISUALSTYLE
  5
38
102
{ACAD_REACTORS
330
29
102
}
330
29
100
AcDbVisualStyle
  2
Facepattern
 70
    15
177
     3
291
     1
 70
    58
 90
        2
176
     1
 90
        2
176
     1
 90
        0
176
     1
 90
        0
176
     1
 40
0.6
176
     1
 40
30.0
176
     1
 62
     7
420
 16777215
176
     1
 90
        1
176
     1
 90
        4
176
     1
 62
     7
176
     1
 62
   257
176
     1
 90
        1
176
     1
 90
        1
176
     1
 40
1.0
176
     1
 90
        8
176
     1
 62
     7
176
     1
 40
1.0
176
     1
 90
        1
176
     1
 90
        6
176
     1
 90
        2
176
     1
 62
     7
176
     1
 90
        5
176
     1
 90
        0
176
     1
 90
        0
176
     1
290
     0
176
     1
 90
        1
176
     1
 40
0.0
176
     1
 90
        0
176
     1
290
     0
176
     1
290
     1
176
     1
290
     1
176
     1
290
     0
176
     1
290
     0
176
     1
290
     0
176
     1
290
     0
176
     1
290
     0
176
     1
290
     0
176
     1
 90
       50
176
     1
 40
0.0
176
     1
 40
1.0
176
     1
 90
        0
176
     1
 62
    18
420
        0
176
     1
 90
       50
176
     1
 90
        3
176
     1
 62
     5
420
      255
176
     1
290
     0
176
     1
 90
       50
176
     1
 90
       50
176
     1
 90
       50
176
     1
290
     0
176
     1
 90
       50
176
     1
 62
   256
176
     0
 40
1.0
176
     0
 90
        2
176
     1
  1
strokes_ogs.tif
176
     1
290
     0
176
     1
 40
1.0
176
     1
 40
1.0
176
     1
  0
VISUALSTYLE
  5
2A
102
{ACAD_REACTORS
330
29
102
}
330
29
100
AcDbVisualStyle
  2
Flat
 70
     0
177
     3
291
     1
 70
    58
 90
        2
176
     1
 90
        1
176
     1
 90
        1
176
     1
 90
        2
176
     1
 40
0.6
176
     1
 40
30.0
176
     1
 62
     7
420
 16777215
176
     1
 90
        0
176
     1
 90
        0
176
     1
 62
     7
176
     1
 62
   257
176
     1
 90
        1
176
     1
 90
        1
176
     1
 40
1.0
176
     1
 90
        8
176
     1
 62
     7
176
     1
 40
1.0
176
     1
 90
        1
176
     1
 90
        6
176
     1
 90
        2
176
     1
 62
     7
176
     1
 90
        5
176
     1
 90
        0
176
     1
 90
        0
176
     1
290
     0
176
     1
 90
       13
176
     1
 40
0.0
176
     1
 90
        0
176
     1
290
     0
176
     1
290
     1
176
     1
290
     1
176
     1
290
     0
176
     1
290
     0
176
     1
290
     0
176
     1
290
     0
176
     1
290
     0
176
     1
290
     0
176
     1
 90
       50
176
     1
 40
0.0
176
     1
 40
1.0
176
     1
 90
        0
176
     1
 62
    18
420
        0
176
     1
 90
       50
176
     1
 90
        3
176
     1
 62
     5
420
      255
176
     1
290
     0
176
     1
 90
       50
176
     1
 90
       50
176
     1
 90
       50
176
     1
290
     0
176
     1
 90
       50
176
     1
 62
   256
176
     0
 40
1.0
176
     0
 90
        2
176
     1
  1
strokes_ogs.tif
176
     1
290
     0
176
     1
 40
1.0
176
     1
 40
1.0
176
     1
  0
VISUALSTYLE
  5
2B
102
{ACAD_REACTORS
330
29
102
}
330
29
100
AcDbVisualStyle
  2
FlatWithEdges
 70
     1
177
     3
291
     1
 70
    58
 90
        2
176
     1
 90
        1
176
     1
 90
        1
176
     1
 90
        2
176
     1
 40
0.6
176
     1
 40
30.0
176
     1
 62
     7
420
 16777215
176
     1
 90
        1
176
     1
 90
        0
176
     1
 62
     7
176
     1
 62
   257
176
     1
 90
        1
176
     1
 90
        1
176
     1
 40
1.0
176
     1
 90
        0
176
     1
 62
   257
176
     1
 40
1.0
176
     1
 90
        1
176
     1
 90
        6
176
     1
 90
        2
176
     1
 62
     7
176
     1
 90
        5
176
     1
 90
        0
176
     1
 90
        0
176
     1
290
     0
176
     1
 90
       13
176
     1
 40
0.0
176
     1
 90
        0
176
     1
290
     0
176
     1
290
     1
176
     1
290
     1
176
     1
290
     0
176
     1
290
     0
176
     1
290
     0
176
     1
290
     0
176
     1
290
     0
176
     1
290
     0
176
     1
 90
       50
176
     1
 40
0.0
176
     1
 40
1.0
176
     1
 90
        0
176
     1
 62
    18
420
        0
176
     1
 90
       50
176
     1
 90
        3
176
     1
 62
     5
420
      255
176
     1
290
     0
176
     1
 90
       50
176
     1
 90
       50
176
     1
 90
       50
176
     1
290
     0
176
     1
 90
       50
176
     1
 62
   256
176
     0
 40
1.0
176
     0
 90
        2
176
     1
  1
strokes_ogs.tif
176
     1
290
     0
176
     1
 40
1.0
176
     1
 40
1.0
176
     1
  0
VISUALSTYLE
  5
2C
102
{ACAD_REACTORS
330
29
102
}
330
29
100
AcDbVisualStyle
  2
Gouraud
 70
     2
177
     3
291
     1
 70
    58
 90
        2
176
     1
 90
        2
176
     1
 90
        1
176
     1
 90
        2
176
     1
 40
0.6
176
     1
 40
30.0
176
     1
 62
     7
420
 16777215
176
     1
 90
        0
176
     1
 90
        0
176
     1
 62
     7
176
     1
 62
   257
176
     1
 90
        1
176
     1
 90
        1
176
     1
 40
1.0
176
     1
 90
        0
176
     1
 62
     7
176
     1
 40
1.0
176
     1
 90
        1
176
     1
 90
        6
176
     1
 90
        2
176
     1
 62
     7
176
     1
 90
        5
176
     1
 90
        0
176
     1
 90
        0
176
     1
290
     0
176
     1
 90
       13
176
     1
 40
0.0
176
     1
 90
        0
176
     1
290
     0
176
     1
290
     1
176
     1
290
     1
176
     1
290
     0
176
     1
290
     0
176
     1
290
     0
176
     1
290
     0
176
     1
290
     0
176
     1
290
     0
176
     1
 90
       50
176
     1
 40
0.0
176
     1
 40
1.0
176
     1
 90
        0
176
     1
 62
    18
420
        0
176
     1
 90
       50
176
     1
 90
        3
176
     1
 62
     5
420
      255
176
     1
290
     0
176
     1
 90
       50
176
     1
 90
       50
176
     1
 90
       50
176
     1
290
     0
176
     1
 90
       50
176
     1
 62
   256
176
     0
 40
1.0
176
     0
 90
        2
176
     1
  1
strokes_ogs.tif
176
     1
290
     0
176
     1
 40
1.0
176
     1
 40
1.0
176
     1
  0
VISUALSTYLE
  5
2D
102
{ACAD_REACTORS
330
29
102
}
330
29
100
AcDbVisualStyle
  2
GouraudWithEdges
 70
     3
177
     3
291
     1
 70
    58
 90
        2
176
     1
 90
        2
176
     1
 90
        1
176
     1
 90
        2
176
     1
 40
0.6
176
     1
 40
30.0
176
     1
 62
     7
420
 16777215
176
     1
 90
        1
176
     1
 90
        0
176
     1
 62
     7
176
     1
 62
   257
176
     1
 90
        1
176
     1
 90
        1
176
     1
 40
1.0
176
     1
 90
        0
176
     1
 62
   257
176
     1
 40
1.0
176
     1
 90
        1
176
     1
 90
        6
176
     1
 90
        2
176
     1
 62
     7
176
     1
 90
        5
176
     1
 90
        0
176
     1
 90
        0
176
     1
290
     0
176
     1
 90
       13
176
     1
 40
0.0
176
     1
 90
        0
176
     1
290
     0
176
     1
290
     1
176
     1
290
     1
176
     1
290
     0
176
     1
290
     0
176
     1
290
     0
176
     1
290
     0
176
     1
290
     0
176
     1
290
     0
176
     1
 90
       50
176
     1
 40
0.0
176
     1
 40
1.0
176
     1
 90
        0
176
     1
 62
    18
420
        0
176
     1
 90
       50
176
     1
 90
        3
176
     1
 62
     5
420
      255
176
     1
290
     0
176
     1
 90
       50
176
     1
 90
       50
176
     1
 90
       50
176
     1
290
     0
176
     1
 90
       50
176
     1
 62
   256
176
     0
 40
1.0
176
     0
 90
        2
176
     1
  1
strokes_ogs.tif
176
     1
290
     0
176
     1
 40
1.0
176
     1
 40
1.0
176
     1
  0
VISUALSTYLE
  5
31
102
{ACAD_REACTORS
330
29
102
}
330
29
100
AcDbVisualStyle
  2
Hidden
 70
     6
177
     3
291
     0
 70
    58
 90
        1
176
     1
 90
        2
176
     1
 90
        2
176
     1
 90
        0
176
     1
 40
0.6
176
     1
 40
30.0
176
     1
 62
     7
420
 16777215
176
     1
 90
        2
176
     1
 90
        2
176
     1
 62
     7
176
     1
 62
   257
176
     1
 90
        2
176
     1
 90
        1
176
     1
 40
40.0
176
     1
 90
        0
176
     1
 62
   257
176
     1
 40
1.0
176
     1
 90
        1
176
     1
 90
        6
176
     1
 90
        2
176
     1
 62
     7
176
     1
 90
        3
176
     1
 90
        0
176
     1
 90
        0
176
     1
290
     0
176
     1
 90
        1
176
     1
 40
0.0
176
     1
 90
        0
176
     1
290
     0
176
     1
290
     1
176
     1
290
     1
176
     1
290
     0
176
     1
290
     0
176
     1
290
     0
176
     1
290
     0
176
     1
290
     0
176
     1
290
     0
176
     1
 90
       50
176
     1
 40
0.0
176
     1
 40
1.0
176
     1
 90
        0
176
     1
 62
    18
420
        0
176
     1
 90
       50
176
     1
 90
        3
176
     1
 62
     5
420
      255
176
     1
290
     0
176
     1
 90
       50
176
     1
 90
       50
176
     1
 90
       50
176
     1
290
     0
176
     1
 90
       50
176
     1
 62
   256
176
     0
 40
1.0
176
     0
 90
        2
176
     1
  1
strokes_ogs.tif
176
     1
290
     0
176
     1
 40
1.0
176
     1
 40
1.0
176
     1
  0
VISUALSTYLE
  5
3F
102
{ACAD_REACTORS
330
29
102
}
330
29
100
AcDbVisualStyle
  2
JitterOff
 70
    20
177
     3
291
     1
 70
    58
 90
        2
176
     0
 90
        2
176
     0
 90
        0
176
     0
 90
        0
176
     0
 40
0.6
176
     0
 40
30.0
176
     0
 62
     7
420
 16777215
176
     0
 90
        1
176
     0
 90
        4
176
     0
 62
     7
176
     0
 62
   257
176
     0
 90
        1
176
     0
 90
        1
176
     0
 40
1.0
176
     0
 90
       10
176
     2
 62
     7
176
     0
 40
1.0
176
     0
 90
        1
176
     0
 90
        6
176
     0
 90
        2
176
     0
 62
     7
176
     0
 90
        5
176
     0
 90
        0
176
     0
 90
        0
176
     0
290
     0
176
     0
 90
        1
176
     0
 40
0.0
176
     0
 90
        0
176
     0
290
     0
176
     0
290
     1
176
     0
290
     1
176
     0
290
     0
176
     0
290
     0
176
     0
290
     0
176
     0
290
     0
176
     0
290
     0
176
     0
290
     0
176
     0
 90
       50
176
     0
 40
0.0
176
     0
 40
1.0
176
     0
 90
        0
176
     0
 62
    18
420
        0
176
     0
 90
       50
176
     0
 90
        3
176
     0
 62
     5
420
      255
176
     0
290
     0
176
     0
 90
       50
176
     0
 90
       50
176
     0
 90
       50
176
     0
290
     0
176
     0
 90
       50
176
     0
 62
   256
176
     0
 40
1.0
176
     0
 90
        2
176
     0
  1
strokes_ogs.tif
176
     0
290
     0
176
     0
 40
1.0
176
     0
 40
1.0
176
     0
  0
VISUALSTYLE
  5
37
102
{ACAD_REACTORS
330
29
102
}
330
29
100
AcDbVisualStyle
  2
Linepattern
 70
    14
177
     3
291
     1
 70
    58
 90
        2
176
     1
 90
        2
176
     1
 90
        0
176
     1
 90
        0
176
     1
 40
0.6
176
     1
 40
30.0
176
     1
 62
     7
420
 16777215
176
     1
 90
        1
176
     1
 90
        4
176
     1
 62
     7
176
     1
 62
   257
176
     1
 90
        7
176
     1
 90
        7
176
     1
 40
1.0
176
     1
 90
        8
176
     1
 62
     7
176
     1
 40
1.0
176
     1
 90
        1
176
     1
 90
        6
176
     1
 90
        2
176
     1
 62
     7
176
     1
 90
        5
176
     1
 90
        0
176
     1
 90
        0
176
     1
290
     0
176
     1
 90
        1
176
     1
 40
0.0
176
     1
 90
        0
176
     1
290
     0
176
     1
290
     1
176
     1
290
     1
176
     1
290
     0
176
     1
290
     0
176
     1
290
     0
176
     1
290
     0
176
     1
290
     0
176
     1
290
     0
176
     1
 90
       50
176
     1
 40
0.0
176
     1
 40
1.0
176
     1
 90
        0
176
     1
 62
    18
420
        0
176
     1
 90
       50
176
     1
 90
        3
176
     1
 62
     5
420
      255
176
     1
290
     0
176
     1
 90
       50
176
     1
 90
       50
176
     1
 90
       50
176
     1
290
     0
176
     1
 90
       50
176
     1
 62
   256
176
     0
 40
1.0
176
     0
 90
        2
176
     1
  1
strokes_ogs.tif
176
     1
290
     0
176
     1
 40
1.0
176
     1
 40
1.0
176
     1
  0
VISUALSTYLE
  5
40
102
{ACAD_REACTORS
330
29
102
}
330
29
100
AcDbVisualStyle
  2
OverhangOff
 70
    21
177
     3
291
     1
 70
    58
 90
        2
176
     0
 90
        2
176
     0
 90
        0
176
     0
 90
        0
176
     0
 40
0.6
176
     0
 40
30.0
176
     0
 62
     7
420
 16777215
176
     0
 90
        1
176
     0
 90
        4
176
     0
 62
     7
176
     0
 62
   257
176
     0
 90
        1
176
     0
 90
        1
176
     0
 40
1.0
176
     0
 90
        9
176
     2
 62
     7
176
     0
 40
1.0
176
     0
 90
        1
176
     0
 90
        6
176
     0
 90
        2
176
     0
 62
     7
176
     0
 90
        5
176
     0
 90
        0
176
     0
 90
        0
176
     0
290
     0
176
     0
 90
        1
176
     0
 40
0.0
176
     0
 90
        0
176
     0
290
     0
176
     0
290
     1
176
     0
290
     1
176
     0
290
     0
176
     0
290
     0
176
     0
290
     0
176
     0
290
     0
176
     0
290
     0
176
     0
290
     0
176
     0
 90
       50
176
     0
 40
0.0
176
     0
 40
1.0
176
     0
 90
        0
176
     0
 62
    18
420
        0
176
     0
 90
       50
176
     0
 90
        3
176
     0
 62
     5
420
      255
176
     0
290
     0
176
     0
 90
       50
176
     0
 90
       50
176
     0
 90
       50
176
     0
290
     0
176
     0
 90
       50
176
     0
 62
   256
176
     0
 40
1.0
176
     0
 90
        2
176
     0
  1
strokes_ogs.tif
176
     0
290
     0
176
     0
 40
1.0
176
     0
 40
1.0
176
     0
  0
VISUALSTYLE
  5
33
102
{ACAD_REACTORS
330
29
102
}
330
29
100
AcDbVisualStyle
  2
Realistic
 70
     8
177
     3
291
     0
 70
    58
 90
        2
176
     1
 90
        3
176
     1
 90
        0
176
     1
 90
        2
176
     1
 40
0.6
176
     1
 40
30.0
176
     1
 62
     7
420
 16777215
176
     1
 90
        0
176
     1
 90
        0
176
     1
 62
     7
176
     1
 62
   257
176
     1
 90
        1
176
     1
 90
        1
176
     1
 40
1.0
176
     1
 90
        8
176
     1
 62
   257
176
     1
 40
1.0
176
     1
 90
        1
176
     1
 90
        6
176
     1
 90
        2
176
     1
 62
     7
176
     1
 90
        3
176
     1
 90
        0
176
     1
 90
        0
176
     1
290
     0
176
     1
 90
       13
176
     1
 40
0.0
176
     1
 90
        0
176
     1
290
     0
176
     1
290
     1
176
     1
290
     1
176
     1
290
     0
176
     1
290
     0
176
     1
290
     0
176
     1
290
     0
176
     1
290
     0
176
     1
290
     0
176
     1
 90
       50
176
     1
 40
0.0
176
     1
 40
1.0
176
     1
 90
        0
176
     1
 62
    18
420
        0
176
     1
 90
       50
176
     1
 90
        3
176
     1
 62
     5
420
      255
176
     1
290
     0
176
     1
 90
       50
176
     1
 90
       50
176
     1
 90
       50
176
     1
290
     0
176
     1
 90
       50
176
     1
 62
   256
176
     0
 40
1.0
176
     0
 90
        2
176
     1
  1
strokes_ogs.tif
176
     1
290
     0
176
     1
 40
1.0
176
     1
 40
1.0
176
     1
  0
VISUALSTYLE
  5
3E
102
{ACAD_REACTORS
330
29
102
}
330
29
100
AcDbVisualStyle
  2
Shaded
 70
    27
177
     3
291
     0
 70
    58
 90
        2
176
     1
 90
        2
176
     1
 90
        1
176
     1
 90
        2
176
     1
 40
0.6
176
     1
 40
30.0
176
     1
 62
     7
420
 16777215
176
     1
 90
        0
176
     1
 90
        4
176
     1
 62
     7
176
     1
 62
   257
176
     1
 90
        1
176
     1
 90
        1
176
     1
 40
1.0
176
     1
 90
        8
176
     1
 62
   257
176
     1
 40
1.0
176
     1
 90
        1
176
     1
 90
        6
176
     1
 90
        2
176
     1
 62
     8
420
  7895160
176
     1
 90
        3
176
     1
 90
        0
176
     1
 90
        0
176
     1
290
     0
176
     1
 90
        5
176
     1
 40
0.0
176
     1
 90
        0
176
     1
290
     0
176
     1
290
     1
176
     1
290
     1
176
     1
290
     0
176
     1
290
     0
176
     1
290
     0
176
     1
290
     0
176
     1
290
     0
176
     1
290
     0
176
     1
 90
       50
176
     1
 40
0.0
176
     1
 40
1.0
176
     1
 90
        0
176
     1
 62
    18
420
        0
176
     1
 90
       50
176
     1
 90
        3
176
     1
 62
     5
420
      255
176
     1
290
     0
176
     1
 90
       50
176
     1
 90
       50
176
     1
 90
       50
176
     1
290
     0
176
     1
 90
       50
176
     1
 62
   256
176
     0
 40
1.0
176
     0
 90
        2
176
     1
  1
strokes_ogs.tif
176
     1
290
     0
176
     1
 40
1.0
176
     1
 40
1.0
176
     1
  0
VISUALSTYLE
  5
3D
102
{ACAD_REACTORS
330
29
102
}
330
29
100
AcDbVisualStyle
  2
Shaded with edges
 70
    26
177
     3
291
     0
 70
    58
 90
        2
176
     1
 90
        2
176
     1
 90
        1
176
     1
 90
        2
176
     1
 40
0.6
176
     1
 40
30.0
176
     1
 62
     7
420
 16777215
176
     1
 90
        1
176
     1
 90
       10
176
     1
 62
     7
176
     1
 62
   257
176
     1
 90
        2
176
     1
 90
        1
176
     1
 40
1.0
176
     1
 90
        8
176
     1
 62
   257
176
     1
 40
1.0
176
     1
 90
        1
176
     1
 90
        6
176
     1
 90
        2
176
     1
 62
     7
176
     1
 90
        3
176
     1
 90
        0
176
     1
 90
        0
176
     1
290
     0
176
     1
 90
        5
176
     1
 40
0.0
176
     1
 90
        0
176
     1
290
     0
176
     1
290
     1
176
     1
290
     1
176
     1
290
     0
176
     1
290
     0
176
     1
290
     0
176
     1
290
     0
176
     1
290
     0
176
     1
290
     0
176
     1
 90
       50
176
     1
 40
0.0
176
     1
 40
1.0
176
     1
 90
        0
176
     1
 62
    18
420
        0
176
     1
 90
       50
176
     1
 90
        3
176
     1
 62
     5
420
      255
176
     1
290
     0
176
     1
 90
       50
176
     1
 90
       50
176
     1
 90
       50
176
     1
290
     0
176
     1
 90
       50
176
     1
 62
   256
176
     0
 40
1.0
176
     0
 90
        2
176
     1
  1
strokes_ogs.tif
176
     1
290
     0
176
     1
 40
1.0
176
     1
 40
1.0
176
     1
  0
VISUALSTYLE
  5
3A
102
{ACAD_REACTORS
330
29
102
}
330
29
100
AcDbVisualStyle
  2
Shades of Gray
 70
    23
177
     3
291
     0
 70
    58
 90
        2
176
     1
 90
        2
176
     1
 90
        3
176
     1
 90
        0
176
     1
 40
0.6
176
     1
 40
30.0
176
     1
 62
     7
420
 16777215
176
     1
 90
        2
176
     1
 90
        2
176
     1
 62
     7
176
     1
 62
     7
176
     1
 90
        1
176
     1
 90
        1
176
     1
 40
40.0
176
     1
 90
        8
176
     1
 62
     7
176
     1
 40
1.0
176
     1
 90
        1
176
     1
 90
        6
176
     1
 90
        2
176
     1
 62
     7
176
     1
 90
        3
176
     1
 90
        0
176
     1
 90
        0
176
     1
290
     0
176
     1
 90
        1
176
     1
 40
0.0
176
     1
 90
        0
176
     1
290
     0
176
     1
290
     1
176
     1
290
     1
176
     1
290
     0
176
     1
290
     0
176
     1
290
     0
176
     1
290
     0
176
     1
290
     0
176
     1
290
     0
176
     1
 90
       50
176
     1
 40
0.0
176
     1
 40
1.0
176
     1
 90
        0
176
     1
 62
    18
420
        0
176
     1
 90
       50
176
     1
 90
        3
176
     1
 62
     5
420
      255
176
     1
290
     0
176
     1
 90
       50
176
     1
 90
       50
176
     1
 90
       50
176
     1
290
     0
176
     1
 90
       50
176
     1
 62
   256
176
     0
 40
1.0
176
     0
 90
        2
176
     1
  1
strokes_ogs.tif
176
     1
290
     0
176
     1
 40
1.0
176
     1
 40
1.0
176
     1
  0
VISUALSTYLE
  5
3B
102
{ACAD_REACTORS
330
29
102
}
330
29
100
AcDbVisualStyle
  2
Sketchy
 70
    24
177
     3
291
     0
 70
    58
 90
        1
176
     1
 90
        2
176
     1
 90
        2
176
     1
 90
        0
176
     1
 40
0.6
176
     1
 40
30.0
176
     1
 62
     7
420
 16777215
176
     1
 90
        2
176
     1
 90
        2
176
     1
 62
     7
176
     1
 62
     7
176
     1
 90
        1
176
     1
 90
        1
176
     1
 40
40.0
176
     1
 90
       11
176
     1
 62
     7
176
     1
 40
1.0
176
     1
 90
        1
176
     1
 90
        6
176
     1
 90
        2
176
     1
 62
     7
176
     1
 90
        6
176
     1
 90
        0
176
     1
 90
        0
176
     1
290
     0
176
     1
 90
        1
176
     1
 40
0.0
176
     1
 90
        0
176
     1
290
     0
176
     1
290
     1
176
     1
290
     1
176
     1
290
     0
176
     1
290
     0
176
     1
290
     0
176
     1
290
     0
176
     1
290
     0
176
     1
290
     0
176
     1
 90
       50
176
     1
 40
0.0
176
     1
 40
1.0
176
     1
 90
        0
176
     1
 62
    18
420
        0
176
     1
 90
       50
176
     1
 90
        3
176
     1
 62
     5
420
      255
176
     1
290
     0
176
     1
 90
       50
176
     1
 90
       50
176
     1
 90
       50
176
     1
290
     0
176
     1
 90
       50
176
     1
 62
   256
176
     0
 40
1.0
176
     0
 90
        2
176
     1
  1
strokes_ogs.tif
176
     1
290
     0
176
     1
 40
1.0
176
     1
 40
1.0
176
     1
  0
VISUALSTYLE
  5
36
102
{ACAD_REACTORS
330
29
102
}
330
29
100
AcDbVisualStyle
  2
Thicken
 70
    13
177
     3
291
     1
 70
    58
 90
        2
176
     1
 90
        2
176
     1
 90
        0
176
     1
 90
        0
176
     1
 40
0.6
176
     1
 40
30.0
176
     1
 62
     7
420
 16777215
176
     1
 90
        1
176
     1
 90
        4
176
     1
 62
     7
176
     1
 62
   257
176
     1
 90
        1
176
     1
 90
        1
176
     1
 40
1.0
176
     1
 90
       12
176
     1
 62
     7
176
     1
 40
1.0
176
     1
 90
        1
176
     1
 90
        6
176
     1
 90
        2
176
     1
 62
     7
176
     1
 90
        5
176
     1
 90
        0
176
     1
 90
        0
176
     1
290
     0
176
     1
 90
        1
176
     1
 40
0.0
176
     1
 90
        0
176
     1
290
     0
176
     1
290
     1
176
     1
290
     1
176
     1
290
     0
176
     1
290
     0
176
     1
290
     0
176
     1
290
     0
176
     1
290
     0
176
     1
290
     0
176
     1
 90
       50
176
     1
 40
0.0
176
     1
 40
1.0
176
     1
 90
        0
176
     1
 62
    18
420
        0
176
     1
 90
       50
176
     1
 90
        3
176
     1
 62
     5
420
      255
176
     1
290
     0
176
     1
 90
       50
176
     1
 90
       50
176
     1
 90
       50
176
     1
290
     0
176
     1
 90
       50
176
     1
 62
   256
176
     0
 40
1.0
176
     0
 90
        2
176
     1
  1
strokes_ogs.tif
176
     1
290
     0
176
     1
 40
1.0
176
     1
 40
1.0
176
     1
  0
VISUALSTYLE
  5
30
102
{ACAD_REACTORS
330
29
102
}
330
29
100
AcDbVisualStyle
  2
Wireframe
 70
     5
177
     3
291
     0
 70
    58
 90
        0
176
     1
 90
        2
176
     1
 90
        0
176
     1
 90
        0
176
     1
 40
0.6
176
     1
 40
30.0
176
     1
 62
     7
420
 16777215
176
     1
 90
        1
176
     1
 90
        4
176
     1
 62
     7
176
     1
 62
   257
176
     1
 90
        1
176
     1
 90
        1
176
     1
 40
1.0
176
     1
 90
        0
176
     1
 62
   257
176
     1
 40
1.0
176
     1
 90
        1
176
     1
 90
        6
176
     1
 90
        2
176
     1
 62
     7
176
     1
 90
        3
176
     1
 90
        0
176
     1
 90
        0
176
     1
290
     0
176
     1
 90
        1
176
     1
 40
0.0
176
     1
 90
        0
176
     1
290
     0
176
     1
290
     1
176
     1
290
     1
176
     1
290
     0
176
     1
290
     0
176
     1
290
     0
176
     1
290
     0
176
     1
290
     0
176
     1
290
     0
176
     1
 90
       50
176
     1
 40
0.0
176
     1
 40
1.0
176
     1
 90
        0
176
     1
 62
    18
420
        0
176
     1
 90
       50
176
     1
 90
        3
176
     1
 62
     5
420
      255
176
     1
290
     0
176
     1
 90
       50
176
     1
 90
       50
176
     1
 90
       50
176
     1
290
     0
176
     1
 90
       50
176
     1
 62
   256
176
     0
 40
1.0
176
     0
 90
        2
176
     1
  1
strokes_ogs.tif
176
     1
290
     0
176
     1
 40
1.0
176
     1
 40
1.0
176
     1
  0
VISUALSTYLE
  5
3C
102
{ACAD_REACTORS
330
29
102
}
330
29
100
AcDbVisualStyle
  2
X-Ray
 70
    25
177
     3
291
     0
 70
    58
 90
        2
176
     1
 90
        2
176
     1
 90
        1
176
     1
 90
        1
176
     1
 40
0.5
176
     1
 40
30.0
176
     1
 62
     7
420
 16777215
176
     1
 90
        1
176
     1
 90
        0
176
     1
 62
     7
176
     1
 62
   257
176
     1
 90
        1
176
     1
 90
        1
176
     1
 40
1.0
176
     1
 90
        8
176
     1
 62
     7
176
     1
 40
1.0
176
     1
 90
        1
176
     1
 90
        6
176
     1
 90
        2
176
     1
 62
     7
176
     1
 90
        3
176
     1
 90
        0
176
     1
 90
        0
176
     1
290
     0
176
     1
 90
       13
176
     1
 40
0.0
176
     1
 90
        0
176
     1
290
     0
176
     1
290
     1
176
     1
290
     1
176
     1
290
     0
176
     1
290
     0
176
     1
290
     0
176
     1
290
     0
176
     1
290
     0
176
     1
290
     0
176
     1
 90
       50
176
     1
 40
0.0
176
     1
 40
1.0
176
     1
 90
        0
176
     1
 62
    18
420
        0
176
     1
 90
       50
176
     1
 90
        3
176
     1
 62
     5
420
      255
176
     1
290
     0
176
     1
 90
       50
176
     1
 90
       50
176
     1
 90
       50
176
     1
290
     0
176
     1
 90
       50
176
     1
 62
   256
176
     0
 40
1.0
176
     0
 90
        2
176
     1
  1
strokes_ogs.tif
176
     1
290
     0
176
     1
 40
1.0
176
     1
 40
1.0
176
     1
  0
DICTIONARYVAR
  5
81
102
{ACAD_REACTORS
330
7C
102
}
330
7C
100
DictionaryVariables
280
     0
  1
1:1
  0
DICTIONARYVAR
  5
7E
102
{ACAD_REACTORS
330
7C
102
}
330
7C
100
DictionaryVariables
280
     0
  1
STANDARD
  0
DICTIONARYVAR
  5
7D
102
{ACAD_REACTORS
330
7C
102
}
330
7C
100
DictionaryVariables
280
     0
  1
STANDARD
  0
DICTIONARYVAR
  5
7F
102
{ACAD_REACTORS
330
7C
102
}
330
7C
100
DictionaryVariables
280
     0
  1
Imperial24
  0
DICTIONARYVAR
  5
80
102
{ACAD_REACTORS
330
7C
102
}
330
7C
100
DictionaryVariables
280
     0
  1
Imperial24
  0
XRECORD
  5
297
102
{ACAD_REACTORS
330
293
102
}
330
293
100
AcDbXrecord
280
     1
  1
BUILDING_ID
  1
Progetto per messa in tavola DXF, DWG
  1
FLOOR_ID
  1
694395
  0
XRECORD
  5
295
102
{ACAD_REACTORS
330
293
102
}
330
293
100
AcDbXrecord
280
     1
  1
-2001160
  1
Apparecchi idraulici
  0
XRECORD
  5
296
102
{ACAD_REACTORS
330
293
102
}
330
293
100
AcDbXrecord
280
     1
  1
790271
  1
Body
  0
XRECORD
  5
294
102
{ACAD_REACTORS
330
293
102
}
330
293
100
AcDbXrecord
280
     1
  1
859151
  1
Automatic flow rate regulator valve_Caleffi_121 DN15 : 1/2''
  0
DICTIONARY
  5
1A
330
19
100
AcDbDictionary
280
     1
281
     1
  3
BUMPTILE
360
1C
  3
DIFFUSETILE
360
1B
  3
OPACITYTILE
360
1F
  3
REFLECTIONTILE
360
1E
  3
REFRACTIONTILE
360
20
  3
SPECULARTILE
360
1D
  0
DICTIONARY
  5
12
330
11
100
AcDbDictionary
280
     1
281
     1
  3
BUMPTILE
360
14
  3
DIFFUSETILE
360
13
  3
OPACITYTILE
360
17
  3
REFLECTIONTILE
360
16
  3
REFRACTIONTILE
360
18
  3
SPECULARTILE
360
15
  0
DICTIONARY
  5
22
330
21
100
AcDbDictionary
280
     1
281
     1
  3
BUMPTILE
360
24
  3
DIFFUSETILE
360
23
  3
OPACITYTILE
360
27
  3
REFLECTIONTILE
360
26
  3
REFRACTIONTILE
360
28
  3
SPECULARTILE
360
25
  0
DICTIONARY
  5
29A
330
65
100
AcDbDictionary
280
     1
281
     1
  3
ACAD_ROUNDTRIP_2008_TABLESTYLE_CELLSTYLEMAP
360
29B
  0
XRECORD
  5
1C
102
{ACAD_REACTORS
330
1A
102
}
330
1A
100
AcDbXrecord
280
     1
270
     1
271
     1
  0
XRECORD
  5
1B
102
{ACAD_REACTORS
330
1A
102
}
330
1A
100
AcDbXrecord
280
     1
270
     1
271
     1
  0
XRECORD
  5
1F
102
{ACAD_REACTORS
330
1A
102
}
330
1A
100
AcDbXrecord
280
     1
270
     1
271
     1
  0
XRECORD
  5
1E
102
{ACAD_REACTORS
330
1A
102
}
330
1A
100
AcDbXrecord
280
     1
270
     1
271
     1
  0
XRECORD
  5
20
102
{ACAD_REACTORS
330
1A
102
}
330
1A
100
AcDbXrecord
280
     1
270
     1
271
     1
  0
XRECORD
  5
1D
102
{ACAD_REACTORS
330
1A
102
}
330
1A
100
AcDbXrecord
280
     1
270
     1
271
     1
  0
XRECORD
  5
14
102
{ACAD_REACTORS
330
12
102
}
330
12
100
AcDbXrecord
280
     1
270
     1
271
     1
  0
XRECORD
  5
13
102
{ACAD_REACTORS
330
12
102
}
330
12
100
AcDbXrecord
280
     1
270
     1
271
     1
  0
XRECORD
  5
17
102
{ACAD_REACTORS
330
12
102
}
330
12
100
AcDbXrecord
280
     1
270
     1
271
     1
  0
XRECORD
  5
16
102
{ACAD_REACTORS
330
12
102
}
330
12
100
AcDbXrecord
280
     1
270
     1
271
     1
  0
XRECORD
  5
18
102
{ACAD_REACTORS
330
12
102
}
330
12
100
AcDbXrecord
280
     1
270
     1
271
     1
  0
XRECORD
  5
15
102
{ACAD_REACTORS
330
12
102
}
330
12
100
AcDbXrecord
280
     1
270
     1
271
     1
  0
XRECORD
  5
24
102
{ACAD_REACTORS
330
22
102
}
330
22
100
AcDbXrecord
280
     1
270
     1
271
     1
  0
XRECORD
  5
23
102
{ACAD_REACTORS
330
22
102
}
330
22
100
AcDbXrecord
280
     1
270
     1
271
     1
  0
XRECORD
  5
27
102
{ACAD_REACTORS
330
22
102
}
330
22
100
AcDbXrecord
280
     1
270
     1
271
     1
  0
XRECORD
  5
26
102
{ACAD_REACTORS
330
22
102
}
330
22
100
AcDbXrecord
280
     1
270
     1
271
     1
  0
XRECORD
  5
28
102
{ACAD_REACTORS
330
22
102
}
330
22
100
AcDbXrecord
280
     1
270
     1
271
     1
  0
XRECORD
  5
25
102
{ACAD_REACTORS
330
22
102
}
330
22
100
AcDbXrecord
280
     1
270
     1
271
     1
  0
CELLSTYLEMAP
  5
29B
102
{ACAD_REACTORS
330
29A
102
}
330
29A
100
AcDbCellStyleMap
 90
        3
300
CELLSTYLE
  1
TABLEFORMAT_BEGIN
 90
        5
170
     1
 91
        0
 92
    32768
 62
   257
 93
        1
300
CONTENTFORMAT
  1
CONTENTFORMAT_BEGIN
 90
        0
 91
        0
 92
      512
 93
        0
300

 40
0.0
140
1.0
 94
        5
 62
     0
340
55
144
0.25
309
CONTENTFORMAT_END
171
     0
 94
        0
309
TABLEFORMAT_END
  1
CELLSTYLE_BEGIN
 90
        1
 91
        1
300
_TITLE
309
CELLSTYLE_END
300
CELLSTYLE
  1
TABLEFORMAT_BEGIN
 90
        5
170
     1
 91
        0
 92
        0
 62
   257
 93
        1
300
CONTENTFORMAT
  1
CONTENTFORMAT_BEGIN
 90
        0
 91
        0
 92
      512
 93
        0
300

 40
0.0
140
1.0
 94
        5
 62
     0
340
55
144
0.18
309
CONTENTFORMAT_END
171
     0
 94
        0
309
TABLEFORMAT_END
  1
CELLSTYLE_BEGIN
 90
        2
 91
        1
300
_HEADER
309
CELLSTYLE_END
300
CELLSTYLE
  1
TABLEFORMAT_BEGIN
 90
        5
170
     1
 91
        0
 92
        0
 62
   257
 93
        1
300
CONTENTFORMAT
  1
CONTENTFORMAT_BEGIN
 90
        0
 91
        0
 92
      512
 93
        0
300

 40
0.0
140
1.0
 94
        2
 62
     0
340
55
144
0.18
309
CONTENTFORMAT_END
171
     0
 94
        0
309
TABLEFORMAT_END
  1
CELLSTYLE_BEGIN
 90
        3
 91
        2
300
_DATA
309
CELLSTYLE_END
  0
ENDSEC
  0
EOF
