  0
SECTION
  2
HEADER
  9
$ACADVER
  1
AC1027
  9
$ACADMAINTVER
 70
    20
  9
$DWGCODEPAGE
  3
ANSI_1252
  9
$REQUIREDVERSIONS
160
                 0
  9
$INSBASE
 10
0.0
 20
0.0
 30
0.0
  9
$EXTMIN
 10
756.1664074431878
 20
1787.945878730052
 30
-0.00000001
  9
$EXTMAX
 10
1085.414353943097
 20
2083.499999999994
 30
0.00000001
  9
$LIMMIN
 10
0.0
 20
0.0
  9
$LIMMAX
 10
12.0
 20
9.0
  9
$ORTHOMODE
 70
     0
  9
$REGENMODE
 70
     1
  9
$FILLMODE
 70
     1
  9
$QTEXTMODE
 70
     0
  9
$MIRRTEXT
 70
     0
  9
$LTSCALE
 40
1.0
  9
$ATTMODE
 70
     1
  9
$TEXTSIZE
 40
0.2
  9
$TRACEWID
 40
0.05
  9
$TEXTSTYLE
  7
Standard
  9
$CLAYER
  8
0
  9
$CELTYPE
  6
ByLayer
  9
$CECOLOR
 62
   256
  9
$CELTSCALE
 40
1.0
  9
$DISPSILH
 70
     0
  9
$DIMSCALE
 40
1.0
  9
$DIMASZ
 40
0.18
  9
$DIMEXO
 40
0.0625
  9
$DIMDLI
 40
0.38
  9
$DIMRND
 40
0.0
  9
$DIMDLE
 40
0.0
  9
$DIMEXE
 40
0.18
  9
$DIMTP
 40
0.0
  9
$DIMTM
 40
0.0
  9
$DIMTXT
 40
0.18
  9
$DIMCEN
 40
0.09
  9
$DIMTSZ
 40
0.0
  9
$DIMTOL
 70
     0
  9
$DIMLIM
 70
     0
  9
$DIMTIH
 70
     1
  9
$DIMTOH
 70
     1
  9
$DIMSE1
 70
     0
  9
$DIMSE2
 70
     0
  9
$DIMTAD
 70
     0
  9
$DIMZIN
 70
     0
  9
$DIMBLK
  1

  9
$DIMASO
 70
     1
  9
$DIMSHO
 70
     1
  9
$DIMPOST
  1

  9
$DIMAPOST
  1

  9
$DIMALT
 70
     0
  9
$DIMALTD
 70
     2
  9
$DIMALTF
 40
25.4
  9
$DIMLFAC
 40
1.0
  9
$DIMTOFL
 70
     0
  9
$DIMTVP
 40
0.0
  9
$DIMTIX
 70
     0
  9
$DIMSOXD
 70
     0
  9
$DIMSAH
 70
     0
  9
$DIMBLK1
  1

  9
$DIMBLK2
  1

  9
$DIMSTYLE
  2
Standard
  9
$DIMCLRD
 70
     0
  9
$DIMCLRE
 70
     0
  9
$DIMCLRT
 70
     0
  9
$DIMTFAC
 40
1.0
  9
$DIMGAP
 40
0.09
  9
$DIMJUST
 70
     0
  9
$DIMSD1
 70
     0
  9
$DIMSD2
 70
     0
  9
$DIMTOLJ
 70
     1
  9
$DIMTZIN
 70
     0
  9
$DIMALTZ
 70
     0
  9
$DIMALTTZ
 70
     0
  9
$DIMUPT
 70
     0
  9
$DIMDEC
 70
     4
  9
$DIMTDEC
 70
     4
  9
$DIMALTU
 70
     2
  9
$DIMALTTD
 70
     2
  9
$DIMTXSTY
  7
Standard
  9
$DIMAUNIT
 70
     0
  9
$DIMADEC
 70
     0
  9
$DIMALTRND
 40
0.0
  9
$DIMAZIN
 70
     0
  9
$DIMDSEP
 70
    46
  9
$DIMATFIT
 70
     3
  9
$DIMFRAC
 70
     0
  9
$DIMLDRBLK
  1

  9
$DIMLUNIT
 70
     2
  9
$DIMLWD
 70
    -2
  9
$DIMLWE
 70
    -2
  9
$DIMTMOVE
 70
     0
  9
$DIMFXL
 40
1.0
  9
$DIMFXLON
 70
     0
  9
$DIMJOGANG
 40
0.7853981633974483
  9
$DIMTFILL
 70
     0
  9
$DIMTFILLCLR
 70
     0
  9
$DIMARCSYM
 70
     0
  9
$DIMLTYPE
  6

  9
$DIMLTEX1
  6

  9
$DIMLTEX2
  6

  9
$DIMTXTDIRECTION
 70
     0
  9
$LUNITS
 70
     2
  9
$LUPREC
 70
     4
  9
$SKETCHINC
 40
0.1
  9
$FILLETRAD
 40
0.0
  9
$AUNITS
 70
     0
  9
$AUPREC
 70
     0
  9
$MENU
  1
.
  9
$ELEVATION
 40
0.0
  9
$PELEVATION
 40
0.0
  9
$THICKNESS
 40
0.0
  9
$LIMCHECK
 70
     0
  9
$CHAMFERA
 40
0.0
  9
$CHAMFERB
 40
0.0
  9
$CHAMFERC
 40
0.0
  9
$CHAMFERD
 40
0.0
  9
$SKPOLY
 70
     0
  9
$TDCREATE
 40
2457569.360917106
  9
$TDUCREATE
 40
2457569.277583774
  9
$TDUPDATE
 40
2457569.360917106
  9
$TDUUPDATE
 40
2457569.277583774
  9
$TDINDWG
 40
0.0000079514
  9
$TDUSRTIMER
 40
0.0000079514
  9
$USRTIMER
 70
     1
  9
$ANGBASE
 50
0.0
  9
$ANGDIR
 70
     0
  9
$PDMODE
 70
     0
  9
$PDSIZE
 40
0.0
  9
$PLINEWID
 40
0.0
  9
$SPLFRAME
 70
     0
  9
$SPLINETYPE
 70
     6
  9
$SPLINESEGS
 70
     8
  9
$HANDSEED
  5
2A1
  9
$SURFTAB1
 70
     6
  9
$SURFTAB2
 70
     6
  9
$SURFTYPE
 70
     6
  9
$SURFU
 70
     6
  9
$SURFV
 70
     6
  9
$UCSBASE
  2

  9
$UCSNAME
  2

  9
$UCSORG
 10
0.0
 20
0.0
 30
0.0
  9
$UCSXDIR
 10
1.0
 20
0.0
 30
0.0
  9
$UCSYDIR
 10
0.0
 20
1.0
 30
0.0
  9
$UCSORTHOREF
  2

  9
$UCSORTHOVIEW
 70
     0
  9
$UCSORGTOP
 10
0.0
 20
0.0
 30
0.0
  9
$UCSORGBOTTOM
 10
0.0
 20
0.0
 30
0.0
  9
$UCSORGLEFT
 10
0.0
 20
0.0
 30
0.0
  9
$UCSORGRIGHT
 10
0.0
 20
0.0
 30
0.0
  9
$UCSORGFRONT
 10
0.0
 20
0.0
 30
0.0
  9
$UCSORGBACK
 10
0.0
 20
0.0
 30
0.0
  9
$PUCSBASE
  2

  9
$PUCSNAME
  2

  9
$PUCSORG
 10
0.0
 20
0.0
 30
0.0
  9
$PUCSXDIR
 10
1.0
 20
0.0
 30
0.0
  9
$PUCSYDIR
 10
0.0
 20
1.0
 30
0.0
  9
$PUCSORTHOREF
  2

  9
$PUCSORTHOVIEW
 70
     0
  9
$PUCSORGTOP
 10
0.0
 20
0.0
 30
0.0
  9
$PUCSORGBOTTOM
 10
0.0
 20
0.0
 30
0.0
  9
$PUCSORGLEFT
 10
0.0
 20
0.0
 30
0.0
  9
$PUCSORGRIGHT
 10
0.0
 20
0.0
 30
0.0
  9
$PUCSORGFRONT
 10
0.0
 20
0.0
 30
0.0
  9
$PUCSORGBACK
 10
0.0
 20
0.0
 30
0.0
  9
$USERI1
 70
     0
  9
$USERI2
 70
     0
  9
$USERI3
 70
     0
  9
$USERI4
 70
     0
  9
$USERI5
 70
     0
  9
$USERR1
 40
0.0
  9
$USERR2
 40
0.0
  9
$USERR3
 40
0.0
  9
$USERR4
 40
0.0
  9
$USERR5
 40
0.0
  9
$WORLDVIEW
 70
     1
  9
$SHADEDGE
 70
     3
  9
$SHADEDIF
 70
    70
  9
$TILEMODE
 70
     1
  9
$MAXACTVP
 70
    64
  9
$PINSBASE
 10
0.0
 20
0.0
 30
0.0
  9
$PLIMCHECK
 70
     0
  9
$PEXTMIN
 10
1.000000000000000E+20
 20
1.000000000000000E+20
 30
1.000000000000000E+20
  9
$PEXTMAX
 10
-1.000000000000000E+20
 20
-1.000000000000000E+20
 30
-1.000000000000000E+20
  9
$PLIMMIN
 10
0.0
 20
0.0
  9
$PLIMMAX
 10
12.0
 20
9.0
  9
$UNITMODE
 70
     0
  9
$VISRETAIN
 70
     1
  9
$PLINEGEN
 70
     0
  9
$PSLTSCALE
 70
     1
  9
$TREEDEPTH
 70
  3020
  9
$CMLSTYLE
  2
Standard
  9
$CMLJUST
 70
     0
  9
$CMLSCALE
 40
1.0
  9
$PROXYGRAPHICS
 70
     1
  9
$MEASUREMENT
 70
     1
  9
$CELWEIGHT
370
    -1
  9
$ENDCAPS
280
     0
  9
$JOINSTYLE
280
     0
  9
$LWDISPLAY
290
     0
  9
$INSUNITS
 70
     4
  9
$HYPERLINKBASE
  1

  9
$STYLESHEET
  1

  9
$XEDIT
290
     1
  9
$CEPSNTYPE
380
     0
  9
$PSTYLEMODE
290
     1
  9
$FINGERPRINTGUID
  2
{7EB64F66-EF90-438F-891A-C450182254C8}
  9
$VERSIONGUID
  2
{A2A36F54-72B0-44D0-896E-8D9D7021B5B8}
  9
$EXTNAMES
290
     1
  9
$PSVPSCALE
 40
0.0
  9
$OLESTARTUP
290
     0
  9
$SORTENTS
280
   127
  9
$INDEXCTL
280
     0
  9
$HIDETEXT
280
     1
  9
$XCLIPFRAME
280
     2
  9
$HALOGAP
280
     0
  9
$OBSCOLOR
 70
   257
  9
$OBSLTYPE
280
     0
  9
$INTERSECTIONDISPLAY
280
     0
  9
$INTERSECTIONCOLOR
 70
   257
  9
$DIMASSOC
280
     2
  9
$PROJECTNAME
  1

  9
$CAMERADISPLAY
290
     0
  9
$LENSLENGTH
 40
50.0
  9
$CAMERAHEIGHT
 40
0.0
  9
$STEPSPERSEC
 40
2.0
  9
$STEPSIZE
 40
6.0
  9
$3DDWFPREC
 40
2.0
  9
$PSOLWIDTH
 40
0.25
  9
$PSOLHEIGHT
 40
4.0
  9
$LOFTANG1
 40
1.570796326794896
  9
$LOFTANG2
 40
1.570796326794896
  9
$LOFTMAG1
 40
0.0
  9
$LOFTMAG2
 40
0.0
  9
$LOFTPARAM
 70
     7
  9
$LOFTNORMALS
280
     1
  9
$LATITUDE
 40
37.795
  9
$LONGITUDE
 40
-122.394
  9
$NORTHDIRECTION
 40
0.0
  9
$TIMEZONE
 70
 -8000
  9
$LIGHTGLYPHDISPLAY
280
     1
  9
$TILEMODELIGHTSYNCH
280
     1
  9
$CMATERIAL
347
11
  9
$SOLIDHIST
280
     0
  9
$SHOWHIST
280
     1
  9
$DWFFRAME
280
     2
  9
$DGNFRAME
280
     0
  9
$REALWORLDSCALE
290
     1
  9
$INTERFERECOLOR
 62
     1
  9
$INTERFEREOBJVS
345
33
  9
$INTERFEREVPVS
346
30
  9
$CSHADOW
280
     0
  9
$SHADOWPLANELOCATION
 40
0.0
  0
ENDSEC
  0
SECTION
  2
CLASSES
  0
CLASS
  1
ACDBDICTIONARYWDFLT
  2
AcDbDictionaryWithDefault
  3
ObjectDBX Classes
 90
        0
 91
        1
280
     0
281
     0
  0
CLASS
  1
MATERIAL
  2
AcDbMaterial
  3
ObjectDBX Classes
 90
     1153
 91
        3
280
     0
281
     0
  0
CLASS
  1
VISUALSTYLE
  2
AcDbVisualStyle
  3
ObjectDBX Classes
 90
     4095
 91
       24
280
     0
281
     0
  0
CLASS
  1
SCALE
  2
AcDbScale
  3
ObjectDBX Classes
 90
     1153
 91
       17
280
     0
281
     0
  0
CLASS
  1
TABLESTYLE
  2
AcDbTableStyle
  3
ObjectDBX Classes
 90
     4095
 91
        1
280
     0
281
     0
  0
CLASS
  1
MLEADERSTYLE
  2
AcDbMLeaderStyle
  3
ACDB_MLEADERSTYLE_CLASS
 90
     4095
 91
        1
280
     0
281
     0
  0
CLASS
  1
ACDBSECTIONVIEWSTYLE
  2
AcDbSectionViewStyle
  3
ObjectDBX Classes
 90
     1025
 91
        1
280
     0
281
     0
  0
CLASS
  1
ACDBDETAILVIEWSTYLE
  2
AcDbDetailViewStyle
  3
ObjectDBX Classes
 90
     1025
 91
        1
280
     0
281
     0
  0
CLASS
  1
RASTERVARIABLES
  2
AcDbRasterVariables
  3
ISM
 90
        0
 91
        1
280
     0
281
     0
  0
CLASS
  1
DICTIONARYVAR
  2
AcDbDictionaryVar
  3
ObjectDBX Classes
 90
        0
 91
        5
280
     0
281
     0
  0
CLASS
  1
CELLSTYLEMAP
  2
AcDbCellStyleMap
  3
ObjectDBX Classes
 90
     1152
 91
        2
280
     0
281
     0
  0
CLASS
  1
SORTENTSTABLE
  2
AcDbSortentsTable
  3
ObjectDBX Classes
 90
        0
 91
        1
280
     0
281
     0
  0
ENDSEC
  0
SECTION
  2
TABLES
  0
TABLE
  2
VPORT
  5
8
330
0
100
AcDbSymbolTable
 70
     1
  0
VPORT
  5
57
330
8
100
AcDbSymbolTableRecord
100
AcDbViewportTableRecord
  2
*Active
 70
     0
 10
0.0
 20
0.0
 11
1.0
 21
1.0
 12
920.7903806931424
 22
1935.722939365023
 13
0.0
 23
0.0
 14
1.0
 24
1.0
 15
0.0
 25
0.0
 16
0.0
 26
0.0
 36
1.0
 17
0.0
 27
0.0
 37
0.0
 40
295.554121269942
 41
1.114002217547131
 42
50.0
 43
0.0
 44
0.0
 50
0.0
 51
0.0
 71
     0
 72
  1000
 73
     1
 74
     1
 75
     0
 76
     0
 77
     0
 78
     0
281
     0
 65
     1
110
0.0
120
0.0
130
0.0
111
1.0
121
0.0
131
0.0
112
0.0
122
1.0
132
0.0
 79
     0
146
0.0
 60
     3
 61
     5
292
     1
282
     1
141
0.0
142
0.0
 63
   250
421
  3355443
  0
ENDTAB
  0
TABLE
  2
LTYPE
  5
5
330
0
100
AcDbSymbolTable
 70
     3
  0
LTYPE
  5
5B
330
5
100
AcDbSymbolTableRecord
100
AcDbLinetypeTableRecord
  2
ByBlock
 70
     0
  3

 72
    65
 73
     0
 40
0.0
  0
LTYPE
  5
5C
330
5
100
AcDbSymbolTableRecord
100
AcDbLinetypeTableRecord
  2
ByLayer
 70
     0
  3

 72
    65
 73
     0
 40
0.0
  0
LTYPE
  5
5D
330
5
100
AcDbSymbolTableRecord
100
AcDbLinetypeTableRecord
  2
Continuous
 70
     0
  3
Solid line
 72
    65
 73
     0
 40
0.0
  0
LTYPE
  5
69
330
5
100
AcDbSymbolTableRecord
100
AcDbLinetypeTableRecord
  2
PHANTOM2
 70
     0
  3
___ _ _ ___ _ _ ___ _ _ ___ _ _
 72
    65
 73
     6
 40
1.25
 49
0.625
 74
     0
 49
-0.125
 74
     0
 49
0.125
 74
     0
 49
-0.125
 74
     0
 49
0.125
 74
     0
 49
-0.125
 74
     0
  0
LTYPE
  5
86
330
5
100
AcDbSymbolTableRecord
100
AcDbLinetypeTableRecord
  2
Nascosto 1_5 mm
 70
     0
  3

 72
    65
 73
     2
 40
2.2
 49
1.5
 74
     0
 49
-0.7000000000000001
 74
     0
  0
ENDTAB
  0
TABLE
  2
LAYER
  5
2
330
0
100
AcDbSymbolTable
 70
     4
  0
LAYER
  5
54
330
2
100
AcDbSymbolTableRecord
100
AcDbLayerTableRecord
  2
0
 70
     0
 62
     7
  6
Continuous
370
    -3
390
F
347
21
348
0
  0
LAYER
  5
85
330
2
100
AcDbSymbolTableRecord
100
AcDbLayerTableRecord
  2
P-SANR-FIXT
 70
     0
 62
     6
  6
Continuous
370
    18
390
F
347
21
348
0
  0
LAYER
  5
88
330
2
100
AcDbSymbolTableRecord
100
AcDbLayerTableRecord
  2
M-PIPE
 70
     0
 62
     3
  6
Continuous
370
    18
390
F
347
21
348
0
  0
ENDTAB
  0
TABLE
  2
STYLE
  5
3
330
0
100
AcDbSymbolTable
 70
     2
  0
STYLE
  5
55
330
3
100
AcDbSymbolTableRecord
100
AcDbTextStyleTableRecord
  2
Standard
 70
     0
 40
0.0
 41
1.0
 50
0.0
 71
     0
 42
0.2
  3
txt
  4

  0
STYLE
  5
5A
330
3
100
AcDbSymbolTableRecord
100
AcDbTextStyleTableRecord
  2
Annotative
 70
     0
 40
0.0
 41
1.0
 50
0.0
 71
     0
 42
0.2
  3
txt
  4

1001
AcadAnnotative
1000
AnnotativeData
1002
{
1070
     1
1070
     1
1002
}
  0
ENDTAB
  0
TABLE
  2
VIEW
  5
6
330
0
100
AcDbSymbolTable
 70
     0
  0
ENDTAB
  0
TABLE
  2
UCS
  5
7
330
0
100
AcDbSymbolTable
 70
     0
  0
ENDTAB
  0
TABLE
  2
APPID
  5
9
330
0
100
AcDbSymbolTable
 70
     3
  0
APPID
  5
56
330
9
100
AcDbSymbolTableRecord
100
AcDbRegAppTableRecord
  2
ACAD
 70
     0
  0
APPID
  5
5E
330
9
100
AcDbSymbolTableRecord
100
AcDbRegAppTableRecord
  2
AcadAnnotative
 70
     0
  0
APPID
  5
79
330
9
100
AcDbSymbolTableRecord
100
AcDbRegAppTableRecord
  2
REVIT
 70
     0
  0
ENDTAB
  0
TABLE
  2
DIMSTYLE
  5
A
330
0
100
AcDbSymbolTable
 70
     2
100
AcDbDimStyleTable
 71
     0
  0
DIMSTYLE
105
58
330
A
100
AcDbSymbolTableRecord
100
AcDbDimStyleTableRecord
  2
Standard
 70
     0
340
55
  0
DIMSTYLE
105
59
330
A
100
AcDbSymbolTableRecord
100
AcDbDimStyleTableRecord
  2
Annotative
 70
     0
340
55
1001
AcadAnnotative
1000
AnnotativeData
1002
{
1070
     1
1070
     1
1002
}
  0
ENDTAB
  0
TABLE
  2
BLOCK_RECORD
  5
1
330
0
100
AcDbSymbolTable
 70
     4
  0
BLOCK_RECORD
  5
71
102
{ACAD_XDICTIONARY
360
29C
102
}
330
1
100
AcDbSymbolTableRecord
100
AcDbBlockTableRecord
  2
*Model_Space
340
74
 70
     0
280
     1
281
     0
  0
BLOCK_RECORD
  5
6D
330
1
100
AcDbSymbolTableRecord
100
AcDbBlockTableRecord
  2
*Paper_Space
340
70
 70
     0
280
     1
281
     0
  0
BLOCK_RECORD
  5
75
330
1
100
AcDbSymbolTableRecord
100
AcDbBlockTableRecord
  2
*Paper_Space0
340
78
 70
     0
280
     1
281
     0
  0
BLOCK_RECORD
  5
87
330
1
100
AcDbSymbolTableRecord
100
AcDbBlockTableRecord
  2
Automatic flow rate regulator valve_Caleffi_121 DN15 - 1_2__-859151-Est - Idraulica
340
0
102
{BLKREFS
331
144
102
}
 70
     0
280
     1
281
     0
  0
BLOCK_RECORD
  5
145
330
1
100
AcDbSymbolTableRecord
100
AcDbBlockTableRecord
  2
Automatic flow rate regulator valve_Caleffi_121 DN15 - 1_2__-V1-Est - Idraulica
340
0
102
{BLKREFS
331
233
102
}
 70
     0
280
     1
281
     0
  0
BLOCK_RECORD
  5
234
330
1
100
AcDbSymbolTableRecord
100
AcDbBlockTableRecord
  2
Automatic flow rate regulator valve_Caleffi_121 DN15 - 1_2__-V2-Est - Idraulica
340
0
102
{BLKREFS
331
295
102
}
 70
     0
280
     1
281
     0
  0
ENDTAB
  0
ENDSEC
  0
SECTION
  2
BLOCKS
  0
BLOCK
  5
72
330
71
100
AcDbEntity
  8
0
100
AcDbBlockBegin
  2
*Model_Space
 70
     0
 10
0.0
 20
0.0
 30
0.0
  3
*Model_Space
  1

  0
ENDBLK
  5
73
330
71
100
AcDbEntity
  8
0
100
AcDbBlockEnd
  0
BLOCK
  5
6E
330
6D
100
AcDbEntity
 67
     1
  8
0
100
AcDbBlockBegin
  2
*Paper_Space
 70
     0
 10
0.0
 20
0.0
 30
0.0
  3
*Paper_Space
  1

  0
ENDBLK
  5
6F
330
6D
100
AcDbEntity
 67
     1
  8
0
100
AcDbBlockEnd
  0
BLOCK
  5
76
330
75
100
AcDbEntity
 67
     1
  8
0
100
AcDbBlockBegin
  2
*Paper_Space0
 70
     0
 10
0.0
 20
0.0
 30
0.0
  3
*Paper_Space0
  1

  0
ENDBLK
  5
77
330
75
100
AcDbEntity
 67
     1
  8
0
100
AcDbBlockEnd
  0
BLOCK
  5
142
330
87
100
AcDbEntity
  8
0
100
AcDbBlockBegin
  2
Automatic flow rate regulator valve_Caleffi_121 DN15 - 1_2__-859151-Est - Idraulica
 70
     0
 10
0.0
 20
0.0
 30
0.0
  3
Automatic flow rate regulator valve_Caleffi_121 DN15 - 1_2__-859151-Est - Idraulica
  1

  0
LINE
  5
89
330
87
100
AcDbEntity
  8
M-PIPE
100
AcDbLine
 10
862.2650423762426
 20
2055.126665944467
 30
0.0
 11
810.5903105404005
 21
2055.126665944467
 31
0.0
1001
REVIT
1002
{
1070
     3
1000
790271
1002
}
  0
LINE
  5
8A
330
87
100
AcDbEntity
  8
M-PIPE
100
AcDbLine
 10
862.2650423762411
 20
2055.115376337999
 30
0.0
 11
862.265042376241
 21
2037.081510851592
 31
0.0
1001
REVIT
1002
{
1070
     3
1000
790271
1002
}
  0
LINE
  5
8B
330
87
100
AcDbEntity
  8
M-PIPE
100
AcDbLine
 10
810.5903105403989
 20
2036.508458407951
 30
0.0
 11
810.5903105403989
 21
2055.115376337999
 31
0.0
1001
REVIT
1002
{
1070
     3
1000
790271
1002
}
  0
SPLINE
  5
8C
330
87
100
AcDbEntity
  8
M-PIPE
100
AcDbSpline
210
0.0
220
0.0
230
1.0
 70
     8
 71
     3
 72
    11
 73
     7
 74
     0
 42
0.000000001
 43
0.0000000001
 40
0.0838924027580654
 40
0.0838924027580654
 40
0.0838924027580654
 40
0.0838924027580654
 40
0.1111111111111111
 40
0.1666666666666666
 40
0.2222222222222222
 40
0.2468952470127627
 40
0.2468952470127627
 40
0.2468952470127627
 40
0.2468952470127627
 10
837.2719173295058
 20
2043.287502789173
 30
0.0
 10
837.2937311306266
 20
2043.368729295322
 30
0.0
 10
837.3707898887218
 20
2043.612533679571
 30
0.0
 10
837.5577437061171
 20
2044.009261724966
 30
0.0
 10
837.8008126457821
 20
2044.359006322508
 30
0.0
 10
837.9701175575874
 20
2044.544750568276
 30
0.0
 10
838.0243385453127
 20
2044.599805945498
 30
0.0
1001
REVIT
1002
{
1070
     3
1000
790271
1002
}
  0
SPLINE
  5
8D
330
87
100
AcDbEntity
  8
M-PIPE
100
AcDbSpline
210
0.0
220
0.0
230
1.0
 70
     8
 71
     3
 72
    12
 73
     8
 74
     0
 42
0.000000001
 43
0.0000000001
 40
0.4156801454513998
 40
0.4156801454513998
 40
0.4156801454513998
 40
0.4156801454513998
 40
0.4444444444444445
 40
0.5138888888888889
 40
0.5486111111111111
 40
0.5833333333333333
 40
0.5843914818994274
 40
0.5843914818994274
 40
0.5843914818994274
 40
0.5843914818994274
 10
839.3788237024203
 20
2045.394160995109
 30
0.0
 10
839.4660303394889
 20
2045.418192996577
 30
0.0
 10
839.7675260390544
 20
2045.486811219983
 30
0.0
 10
840.1894452529342
 20
2045.511704463161
 30
0.0
 10
840.6269029905823
 20
2045.470767427605
 30
0.0
 10
840.8407463092411
 20
2045.425122821681
 30
0.0
 10
840.9488306877706
 20
2045.395559885712
 30
0.0
 10
840.952026687102
 20
2045.394680029053
 30
0.0
1001
REVIT
1002
{
1070
     3
1000
790271
1002
}
  0
SPLINE
  5
8E
330
87
100
AcDbEntity
  8
M-PIPE
100
AcDbSpline
210
0.0
220
0.0
230
1.0
 70
     8
 71
     3
 72
    10
 73
     6
 74
     0
 42
0.000000001
 43
0.0000000001
 40
0.7532038070020235
 40
0.7532038070020235
 40
0.7532038070020235
 40
0.7532038070020235
 40
0.7916666666666668
 40
0.861111111111111
 40
0.916123417910647
 40
0.916123417910647
 40
0.916123417910647
 40
0.916123417910647
 10
842.3071427075543
 20
2044.601143012589
 30
0.0
 10
842.3912238754729
 20
2044.51571857979
 30
0.0
 10
842.6107500349159
 20
2044.260280181999
 30
0.0
 10
842.899326588072
 20
2043.820136934408
 30
0.0
 10
842.9903262982218
 20
2043.442927439093
 30
0.0
 10
843.0219886711624
 20
2043.273588604129
 30
0.0
1001
REVIT
1002
{
1070
     3
1000
790271
1002
}
  0
LINE
  5
8F
330
87
100
AcDbEntity
  8
M-PIPE
100
AcDbLine
 10
843.1664074431882
 20
2036.500000000057
 30
0.0
 11
843.1664074431882
 21
2042.500000000056
 31
0.0
1001
REVIT
1002
{
1070
     3
1000
790271
1002
}
  0
ARC
  5
90
330
87
100
AcDbEntity
  8
M-PIPE
100
AcDbCircle
 10
840.1664074431883
 20
2042.500000000056
 30
0.0
 40
3.0
100
AcDbArc
 50
0.0
 51
180.0
1001
REVIT
1002
{
1070
     3
1000
790271
1002
}
  0
LINE
  5
91
330
87
100
AcDbEntity
  8
M-PIPE
100
AcDbLine
 10
837.1664074431883
 20
2042.500000000056
 30
0.0
 11
837.1664074431883
 21
2036.500000000057
 31
0.0
1001
REVIT
1002
{
1070
     3
1000
790271
1002
}
  0
LINE
  5
92
330
87
100
AcDbEntity
  8
M-PIPE
100
AcDbLine
 10
874.1664074431897
 20
2057.000000000016
 30
0.0
 11
874.16640744319
 21
2080.499999999994
 31
0.0
1001
REVIT
1002
{
1070
     3
1000
790271
1002
}
  0
LINE
  5
93
330
87
100
AcDbEntity
  8
M-PIPE
100
AcDbLine
 10
868.1664074431902
 20
2080.499999999994
 30
0.0
 11
868.1664074431896
 21
2057.000000000017
 31
0.0
1001
REVIT
1002
{
1070
     3
1000
790271
1002
}
  0
LWPOLYLINE
  5
94
330
87
100
AcDbEntity
  8
M-PIPE
100
AcDbPolyline
 90
       41
 70
   128
 43
0.0
 10
868.1664074431902
 20
2080.499999999994
 10
868.1688071232073
 20
2080.619968002554
 10
868.1760023242825
 20
2080.739744081902
 10
868.1879815356285
 20
2080.859136621861
 10
868.2047255930633
 20
2080.977954619837
 10
868.2262077096666
 20
2081.09600799238
 10
868.252393518634
 20
2081.213107879276
 10
868.2832411282578
 20
2081.329066945686
 10
868.318701188943
 20
2081.443699681843
 10
868.3587169721564
 20
2081.55682269982
 10
868.4032244611815
 20
2081.66825502692
 10
868.4521524535302
 20
2081.777818395192
 10
868.5054226748524
 20
2081.885337526619
 10
868.5629499041572
 20
2081.990640413525
 10
868.62464211015
 20
2082.093558593757
 10
868.6904005984612
 20
2082.193927420179
 10
868.7601201695374
 20
2082.291586324082
 10
868.8336892869374
 20
2082.38637907205
 10
868.9109902557676
 20
2082.478154015909
 10
868.9918994109675
 20
2082.566764335326
 10
869.0762873151488
 20
2082.652068272692
 10
869.1640189656661
 20
2082.733929359907
 10
869.2549540105945
 20
2082.812216636691
 10
869.3489469732599
 20
2082.886804860104
 10
869.4458474849728
 20
2082.957574704897
 10
869.5455005255858
 20
2083.024412954418
 10
869.647746671492
 20
2083.087212681724
 10
869.7524223506691
 20
2083.145873420649
 10
869.8593601043603
 20
2083.200301326524
 10
869.9683888549714
 20
2083.25040932631
 10
870.0793341797604
 20
2083.296117257896
 10
870.1920185898739
 20
2083.337351998343
 10
870.3062618142944
 20
2083.374047580862
 10
870.4218810882331
 20
2083.406145300349
 10
870.5386914455159
 20
2083.4335938073
 10
870.6565060144894
 20
2083.45634918996
 10
870.7751363169759
 20
2083.474375044569
 10
870.8943925697973
 20
2083.487642533607
 10
871.0140839883894
 20
2083.496130431921
 10
871.1340190920154
 20
2083.499825160684
 10
871.1664074431901
 20
2083.499999999994
1001
REVIT
1002
{
1070
     3
1000
790271
1002
}
  0
LWPOLYLINE
  5
95
330
87
100
AcDbEntity
  8
M-PIPE
100
AcDbPolyline
 90
       41
 70
   128
 43
0.0
 10
871.1664074431901
 20
2083.499999999994
 10
871.2863754457499
 20
2083.497600319977
 10
871.4061515250975
 20
2083.490405118902
 10
871.5255440650567
 20
2083.478425907556
 10
871.6443620630327
 20
2083.461681850121
 10
871.7624154355751
 20
2083.440199733518
 10
871.8795153224716
 20
2083.41401392455
 10
871.9954743888822
 20
2083.383166314926
 10
872.1101071250382
 20
2083.347706254242
 10
872.2232301430153
 20
2083.307690471028
 10
872.3346624701159
 20
2083.263182982003
 10
872.4442258383881
 20
2083.214254989654
 10
872.5517449698143
 20
2083.160984768332
 10
872.6570478567211
 20
2083.103457539027
 10
872.7599660369525
 20
2083.041765333034
 10
872.860334863375
 20
2082.976006844723
 10
872.957993767277
 20
2082.906287273647
 10
873.0527865152453
 20
2082.832718156247
 10
873.1445614591043
 20
2082.755417187417
 10
873.2331717785214
 20
2082.674508032217
 10
873.3184757158884
 20
2082.590120128035
 10
873.4003368031023
 20
2082.502388477518
 10
873.4786240798868
 20
2082.41145343259
 10
873.553212303299
 20
2082.317460469925
 10
873.6239821480928
 20
2082.220559958211
 10
873.6908203976136
 20
2082.120906917598
 10
873.7536201249199
 20
2082.018660771693
 10
873.8122808638447
 20
2081.913985092516
 10
873.8667087697193
 20
2081.807047338824
 10
873.9168167695051
 20
2081.698018588213
 10
873.9625247010916
 20
2081.587073263424
 10
874.0037594415383
 20
2081.47438885331
 10
874.0404550240576
 20
2081.36014562889
 10
874.0725527435445
 20
2081.244526354951
 10
874.1000012504958
 20
2081.127715997668
 10
874.122756633155
 20
2081.009901428695
 10
874.1407824877647
 20
2080.891271126208
 10
874.1540499768028
 20
2080.772014873387
 10
874.1625378751164
 20
2080.652323454795
 10
874.1662326038795
 20
2080.532388351169
 10
874.1664074431897
 20
2080.499999999994
1001
REVIT
1002
{
1070
     3
1000
790271
1002
}
  0
LINE
  5
96
330
87
100
AcDbEntity
  8
M-PIPE
100
AcDbLine
 10
882.1664074430479
 20
2025.000000000018
 30
0.0
 11
882.1664074430479
 21
2026.300000000018
 31
0.0
1001
REVIT
1002
{
1070
     3
1000
790271
1002
}
  0
LINE
  5
97
330
87
100
AcDbEntity
  8
M-PIPE
100
AcDbLine
 10
860.166407443331
 20
2026.300000000018
 30
0.0
 11
860.166407443331
 21
2025.000000000018
 31
0.0
1001
REVIT
1002
{
1070
     3
1000
790271
1002
}
  0
LINE
  5
98
330
87
100
AcDbEntity
  8
M-PIPE
100
AcDbLine
 10
882.1664074431884
 20
2026.300000000018
 30
0.0
 11
882.082113016621
 21
2026.330680662203
 31
0.0
1001
REVIT
1002
{
1070
     3
1000
790271
1002
}
  0
LINE
  5
99
330
87
100
AcDbEntity
  8
M-PIPE
100
AcDbLine
 10
882.0723009181611
 20
2026.334251973977
 30
0.0
 11
880.6664074431894
 21
2026.845955351417
 31
0.0
1001
REVIT
1002
{
1070
     3
1000
790271
1002
}
  0
LINE
  5
9A
330
87
100
AcDbEntity
  8
M-PIPE
100
AcDbLine
 10
861.6664074431893
 20
2026.845955351417
 30
0.0
 11
860.2605139682179
 21
2026.334251973978
 31
0.0
1001
REVIT
1002
{
1070
     3
1000
790271
1002
}
  0
LINE
  5
9B
330
87
100
AcDbEntity
  8
M-PIPE
100
AcDbLine
 10
860.2507018697579
 20
2026.330680662203
 30
0.0
 11
860.1664074431903
 21
2026.300000000018
 31
0.0
1001
REVIT
1002
{
1070
     3
1000
790271
1002
}
  0
LINE
  5
9C
330
87
100
AcDbEntity
  8
M-PIPE
100
AcDbLine
 10
880.6664074431875
 20
2026.845955351417
 30
0.0
 11
880.6664074431877
 21
2041.499999999994
 31
0.0
1001
REVIT
1002
{
1070
     3
1000
790271
1002
}
  0
LINE
  5
9D
330
87
100
AcDbEntity
  8
M-PIPE
100
AcDbLine
 10
861.6664074431913
 20
2031.999999999994
 30
0.0
 11
861.6664074431913
 21
2026.845955351417
 31
0.0
1001
REVIT
1002
{
1070
     3
1000
790271
1002
}
  0
LINE
  5
9E
330
87
100
AcDbEntity
  8
M-PIPE
100
AcDbLine
 10
880.6664074431894
 20
2041.499999999994
 30
0.0
 11
879.6664074431896
 21
2042.499999999994
 31
0.0
1001
REVIT
1002
{
1070
     3
1000
790271
1002
}
  0
LINE
  5
9F
330
87
100
AcDbEntity
  8
M-PIPE
100
AcDbLine
 10
879.6664074431877
 20
2042.499999999996
 30
0.0
 11
879.6664074431877
 21
2057.000000000017
 31
0.0
1001
REVIT
1002
{
1070
     3
1000
790271
1002
}
  0
LINE
  5
A0
330
87
100
AcDbEntity
  8
M-PIPE
100
AcDbLine
 10
862.6664074431916
 20
2057.000000000017
 30
0.0
 11
862.6664074431916
 21
2052.999999999994
 31
0.0
1001
REVIT
1002
{
1070
     3
1000
790271
1002
}
  0
LINE
  5
A1
330
87
100
AcDbEntity
  8
M-PIPE
100
AcDbLine
 10
826.6664074431895
 20
2025.000000000027
 30
0.0
 11
826.6664074431895
 21
2026.300000000026
 31
0.0
1001
REVIT
1002
{
1070
     3
1000
790271
1002
}
  0
LINE
  5
A2
330
87
100
AcDbEntity
  8
M-PIPE
100
AcDbLine
 10
804.6664074431896
 20
2026.300000000026
 30
0.0
 11
804.6664074431896
 21
2025.000000000027
 31
0.0
1001
REVIT
1002
{
1070
     3
1000
790271
1002
}
  0
LINE
  5
A3
330
87
100
AcDbEntity
  8
M-PIPE
100
AcDbLine
 10
826.6664074431895
 20
2026.300000000026
 30
0.0
 11
826.5821130167621
 21
2026.330680662161
 31
0.0
1001
REVIT
1002
{
1070
     3
1000
790271
1002
}
  0
LINE
  5
A4
330
87
100
AcDbEntity
  8
M-PIPE
100
AcDbLine
 10
826.5723009183016
 20
2026.334251973936
 30
0.0
 11
825.1664074431895
 21
2026.845955351426
 31
0.0
1001
REVIT
1002
{
1070
     3
1000
790271
1002
}
  0
LINE
  5
A5
330
87
100
AcDbEntity
  8
M-PIPE
100
AcDbLine
 10
806.1664074431895
 20
2026.845955351426
 30
0.0
 11
804.7605139680777
 21
2026.334251973936
 31
0.0
1001
REVIT
1002
{
1070
     3
1000
790271
1002
}
  0
LINE
  5
A6
330
87
100
AcDbEntity
  8
M-PIPE
100
AcDbLine
 10
804.7507018696173
 20
2026.330680662161
 30
0.0
 11
804.6664074431896
 21
2026.300000000026
 31
0.0
1001
REVIT
1002
{
1070
     3
1000
790271
1002
}
  0
LINE
  5
A7
330
87
100
AcDbEntity
  8
M-PIPE
100
AcDbLine
 10
825.1664074431895
 20
2026.845955351426
 30
0.0
 11
825.1664074431895
 21
2031.999999999994
 31
0.0
1001
REVIT
1002
{
1070
     3
1000
790271
1002
}
  0
LINE
  5
A8
330
87
100
AcDbEntity
  8
M-PIPE
100
AcDbLine
 10
806.1664074431895
 20
2029.499999999995
 30
0.0
 11
806.1664074431895
 21
2026.845955351426
 31
0.0
1001
REVIT
1002
{
1070
     3
1000
790271
1002
}
  0
LINE
  5
A9
330
87
100
AcDbEntity
  8
M-PIPE
100
AcDbLine
 10
862.6664074431916
 20
2052.999999999994
 30
0.0
 11
862.2650423762426
 21
2052.999999999994
 31
0.0
1001
REVIT
1002
{
1070
     3
1000
790271
1002
}
  0
LINE
  5
AA
330
87
100
AcDbEntity
  8
M-PIPE
100
AcDbLine
 10
825.1664074431895
 20
2031.999999999994
 30
0.0
 11
861.6664074431913
 21
2031.999999999994
 31
0.0
1001
REVIT
1002
{
1070
     3
1000
790271
1002
}
  0
LINE
  5
AB
330
87
100
AcDbEntity
  8
M-PIPE
100
AcDbLine
 10
810.5903105404006
 20
2053.999999999994
 30
0.0
 11
810.1664074431896
 21
2053.999999999994
 31
0.0
1001
REVIT
1002
{
1070
     3
1000
790271
1002
}
  0
LINE
  5
AC
330
87
100
AcDbEntity
  8
M-PIPE
100
AcDbLine
 10
810.1664074431896
 20
2053.999999999994
 30
0.0
 11
808.6664074431896
 21
2055.499999999994
 31
0.0
1001
REVIT
1002
{
1070
     3
1000
790271
1002
}
  0
LINE
  5
AD
330
87
100
AcDbEntity
  8
M-PIPE
100
AcDbLine
 10
808.6664074431896
 20
2055.499999999994
 30
0.0
 11
806.1664074431895
 21
2055.499999999994
 31
0.0
1001
REVIT
1002
{
1070
     3
1000
790271
1002
}
  0
LINE
  5
AE
330
87
100
AcDbEntity
  8
M-PIPE
100
AcDbLine
 10
860.1664074433296
 20
2025.000000000017
 30
0.0
 11
882.1664074430463
 21
2025.000000000017
 31
0.0
1001
REVIT
1002
{
1070
     3
1000
790271
1002
}
  0
LINE
  5
AF
330
87
100
AcDbEntity
  8
M-PIPE
100
AcDbLine
 10
882.1664074431872
 20
2026.300000000016
 30
0.0
 11
860.1664074431887
 21
2026.300000000017
 31
0.0
1001
REVIT
1002
{
1070
     3
1000
790271
1002
}
  0
LINE
  5
B0
330
87
100
AcDbEntity
  8
M-PIPE
100
AcDbLine
 10
880.6664074431861
 20
2026.845955351416
 30
0.0
 11
861.6664074431897
 21
2026.845955351416
 31
0.0
1001
REVIT
1002
{
1070
     3
1000
790271
1002
}
  0
SPLINE
  5
B1
330
87
100
AcDbEntity
  8
M-PIPE
100
AcDbSpline
210
0.0
220
0.0
230
1.0
 70
     8
 71
     3
 72
     9
 73
     5
 74
     0
 42
0.000000001
 43
0.0000000001
 40
0.0
 40
0.0
 40
0.0
 40
0.0
 40
0.5
 40
1.0
 40
1.0
 40
1.0
 40
1.0
 10
869.1664074431866
 20
2037.601020514422
 30
0.0
 10
868.7099530533281
 20
2037.397652537093
 30
0.0
 10
867.8327391690675
 20
2036.953399678986
 30
0.0
 10
867.0398590533064
 20
2036.434113013987
 30
0.0
 10
866.6664074431867
 20
2036.155711229764
 30
0.0
1001
REVIT
1002
{
1070
     3
1000
790271
1002
}
  0
LINE
  5
B2
330
87
100
AcDbEntity
  8
M-PIPE
100
AcDbLine
 10
866.6664074431867
 20
2035.499999999993
 30
0.0
 11
866.6664074431867
 21
2035.078615552142
 31
0.0
1001
REVIT
1002
{
1070
     3
1000
790271
1002
}
  0
SPLINE
  5
B3
330
87
100
AcDbEntity
  8
M-PIPE
100
AcDbSpline
210
0.0
220
0.0
230
1.0
 70
     8
 71
     3
 72
    11
 73
     7
 74
     0
 42
0.000000001
 43
0.0000000001
 40
0.0
 40
0.0
 40
0.0
 40
0.0
 40
0.3333333333333333
 40
0.5
 40
0.6666666666666666
 40
1.0
 40
1.0
 40
1.0
 40
1.0
 10
866.6664074431864
 20
2032.550125628924
 30
0.0
 10
866.1325310398783
 20
2032.295173481915
 30
0.0
 10
865.3724983366565
 20
2031.916180483564
 30
0.0
 10
864.4756256262462
 20
2031.390727222209
 30
0.0
 10
863.6557737755694
 20
2030.878854159698
 30
0.0
 10
863.1310406681802
 20
2030.540601757879
 30
0.0
 10
862.8329342547587
 20
2030.326390207401
 30
0.0
1001
REVIT
1002
{
1070
     3
1000
790271
1002
}
  0
SPLINE
  5
B4
330
87
100
AcDbEntity
  8
M-PIPE
100
AcDbSpline
210
0.0
220
0.0
230
1.0
 70
     8
 71
     3
 72
     9
 73
     5
 74
     0
 42
0.000000001
 43
0.0000000001
 40
0.0
 40
0.0
 40
0.0
 40
0.0
 40
0.5
 40
1.0
 40
1.0
 40
1.0
 40
1.0
 10
862.8329342547587
 20
2033.042369462575
 30
0.0
 10
862.4688248906354
 20
2032.707130879321
 30
0.0
 10
861.8836327068246
 20
2032.198164052303
 30
0.0
 10
861.66640744319
 20
2032.012217904266
 30
0.0
 10
861.66640744319
 20
2031.999999999993
 30
0.0
1001
REVIT
1002
{
1070
     3
1000
790271
1002
}
  0
LINE
  5
B5
330
87
100
AcDbEntity
  8
M-PIPE
100
AcDbLine
 10
880.6664074431861
 20
2041.499999999995
 30
0.0
 11
869.1664074431884
 21
2041.499999999995
 31
0.0
1001
REVIT
1002
{
1070
     3
1000
790271
1002
}
  0
SPLINE
  5
B6
330
87
100
AcDbEntity
  8
M-PIPE
100
AcDbSpline
210
0.0
220
0.0
230
1.0
 70
     8
 71
     3
 72
     9
 73
     5
 74
     0
 42
0.000000001
 43
0.0000000001
 40
0.0
 40
0.0
 40
0.0
 40
0.0
 40
0.5
 40
1.0
 40
1.0
 40
1.0
 40
1.0
 10
862.66640744319
 20
2052.999999999993
 30
0.0
 10
862.66640744319
 20
2052.99974538623
 30
0.0
 10
862.694627398945
 20
2052.977099712449
 30
0.0
 10
862.7779554400248
 20
2052.91018114616
 30
0.0
 10
862.8329342547591
 20
2052.86565363989
 30
0.0
1001
REVIT
1002
{
1070
     3
1000
790271
1002
}
  0
SPLINE
  5
B7
330
87
100
AcDbEntity
  8
M-PIPE
100
AcDbSpline
210
0.0
220
0.0
230
1.0
 70
     8
 71
     3
 72
    14
 73
    10
 74
     0
 42
0.000000001
 43
0.0000000001
 40
0.0
 40
0.0
 40
0.0
 40
0.0
 40
0.25
 40
0.375
 40
0.5
 40
0.5625
 40
0.625
 40
0.75
 40
1.0
 40
1.0
 40
1.0
 40
1.0
 10
862.8329342547591
 20
2055.391732830854
 30
0.0
 10
862.9510864327464
 20
2055.308434766251
 30
0.0
 10
863.2201939858354
 20
2055.144151299538
 30
0.0
 10
863.7372834897197
 20
2054.824386186864
 30
0.0
 10
864.1214185688298
 20
2054.596440349788
 30
0.0
 10
864.4619972772014
 20
2054.405099584226
 30
0.0
 10
864.8228205507285
 20
2054.201087138888
 30
0.0
 10
865.5089690278764
 20
2053.83642552506
 30
0.0
 10
866.1861781233389
 20
2053.527712706435
 30
0.0
 10
866.6664074431867
 20
2053.316653826387
 30
0.0
1001
REVIT
1002
{
1070
     3
1000
790271
1002
}
  0
SPLINE
  5
B8
330
87
100
AcDbEntity
  8
M-PIPE
100
AcDbSpline
210
0.0
220
0.0
230
1.0
 70
     8
 71
     3
 72
     9
 73
     5
 74
     0
 42
0.000000001
 43
0.0000000001
 40
0.0
 40
0.0
 40
0.0
 40
0.0
 40
0.5
 40
1.0
 40
1.0
 40
1.0
 40
1.0
 10
866.6664074431867
 20
2050.132168761233
 30
0.0
 10
867.0366541144948
 20
2049.902517391457
 30
0.0
 10
867.8277838709888
 20
2049.480961344543
 30
0.0
 10
868.7083044040065
 20
2049.134898682904
 30
0.0
 10
869.1664074431868
 20
2048.980740698404
 30
0.0
1001
REVIT
1002
{
1070
     3
1000
790271
1002
}
  0
LINE
  5
B9
330
87
100
AcDbEntity
  8
M-PIPE
100
AcDbLine
 10
879.6664074431863
 20
2042.499999999995
 30
0.0
 11
869.1664074431884
 21
2042.499999999995
 31
0.0
1001
REVIT
1002
{
1070
     3
1000
790271
1002
}
  0
LINE
  5
BA
330
87
100
AcDbEntity
  8
M-PIPE
100
AcDbLine
 10
879.6664074431863
 20
2057.000000000016
 30
0.0
 11
862.66640744319
 21
2057.000000000016
 31
0.0
1001
REVIT
1002
{
1070
     3
1000
790271
1002
}
  0
LINE
  5
BB
330
87
100
AcDbEntity
  8
M-PIPE
100
AcDbLine
 10
804.9551050613656
 20
2025.000000000025
 30
0.0
 11
826.6664074431881
 21
2025.000000000025
 31
0.0
1001
REVIT
1002
{
1070
     3
1000
790271
1002
}
  0
LINE
  5
BC
330
87
100
AcDbEntity
  8
M-PIPE
100
AcDbLine
 10
826.6664074431881
 20
2026.300000000025
 30
0.0
 11
804.6664074431882
 21
2026.300000000025
 31
0.0
1001
REVIT
1002
{
1070
     3
1000
790271
1002
}
  0
LINE
  5
BD
330
87
100
AcDbEntity
  8
M-PIPE
100
AcDbLine
 10
825.1664074431882
 20
2026.845955351425
 30
0.0
 11
806.1664074431881
 21
2026.845955351425
 31
0.0
1001
REVIT
1002
{
1070
     3
1000
790271
1002
}
  0
SPLINE
  5
BE
330
87
100
AcDbEntity
  8
M-PIPE
100
AcDbSpline
210
0.0
220
0.0
230
1.0
 70
     8
 71
     3
 72
    11
 73
     7
 74
     0
 42
0.000000001
 43
0.0000000001
 40
0.0
 40
0.0
 40
0.0
 40
0.0
 40
0.3333333333333333
 40
0.5
 40
0.6666666666666666
 40
1.0
 40
1.0
 40
1.0
 40
1.0
 10
825.1664074431882
 20
2031.999999999993
 30
0.0
 10
825.1664074431882
 20
2032.006035763425
 30
0.0
 10
825.0586141945037
 20
2032.095857213354
 30
0.0
 10
824.722145010395
 20
2032.40158182703
 30
0.0
 10
824.2689594342014
 20
2032.806854490123
 30
0.0
 10
823.8162555443889
 20
2033.195320088307
 30
0.0
 10
823.4766571190949
 20
2033.499999999993
 30
0.0
1001
REVIT
1002
{
1070
     3
1000
790271
1002
}
  0
SPLINE
  5
BF
330
87
100
AcDbEntity
  8
M-PIPE
100
AcDbSpline
210
0.0
220
0.0
230
1.0
 70
     8
 71
     3
 72
     9
 73
     5
 74
     0
 42
0.000000001
 43
0.0000000001
 40
0.0
 40
0.0
 40
0.0
 40
0.0
 40
0.5
 40
1.0
 40
1.0
 40
1.0
 40
1.0
 10
809.9128367431823
 20
2033.499999999993
 30
0.0
 10
809.7074755816114
 20
2033.099171503145
 30
0.0
 10
809.2907320047201
 20
2032.314567247053
 30
0.0
 10
808.8726185572497
 20
2031.564068466173
 30
0.0
 10
808.6664074431881
 20
2031.197345444536
 30
0.0
1001
REVIT
1002
{
1070
     3
1000
790271
1002
}
  0
SPLINE
  5
C0
330
87
100
AcDbEntity
  8
M-PIPE
100
AcDbSpline
210
0.0
220
0.0
230
1.0
 70
     8
 71
     3
 72
    12
 73
     8
 74
     0
 42
0.000000001
 43
0.0000000001
 40
0.0
 40
0.0
 40
0.0
 40
0.0
 40
0.3333333333333333
 40
0.5
 40
0.6666666666666666
 40
0.8333333333333332
 40
1.0
 40
1.0
 40
1.0
 40
1.0
 10
808.6664074431881
 20
2031.197345444536
 30
0.0
 10
808.162670221335
 20
2030.866906188841
 30
0.0
 10
807.4908625782578
 20
2030.441297490448
 30
0.0
 10
806.822297128073
 20
2029.974658286153
 30
0.0
 10
806.4499645126467
 20
2029.703562862847
 30
0.0
 10
806.2194196195061
 20
2029.547668131268
 30
0.0
 10
806.1664074431881
 20
2029.50483424734
 30
0.0
 10
806.1664074431881
 20
2029.499999999993
 30
0.0
1001
REVIT
1002
{
1070
     3
1000
790271
1002
}
  0
LINE
  5
C1
330
87
100
AcDbEntity
  8
M-PIPE
100
AcDbLine
 10
869.1664074431868
 20
2037.601020514422
 30
0.0
 11
869.1664074431868
 21
2048.980740698404
 31
0.0
1001
REVIT
1002
{
1070
     3
1000
790271
1002
}
  0
LINE
  5
C2
330
87
100
AcDbEntity
  8
M-PIPE
100
AcDbLine
 10
866.6664074431867
 20
2035.499999999993
 30
0.0
 11
866.6664074431867
 21
2035.042637370435
 31
0.0
1001
REVIT
1002
{
1070
     3
1000
790271
1002
}
  0
LINE
  5
C3
330
87
100
AcDbEntity
  8
M-PIPE
100
AcDbLine
 10
866.6664074431867
 20
2034.964101464233
 30
0.0
 11
866.6664074431867
 21
2032.550125628924
 31
0.0
1001
REVIT
1002
{
1070
     3
1000
790271
1002
}
  0
SPLINE
  5
C4
330
87
100
AcDbEntity
  8
M-PIPE
100
AcDbSpline
210
0.0
220
0.0
230
1.0
 70
     8
 71
     3
 72
     8
 73
     4
 74
     0
 42
0.000000001
 43
0.0000000001
 40
0.1428571428571428
 40
0.1428571428571428
 40
0.1428571428571428
 40
0.1428571428571428
 40
0.177409883421378
 40
0.177409883421378
 40
0.177409883421378
 40
0.177409883421378
 10
866.6210306611233
 20
2035.077514687746
 30
0.0
 10
866.6139158122781
 20
2035.044402013059
 30
0.0
 10
866.6059743363836
 20
2035.011539235753
 30
0.0
 10
866.5972130598348
 20
2034.978941043595
 30
0.0
1001
REVIT
1002
{
1070
     3
1000
790271
1002
}
  0
SPLINE
  5
C5
330
87
100
AcDbEntity
  8
M-PIPE
100
AcDbSpline
210
0.0
220
0.0
230
1.0
 70
     8
 71
     3
 72
     8
 73
     4
 74
     0
 42
0.000000001
 43
0.0000000001
 40
0.2857142857142857
 40
0.2857142857142857
 40
0.2857142857142857
 40
0.2857142857142857
 40
0.4285714285714286
 40
0.4285714285714286
 40
0.4285714285714286
 40
0.4285714285714286
 10
866.4908741771666
 20
2034.680658107618
 30
0.0
 10
866.4336798496711
 20
2034.553336550048
 30
0.0
 10
866.3628378920583
 20
2034.431324430986
 30
0.0
 10
866.2787797549432
 20
2034.316676067893
 30
0.0
1001
REVIT
1002
{
1070
     3
1000
790271
1002
}
  0
SPLINE
  5
C6
330
87
100
AcDbEntity
  8
M-PIPE
100
AcDbSpline
210
0.0
220
0.0
230
1.0
 70
     8
 71
     3
 72
     8
 73
     4
 74
     0
 42
0.000000001
 43
0.0000000001
 40
0.5319989560612927
 40
0.5319989560612927
 40
0.5319989560612927
 40
0.5319989560612927
 40
0.5714285714285714
 40
0.5714285714285714
 40
0.5714285714285714
 40
0.5714285714285714
 10
866.0753627390917
 20
2034.08037207103
 30
0.0
 10
866.0468512665429
 20
2034.052098868041
 30
0.0
 10
866.0173170925057
 20
2034.024543548387
 30
0.0
 10
865.9867439769428
 20
2033.997764519908
 30
0.0
1001
REVIT
1002
{
1070
     3
1000
790271
1002
}
  0
SPLINE
  5
C7
330
87
100
AcDbEntity
  8
M-PIPE
100
AcDbSpline
210
0.0
220
0.0
230
1.0
 70
     8
 71
     3
 72
     8
 73
     4
 74
     0
 42
0.000000001
 43
0.0000000001
 40
0.6944110628201735
 40
0.6944110628201735
 40
0.6944110628201735
 40
0.6944110628201735
 40
0.7142857142857143
 40
0.7142857142857143
 40
0.7142857142857143
 40
0.7142857142857143
 10
865.6710313682225
 20
2033.770320816277
 30
0.0
 10
865.6524996649009
 20
2033.759659391057
 30
0.0
 10
865.6337114845586
 20
2033.749305742526
 30
0.0
 10
865.61465490048
 20
2033.739190978583
 30
0.0
1001
REVIT
1002
{
1070
     3
1000
790271
1002
}
  0
SPLINE
  5
C8
330
87
100
AcDbEntity
  8
M-PIPE
100
AcDbSpline
210
0.0
220
0.0
230
1.0
 70
     8
 71
     3
 72
     8
 73
     4
 74
     0
 42
0.000000001
 43
0.0000000001
 40
0.8515985125735221
 40
0.8515985125735221
 40
0.8515985125735221
 40
0.8515985125735221
 40
0.8571428571428569
 40
0.8571428571428569
 40
0.8571428571428569
 40
0.8571428571428569
 10
865.1850384125982
 20
2033.56829507591
 30
0.0
 10
865.1789168466191
 20
2033.566680945302
 30
0.0
 10
865.1727975605945
 20
2033.565072146501
 30
0.0
 10
865.1666750746242
 20
2033.563478834836
 30
0.0
1001
REVIT
1002
{
1070
     3
1000
790271
1002
}
  0
LINE
  5
C9
330
87
100
AcDbEntity
  8
M-PIPE
100
AcDbLine
 10
866.6664074431883
 20
2053.316653826387
 30
0.0
 11
866.6664074431883
 21
2042.500000000057
 31
0.0
1001
REVIT
1002
{
1070
     3
1000
790271
1002
}
  0
LINE
  5
CA
330
87
100
AcDbEntity
  8
M-PIPE
100
AcDbLine
 10
862.8329342547605
 20
2033.499999999993
 30
0.0
 11
862.8329342547605
 21
2030.326390207401
 31
0.0
1001
REVIT
1002
{
1070
     3
1000
790271
1002
}
  0
LINE
  5
CB
330
87
100
AcDbEntity
  8
M-PIPE
100
AcDbLine
 10
862.8329342547591
 20
2055.391732830854
 30
0.0
 11
862.8329342547591
 21
2042.500000000057
 31
0.0
1001
REVIT
1002
{
1070
     3
1000
790271
1002
}
  0
LINE
  5
CC
330
87
100
AcDbEntity
  8
M-PIPE
100
AcDbLine
 10
808.6664074431881
 20
2042.499999999993
 30
0.0
 11
808.6664074431881
 21
2041.917474855238
 31
0.0
1001
REVIT
1002
{
1070
     3
1000
790271
1002
}
  0
LINE
  5
CD
330
87
100
AcDbEntity
  8
M-PIPE
100
AcDbLine
 10
810.1664074431882
 20
2053.999999999993
 30
0.0
 11
810.1664074431882
 21
2036.568000541116
 31
0.0
1001
REVIT
1002
{
1070
     3
1000
790271
1002
}
  0
LINE
  5
CE
330
87
100
AcDbEntity
  8
M-PIPE
100
AcDbLine
 10
808.6664074431881
 20
2033.499999999993
 30
0.0
 11
808.6664074431881
 21
2031.197345444536
 31
0.0
1001
REVIT
1002
{
1070
     3
1000
790271
1002
}
  0
SPLINE
  5
CF
330
87
100
AcDbEntity
  8
M-PIPE
100
AcDbSpline
210
0.0
220
0.0
230
1.0
 70
     8
 71
     3
 72
     8
 73
     4
 74
     0
 42
0.000000001
 43
0.0000000001
 40
0.1428571428571428
 40
0.1428571428571428
 40
0.1428571428571428
 40
0.1428571428571428
 40
0.1484014874264236
 40
0.1484014874264236
 40
0.1484014874264236
 40
0.1484014874264236
 10
807.6661556429938
 20
2033.563573358883
 30
0.0
 10
807.6599983010208
 20
2033.565146288329
 30
0.0
 10
807.6538508979618
 20
2033.56675199962
 30
0.0
 10
807.6477139153485
 20
2033.568389765959
 30
0.0
1001
REVIT
1002
{
1070
     3
1000
790271
1002
}
  0
SPLINE
  5
D0
330
87
100
AcDbEntity
  8
M-PIPE
100
AcDbSpline
210
0.0
220
0.0
230
1.0
 70
     8
 71
     3
 72
     8
 73
     4
 74
     0
 42
0.000000001
 43
0.0000000001
 40
0.2857142857142857
 40
0.2857142857142857
 40
0.2857142857142857
 40
0.2857142857142857
 40
0.3055889371798266
 40
0.3055889371798266
 40
0.3055889371798266
 40
0.3055889371798266
 10
807.218175600493
 20
2033.739075137173
 30
0.0
 10
807.1990605434057
 20
2033.749327873509
 30
0.0
 10
807.1802311963804
 20
2033.759843938002
 30
0.0
 10
807.1616708836417
 20
2033.770614636226
 30
0.0
1001
REVIT
1002
{
1070
     3
1000
790271
1002
}
  0
SPLINE
  5
D1
330
87
100
AcDbEntity
  8
M-PIPE
100
AcDbSpline
210
0.0
220
0.0
230
1.0
 70
     8
 71
     3
 72
     8
 73
     4
 74
     0
 42
0.000000001
 43
0.0000000001
 40
0.4285714285714286
 40
0.4285714285714286
 40
0.4285714285714286
 40
0.4285714285714286
 40
0.4680010439387168
 40
0.4680010439387168
 40
0.4680010439387168
 40
0.4680010439387168
 10
806.8460709094322
 20
2033.997764519907
 30
0.0
 10
806.8154778073424
 20
2034.024626189673
 30
0.0
 10
806.7862541025315
 20
2034.052308254968
 30
0.0
 10
806.757855143581
 20
2034.080604546917
 30
0.0
1001
REVIT
1002
{
1070
     3
1000
790271
1002
}
  0
SPLINE
  5
D2
330
87
100
AcDbEntity
  8
M-PIPE
100
AcDbSpline
210
0.0
220
0.0
230
1.0
 70
     8
 71
     3
 72
     8
 73
     4
 74
     0
 42
0.000000001
 43
0.0000000001
 40
0.5714285714285714
 40
0.5714285714285714
 40
0.5714285714285714
 40
0.5714285714285714
 40
0.7142857142857143
 40
0.7142857142857143
 40
0.7142857142857143
 40
0.7142857142857143
 10
806.5540351314318
 20
2034.316676067893
 30
0.0
 10
806.4699633880193
 20
2034.431252479746
 30
0.0
 10
806.4179368911124
 20
2034.558534568529
 30
0.0
 10
806.3795777276304
 20
2034.691451332327
 30
0.0
1001
REVIT
1002
{
1070
     3
1000
790271
1002
}
  0
SPLINE
  5
D3
330
87
100
AcDbEntity
  8
M-PIPE
100
AcDbSpline
210
0.0
220
0.0
230
1.0
 70
     8
 71
     3
 72
     8
 73
     4
 74
     0
 42
0.000000001
 43
0.0000000001
 40
0.8225901165786201
 40
0.8225901165786201
 40
0.8225901165786201
 40
0.8225901165786201
 40
0.8571428571428569
 40
0.8571428571428569
 40
0.8571428571428569
 40
0.8571428571428569
 10
806.2355632392533
 20
2034.978336648928
 30
0.0
 10
806.2268048402195
 20
2035.010977654428
 30
0.0
 10
806.2202198704484
 20
2035.044233012909
 30
0.0
 10
806.2150241954764
 20
2035.077883254254
 30
0.0
1001
REVIT
1002
{
1070
     3
1000
790271
1002
}
  0
LINE
  5
D4
330
87
100
AcDbEntity
  8
M-PIPE
100
AcDbLine
 10
808.6664074431881
 20
2055.499999999994
 30
0.0
 11
808.6664074431881
 21
2042.499999999993
 31
0.0
1001
REVIT
1002
{
1070
     3
1000
790271
1002
}
  0
LINE
  5
D5
330
87
100
AcDbEntity
  8
M-PIPE
100
AcDbLine
 10
806.1664074431881
 20
2055.499999999994
 30
0.0
 11
806.1664074431881
 21
2042.499999999993
 31
0.0
1001
REVIT
1002
{
1070
     3
1000
790271
1002
}
  0
LINE
  5
D6
330
87
100
AcDbEntity
  8
M-PIPE
100
AcDbLine
 10
806.1664074431881
 20
2029.499999999993
 30
0.0
 11
806.1664074431881
 21
2029.534233002523
 31
0.0
1001
REVIT
1002
{
1070
     3
1000
790271
1002
}
  0
LINE
  5
D7
330
87
100
AcDbEntity
  8
M-PIPE
100
AcDbLine
 10
806.1664074431881
 20
2035.047785853862
 30
0.0
 11
806.1664074431881
 21
2035.499999999993
 31
0.0
1001
REVIT
1002
{
1070
     3
1000
790271
1002
}
  0
LINE
  5
D8
330
87
100
AcDbEntity
  8
M-PIPE
100
AcDbLine
 10
806.1664074431881
 20
2035.499999999993
 30
0.0
 11
806.1664074431881
 21
2035.047961378225
 31
0.0
1001
REVIT
1002
{
1070
     3
1000
790271
1002
}
  0
LINE
  5
D9
330
87
100
AcDbEntity
  8
M-PIPE
100
AcDbLine
 10
806.1664074431881
 20
2034.968303727256
 30
0.0
 11
806.1664074431881
 21
2029.499999999993
 31
0.0
1001
REVIT
1002
{
1070
     3
1000
790271
1002
}
  0
LINE
  5
DA
330
87
100
AcDbEntity
  8
M-PIPE
100
AcDbLine
 10
845.1664074431883
 20
2036.500000000057
 30
0.0
 11
835.1664074431884
 21
2036.500000000057
 31
0.0
1001
REVIT
1002
{
1070
     3
1000
790271
1002
}
  0
LINE
  5
DB
330
87
100
AcDbEntity
  8
M-PIPE
100
AcDbLine
 10
835.1664074431884
 20
2036.500000000057
 30
0.0
 11
835.1664074431884
 21
2032.500000000057
 31
0.0
1001
REVIT
1002
{
1070
     3
1000
790271
1002
}
  0
LINE
  5
DC
330
87
100
AcDbEntity
  8
M-PIPE
100
AcDbLine
 10
835.1664074431884
 20
2032.500000000057
 30
0.0
 11
845.1664074431883
 21
2032.500000000057
 31
0.0
1001
REVIT
1002
{
1070
     3
1000
790271
1002
}
  0
LINE
  5
DD
330
87
100
AcDbEntity
  8
M-PIPE
100
AcDbLine
 10
845.1664074431883
 20
2032.500000000057
 30
0.0
 11
845.1664074431883
 21
2036.500000000057
 31
0.0
1001
REVIT
1002
{
1070
     3
1000
790271
1002
}
  0
ARC
  5
DE
330
87
100
AcDbEntity
  8
M-PIPE
100
AcDbCircle
 10
810.6664074431883
 20
2038.499999999993
 30
0.0
 40
2.000000000000183
100
AcDbArc
 50
180.0000000000032
 51
270.0000000000029
1001
REVIT
1002
{
1070
     3
1000
790271
1002
}
  0
LINE
  5
DF
330
87
100
AcDbEntity
  8
M-PIPE
100
AcDbLine
 10
808.6664074431881
 20
2038.499999999993
 30
0.0
 11
808.6664074431881
 21
2042.499999999993
 31
0.0
1001
REVIT
1002
{
1070
     3
1000
790271
1002
}
  0
LINE
  5
E0
330
87
100
AcDbEntity
  8
M-PIPE
100
AcDbLine
 10
806.1664074431881
 20
2035.499999999993
 30
0.0
 11
806.1664074431881
 21
2042.499999999993
 31
0.0
1001
REVIT
1002
{
1070
     3
1000
790271
1002
}
  0
ARC
  5
E1
330
87
100
AcDbEntity
  8
M-PIPE
100
AcDbCircle
 10
808.1664074431882
 20
2035.499999999993
 30
0.0
 40
2.00000000000025
100
AcDbArc
 50
179.9999999999984
 51
269.999999999998
1001
REVIT
1002
{
1070
     3
1000
790271
1002
}
  0
LINE
  5
E2
330
87
100
AcDbEntity
  8
M-PIPE
100
AcDbLine
 10
808.1664074431882
 20
2033.499999999993
 30
0.0
 11
835.1664074431882
 21
2033.499999999993
 31
0.0
1001
REVIT
1002
{
1070
     3
1000
790271
1002
}
  0
LINE
  5
E3
330
87
100
AcDbEntity
  8
M-PIPE
100
AcDbLine
 10
810.6664074431881
 20
2036.499999999993
 30
0.0
 11
835.1664074431882
 21
2036.500000000057
 31
0.0
1001
REVIT
1002
{
1070
     3
1000
790271
1002
}
  0
ARC
  5
E4
330
87
100
AcDbEntity
  8
M-PIPE
100
AcDbCircle
 10
864.6664074431868
 20
2035.499999999993
 30
0.0
 40
2.0
100
AcDbArc
 50
269.9999999999997
 51
0.0
1001
REVIT
1002
{
1070
     3
1000
790271
1002
}
  0
LINE
  5
E5
330
87
100
AcDbEntity
  8
M-PIPE
100
AcDbLine
 10
866.6664074431867
 20
2042.500000000056
 30
0.0
 11
866.6664074431867
 21
2035.499999999993
 31
0.0
1001
REVIT
1002
{
1070
     3
1000
790271
1002
}
  0
LINE
  5
E6
330
87
100
AcDbEntity
  8
M-PIPE
100
AcDbLine
 10
862.8329342547605
 20
2038.499999999993
 30
0.0
 11
862.8329342547605
 21
2042.500000000056
 31
0.0
1001
REVIT
1002
{
1070
     3
1000
790271
1002
}
  0
ARC
  5
E7
330
87
100
AcDbEntity
  8
M-PIPE
100
AcDbCircle
 10
860.8329342547605
 20
2038.499999999993
 30
0.0
 40
2.0
100
AcDbArc
 50
269.9999999999997
 51
0.0
1001
REVIT
1002
{
1070
     3
1000
790271
1002
}
  0
LINE
  5
E8
330
87
100
AcDbEntity
  8
M-PIPE
100
AcDbLine
 10
845.1664074431883
 20
2036.500000000057
 30
0.0
 11
860.8329342547605
 21
2036.499999999993
 31
0.0
1001
REVIT
1002
{
1070
     3
1000
790271
1002
}
  0
LINE
  5
E9
330
87
100
AcDbEntity
  8
M-PIPE
100
AcDbLine
 10
845.1664074431883
 20
2033.499999999993
 30
0.0
 11
864.6664074431868
 21
2033.499999999993
 31
0.0
1001
REVIT
1002
{
1070
     3
1000
790271
1002
}
  0
LINE
  5
EA
330
87
100
AcDbEntity
  8
P-SANR-FIXT
100
AcDbLine
 10
784.8164074431751
 20
2045.299999999993
 30
0.0
 11
794.0164074431749
 21
2045.299999999993
 31
0.0
  0
LINE
  5
EB
330
87
100
AcDbEntity
  8
P-SANR-FIXT
100
AcDbLine
 10
784.8164074431751
 20
2045.299999999993
 30
0.0
 11
784.8164074431751
 21
2037.299999999993
 31
0.0
  0
LINE
  5
EC
330
87
100
AcDbEntity
  8
P-SANR-FIXT
100
AcDbLine
 10
794.0164074431749
 20
2037.299999999993
 30
0.0
 11
794.0164074431749
 21
2045.299999999993
 31
0.0
  0
LINE
  5
ED
330
87
100
AcDbEntity
  8
P-SANR-FIXT
100
AcDbLine
 10
803.4164074431764
 20
2024.999999999996
 30
0.0
 11
803.4164074431764
 21
2037.299999999994
 31
0.0
  0
LINE
  5
EE
330
87
100
AcDbEntity
  8
P-SANR-FIXT
100
AcDbLine
 10
775.4164074431764
 20
2037.299999999994
 30
0.0
 11
775.4164074431764
 21
2024.999999999994
 31
0.0
  0
LINE
  5
EF
330
87
100
AcDbEntity
  8
P-SANR-FIXT
100
AcDbLine
 10
803.1911125774451
 20
2024.999999999993
 30
0.0
 11
775.4164074431749
 21
2024.999999999993
 31
0.0
  0
LINE
  5
F0
330
87
100
AcDbEntity
  8
P-SANR-FIXT
100
AcDbLine
 10
803.416407443175
 20
2037.299999999993
 30
0.0
 11
775.4164074431749
 21
2037.299999999993
 31
0.0
  0
LINE
  5
F1
330
87
100
AcDbEntity
  8
P-SANR-FIXT
100
AcDbLine
 10
803.1817062180307
 20
2024.999999999995
 30
0.0
 11
804.9721988736301
 21
2024.999999999995
 31
0.0
  0
LINE
  5
F2
330
87
100
AcDbEntity
  8
P-SANR-FIXT
100
AcDbLine
 10
772.7664074431888
 20
1981.149999999995
 30
0.0
 11
772.806234327511
 21
1981.189826884317
 31
0.0
  0
LINE
  5
F3
330
87
100
AcDbEntity
  8
P-SANR-FIXT
100
AcDbLine
 10
772.822044218921
 20
1981.205636775728
 30
0.0
 11
776.1852102552388
 21
1984.568802812045
 31
0.0
  0
LINE
  5
F4
330
87
100
AcDbEntity
  8
P-SANR-FIXT
100
AcDbLine
 10
776.0164074431892
 20
2015.599999999996
 30
0.0
 11
772.822044218921
 21
2018.794363224264
 31
0.0
  0
LINE
  5
F5
330
87
100
AcDbEntity
  8
P-SANR-FIXT
100
AcDbLine
 10
772.8062669319356
 20
2018.810140511249
 30
0.0
 11
772.7664074431892
 21
2018.849999999996
 31
0.0
  0
LINE
  5
F6
330
87
100
AcDbEntity
  8
P-SANR-FIXT
100
AcDbLine
 10
901.1664074431893
 20
2018.849999999996
 30
0.0
 11
884.5664074431892
 21
2018.849999999996
 31
0.0
  0
LINE
  5
F7
330
87
100
AcDbEntity
  8
P-SANR-FIXT
100
AcDbLine
 10
884.5664074431894
 20
1981.149999999995
 30
0.0
 11
901.1664074431893
 21
1981.149999999995
 31
0.0
  0
LINE
  5
F8
330
87
100
AcDbEntity
  8
P-SANR-FIXT
100
AcDbLine
 10
882.1664074431893
 20
2016.449999999996
 30
0.0
 11
882.1664074431893
 21
2024.999999999996
 31
0.0
  0
LINE
  5
F9
330
87
100
AcDbEntity
  8
P-SANR-FIXT
100
AcDbLine
 10
860.1664074431893
 20
2024.999999999996
 30
0.0
 11
860.1664074431893
 21
2012.499999999996
 31
0.0
  0
LINE
  5
FA
330
87
100
AcDbEntity
  8
P-SANR-FIXT
100
AcDbLine
 10
772.7664074431888
 20
2018.849999999996
 30
0.0
 11
756.1664074431892
 21
2018.849999999996
 31
0.0
  0
LINE
  5
FB
330
87
100
AcDbEntity
  8
P-SANR-FIXT
100
AcDbLine
 10
756.1664074431892
 20
1981.149999999995
 30
0.0
 11
772.7664074431892
 21
1981.149999999995
 31
0.0
  0
LINE
  5
FC
330
87
100
AcDbEntity
  8
P-SANR-FIXT
100
AcDbLine
 10
776.1852102552388
 20
1984.568802812045
 30
0.0
 11
779.685210255239
 21
1984.568802812045
 31
0.0
  0
LINE
  5
FD
330
87
100
AcDbEntity
  8
P-SANR-FIXT
100
AcDbLine
 10
779.685210255239
 20
1984.568802812045
 30
0.0
 11
781.7164074431891
 21
1986.599999999995
 31
0.0
  0
LINE
  5
FE
330
87
100
AcDbEntity
  8
P-SANR-FIXT
100
AcDbLine
 10
781.7164074431891
 20
1986.599999999995
 30
0.0
 11
797.7664074431892
 21
1986.599999999995
 31
0.0
  0
LINE
  5
FF
330
87
100
AcDbEntity
  8
P-SANR-FIXT
100
AcDbLine
 10
797.7664074431892
 20
1986.599999999995
 30
0.0
 11
798.6664074431898
 21
1987.499999999996
 31
0.0
  0
LINE
  5
100
330
87
100
AcDbEntity
  8
P-SANR-FIXT
100
AcDbLine
 10
798.6664074431898
 20
1987.499999999996
 30
0.0
 11
878.2164074431888
 21
1987.499999999996
 31
0.0
  0
LINE
  5
101
330
87
100
AcDbEntity
  8
P-SANR-FIXT
100
AcDbLine
 10
860.1664074431893
 20
2012.499999999996
 30
0.0
 11
826.6664074431893
 21
2012.499999999996
 31
0.0
  0
LINE
  5
102
330
87
100
AcDbEntity
  8
P-SANR-FIXT
100
AcDbLine
 10
878.2164074431888
 20
1987.499999999996
 30
0.0
 11
884.5107706674575
 21
1981.205636775728
 31
0.0
  0
LINE
  5
103
330
87
100
AcDbEntity
  8
P-SANR-FIXT
100
AcDbLine
 10
884.5265806548791
 20
1981.189826788306
 30
0.0
 11
884.5664074431894
 21
1981.149999999995
 31
0.0
  0
LINE
  5
104
330
87
100
AcDbEntity
  8
P-SANR-FIXT
100
AcDbLine
 10
884.5664074431892
 20
2018.849999999996
 30
0.0
 11
884.5265200733045
 21
2018.810112630112
 31
0.0
  0
LINE
  5
105
330
87
100
AcDbEntity
  8
P-SANR-FIXT
100
AcDbLine
 10
884.5107706674573
 20
2018.794363224264
 30
0.0
 11
882.1664074431893
 21
2016.449999999996
 31
0.0
  0
LINE
  5
106
330
87
100
AcDbEntity
  8
P-SANR-FIXT
100
AcDbLine
 10
826.6664074431893
 20
2012.499999999996
 30
0.0
 11
826.6664074431893
 21
2024.999999999996
 31
0.0
  0
LINE
  5
107
330
87
100
AcDbEntity
  8
P-SANR-FIXT
100
AcDbLine
 10
776.0164074431892
 20
2024.999999999994
 30
0.0
 11
776.0164074431892
 21
2015.599999999996
 31
0.0
  0
SPLINE
  5
108
330
87
100
AcDbEntity
  8
P-SANR-FIXT
100
AcDbSpline
210
0.0
220
0.0
230
1.0
 70
     8
 71
     3
 72
     9
 73
     5
 74
     0
 42
0.000000001
 43
0.0000000001
 40
-1.0
 40
-1.0
 40
-1.0
 40
-1.0
 40
-0.5
 40
0.0
 40
0.0
 40
0.0
 40
0.0
 10
776.1852102552375
 20
2015.284843004745
 30
0.0
 10
776.1302689411997
 20
2015.388848287281
 30
0.0
 10
776.0458386928883
 20
2015.545379735692
 30
0.0
 10
776.0164074431878
 20
2015.598952950781
 30
0.0
 10
776.0164074431878
 20
2015.599999999995
 30
0.0
  0
LINE
  5
109
330
87
100
AcDbEntity
  8
P-SANR-FIXT
100
AcDbLine
 10
772.7664074431879
 20
2018.849999999995
 30
0.0
 11
772.7664074431879
 21
2018.794363224263
 31
0.0
  0
SPLINE
  5
10A
330
87
100
AcDbEntity
  8
P-SANR-FIXT
100
AcDbSpline
210
0.0
220
0.0
230
1.0
 70
     8
 71
     3
 72
    10
 73
     6
 74
     0
 42
0.000000001
 43
0.0000000001
 40
-1.0
 40
-1.0
 40
-1.0
 40
-1.0
 40
-0.6666666666666666
 40
-0.3333333333333333
 40
0.0
 40
0.0
 40
0.0
 40
0.0
 10
772.7664074431875
 20
2018.794363224263
 30
0.0
 10
773.5751138458876
 20
2017.919434729658
 30
0.0
 10
774.6536270658737
 20
2016.14846179386
 30
0.0
 10
774.6739774668522
 20
2013.335300487387
 30
0.0
 10
773.584039460352
 20
2011.542099807255
 30
0.0
 10
772.7664074431875
 20
2010.650500504398
 30
0.0
  0
LINE
  5
10B
330
87
100
AcDbEntity
  8
P-SANR-FIXT
100
AcDbLine
 10
772.7664074431875
 20
2010.650500504398
 30
0.0
 11
772.7664074431875
 21
2008.14386271986
 31
0.0
  0
SPLINE
  5
10C
330
87
100
AcDbEntity
  8
P-SANR-FIXT
100
AcDbSpline
210
0.0
220
0.0
230
1.0
 70
     8
 71
     3
 72
    10
 73
     6
 74
     0
 42
0.000000001
 43
0.0000000001
 40
-1.0
 40
-1.0
 40
-1.0
 40
-1.0
 40
-0.6666666666666666
 40
-0.3333333333333333
 40
0.0
 40
0.0
 40
0.0
 40
0.0
 10
772.7664074431875
 20
2008.14386271986
 30
0.0
 10
773.5751138458876
 20
2006.394005730649
 30
0.0
 10
774.6536270658737
 20
2002.852059859054
 30
0.0
 10
774.6739774668521
 20
1997.225737246108
 30
0.0
 10
773.584039460352
 20
1993.639335885843
 30
0.0
 10
772.7664074431875
 20
1991.856137280129
 30
0.0
  0
LINE
  5
10D
330
87
100
AcDbEntity
  8
P-SANR-FIXT
100
AcDbLine
 10
772.7664074431875
 20
1991.856137280129
 30
0.0
 11
772.7664074431875
 21
1989.349499495592
 31
0.0
  0
SPLINE
  5
10E
330
87
100
AcDbEntity
  8
P-SANR-FIXT
100
AcDbSpline
210
0.0
220
0.0
230
1.0
 70
     8
 71
     3
 72
    10
 73
     6
 74
     0
 42
0.000000001
 43
0.0000000001
 40
-1.0
 40
-1.0
 40
-1.0
 40
-1.0
 40
-0.6666666666666666
 40
-0.3333333333333333
 40
0.0
 40
0.0
 40
0.0
 40
0.0
 10
772.7664074431875
 20
1989.349499495592
 30
0.0
 10
773.5751138458876
 20
1988.474571000987
 30
0.0
 10
774.6536270658737
 20
1986.703598065189
 30
0.0
 10
774.6739774668521
 20
1983.890436758716
 30
0.0
 10
773.584039460352
 20
1982.097236078583
 30
0.0
 10
772.7664074431875
 20
1981.205636775727
 30
0.0
  0
LINE
  5
10F
330
87
100
AcDbEntity
  8
P-SANR-FIXT
100
AcDbLine
 10
772.7664074431875
 20
1981.205636775727
 30
0.0
 11
772.7664074431875
 21
1981.149999999994
 31
0.0
  0
LINE
  5
110
330
87
100
AcDbEntity
  8
P-SANR-FIXT
100
AcDbLine
 10
884.5664074431876
 20
2018.849999999996
 30
0.0
 11
884.5664074431876
 21
2018.794363224263
 31
0.0
  0
LINE
  5
111
330
87
100
AcDbEntity
  8
P-SANR-FIXT
100
AcDbLine
 10
884.566407443188
 20
2018.794363224263
 30
0.0
 11
901.1664074431877
 21
2018.794363224263
 31
0.0
  0
LINE
  5
112
330
87
100
AcDbEntity
  8
P-SANR-FIXT
100
AcDbLine
 10
901.1664074431877
 20
1981.205636775727
 30
0.0
 11
884.566407443188
 21
1981.205636775727
 31
0.0
  0
LINE
  5
113
330
87
100
AcDbEntity
  8
P-SANR-FIXT
100
AcDbLine
 10
884.566407443188
 20
1981.205636775727
 30
0.0
 11
884.566407443188
 21
1981.149999999994
 31
0.0
  0
LINE
  5
114
330
87
100
AcDbEntity
  8
P-SANR-FIXT
100
AcDbLine
 10
884.566407443188
 20
2010.650500504398
 30
0.0
 11
884.566407443188
 21
2008.14386271986
 31
0.0
  0
LINE
  5
115
330
87
100
AcDbEntity
  8
P-SANR-FIXT
100
AcDbLine
 10
884.566407443188
 20
2008.14386271986
 30
0.0
 11
901.1664074431877
 21
2008.14386271986
 31
0.0
  0
LINE
  5
116
330
87
100
AcDbEntity
  8
P-SANR-FIXT
100
AcDbLine
 10
901.1664074431877
 20
2010.650500504398
 30
0.0
 11
884.566407443188
 21
2010.650500504398
 31
0.0
  0
LINE
  5
117
330
87
100
AcDbEntity
  8
P-SANR-FIXT
100
AcDbLine
 10
884.566407443188
 20
1991.856137280129
 30
0.0
 11
884.566407443188
 21
1989.349499495592
 31
0.0
  0
LINE
  5
118
330
87
100
AcDbEntity
  8
P-SANR-FIXT
100
AcDbLine
 10
884.566407443188
 20
1989.349499495592
 30
0.0
 11
901.1664074431877
 21
1989.349499495592
 31
0.0
  0
LINE
  5
119
330
87
100
AcDbEntity
  8
P-SANR-FIXT
100
AcDbLine
 10
901.1664074431877
 20
1991.856137280129
 30
0.0
 11
884.566407443188
 21
1991.856137280129
 31
0.0
  0
LINE
  5
11A
330
87
100
AcDbEntity
  8
P-SANR-FIXT
100
AcDbLine
 10
901.1664074431877
 20
2018.794363224263
 30
0.0
 11
901.1664074431877
 21
2018.849999999996
 31
0.0
  0
LINE
  5
11B
330
87
100
AcDbEntity
  8
P-SANR-FIXT
100
AcDbLine
 10
901.1664074431877
 20
2018.794363224263
 30
0.0
 11
901.1664074431877
 21
2010.650500504398
 31
0.0
  0
LINE
  5
11C
330
87
100
AcDbEntity
  8
P-SANR-FIXT
100
AcDbLine
 10
901.1664074431877
 20
2008.14386271986
 30
0.0
 11
901.1664074431877
 21
2010.650500504398
 31
0.0
  0
LINE
  5
11D
330
87
100
AcDbEntity
  8
P-SANR-FIXT
100
AcDbLine
 10
901.1664074431877
 20
2008.14386271986
 30
0.0
 11
901.1664074431877
 21
1991.856137280129
 31
0.0
  0
LINE
  5
11E
330
87
100
AcDbEntity
  8
P-SANR-FIXT
100
AcDbLine
 10
901.1664074431877
 20
1989.349499495592
 30
0.0
 11
901.1664074431877
 21
1991.856137280129
 31
0.0
  0
LINE
  5
11F
330
87
100
AcDbEntity
  8
P-SANR-FIXT
100
AcDbLine
 10
901.1664074431877
 20
1989.349499495592
 30
0.0
 11
901.1664074431877
 21
1981.205636775727
 31
0.0
  0
LINE
  5
120
330
87
100
AcDbEntity
  8
P-SANR-FIXT
100
AcDbLine
 10
901.1664074431877
 20
1981.149999999994
 30
0.0
 11
901.1664074431877
 21
1981.205636775726
 31
0.0
  0
LINE
  5
121
330
87
100
AcDbEntity
  8
P-SANR-FIXT
100
AcDbLine
 10
756.1664074431878
 20
1981.205636775727
 30
0.0
 11
756.1664074431878
 21
1989.349499495592
 31
0.0
  0
LINE
  5
122
330
87
100
AcDbEntity
  8
P-SANR-FIXT
100
AcDbLine
 10
756.1664074431878
 20
1991.856137280129
 30
0.0
 11
756.1664074431878
 21
2008.14386271986
 31
0.0
  0
LINE
  5
123
330
87
100
AcDbEntity
  8
P-SANR-FIXT
100
AcDbLine
 10
756.1664074431878
 20
2010.650500504398
 30
0.0
 11
756.1664074431878
 21
2018.794363224263
 31
0.0
  0
LINE
  5
124
330
87
100
AcDbEntity
  8
P-SANR-FIXT
100
AcDbLine
 10
756.1664074431878
 20
2018.794363224263
 30
0.0
 11
756.1664074431878
 21
2018.849999999996
 31
0.0
  0
LINE
  5
125
330
87
100
AcDbEntity
  8
P-SANR-FIXT
100
AcDbLine
 10
756.1664074431878
 20
2018.794363224263
 30
0.0
 11
772.7664074431875
 21
2018.794363224263
 31
0.0
  0
LINE
  5
126
330
87
100
AcDbEntity
  8
P-SANR-FIXT
100
AcDbLine
 10
772.7664074431875
 20
1981.205636775727
 30
0.0
 11
756.1664074431878
 21
1981.205636775727
 31
0.0
  0
LINE
  5
127
330
87
100
AcDbEntity
  8
P-SANR-FIXT
100
AcDbLine
 10
756.1664074431878
 20
1981.149999999994
 30
0.0
 11
756.1664074431878
 21
1981.205636775727
 31
0.0
  0
LINE
  5
128
330
87
100
AcDbEntity
  8
P-SANR-FIXT
100
AcDbLine
 10
756.1664074431878
 20
2008.14386271986
 30
0.0
 11
756.1664074431878
 21
2010.650500504398
 31
0.0
  0
LINE
  5
129
330
87
100
AcDbEntity
  8
P-SANR-FIXT
100
AcDbLine
 10
756.1664074431878
 20
2008.14386271986
 30
0.0
 11
772.7664074431875
 21
2008.14386271986
 31
0.0
  0
LINE
  5
12A
330
87
100
AcDbEntity
  8
P-SANR-FIXT
100
AcDbLine
 10
772.7664074431875
 20
2010.650500504398
 30
0.0
 11
756.1664074431878
 21
2010.650500504398
 31
0.0
  0
LINE
  5
12B
330
87
100
AcDbEntity
  8
P-SANR-FIXT
100
AcDbLine
 10
756.1664074431878
 20
1989.349499495592
 30
0.0
 11
756.1664074431878
 21
1991.856137280129
 31
0.0
  0
LINE
  5
12C
330
87
100
AcDbEntity
  8
P-SANR-FIXT
100
AcDbLine
 10
756.1664074431878
 20
1989.349499495592
 30
0.0
 11
772.7664074431875
 21
1989.349499495592
 31
0.0
  0
LINE
  5
12D
330
87
100
AcDbEntity
  8
P-SANR-FIXT
100
AcDbLine
 10
772.7664074431875
 20
1991.856137280129
 30
0.0
 11
756.1664074431878
 21
1991.856137280129
 31
0.0
  0
SPLINE
  5
12E
330
87
100
AcDbEntity
  8
P-SANR-FIXT
100
AcDbSpline
210
0.0
220
0.0
230
1.0
 70
     8
 71
     3
 72
    10
 73
     6
 74
     0
 42
0.000000001
 43
0.0000000001
 40
0.0
 40
0.0
 40
0.0
 40
0.0
 40
0.3333333333333333
 40
0.6666666666666666
 40
1.0
 40
1.0
 40
1.0
 40
1.0
 10
779.6852102552374
 20
2012.379743348069
 30
0.0
 10
779.1000889930353
 20
2012.833068234193
 30
0.0
 10
778.0598600569362
 20
2013.691455046475
 30
0.0
 10
776.8241099114991
 20
2014.726939855366
 30
0.0
 10
776.3475669994226
 20
2015.154025863984
 30
0.0
 10
776.1852102552373
 20
2015.284843004745
 30
0.0
  0
LINE
  5
12F
330
87
100
AcDbEntity
  8
P-SANR-FIXT
100
AcDbLine
 10
776.1852102552373
 20
1984.568802812044
 30
0.0
 11
776.1852102552373
 21
2015.284843004745
 31
0.0
  0
SPLINE
  5
130
330
87
100
AcDbEntity
  8
P-SANR-FIXT
100
AcDbSpline
210
0.0
220
0.0
230
1.0
 70
     8
 71
     3
 72
     9
 73
     5
 74
     0
 42
0.000000001
 43
0.0000000001
 40
-1.0
 40
-1.0
 40
-1.0
 40
-1.0
 40
-0.5
 40
0.0
 40
0.0
 40
0.0
 40
0.0
 10
781.7164074431878
 20
2007.699999999996
 30
0.0
 10
781.4135292001813
 20
2008.524332207639
 30
0.0
 10
780.7611113257562
 20
2010.128621639962
 30
0.0
 10
780.0469082947282
 20
2011.644161106355
 30
0.0
 10
779.6852102552374
 20
2012.379743348069
 30
0.0
  0
LINE
  5
131
330
87
100
AcDbEntity
  8
P-SANR-FIXT
100
AcDbLine
 10
779.6852102552374
 20
1984.568802812044
 30
0.0
 11
779.6852102552374
 21
2012.379743348069
 31
0.0
  0
SPLINE
  5
132
330
87
100
AcDbEntity
  8
P-SANR-FIXT
100
AcDbSpline
210
0.0
220
0.0
230
1.0
 70
     8
 71
     3
 72
    10
 73
     6
 74
     0
 42
0.000000001
 43
0.0000000001
 40
0.0
 40
0.0
 40
0.0
 40
0.0
 40
0.3333333333333333
 40
0.6666666666666666
 40
1.0
 40
1.0
 40
1.0
 40
1.0
 10
797.7664074431879
 20
2008.349999999996
 30
0.0
 10
796.9104404411227
 20
2007.515420905474
 30
0.0
 10
795.1499376775913
 20
2005.721404577667
 30
0.0
 10
792.3071896310639
 20
2002.901140125125
 30
0.0
 10
790.3899369119441
 20
2000.957444719657
 30
0.0
 10
789.4164074431878
 20
1999.999999999995
 30
0.0
  0
SPLINE
  5
133
330
87
100
AcDbEntity
  8
P-SANR-FIXT
100
AcDbSpline
210
0.0
220
0.0
230
1.0
 70
     8
 71
     3
 72
    10
 73
     6
 74
     0
 42
0.000000001
 43
0.0000000001
 40
0.0
 40
0.0
 40
0.0
 40
0.0
 40
0.3333333333333333
 40
0.6666666666666666
 40
1.0
 40
1.0
 40
1.0
 40
1.0
 10
789.4164074431878
 20
1999.999999999995
 30
0.0
 10
788.5266203412096
 20
2000.877578058468
 30
0.0
 10
786.7693575824906
 20
2002.654824233197
 30
0.0
 10
784.1591213375481
 20
2005.24838936714
 30
0.0
 10
782.5186219881644
 20
2006.913361596508
 30
0.0
 10
781.7164074431878
 20
2007.699999999996
 30
0.0
  0
LINE
  5
134
330
87
100
AcDbEntity
  8
P-SANR-FIXT
100
AcDbLine
 10
781.7164074431878
 20
1986.599999999994
 30
0.0
 11
781.7164074431878
 21
2007.699999999996
 31
0.0
  0
SPLINE
  5
135
330
87
100
AcDbEntity
  8
P-SANR-FIXT
100
AcDbSpline
210
0.0
220
0.0
230
1.0
 70
     8
 71
     3
 72
     9
 73
     5
 74
     0
 42
0.000000001
 43
0.0000000001
 40
-1.0
 40
-1.0
 40
-1.0
 40
-1.0
 40
-0.5
 40
0.0
 40
0.0
 40
0.0
 40
0.0
 10
798.6664074431883
 20
2007.890025348498
 30
0.0
 10
798.5181040964496
 20
2007.951486285406
 30
0.0
 10
798.2192449430416
 20
2008.089609664232
 30
0.0
 10
797.9175623226308
 20
2008.258136053072
 30
0.0
 10
797.7664074431879
 20
2008.349999999995
 30
0.0
  0
LINE
  5
136
330
87
100
AcDbEntity
  8
P-SANR-FIXT
100
AcDbLine
 10
797.7664074431879
 20
1986.599999999994
 30
0.0
 11
797.7664074431879
 21
2008.349999999995
 31
0.0
  0
SPLINE
  5
137
330
87
100
AcDbEntity
  8
P-SANR-FIXT
100
AcDbSpline
210
0.0
220
0.0
230
1.0
 70
     8
 71
     3
 72
    45
 73
    41
 74
     0
 42
0.000000001
 43
0.0000000001
 40
-1.0
 40
-1.0
 40
-1.0
 40
-1.0
 40
-0.9
 40
-0.85
 40
-0.825
 40
-0.8
 40
-0.775
 40
-0.75
 40
-0.7
 40
-0.65
 40
-0.6
 40
-0.575
 40
-0.55
 40
-0.525
 40
-0.5125
 40
-0.5
 40
-0.4875
 40
-0.475
 40
-0.45
 40
-0.425
 40
-0.4125
 40
-0.4
 40
-0.3875
 40
-0.375
 40
-0.35
 40
-0.325
 40
-0.3
 40
-0.275
 40
-0.25
 40
-0.225
 40
-0.2125
 40
-0.2
 40
-0.1875
 40
-0.175
 40
-0.15
 40
-0.125
 40
-0.1
 40
-0.075
 40
-0.05
 40
0.0
 40
0.0
 40
0.0
 40
0.0
 10
860.1664074431878
 20
2012.499999999995
 30
0.0
 10
860.1777310233758
 20
2012.499999999995
 30
0.0
 10
860.3361229324509
 20
2012.348009911165
 30
0.0
 10
860.7998895023888
 20
2011.945771314088
 30
0.0
 10
861.1345682381175
 20
2011.659708476404
 30
0.0
 10
861.4090491496448
 20
2011.421376509943
 30
0.0
 10
861.7109757503492
 20
2011.161753417427
 30
0.0
 10
862.1568850068578
 20
2010.788638480756
 30
0.0
 10
862.7703078082765
 20
2010.281025282236
 30
0.0
 10
863.5833806854364
 20
2009.622196189646
 30
0.0
 10
864.3301173423251
 20
2009.051209385248
 30
0.0
 10
864.9571253104792
 20
2008.588222250434
 30
0.0
 10
865.4451812124788
 20
2008.237223980032
 30
0.0
 10
865.8676416223707
 20
2007.949345054341
 30
0.0
 10
866.2158083907193
 20
2007.724886888016
 30
0.0
 10
866.4823327729248
 20
2007.561710905537
 30
0.0
 10
866.7539355845114
 20
2007.399786672712
 30
0.0
 10
867.1223145818055
 20
2007.182078715041
 30
0.0
 10
867.595142897851
 20
2006.915390133841
 30
0.0
 10
868.0849743105101
 20
2006.67226901332
 30
0.0
 10
868.48788612944
 20
2006.501961284734
 30
0.0
 10
868.794800472609
 20
2006.390780955401
 30
0.0
 10
869.1102613290205
 20
2006.291655524484
 30
0.0
 10
869.5441835803666
 20
2006.168690051794
 30
0.0
 10
870.1030120749839
 20
2006.041757561767
 30
0.0
 10
870.7841751491045
 20
2005.947901283645
 30
0.0
 10
871.4497024757541
 20
2005.928157285494
 30
0.0
 10
872.1086317141255
 20
2006.002711600059
 30
0.0
 10
872.774529083203
 20
2006.154365487125
 30
0.0
 10
873.3172607723947
 20
2006.325021462341
 30
0.0
 10
873.7384338841801
 20
2006.47796207553
 30
0.0
 10
874.0452759611644
 20
2006.596300095166
 30
0.0
 10
874.343820952777
 20
2006.72316417563
 30
0.0
 10
874.7344585942945
 20
2006.910710133689
 30
0.0
 10
875.2081271966881
 20
2007.16909624368
 30
0.0
 10
875.7558345402621
 20
2007.502120495599
 30
0.0
 10
876.285669682004
 20
2007.837638338283
 30
0.0
 10
876.798033898846
 20
2008.17256934669
 30
0.0
 10
877.4551884248891
 20
2008.631862421358
 30
0.0
 10
877.9195671099861
 20
2008.982879920476
 30
0.0
 10
878.2164074431872
 20
2009.216968048111
 30
0.0
  0
SPLINE
  5
138
330
87
100
AcDbEntity
  8
P-SANR-FIXT
100
AcDbSpline
210
0.0
220
0.0
230
1.0
 70
     8
 71
     3
 72
    44
 73
    40
 74
     0
 42
0.000000001
 43
0.0000000001
 40
0.0
 40
0.0
 40
0.0
 40
0.0
 40
0.0555555555555556
 40
0.0833333333333333
 40
0.1111111111111111
 40
0.1388888888888889
 40
0.1666666666666666
 40
0.2222222222222222
 40
0.2777777777777778
 40
0.3055555555555556
 40
0.3194444444444444
 40
0.3333333333333333
 40
0.3472222222222222
 40
0.3611111111111111
 40
0.3888888888888888
 40
0.4166666666666666
 40
0.4305555555555556
 40
0.4444444444444445
 40
0.4583333333333333
 40
0.4722222222222223
 40
0.5
 40
0.5277777777777778
 40
0.5416666666666668
 40
0.5555555555555556
 40
0.5694444444444445
 40
0.5833333333333334
 40
0.6111111111111112
 40
0.6388888888888889
 40
0.6527777777777777
 40
0.6666666666666666
 40
0.6805555555555556
 40
0.6944444444444445
 40
0.7222222222222223
 40
0.7777777777777778
 40
0.8333333333333332
 40
0.861111111111111
 40
0.8888888888888889
 40
0.9166666666666666
 40
0.9326766970914274
 40
0.9326766970914274
 40
0.9326766970914274
 40
0.9326766970914274
 10
826.6664074431878
 20
2012.499999999995
 30
0.0
 10
826.6419570874422
 20
2012.499999999995
 30
0.0
 10
826.5298382941976
 20
2012.408221840809
 30
0.0
 10
826.2274671903249
 20
2012.130884436027
 30
0.0
 10
825.9282348932362
 20
2011.853417678075
 30
0.0
 10
825.5406057446066
 20
2011.512507479338
 30
0.0
 10
824.9076015613807
 20
2010.981422120681
 30
0.0
 10
823.9744257271583
 20
2010.209864456198
 30
0.0
 10
822.9100726469892
 20
2009.339432723271
 30
0.0
 10
822.0728011549962
 20
2008.714438866926
 30
0.0
 10
821.5733023863137
 20
2008.362958923641
 30
0.0
 10
821.1884904651357
 20
2008.107293664017
 30
0.0
 10
820.7921202584826
 20
2007.84937807745
 30
0.0
 10
820.2465017744581
 20
2007.493940694951
 30
0.0
 10
819.5352720910754
 20
2007.052426721532
 30
0.0
 10
818.7902006829023
 20
2006.663162478812
 30
0.0
 10
818.1755343763795
 20
2006.41485565815
 30
0.0
 10
817.7091198273558
 20
2006.271306590324
 30
0.0
 10
817.2250901049636
 20
2006.166677561624
 30
0.0
 10
816.5482964085923
 20
2006.063863733927
 30
0.0
 10
815.668568094569
 20
2006.01264038001
 30
0.0
 10
814.7887517427685
 20
2006.063153967842
 30
0.0
 10
814.1117728213991
 20
2006.165570032136
 30
0.0
 10
813.6275650817575
 20
2006.270030844937
 30
0.0
 10
813.1608602214338
 20
2006.41356432507
 30
0.0
 10
812.5456176389947
 20
2006.661987581489
 30
0.0
 10
811.7996243463277
 20
2007.051581391962
 30
0.0
 10
811.0874830124719
 20
2007.493449651051
 30
0.0
 10
810.54131475841
 20
2007.849074151854
 30
0.0
 10
810.1446712035238
 20
2008.107052426265
 30
0.0
 10
809.7597436145141
 20
2008.362703675935
 30
0.0
 10
809.2602276315371
 20
2008.714116492287
 30
0.0
 10
808.4232239505098
 20
2009.338893613286
 30
0.0
 10
807.3593804795404
 20
2010.209113026674
 30
0.0
 10
806.4259099146537
 20
2010.980840912539
 30
0.0
 10
805.7926988845064
 20
2011.512073227857
 30
0.0
 10
805.4049347347303
 20
2011.853105635654
 30
0.0
 10
805.1478780201057
 20
2012.091490544106
 30
0.0
 10
805.0206023249105
 20
2012.208573399328
 30
0.0
 10
804.9782056575324
 20
2012.247279069857
 30
0.0
  0
SPLINE
  5
139
330
87
100
AcDbEntity
  8
P-SANR-FIXT
100
AcDbSpline
210
0.0
220
0.0
230
1.0
 70
     8
 71
     3
 72
    16
 73
    12
 74
     0
 42
0.000000001
 43
0.0000000001
 40
0.2106817827184083
 40
0.2106817827184083
 40
0.2106817827184083
 40
0.2106817827184083
 40
0.25
 40
0.375
 40
0.5
 40
0.5625
 40
0.625
 40
0.6875
 40
0.75
 40
0.875
 40
1.0
 40
1.0
 40
1.0
 40
1.0
 10
802.578499464877
 20
2012.246896854368
 30
0.0
 10
802.5506712756129
 20
2012.216019602834
 30
0.0
 10
802.4233855714166
 20
2012.075633900332
 30
0.0
 10
802.1137172722214
 20
2011.746830441001
 30
0.0
 10
801.6766347089252
 20
2011.272429720847
 30
0.0
 10
801.283062005903
 20
2010.835639698814
 30
0.0
 10
800.9556393404761
 20
2010.481027997355
 30
0.0
 10
800.607889010395
 20
2010.101368659389
 30
0.0
 10
800.1287113621788
 20
2009.563446864
 30
0.0
 10
799.499087868783
 20
2008.837127504793
 30
0.0
 10
798.9507444770545
 20
2008.211394950887
 30
0.0
 10
798.6664074431883
 20
2007.890025348498
 30
0.0
  0
LINE
  5
13A
330
87
100
AcDbEntity
  8
P-SANR-FIXT
100
AcDbLine
 10
798.6664074431883
 20
1987.499999999995
 30
0.0
 11
798.6664074431883
 21
2007.890025348498
 31
0.0
  0
SPLINE
  5
13B
330
87
100
AcDbEntity
  8
P-SANR-FIXT
100
AcDbSpline
210
0.0
220
0.0
230
1.0
 70
     8
 71
     3
 72
    10
 73
     6
 74
     0
 42
0.000000001
 43
0.0000000001
 40
-1.0
 40
-1.0
 40
-1.0
 40
-1.0
 40
-0.6666666666666666
 40
-0.3333333333333333
 40
0.0
 40
0.0
 40
0.0
 40
0.0
 10
884.566407443188
 20
1981.205636775727
 30
0.0
 10
883.7577010404874
 20
1982.080565270332
 30
0.0
 10
882.6791878205012
 20
1983.85153820613
 30
0.0
 10
882.6588374195228
 20
1986.664699512603
 30
0.0
 10
883.7487754260232
 20
1988.457900192736
 30
0.0
 10
884.566407443188
 20
1989.349499495592
 30
0.0
  0
SPLINE
  5
13C
330
87
100
AcDbEntity
  8
P-SANR-FIXT
100
AcDbSpline
210
0.0
220
0.0
230
1.0
 70
     8
 71
     3
 72
    10
 73
     6
 74
     0
 42
0.000000001
 43
0.0000000001
 40
-1.0
 40
-1.0
 40
-1.0
 40
-1.0
 40
-0.6666666666666666
 40
-0.3333333333333333
 40
0.0
 40
0.0
 40
0.0
 40
0.0
 10
884.566407443188
 20
1991.856137280129
 30
0.0
 10
883.7577010404878
 20
1993.60599426934
 30
0.0
 10
882.6791878205018
 20
1997.147940140935
 30
0.0
 10
882.6588374195232
 20
2002.774262753882
 30
0.0
 10
883.7487754260234
 20
2006.360664114147
 30
0.0
 10
884.566407443188
 20
2008.14386271986
 30
0.0
  0
SPLINE
  5
13D
330
87
100
AcDbEntity
  8
P-SANR-FIXT
100
AcDbSpline
210
0.0
220
0.0
230
1.0
 70
     8
 71
     3
 72
    10
 73
     6
 74
     0
 42
0.000000001
 43
0.0000000001
 40
-1.0
 40
-1.0
 40
-1.0
 40
-1.0
 40
-0.6666666666666666
 40
-0.3333333333333333
 40
0.0
 40
0.0
 40
0.0
 40
0.0
 10
884.566407443188
 20
2010.650500504398
 30
0.0
 10
883.7577010404878
 20
2011.525428999004
 30
0.0
 10
882.6791878205019
 20
2013.296401934801
 30
0.0
 10
882.6588374195235
 20
2016.109563241274
 30
0.0
 10
883.7487754260237
 20
2017.902763921407
 30
0.0
 10
884.566407443188
 20
2018.794363224263
 30
0.0
  0
SPLINE
  5
13E
330
87
100
AcDbEntity
  8
P-SANR-FIXT
100
AcDbSpline
210
0.0
220
0.0
230
1.0
 70
     8
 71
     3
 72
    22
 73
    18
 74
     0
 42
0.000000001
 43
0.0000000001
 40
0.0
 40
0.0
 40
0.0
 40
0.0
 40
0.125
 40
0.25
 40
0.3125
 40
0.375
 40
0.4375
 40
0.5
 40
0.53125
 40
0.5625
 40
0.625
 40
0.6875
 40
0.75
 40
0.78125
 40
0.8125
 40
0.875
 40
1.0
 40
1.0
 40
1.0
 40
1.0
 10
878.2164074431872
 20
2009.216968048111
 30
0.0
 10
878.4195540139737
 20
2009.659268298343
 30
0.0
 10
878.8388376327057
 20
2010.52380278854
 30
0.0
 10
879.380583887255
 20
2011.54567646704
 30
0.0
 10
879.8114138431763
 20
2012.343431684732
 30
0.0
 10
880.129886219375
 20
2012.933164534658
 30
0.0
 10
880.4416721581418
 20
2013.498375901034
 30
0.0
 10
880.6933755617734
 20
2013.934135891722
 30
0.0
 10
880.8877766328762
 20
2014.264998305792
 30
0.0
 10
881.0763752100607
 20
2014.593832090405
 30
0.0
 10
881.2997211721718
 20
2014.987431852212
 30
0.0
 10
881.5423898532509
 20
2015.411879127144
 30
0.0
 10
881.718785826972
 20
2015.703217131261
 30
0.0
 10
881.8415793230427
 20
2015.893955166689
 30
0.0
 10
881.951247216255
 20
2016.065021113167
 30
0.0
 10
882.1061147401481
 20
2016.307261363499
 30
0.0
 10
882.1664074431877
 20
2016.418676922842
 30
0.0
 10
882.1664074431877
 20
2016.449999999995
 30
0.0
  0
LINE
  5
13F
330
87
100
AcDbEntity
  8
P-SANR-FIXT
100
AcDbLine
 10
878.2164074431872
 20
1987.499999999995
 30
0.0
 11
878.2164074431872
 21
2009.216968048111
 31
0.0
  0
LINE
  5
140
330
87
100
AcDbEntity
  8
P-SANR-FIXT
100
AcDbLine
 10
882.1664074431877
 20
2024.999999999995
 30
0.0
 11
860.1664074431878
 21
2024.999999999995
 31
0.0
  0
LINE
  5
141
330
87
100
AcDbEntity
  8
P-SANR-FIXT
100
AcDbLine
 10
826.6664074431878
 20
2024.999999999995
 30
0.0
 11
804.9551050613652
 21
2024.999999999995
 31
0.0
  0
ENDBLK
  5
143
330
87
100
AcDbEntity
  8
0
100
AcDbBlockEnd
  0
BLOCK
  5
231
330
145
100
AcDbEntity
  8
0
100
AcDbBlockBegin
  2
Automatic flow rate regulator valve_Caleffi_121 DN15 - 1_2__-V1-Est - Idraulica
 70
     0
 10
0.0
 20
0.0
 30
0.0
  3
Automatic flow rate regulator valve_Caleffi_121 DN15 - 1_2__-V1-Est - Idraulica
  1

  0
LINE
  5
146
330
145
100
AcDbEntity
  8
M-PIPE
100
AcDbLine
 10
810.5903105404005
 20
1793.619212785582
 30
0.0
 11
837.1664074431889
 21
1793.619212785582
 31
0.0
1001
REVIT
1002
{
1070
     3
1000
790271
1002
}
  0
LINE
  5
147
330
145
100
AcDbEntity
  8
M-PIPE
100
AcDbLine
 10
843.1664074431903
 20
1793.619212785582
 30
0.0
 11
862.2650423762424
 21
1793.619212785582
 31
0.0
1001
REVIT
1002
{
1070
     3
1000
790271
1002
}
  0
LINE
  5
148
330
145
100
AcDbEntity
  8
M-PIPE
100
AcDbLine
 10
862.2650423762424
 20
1818.872544674523
 30
0.0
 11
843.1664074431903
 21
1818.872544674523
 31
0.0
1001
REVIT
1002
{
1070
     3
1000
790271
1002
}
  0
LINE
  5
149
330
145
100
AcDbEntity
  8
M-PIPE
100
AcDbLine
 10
837.1664074431889
 20
1818.872544674523
 30
0.0
 11
810.5903105404001
 21
1818.872544674523
 31
0.0
1001
REVIT
1002
{
1070
     3
1000
790271
1002
}
  0
LINE
  5
14A
330
145
100
AcDbEntity
  8
M-PIPE
100
AcDbLine
 10
837.1664074431896
 20
1821.745878730053
 30
0.0
 11
837.1664074431896
 21
1818.872544674523
 31
0.0
1001
REVIT
1002
{
1070
     3
1000
790271
1002
}
  0
LINE
  5
14B
330
145
100
AcDbEntity
  8
M-PIPE
100
AcDbLine
 10
837.1664074431896
 20
1793.619212785582
 30
0.0
 11
837.1664074431896
 21
1790.745878730053
 31
0.0
1001
REVIT
1002
{
1070
     3
1000
790271
1002
}
  0
LINE
  5
14C
330
145
100
AcDbEntity
  8
M-PIPE
100
AcDbLine
 10
843.1664074431898
 20
1790.745878730053
 30
0.0
 11
843.1664074431898
 21
1793.619212785582
 31
0.0
1001
REVIT
1002
{
1070
     3
1000
790271
1002
}
  0
LINE
  5
14D
330
145
100
AcDbEntity
  8
M-PIPE
100
AcDbLine
 10
843.1664074431896
 20
1818.872544674523
 30
0.0
 11
843.1664074431896
 21
1821.745878730053
 31
0.0
1001
REVIT
1002
{
1070
     3
1000
790271
1002
}
  0
LINE
  5
14E
330
145
100
AcDbEntity
  8
M-PIPE
100
AcDbLine
 10
862.2650423762408
 20
1818.872544674522
 30
0.0
 11
862.265042376241
 21
1793.619212785582
 31
0.0
1001
REVIT
1002
{
1070
     3
1000
790271
1002
}
  0
LINE
  5
14F
330
145
100
AcDbEntity
  8
M-PIPE
100
AcDbLine
 10
810.5903105403989
 20
1793.619212785581
 30
0.0
 11
810.5903105403989
 21
1818.872544674522
 31
0.0
1001
REVIT
1002
{
1070
     3
1000
790271
1002
}
  0
SPLINE
  5
150
330
145
100
AcDbEntity
  8
M-PIPE
100
AcDbSpline
210
0.0
220
0.0
230
1.0
 70
     8
 71
     3
 72
    23
 73
    19
 74
     0
 42
0.000000001
 43
0.0000000001
 40
0.0
 40
0.0
 40
0.0
 40
0.0
 40
0.0555555555555556
 40
0.1111111111111111
 40
0.1666666666666666
 40
0.2222222222222222
 40
0.2777777777777778
 40
0.3333333333333333
 40
0.3888888888888888
 40
0.4444444444444445
 40
0.5138888888888889
 40
0.5486111111111111
 40
0.5833333333333333
 40
0.6527777777777777
 40
0.7222222222222223
 40
0.7916666666666668
 40
0.861111111111111
 40
1.0
 40
1.0
 40
1.0
 40
1.0
 10
843.1664074431882
 20
1818.872544674522
 30
0.0
 10
843.1643658905851
 20
1818.872544674521
 30
0.0
 10
843.1315549042817
 20
1818.864618005028
 30
0.0
 10
843.0003239514752
 20
1818.833521988138
 30
0.0
 10
842.7745710154939
 20
1818.784780869036
 30
0.0
 10
842.4757161971225
 20
1818.72483829927
 30
0.0
 10
842.103908908745
 20
1818.661327824544
 30
0.0
 10
841.6770800564334
 20
1818.600690629191
 30
0.0
 10
841.199036782871
 20
1818.551642588274
 30
0.0
 10
840.6494617510643
 20
1818.515511953497
 30
0.0
 10
840.1425379933916
 20
1818.508107403406
 30
0.0
 10
839.7050792466307
 20
1818.518157062893
 30
0.0
 10
839.2841769137932
 20
1818.539779643905
 30
0.0
 10
838.7629616010412
 20
1818.586334980327
 30
0.0
 10
838.2230947320529
 20
1818.661093823621
 30
0.0
 10
837.7697961627442
 20
1818.740816562477
 30
0.0
 10
837.3101612928078
 20
1818.836690028754
 30
0.0
 10
837.1716282870268
 20
1818.87254467452
 30
0.0
 10
837.166407443188
 20
1818.872544674522
 30
0.0
1001
REVIT
1002
{
1070
     3
1000
790271
1002
}
  0
SPLINE
  5
151
330
145
100
AcDbEntity
  8
M-PIPE
100
AcDbSpline
210
0.0
220
0.0
230
1.0
 70
     8
 71
     3
 72
    23
 73
    19
 74
     0
 42
0.000000001
 43
0.0000000001
 40
0.0
 40
0.0
 40
0.0
 40
0.0
 40
0.0555555555555556
 40
0.1111111111111111
 40
0.1666666666666666
 40
0.2222222222222222
 40
0.2777777777777778
 40
0.3333333333333333
 40
0.3888888888888888
 40
0.4444444444444445
 40
0.5138888888888889
 40
0.5486111111111111
 40
0.5833333333333333
 40
0.6527777777777777
 40
0.7222222222222223
 40
0.7916666666666668
 40
0.861111111111111
 40
1.0
 40
1.0
 40
1.0
 40
1.0
 10
837.1664074431883
 20
1793.619212785582
 30
0.0
 10
837.1684957807238
 20
1793.619212785582
 30
0.0
 10
837.2013294727839
 20
1793.627139728954
 30
0.0
 10
837.3324924228324
 20
1793.658229796756
 30
0.0
 10
837.5577437018657
 20
1793.70690390549
 30
0.0
 10
837.8560958793897
 20
1793.766735105592
 30
0.0
 10
838.228349964543
 20
1793.830305511621
 30
0.0
 10
838.6556409544363
 20
1793.891060771257
 30
0.0
 10
839.1333122531429
 20
1793.940093351884
 30
0.0
 10
839.6824978769958
 20
1793.976199924126
 30
0.0
 10
840.1894278401066
 20
1793.9836537751
 30
0.0
 10
840.6269326077133
 20
1793.973634545106
 30
0.0
 10
841.0480103399621
 20
1793.952013392534
 30
0.0
 10
841.5698056203996
 20
1793.905409433249
 30
0.0
 10
842.1091614913537
 20
1793.830793939871
 30
0.0
 10
842.5619803027222
 20
1793.751119341251
 30
0.0
 10
843.0228081572847
 20
1793.65503198516
 30
0.0
 10
843.1613035616811
 20
1793.619212785584
 30
0.0
 10
843.1664074431882
 20
1793.619212785582
 30
0.0
1001
REVIT
1002
{
1070
     3
1000
790271
1002
}
  0
LINE
  5
152
330
145
100
AcDbEntity
  8
M-PIPE
100
AcDbLine
 10
843.1664074431882
 20
1790.745878730052
 30
0.0
 11
837.1664074431883
 21
1790.745878730052
 31
0.0
1001
REVIT
1002
{
1070
     3
1000
790271
1002
}
  0
LINE
  5
153
330
145
100
AcDbEntity
  8
M-PIPE
100
AcDbLine
 10
837.166407443188
 20
1821.745878730052
 30
0.0
 11
843.166407443188
 21
1821.745878730052
 31
0.0
1001
REVIT
1002
{
1070
     3
1000
790271
1002
}
  0
LWPOLYLINE
  5
154
330
145
100
AcDbEntity
  8
M-PIPE
100
AcDbPolyline
 90
       80
 70
   128
 43
0.0
 10
874.1664074431897
 20
1806.245878730053
 10
874.1640077631727
 20
1806.365846732613
 10
874.1568125620977
 20
1806.48562281196
 10
874.1448333507513
 20
1806.605015351919
 10
874.1280892933167
 20
1806.723833349895
 10
874.1066071767136
 20
1806.841886722438
 10
874.0804213677458
 20
1806.958986609334
 10
874.049573758122
 20
1807.074945675745
 10
874.0141136974372
 20
1807.1895784119
 10
873.9740979142235
 20
1807.302701429877
 10
873.9295904251983
 20
1807.414133756978
 10
873.8806624328496
 20
1807.52369712525
 10
873.8273922115277
 20
1807.631216256677
 10
873.7698649822226
 20
1807.736519143584
 10
873.70817277623
 20
1807.839437323815
 10
873.6424142879188
 20
1807.939806150237
 10
873.5726947168428
 20
1808.037465054139
 10
873.4991255994426
 20
1808.132257802108
 10
873.4218246306124
 20
1808.224032745967
 10
873.3409154754125
 20
1808.312643065384
 10
873.2565275712314
 20
1808.397947002751
 10
873.1687959207137
 20
1808.479808089965
 10
873.0778608757857
 20
1808.558095366749
 10
872.9838679131201
 20
1808.632683590161
 10
872.8869674014072
 20
1808.703453434955
 10
872.7873143607942
 20
1808.770291684476
 10
872.6850682148882
 20
1808.833091411782
 10
872.580392535711
 20
1808.891752150707
 10
872.4734547820201
 20
1808.946180056581
 10
872.3644260314086
 20
1808.996288056367
 10
872.25348070662
 20
1809.041995987954
 10
872.1407962965063
 20
1809.083230728401
 10
872.0265530720858
 20
1809.11992631092
 10
871.9109337981471
 20
1809.152024030407
 10
871.7941234408641
 20
1809.179472537358
 10
871.6763088718906
 20
1809.202227920018
 10
871.5576785694043
 20
1809.220253774627
 10
871.4384223165829
 20
1809.233521263665
 10
871.3187308979907
 20
1809.242009161979
 10
871.1987957943646
 20
1809.245703890742
 10
871.0788088762861
 20
1809.244599539177
 10
870.9589620972277
 20
1809.238697874009
 10
870.8394471864702
 20
1809.228008336646
 10
870.7204553423759
 20
1809.212548028066
 10
870.6021769265115
 20
1809.192341681465
 10
870.4848011591108
 20
1809.167421622687
 10
870.3685158163631
 20
1809.13782771851
 10
870.2535069300104
 20
1809.103607312867
 10
870.1399584897373
 20
1809.064815151108
 10
870.0280521488256
 20
1809.021513292417
 10
869.9179669335487
 20
1808.973771010529
 10
869.8098789567673
 20
1808.921664682912
 10
869.7039611361871
 20
1808.865277668575
 10
869.6003829177259
 20
1808.804700174711
 10
869.4993100044383
 20
1808.740029112388
 10
869.400904091424
 20
1808.671367941511
 10
869.3053226071519
 20
1808.598826505306
 10
869.2127184616074
 20
1808.522520854595
 10
869.1232398016687
 20
1808.442573062143
 10
869.0370297741038
 20
1808.359111027363
 10
868.9542262965662
 20
1808.272268271706
 10
868.8749618369568
 20
1808.182183725055
 10
868.7993632015016
 20
1808.08900150347
 10
868.7275513318903
 20
1807.992870678624
 10
868.6596411117958
 20
1807.893945039334
 10
868.5957411830832
 20
1807.792382845517
 10
868.5359537720072
 20
1807.688346575018
 10
868.4803745256717
 20
1807.582002663678
 10
868.4290923590141
 20
1807.473521239068
 10
868.3821893125623
 20
1807.363075848328
 10
868.3397404211843
 20
1807.25084318052
 10
868.3018135940512
 20
1807.137002783973
 10
868.2684695059963
 20
1807.021736779036
 10
868.239761500447
 20
1806.905229566728
 10
868.2157355040882
 20
1806.787667533735
 10
868.1964299533888
 20
1806.669238754232
 10
868.1818757331118
 20
1806.550132689002
 10
868.1720961269048
 20
1806.430539882342
 10
868.1671067800515
 20
1806.310651657231
 10
868.1664074431902
 20
1806.245878730053
1001
REVIT
1002
{
1070
     3
1000
790271
1002
}
  0
LWPOLYLINE
  5
155
330
145
100
AcDbEntity
  8
M-PIPE
100
AcDbPolyline
 90
       80
 70
   128
 43
0.0
 10
868.1664074431902
 20
1806.245878730053
 10
868.1688071232073
 20
1806.125910727492
 10
868.1760023242825
 20
1806.006134648145
 10
868.1879815356285
 20
1805.886742108186
 10
868.2047255930633
 20
1805.76792411021
 10
868.2262077096666
 20
1805.649870737667
 10
868.252393518634
 20
1805.532770850771
 10
868.2832411282578
 20
1805.41681178436
 10
868.318701188943
 20
1805.302179048204
 10
868.3587169721564
 20
1805.189056030227
 10
868.4032244611815
 20
1805.077623703127
 10
868.4521524535302
 20
1804.968060334854
 10
868.5054226748521
 20
1804.860541203428
 10
868.5629499041572
 20
1804.755238316521
 10
868.6246421101499
 20
1804.65232013629
 10
868.6904005984612
 20
1804.551951309867
 10
868.7601201695374
 20
1804.454292405965
 10
868.8336892869374
 20
1804.359499657997
 10
868.9109902557675
 20
1804.267724714138
 10
868.9918994109675
 20
1804.179114394721
 10
869.0762873151488
 20
1804.093810457354
 10
869.1640189656661
 20
1804.01194937014
 10
869.2549540105945
 20
1803.933662093356
 10
869.3489469732597
 20
1803.859073869944
 10
869.4458474849726
 20
1803.78830402515
 10
869.5455005255857
 20
1803.721465775629
 10
869.6477466714918
 20
1803.658666048322
 10
869.7524223506688
 20
1803.600005309398
 10
869.8593601043599
 20
1803.545577403523
 10
869.9683888549712
 20
1803.495469403737
 10
870.07933417976
 20
1803.449761472151
 10
870.1920185898737
 20
1803.408526731704
 10
870.3062618142944
 20
1803.371831149185
 10
870.4218810882331
 20
1803.339733429698
 10
870.5386914455157
 20
1803.312284922746
 10
870.6565060144894
 20
1803.289529540087
 10
870.7751363169755
 20
1803.271503685478
 10
870.8943925697973
 20
1803.258236196439
 10
871.0140839883893
 20
1803.249748298126
 10
871.1340190920152
 20
1803.246053569363
 10
871.2540060100939
 20
1803.247157920928
 10
871.3738527891521
 20
1803.253059586095
 10
871.4933676999097
 20
1803.263749123458
 10
871.612359544004
 20
1803.279209432039
 10
871.7306379598683
 20
1803.29941577864
 10
871.848013727269
 20
1803.324335837418
 10
871.9642990700167
 20
1803.353929741595
 10
872.0793079563694
 20
1803.388150147238
 10
872.1928563966425
 20
1803.426942308997
 10
872.3047627375542
 20
1803.470244167688
 10
872.4148479528313
 20
1803.517986449575
 10
872.5229359296127
 20
1803.570092777192
 10
872.6288537501929
 20
1803.62647979153
 10
872.7324319686539
 20
1803.687057285394
 10
872.8335048819415
 20
1803.751728347717
 10
872.9319107949558
 20
1803.820389518594
 10
873.0274922792279
 20
1803.892930954799
 10
873.1200964247724
 20
1803.96923660551
 10
873.2095750847113
 20
1804.049184397962
 10
873.2957851122762
 20
1804.132646432742
 10
873.3785885898136
 20
1804.219489188399
 10
873.4578530494232
 20
1804.30957373505
 10
873.5334516848784
 20
1804.402755956635
 10
873.6052635544895
 20
1804.49888678148
 10
873.673173774584
 20
1804.597812420771
 10
873.7370737032966
 20
1804.699374614588
 10
873.7968611143726
 20
1804.803410885087
 10
873.8524403607081
 20
1804.909754796427
 10
873.9037225273657
 20
1805.018236221036
 10
873.9506255738177
 20
1805.128681611777
 10
873.9930744651958
 20
1805.240914279585
 10
874.0310012923286
 20
1805.354754676132
 10
874.0643453803837
 20
1805.470020681069
 10
874.093053385933
 20
1805.586527893377
 10
874.1170793822917
 20
1805.70408992637
 10
874.1363849329911
 20
1805.822518705873
 10
874.150939153268
 20
1805.941624771103
 10
874.1607187594752
 20
1806.061217577763
 10
874.1657081063285
 20
1806.181105802874
 10
874.1664074431897
 20
1806.245878730053
1001
REVIT
1002
{
1070
     3
1000
790271
1002
}
  0
LINE
  5
156
330
145
100
AcDbEntity
  8
M-PIPE
100
AcDbLine
 10
869.1664074431882
 20
1816.745878730053
 30
0.0
 11
866.6664074431897
 21
1816.745878730053
 31
0.0
1001
REVIT
1002
{
1070
     3
1000
790271
1002
}
  0
LINE
  5
157
330
145
100
AcDbEntity
  8
M-PIPE
100
AcDbLine
 10
866.6664074431897
 20
1795.745878730053
 30
0.0
 11
869.1664074431882
 21
1795.745878730053
 31
0.0
1001
REVIT
1002
{
1070
     3
1000
790271
1002
}
  0
LINE
  5
158
330
145
100
AcDbEntity
  8
M-PIPE
100
AcDbLine
 10
866.6664074431881
 20
1819.245878730053
 30
0.0
 11
862.8329342547619
 21
1819.245878730053
 31
0.0
1001
REVIT
1002
{
1070
     3
1000
790271
1002
}
  0
LINE
  5
159
330
145
100
AcDbEntity
  8
M-PIPE
100
AcDbLine
 10
862.8329342547607
 20
1793.245878730053
 30
0.0
 11
866.6664074431897
 21
1793.245878730053
 31
0.0
1001
REVIT
1002
{
1070
     3
1000
790271
1002
}
  0
LINE
  5
15A
330
145
100
AcDbEntity
  8
M-PIPE
100
AcDbLine
 10
862.8329342547605
 20
1816.745878730053
 30
0.0
 11
862.2650423762424
 21
1816.745878730053
 31
0.0
1001
REVIT
1002
{
1070
     3
1000
790271
1002
}
  0
LINE
  5
15B
330
145
100
AcDbEntity
  8
M-PIPE
100
AcDbLine
 10
862.2650423762426
 20
1795.745878730053
 30
0.0
 11
862.8329342547605
 21
1795.745878730053
 31
0.0
1001
REVIT
1002
{
1070
     3
1000
790271
1002
}
  0
LINE
  5
15C
330
145
100
AcDbEntity
  8
M-PIPE
100
AcDbLine
 10
810.5903105404005
 20
1817.745878730052
 30
0.0
 11
810.1664074431896
 21
1817.745878730052
 31
0.0
1001
REVIT
1002
{
1070
     3
1000
790271
1002
}
  0
LINE
  5
15D
330
145
100
AcDbEntity
  8
M-PIPE
100
AcDbLine
 10
810.1664074431898
 20
1794.745878730052
 30
0.0
 11
810.5903105404005
 21
1794.745878730052
 31
0.0
1001
REVIT
1002
{
1070
     3
1000
790271
1002
}
  0
LINE
  5
15E
330
145
100
AcDbEntity
  8
M-PIPE
100
AcDbLine
 10
810.1664074431896
 20
1817.745878730052
 30
0.0
 11
808.6664074431896
 21
1819.245878730052
 31
0.0
1001
REVIT
1002
{
1070
     3
1000
790271
1002
}
  0
LINE
  5
15F
330
145
100
AcDbEntity
  8
M-PIPE
100
AcDbLine
 10
808.6664074431896
 20
1793.245878730052
 30
0.0
 11
810.1664074431898
 21
1794.745878730052
 31
0.0
1001
REVIT
1002
{
1070
     3
1000
790271
1002
}
  0
LINE
  5
160
330
145
100
AcDbEntity
  8
M-PIPE
100
AcDbLine
 10
808.6664074431896
 20
1819.245878730052
 30
0.0
 11
806.1664074431895
 21
1819.245878730052
 31
0.0
1001
REVIT
1002
{
1070
     3
1000
790271
1002
}
  0
LINE
  5
161
330
145
100
AcDbEntity
  8
M-PIPE
100
AcDbLine
 10
806.1664074431897
 20
1793.245878730052
 30
0.0
 11
808.6664074431896
 21
1793.245878730052
 31
0.0
1001
REVIT
1002
{
1070
     3
1000
790271
1002
}
  0
ARC
  5
162
330
145
100
AcDbEntity
  8
M-PIPE
100
AcDbCircle
 10
871.166407443188
 20
1806.245878730052
 30
0.0
 40
10.99999999999916
100
AcDbArc
 50
0.0000000000023686
 51
107.1335479206142
1001
REVIT
1002
{
1070
     3
1000
790271
1002
}
  0
ARC
  5
163
330
145
100
AcDbEntity
  8
M-PIPE
100
AcDbCircle
 10
871.166407443188
 20
1806.245878730052
 30
0.0
 40
10.99999999999907
100
AcDbArc
 50
252.8664520793928
 51
0.0000000000002926
1001
REVIT
1002
{
1070
     3
1000
790271
1002
}
  0
ARC
  5
164
330
145
100
AcDbEntity
  8
M-PIPE
100
AcDbCircle
 10
871.166407443188
 20
1806.245878730052
 30
0.0
 40
9.499999999998175
100
AcDbArc
 50
82.50000000000119
 51
102.1768071119353
1001
REVIT
1002
{
1070
     3
1000
790271
1002
}
  0
ARC
  5
165
330
145
100
AcDbEntity
  8
M-PIPE
100
AcDbCircle
 10
871.166407443188
 20
1806.245878730052
 30
0.0
 40
9.499999999998138
100
AcDbArc
 50
75.00000000000051
 51
76.59736635239879
1001
REVIT
1002
{
1070
     3
1000
790271
1002
}
  0
ARC
  5
166
330
145
100
AcDbEntity
  8
M-PIPE
100
AcDbCircle
 10
871.166407443188
 20
1806.245878730052
 30
0.0
 40
9.499999999998131
100
AcDbArc
 50
67.50000000000115
 51
68.0891626543914
1001
REVIT
1002
{
1070
     3
1000
790271
1002
}
  0
ARC
  5
167
330
145
100
AcDbEntity
  8
M-PIPE
100
AcDbCircle
 10
871.166407443188
 20
1806.245878730052
 30
0.0
 40
9.4999999999982
100
AcDbArc
 50
59.57288291001952
 51
60.00000000000092
1001
REVIT
1002
{
1070
     3
1000
790271
1002
}
  0
ARC
  5
168
330
145
100
AcDbEntity
  8
M-PIPE
100
AcDbCircle
 10
871.166407443188
 20
1806.245878730052
 30
0.0
 40
9.499999999998099
100
AcDbArc
 50
51.01141159724174
 51
52.49999999999197
1001
REVIT
1002
{
1070
     3
1000
790271
1002
}
  0
ARC
  5
169
330
145
100
AcDbEntity
  8
M-PIPE
100
AcDbCircle
 10
871.166407443188
 20
1806.245878730052
 30
0.0
 40
9.499999999998067
100
AcDbArc
 50
22.50000000000667
 51
45.00000000000145
1001
REVIT
1002
{
1070
     3
1000
790271
1002
}
  0
ARC
  5
16A
330
145
100
AcDbEntity
  8
M-PIPE
100
AcDbCircle
 10
871.166407443188
 20
1806.245878730052
 30
0.0
 40
9.499999999998093
100
AcDbArc
 50
15.00000000000617
 51
17.05741896281965
1001
REVIT
1002
{
1070
     3
1000
790271
1002
}
  0
ARC
  5
16B
330
145
100
AcDbEntity
  8
M-PIPE
100
AcDbCircle
 10
871.166407443188
 20
1806.245878730052
 30
0.0
 40
9.499999999998086
100
AcDbArc
 50
7.500000000003822
 51
8.523259523995154
1001
REVIT
1002
{
1070
     3
1000
790271
1002
}
  0
ARC
  5
16C
330
145
100
AcDbEntity
  8
M-PIPE
100
AcDbCircle
 10
871.166407443188
 20
1806.245878730052
 30
0.0
 40
9.499999999998138
100
AcDbArc
 50
351.4767404760044
 51
352.4999999999984
1001
REVIT
1002
{
1070
     3
1000
790271
1002
}
  0
ARC
  5
16D
330
145
100
AcDbEntity
  8
M-PIPE
100
AcDbCircle
 10
871.166407443188
 20
1806.245878730052
 30
0.0
 40
9.499999999998092
100
AcDbArc
 50
342.9425810371812
 51
345.0000000000003
1001
REVIT
1002
{
1070
     3
1000
790271
1002
}
  0
ARC
  5
16E
330
145
100
AcDbEntity
  8
M-PIPE
100
AcDbCircle
 10
871.166407443188
 20
1806.245878730052
 30
0.0
 40
9.499999999998152
100
AcDbArc
 50
315.0000000000003
 51
337.4999999999952
1001
REVIT
1002
{
1070
     3
1000
790271
1002
}
  0
ARC
  5
16F
330
145
100
AcDbEntity
  8
M-PIPE
100
AcDbCircle
 10
871.166407443188
 20
1806.245878730052
 30
0.0
 40
9.499999999998109
100
AcDbArc
 50
307.5000000000092
 51
308.9885884027591
1001
REVIT
1002
{
1070
     3
1000
790271
1002
}
  0
ARC
  5
170
330
145
100
AcDbEntity
  8
M-PIPE
100
AcDbCircle
 10
871.166407443188
 20
1806.245878730052
 30
0.0
 40
9.499999999998031
100
AcDbArc
 50
300.0000000000007
 51
300.4271170899816
1001
REVIT
1002
{
1070
     3
1000
790271
1002
}
  0
ARC
  5
171
330
145
100
AcDbEntity
  8
M-PIPE
100
AcDbCircle
 10
871.166407443188
 20
1806.245878730052
 30
0.0
 40
9.499999999998102
100
AcDbArc
 50
291.9108373456085
 51
292.4999999999998
1001
REVIT
1002
{
1070
     3
1000
790271
1002
}
  0
ARC
  5
172
330
145
100
AcDbEntity
  8
M-PIPE
100
AcDbCircle
 10
871.166407443188
 20
1806.245878730052
 30
0.0
 40
9.499999999998042
100
AcDbArc
 50
283.4026336476017
 51
285.0000000000001
1001
REVIT
1002
{
1070
     3
1000
790271
1002
}
  0
ARC
  5
173
330
145
100
AcDbEntity
  8
M-PIPE
100
AcDbCircle
 10
871.166407443188
 20
1806.245878730052
 30
0.0
 40
9.499999999998024
100
AcDbArc
 50
257.8231928880642
 51
277.5000000000007
1001
REVIT
1002
{
1070
     3
1000
790271
1002
}
  0
ARC
  5
174
330
145
100
AcDbEntity
  8
M-PIPE
100
AcDbCircle
 10
871.166407443188
 20
1806.245878730052
 30
0.0
 40
9.500000000000012
100
AcDbArc
 50
0.0000000000013713
 51
102.15319746901
1001
REVIT
1002
{
1070
     3
1000
790271
1002
}
  0
ARC
  5
175
330
145
100
AcDbEntity
  8
M-PIPE
100
AcDbCircle
 10
871.166407443188
 20
1806.245878730052
 30
0.0
 40
9.499999999998204
100
AcDbArc
 50
257.8468025309911
 51
0.0000000000010305
1001
REVIT
1002
{
1070
     3
1000
790271
1002
}
  0
ARC
  5
176
330
145
100
AcDbEntity
  8
M-PIPE
100
AcDbCircle
 10
871.166407443188
 20
1806.245878730052
 30
0.0
 40
8.499999999998101
100
AcDbArc
 50
94.97488057821987
 51
97.52062912120786
1001
REVIT
1002
{
1070
     3
1000
790271
1002
}
  0
ARC
  5
177
330
145
100
AcDbEntity
  8
M-PIPE
100
AcDbCircle
 10
871.166407443188
 20
1806.245878730052
 30
0.0
 40
8.499999999998511
100
AcDbArc
 50
82.47792384570374
 51
90.00121649462819
1001
REVIT
1002
{
1070
     3
1000
790271
1002
}
  0
ARC
  5
178
330
145
100
AcDbEntity
  8
M-PIPE
100
AcDbCircle
 10
871.166407443188
 20
1806.245878730052
 30
0.0
 40
8.499999999998181
100
AcDbArc
 50
74.9595298751212
 51
77.70672047308813
1001
REVIT
1002
{
1070
     3
1000
790271
1002
}
  0
ARC
  5
179
330
145
100
AcDbEntity
  8
M-PIPE
100
AcDbCircle
 10
871.166407443188
 20
1806.245878730052
 30
0.0
 40
8.499999999998289
100
AcDbArc
 50
67.45584095842305
 51
69.07264042052432
1001
REVIT
1002
{
1070
     3
1000
790271
1002
}
  0
ARC
  5
17A
330
145
100
AcDbEntity
  8
M-PIPE
100
AcDbCircle
 10
871.166407443188
 20
1806.245878730052
 30
0.0
 40
8.499999999998166
100
AcDbArc
 50
59.9796464244622
 51
60.43856036795931
1001
REVIT
1002
{
1070
     3
1000
790271
1002
}
  0
ARC
  5
17B
330
145
100
AcDbEntity
  8
M-PIPE
100
AcDbCircle
 10
871.166407443188
 20
1806.245878730052
 30
0.0
 40
8.499999999998111
100
AcDbArc
 50
51.80448031539254
 51
52.46662808728699
1001
REVIT
1002
{
1070
     3
1000
790271
1002
}
  0
ARC
  5
17C
330
145
100
AcDbEntity
  8
M-PIPE
100
AcDbCircle
 10
871.166407443188
 20
1806.245878730052
 30
0.0
 40
8.499999999998207
100
AcDbArc
 50
43.17040026282917
 51
44.89879939139412
1001
REVIT
1002
{
1070
     3
1000
790271
1002
}
  0
ARC
  5
17D
330
145
100
AcDbEntity
  8
M-PIPE
100
AcDbCircle
 10
871.166407443188
 20
1806.245878730052
 30
0.0
 40
8.499999999998204
100
AcDbArc
 50
34.53632021026369
 51
37.61703247546333
1001
REVIT
1002
{
1070
     3
1000
790271
1002
}
  0
ARC
  5
17E
330
145
100
AcDbEntity
  8
M-PIPE
100
AcDbCircle
 10
871.166407443188
 20
1806.245878730052
 30
0.0
 40
8.499999999998166
100
AcDbArc
 50
22.56230973207856
 51
30.0943234329234
1001
REVIT
1002
{
1070
     3
1000
790271
1002
}
  0
ARC
  5
17F
330
145
100
AcDbEntity
  8
M-PIPE
100
AcDbCircle
 10
871.166407443188
 20
1806.245878730052
 30
0.0
 40
8.499999999998122
100
AcDbArc
 50
15.03049044720197
 51
17.26816010513229
1001
REVIT
1002
{
1070
     3
1000
790271
1002
}
  0
ARC
  5
180
330
145
100
AcDbEntity
  8
M-PIPE
100
AcDbCircle
 10
871.166407443188
 20
1806.245878730052
 30
0.0
 40
8.499999999998095
100
AcDbArc
 50
7.506979626422443
 51
8.634080052567098
1001
REVIT
1002
{
1070
     3
1000
790271
1002
}
  0
SPLINE
  5
181
330
145
100
AcDbEntity
  8
M-PIPE
100
AcDbSpline
210
0.0
220
0.0
230
1.0
 70
     8
 71
     3
 72
     8
 73
     4
 74
     0
 42
0.000000001
 43
0.0000000001
 40
0.0
 40
0.0
 40
0.0
 40
0.0
 40
0.0759574366975053
 40
0.0759574366975053
 40
0.0759574366975053
 40
0.0759574366975053
 10
869.1664074431868
 20
1814.507234550979
 30
0.0
 10
869.0968147779878
 20
1814.490386792159
 30
0.0
 10
869.027633890594
 20
1814.47270616444
 30
0.0
 10
868.958880574859
 20
1814.454213721313
 30
0.0
1001
REVIT
1002
{
1070
     3
1000
790271
1002
}
  0
SPLINE
  5
182
330
145
100
AcDbEntity
  8
M-PIPE
100
AcDbSpline
210
0.0
220
0.0
230
1.0
 70
     8
 71
     3
 72
     8
 73
     4
 74
     0
 42
0.000000001
 43
0.0000000001
 40
0.4758915649738055
 40
0.4758915649738055
 40
0.4758915649738055
 40
0.4758915649738055
 40
0.5
 40
0.5
 40
0.5
 40
0.5
 10
867.9107382349348
 20
1814.097668114729
 30
0.0
 10
867.8904843929176
 20
1814.089270634832
 30
0.0
 10
867.8702291416149
 20
1814.080862393732
 30
0.0
 10
867.8501315651196
 20
1814.07226450514
 30
0.0
1001
REVIT
1002
{
1070
     3
1000
790271
1002
}
  0
SPLINE
  5
183
330
145
100
AcDbEntity
  8
M-PIPE
100
AcDbSpline
210
0.0
220
0.0
230
1.0
 70
     8
 71
     3
 72
     8
 73
     4
 74
     0
 42
0.000000001
 43
0.0000000001
 40
0.894401070583304
 40
0.894401070583304
 40
0.894401070583304
 40
0.894401070583304
 40
1.0
 40
1.0
 40
1.0
 40
1.0
 10
866.9043532930679
 20
1813.600116801431
 30
0.0
 10
866.8239273584898
 20
1813.55350939589
 30
0.0
 10
866.7446027474071
 20
1813.505778100396
 30
0.0
 10
866.6664074431867
 20
1813.456981280977
 30
0.0
1001
REVIT
1002
{
1070
     3
1000
790271
1002
}
  0
SPLINE
  5
184
330
145
100
AcDbEntity
  8
M-PIPE
100
AcDbSpline
210
0.0
220
0.0
230
1.0
 70
     8
 71
     3
 72
     8
 73
     4
 74
     0
 42
0.000000001
 43
0.0000000001
 40
0.1206406404845597
 40
0.1206406404845597
 40
0.1206406404845597
 40
0.1206406404845597
 40
0.125
 40
0.125
 40
0.125
 40
0.125
 10
865.9924912962733
 20
1812.989698396039
 30
0.0
 10
865.9846452656161
 20
1812.98367834114
 30
0.0
 10
865.9768095580616
 20
1812.977644545713
 30
0.0
 10
865.9689842322176
 20
1812.971597052596
 30
0.0
1001
REVIT
1002
{
1070
     3
1000
790271
1002
}
  0
SPLINE
  5
185
330
145
100
AcDbEntity
  8
M-PIPE
100
AcDbSpline
210
0.0
220
0.0
230
1.0
 70
     8
 71
     3
 72
     8
 73
     4
 74
     0
 42
0.000000001
 43
0.0000000001
 40
0.25
 40
0.25
 40
0.25
 40
0.25
 40
0.2830026665502395
 40
0.2830026665502395
 40
0.2830026665502395
 40
0.2830026665502395
 10
865.3228245868714
 20
1812.418604173592
 30
0.0
 10
865.2684522998024
 20
1812.367142981566
 30
0.0
 10
865.2147721679252
 20
1812.314966666846
 30
0.0
 10
865.1617919925104
 20
1812.262087230251
 30
0.0
1001
REVIT
1002
{
1070
     3
1000
790271
1002
}
  0
SPLINE
  5
186
330
145
100
AcDbEntity
  8
M-PIPE
100
AcDbSpline
210
0.0
220
0.0
230
1.0
 70
     8
 71
     3
 72
     9
 73
     5
 74
     0
 42
0.000000001
 43
0.0000000001
 40
0.375
 40
0.375
 40
0.375
 40
0.375
 40
0.4375
 40
0.5
 40
0.5
 40
0.5
 40
0.5
 10
864.7352198632264
 20
1811.803740397214
 30
0.0
 10
864.6424067973889
 20
1811.696341033602
 30
0.0
 10
864.4619260820388
 20
1811.476753351061
 30
0.0
 10
864.2918524299169
 20
1811.246748216028
 30
0.0
 10
864.2093357996797
 20
1811.129438307558
 30
0.0
1001
REVIT
1002
{
1070
     3
1000
790271
1002
}
  0
SPLINE
  5
187
330
145
100
AcDbEntity
  8
M-PIPE
100
AcDbSpline
210
0.0
220
0.0
230
1.0
 70
     8
 71
     3
 72
     8
 73
     4
 74
     0
 42
0.000000001
 43
0.0000000001
 40
0.6082676482857309
 40
0.6082676482857309
 40
0.6082676482857309
 40
0.6082676482857309
 40
0.625
 40
0.625
 40
0.625
 40
0.625
 10
863.8069071647139
 20
1810.498849583289
 30
0.0
 10
863.7875469525086
 20
1810.465347540683
 30
0.0
 10
863.7685129114723
 20
1810.431634850257
 30
0.0
 10
863.7494743175562
 20
1810.397878610817
 30
0.0
1001
REVIT
1002
{
1070
     3
1000
790271
1002
}
  0
SPLINE
  5
188
330
145
100
AcDbEntity
  8
M-PIPE
100
AcDbSpline
210
0.0
220
0.0
230
1.0
 70
     8
 71
     3
 72
     8
 73
     4
 74
     0
 42
0.000000001
 43
0.0000000001
 40
0.75
 40
0.75
 40
0.75
 40
0.75
 40
0.767570473040245
 40
0.767570473040245
 40
0.767570473040245
 40
0.767570473040245
 10
863.3626563145647
 20
1809.615072746798
 30
0.0
 10
863.3463364963985
 20
1809.577264891617
 30
0.0
 10
863.3308041632146
 20
1809.539077765604
 30
0.0
 10
863.3159512160187
 20
1809.500563191019
 30
0.0
1001
REVIT
1002
{
1070
     3
1000
790271
1002
}
  0
SPLINE
  5
189
330
145
100
AcDbEntity
  8
M-PIPE
100
AcDbSpline
210
0.0
220
0.0
230
1.0
 70
     8
 71
     3
 72
     8
 73
     4
 74
     0
 42
0.000000001
 43
0.0000000001
 40
0.875
 40
0.875
 40
0.875
 40
0.875
 40
0.9242035452006389
 40
0.9242035452006389
 40
0.9242035452006389
 40
0.9242035452006389
 10
863.0550254155968
 20
1808.786418912629
 30
0.0
 10
863.0201358321924
 20
1808.675032308746
 30
0.0
 10
862.9902711539578
 20
1808.561689055428
 30
0.0
 10
862.9621699095958
 20
1808.447642481486
 30
0.0
1001
REVIT
1002
{
1070
     3
1000
790271
1002
}
  0
SPLINE
  5
18A
330
145
100
AcDbEntity
  8
M-PIPE
100
AcDbSpline
210
0.0
220
0.0
230
1.0
 70
     8
 71
     3
 72
     8
 73
     4
 74
     0
 42
0.000000001
 43
0.0000000001
 40
0.3400946198855206
 40
0.3400946198855206
 40
0.3400946198855206
 40
0.3400946198855206
 40
0.5
 40
0.5
 40
0.5
 40
0.5
 10
862.7393722848102
 20
1807.357208005906
 30
0.0
 10
862.7276506440061
 20
1807.268328924493
 30
0.0
 10
862.7162424292109
 20
1807.179297266102
 30
0.0
 10
862.7084044202762
 20
1807.089789189982
 30
0.0
1001
REVIT
1002
{
1070
     3
1000
790271
1002
}
  0
SPLINE
  5
18B
330
145
100
AcDbEntity
  8
M-PIPE
100
AcDbSpline
210
0.0
220
0.0
230
1.0
 70
     8
 71
     3
 72
     8
 73
     4
 74
     0
 42
0.000000001
 43
0.0000000001
 40
0.5
 40
0.5
 40
0.5
 40
0.5
 40
0.6599053801145559
 40
0.6599053801145559
 40
0.6599053801145559
 40
0.6599053801145559
 10
862.7084044202762
 20
1805.401968270122
 30
0.0
 10
862.7173229826937
 20
1805.312582462976
 30
0.0
 10
862.7295251110728
 20
1805.223864587563
 30
0.0
 10
862.7431972617978
 20
1805.135439247735
 30
0.0
1001
REVIT
1002
{
1070
     3
1000
790271
1002
}
  0
SPLINE
  5
18C
330
145
100
AcDbEntity
  8
M-PIPE
100
AcDbSpline
210
0.0
220
0.0
230
1.0
 70
     8
 71
     3
 72
     8
 73
     4
 74
     0
 42
0.000000001
 43
0.0000000001
 40
0.0757964547993671
 40
0.0757964547993671
 40
0.0757964547993671
 40
0.0757964547993671
 40
0.125
 40
0.125
 40
0.125
 40
0.125
 10
862.9570551432971
 20
1804.042310767766
 30
0.0
 10
862.9874655870363
 20
1803.929067680252
 30
0.0
 10
863.0201530811737
 20
1803.816709602682
 30
0.0
 10
863.0550493905719
 20
1803.705324272751
 30
0.0
1001
REVIT
1002
{
1070
     3
1000
790271
1002
}
  0
SPLINE
  5
18D
330
145
100
AcDbEntity
  8
M-PIPE
100
AcDbSpline
210
0.0
220
0.0
230
1.0
 70
     8
 71
     3
 72
     8
 73
     4
 74
     0
 42
0.000000001
 43
0.0000000001
 40
0.2324295269597614
 40
0.2324295269597614
 40
0.2324295269597614
 40
0.2324295269597614
 40
0.25
 40
0.25
 40
0.25
 40
0.25
 10
863.314490137197
 20
1802.990551908449
 30
0.0
 10
863.3302829545918
 20
1802.95244554414
 30
0.0
 10
863.3463401763341
 20
1802.914489246982
 30
0.0
 10
863.3626563145647
 20
1802.876684713306
 30
0.0
1001
REVIT
1002
{
1070
     3
1000
790271
1002
}
  0
SPLINE
  5
18E
330
145
100
AcDbEntity
  8
M-PIPE
100
AcDbSpline
210
0.0
220
0.0
230
1.0
 70
     8
 71
     3
 72
     8
 73
     4
 74
     0
 42
0.000000001
 43
0.0000000001
 40
0.375
 40
0.375
 40
0.375
 40
0.375
 40
0.3917323517142773
 40
0.3917323517142773
 40
0.3917323517142773
 40
0.3917323517142773
 10
863.7494743175562
 20
1802.093878849287
 30
0.0
 10
863.7684104142019
 20
1802.060055120294
 30
0.0
 10
863.7875700060966
 20
1802.02638899191
 30
0.0
 10
863.8069484223292
 20
1801.992880703889
 30
0.0
1001
REVIT
1002
{
1070
     3
1000
790271
1002
}
  0
SPLINE
  5
18F
330
145
100
AcDbEntity
  8
M-PIPE
100
AcDbSpline
210
0.0
220
0.0
230
1.0
 70
     8
 71
     3
 72
     9
 73
     5
 74
     0
 42
0.000000001
 43
0.0000000001
 40
0.5
 40
0.5
 40
0.5
 40
0.5
 40
0.5625
 40
0.625
 40
0.625
 40
0.625
 40
0.625
 10
864.2093357996797
 20
1801.362319152545
 30
0.0
 10
864.2917079230155
 20
1801.244972381392
 30
0.0
 10
864.461557819448
 20
1801.014500278528
 30
0.0
 10
864.6432878294714
 20
1800.796460950212
 30
0.0
 10
864.7352198632264
 20
1800.68801706289
 30
0.0
1001
REVIT
1002
{
1070
     3
1000
790271
1002
}
  0
SPLINE
  5
190
330
145
100
AcDbEntity
  8
M-PIPE
100
AcDbSpline
210
0.0
220
0.0
230
1.0
 70
     8
 71
     3
 72
     8
 73
     4
 74
     0
 42
0.000000001
 43
0.0000000001
 40
0.7169973334497777
 40
0.7169973334497777
 40
0.7169973334497777
 40
0.7169973334497777
 40
0.75
 40
0.75
 40
0.75
 40
0.75
 10
865.1617861085314
 20
1800.229668999905
 30
0.0
 10
865.2147692288155
 20
1800.176790636269
 30
0.0
 10
865.2679258293096
 20
1800.123921120228
 30
0.0
 10
865.3228245868714
 20
1800.073153286511
 30
0.0
1001
REVIT
1002
{
1070
     3
1000
790271
1002
}
  0
SPLINE
  5
191
330
145
100
AcDbEntity
  8
M-PIPE
100
AcDbSpline
210
0.0
220
0.0
230
1.0
 70
     8
 71
     3
 72
     8
 73
     4
 74
     0
 42
0.000000001
 43
0.0000000001
 40
0.875
 40
0.875
 40
0.875
 40
0.875
 40
0.8793593595154391
 40
0.8793593595154391
 40
0.8793593595154391
 40
0.8793593595154391
 10
865.9689853223959
 20
1799.520158886624
 30
0.0
 10
865.976810615048
 20
1799.514111396213
 30
0.0
 10
865.9846647111123
 20
1799.508105314654
 30
0.0
 10
865.9925456267648
 20
1799.50213778708
 30
0.0
1001
REVIT
1002
{
1070
     3
1000
790271
1002
}
  0
SPLINE
  5
192
330
145
100
AcDbEntity
  8
M-PIPE
100
AcDbSpline
210
0.0
220
0.0
230
1.0
 70
     8
 71
     3
 72
     8
 73
     4
 74
     0
 42
0.000000001
 43
0.0000000001
 40
0.0
 40
0.0
 40
0.0
 40
0.0
 40
0.1055989294166395
 40
0.1055989294166395
 40
0.1055989294166395
 40
0.1055989294166395
 10
866.6664074431867
 20
1799.034776179127
 30
0.0
 10
866.7446027474071
 20
1798.985979359708
 30
0.0
 10
866.8239273584896
 20
1798.938248064214
 30
0.0
 10
866.9043532930677
 20
1798.891640658673
 30
0.0
1001
REVIT
1002
{
1070
     3
1000
790271
1002
}
  0
SPLINE
  5
193
330
145
100
AcDbEntity
  8
M-PIPE
100
AcDbSpline
210
0.0
220
0.0
230
1.0
 70
     8
 71
     3
 72
     8
 73
     4
 74
     0
 42
0.000000001
 43
0.0000000001
 40
0.5
 40
0.5
 40
0.5
 40
0.5
 40
0.524108435026259
 40
0.524108435026259
 40
0.524108435026259
 40
0.524108435026259
 10
867.8501315651196
 20
1798.419492954963
 30
0.0
 10
867.8702820013153
 20
1798.410954919522
 30
0.0
 10
867.8905728444849
 20
1798.402633891656
 30
0.0
 10
867.9109907950634
 20
1798.394509271284
 30
0.0
1001
REVIT
1002
{
1070
     3
1000
790271
1002
}
  0
SPLINE
  5
194
330
145
100
AcDbEntity
  8
M-PIPE
100
AcDbSpline
210
0.0
220
0.0
230
1.0
 70
     8
 71
     3
 72
     8
 73
     4
 74
     0
 42
0.000000001
 43
0.0000000001
 40
0.9240425633024946
 40
0.9240425633024946
 40
0.9240425633024946
 40
0.9240425633024946
 40
1.0
 40
1.0
 40
1.0
 40
1.0
 10
868.958880574859
 20
1798.037543738791
 30
0.0
 10
869.027633890594
 20
1798.019051295664
 30
0.0
 10
869.0968147779878
 20
1798.001370667945
 30
0.0
 10
869.1664074431868
 20
1797.984522909125
 30
0.0
1001
REVIT
1002
{
1070
     3
1000
790271
1002
}
  0
ARC
  5
195
330
145
100
AcDbEntity
  8
M-PIPE
100
AcDbCircle
 10
871.166407443188
 20
1806.245878730052
 30
0.0
 40
8.499999999998207
100
AcDbArc
 50
351.3659199474352
 51
352.4930203735768
1001
REVIT
1002
{
1070
     3
1000
790271
1002
}
  0
ARC
  5
196
330
145
100
AcDbEntity
  8
M-PIPE
100
AcDbCircle
 10
871.166407443188
 20
1806.245878730052
 30
0.0
 40
8.499999999998122
100
AcDbArc
 50
342.7318398948702
 51
344.9695095527987
1001
REVIT
1002
{
1070
     3
1000
790271
1002
}
  0
ARC
  5
197
330
145
100
AcDbEntity
  8
M-PIPE
100
AcDbCircle
 10
871.166407443188
 20
1806.245878730052
 30
0.0
 40
8.499999999998044
100
AcDbArc
 50
329.9056765670758
 51
337.4376902679204
1001
REVIT
1002
{
1070
     3
1000
790271
1002
}
  0
ARC
  5
198
330
145
100
AcDbEntity
  8
M-PIPE
100
AcDbCircle
 10
871.166407443188
 20
1806.245878730052
 30
0.0
 40
8.499999999998081
100
AcDbArc
 50
322.3829675245363
 51
325.4636797897394
1001
REVIT
1002
{
1070
     3
1000
790271
1002
}
  0
ARC
  5
199
330
145
100
AcDbEntity
  8
M-PIPE
100
AcDbCircle
 10
871.166407443188
 20
1806.245878730052
 30
0.0
 40
8.499999999998099
100
AcDbArc
 50
315.1012006086097
 51
316.9055127779705
1001
REVIT
1002
{
1070
     3
1000
790271
1002
}
  0
ARC
  5
19A
330
145
100
AcDbEntity
  8
M-PIPE
100
AcDbCircle
 10
871.166407443188
 20
1806.245878730052
 30
0.0
 40
8.499999999998101
100
AcDbArc
 50
307.5333719127143
 51
308.1955196846078
1001
REVIT
1002
{
1070
     3
1000
790271
1002
}
  0
ARC
  5
19B
330
145
100
AcDbEntity
  8
M-PIPE
100
AcDbCircle
 10
871.166407443188
 20
1806.245878730052
 30
0.0
 40
8.499999999998109
100
AcDbArc
 50
299.5614396320428
 51
300.0203535755372
1001
REVIT
1002
{
1070
     3
1000
790271
1002
}
  0
ARC
  5
19C
330
145
100
AcDbEntity
  8
M-PIPE
100
AcDbCircle
 10
871.166407443188
 20
1806.245878730052
 30
0.0
 40
8.499999999998065
100
AcDbArc
 50
290.927359579477
 51
292.5441590415783
1001
REVIT
1002
{
1070
     3
1000
790271
1002
}
  0
ARC
  5
19D
330
145
100
AcDbEntity
  8
M-PIPE
100
AcDbCircle
 10
871.166407443188
 20
1806.245878730052
 30
0.0
 40
8.499999999998106
100
AcDbArc
 50
282.2932795269133
 51
285.0404701248818
1001
REVIT
1002
{
1070
     3
1000
790271
1002
}
  0
ARC
  5
19E
330
145
100
AcDbEntity
  8
M-PIPE
100
AcDbCircle
 10
871.166407443188
 20
1806.245878730052
 30
0.0
 40
8.499999999998035
100
AcDbArc
 50
269.9987835053741
 51
277.5220761542986
1001
REVIT
1002
{
1070
     3
1000
790271
1002
}
  0
ARC
  5
19F
330
145
100
AcDbEntity
  8
M-PIPE
100
AcDbCircle
 10
871.166407443188
 20
1806.245878730052
 30
0.0
 40
8.499999999998077
100
AcDbArc
 50
262.4793708787933
 51
265.0251194217806
1001
REVIT
1002
{
1070
     3
1000
790271
1002
}
  0
ARC
  5
1A0
330
145
100
AcDbEntity
  8
M-PIPE
100
AcDbCircle
 10
871.1664074431881
 20
1806.245878730052
 30
0.0
 40
8.499999999998252
100
AcDbArc
 50
359.9999999999988
 51
180.0000000000007
1001
REVIT
1002
{
1070
     3
1000
790271
1002
}
  0
ARC
  5
1A1
330
145
100
AcDbEntity
  8
M-PIPE
100
AcDbCircle
 10
871.1664074431881
 20
1806.245878730052
 30
0.0
 40
8.499999999998168
100
AcDbArc
 50
180.0000000000019
 51
0.0000000000003562
1001
REVIT
1002
{
1070
     3
1000
790271
1002
}
  0
ARC
  5
1A2
330
145
100
AcDbEntity
  8
M-PIPE
100
AcDbCircle
 10
815.6664074431882
 20
1806.245878730052
 30
0.0
 40
10.99999999999986
100
AcDbArc
 50
149.753443066713
 51
180.0000000000003
1001
REVIT
1002
{
1070
     3
1000
790271
1002
}
  0
ARC
  5
1A3
330
145
100
AcDbEntity
  8
M-PIPE
100
AcDbCircle
 10
815.6664074431882
 20
1806.245878730052
 30
0.0
 40
10.99999999999988
100
AcDbArc
 50
180.0
 51
210.2465569332859
1001
REVIT
1002
{
1070
     3
1000
790271
1002
}
  0
LINE
  5
1A4
330
145
100
AcDbEntity
  8
M-PIPE
100
AcDbLine
 10
869.1664074431868
 20
1814.507234550979
 30
0.0
 11
869.1664074431866
 21
1816.730612174771
 31
0.0
1001
REVIT
1002
{
1070
     3
1000
790271
1002
}
  0
LINE
  5
1A5
330
145
100
AcDbEntity
  8
M-PIPE
100
AcDbLine
 10
869.1664074431868
 20
1795.761145285333
 30
0.0
 11
869.1664074431868
 21
1797.984522909125
 31
0.0
1001
REVIT
1002
{
1070
     3
1000
790271
1002
}
  0
LINE
  5
1A6
330
145
100
AcDbEntity
  8
M-PIPE
100
AcDbLine
 10
866.6664074431867
 20
1819.245878730052
 30
0.0
 11
866.6664074431867
 21
1813.456981280977
 31
0.0
1001
REVIT
1002
{
1070
     3
1000
790271
1002
}
  0
LINE
  5
1A7
330
145
100
AcDbEntity
  8
M-PIPE
100
AcDbLine
 10
866.6664074431883
 20
1799.034776179127
 30
0.0
 11
866.6664074431883
 21
1793.245878730052
 31
0.0
1001
REVIT
1002
{
1070
     3
1000
790271
1002
}
  0
LINE
  5
1A8
330
145
100
AcDbEntity
  8
M-PIPE
100
AcDbLine
 10
862.8329342547603
 20
1819.245878730052
 30
0.0
 11
862.8329342547605
 21
1807.920162044698
 31
0.0
1001
REVIT
1002
{
1070
     3
1000
790271
1002
}
  0
LINE
  5
1A9
330
145
100
AcDbEntity
  8
M-PIPE
100
AcDbLine
 10
862.8329342547591
 20
1804.571595415406
 30
0.0
 11
862.8329342547591
 21
1793.245878730052
 31
0.0
1001
REVIT
1002
{
1070
     3
1000
790271
1002
}
  0
SPLINE
  5
1AA
330
145
100
AcDbEntity
  8
M-PIPE
100
AcDbSpline
210
0.0
220
0.0
230
1.0
 70
     8
 71
     3
 72
     8
 73
     4
 74
     0
 42
0.000000001
 43
0.0000000001
 40
0.0
 40
0.0
 40
0.0
 40
0.0
 40
0.0111593580468699
 40
0.0111593580468699
 40
0.0111593580468699
 40
0.0111593580468699
 10
862.8329342547591
 20
1815.954122649526
 30
0.0
 10
862.8328761265475
 20
1815.949312095625
 30
0.0
 10
862.8327221567207
 20
1815.944484519137
 30
0.0
 10
862.8324726655595
 20
1815.939640501745
 30
0.0
1001
REVIT
1002
{
1070
     3
1000
790271
1002
}
  0
SPLINE
  5
1AB
330
145
100
AcDbEntity
  8
M-PIPE
100
AcDbSpline
210
0.0
220
0.0
230
1.0
 70
     8
 71
     3
 72
     8
 73
     4
 74
     0
 42
0.000000001
 43
0.0000000001
 40
0.98884064195332
 40
0.98884064195332
 40
0.98884064195332
 40
0.98884064195332
 40
1.0
 40
1.0
 40
1.0
 40
1.0
 10
862.8324693849195
 20
1796.552123579458
 30
0.0
 10
862.8327210305254
 20
1796.547275214425
 30
0.0
 10
862.8328761265475
 20
1796.542445364479
 30
0.0
 10
862.8329342547587
 20
1796.537634810578
 30
0.0
1001
REVIT
1002
{
1070
     3
1000
790271
1002
}
  0
LINE
  5
1AC
330
145
100
AcDbEntity
  8
M-PIPE
100
AcDbLine
 10
810.166407443188
 20
1817.745878730052
 30
0.0
 11
810.1664074431882
 21
1806.245878730052
 31
0.0
1001
REVIT
1002
{
1070
     3
1000
790271
1002
}
  0
LINE
  5
1AD
330
145
100
AcDbEntity
  8
M-PIPE
100
AcDbLine
 10
810.1664074431882
 20
1806.245878730052
 30
0.0
 11
810.1664074431882
 21
1794.745878730052
 31
0.0
1001
REVIT
1002
{
1070
     3
1000
790271
1002
}
  0
LINE
  5
1AE
330
145
100
AcDbEntity
  8
M-PIPE
100
AcDbLine
 10
808.666407443188
 20
1819.245878730052
 30
0.0
 11
808.6664074431881
 21
1806.245878730052
 31
0.0
1001
REVIT
1002
{
1070
     3
1000
790271
1002
}
  0
SPLINE
  5
1AF
330
145
100
AcDbEntity
  8
M-PIPE
100
AcDbSpline
210
0.0
220
0.0
230
1.0
 70
     8
 71
     3
 72
     8
 73
     4
 74
     0
 42
0.000000001
 43
0.0000000001
 40
0.9261016029270452
 40
0.9261016029270452
 40
0.9261016029270452
 40
0.9261016029270452
 40
1.0
 40
1.0
 40
1.0
 40
1.0
 10
806.1791071800824
 20
1795.436320952599
 30
0.0
 10
806.1710110413597
 20
1795.38752993036
 30
0.0
 10
806.1667563680401
 20
1795.339161803291
 30
0.0
 10
806.1664074431881
 20
1795.291427579948
 30
0.0
1001
REVIT
1002
{
1070
     3
1000
790271
1002
}
  0
LINE
  5
1B0
330
145
100
AcDbEntity
  8
M-PIPE
100
AcDbLine
 10
808.6664074431881
 20
1806.245878730052
 30
0.0
 11
808.6664074431881
 21
1793.245878730052
 31
0.0
1001
REVIT
1002
{
1070
     3
1000
790271
1002
}
  0
LINE
  5
1B1
330
145
100
AcDbEntity
  8
M-PIPE
100
AcDbLine
 10
806.1664074431881
 20
1806.245878730052
 30
0.0
 11
806.1664074431881
 21
1793.245878730052
 31
0.0
1001
REVIT
1002
{
1070
     3
1000
790271
1002
}
  0
LINE
  5
1B2
330
145
100
AcDbEntity
  8
M-PIPE
100
AcDbLine
 10
806.1664074431881
 20
1819.245878730052
 30
0.0
 11
806.1664074431881
 21
1806.245878730052
 31
0.0
1001
REVIT
1002
{
1070
     3
1000
790271
1002
}
  0
LINE
  5
1B3
330
145
100
AcDbEntity
  8
M-PIPE
100
AcDbLine
 10
845.1664074431883
 20
1787.945878730052
 30
0.0
 11
835.1664074431884
 21
1787.945878730052
 31
0.0
1001
REVIT
1002
{
1070
     3
1000
790271
1002
}
  0
LINE
  5
1B4
330
145
100
AcDbEntity
  8
M-PIPE
100
AcDbLine
 10
835.166407443188
 20
1824.545878730052
 30
0.0
 11
845.1664074431882
 21
1824.545878730052
 31
0.0
1001
REVIT
1002
{
1070
     3
1000
790271
1002
}
  0
LINE
  5
1B5
330
145
100
AcDbEntity
  8
M-PIPE
100
AcDbLine
 10
845.1664074431883
 20
1787.945878730052
 30
0.0
 11
845.1664074431883
 21
1793.245878730052
 31
0.0
1001
REVIT
1002
{
1070
     3
1000
790271
1002
}
  0
LINE
  5
1B6
330
145
100
AcDbEntity
  8
M-PIPE
100
AcDbLine
 10
845.1664074431882
 20
1819.245878730052
 30
0.0
 11
845.1664074431882
 21
1824.545878730052
 31
0.0
1001
REVIT
1002
{
1070
     3
1000
790271
1002
}
  0
LINE
  5
1B7
330
145
100
AcDbEntity
  8
M-PIPE
100
AcDbLine
 10
835.1664074431882
 20
1793.245878730052
 30
0.0
 11
835.1664074431884
 21
1787.945878730052
 31
0.0
1001
REVIT
1002
{
1070
     3
1000
790271
1002
}
  0
LINE
  5
1B8
330
145
100
AcDbEntity
  8
M-PIPE
100
AcDbLine
 10
835.166407443188
 20
1824.545878730052
 30
0.0
 11
835.166407443188
 21
1819.245878730052
 31
0.0
1001
REVIT
1002
{
1070
     3
1000
790271
1002
}
  0
LINE
  5
1B9
330
145
100
AcDbEntity
  8
M-PIPE
100
AcDbLine
 10
810.6664074431883
 20
1793.245878730052
 30
0.0
 11
808.6664074431881
 21
1793.245878730052
 31
0.0
1001
REVIT
1002
{
1070
     3
1000
790271
1002
}
  0
LINE
  5
1BA
330
145
100
AcDbEntity
  8
M-PIPE
100
AcDbLine
 10
810.6664074431881
 20
1793.245878730052
 30
0.0
 11
835.1664074431882
 21
1793.245878730052
 31
0.0
1001
REVIT
1002
{
1070
     3
1000
790271
1002
}
  0
LINE
  5
1BB
330
145
100
AcDbEntity
  8
M-PIPE
100
AcDbLine
 10
862.8329342547605
 20
1793.245878730052
 30
0.0
 11
860.8329342547605
 21
1793.245878730052
 31
0.0
1001
REVIT
1002
{
1070
     3
1000
790271
1002
}
  0
LINE
  5
1BC
330
145
100
AcDbEntity
  8
M-PIPE
100
AcDbLine
 10
845.1664074431883
 20
1793.245878730052
 30
0.0
 11
860.8329342547605
 21
1793.245878730052
 31
0.0
1001
REVIT
1002
{
1070
     3
1000
790271
1002
}
  0
LINE
  5
1BD
330
145
100
AcDbEntity
  8
M-PIPE
100
AcDbLine
 10
860.8329342547603
 20
1819.245878730052
 30
0.0
 11
862.8329342547603
 21
1819.245878730052
 31
0.0
1001
REVIT
1002
{
1070
     3
1000
790271
1002
}
  0
LINE
  5
1BE
330
145
100
AcDbEntity
  8
M-PIPE
100
AcDbLine
 10
860.8329342547603
 20
1819.245878730052
 30
0.0
 11
845.1664074431882
 21
1819.245878730052
 31
0.0
1001
REVIT
1002
{
1070
     3
1000
790271
1002
}
  0
LINE
  5
1BF
330
145
100
AcDbEntity
  8
M-PIPE
100
AcDbLine
 10
808.666407443188
 20
1819.245878730052
 30
0.0
 11
810.6664074431879
 21
1819.245878730052
 31
0.0
1001
REVIT
1002
{
1070
     3
1000
790271
1002
}
  0
LINE
  5
1C0
330
145
100
AcDbEntity
  8
M-PIPE
100
AcDbLine
 10
835.166407443188
 20
1819.245878730052
 30
0.0
 11
810.6664074431879
 21
1819.245878730052
 31
0.0
1001
REVIT
1002
{
1070
     3
1000
790271
1002
}
  0
LINE
  5
1C1
330
145
100
AcDbEntity
  8
P-SANR-FIXT
100
AcDbLine
 10
784.8164074431751
 20
1801.645878730052
 30
0.0
 11
794.0164074431749
 21
1801.645878730052
 31
0.0
  0
LINE
  5
1C2
330
145
100
AcDbEntity
  8
P-SANR-FIXT
100
AcDbLine
 10
794.0164074431749
 20
1801.645878730052
 30
0.0
 11
794.0164074431749
 21
1810.845878730052
 31
0.0
  0
LINE
  5
1C3
330
145
100
AcDbEntity
  8
P-SANR-FIXT
100
AcDbLine
 10
794.0164074431749
 20
1810.845878730052
 30
0.0
 11
784.8164074431751
 21
1810.845878730052
 31
0.0
  0
LINE
  5
1C4
330
145
100
AcDbEntity
  8
P-SANR-FIXT
100
AcDbLine
 10
784.8164074431751
 20
1810.845878730052
 30
0.0
 11
784.8164074431751
 21
1801.645878730052
 31
0.0
  0
ARC
  5
1C5
330
145
100
AcDbEntity
  8
P-SANR-FIXT
100
AcDbCircle
 10
789.416407443175
 20
1806.245878730052
 30
0.0
 40
13.99999999999994
100
AcDbArc
 50
180.0000000000002
 51
0.0000000000002544
  0
ARC
  5
1C6
330
145
100
AcDbEntity
  8
P-SANR-FIXT
100
AcDbCircle
 10
789.416407443175
 20
1806.245878730052
 30
0.0
 40
14.0
100
AcDbArc
 50
0.0
 51
180.0
  0
LINE
  5
1C7
330
145
100
AcDbEntity
  8
P-SANR-FIXT
100
AcDbLine
 10
803.1817062180305
 20
1803.745878730052
 30
0.0
 11
804.9721988736305
 21
1803.745878730052
 31
0.0
  0
LINE
  5
1C8
330
145
100
AcDbEntity
  8
P-SANR-FIXT
100
AcDbLine
 10
804.9721988736305
 20
1808.745878730052
 30
0.0
 11
803.1817062180305
 21
1808.745878730052
 31
0.0
  0
LINE
  5
1C9
330
145
100
AcDbEntity
  8
P-SANR-FIXT
100
AcDbLine
 10
774.5960994294724
 20
1789.225570716336
 30
0.0
 11
776.1852102552388
 21
1790.814681542103
 31
0.0
  0
LINE
  5
1CA
330
145
100
AcDbEntity
  8
P-SANR-FIXT
100
AcDbLine
 10
776.1852102552388
 20
1821.677075918003
 30
0.0
 11
774.5960994294724
 21
1823.26618674377
 31
0.0
  0
LINE
  5
1CB
330
145
100
AcDbEntity
  8
P-SANR-FIXT
100
AcDbLine
 10
776.1852102552388
 20
1790.814681542102
 30
0.0
 11
779.685210255239
 21
1790.814681542102
 31
0.0
  0
LINE
  5
1CC
330
145
100
AcDbEntity
  8
P-SANR-FIXT
100
AcDbLine
 10
779.6852102552387
 20
1821.677075918004
 30
0.0
 11
776.1852102552388
 21
1821.677075918004
 31
0.0
  0
LINE
  5
1CD
330
145
100
AcDbEntity
  8
P-SANR-FIXT
100
AcDbLine
 10
779.685210255239
 20
1790.814681542103
 30
0.0
 11
781.7164074431891
 21
1792.845878730053
 31
0.0
  0
LINE
  5
1CE
330
145
100
AcDbEntity
  8
P-SANR-FIXT
100
AcDbLine
 10
781.7164074431891
 20
1819.645878730053
 30
0.0
 11
779.685210255239
 21
1821.677075918003
 31
0.0
  0
LINE
  5
1CF
330
145
100
AcDbEntity
  8
P-SANR-FIXT
100
AcDbLine
 10
781.7164074431891
 20
1792.845878730053
 30
0.0
 11
785.352421961614
 21
1792.845878730053
 31
0.0
  0
LINE
  5
1D0
330
145
100
AcDbEntity
  8
P-SANR-FIXT
100
AcDbLine
 10
793.4803929247388
 20
1792.845878730053
 30
0.0
 11
797.7664074431892
 21
1792.845878730053
 31
0.0
  0
LINE
  5
1D1
330
145
100
AcDbEntity
  8
P-SANR-FIXT
100
AcDbLine
 10
797.7664074431892
 20
1819.645878730054
 30
0.0
 11
793.4803929247388
 21
1819.645878730054
 31
0.0
  0
LINE
  5
1D2
330
145
100
AcDbEntity
  8
P-SANR-FIXT
100
AcDbLine
 10
785.3524219616141
 20
1819.645878730054
 30
0.0
 11
781.7164074431891
 21
1819.645878730054
 31
0.0
  0
LINE
  5
1D3
330
145
100
AcDbEntity
  8
P-SANR-FIXT
100
AcDbLine
 10
797.7664074431892
 20
1792.845878730053
 30
0.0
 11
798.6664074431898
 21
1793.745878730053
 31
0.0
  0
LINE
  5
1D4
330
145
100
AcDbEntity
  8
P-SANR-FIXT
100
AcDbLine
 10
798.6664074431898
 20
1818.745878730053
 30
0.0
 11
797.7664074431892
 21
1819.645878730053
 31
0.0
  0
LINE
  5
1D5
330
145
100
AcDbEntity
  8
P-SANR-FIXT
100
AcDbLine
 10
798.6664074431898
 20
1793.745878730053
 30
0.0
 11
806.1664074431897
 21
1793.745878730053
 31
0.0
  0
LINE
  5
1D6
330
145
100
AcDbEntity
  8
P-SANR-FIXT
100
AcDbLine
 10
866.6664074431897
 20
1793.745878730053
 30
0.0
 11
878.2164074431888
 21
1793.745878730053
 31
0.0
  0
LINE
  5
1D7
330
145
100
AcDbEntity
  8
P-SANR-FIXT
100
AcDbLine
 10
878.2164074431888
 20
1818.745878730053
 30
0.0
 11
866.6664074431897
 21
1818.745878730053
 31
0.0
  0
LINE
  5
1D8
330
145
100
AcDbEntity
  8
P-SANR-FIXT
100
AcDbLine
 10
806.1664074431895
 20
1818.745878730053
 30
0.0
 11
798.6664074431898
 21
1818.745878730053
 31
0.0
  0
LINE
  5
1D9
330
145
100
AcDbEntity
  8
P-SANR-FIXT
100
AcDbLine
 10
878.2164074431888
 20
1793.745878730053
 30
0.0
 11
882.7367154569058
 21
1789.225570716336
 31
0.0
  0
LINE
  5
1DA
330
145
100
AcDbEntity
  8
P-SANR-FIXT
100
AcDbLine
 10
882.7367154569058
 20
1823.26618674377
 30
0.0
 11
878.2164074431888
 21
1818.745878730053
 31
0.0
  0
LINE
  5
1DB
330
145
100
AcDbEntity
  8
P-SANR-FIXT
100
AcDbLine
 10
772.7664074431879
 20
1806.245878730052
 30
0.0
 11
772.7664074431879
 21
1804.798670730389
 31
0.0
  0
SPLINE
  5
1DC
330
145
100
AcDbEntity
  8
P-SANR-FIXT
100
AcDbSpline
210
0.0
220
0.0
230
1.0
 70
     8
 71
     3
 72
    10
 73
     6
 74
     0
 42
0.000000001
 43
0.0000000001
 40
-1.0
 40
-1.0
 40
-1.0
 40
-1.0
 40
-0.6666666666666666
 40
-0.3333333333333333
 40
0.0
 40
0.0
 40
0.0
 40
0.0
 10
772.7664074431875
 20
1804.798670730389
 30
0.0
 10
773.5751138458876
 20
1803.283250124742
 30
0.0
 10
774.6536270658737
 20
1800.215835021111
 30
0.0
 10
774.6739774668522
 20
1795.343296708414
 30
0.0
 10
773.584039460352
 20
1792.237382022257
 30
0.0
 10
772.7664074431875
 20
1790.693086729716
 30
0.0
  0
LINE
  5
1DD
330
145
100
AcDbEntity
  8
P-SANR-FIXT
100
AcDbLine
 10
772.7664074431875
 20
1790.693086729716
 30
0.0
 11
772.7664074431875
 21
1789.245878730052
 31
0.0
  0
SPLINE
  5
1DE
330
145
100
AcDbEntity
  8
P-SANR-FIXT
100
AcDbSpline
210
0.0
220
0.0
230
1.0
 70
    24
 71
     3
 72
     9
 73
     5
 74
     0
 42
0.000000001
 43
0.0000000001
 40
-1.0
 40
-1.0
 40
-1.0
 40
-1.0
 40
-0.6666666666666666
 40
-0.4444444444444445
 40
-0.4444444444444445
 40
-0.4444444444444445
 40
-0.4444444444444445
 10
772.7664074431875
 20
1789.245878730052
 30
0.0
 10
773.5751138458876
 20
1789.245878730052
 30
0.0
 10
774.4738748625429
 20
1789.245878730052
 30
0.0
 10
774.633089847253
 20
1789.245878730052
 30
0.0
 10
774.5755922793973
 20
1789.245878730052
 30
0.0
  0
SPLINE
  5
1DF
330
145
100
AcDbEntity
  8
P-SANR-FIXT
100
AcDbSpline
210
0.0
220
0.0
230
1.0
 70
    24
 71
     3
 72
     9
 73
     5
 74
     0
 42
0.000000001
 43
0.0000000001
 40
-0.5555555555555556
 40
-0.5555555555555556
 40
-0.5555555555555556
 40
-0.5555555555555556
 40
-0.3333333333333333
 40
0.0
 40
0.0
 40
0.0
 40
0.0
 10
774.5713079844546
 20
1823.245878730052
 30
0.0
 10
774.6342799291816
 20
1823.245878730052
 30
0.0
 10
774.4923211324356
 20
1823.245878730052
 30
0.0
 10
773.584039460352
 20
1823.245878730052
 30
0.0
 10
772.7664074431875
 20
1823.245878730052
 30
0.0
  0
LINE
  5
1E0
330
145
100
AcDbEntity
  8
P-SANR-FIXT
100
AcDbLine
 10
772.7664074431875
 20
1823.245878730052
 30
0.0
 11
772.7664074431875
 21
1821.798670730388
 31
0.0
  0
SPLINE
  5
1E1
330
145
100
AcDbEntity
  8
P-SANR-FIXT
100
AcDbSpline
210
0.0
220
0.0
230
1.0
 70
     8
 71
     3
 72
    10
 73
     6
 74
     0
 42
0.000000001
 43
0.0000000001
 40
-1.0
 40
-1.0
 40
-1.0
 40
-1.0
 40
-0.6666666666666666
 40
-0.3333333333333333
 40
0.0
 40
0.0
 40
0.0
 40
0.0
 10
772.7664074431875
 20
1821.798670730388
 30
0.0
 10
773.5751138458876
 20
1820.283250124742
 30
0.0
 10
774.6536270658737
 20
1817.215835021111
 30
0.0
 10
774.6739774668522
 20
1812.343296708414
 30
0.0
 10
773.584039460352
 20
1809.237382022257
 30
0.0
 10
772.7664074431875
 20
1807.693086729716
 30
0.0
  0
LINE
  5
1E2
330
145
100
AcDbEntity
  8
P-SANR-FIXT
100
AcDbLine
 10
772.7664074431875
 20
1807.693086729716
 30
0.0
 11
772.7664074431875
 21
1806.245878730052
 31
0.0
  0
LINE
  5
1E3
330
145
100
AcDbEntity
  8
P-SANR-FIXT
100
AcDbLine
 10
884.5664074431876
 20
1806.245878730052
 30
0.0
 11
884.5664074431876
 21
1804.798670730388
 31
0.0
  0
LINE
  5
1E4
330
145
100
AcDbEntity
  8
P-SANR-FIXT
100
AcDbLine
 10
884.566407443188
 20
1804.798670730388
 30
0.0
 11
901.1664074431877
 21
1804.798670730388
 31
0.0
  0
LINE
  5
1E5
330
145
100
AcDbEntity
  8
P-SANR-FIXT
100
AcDbLine
 10
884.566407443188
 20
1790.693086729716
 30
0.0
 11
884.566407443188
 21
1789.245878730052
 31
0.0
  0
LINE
  5
1E6
330
145
100
AcDbEntity
  8
P-SANR-FIXT
100
AcDbLine
 10
884.566407443188
 20
1789.245878730052
 30
0.0
 11
901.1664074431877
 21
1789.245878730052
 31
0.0
  0
LINE
  5
1E7
330
145
100
AcDbEntity
  8
P-SANR-FIXT
100
AcDbLine
 10
901.1664074431877
 20
1790.693086729716
 30
0.0
 11
884.566407443188
 21
1790.693086729716
 31
0.0
  0
LINE
  5
1E8
330
145
100
AcDbEntity
  8
P-SANR-FIXT
100
AcDbLine
 10
901.1664074431877
 20
1807.693086729717
 30
0.0
 11
884.566407443188
 21
1807.693086729717
 31
0.0
  0
LINE
  5
1E9
330
145
100
AcDbEntity
  8
P-SANR-FIXT
100
AcDbLine
 10
884.566407443188
 20
1807.693086729716
 30
0.0
 11
884.566407443188
 21
1806.245878730052
 31
0.0
  0
LINE
  5
1EA
330
145
100
AcDbEntity
  8
P-SANR-FIXT
100
AcDbLine
 10
884.566407443188
 20
1823.245878730052
 30
0.0
 11
884.566407443188
 21
1821.798670730388
 31
0.0
  0
LINE
  5
1EB
330
145
100
AcDbEntity
  8
P-SANR-FIXT
100
AcDbLine
 10
884.566407443188
 20
1821.798670730388
 30
0.0
 11
901.1664074431877
 21
1821.798670730388
 31
0.0
  0
LINE
  5
1EC
330
145
100
AcDbEntity
  8
P-SANR-FIXT
100
AcDbLine
 10
901.1664074431877
 20
1823.245878730052
 30
0.0
 11
884.566407443188
 21
1823.245878730052
 31
0.0
  0
LINE
  5
1ED
330
145
100
AcDbEntity
  8
P-SANR-FIXT
100
AcDbLine
 10
901.1664074431877
 20
1804.798670730388
 30
0.0
 11
901.1664074431877
 21
1806.245878730052
 31
0.0
  0
LINE
  5
1EE
330
145
100
AcDbEntity
  8
P-SANR-FIXT
100
AcDbLine
 10
901.1664074431877
 20
1804.798670730388
 30
0.0
 11
901.1664074431877
 21
1790.693086729716
 31
0.0
  0
LINE
  5
1EF
330
145
100
AcDbEntity
  8
P-SANR-FIXT
100
AcDbLine
 10
901.1664074431877
 20
1789.245878730052
 30
0.0
 11
901.1664074431877
 21
1790.693086729716
 31
0.0
  0
LINE
  5
1F0
330
145
100
AcDbEntity
  8
P-SANR-FIXT
100
AcDbLine
 10
901.1664074431877
 20
1821.798670730388
 30
0.0
 11
901.1664074431877
 21
1823.245878730052
 31
0.0
  0
LINE
  5
1F1
330
145
100
AcDbEntity
  8
P-SANR-FIXT
100
AcDbLine
 10
901.1664074431877
 20
1821.798670730388
 30
0.0
 11
901.1664074431877
 21
1807.693086729716
 31
0.0
  0
LINE
  5
1F2
330
145
100
AcDbEntity
  8
P-SANR-FIXT
100
AcDbLine
 10
901.1664074431877
 20
1806.245878730052
 30
0.0
 11
901.1664074431877
 21
1807.693086729716
 31
0.0
  0
LINE
  5
1F3
330
145
100
AcDbEntity
  8
P-SANR-FIXT
100
AcDbLine
 10
756.1664074431878
 20
1790.693086729716
 30
0.0
 11
756.1664074431878
 21
1804.798670730389
 31
0.0
  0
LINE
  5
1F4
330
145
100
AcDbEntity
  8
P-SANR-FIXT
100
AcDbLine
 10
756.1664074431878
 20
1807.693086729716
 30
0.0
 11
756.1664074431878
 21
1821.798670730388
 31
0.0
  0
LINE
  5
1F5
330
145
100
AcDbEntity
  8
P-SANR-FIXT
100
AcDbLine
 10
756.1664074431878
 20
1804.798670730388
 30
0.0
 11
756.1664074431878
 21
1806.245878730052
 31
0.0
  0
LINE
  5
1F6
330
145
100
AcDbEntity
  8
P-SANR-FIXT
100
AcDbLine
 10
756.1664074431878
 20
1804.798670730389
 30
0.0
 11
772.7664074431875
 21
1804.798670730389
 31
0.0
  0
LINE
  5
1F7
330
145
100
AcDbEntity
  8
P-SANR-FIXT
100
AcDbLine
 10
756.1664074431878
 20
1789.245878730052
 30
0.0
 11
756.1664074431878
 21
1790.693086729716
 31
0.0
  0
LINE
  5
1F8
330
145
100
AcDbEntity
  8
P-SANR-FIXT
100
AcDbLine
 10
756.1664074431878
 20
1789.245878730052
 30
0.0
 11
772.7664074431875
 21
1789.245878730052
 31
0.0
  0
LINE
  5
1F9
330
145
100
AcDbEntity
  8
P-SANR-FIXT
100
AcDbLine
 10
772.7664074431875
 20
1790.693086729716
 30
0.0
 11
756.1664074431878
 21
1790.693086729716
 31
0.0
  0
LINE
  5
1FA
330
145
100
AcDbEntity
  8
P-SANR-FIXT
100
AcDbLine
 10
772.7664074431875
 20
1807.693086729716
 30
0.0
 11
756.1664074431878
 21
1807.693086729716
 31
0.0
  0
LINE
  5
1FB
330
145
100
AcDbEntity
  8
P-SANR-FIXT
100
AcDbLine
 10
756.1664074431878
 20
1806.245878730052
 30
0.0
 11
756.1664074431878
 21
1807.693086729716
 31
0.0
  0
LINE
  5
1FC
330
145
100
AcDbEntity
  8
P-SANR-FIXT
100
AcDbLine
 10
756.1664074431878
 20
1821.798670730388
 30
0.0
 11
756.1664074431878
 21
1823.245878730052
 31
0.0
  0
LINE
  5
1FD
330
145
100
AcDbEntity
  8
P-SANR-FIXT
100
AcDbLine
 10
756.1664074431878
 20
1821.798670730388
 30
0.0
 11
772.7664074431875
 21
1821.798670730388
 31
0.0
  0
LINE
  5
1FE
330
145
100
AcDbEntity
  8
P-SANR-FIXT
100
AcDbLine
 10
772.7664074431875
 20
1823.245878730052
 30
0.0
 11
756.1664074431878
 21
1823.245878730052
 31
0.0
  0
LINE
  5
1FF
330
145
100
AcDbEntity
  8
P-SANR-FIXT
100
AcDbLine
 10
776.1852102552373
 20
1790.814681542101
 30
0.0
 11
776.1852102552373
 21
1801.714085232798
 31
0.0
  0
LINE
  5
200
330
145
100
AcDbEntity
  8
P-SANR-FIXT
100
AcDbLine
 10
776.1852102552375
 20
1810.777672227306
 30
0.0
 11
776.1852102552375
 21
1821.677075918003
 31
0.0
  0
LINE
  5
201
330
145
100
AcDbEntity
  8
P-SANR-FIXT
100
AcDbLine
 10
779.6852102552374
 20
1790.815074331119
 30
0.0
 11
779.6852102552374
 21
1796.182091711182
 31
0.0
  0
LINE
  5
202
330
145
100
AcDbEntity
  8
P-SANR-FIXT
100
AcDbLine
 10
779.6852102552374
 20
1816.309665748923
 30
0.0
 11
779.6852102552374
 21
1821.676683128985
 31
0.0
  0
LINE
  5
203
330
145
100
AcDbEntity
  8
P-SANR-FIXT
100
AcDbLine
 10
781.7164074431878
 20
1792.845878730052
 30
0.0
 11
781.7164074431878
 21
1794.547581366143
 31
0.0
  0
LINE
  5
204
330
145
100
AcDbEntity
  8
P-SANR-FIXT
100
AcDbLine
 10
781.7164074431878
 20
1817.944176093962
 30
0.0
 11
781.7164074431878
 21
1819.645878730053
 31
0.0
  0
LINE
  5
205
330
145
100
AcDbEntity
  8
P-SANR-FIXT
100
AcDbLine
 10
797.7664074431879
 20
1792.853035479742
 30
0.0
 11
797.7664074431879
 21
1795.014289907232
 31
0.0
  0
LINE
  5
206
330
145
100
AcDbEntity
  8
P-SANR-FIXT
100
AcDbLine
 10
797.7664074431879
 20
1817.477467552872
 30
0.0
 11
797.7664074431879
 21
1819.638721980362
 31
0.0
  0
SPLINE
  5
207
330
145
100
AcDbEntity
  8
P-SANR-FIXT
100
AcDbSpline
210
0.0
220
0.0
230
1.0
 70
     8
 71
     3
 72
    10
 73
     6
 74
     0
 42
0.000000001
 43
0.0000000001
 40
-0.4333333333333334
 40
-0.4333333333333334
 40
-0.4333333333333334
 40
-0.4333333333333334
 40
-0.425
 40
-0.4125
 40
-0.4
 40
-0.4
 40
-0.4
 40
-0.4
 10
867.988225007835
 20
1795.708087132855
 30
0.0
 10
868.0539554294888
 20
1795.688054318925
 30
0.0
 10
868.2192782501534
 20
1795.639694425972
 30
0.0
 10
868.4878861294404
 20
1795.569690339385
 30
0.0
 10
868.692495691552
 20
1795.525126590153
 30
0.0
 10
868.7962248914827
 20
1795.504266436192
 30
0.0
  0
SPLINE
  5
208
330
145
100
AcDbEntity
  8
P-SANR-FIXT
100
AcDbSpline
210
0.0
220
0.0
230
1.0
 70
     8
 71
     3
 72
     8
 73
     4
 74
     0
 42
0.000000001
 43
0.0000000001
 40
-0.3666666666666667
 40
-0.3666666666666667
 40
-0.3666666666666667
 40
-0.3666666666666667
 40
-0.3637452674564222
 40
-0.3637452674564222
 40
-0.3637452674564222
 40
-0.3637452674564222
 10
869.6573123508342
 20
1795.361054718378
 30
0.0
 10
869.6832287108087
 20
1795.357566891844
 30
0.0
 10
869.7091929638201
 20
1795.35414775317
 30
0.0
 10
869.7352009311916
 20
1795.350798876014
 30
0.0
  0
SPLINE
  5
209
330
145
100
AcDbEntity
  8
P-SANR-FIXT
100
AcDbSpline
210
0.0
220
0.0
230
1.0
 70
     8
 71
     3
 72
     9
 73
     5
 74
     0
 42
0.000000001
 43
0.0000000001
 40
-0.3333333333333334
 40
-0.3333333333333334
 40
-0.3333333333333334
 40
-0.3333333333333334
 40
-0.325
 40
-0.3
 40
-0.3
 40
-0.3
 40
-0.3
 10
870.5564138953903
 20
1795.270850472699
 30
0.0
 10
870.6316473735611
 20
1795.265966890315
 30
0.0
 10
870.9320701103241
 20
1795.249272318816
 30
0.0
 10
871.2278600350852
 20
1795.244560669126
 30
0.0
 10
871.4486027943744
 20
1795.249499062918
 30
0.0
  0
SPLINE
  5
20A
330
145
100
AcDbEntity
  8
P-SANR-FIXT
100
AcDbSpline
210
0.0
220
0.0
230
1.0
 70
     8
 71
     3
 72
     9
 73
     5
 74
     0
 42
0.000000001
 43
0.0000000001
 40
-0.2666666666666667
 40
-0.2666666666666667
 40
-0.2666666666666667
 40
-0.2666666666666667
 40
-0.25
 40
-0.2333333333333334
 40
-0.2333333333333334
 40
-0.2333333333333334
 40
-0.2333333333333334
 10
872.3308513661859
 20
1795.311626076994
 30
0.0
 10
872.4783039683897
 20
1795.328549770423
 30
0.0
 10
872.7731754608525
 20
1795.368399731488
 30
0.0
 10
873.0637152146854
 20
1795.418334609986
 30
0.0
 10
873.2073389947826
 20
1795.445410440619
 30
0.0
  0
SPLINE
  5
20B
330
145
100
AcDbEntity
  8
P-SANR-FIXT
100
AcDbSpline
210
0.0
220
0.0
230
1.0
 70
     8
 71
     3
 72
     8
 73
     4
 74
     0
 42
0.000000001
 43
0.0000000001
 40
-0.2012224866747043
 40
-0.2012224866747043
 40
-0.2012224866747043
 40
-0.2012224866747043
 40
-0.2
 40
-0.2
 40
-0.2
 40
-0.2
 10
874.0142502138725
 20
1795.621490607435
 30
0.0
 10
874.0241444838577
 20
1795.623951772799
 30
0.0
 10
874.0340254070192
 20
1795.626423936588
 30
0.0
 10
874.0438931136024
 20
1795.628907588688
 30
0.0
  0
SPLINE
  5
20C
330
145
100
AcDbEntity
  8
P-SANR-FIXT
100
AcDbSpline
210
0.0
220
0.0
230
1.0
 70
     8
 71
     3
 72
     9
 73
     5
 74
     0
 42
0.000000001
 43
0.0000000001
 40
-0.1666666666666667
 40
-0.1666666666666667
 40
-0.1666666666666667
 40
-0.1666666666666667
 40
-0.15
 40
-0.1333333333333334
 40
-0.1333333333333334
 40
-0.1333333333333334
 40
-0.1333333333333334
 10
874.8279087398785
 20
1795.865762347896
 30
0.0
 10
874.9551207017209
 20
1795.910912727779
 30
0.0
 10
875.2062415734661
 20
1796.006364049259
 30
0.0
 10
875.4511082852337
 20
1796.111286870884
 30
0.0
 10
875.5721990403811
 20
1796.16541847122
 30
0.0
  0
SPLINE
  5
20D
330
145
100
AcDbEntity
  8
P-SANR-FIXT
100
AcDbSpline
210
0.0
220
0.0
230
1.0
 70
     8
 71
     3
 72
     9
 73
     5
 74
     0
 42
0.000000001
 43
0.0000000001
 40
-0.1
 40
-0.1
 40
-0.1
 40
-0.1
 40
-0.075
 40
-0.0666666666666668
 40
-0.0666666666666668
 40
-0.0666666666666668
 40
-0.0666666666666668
 10
876.2827578611874
 20
1796.508170662943
 30
0.0
 10
876.4564577542847
 20
1796.598094033395
 30
0.0
 10
876.6831472390746
 20
1796.723683530703
 30
0.0
 10
876.906800629627
 20
1796.853702798478
 30
0.0
 10
876.9622703638455
 20
1796.886882247797
 30
0.0
  0
SPLINE
  5
20E
330
145
100
AcDbEntity
  8
P-SANR-FIXT
100
AcDbSpline
210
0.0
220
0.0
230
1.0
 70
     8
 71
     3
 72
     8
 73
     4
 74
     0
 42
0.000000001
 43
0.0000000001
 40
-0.0333333333333334
 40
-0.0333333333333334
 40
-0.0333333333333334
 40
-0.0333333333333334
 40
0.0
 40
0.0
 40
0.0
 40
0.0
 10
877.605757863898
 20
1797.318811387082
 30
0.0
 10
877.8149556847575
 20
1797.470875071786
 30
0.0
 10
878.0185138877198
 20
1797.631745240936
 30
0.0
 10
878.2164074431872
 20
1797.802094033602
 30
0.0
  0
SPLINE
  5
20F
330
145
100
AcDbEntity
  8
P-SANR-FIXT
100
AcDbSpline
210
0.0
220
0.0
230
1.0
 70
     8
 71
     3
 72
     9
 73
     5
 74
     0
 42
0.000000001
 43
0.0000000001
 40
0.840066344083003
 40
0.840066344083003
 40
0.840066344083003
 40
0.840066344083003
 40
0.861111111111111
 40
0.8888888888888889
 40
0.8888888888888889
 40
0.8888888888888889
 40
0.8888888888888889
 10
806.1568170718302
 20
1800.709351850299
 30
0.0
 10
806.0334162166109
 20
1800.918530658019
 30
0.0
 10
805.7618704526882
 20
1801.417161969856
 30
0.0
 10
805.5328657903901
 20
1801.939441113598
 30
0.0
 10
805.4196745374554
 20
1802.245320674158
 30
0.0
  0
SPLINE
  5
210
330
145
100
AcDbEntity
  8
P-SANR-FIXT
100
AcDbSpline
210
0.0
220
0.0
230
1.0
 70
     8
 71
     3
 72
     8
 73
     4
 74
     0
 42
0.000000001
 43
0.0000000001
 40
0.9166666666666666
 40
0.9166666666666666
 40
0.9166666666666666
 40
0.9166666666666666
 40
0.9326766970914279
 40
0.9326766970914279
 40
0.9326766970914279
 40
0.9326766970914279
 10
805.1176846299165
 20
1803.183659012161
 30
0.0
 10
805.0671378295648
 20
1803.368316949467
 30
0.0
 10
805.017207966755
 20
1803.553960207662
 30
0.0
 10
804.9738917110186
 20
1803.743084128704
 30
0.0
  0
LINE
  5
211
330
145
100
AcDbEntity
  8
P-SANR-FIXT
100
AcDbLine
 10
798.6664074431883
 20
1793.760083865403
 30
0.0
 11
798.6664074431883
 21
1795.748714264016
 31
0.0
  0
LINE
  5
212
330
145
100
AcDbEntity
  8
P-SANR-FIXT
100
AcDbLine
 10
798.6664074431883
 20
1816.743043196088
 30
0.0
 11
798.6664074431883
 21
1818.731673594701
 31
0.0
  0
SPLINE
  5
213
330
145
100
AcDbEntity
  8
P-SANR-FIXT
100
AcDbSpline
210
0.0
220
0.0
230
1.0
 70
     8
 71
     3
 72
     8
 73
     4
 74
     0
 42
0.000000001
 43
0.0000000001
 40
0.0673233029085716
 40
0.0673233029085716
 40
0.0673233029085716
 40
0.0673233029085716
 40
0.0833333333333333
 40
0.0833333333333333
 40
0.0833333333333333
 40
0.0833333333333333
 10
804.9782056575324
 20
1808.746698599064
 30
0.0
 10
805.0206023249105
 20
1808.936243466648
 30
0.0
 10
805.0671378295648
 20
1809.123440510638
 30
0.0
 10
805.1176846299165
 20
1809.308098447944
 30
0.0
  0
SPLINE
  5
214
330
145
100
AcDbEntity
  8
P-SANR-FIXT
100
AcDbSpline
210
0.0
220
0.0
230
1.0
 70
     8
 71
     3
 72
     9
 73
     5
 74
     0
 42
0.000000001
 43
0.0000000001
 40
0.1111111111111111
 40
0.1111111111111111
 40
0.1111111111111111
 40
0.1111111111111111
 40
0.1388888888888889
 40
0.1599336559169792
 40
0.1599336559169792
 40
0.1599336559169792
 40
0.1599336559169792
 10
805.4196745374554
 20
1810.246436785946
 30
0.0
 10
805.5341894513224
 20
1810.551646920073
 30
0.0
 10
805.761369042241
 20
1811.074849072868
 30
0.0
 10
806.0334162166107
 20
1811.573226802085
 30
0.0
 10
806.1568170718299
 20
1811.782405609805
 30
0.0
  0
SPLINE
  5
215
330
145
100
AcDbEntity
  8
P-SANR-FIXT
100
AcDbSpline
210
0.0
220
0.0
230
1.0
 70
     8
 71
     3
 72
    10
 73
     6
 74
     0
 42
0.000000001
 43
0.0000000001
 40
0.5666666666666666
 40
0.5666666666666666
 40
0.5666666666666666
 40
0.5666666666666666
 40
0.575
 40
0.5875
 40
0.6
 40
0.6
 40
0.6
 40
0.6
 10
867.9882250078728
 20
1816.783670327262
 30
0.0
 10
868.0539554295128
 20
1816.803703141187
 30
0.0
 10
868.2192782501365
 20
1816.852063034126
 30
0.0
 10
868.4878861294457
 20
1816.922067120721
 30
0.0
 10
868.6924956915529
 20
1816.966630869952
 30
0.0
 10
868.7962248914827
 20
1816.987491023912
 30
0.0
  0
SPLINE
  5
216
330
145
100
AcDbEntity
  8
P-SANR-FIXT
100
AcDbSpline
210
0.0
220
0.0
230
1.0
 70
     8
 71
     3
 72
     8
 73
     4
 74
     0
 42
0.000000001
 43
0.0000000001
 40
0.6333333333333333
 40
0.6333333333333333
 40
0.6333333333333333
 40
0.6333333333333333
 40
0.6362547325435778
 40
0.6362547325435778
 40
0.6362547325435778
 40
0.6362547325435778
 10
869.6573123508342
 20
1817.130702741726
 30
0.0
 10
869.6832287108087
 20
1817.134190568261
 30
0.0
 10
869.7091929638201
 20
1817.137609706935
 30
0.0
 10
869.7352009311916
 20
1817.14095858409
 30
0.0
  0
SPLINE
  5
217
330
145
100
AcDbEntity
  8
P-SANR-FIXT
100
AcDbSpline
210
0.0
220
0.0
230
1.0
 70
     8
 71
     3
 72
     9
 73
     5
 74
     0
 42
0.000000001
 43
0.0000000001
 40
0.6666666666666666
 40
0.6666666666666666
 40
0.6666666666666666
 40
0.6666666666666666
 40
0.675
 40
0.7
 40
0.7
 40
0.7
 40
0.7
 10
870.5564138953903
 20
1817.220906987405
 30
0.0
 10
870.6316473735611
 20
1817.225790569789
 30
0.0
 10
870.9320701103241
 20
1817.242485141289
 30
0.0
 10
871.2278600350851
 20
1817.247196790978
 30
0.0
 10
871.4486027943744
 20
1817.242258397187
 30
0.0
  0
SPLINE
  5
218
330
145
100
AcDbEntity
  8
P-SANR-FIXT
100
AcDbSpline
210
0.0
220
0.0
230
1.0
 70
     8
 71
     3
 72
     9
 73
     5
 74
     0
 42
0.000000001
 43
0.0000000001
 40
0.7333333333333333
 40
0.7333333333333333
 40
0.7333333333333333
 40
0.7333333333333333
 40
0.75
 40
0.7666666666666666
 40
0.7666666666666666
 40
0.7666666666666666
 40
0.7666666666666666
 10
872.3308513661859
 20
1817.180131383111
 30
0.0
 10
872.4783039683897
 20
1817.163207689681
 30
0.0
 10
872.7731754608525
 20
1817.123357728616
 30
0.0
 10
873.0637152146854
 20
1817.073422850119
 30
0.0
 10
873.2073389947826
 20
1817.046347019485
 30
0.0
  0
SPLINE
  5
219
330
145
100
AcDbEntity
  8
P-SANR-FIXT
100
AcDbSpline
210
0.0
220
0.0
230
1.0
 70
     8
 71
     3
 72
     8
 73
     4
 74
     0
 42
0.000000001
 43
0.0000000001
 40
0.7987775133253026
 40
0.7987775133253026
 40
0.7987775133253026
 40
0.7987775133253026
 40
0.8
 40
0.8
 40
0.8
 40
0.8
 10
874.0142502138727
 20
1816.87026685267
 30
0.0
 10
874.0241444838579
 20
1816.867805687305
 30
0.0
 10
874.0340254070193
 20
1816.865333523517
 30
0.0
 10
874.0438931136024
 20
1816.862849871417
 30
0.0
  0
SPLINE
  5
21A
330
145
100
AcDbEntity
  8
P-SANR-FIXT
100
AcDbSpline
210
0.0
220
0.0
230
1.0
 70
     8
 71
     3
 72
     9
 73
     5
 74
     0
 42
0.000000001
 43
0.0000000001
 40
0.8333333333333332
 40
0.8333333333333332
 40
0.8333333333333332
 40
0.8333333333333332
 40
0.85
 40
0.8666666666666666
 40
0.8666666666666666
 40
0.8666666666666666
 40
0.8666666666666666
 10
874.8279087398785
 20
1816.625995112208
 30
0.0
 10
874.9551207017209
 20
1816.580844732325
 30
0.0
 10
875.2062415734659
 20
1816.485393410846
 30
0.0
 10
875.4511082852337
 20
1816.380470589221
 30
0.0
 10
875.5721990403809
 20
1816.326338988884
 30
0.0
  0
SPLINE
  5
21B
330
145
100
AcDbEntity
  8
P-SANR-FIXT
100
AcDbSpline
210
0.0
220
0.0
230
1.0
 70
     8
 71
     3
 72
     9
 73
     5
 74
     0
 42
0.000000001
 43
0.0000000001
 40
0.9
 40
0.9
 40
0.9
 40
0.9
 40
0.925
 40
0.9333333333333332
 40
0.9333333333333332
 40
0.9333333333333332
 40
0.9333333333333332
 10
876.2827578611872
 20
1815.983586797161
 30
0.0
 10
876.4564577542847
 20
1815.893663426709
 30
0.0
 10
876.6831472390746
 20
1815.768073929401
 30
0.0
 10
876.906800629627
 20
1815.638054661626
 30
0.0
 10
876.9622703638455
 20
1815.604875212307
 30
0.0
  0
SPLINE
  5
21C
330
145
100
AcDbEntity
  8
P-SANR-FIXT
100
AcDbSpline
210
0.0
220
0.0
230
1.0
 70
     8
 71
     3
 72
     8
 73
     4
 74
     0
 42
0.000000001
 43
0.0000000001
 40
0.9666666666666666
 40
0.9666666666666666
 40
0.9666666666666666
 40
0.9666666666666666
 40
1.0
 40
1.0
 40
1.0
 40
1.0
 10
877.605757863898
 20
1815.172946073022
 30
0.0
 10
877.8149556847575
 20
1815.020882388318
 30
0.0
 10
878.0185138877198
 20
1814.860012219168
 30
0.0
 10
878.2164074431872
 20
1814.689663426503
 30
0.0
  0
SPLINE
  5
21D
330
145
100
AcDbEntity
  8
P-SANR-FIXT
100
AcDbSpline
210
0.0
220
0.0
230
1.0
 70
    24
 71
     3
 72
     9
 73
     5
 74
     0
 42
0.000000001
 43
0.0000000001
 40
-0.5555555555555556
 40
-0.5555555555555556
 40
-0.5555555555555556
 40
-0.5555555555555556
 40
-0.3333333333333333
 40
0.0
 40
0.0
 40
0.0
 40
0.0
 10
882.7615069019207
 20
1789.245878730052
 30
0.0
 10
882.6985349571938
 20
1789.245878730052
 30
0.0
 10
882.8404937539399
 20
1789.245878730052
 30
0.0
 10
883.7487754260235
 20
1789.245878730052
 30
0.0
 10
884.566407443188
 20
1789.245878730052
 30
0.0
  0
SPLINE
  5
21E
330
145
100
AcDbEntity
  8
P-SANR-FIXT
100
AcDbSpline
210
0.0
220
0.0
230
1.0
 70
     8
 71
     3
 72
    10
 73
     6
 74
     0
 42
0.000000001
 43
0.0000000001
 40
-1.0
 40
-1.0
 40
-1.0
 40
-1.0
 40
-0.6666666666666666
 40
-0.3333333333333333
 40
0.0
 40
0.0
 40
0.0
 40
0.0
 10
884.566407443188
 20
1790.693086729716
 30
0.0
 10
883.7577010404878
 20
1792.208507335362
 30
0.0
 10
882.6791878205019
 20
1795.275922438993
 30
0.0
 10
882.6588374195235
 20
1800.148460751691
 30
0.0
 10
883.7487754260237
 20
1803.254375437847
 30
0.0
 10
884.566407443188
 20
1804.798670730388
 30
0.0
  0
SPLINE
  5
21F
330
145
100
AcDbEntity
  8
P-SANR-FIXT
100
AcDbSpline
210
0.0
220
0.0
230
1.0
 70
     8
 71
     3
 72
     9
 73
     5
 74
     0
 42
0.000000001
 43
0.0000000001
 40
0.0833333333333333
 40
0.0833333333333333
 40
0.0833333333333333
 40
0.0833333333333333
 40
0.125
 40
0.1666666666666666
 40
0.1666666666666666
 40
0.1666666666666666
 40
0.1666666666666666
 10
878.6304818236507
 20
1798.165791539301
 30
0.0
 10
878.7006445803404
 20
1798.230607771074
 30
0.0
 10
878.8419739400048
 20
1798.364561915469
 30
0.0
 10
878.9848714553805
 20
1798.50752451547
 30
0.0
 10
879.0565498800246
 20
1798.581312040342
 30
0.0
  0
SPLINE
  5
220
330
145
100
AcDbEntity
  8
P-SANR-FIXT
100
AcDbSpline
210
0.0
220
0.0
230
1.0
 70
     8
 71
     3
 72
     9
 73
     5
 74
     0
 42
0.000000001
 43
0.0000000001
 40
0.25
 40
0.25
 40
0.25
 40
0.25
 40
0.3125
 40
0.3333333333333333
 40
0.3333333333333333
 40
0.3333333333333333
 40
0.3333333333333333
 10
879.4880774555922
 20
1799.052144775794
 30
0.0
 10
879.5959988652157
 20
1799.176988074041
 30
0.0
 10
879.7396088408413
 20
1799.350689152325
 30
0.0
 10
879.8818410376197
 20
1799.53434508869
 30
0.0
 10
879.9173004031748
 20
1799.580901195868
 30
0.0
  0
SPLINE
  5
221
330
145
100
AcDbEntity
  8
P-SANR-FIXT
100
AcDbSpline
210
0.0
220
0.0
230
1.0
 70
     8
 71
     3
 72
     9
 73
     5
 74
     0
 42
0.000000001
 43
0.0000000001
 40
0.4166666666666666
 40
0.4166666666666666
 40
0.4166666666666666
 40
0.4166666666666666
 40
0.4375
 40
0.5
 40
0.5
 40
0.5
 40
0.5
 10
880.3372211583509
 20
1800.171654766007
 30
0.0
 10
880.3716647751263
 20
1800.223657972462
 30
0.0
 10
880.5087930047944
 20
1800.434540520878
 30
0.0
 10
880.6430352469424
 20
1800.657184518765
 30
0.0
 10
880.7413956918988
 20
1800.831121114328
 30
0.0
  0
SPLINE
  5
222
330
145
100
AcDbEntity
  8
P-SANR-FIXT
100
AcDbSpline
210
0.0
220
0.0
230
1.0
 70
     8
 71
     3
 72
     9
 73
     5
 74
     0
 42
0.000000001
 43
0.0000000001
 40
0.5833333333333333
 40
0.5833333333333333
 40
0.5833333333333333
 40
0.5833333333333333
 40
0.625
 40
0.6666666666666666
 40
0.6666666666666666
 40
0.6666666666666666
 40
0.6666666666666666
 10
881.1199080111656
 20
1801.563163897125
 30
0.0
 10
881.1801339465745
 20
1801.691179292873
 30
0.0
 10
881.2973570288543
 20
1801.953217971124
 30
0.0
 10
881.4071390354346
 20
1802.227088717671
 30
0.0
 10
881.4598449099959
 20
1802.366963632356
 30
0.0
  0
SPLINE
  5
223
330
145
100
AcDbEntity
  8
P-SANR-FIXT
100
AcDbSpline
210
0.0
220
0.0
230
1.0
 70
     8
 71
     3
 72
     8
 73
     4
 74
     0
 42
0.000000001
 43
0.0000000001
 40
0.75
 40
0.75
 40
0.75
 40
0.75
 40
0.7639370438977119
 40
0.7639370438977119
 40
0.7639370438977119
 40
0.7639370438977119
 10
881.7479572607474
 20
1803.240749205639
 30
0.0
 10
881.7623292805702
 20
1803.291355094117
 30
0.0
 10
881.776447057647
 20
1803.342239476296
 30
0.0
 10
881.7902343115765
 20
1803.393446239857
 30
0.0
  0
SPLINE
  5
224
330
145
100
AcDbEntity
  8
P-SANR-FIXT
100
AcDbSpline
210
0.0
220
0.0
230
1.0
 70
     8
 71
     3
 72
     9
 73
     5
 74
     0
 42
0.000000001
 43
0.0000000001
 40
0.8333333333333333
 40
0.8333333333333333
 40
0.8333333333333333
 40
0.8333333333333333
 40
0.875
 40
0.9166666666666667
 40
0.9166666666666667
 40
0.9166666666666667
 40
0.9166666666666667
 10
881.970981918382
 20
1804.181613704834
 30
0.0
 10
882.0019752688013
 20
1804.343832793303
 30
0.0
 10
882.0615646237461
 20
1804.671366865281
 30
0.0
 10
882.0901625933682
 20
1805.017689855438
 30
0.0
 10
882.1012826591235
 20
1805.192837878125
 30
0.0
  0
LINE
  5
225
330
145
100
AcDbEntity
  8
P-SANR-FIXT
100
AcDbLine
 10
878.2164074431872
 20
1797.818941597603
 30
0.0
 11
878.2164074431872
 21
1797.79169454475
 31
0.0
  0
LINE
  5
226
330
145
100
AcDbEntity
  8
P-SANR-FIXT
100
AcDbLine
 10
878.2164074431872
 20
1793.745878730052
 30
0.0
 11
878.2164074431872
 21
1797.802094033602
 31
0.0
  0
LINE
  5
227
330
145
100
AcDbEntity
  8
P-SANR-FIXT
100
AcDbLine
 10
878.2164074431872
 20
1814.689663426502
 30
0.0
 11
878.2164074431872
 21
1818.745878730052
 31
0.0
  0
LINE
  5
228
330
145
100
AcDbEntity
  8
P-SANR-FIXT
100
AcDbLine
 10
878.2164074431872
 20
1814.700062915355
 30
0.0
 11
878.2164074431872
 21
1814.672815862501
 31
0.0
  0
SPLINE
  5
229
330
145
100
AcDbEntity
  8
P-SANR-FIXT
100
AcDbSpline
210
0.0
220
0.0
230
1.0
 70
     8
 71
     3
 72
     9
 73
     5
 74
     0
 42
0.000000001
 43
0.0000000001
 40
-0.9166666666666666
 40
-0.9166666666666666
 40
-0.9166666666666666
 40
-0.9166666666666666
 40
-0.875
 40
-0.8333333333333333
 40
-0.8333333333333333
 40
-0.8333333333333333
 40
-0.8333333333333333
 10
878.636490137087
 20
1814.320415958367
 30
0.0
 10
878.7074223482161
 20
1814.254791081969
 30
0.0
 10
878.8500713880878
 20
1814.119336996963
 30
0.0
 10
878.9938882337322
 20
1813.975112152158
 30
0.0
 10
879.0659178084895
 20
1813.900778977046
 30
0.0
  0
SPLINE
  5
22A
330
145
100
AcDbEntity
  8
P-SANR-FIXT
100
AcDbSpline
210
0.0
220
0.0
230
1.0
 70
     8
 71
     3
 72
     9
 73
     5
 74
     0
 42
0.000000001
 43
0.0000000001
 40
-0.75
 40
-0.75
 40
-0.75
 40
-0.75
 40
-0.6875
 40
-0.6666666666666668
 40
-0.6666666666666668
 40
-0.6666666666666668
 40
-0.6666666666666668
 10
879.4981826841885
 20
1813.427906391754
 30
0.0
 10
879.6059291636483
 20
1813.302913740348
 30
0.0
 10
879.7489297888661
 20
1813.129426230149
 30
0.0
 10
879.890112452227
 20
1812.946656139934
 30
0.0
 10
879.9252911984101
 20
1812.900353845895
 30
0.0
  0
SPLINE
  5
22B
330
145
100
AcDbEntity
  8
P-SANR-FIXT
100
AcDbSpline
210
0.0
220
0.0
230
1.0
 70
     8
 71
     3
 72
     9
 73
     5
 74
     0
 42
0.000000001
 43
0.0000000001
 40
-0.5833333333333334
 40
-0.5833333333333334
 40
-0.5833333333333334
 40
-0.5833333333333334
 40
-0.5625
 40
-0.5
 40
-0.5
 40
-0.5
 40
-0.5
 10
880.341537001113
 20
1812.31358294426
 30
0.0
 10
880.3756896083015
 20
1812.261939032893
 30
0.0
 10
880.5117034452566
 20
1812.05247106109
 30
0.0
 10
880.6451266467218
 20
1811.831001863273
 30
0.0
 10
880.7430797001755
 20
1811.657657410139
 30
0.0
  0
SPLINE
  5
22C
330
145
100
AcDbEntity
  8
P-SANR-FIXT
100
AcDbSpline
210
0.0
220
0.0
230
1.0
 70
     8
 71
     3
 72
     9
 73
     5
 74
     0
 42
0.000000001
 43
0.0000000001
 40
-0.4166666666666668
 40
-0.4166666666666668
 40
-0.4166666666666668
 40
-0.4166666666666668
 40
-0.375
 40
-0.3333333333333334
 40
-0.3333333333333334
 40
-0.3333333333333334
 40
-0.3333333333333334
 10
881.1205239706877
 20
1810.927283171502
 30
0.0
 10
881.1806322180668
 20
1810.79947399258
 30
0.0
 10
881.2976718033635
 20
1810.537780648654
 30
0.0
 10
881.4073352407785
 20
1810.264163896867
 30
0.0
 10
881.459992320479
 20
1810.124402457639
 30
0.0
  0
SPLINE
  5
22D
330
145
100
AcDbEntity
  8
P-SANR-FIXT
100
AcDbSpline
210
0.0
220
0.0
230
1.0
 70
     8
 71
     3
 72
     8
 73
     4
 74
     0
 42
0.000000001
 43
0.0000000001
 40
-0.25
 40
-0.25
 40
-0.25
 40
-0.25
 40
-0.2360395208337933
 40
-0.2360395208337933
 40
-0.2360395208337933
 40
-0.2360395208337933
 10
881.7479040983402
 20
1809.251195441648
 30
0.0
 10
881.7622930874172
 20
1809.200533351528
 30
0.0
 10
881.7764274722993
 20
1809.14959182121
 30
0.0
 10
881.7902308086535
 20
1809.098325526344
 30
0.0
  0
SPLINE
  5
22E
330
145
100
AcDbEntity
  8
P-SANR-FIXT
100
AcDbSpline
210
0.0
220
0.0
230
1.0
 70
     8
 71
     3
 72
     9
 73
     5
 74
     0
 42
0.000000001
 43
0.0000000001
 40
-0.1666666666666666
 40
-0.1666666666666666
 40
-0.1666666666666666
 40
-0.1666666666666666
 40
-0.125
 40
-0.0833333333333333
 40
-0.0833333333333333
 40
-0.0833333333333333
 40
-0.0833333333333333
 10
881.9708782282154
 20
1808.310686682364
 30
0.0
 10
882.0018751568902
 20
1808.148493148767
 30
0.0
 10
882.0614835027674
 20
1807.820994254831
 30
0.0
 10
882.0900974018851
 20
1807.474563065801
 30
0.0
 10
882.1012255551799
 20
1807.299345998533
 30
0.0
  0
SPLINE
  5
22F
330
145
100
AcDbEntity
  8
P-SANR-FIXT
100
AcDbSpline
210
0.0
220
0.0
230
1.0
 70
     8
 71
     3
 72
    10
 73
     6
 74
     0
 42
0.000000001
 43
0.0000000001
 40
-1.0
 40
-1.0
 40
-1.0
 40
-1.0
 40
-0.6666666666666666
 40
-0.3333333333333333
 40
0.0
 40
0.0
 40
0.0
 40
0.0
 10
884.566407443188
 20
1807.693086729716
 30
0.0
 10
883.7577010404878
 20
1809.208507335363
 30
0.0
 10
882.6791878205019
 20
1812.275922438994
 30
0.0
 10
882.6588374195235
 20
1817.148460751691
 30
0.0
 10
883.7487754260237
 20
1820.254375437847
 30
0.0
 10
884.566407443188
 20
1821.798670730388
 30
0.0
  0
SPLINE
  5
230
330
145
100
AcDbEntity
  8
P-SANR-FIXT
100
AcDbSpline
210
0.0
220
0.0
230
1.0
 70
    24
 71
     3
 72
     9
 73
     5
 74
     0
 42
0.000000001
 43
0.0000000001
 40
-1.0
 40
-1.0
 40
-1.0
 40
-1.0
 40
-0.6666666666666666
 40
-0.4444444444444445
 40
-0.4444444444444445
 40
-0.4444444444444445
 40
-0.4444444444444445
 10
884.566407443188
 20
1823.245878730052
 30
0.0
 10
883.7577010404878
 20
1823.245878730052
 30
0.0
 10
882.8589400238326
 20
1823.245878730052
 30
0.0
 10
882.6997250391224
 20
1823.245878730052
 30
0.0
 10
882.7572226069779
 20
1823.245878730052
 30
0.0
  0
ENDBLK
  5
232
330
145
100
AcDbEntity
  8
0
100
AcDbBlockEnd
  0
BLOCK
  5
293
330
234
100
AcDbEntity
  8
0
100
AcDbBlockBegin
  2
Automatic flow rate regulator valve_Caleffi_121 DN15 - 1_2__-V2-Est - Idraulica
 70
     0
 10
0.0
 20
0.0
 30
0.0
  3
Automatic flow rate regulator valve_Caleffi_121 DN15 - 1_2__-V2-Est - Idraulica
  1

  0
LINE
  5
235
330
234
100
AcDbEntity
  8
M-PIPE
100
AcDbLine
 10
1082.614353943099
 20
2045.482558850073
 30
0.0
 11
1079.748380270171
 21
2045.482558850073
 31
0.0
1001
REVIT
1002
{
1070
     3
1000
790271
1002
}
  0
LINE
  5
236
330
234
100
AcDbEntity
  8
M-PIPE
100
AcDbLine
 10
1054.486790488044
 20
2045.482558850074
 30
0.0
 11
1051.614353943099
 21
2045.482558850074
 31
0.0
1001
REVIT
1002
{
1070
     3
1000
790271
1002
}
  0
LINE
  5
237
330
234
100
AcDbEntity
  8
M-PIPE
100
AcDbLine
 10
1082.614353943097
 20
2045.482558850072
 30
0.0
 11
1082.614353943097
 21
2042.482558850072
 31
0.0
1001
REVIT
1002
{
1070
     3
1000
790271
1002
}
  0
LINE
  5
238
330
234
100
AcDbEntity
  8
M-PIPE
100
AcDbLine
 10
1082.614353943097
 20
2042.482558850072
 30
0.0
 11
1082.614353943097
 21
2036.482558850072
 31
0.0
1001
REVIT
1002
{
1070
     3
1000
790271
1002
}
  0
LINE
  5
239
330
234
100
AcDbEntity
  8
M-PIPE
100
AcDbLine
 10
1051.614353943097
 20
2036.482558850073
 30
0.0
 11
1051.614353943097
 21
2042.482558850073
 31
0.0
1001
REVIT
1002
{
1070
     3
1000
790271
1002
}
  0
LINE
  5
23A
330
234
100
AcDbEntity
  8
M-PIPE
100
AcDbLine
 10
1051.614353943097
 20
2042.482558850073
 30
0.0
 11
1051.614353943097
 21
2045.482558850073
 31
0.0
1001
REVIT
1002
{
1070
     3
1000
790271
1002
}
  0
LINE
  5
23B
330
234
100
AcDbEntity
  8
M-PIPE
100
AcDbLine
 10
1064.114353943099
 20
2080.48255885001
 30
0.0
 11
1064.114353943099
 21
2056.982558850033
 31
0.0
1001
REVIT
1002
{
1070
     3
1000
790271
1002
}
  0
LINE
  5
23C
330
234
100
AcDbEntity
  8
M-PIPE
100
AcDbLine
 10
1070.114353943099
 20
2056.982558850033
 30
0.0
 11
1070.114353943099
 21
2080.48255885001
 31
0.0
1001
REVIT
1002
{
1070
     3
1000
790271
1002
}
  0
LWPOLYLINE
  5
23D
330
234
100
AcDbEntity
  8
M-PIPE
100
AcDbPolyline
 90
       41
 70
   128
 43
0.0
 10
1064.114353943099
 20
2080.48255885001
 10
1064.116753623117
 20
2080.60252685257
 10
1064.123948824192
 20
2080.722302931917
 10
1064.135928035538
 20
2080.841695471876
 10
1064.152672092973
 20
2080.960513469852
 10
1064.174154209576
 20
2081.078566842395
 10
1064.200340018544
 20
2081.195666729291
 10
1064.231187628168
 20
2081.311625795702
 10
1064.266647688852
 20
2081.426258531858
 10
1064.306663472066
 20
2081.539381549835
 10
1064.351170961091
 20
2081.650813876936
 10
1064.40009895344
 20
2081.760377245208
 10
1064.453369174762
 20
2081.867896376634
 10
1064.510896404067
 20
2081.973199263541
 10
1064.57258861006
 20
2082.076117443773
 10
1064.638347098371
 20
2082.176486270195
 10
1064.708066669447
 20
2082.274145174097
 10
1064.781635786847
 20
2082.368937922065
 10
1064.858936755677
 20
2082.460712865924
 10
1064.939845910877
 20
2082.549323185341
 10
1065.024233815058
 20
2082.634627122708
 10
1065.111965465576
 20
2082.716488209922
 10
1065.202900510504
 20
2082.794775486707
 10
1065.29689347317
 20
2082.869363710119
 10
1065.393793984883
 20
2082.940133554913
 10
1065.493447025495
 20
2083.006971804433
 10
1065.595693171402
 20
2083.06977153174
 10
1065.700368850579
 20
2083.128432270664
 10
1065.80730660427
 20
2083.182860176539
 10
1065.916335354881
 20
2083.232968176325
 10
1066.02728067967
 20
2083.278676107912
 10
1066.139965089784
 20
2083.319910848358
 10
1066.254208314204
 20
2083.356606430878
 10
1066.369827588143
 20
2083.388704150364
 10
1066.486637945426
 20
2083.416152657316
 10
1066.604452514399
 20
2083.438908039975
 10
1066.723082816885
 20
2083.456933894585
 10
1066.842339069707
 20
2083.470201383623
 10
1066.962030488299
 20
2083.478689281937
 10
1067.081965591925
 20
2083.4823840107
 10
1067.1143539431
 20
2083.48255885001
1001
REVIT
1002
{
1070
     3
1000
790271
1002
}
  0
LWPOLYLINE
  5
23E
330
234
100
AcDbEntity
  8
M-PIPE
100
AcDbPolyline
 90
       41
 70
   128
 43
0.0
 10
1067.1143539431
 20
2083.48255885001
 10
1067.23432194566
 20
2083.480159169993
 10
1067.354098025007
 20
2083.472963968918
 10
1067.473490564966
 20
2083.460984757572
 10
1067.592308562942
 20
2083.444240700137
 10
1067.710361935485
 20
2083.422758583533
 10
1067.827461822381
 20
2083.396572774566
 10
1067.943420888792
 20
2083.365725164942
 10
1068.058053624948
 20
2083.330265104257
 10
1068.171176642925
 20
2083.290249321044
 10
1068.282608970025
 20
2083.245741832018
 10
1068.392172338298
 20
2083.19681383967
 10
1068.499691469724
 20
2083.143543618348
 10
1068.604994356631
 20
2083.086016389042
 10
1068.707912536862
 20
2083.02432418305
 10
1068.808281363285
 20
2082.958565694738
 10
1068.905940267186
 20
2082.888846123663
 10
1069.000733015155
 20
2082.815277006263
 10
1069.092507959014
 20
2082.737976037432
 10
1069.181118278431
 20
2082.657066882232
 10
1069.266422215798
 20
2082.572678978051
 10
1069.348283303012
 20
2082.484947327534
 10
1069.426570579796
 20
2082.394012282605
 10
1069.501158803209
 20
2082.30001931994
 10
1069.571928648002
 20
2082.203118808227
 10
1069.638766897523
 20
2082.103465767614
 10
1069.701566624829
 20
2082.001219621707
 10
1069.760227363754
 20
2081.89654394253
 10
1069.814655269629
 20
2081.78960618884
 10
1069.864763269415
 20
2081.680577438229
 10
1069.910471201001
 20
2081.56963211344
 10
1069.951705941448
 20
2081.456947703326
 10
1069.988401523967
 20
2081.342704478905
 10
1070.020499243454
 20
2081.227085204966
 10
1070.047947750405
 20
2081.110274847684
 10
1070.070703133065
 20
2080.99246027871
 10
1070.088728987674
 20
2080.873829976224
 10
1070.101996476712
 20
2080.754573723402
 10
1070.110484375026
 20
2080.63488230481
 10
1070.114179103789
 20
2080.514947201185
 10
1070.114353943099
 20
2080.48255885001
1001
REVIT
1002
{
1070
     3
1000
790271
1002
}
  0
LINE
  5
23F
330
234
100
AcDbEntity
  8
M-PIPE
100
AcDbLine
 10
1058.614353943101
 20
2056.982558850033
 30
0.0
 11
1058.614353943101
 21
2052.298825462897
 31
0.0
1001
REVIT
1002
{
1070
     3
1000
790271
1002
}
  0
LINE
  5
240
330
234
100
AcDbEntity
  8
M-PIPE
100
AcDbLine
 10
1075.614353943097
 20
2052.302491049969
 30
0.0
 11
1075.614353943097
 21
2056.982558850033
 31
0.0
1001
REVIT
1002
{
1070
     3
1000
790271
1002
}
  0
LINE
  5
241
330
234
100
AcDbEntity
  8
M-PIPE
100
AcDbLine
 10
1059.903251392172
 20
2053.278728156817
 30
0.0
 11
1059.903251392172
 21
2053.299212676403
 31
0.0
1001
REVIT
1002
{
1070
     3
1000
790271
1002
}
  0
SPLINE
  5
242
330
234
100
AcDbEntity
  8
M-PIPE
100
AcDbSpline
210
0.0
220
0.0
230
1.0
 70
     8
 71
     3
 72
     8
 73
     4
 74
     0
 42
0.000000001
 43
0.0000000001
 40
0.125
 40
0.125
 40
0.125
 40
0.125
 40
0.25
 40
0.25
 40
0.25
 40
0.25
 10
1060.388635643826
 20
2053.61272464132
 30
0.0
 10
1060.562041517443
 20
2053.716496324981
 30
0.0
 10
1060.746709977855
 20
2053.819832306616
 30
0.0
 10
1060.941628499557
 20
2053.923601660814
 30
0.0
1001
REVIT
1002
{
1070
     3
1000
790271
1002
}
  0
LINE
  5
243
330
234
100
AcDbEntity
  8
M-PIPE
100
AcDbLine
 10
1068.788637257743
 20
2055.360616928835
 30
0.0
 11
1068.788637257743
 21
2055.37429168087
 31
0.0
1001
REVIT
1002
{
1070
     3
1000
790271
1002
}
  0
SPLINE
  5
244
330
234
100
AcDbEntity
  8
M-PIPE
100
AcDbSpline
210
0.0
220
0.0
230
1.0
 70
     8
 71
     3
 72
     8
 73
     4
 74
     0
 42
0.000000001
 43
0.0000000001
 40
0.7409384038620655
 40
0.7409384038620655
 40
0.7409384038620655
 40
0.7409384038620655
 40
0.75
 40
0.75
 40
0.75
 40
0.75
 10
1073.244528361219
 20
2053.946173413603
 30
0.0
 10
1073.258765701783
 20
2053.938647723803
 30
0.0
 10
1073.273006601169
 20
2053.931125809418
 30
0.0
 10
1073.287079386637
 20
2053.923601660814
 30
0.0
1001
REVIT
1002
{
1070
     3
1000
790271
1002
}
  0
LINE
  5
245
330
234
100
AcDbEntity
  8
M-PIPE
100
AcDbLine
 10
1067.114353943097
 20
2056.982558850032
 30
0.0
 11
1058.614353943099
 21
2056.982558850032
 31
0.0
1001
REVIT
1002
{
1070
     3
1000
790271
1002
}
  0
LINE
  5
246
330
234
100
AcDbEntity
  8
M-PIPE
100
AcDbLine
 10
1075.614353943095
 20
2056.982558850031
 30
0.0
 11
1067.114353943097
 21
2056.982558850032
 31
0.0
1001
REVIT
1002
{
1070
     3
1000
790271
1002
}
  0
ARC
  5
247
330
234
100
AcDbEntity
  8
M-PIPE
100
AcDbCircle
 10
1067.114353943097
 20
2042.482558850009
 30
0.0
 40
13.00000000000001
100
AcDbArc
 50
164.5349711025243
 51
166.2332893034415
1001
REVIT
1002
{
1070
     3
1000
790271
1002
}
  0
ARC
  5
248
330
234
100
AcDbEntity
  8
M-PIPE
100
AcDbCircle
 10
1067.114353943097
 20
2042.482558850009
 30
0.0
 40
12.99999999999997
100
AcDbArc
 50
118.0498018664646
 51
159.3499339553025
1001
REVIT
1002
{
1070
     3
1000
790271
1002
}
  0
ARC
  5
249
330
234
100
AcDbEntity
  8
M-PIPE
100
AcDbCircle
 10
1067.114353943097
 20
2042.482558850009
 30
0.0
 40
12.99999999999999
100
AcDbArc
 50
111.1664465183262
 51
112.8663125755596
1001
REVIT
1002
{
1070
     3
1000
790271
1002
}
  0
ARC
  5
24A
330
234
100
AcDbEntity
  8
M-PIPE
100
AcDbCircle
 10
1067.114353943097
 20
2042.482558850009
 30
0.0
 40
12.9999999999998
100
AcDbArc
 50
104.2830911701863
 51
105.3561237153691
1001
REVIT
1002
{
1070
     3
1000
790271
1002
}
  0
ARC
  5
24B
330
234
100
AcDbEntity
  8
M-PIPE
100
AcDbCircle
 10
1067.114353943097
 20
2042.482558850009
 30
0.0
 40
12.99999999999992
100
AcDbArc
 50
97.39973582204674
 51
97.79620772717779
1001
REVIT
1002
{
1070
     3
1000
790271
1002
}
  0
ARC
  5
24C
330
234
100
AcDbEntity
  8
M-PIPE
100
AcDbCircle
 10
1067.114353943097
 20
2042.482558850009
 30
0.0
 40
12.99999999999994
100
AcDbArc
 50
73.28857594386921
 51
75.71690882981382
1001
REVIT
1002
{
1070
     3
1000
790271
1002
}
  0
ARC
  5
24D
330
234
100
AcDbEntity
  8
M-PIPE
100
AcDbCircle
 10
1067.114353943097
 20
2042.482558850009
 30
0.0
 40
12.99999999999978
100
AcDbArc
 50
67.76208412100825
 51
68.83355348167349
1001
REVIT
1002
{
1070
     3
1000
790271
1002
}
  0
ARC
  5
24E
330
234
100
AcDbEntity
  8
M-PIPE
100
AcDbCircle
 10
1067.114353943097
 20
2042.482558850009
 30
0.0
 40
12.99999999999984
100
AcDbArc
 50
61.95019813353445
 51
62.22612061893172
1001
REVIT
1002
{
1070
     3
1000
790271
1002
}
  0
ARC
  5
24F
330
234
100
AcDbEntity
  8
M-PIPE
100
AcDbCircle
 10
1067.114353943097
 20
2042.482558850009
 30
0.0
 40
13.0
100
AcDbArc
 50
55.06684278539506
 51
56.61149911410421
1001
REVIT
1002
{
1070
     3
1000
790271
1002
}
  0
ARC
  5
250
330
234
100
AcDbEntity
  8
M-PIPE
100
AcDbCircle
 10
1067.114353943097
 20
2042.482558850009
 30
0.0
 40
12.99999999999995
100
AcDbArc
 50
45.53833239540543
 51
50.97926133586
1001
REVIT
1002
{
1070
     3
1000
790271
1002
}
  0
ARC
  5
251
330
234
100
AcDbEntity
  8
M-PIPE
100
AcDbCircle
 10
1067.114353943097
 20
2042.482558850009
 30
0.0
 40
12.9999999999999
100
AcDbArc
 50
39.85674757386277
 51
41.30013208911533
1001
REVIT
1002
{
1070
     3
1000
790271
1002
}
  0
ARC
  5
252
330
234
100
AcDbEntity
  8
M-PIPE
100
AcDbCircle
 10
1067.114353943097
 20
2042.482558850009
 30
0.0
 40
12.99999999999976
100
AcDbArc
 50
34.15752359706889
 51
34.4167767409759
1001
REVIT
1002
{
1070
     3
1000
790271
1002
}
  0
ARC
  5
253
330
234
100
AcDbEntity
  8
M-PIPE
100
AcDbCircle
 10
1067.114353943097
 20
2042.482558850009
 30
0.0
 40
12.99999999999984
100
AcDbArc
 50
27.53342139283574
 51
28.5109577540531
1001
REVIT
1002
{
1070
     3
1000
790271
1002
}
  0
ARC
  5
254
330
234
100
AcDbEntity
  8
M-PIPE
100
AcDbCircle
 10
1067.114353943097
 20
2042.482558850009
 30
0.0
 40
12.99999999999987
100
AcDbArc
 50
20.65006604469578
 51
22.84701607453458
1001
REVIT
1002
{
1070
     3
1000
790271
1002
}
  0
ARC
  5
255
330
234
100
AcDbEntity
  8
M-PIPE
100
AcDbCircle
 10
1067.114353943097
 20
2042.482558850009
 30
0.0
 40
12.99999999999978
100
AcDbArc
 50
13.36804903799341
 51
13.7667106965576
1001
REVIT
1002
{
1070
     3
1000
790271
1002
}
  0
ARC
  5
256
330
234
100
AcDbEntity
  8
M-PIPE
100
AcDbCircle
 10
1067.114353943097
 20
2042.482558850009
 30
0.0
 40
13.00000000000003
100
AcDbArc
 50
172.3605809203849
 51
172.5
1001
REVIT
1002
{
1070
     3
1000
790271
1002
}
  0
ARC
  5
257
330
234
100
AcDbEntity
  8
M-PIPE
100
AcDbCircle
 10
1067.114353943097
 20
2042.482558850009
 30
0.0
 40
12.99999999999992
100
AcDbArc
 50
164.7825930952288
 51
164.9999999999999
1001
REVIT
1002
{
1070
     3
1000
790271
1002
}
  0
ARC
  5
258
330
234
100
AcDbEntity
  8
M-PIPE
100
AcDbCircle
 10
1067.114353943097
 20
2042.482558850009
 30
0.0
 40
12.99999999999991
100
AcDbArc
 50
157.2675002358857
 51
157.5000000000002
1001
REVIT
1002
{
1070
     3
1000
790271
1002
}
  0
ARC
  5
259
330
234
100
AcDbEntity
  8
M-PIPE
100
AcDbCircle
 10
1067.114353943097
 20
2042.482558850009
 30
0.0
 40
13.0
100
AcDbArc
 50
149.8169601520363
 51
150.0000000000005
1001
REVIT
1002
{
1070
     3
1000
790271
1002
}
  0
ARC
  5
25A
330
234
100
AcDbEntity
  8
M-PIPE
100
AcDbCircle
 10
1067.114353943097
 20
2042.482558850009
 30
0.0
 40
13.00000000000008
100
AcDbArc
 50
134.9999999999982
 51
135.2516937980573
1001
REVIT
1002
{
1070
     3
1000
790271
1002
}
  0
ARC
  5
25B
330
234
100
AcDbEntity
  8
M-PIPE
100
AcDbCircle
 10
1067.114353943097
 20
2042.482558850009
 30
0.0
 40
13.00000000000007
100
AcDbArc
 50
127.4999999999992
 51
128.0513005250902
1001
REVIT
1002
{
1070
     3
1000
790271
1002
}
  0
ARC
  5
25C
330
234
100
AcDbEntity
  8
M-PIPE
100
AcDbCircle
 10
1067.114353943097
 20
2042.482558850009
 30
0.0
 40
13.00000000000008
100
AcDbArc
 50
119.9999999999989
 51
120.6753544684667
1001
REVIT
1002
{
1070
     3
1000
790271
1002
}
  0
ARC
  5
25D
330
234
100
AcDbEntity
  8
M-PIPE
100
AcDbCircle
 10
1067.114353943097
 20
2042.482558850009
 30
0.0
 40
12.99999999999997
100
AcDbArc
 50
112.4999999999991
 51
113.1437709076158
1001
REVIT
1002
{
1070
     3
1000
790271
1002
}
  0
ARC
  5
25E
330
234
100
AcDbEntity
  8
M-PIPE
100
AcDbCircle
 10
1067.114353943097
 20
2042.482558850009
 30
0.0
 40
13.0000000000001
100
AcDbArc
 50
104.9999999999986
 51
105.5195023316651
1001
REVIT
1002
{
1070
     3
1000
790271
1002
}
  0
ARC
  5
25F
330
234
100
AcDbEntity
  8
M-PIPE
100
AcDbCircle
 10
1067.114353943097
 20
2042.482558850009
 30
0.0
 40
13.00000000000004
100
AcDbArc
 50
97.49999999999863
 51
97.80427210047148
1001
REVIT
1002
{
1070
     3
1000
790271
1002
}
  0
ARC
  5
260
330
234
100
AcDbEntity
  8
M-PIPE
100
AcDbCircle
 10
1067.114353943097
 20
2042.482558850009
 30
0.0
 40
13.00000000000012
100
AcDbArc
 50
82.49999999999916
 51
84.36796140323679
1001
REVIT
1002
{
1070
     3
1000
790271
1002
}
  0
ARC
  5
261
330
234
100
AcDbEntity
  8
M-PIPE
100
AcDbCircle
 10
1067.114353943097
 20
2042.482558850009
 30
0.0
 40
13.00000000000015
100
AcDbArc
 50
73.09475308960684
 51
74.99999999999937
1001
REVIT
1002
{
1070
     3
1000
790271
1002
}
  0
ARC
  5
262
330
234
100
AcDbEntity
  8
M-PIPE
100
AcDbCircle
 10
1067.114353943097
 20
2042.482558850009
 30
0.0
 40
13.0000000000002
100
AcDbArc
 50
59.99999999999889
 51
61.82859487052576
1001
REVIT
1002
{
1070
     3
1000
790271
1002
}
  0
ARC
  5
263
330
234
100
AcDbEntity
  8
M-PIPE
100
AcDbCircle
 10
1067.114353943097
 20
2042.482558850009
 30
0.0
 40
13.00000000000019
100
AcDbArc
 50
50.54526691495922
 51
52.49999999999961
1001
REVIT
1002
{
1070
     3
1000
790271
1002
}
  0
ARC
  5
264
330
234
100
AcDbEntity
  8
M-PIPE
100
AcDbCircle
 10
1067.114353943097
 20
2042.482558850009
 30
0.0
 40
13.00000000000031
100
AcDbArc
 50
37.49999999999888
 51
39.45473308503915
1001
REVIT
1002
{
1070
     3
1000
790271
1002
}
  0
ARC
  5
265
330
234
100
AcDbEntity
  8
M-PIPE
100
AcDbCircle
 10
1067.114353943097
 20
2042.482558850009
 30
0.0
 40
13.00000000000008
100
AcDbArc
 50
28.17140512947233
 51
29.99999999999877
1001
REVIT
1002
{
1070
     3
1000
790271
1002
}
  0
ARC
  5
266
330
234
100
AcDbEntity
  8
M-PIPE
100
AcDbCircle
 10
1067.114353943097
 20
2042.482558850009
 30
0.0
 40
13.00000000000023
100
AcDbArc
 50
14.99999999999865
 51
16.90524691039121
1001
REVIT
1002
{
1070
     3
1000
790271
1002
}
  0
ARC
  5
267
330
234
100
AcDbEntity
  8
M-PIPE
100
AcDbCircle
 10
1067.114353943097
 20
2042.482558850009
 30
0.0
 40
13.00000000000022
100
AcDbArc
 50
5.632038596761333
 51
7.499999999998878
1001
REVIT
1002
{
1070
     3
1000
790271
1002
}
  0
ARC
  5
268
330
234
100
AcDbEntity
  8
M-PIPE
100
AcDbCircle
 10
1067.114353943097
 20
2042.482558850009
 30
0.0
 40
13.00000000000025
100
AcDbArc
 50
359.9999999999992
 51
89.99999999999849
1001
REVIT
1002
{
1070
     3
1000
790271
1002
}
  0
ARC
  5
269
330
234
100
AcDbEntity
  8
M-PIPE
100
AcDbCircle
 10
1067.114353943097
 20
2042.482558850009
 30
0.0
 40
13.0
100
AcDbArc
 50
89.999999999999
 51
180.0000000000006
1001
REVIT
1002
{
1070
     3
1000
790271
1002
}
  0
LINE
  5
26A
330
234
100
AcDbEntity
  8
M-PIPE
100
AcDbLine
 10
1085.414353943097
 20
2036.482558850072
 30
0.0
 11
1085.414353943097
 21
2032.482558850072
 31
0.0
1001
REVIT
1002
{
1070
     3
1000
790271
1002
}
  0
LINE
  5
26B
330
234
100
AcDbEntity
  8
M-PIPE
100
AcDbLine
 10
1048.814353943097
 20
2032.482558850073
 30
0.0
 11
1048.814353943097
 21
2036.482558850073
 31
0.0
1001
REVIT
1002
{
1070
     3
1000
790271
1002
}
  0
LINE
  5
26C
330
234
100
AcDbEntity
  8
M-PIPE
100
AcDbLine
 10
1081.114353943096
 20
2036.482558850072
 30
0.0
 11
1085.414353943097
 21
2036.482558850072
 31
0.0
1001
REVIT
1002
{
1070
     3
1000
790271
1002
}
  0
LINE
  5
26D
330
234
100
AcDbEntity
  8
M-PIPE
100
AcDbLine
 10
1048.814353943097
 20
2036.482558850073
 30
0.0
 11
1053.114353943097
 21
2036.482558850073
 31
0.0
1001
REVIT
1002
{
1070
     3
1000
790271
1002
}
  0
LINE
  5
26E
330
234
100
AcDbEntity
  8
M-PIPE
100
AcDbLine
 10
1081.114353943096
 20
2032.482558850072
 30
0.0
 11
1085.414353943097
 21
2032.482558850072
 31
0.0
1001
REVIT
1002
{
1070
     3
1000
790271
1002
}
  0
LINE
  5
26F
330
234
100
AcDbEntity
  8
M-PIPE
100
AcDbLine
 10
1048.814353943097
 20
2032.482558850073
 30
0.0
 11
1053.114353943097
 21
2032.482558850072
 31
0.0
1001
REVIT
1002
{
1070
     3
1000
790271
1002
}
  0
LINE
  5
270
330
234
100
AcDbEntity
  8
M-PIPE
100
AcDbLine
 10
1080.114353943097
 20
2037.282558850009
 30
0.0
 11
1080.114353943097
 21
2042.482558850009
 31
0.0
1001
REVIT
1002
{
1070
     3
1000
790271
1002
}
  0
LINE
  5
271
330
234
100
AcDbEntity
  8
M-PIPE
100
AcDbLine
 10
1054.114353943097
 20
2042.482558850009
 30
0.0
 11
1054.114353943097
 21
2037.282558850009
 31
0.0
1001
REVIT
1002
{
1070
     3
1000
790271
1002
}
  0
LINE
  5
272
330
234
100
AcDbEntity
  8
P-SANR-FIXT
100
AcDbLine
 10
1062.514353943096
 20
2045.282558850009
 30
0.0
 11
1071.714353943096
 21
2045.282558850009
 31
0.0
  0
LINE
  5
273
330
234
100
AcDbEntity
  8
P-SANR-FIXT
100
AcDbLine
 10
1071.714353943096
 20
2045.282558850009
 30
0.0
 11
1071.714353943096
 21
2037.282558850009
 31
0.0
  0
LINE
  5
274
330
234
100
AcDbEntity
  8
P-SANR-FIXT
100
AcDbLine
 10
1062.514353943096
 20
2037.282558850009
 30
0.0
 11
1062.514353943096
 21
2045.282558850009
 31
0.0
  0
LINE
  5
275
330
234
100
AcDbEntity
  8
P-SANR-FIXT
100
AcDbLine
 10
1081.114353943098
 20
2024.98255885001
 30
0.0
 11
1081.114353943098
 21
2037.28255885001
 31
0.0
  0
LINE
  5
276
330
234
100
AcDbEntity
  8
P-SANR-FIXT
100
AcDbLine
 10
1053.114353943099
 20
2037.28255885001
 30
0.0
 11
1053.114353943099
 21
2024.98255885001
 31
0.0
  0
LINE
  5
277
330
234
100
AcDbEntity
  8
P-SANR-FIXT
100
AcDbLine
 10
1081.114353943097
 20
2024.982558850009
 30
0.0
 11
1067.114353943097
 21
2024.982558850009
 31
0.0
  0
LINE
  5
278
330
234
100
AcDbEntity
  8
P-SANR-FIXT
100
AcDbLine
 10
1067.114353943096
 20
2024.982558850009
 30
0.0
 11
1053.114353943096
 21
2024.982558850009
 31
0.0
  0
LINE
  5
279
330
234
100
AcDbEntity
  8
P-SANR-FIXT
100
AcDbLine
 10
1081.114353943097
 20
2037.282558850009
 30
0.0
 11
1067.114353943097
 21
2037.282558850009
 31
0.0
  0
LINE
  5
27A
330
234
100
AcDbEntity
  8
P-SANR-FIXT
100
AcDbLine
 10
1067.114353943096
 20
2037.282558850009
 30
0.0
 11
1053.114353943096
 21
2037.282558850009
 31
0.0
  0
LINE
  5
27B
330
234
100
AcDbEntity
  8
P-SANR-FIXT
100
AcDbLine
 10
1064.614353943097
 20
2005.814693326612
 30
0.0
 11
1064.614353943097
 21
2005.796577833296
 31
0.0
  0
LINE
  5
27C
330
234
100
AcDbEntity
  8
P-SANR-FIXT
100
AcDbLine
 10
1069.614353943097
 20
2005.796577833296
 30
0.0
 11
1069.614353943097
 21
2005.814693326612
 31
0.0
  0
LINE
  5
27D
330
234
100
AcDbEntity
  8
P-SANR-FIXT
100
AcDbLine
 10
1080.514353943099
 20
2011.875974395318
 30
0.0
 11
1080.514353943099
 21
2024.98255885001
 31
0.0
  0
LINE
  5
27E
330
234
100
AcDbEntity
  8
P-SANR-FIXT
100
AcDbLine
 10
1053.714353943099
 20
2024.98255885001
 30
0.0
 11
1053.714353943099
 21
2011.875974395318
 31
0.0
  0
ARC
  5
27F
330
234
100
AcDbEntity
  8
P-SANR-FIXT
100
AcDbCircle
 10
1067.114353943096
 20
1999.982558850011
 30
0.0
 40
18.85000000000052
100
AcDbArc
 50
29.80978967220835
 51
29.99999999999929
  0
ARC
  5
280
330
234
100
AcDbEntity
  8
P-SANR-FIXT
100
AcDbCircle
 10
1067.114353943096
 20
1999.982558850011
 30
0.0
 40
18.8500000000002
100
AcDbArc
 50
209.8097896722086
 51
209.9999999999996
  0
ARC
  5
281
330
234
100
AcDbEntity
  8
P-SANR-FIXT
100
AcDbCircle
 10
1067.114353943097
 20
1999.982558850011
 30
0.0
 40
18.85000000000054
100
AcDbArc
 50
29.80978967220826
 51
30.00000000000109
  0
ARC
  5
282
330
234
100
AcDbEntity
  8
P-SANR-FIXT
100
AcDbCircle
 10
1067.114353943097
 20
1999.982558850011
 30
0.0
 40
18.85000000000029
100
AcDbArc
 50
209.8097896722084
 51
209.9999999999982
  0
ARC
  5
283
330
234
100
AcDbEntity
  8
P-SANR-FIXT
100
AcDbCircle
 10
1067.114353943096
 20
1999.982558850011
 30
0.0
 40
6.349999999999909
100
AcDbArc
 50
269.9999999999997
 51
90.0
  0
LINE
  5
284
330
234
100
AcDbEntity
  8
P-SANR-FIXT
100
AcDbLine
 10
1068.56156194276
 20
1981.188195625742
 30
0.0
 11
1082.667145943433
 21
1989.332058345608
 31
0.0
  0
LINE
  5
285
330
234
100
AcDbEntity
  8
P-SANR-FIXT
100
AcDbLine
 10
1084.114353943096
 20
1991.838696130145
 30
0.0
 11
1084.114353943097
 21
2008.126421569876
 31
0.0
  0
LINE
  5
286
330
234
100
AcDbEntity
  8
P-SANR-FIXT
100
AcDbLine
 10
1082.667145943433
 20
2010.633059354414
 30
0.0
 11
1068.56156194276
 21
2018.776922074279
 31
0.0
  0
ARC
  5
287
330
234
100
AcDbEntity
  8
P-SANR-FIXT
100
AcDbCircle
 10
1067.114353943096
 20
1999.982558850011
 30
0.0
 40
6.349999999999909
100
AcDbArc
 50
90.0
 51
269.9999999999997
  0
LINE
  5
288
330
234
100
AcDbEntity
  8
P-SANR-FIXT
100
AcDbLine
 10
1065.667145943433
 20
2018.776922074279
 30
0.0
 11
1051.56156194276
 21
2010.633059354414
 31
0.0
  0
LINE
  5
289
330
234
100
AcDbEntity
  8
P-SANR-FIXT
100
AcDbLine
 10
1050.114353943097
 20
2008.126421569876
 30
0.0
 11
1050.114353943096
 21
1991.838696130145
 31
0.0
  0
LINE
  5
28A
330
234
100
AcDbEntity
  8
P-SANR-FIXT
100
AcDbLine
 10
1051.56156194276
 20
1989.332058345608
 30
0.0
 11
1065.667145943433
 21
1981.188195625742
 31
0.0
  0
ARC
  5
28B
330
234
100
AcDbEntity
  8
P-SANR-FIXT
100
AcDbCircle
 10
1067.114353943096
 20
1999.982558850011
 30
0.0
 40
18.8500000000004
100
AcDbArc
 50
85.59678584877215
 51
89.99999999999932
  0
ARC
  5
28C
330
234
100
AcDbEntity
  8
P-SANR-FIXT
100
AcDbCircle
 10
1067.114353943096
 20
1999.982558850011
 30
0.0
 40
18.85000000000036
100
AcDbArc
 50
269.9999999999997
 51
274.4032141512268
  0
ARC
  5
28D
330
234
100
AcDbEntity
  8
P-SANR-FIXT
100
AcDbCircle
 10
1067.114353943096
 20
1999.982558850011
 30
0.0
 40
18.85000000000037
100
AcDbArc
 50
25.59678584877182
 51
34.40321415122669
  0
ARC
  5
28E
330
234
100
AcDbEntity
  8
P-SANR-FIXT
100
AcDbCircle
 10
1067.114353943096
 20
1999.982558850011
 30
0.0
 40
18.85000000000043
100
AcDbArc
 50
325.5967858487713
 51
334.4032141512254
  0
ARC
  5
28F
330
234
100
AcDbEntity
  8
P-SANR-FIXT
100
AcDbCircle
 10
1067.114353943096
 20
1999.982558850011
 30
0.0
 40
18.85000000000013
100
AcDbArc
 50
90.0
 51
94.40321415122649
  0
ARC
  5
290
330
234
100
AcDbEntity
  8
P-SANR-FIXT
100
AcDbCircle
 10
1067.114353943096
 20
1999.982558850011
 30
0.0
 40
18.8500000000004
100
AcDbArc
 50
265.5967858487718
 51
269.9999999999997
  0
ARC
  5
291
330
234
100
AcDbEntity
  8
P-SANR-FIXT
100
AcDbCircle
 10
1067.114353943096
 20
1999.982558850011
 30
0.0
 40
18.85000000000026
100
AcDbArc
 50
205.5967858487716
 51
214.4032141512266
  0
ARC
  5
292
330
234
100
AcDbEntity
  8
P-SANR-FIXT
100
AcDbCircle
 10
1067.114353943096
 20
1999.982558850011
 30
0.0
 40
18.85000000000017
100
AcDbArc
 50
145.5967858487722
 51
154.4032141512272
  0
ENDBLK
  5
294
330
234
100
AcDbEntity
  8
0
100
AcDbBlockEnd
  0
ENDSEC
  0
SECTION
  2
ENTITIES
  0
INSERT
  5
144
330
71
100
AcDbEntity
  8
P-SANR-FIXT
100
AcDbBlockReference
  2
Automatic flow rate regulator valve_Caleffi_121 DN15 - 1_2__-859151-Est - Idraulica
 10
0.0
 20
0.0
 30
0.0
1001
REVIT
1002
{
1070
     1
1000
863131
1002
}
1002
{
1070
     5
1000
859151
1002
}
1002
{
1070
     2
1000
-2001160
1002
}
  0
INSERT
  5
233
330
71
100
AcDbEntity
  8
P-SANR-FIXT
100
AcDbBlockReference
  2
Automatic flow rate regulator valve_Caleffi_121 DN15 - 1_2__-V1-Est - Idraulica
 10
0.0
 20
0.0
 30
0.0
1001
REVIT
1002
{
1070
     1
1000
863152
1002
}
1002
{
1070
     5
1000
859151
1002
}
1002
{
1070
     2
1000
-2001160
1002
}
  0
INSERT
  5
295
330
71
100
AcDbEntity
  8
P-SANR-FIXT
100
AcDbBlockReference
  2
Automatic flow rate regulator valve_Caleffi_121 DN15 - 1_2__-V2-Est - Idraulica
 10
0.0
 20
0.0
 30
0.0
1001
REVIT
1002
{
1070
     1
1000
863172
1002
}
1002
{
1070
     5
1000
859151
1002
}
1002
{
1070
     2
1000
-2001160
1002
}
  0
ENDSEC
  0
SECTION
  2
OBJECTS
  0
DICTIONARY
  5
C
330
0
100
AcDbDictionary
281
     1
  3
ACAD_CIP_PREVIOUS_PRODUCT_INFO
350
7A
  3
ACAD_COLOR
350
63
  3
ACAD_DETAILVIEWSTYLE
350
6B
  3
ACAD_GROUP
350
D
  3
ACAD_IMAGE_VARS
350
7B
  3
ACAD_LAYOUT
350
62
  3
ACAD_MATERIAL
350
10
  3
ACAD_MLEADERSTYLE
350
66
  3
ACAD_MLINESTYLE
350
5F
  3
ACAD_PLOTSETTINGS
350
61
  3
ACAD_PLOTSTYLENAME
350
E
  3
ACAD_SCALELIST
350
42
  3
ACAD_SECTIONVIEWSTYLE
350
68
  3
ACAD_TABLESTYLE
350
64
  3
ACAD_VISUALSTYLE
350
29
  3
ACDB_RECOMPOSE_DATA
350
2A0
  3
AcDbVariableDictionary
350
7C
  3
REVIT_DICTIONARY
350
297
  0
DICTIONARY
  5
29C
330
71
100
AcDbDictionary
280
     1
281
     1
  3
ACAD_SORTENTS
360
29D
  0
XRECORD
  5
7A
102
{ACAD_REACTORS
330
C
102
}
330
C
100
AcDbXrecord
280
     1
300
RVT
300
2013
300
RVT2013
  0
DICTIONARY
  5
63
102
{ACAD_REACTORS
330
C
102
}
330
C
100
AcDbDictionary
281
     1
  0
DICTIONARY
  5
6B
102
{ACAD_REACTORS
330
C
102
}
330
C
100
AcDbDictionary
281
     1
  3
Imperial24
350
6C
  0
DICTIONARY
  5
D
102
{ACAD_REACTORS
330
C
102
}
330
C
100
AcDbDictionary
281
     1
  0
RASTERVARIABLES
  5
7B
102
{ACAD_REACTORS
330
C
102
}
330
C
100
AcDbRasterVariables
 90
        0
 70
     0
 71
     1
 72
     1
  0
DICTIONARY
  5
62
102
{ACAD_REACTORS
330
C
102
}
330
C
100
AcDbDictionary
281
     1
  3
Layout1
350
70
  3
Layout2
350
78
  3
Model
350
74
  0
DICTIONARY
  5
10
102
{ACAD_REACTORS
330
C
102
}
330
C
100
AcDbDictionary
281
     1
  3
ByBlock
350
19
  3
ByLayer
350
11
  3
Global
350
21
  0
DICTIONARY
  5
66
102
{ACAD_REACTORS
330
C
102
}
330
C
100
AcDbDictionary
281
     1
  3
Standard
350
67
  0
DICTIONARY
  5
5F
102
{ACAD_REACTORS
330
C
102
}
330
C
100
AcDbDictionary
281
     1
  3
Standard
350
60
  0
DICTIONARY
  5
61
102
{ACAD_REACTORS
330
C
102
}
330
C
100
AcDbDictionary
281
     1
  0
ACDBDICTIONARYWDFLT
  5
E
102
{ACAD_REACTORS
330
C
102
}
330
C
100
AcDbDictionary
281
     1
  3
Normal
350
F
100
AcDbDictionaryWithDefault
340
F
  0
DICTIONARY
  5
42
102
{ACAD_REACTORS
330
C
102
}
330
C
100
AcDbDictionary
281
     1
  3
A0
350
43
  3
A1
350
44
  3
A2
350
45
  3
A3
350
46
  3
A4
350
47
  3
A5
350
48
  3
A6
350
49
  3
A7
350
4A
  3
A8
350
4B
  3
A9
350
4C
  3
B0
350
4D
  3
B1
350
4E
  3
B2
350
4F
  3
B3
350
50
  3
B4
350
51
  3
B5
350
52
  3
B6
350
53
  0
DICTIONARY
  5
68
102
{ACAD_REACTORS
330
C
102
}
330
C
100
AcDbDictionary
281
     1
  3
Imperial24
350
6A
  0
DICTIONARY
  5
64
102
{ACAD_REACTORS
330
C
102
}
330
C
100
AcDbDictionary
281
     1
  3
Standard
350
65
  0
DICTIONARY
  5
29
102
{ACAD_REACTORS
330
C
102
}
330
C
100
AcDbDictionary
281
     1
  3
2dWireframe
350
2F
  3
Basic
350
2E
  3
Brighten
350
35
  3
ColorChange
350
39
  3
Conceptual
350
32
  3
Dim
350
34
  3
EdgeColorOff
350
41
  3
Facepattern
350
38
  3
Flat
350
2A
  3
FlatWithEdges
350
2B
  3
Gouraud
350
2C
  3
GouraudWithEdges
350
2D
  3
Hidden
350
31
  3
JitterOff
350
3F
  3
Linepattern
350
37
  3
OverhangOff
350
40
  3
Realistic
350
33
  3
Shaded
350
3E
  3
Shaded with edges
350
3D
  3
Shades of Gray
350
3A
  3
Sketchy
350
3B
  3
Thicken
350
36
  3
Wireframe
350
30
  3
X-Ray
350
3C
  0
XRECORD
  5
2A0
102
{ACAD_REACTORS
330
C
102
}
330
C
100
AcDbXrecord
280
     1
 90
        1
330
65
  0
DICTIONARY
  5
7C
102
{ACAD_REACTORS
330
C
102
}
330
C
100
AcDbDictionary
281
     1
  3
CANNOSCALE
350
81
  3
CMLEADERSTYLE
350
7E
  3
CTABLESTYLE
350
7D
  3
CVIEWDETAILSTYLE
350
7F
  3
CVIEWSECTIONSTYLE
350
80
  0
DICTIONARY
  5
297
102
{ACAD_REACTORS
330
C
102
}
330
C
100
AcDbDictionary
281
     1
  3
DRAWING_TOOL
350
29B
  3
REVIT_CATEGORY_MAPPING
350
299
  3
REVIT_SUB_CATEGORY_MAPPING
350
29A
  3
REVIT_TYPE_MAPPING
350
298
  0
SORTENTSTABLE
  5
29D
102
{ACAD_REACTORS
330
29C
102
}
330
29C
100
AcDbSortentsTable
330
71
  0
ACDBDETAILVIEWSTYLE
  5
6C
102
{ACAD_REACTORS
330
6B
102
}
330
6B
100
AcDbModelDocViewStyle
 70
     0
  3
Imperial24
290
     1
100
AcDbDetailViewStyle
 70
     0
 71
     0
 90
        3
 71
     1
340
55
 62
   256
 40
0.24
340
0
 62
   256
 40
0.24
300

 40
0.36
280
     3
 71
     2
340
5D
 90
       25
 62
   256
 71
     3
340
55
 62
   256
 40
0.24
 90
        1
 40
0.75
 90
        1
300
%<\AcVar ViewType \f "%tc1">% %<\AcVar ViewDetailId>%\PSCALA %<\AcVar ViewScale \f "%sn">%
 71
     4
340
5D
 90
       25
 62
   256
340
5D
 90
       25
 62
   256
280
     0
  0
LAYOUT
  5
70
102
{ACAD_REACTORS
330
62
102
}
330
62
100
AcDbPlotSettings
  1

  2

  4

  6

 40
0.0
 41
0.0
 42
0.0
 43
0.0
 44
0.0
 45
0.0
 46
0.0
 47
0.0
 48
0.0
 49
0.0
140
0.0
141
0.0
142
1.0
143
1.0
 70
   688
 72
     0
 73
     0
 74
     5
  7

 75
    16
147
1.0
 76
     0
 77
     2
 78
   300
148
0.0
149
0.0
100
AcDbLayout
  1
Layout1
 70
     1
 71
     1
 10
0.0
 20
0.0
 11
12.0
 21
9.0
 12
0.0
 22
0.0
 32
0.0
 14
0.0
 24
0.0
 34
0.0
 15
0.0
 25
0.0
 35
0.0
146
0.0
 13
0.0
 23
0.0
 33
0.0
 16
1.0
 26
0.0
 36
0.0
 17
0.0
 27
1.0
 37
0.0
 76
     0
330
6D
  0
LAYOUT
  5
78
102
{ACAD_REACTORS
330
62
102
}
330
62
100
AcDbPlotSettings
  1

  2

  4

  6

 40
0.0
 41
0.0
 42
0.0
 43
0.0
 44
0.0
 45
0.0
 46
0.0
 47
0.0
 48
0.0
 49
0.0
140
0.0
141
0.0
142
1.0
143
1.0
 70
   688
 72
     0
 73
     0
 74
     5
  7

 75
    16
147
1.0
 76
     0
 77
     2
 78
   300
148
0.0
149
0.0
100
AcDbLayout
  1
Layout2
 70
     1
 71
     2
 10
0.0
 20
0.0
 11
12.0
 21
9.0
 12
0.0
 22
0.0
 32
0.0
 14
0.0
 24
0.0
 34
0.0
 15
0.0
 25
0.0
 35
0.0
146
0.0
 13
0.0
 23
0.0
 33
0.0
 16
1.0
 26
0.0
 36
0.0
 17
0.0
 27
1.0
 37
0.0
 76
     0
330
75
  0
LAYOUT
  5
74
102
{ACAD_REACTORS
330
62
102
}
330
62
100
AcDbPlotSettings
  1

  2

  4

  6

 40
0.0
 41
0.0
 42
0.0
 43
0.0
 44
0.0
 45
0.0
 46
0.0
 47
0.0
 48
0.0
 49
0.0
140
0.0
141
0.0
142
1.0
143
1.0
 70
  1712
 72
     0
 73
     0
 74
     0
  7

 75
     0
147
1.0
 76
     0
 77
     2
 78
   300
148
0.0
149
0.0
100
AcDbLayout
  1
Model
 70
     1
 71
     0
 10
0.0
 20
0.0
 11
12.0
 21
9.0
 12
0.0
 22
0.0
 32
0.0
 14
0.0
 24
0.0
 34
0.0
 15
0.0
 25
0.0
 35
0.0
146
0.0
 13
0.0
 23
0.0
 33
0.0
 16
1.0
 26
0.0
 36
0.0
 17
0.0
 27
1.0
 37
0.0
 76
     0
330
71
  0
MATERIAL
  5
19
102
{ACAD_XDICTIONARY
360
1A
102
}
102
{ACAD_REACTORS
330
10
102
}
330
10
100
AcDbMaterial
  1
ByBlock
 72
     0
 43
0.0208333333333333
 43
0.0
 43
0.0
 43
0.0
 43
0.0
 43
0.0208333333333333
 43
0.0
 43
0.0
 43
0.0
 43
0.0
 43
1.0
 43
0.0
 43
0.0
 43
0.0
 43
0.0
 43
1.0
 77
     0
 47
0.0208333333333333
 47
0.0
 47
0.0
 47
0.0
 47
0.0
 47
0.0208333333333333
 47
0.0
 47
0.0
 47
0.0
 47
0.0
 47
1.0
 47
0.0
 47
0.0
 47
0.0
 47
0.0
 47
1.0
171
     0
 49
0.0208333333333333
 49
0.0
 49
0.0
 49
0.0
 49
0.0
 49
0.0208333333333333
 49
0.0
 49
0.0
 49
0.0
 49
0.0
 49
1.0
 49
0.0
 49
0.0
 49
0.0
 49
0.0
 49
1.0
175
     0
142
0.0208333333333333
142
0.0
142
0.0
142
0.0
142
0.0
142
0.0208333333333333
142
0.0
142
0.0
142
0.0
142
0.0
142
1.0
142
0.0
142
0.0
142
0.0
142
0.0
142
1.0
179
     0
144
0.0208333333333333
144
0.0
144
0.0
144
0.0
144
0.0
144
0.0208333333333333
144
0.0
144
0.0
144
0.0
144
0.0
144
1.0
144
0.0
144
0.0
144
0.0
144
0.0
144
1.0
147
0.0208333333333333
147
0.0
147
0.0
147
0.0
147
0.0
147
0.0208333333333333
147
0.0
147
0.0
147
0.0
147
0.0
147
1.0
147
0.0
147
0.0
147
0.0
147
0.0
147
1.0
  0
MATERIAL
  5
11
102
{ACAD_XDICTIONARY
360
12
102
}
102
{ACAD_REACTORS
330
10
102
}
330
10
100
AcDbMaterial
  1
ByLayer
 72
     0
 43
0.0208333333333333
 43
0.0
 43
0.0
 43
0.0
 43
0.0
 43
0.0208333333333333
 43
0.0
 43
0.0
 43
0.0
 43
0.0
 43
1.0
 43
0.0
 43
0.0
 43
0.0
 43
0.0
 43
1.0
 77
     0
 47
0.0208333333333333
 47
0.0
 47
0.0
 47
0.0
 47
0.0
 47
0.0208333333333333
 47
0.0
 47
0.0
 47
0.0
 47
0.0
 47
1.0
 47
0.0
 47
0.0
 47
0.0
 47
0.0
 47
1.0
171
     0
 49
0.0208333333333333
 49
0.0
 49
0.0
 49
0.0
 49
0.0
 49
0.0208333333333333
 49
0.0
 49
0.0
 49
0.0
 49
0.0
 49
1.0
 49
0.0
 49
0.0
 49
0.0
 49
0.0
 49
1.0
175
     0
142
0.0208333333333333
142
0.0
142
0.0
142
0.0
142
0.0
142
0.0208333333333333
142
0.0
142
0.0
142
0.0
142
0.0
142
1.0
142
0.0
142
0.0
142
0.0
142
0.0
142
1.0
179
     0
144
0.0208333333333333
144
0.0
144
0.0
144
0.0
144
0.0
144
0.0208333333333333
144
0.0
144
0.0
144
0.0
144
0.0
144
1.0
144
0.0
144
0.0
144
0.0
144
0.0
144
1.0
147
0.0208333333333333
147
0.0
147
0.0
147
0.0
147
0.0
147
0.0208333333333333
147
0.0
147
0.0
147
0.0
147
0.0
147
1.0
147
0.0
147
0.0
147
0.0
147
0.0
147
1.0
  0
MATERIAL
  5
21
102
{ACAD_XDICTIONARY
360
22
102
}
102
{ACAD_REACTORS
330
10
102
}
330
10
100
AcDbMaterial
  1
Global
 72
     0
 43
0.0208333333333333
 43
0.0
 43
0.0
 43
0.0
 43
0.0
 43
0.0208333333333333
 43
0.0
 43
0.0
 43
0.0
 43
0.0
 43
1.0
 43
0.0
 43
0.0
 43
0.0
 43
0.0
 43
1.0
 77
     0
 47
0.0208333333333333
 47
0.0
 47
0.0
 47
0.0
 47
0.0
 47
0.0208333333333333
 47
0.0
 47
0.0
 47
0.0
 47
0.0
 47
1.0
 47
0.0
 47
0.0
 47
0.0
 47
0.0
 47
1.0
171
     0
 49
0.0208333333333333
 49
0.0
 49
0.0
 49
0.0
 49
0.0
 49
0.0208333333333333
 49
0.0
 49
0.0
 49
0.0
 49
0.0
 49
1.0
 49
0.0
 49
0.0
 49
0.0
 49
0.0
 49
1.0
175
     0
142
0.0208333333333333
142
0.0
142
0.0
142
0.0
142
0.0
142
0.0208333333333333
142
0.0
142
0.0
142
0.0
142
0.0
142
1.0
142
0.0
142
0.0
142
0.0
142
0.0
142
1.0
179
     0
144
0.0208333333333333
144
0.0
144
0.0
144
0.0
144
0.0
144
0.0208333333333333
144
0.0
144
0.0
144
0.0
144
0.0
144
1.0
144
0.0
144
0.0
144
0.0
144
0.0
144
1.0
147
0.0208333333333333
147
0.0
147
0.0
147
0.0
147
0.0
147
0.0208333333333333
147
0.0
147
0.0
147
0.0
147
0.0
147
1.0
147
0.0
147
0.0
147
0.0
147
0.0
147
1.0
  0
MLEADERSTYLE
  5
67
102
{ACAD_REACTORS
330
66
102
}
330
66
100
AcDbMLeaderStyle
179
     2
170
     2
171
     1
172
     0
 90
        2
 40
0.0
 41
0.0
173
     1
 91
-1056964608
340
5B
 92
       -2
290
     1
 42
0.09
291
     1
 43
0.36
  3
Standard
 44
0.18
300

342
55
174
     1
178
     6
175
     1
176
     0
 93
-1056964608
 45
0.18
292
     0
297
     0
 46
0.18
 94
-1056964608
 47
1.0
 49
1.0
140
1.0
293
     1
141
0.0
294
     1
177
     0
142
1.0
295
     1
296
     0
143
0.125
271
     0
272
     9
273
     9
298
     1
  0
MLINESTYLE
  5
60
102
{ACAD_REACTORS
330
5F
102
}
330
5F
100
AcDbMlineStyle
  2
STANDARD
 70
     0
  3

 62
   256
 51
90.0
 52
90.0
 71
     2
 49
0.5
 62
   256
  6
BYLAYER
 49
-0.5
 62
   256
  6
BYLAYER
  0
ACDBPLACEHOLDER
  5
F
102
{ACAD_REACTORS
330
E
102
}
330
E
  0
SCALE
  5
43
102
{ACAD_REACTORS
330
42
102
}
330
42
100
AcDbScale
 70
     0
300
1:1
140
1.0
141
1.0
290
     1
  0
SCALE
  5
44
102
{ACAD_REACTORS
330
42
102
}
330
42
100
AcDbScale
 70
     0
300
1/128" = 1'-0"
140
0.0078125
141
12.0
290
     0
  0
SCALE
  5
45
102
{ACAD_REACTORS
330
42
102
}
330
42
100
AcDbScale
 70
     0
300
1/64" = 1'-0"
140
0.015625
141
12.0
290
     0
  0
SCALE
  5
46
102
{ACAD_REACTORS
330
42
102
}
330
42
100
AcDbScale
 70
     0
300
1/32" = 1'-0"
140
0.03125
141
12.0
290
     0
  0
SCALE
  5
47
102
{ACAD_REACTORS
330
42
102
}
330
42
100
AcDbScale
 70
     0
300
1/16" = 1'-0"
140
0.0625
141
12.0
290
     0
  0
SCALE
  5
48
102
{ACAD_REACTORS
330
42
102
}
330
42
100
AcDbScale
 70
     0
300
3/32" = 1'-0"
140
0.09375
141
12.0
290
     0
  0
SCALE
  5
49
102
{ACAD_REACTORS
330
42
102
}
330
42
100
AcDbScale
 70
     0
300
1/8" = 1'-0"
140
0.125
141
12.0
290
     0
  0
SCALE
  5
4A
102
{ACAD_REACTORS
330
42
102
}
330
42
100
AcDbScale
 70
     0
300
3/16" = 1'-0"
140
0.1875
141
12.0
290
     0
  0
SCALE
  5
4B
102
{ACAD_REACTORS
330
42
102
}
330
42
100
AcDbScale
 70
     0
300
1/4" = 1'-0"
140
0.25
141
12.0
290
     0
  0
SCALE
  5
4C
102
{ACAD_REACTORS
330
42
102
}
330
42
100
AcDbScale
 70
     0
300
3/8" = 1'-0"
140
0.375
141
12.0
290
     0
  0
SCALE
  5
4D
102
{ACAD_REACTORS
330
42
102
}
330
42
100
AcDbScale
 70
     0
300
1/2" = 1'-0"
140
0.5
141
12.0
290
     0
  0
SCALE
  5
4E
102
{ACAD_REACTORS
330
42
102
}
330
42
100
AcDbScale
 70
     0
300
3/4" = 1'-0"
140
0.75
141
12.0
290
     0
  0
SCALE
  5
4F
102
{ACAD_REACTORS
330
42
102
}
330
42
100
AcDbScale
 70
     0
300
1" = 1'-0"
140
1.0
141
12.0
290
     0
  0
SCALE
  5
50
102
{ACAD_REACTORS
330
42
102
}
330
42
100
AcDbScale
 70
     0
300
1-1/2" = 1'-0"
140
1.5
141
12.0
290
     0
  0
SCALE
  5
51
102
{ACAD_REACTORS
330
42
102
}
330
42
100
AcDbScale
 70
     0
300
3" = 1'-0"
140
3.0
141
12.0
290
     0
  0
SCALE
  5
52
102
{ACAD_REACTORS
330
42
102
}
330
42
100
AcDbScale
 70
     0
300
6" = 1'-0"
140
6.0
141
12.0
290
     0
  0
SCALE
  5
53
102
{ACAD_REACTORS
330
42
102
}
330
42
100
AcDbScale
 70
     0
300
1'-0" = 1'-0"
140
12.0
141
12.0
290
     0
  0
ACDBSECTIONVIEWSTYLE
  5
6A
102
{ACAD_REACTORS
330
68
102
}
330
68
100
AcDbModelDocViewStyle
 70
     0
  3
Imperial24
290
     1
100
AcDbSectionViewStyle
 70
     0
 71
     0
 90
       78
 71
     1
340
55
 62
   256
 40
0.24
340
0
340
0
 62
   256
 40
0.24
300
I, O, Q, S, X, Z
 40
0.48
 90
        3
 40
0.18
 90
        1
 71
     2
340
69
 90
       25
 62
   256
340
5D
 90
       50
 62
   256
 40
0.24
 40
0.0
 40
0.24
 71
     3
340
55
 62
   256
 40
0.24
 90
        1
 40
0.75
 90
        1
300
%<\AcVar ViewType \f "%tc1">% %<\AcVar ViewSectionStartId>%-%<\AcVar ViewSectionEndId>%\PSCALA %<\AcVar ViewScale \f "%sn">%
 71
     4
 62
   256
 62
   257
300
ANSI31
 40
1.0
 90
        0
290
     0
290
     0
 90
        6
 40
0.0
 40
1.570796326794896
 40
0.2617993877991494
 40
1.308996938995747
 40
-0.2617993877991494
 40
1.832595714594046
  0
TABLESTYLE
  5
65
102
{ACAD_XDICTIONARY
360
29E
102
}
102
{ACAD_REACTORS
330
64
102
}
330
64
100
AcDbTableStyle
280
     0
  3
Standard
 70
     0
 71
     0
 40
0.06
 41
0.06
280
     0
281
     0
  7
Standard
140
0.18
170
     2
 62
     0
 63
     7
283
     0
 90
      512
 91
        0
  1

274
    -2
284
     1
 64
     0
275
    -2
285
     1
 65
     0
276
    -2
286
     1
 66
     0
277
    -2
287
     1
 67
     0
278
    -2
288
     1
 68
     0
279
    -2
289
     1
 69
     0
  7
Standard
140
0.25
170
     5
 62
     0
 63
     7
283
     0
 90
      512
 91
        0
  1

274
    -2
284
     1
 64
     0
275
    -2
285
     1
 65
     0
276
    -2
286
     1
 66
     0
277
    -2
287
     1
 67
     0
278
    -2
288
     1
 68
     0
279
    -2
289
     1
 69
     0
  7
Standard
140
0.18
170
     5
 62
     0
 63
     7
283
     0
 90
      512
 91
        0
  1

274
    -2
284
     1
 64
     0
275
    -2
285
     1
 65
     0
276
    -2
286
     1
 66
     0
277
    -2
287
     1
 67
     0
278
    -2
288
     1
 68
     0
279
    -2
289
     1
 69
     0
  0
VISUALSTYLE
  5
2F
102
{ACAD_REACTORS
330
29
102
}
330
29
100
AcDbVisualStyle
  2
2dWireframe
 70
     4
177
     3
291
     0
 70
    58
 90
        0
176
     1
 90
        2
176
     1
 90
        0
176
     1
 90
        0
176
     1
 40
0.6
176
     1
 40
30.0
176
     1
 62
     7
420
 16777215
176
     1
 90
        1
176
     1
 90
        4
176
     1
 62
     7
176
     1
 62
   257
176
     1
 90
        1
176
     1
 90
        1
176
     1
 40
1.0
176
     1
 90
        0
176
     1
 62
   257
176
     1
 40
1.0
176
     1
 90
        1
176
     1
 90
        6
176
     1
 90
        2
176
     1
 62
     7
176
     1
 90
        5
176
     1
 90
        0
176
     1
 90
        0
176
     1
290
     0
176
     1
 90
        1
176
     1
 40
0.0
176
     1
 90
        0
176
     1
290
     1
176
     1
290
     1
176
     1
290
     0
176
     1
290
     0
176
     1
290
     0
176
     1
290
     0
176
     1
290
     0
176
     1
290
     0
176
     1
290
     0
176
     1
 90
       50
176
     1
 40
0.0
176
     1
 40
1.0
176
     1
 90
        0
176
     1
 62
    18
420
        0
176
     1
 90
       50
176
     1
 90
        3
176
     1
 62
     5
420
      255
176
     1
290
     0
176
     1
 90
       50
176
     1
 90
       50
176
     1
 90
       50
176
     1
290
     0
176
     1
 90
       50
176
     1
 62
   256
176
     0
 40
1.0
176
     0
 90
        2
176
     1
  1
strokes_ogs.tif
176
     1
290
     0
176
     1
 40
1.0
176
     1
 40
1.0
176
     1
  0
VISUALSTYLE
  5
2E
102
{ACAD_REACTORS
330
29
102
}
330
29
100
AcDbVisualStyle
  2
Basic
 70
     7
177
     3
291
     1
 70
    58
 90
        1
176
     1
 90
        0
176
     1
 90
        1
176
     1
 90
        0
176
     1
 40
0.6
176
     1
 40
30.0
176
     1
 62
     7
420
 16777215
176
     1
 90
        0
176
     1
 90
        4
176
     1
 62
     7
176
     1
 62
   257
176
     1
 90
        1
176
     1
 90
        1
176
     1
 40
1.0
176
     1
 90
        8
176
     1
 62
     7
176
     1
 40
1.0
176
     1
 90
        1
176
     1
 90
        6
176
     1
 90
        2
176
     1
 62
     7
176
     1
 90
        5
176
     1
 90
        0
176
     1
 90
        0
176
     1
290
     0
176
     1
 90
        1
176
     1
 40
0.0
176
     1
 90
        0
176
     1
290
     0
176
     1
290
     1
176
     1
290
     1
176
     1
290
     0
176
     1
290
     0
176
     1
290
     0
176
     1
290
     0
176
     1
290
     0
176
     1
290
     0
176
     1
 90
       50
176
     1
 40
0.0
176
     1
 40
1.0
176
     1
 90
        0
176
     1
 62
    18
420
        0
176
     1
 90
       50
176
     1
 90
        3
176
     1
 62
     5
420
      255
176
     1
290
     0
176
     1
 90
       50
176
     1
 90
       50
176
     1
 90
       50
176
     1
290
     0
176
     1
 90
       50
176
     1
 62
   256
176
     0
 40
1.0
176
     0
 90
        2
176
     1
  1
strokes_ogs.tif
176
     1
290
     0
176
     1
 40
1.0
176
     1
 40
1.0
176
     1
  0
VISUALSTYLE
  5
35
102
{ACAD_REACTORS
330
29
102
}
330
29
100
AcDbVisualStyle
  2
Brighten
 70
    12
177
     3
291
     1
 70
    58
 90
        2
176
     1
 90
        2
176
     1
 90
        0
176
     1
 90
        0
176
     1
 40
0.6
176
     1
 40
30.0
176
     1
 62
     7
420
 16777215
176
     1
 90
        1
176
     1
 90
        4
176
     1
 62
     7
176
     1
 62
   257
176
     1
 90
        1
176
     1
 90
        1
176
     1
 40
1.0
176
     1
 90
        8
176
     1
 62
     7
176
     1
 40
1.0
176
     1
 90
        1
176
     1
 90
        6
176
     1
 90
        2
176
     1
 62
     7
176
     1
 90
        5
176
     1
 90
        0
176
     1
 90
        0
176
     1
290
     0
176
     1
 90
        1
176
     1
 40
50.0
176
     1
 90
        0
176
     1
290
     0
176
     1
290
     1
176
     1
290
     1
176
     1
290
     0
176
     1
290
     0
176
     1
290
     0
176
     1
290
     0
176
     1
290
     0
176
     1
290
     0
176
     1
 90
       50
176
     1
 40
0.0
176
     1
 40
1.0
176
     1
 90
        0
176
     1
 62
    18
420
        0
176
     1
 90
       50
176
     1
 90
        3
176
     1
 62
     5
420
      255
176
     1
290
     0
176
     1
 90
       50
176
     1
 90
       50
176
     1
 90
       50
176
     1
290
     0
176
     1
 90
       50
176
     1
 62
   256
176
     0
 40
1.0
176
     0
 90
        2
176
     1
  1
strokes_ogs.tif
176
     1
290
     0
176
     1
 40
1.0
176
     1
 40
1.0
176
     1
  0
VISUALSTYLE
  5
39
102
{ACAD_REACTORS
330
29
102
}
330
29
100
AcDbVisualStyle
  2
ColorChange
 70
    16
177
     3
291
     1
 70
    58
 90
        2
176
     1
 90
        2
176
     1
 90
        3
176
     1
 90
        0
176
     1
 40
0.6
176
     1
 40
30.0
176
     1
 62
     8
420
  8421504
176
     1
 90
        1
176
     1
 90
        4
176
     1
 62
     7
176
     1
 62
   257
176
     1
 90
        1
176
     1
 90
        1
176
     1
 40
1.0
176
     1
 90
        8
176
     1
 62
     8
420
  8421504
176
     1
 40
1.0
176
     1
 90
        1
176
     1
 90
        6
176
     1
 90
        2
176
     1
 62
     7
176
     1
 90
        5
176
     1
 90
        0
176
     1
 90
        0
176
     1
290
     0
176
     1
 90
        1
176
     1
 40
0.0
176
     1
 90
        0
176
     1
290
     0
176
     1
290
     1
176
     1
290
     1
176
     1
290
     0
176
     1
290
     0
176
     1
290
     0
176
     1
290
     0
176
     1
290
     0
176
     1
290
     0
176
     1
 90
       50
176
     1
 40
0.0
176
     1
 40
1.0
176
     1
 90
        0
176
     1
 62
    18
420
        0
176
     1
 90
       50
176
     1
 90
        3
176
     1
 62
     5
420
      255
176
     1
290
     0
176
     1
 90
       50
176
     1
 90
       50
176
     1
 90
       50
176
     1
290
     0
176
     1
 90
       50
176
     1
 62
   256
176
     0
 40
1.0
176
     0
 90
        2
176
     1
  1
strokes_ogs.tif
176
     1
290
     0
176
     1
 40
1.0
176
     1
 40
1.0
176
     1
  0
VISUALSTYLE
  5
32
102
{ACAD_REACTORS
330
29
102
}
330
29
100
AcDbVisualStyle
  2
Conceptual
 70
     9
177
     3
291
     0
 70
    58
 90
        3
176
     1
 90
        2
176
     1
 90
        0
176
     1
 90
        0
176
     1
 40
0.6
176
     1
 40
30.0
176
     1
 62
     7
420
 16777215
176
     1
 90
        2
176
     1
 90
        2
176
     1
 62
     7
176
     1
 62
   257
176
     1
 90
        1
176
     1
 90
        1
176
     1
 40
179.0
176
     1
 90
        8
176
     1
 62
     7
176
     1
 40
1.0
176
     1
 90
        1
176
     1
 90
        6
176
     1
 90
        2
176
     1
 62
     7
176
     1
 90
        3
176
     1
 90
        0
176
     1
 90
        0
176
     1
290
     0
176
     1
 90
        1
176
     1
 40
0.0
176
     1
 90
        0
176
     1
290
     0
176
     1
290
     1
176
     1
290
     1
176
     1
290
     0
176
     1
290
     0
176
     1
290
     0
176
     1
290
     0
176
     1
290
     0
176
     1
290
     0
176
     1
 90
       50
176
     1
 40
0.0
176
     1
 40
1.0
176
     1
 90
        0
176
     1
 62
    18
420
        0
176
     1
 90
       50
176
     1
 90
        3
176
     1
 62
     5
420
      255
176
     1
290
     0
176
     1
 90
       50
176
     1
 90
       50
176
     1
 90
       50
176
     1
290
     0
176
     1
 90
       50
176
     1
 62
   256
176
     0
 40
1.0
176
     0
 90
        2
176
     1
  1
strokes_ogs.tif
176
     1
290
     0
176
     1
 40
1.0
176
     1
 40
1.0
176
     1
  0
VISUALSTYLE
  5
34
102
{ACAD_REACTORS
330
29
102
}
330
29
100
AcDbVisualStyle
  2
Dim
 70
    11
177
     3
291
     1
 70
    58
 90
        2
176
     1
 90
        2
176
     1
 90
        0
176
     1
 90
        0
176
     1
 40
0.6
176
     1
 40
30.0
176
     1
 62
     7
420
 16777215
176
     1
 90
        1
176
     1
 90
        4
176
     1
 62
     7
176
     1
 62
   257
176
     1
 90
        1
176
     1
 90
        1
176
     1
 40
1.0
176
     1
 90
        8
176
     1
 62
     7
176
     1
 40
1.0
176
     1
 90
        1
176
     1
 90
        6
176
     1
 90
        2
176
     1
 62
     7
176
     1
 90
        5
176
     1
 90
        0
176
     1
 90
        0
176
     1
290
     0
176
     1
 90
        1
176
     1
 40
-50.0
176
     1
 90
        0
176
     1
290
     0
176
     1
290
     1
176
     1
290
     1
176
     1
290
     0
176
     1
290
     0
176
     1
290
     0
176
     1
290
     0
176
     1
290
     0
176
     1
290
     0
176
     1
 90
       50
176
     1
 40
0.0
176
     1
 40
1.0
176
     1
 90
        0
176
     1
 62
    18
420
        0
176
     1
 90
       50
176
     1
 90
        3
176
     1
 62
     5
420
      255
176
     1
290
     0
176
     1
 90
       50
176
     1
 90
       50
176
     1
 90
       50
176
     1
290
     0
176
     1
 90
       50
176
     1
 62
   256
176
     0
 40
1.0
176
     0
 90
        2
176
     1
  1
strokes_ogs.tif
176
     1
290
     0
176
     1
 40
1.0
176
     1
 40
1.0
176
     1
  0
VISUALSTYLE
  5
41
102
{ACAD_REACTORS
330
29
102
}
330
29
100
AcDbVisualStyle
  2
EdgeColorOff
 70
    22
177
     3
291
     1
 70
    58
 90
        2
176
     0
 90
        2
176
     0
 90
        0
176
     0
 90
        0
176
     0
 40
0.6
176
     0
 40
30.0
176
     0
 62
     7
420
 16777215
176
     0
 90
        1
176
     0
 90
        4
176
     0
 62
     7
176
     0
 62
   257
176
     0
 90
        1
176
     0
 90
        1
176
     0
 40
1.0
176
     0
 90
        8
176
     2
 62
     7
176
     0
 40
1.0
176
     0
 90
        1
176
     0
 90
        6
176
     0
 90
        2
176
     0
 62
     7
176
     0
 90
        5
176
     0
 90
        0
176
     0
 90
        0
176
     0
290
     0
176
     0
 90
        1
176
     0
 40
0.0
176
     0
 90
        0
176
     0
290
     0
176
     0
290
     1
176
     0
290
     1
176
     0
290
     0
176
     0
290
     0
176
     0
290
     0
176
     0
290
     0
176
     0
290
     0
176
     0
290
     0
176
     0
 90
       50
176
     0
 40
0.0
176
     0
 40
1.0
176
     0
 90
        0
176
     0
 62
    18
420
        0
176
     0
 90
       50
176
     0
 90
        3
176
     0
 62
     5
420
      255
176
     0
290
     0
176
     0
 90
       50
176
     0
 90
       50
176
     0
 90
       50
176
     0
290
     0
176
     0
 90
       50
176
     0
 62
   256
176
     0
 40
1.0
176
     0
 90
        2
176
     0
  1
strokes_ogs.tif
176
     0
290
     0
176
     0
 40
1.0
176
     0
 40
1.0
176
     0
  0
VISUALSTYLE
  5
38
102
{ACAD_REACTORS
330
29
102
}
330
29
100
AcDbVisualStyle
  2
Facepattern
 70
    15
177
     3
291
     1
 70
    58
 90
        2
176
     1
 90
        2
176
     1
 90
        0
176
     1
 90
        0
176
     1
 40
0.6
176
     1
 40
30.0
176
     1
 62
     7
420
 16777215
176
     1
 90
        1
176
     1
 90
        4
176
     1
 62
     7
176
     1
 62
   257
176
     1
 90
        1
176
     1
 90
        1
176
     1
 40
1.0
176
     1
 90
        8
176
     1
 62
     7
176
     1
 40
1.0
176
     1
 90
        1
176
     1
 90
        6
176
     1
 90
        2
176
     1
 62
     7
176
     1
 90
        5
176
     1
 90
        0
176
     1
 90
        0
176
     1
290
     0
176
     1
 90
        1
176
     1
 40
0.0
176
     1
 90
        0
176
     1
290
     0
176
     1
290
     1
176
     1
290
     1
176
     1
290
     0
176
     1
290
     0
176
     1
290
     0
176
     1
290
     0
176
     1
290
     0
176
     1
290
     0
176
     1
 90
       50
176
     1
 40
0.0
176
     1
 40
1.0
176
     1
 90
        0
176
     1
 62
    18
420
        0
176
     1
 90
       50
176
     1
 90
        3
176
     1
 62
     5
420
      255
176
     1
290
     0
176
     1
 90
       50
176
     1
 90
       50
176
     1
 90
       50
176
     1
290
     0
176
     1
 90
       50
176
     1
 62
   256
176
     0
 40
1.0
176
     0
 90
        2
176
     1
  1
strokes_ogs.tif
176
     1
290
     0
176
     1
 40
1.0
176
     1
 40
1.0
176
     1
  0
VISUALSTYLE
  5
2A
102
{ACAD_REACTORS
330
29
102
}
330
29
100
AcDbVisualStyle
  2
Flat
 70
     0
177
     3
291
     1
 70
    58
 90
        2
176
     1
 90
        1
176
     1
 90
        1
176
     1
 90
        2
176
     1
 40
0.6
176
     1
 40
30.0
176
     1
 62
     7
420
 16777215
176
     1
 90
        0
176
     1
 90
        0
176
     1
 62
     7
176
     1
 62
   257
176
     1
 90
        1
176
     1
 90
        1
176
     1
 40
1.0
176
     1
 90
        8
176
     1
 62
     7
176
     1
 40
1.0
176
     1
 90
        1
176
     1
 90
        6
176
     1
 90
        2
176
     1
 62
     7
176
     1
 90
        5
176
     1
 90
        0
176
     1
 90
        0
176
     1
290
     0
176
     1
 90
       13
176
     1
 40
0.0
176
     1
 90
        0
176
     1
290
     0
176
     1
290
     1
176
     1
290
     1
176
     1
290
     0
176
     1
290
     0
176
     1
290
     0
176
     1
290
     0
176
     1
290
     0
176
     1
290
     0
176
     1
 90
       50
176
     1
 40
0.0
176
     1
 40
1.0
176
     1
 90
        0
176
     1
 62
    18
420
        0
176
     1
 90
       50
176
     1
 90
        3
176
     1
 62
     5
420
      255
176
     1
290
     0
176
     1
 90
       50
176
     1
 90
       50
176
     1
 90
       50
176
     1
290
     0
176
     1
 90
       50
176
     1
 62
   256
176
     0
 40
1.0
176
     0
 90
        2
176
     1
  1
strokes_ogs.tif
176
     1
290
     0
176
     1
 40
1.0
176
     1
 40
1.0
176
     1
  0
VISUALSTYLE
  5
2B
102
{ACAD_REACTORS
330
29
102
}
330
29
100
AcDbVisualStyle
  2
FlatWithEdges
 70
     1
177
     3
291
     1
 70
    58
 90
        2
176
     1
 90
        1
176
     1
 90
        1
176
     1
 90
        2
176
     1
 40
0.6
176
     1
 40
30.0
176
     1
 62
     7
420
 16777215
176
     1
 90
        1
176
     1
 90
        0
176
     1
 62
     7
176
     1
 62
   257
176
     1
 90
        1
176
     1
 90
        1
176
     1
 40
1.0
176
     1
 90
        0
176
     1
 62
   257
176
     1
 40
1.0
176
     1
 90
        1
176
     1
 90
        6
176
     1
 90
        2
176
     1
 62
     7
176
     1
 90
        5
176
     1
 90
        0
176
     1
 90
        0
176
     1
290
     0
176
     1
 90
       13
176
     1
 40
0.0
176
     1
 90
        0
176
     1
290
     0
176
     1
290
     1
176
     1
290
     1
176
     1
290
     0
176
     1
290
     0
176
     1
290
     0
176
     1
290
     0
176
     1
290
     0
176
     1
290
     0
176
     1
 90
       50
176
     1
 40
0.0
176
     1
 40
1.0
176
     1
 90
        0
176
     1
 62
    18
420
        0
176
     1
 90
       50
176
     1
 90
        3
176
     1
 62
     5
420
      255
176
     1
290
     0
176
     1
 90
       50
176
     1
 90
       50
176
     1
 90
       50
176
     1
290
     0
176
     1
 90
       50
176
     1
 62
   256
176
     0
 40
1.0
176
     0
 90
        2
176
     1
  1
strokes_ogs.tif
176
     1
290
     0
176
     1
 40
1.0
176
     1
 40
1.0
176
     1
  0
VISUALSTYLE
  5
2C
102
{ACAD_REACTORS
330
29
102
}
330
29
100
AcDbVisualStyle
  2
Gouraud
 70
     2
177
     3
291
     1
 70
    58
 90
        2
176
     1
 90
        2
176
     1
 90
        1
176
     1
 90
        2
176
     1
 40
0.6
176
     1
 40
30.0
176
     1
 62
     7
420
 16777215
176
     1
 90
        0
176
     1
 90
        0
176
     1
 62
     7
176
     1
 62
   257
176
     1
 90
        1
176
     1
 90
        1
176
     1
 40
1.0
176
     1
 90
        0
176
     1
 62
     7
176
     1
 40
1.0
176
     1
 90
        1
176
     1
 90
        6
176
     1
 90
        2
176
     1
 62
     7
176
     1
 90
        5
176
     1
 90
        0
176
     1
 90
        0
176
     1
290
     0
176
     1
 90
       13
176
     1
 40
0.0
176
     1
 90
        0
176
     1
290
     0
176
     1
290
     1
176
     1
290
     1
176
     1
290
     0
176
     1
290
     0
176
     1
290
     0
176
     1
290
     0
176
     1
290
     0
176
     1
290
     0
176
     1
 90
       50
176
     1
 40
0.0
176
     1
 40
1.0
176
     1
 90
        0
176
     1
 62
    18
420
        0
176
     1
 90
       50
176
     1
 90
        3
176
     1
 62
     5
420
      255
176
     1
290
     0
176
     1
 90
       50
176
     1
 90
       50
176
     1
 90
       50
176
     1
290
     0
176
     1
 90
       50
176
     1
 62
   256
176
     0
 40
1.0
176
     0
 90
        2
176
     1
  1
strokes_ogs.tif
176
     1
290
     0
176
     1
 40
1.0
176
     1
 40
1.0
176
     1
  0
VISUALSTYLE
  5
2D
102
{ACAD_REACTORS
330
29
102
}
330
29
100
AcDbVisualStyle
  2
GouraudWithEdges
 70
     3
177
     3
291
     1
 70
    58
 90
        2
176
     1
 90
        2
176
     1
 90
        1
176
     1
 90
        2
176
     1
 40
0.6
176
     1
 40
30.0
176
     1
 62
     7
420
 16777215
176
     1
 90
        1
176
     1
 90
        0
176
     1
 62
     7
176
     1
 62
   257
176
     1
 90
        1
176
     1
 90
        1
176
     1
 40
1.0
176
     1
 90
        0
176
     1
 62
   257
176
     1
 40
1.0
176
     1
 90
        1
176
     1
 90
        6
176
     1
 90
        2
176
     1
 62
     7
176
     1
 90
        5
176
     1
 90
        0
176
     1
 90
        0
176
     1
290
     0
176
     1
 90
       13
176
     1
 40
0.0
176
     1
 90
        0
176
     1
290
     0
176
     1
290
     1
176
     1
290
     1
176
     1
290
     0
176
     1
290
     0
176
     1
290
     0
176
     1
290
     0
176
     1
290
     0
176
     1
290
     0
176
     1
 90
       50
176
     1
 40
0.0
176
     1
 40
1.0
176
     1
 90
        0
176
     1
 62
    18
420
        0
176
     1
 90
       50
176
     1
 90
        3
176
     1
 62
     5
420
      255
176
     1
290
     0
176
     1
 90
       50
176
     1
 90
       50
176
     1
 90
       50
176
     1
290
     0
176
     1
 90
       50
176
     1
 62
   256
176
     0
 40
1.0
176
     0
 90
        2
176
     1
  1
strokes_ogs.tif
176
     1
290
     0
176
     1
 40
1.0
176
     1
 40
1.0
176
     1
  0
VISUALSTYLE
  5
31
102
{ACAD_REACTORS
330
29
102
}
330
29
100
AcDbVisualStyle
  2
Hidden
 70
     6
177
     3
291
     0
 70
    58
 90
        1
176
     1
 90
        2
176
     1
 90
        2
176
     1
 90
        0
176
     1
 40
0.6
176
     1
 40
30.0
176
     1
 62
     7
420
 16777215
176
     1
 90
        2
176
     1
 90
        2
176
     1
 62
     7
176
     1
 62
   257
176
     1
 90
        2
176
     1
 90
        1
176
     1
 40
40.0
176
     1
 90
        0
176
     1
 62
   257
176
     1
 40
1.0
176
     1
 90
        1
176
     1
 90
        6
176
     1
 90
        2
176
     1
 62
     7
176
     1
 90
        3
176
     1
 90
        0
176
     1
 90
        0
176
     1
290
     0
176
     1
 90
        1
176
     1
 40
0.0
176
     1
 90
        0
176
     1
290
     0
176
     1
290
     1
176
     1
290
     1
176
     1
290
     0
176
     1
290
     0
176
     1
290
     0
176
     1
290
     0
176
     1
290
     0
176
     1
290
     0
176
     1
 90
       50
176
     1
 40
0.0
176
     1
 40
1.0
176
     1
 90
        0
176
     1
 62
    18
420
        0
176
     1
 90
       50
176
     1
 90
        3
176
     1
 62
     5
420
      255
176
     1
290
     0
176
     1
 90
       50
176
     1
 90
       50
176
     1
 90
       50
176
     1
290
     0
176
     1
 90
       50
176
     1
 62
   256
176
     0
 40
1.0
176
     0
 90
        2
176
     1
  1
strokes_ogs.tif
176
     1
290
     0
176
     1
 40
1.0
176
     1
 40
1.0
176
     1
  0
VISUALSTYLE
  5
3F
102
{ACAD_REACTORS
330
29
102
}
330
29
100
AcDbVisualStyle
  2
JitterOff
 70
    20
177
     3
291
     1
 70
    58
 90
        2
176
     0
 90
        2
176
     0
 90
        0
176
     0
 90
        0
176
     0
 40
0.6
176
     0
 40
30.0
176
     0
 62
     7
420
 16777215
176
     0
 90
        1
176
     0
 90
        4
176
     0
 62
     7
176
     0
 62
   257
176
     0
 90
        1
176
     0
 90
        1
176
     0
 40
1.0
176
     0
 90
       10
176
     2
 62
     7
176
     0
 40
1.0
176
     0
 90
        1
176
     0
 90
        6
176
     0
 90
        2
176
     0
 62
     7
176
     0
 90
        5
176
     0
 90
        0
176
     0
 90
        0
176
     0
290
     0
176
     0
 90
        1
176
     0
 40
0.0
176
     0
 90
        0
176
     0
290
     0
176
     0
290
     1
176
     0
290
     1
176
     0
290
     0
176
     0
290
     0
176
     0
290
     0
176
     0
290
     0
176
     0
290
     0
176
     0
290
     0
176
     0
 90
       50
176
     0
 40
0.0
176
     0
 40
1.0
176
     0
 90
        0
176
     0
 62
    18
420
        0
176
     0
 90
       50
176
     0
 90
        3
176
     0
 62
     5
420
      255
176
     0
290
     0
176
     0
 90
       50
176
     0
 90
       50
176
     0
 90
       50
176
     0
290
     0
176
     0
 90
       50
176
     0
 62
   256
176
     0
 40
1.0
176
     0
 90
        2
176
     0
  1
strokes_ogs.tif
176
     0
290
     0
176
     0
 40
1.0
176
     0
 40
1.0
176
     0
  0
VISUALSTYLE
  5
37
102
{ACAD_REACTORS
330
29
102
}
330
29
100
AcDbVisualStyle
  2
Linepattern
 70
    14
177
     3
291
     1
 70
    58
 90
        2
176
     1
 90
        2
176
     1
 90
        0
176
     1
 90
        0
176
     1
 40
0.6
176
     1
 40
30.0
176
     1
 62
     7
420
 16777215
176
     1
 90
        1
176
     1
 90
        4
176
     1
 62
     7
176
     1
 62
   257
176
     1
 90
        7
176
     1
 90
        7
176
     1
 40
1.0
176
     1
 90
        8
176
     1
 62
     7
176
     1
 40
1.0
176
     1
 90
        1
176
     1
 90
        6
176
     1
 90
        2
176
     1
 62
     7
176
     1
 90
        5
176
     1
 90
        0
176
     1
 90
        0
176
     1
290
     0
176
     1
 90
        1
176
     1
 40
0.0
176
     1
 90
        0
176
     1
290
     0
176
     1
290
     1
176
     1
290
     1
176
     1
290
     0
176
     1
290
     0
176
     1
290
     0
176
     1
290
     0
176
     1
290
     0
176
     1
290
     0
176
     1
 90
       50
176
     1
 40
0.0
176
     1
 40
1.0
176
     1
 90
        0
176
     1
 62
    18
420
        0
176
     1
 90
       50
176
     1
 90
        3
176
     1
 62
     5
420
      255
176
     1
290
     0
176
     1
 90
       50
176
     1
 90
       50
176
     1
 90
       50
176
     1
290
     0
176
     1
 90
       50
176
     1
 62
   256
176
     0
 40
1.0
176
     0
 90
        2
176
     1
  1
strokes_ogs.tif
176
     1
290
     0
176
     1
 40
1.0
176
     1
 40
1.0
176
     1
  0
VISUALSTYLE
  5
40
102
{ACAD_REACTORS
330
29
102
}
330
29
100
AcDbVisualStyle
  2
OverhangOff
 70
    21
177
     3
291
     1
 70
    58
 90
        2
176
     0
 90
        2
176
     0
 90
        0
176
     0
 90
        0
176
     0
 40
0.6
176
     0
 40
30.0
176
     0
 62
     7
420
 16777215
176
     0
 90
        1
176
     0
 90
        4
176
     0
 62
     7
176
     0
 62
   257
176
     0
 90
        1
176
     0
 90
        1
176
     0
 40
1.0
176
     0
 90
        9
176
     2
 62
     7
176
     0
 40
1.0
176
     0
 90
        1
176
     0
 90
        6
176
     0
 90
        2
176
     0
 62
     7
176
     0
 90
        5
176
     0
 90
        0
176
     0
 90
        0
176
     0
290
     0
176
     0
 90
        1
176
     0
 40
0.0
176
     0
 90
        0
176
     0
290
     0
176
     0
290
     1
176
     0
290
     1
176
     0
290
     0
176
     0
290
     0
176
     0
290
     0
176
     0
290
     0
176
     0
290
     0
176
     0
290
     0
176
     0
 90
       50
176
     0
 40
0.0
176
     0
 40
1.0
176
     0
 90
        0
176
     0
 62
    18
420
        0
176
     0
 90
       50
176
     0
 90
        3
176
     0
 62
     5
420
      255
176
     0
290
     0
176
     0
 90
       50
176
     0
 90
       50
176
     0
 90
       50
176
     0
290
     0
176
     0
 90
       50
176
     0
 62
   256
176
     0
 40
1.0
176
     0
 90
        2
176
     0
  1
strokes_ogs.tif
176
     0
290
     0
176
     0
 40
1.0
176
     0
 40
1.0
176
     0
  0
VISUALSTYLE
  5
33
102
{ACAD_REACTORS
330
29
102
}
330
29
100
AcDbVisualStyle
  2
Realistic
 70
     8
177
     3
291
     0
 70
    58
 90
        2
176
     1
 90
        3
176
     1
 90
        0
176
     1
 90
        2
176
     1
 40
0.6
176
     1
 40
30.0
176
     1
 62
     7
420
 16777215
176
     1
 90
        0
176
     1
 90
        0
176
     1
 62
     7
176
     1
 62
   257
176
     1
 90
        1
176
     1
 90
        1
176
     1
 40
1.0
176
     1
 90
        8
176
     1
 62
   257
176
     1
 40
1.0
176
     1
 90
        1
176
     1
 90
        6
176
     1
 90
        2
176
     1
 62
     7
176
     1
 90
        3
176
     1
 90
        0
176
     1
 90
        0
176
     1
290
     0
176
     1
 90
       13
176
     1
 40
0.0
176
     1
 90
        0
176
     1
290
     0
176
     1
290
     1
176
     1
290
     1
176
     1
290
     0
176
     1
290
     0
176
     1
290
     0
176
     1
290
     0
176
     1
290
     0
176
     1
290
     0
176
     1
 90
       50
176
     1
 40
0.0
176
     1
 40
1.0
176
     1
 90
        0
176
     1
 62
    18
420
        0
176
     1
 90
       50
176
     1
 90
        3
176
     1
 62
     5
420
      255
176
     1
290
     0
176
     1
 90
       50
176
     1
 90
       50
176
     1
 90
       50
176
     1
290
     0
176
     1
 90
       50
176
     1
 62
   256
176
     0
 40
1.0
176
     0
 90
        2
176
     1
  1
strokes_ogs.tif
176
     1
290
     0
176
     1
 40
1.0
176
     1
 40
1.0
176
     1
  0
VISUALSTYLE
  5
3E
102
{ACAD_REACTORS
330
29
102
}
330
29
100
AcDbVisualStyle
  2
Shaded
 70
    27
177
     3
291
     0
 70
    58
 90
        2
176
     1
 90
        2
176
     1
 90
        1
176
     1
 90
        2
176
     1
 40
0.6
176
     1
 40
30.0
176
     1
 62
     7
420
 16777215
176
     1
 90
        0
176
     1
 90
        4
176
     1
 62
     7
176
     1
 62
   257
176
     1
 90
        1
176
     1
 90
        1
176
     1
 40
1.0
176
     1
 90
        8
176
     1
 62
   257
176
     1
 40
1.0
176
     1
 90
        1
176
     1
 90
        6
176
     1
 90
        2
176
     1
 62
     8
420
  7895160
176
     1
 90
        3
176
     1
 90
        0
176
     1
 90
        0
176
     1
290
     0
176
     1
 90
        5
176
     1
 40
0.0
176
     1
 90
        0
176
     1
290
     0
176
     1
290
     1
176
     1
290
     1
176
     1
290
     0
176
     1
290
     0
176
     1
290
     0
176
     1
290
     0
176
     1
290
     0
176
     1
290
     0
176
     1
 90
       50
176
     1
 40
0.0
176
     1
 40
1.0
176
     1
 90
        0
176
     1
 62
    18
420
        0
176
     1
 90
       50
176
     1
 90
        3
176
     1
 62
     5
420
      255
176
     1
290
     0
176
     1
 90
       50
176
     1
 90
       50
176
     1
 90
       50
176
     1
290
     0
176
     1
 90
       50
176
     1
 62
   256
176
     0
 40
1.0
176
     0
 90
        2
176
     1
  1
strokes_ogs.tif
176
     1
290
     0
176
     1
 40
1.0
176
     1
 40
1.0
176
     1
  0
VISUALSTYLE
  5
3D
102
{ACAD_REACTORS
330
29
102
}
330
29
100
AcDbVisualStyle
  2
Shaded with edges
 70
    26
177
     3
291
     0
 70
    58
 90
        2
176
     1
 90
        2
176
     1
 90
        1
176
     1
 90
        2
176
     1
 40
0.6
176
     1
 40
30.0
176
     1
 62
     7
420
 16777215
176
     1
 90
        1
176
     1
 90
       10
176
     1
 62
     7
176
     1
 62
   257
176
     1
 90
        2
176
     1
 90
        1
176
     1
 40
1.0
176
     1
 90
        8
176
     1
 62
   257
176
     1
 40
1.0
176
     1
 90
        1
176
     1
 90
        6
176
     1
 90
        2
176
     1
 62
     7
176
     1
 90
        3
176
     1
 90
        0
176
     1
 90
        0
176
     1
290
     0
176
     1
 90
        5
176
     1
 40
0.0
176
     1
 90
        0
176
     1
290
     0
176
     1
290
     1
176
     1
290
     1
176
     1
290
     0
176
     1
290
     0
176
     1
290
     0
176
     1
290
     0
176
     1
290
     0
176
     1
290
     0
176
     1
 90
       50
176
     1
 40
0.0
176
     1
 40
1.0
176
     1
 90
        0
176
     1
 62
    18
420
        0
176
     1
 90
       50
176
     1
 90
        3
176
     1
 62
     5
420
      255
176
     1
290
     0
176
     1
 90
       50
176
     1
 90
       50
176
     1
 90
       50
176
     1
290
     0
176
     1
 90
       50
176
     1
 62
   256
176
     0
 40
1.0
176
     0
 90
        2
176
     1
  1
strokes_ogs.tif
176
     1
290
     0
176
     1
 40
1.0
176
     1
 40
1.0
176
     1
  0
VISUALSTYLE
  5
3A
102
{ACAD_REACTORS
330
29
102
}
330
29
100
AcDbVisualStyle
  2
Shades of Gray
 70
    23
177
     3
291
     0
 70
    58
 90
        2
176
     1
 90
        2
176
     1
 90
        3
176
     1
 90
        0
176
     1
 40
0.6
176
     1
 40
30.0
176
     1
 62
     7
420
 16777215
176
     1
 90
        2
176
     1
 90
        2
176
     1
 62
     7
176
     1
 62
     7
176
     1
 90
        1
176
     1
 90
        1
176
     1
 40
40.0
176
     1
 90
        8
176
     1
 62
     7
176
     1
 40
1.0
176
     1
 90
        1
176
     1
 90
        6
176
     1
 90
        2
176
     1
 62
     7
176
     1
 90
        3
176
     1
 90
        0
176
     1
 90
        0
176
     1
290
     0
176
     1
 90
        1
176
     1
 40
0.0
176
     1
 90
        0
176
     1
290
     0
176
     1
290
     1
176
     1
290
     1
176
     1
290
     0
176
     1
290
     0
176
     1
290
     0
176
     1
290
     0
176
     1
290
     0
176
     1
290
     0
176
     1
 90
       50
176
     1
 40
0.0
176
     1
 40
1.0
176
     1
 90
        0
176
     1
 62
    18
420
        0
176
     1
 90
       50
176
     1
 90
        3
176
     1
 62
     5
420
      255
176
     1
290
     0
176
     1
 90
       50
176
     1
 90
       50
176
     1
 90
       50
176
     1
290
     0
176
     1
 90
       50
176
     1
 62
   256
176
     0
 40
1.0
176
     0
 90
        2
176
     1
  1
strokes_ogs.tif
176
     1
290
     0
176
     1
 40
1.0
176
     1
 40
1.0
176
     1
  0
VISUALSTYLE
  5
3B
102
{ACAD_REACTORS
330
29
102
}
330
29
100
AcDbVisualStyle
  2
Sketchy
 70
    24
177
     3
291
     0
 70
    58
 90
        1
176
     1
 90
        2
176
     1
 90
        2
176
     1
 90
        0
176
     1
 40
0.6
176
     1
 40
30.0
176
     1
 62
     7
420
 16777215
176
     1
 90
        2
176
     1
 90
        2
176
     1
 62
     7
176
     1
 62
     7
176
     1
 90
        1
176
     1
 90
        1
176
     1
 40
40.0
176
     1
 90
       11
176
     1
 62
     7
176
     1
 40
1.0
176
     1
 90
        1
176
     1
 90
        6
176
     1
 90
        2
176
     1
 62
     7
176
     1
 90
        6
176
     1
 90
        0
176
     1
 90
        0
176
     1
290
     0
176
     1
 90
        1
176
     1
 40
0.0
176
     1
 90
        0
176
     1
290
     0
176
     1
290
     1
176
     1
290
     1
176
     1
290
     0
176
     1
290
     0
176
     1
290
     0
176
     1
290
     0
176
     1
290
     0
176
     1
290
     0
176
     1
 90
       50
176
     1
 40
0.0
176
     1
 40
1.0
176
     1
 90
        0
176
     1
 62
    18
420
        0
176
     1
 90
       50
176
     1
 90
        3
176
     1
 62
     5
420
      255
176
     1
290
     0
176
     1
 90
       50
176
     1
 90
       50
176
     1
 90
       50
176
     1
290
     0
176
     1
 90
       50
176
     1
 62
   256
176
     0
 40
1.0
176
     0
 90
        2
176
     1
  1
strokes_ogs.tif
176
     1
290
     0
176
     1
 40
1.0
176
     1
 40
1.0
176
     1
  0
VISUALSTYLE
  5
36
102
{ACAD_REACTORS
330
29
102
}
330
29
100
AcDbVisualStyle
  2
Thicken
 70
    13
177
     3
291
     1
 70
    58
 90
        2
176
     1
 90
        2
176
     1
 90
        0
176
     1
 90
        0
176
     1
 40
0.6
176
     1
 40
30.0
176
     1
 62
     7
420
 16777215
176
     1
 90
        1
176
     1
 90
        4
176
     1
 62
     7
176
     1
 62
   257
176
     1
 90
        1
176
     1
 90
        1
176
     1
 40
1.0
176
     1
 90
       12
176
     1
 62
     7
176
     1
 40
1.0
176
     1
 90
        1
176
     1
 90
        6
176
     1
 90
        2
176
     1
 62
     7
176
     1
 90
        5
176
     1
 90
        0
176
     1
 90
        0
176
     1
290
     0
176
     1
 90
        1
176
     1
 40
0.0
176
     1
 90
        0
176
     1
290
     0
176
     1
290
     1
176
     1
290
     1
176
     1
290
     0
176
     1
290
     0
176
     1
290
     0
176
     1
290
     0
176
     1
290
     0
176
     1
290
     0
176
     1
 90
       50
176
     1
 40
0.0
176
     1
 40
1.0
176
     1
 90
        0
176
     1
 62
    18
420
        0
176
     1
 90
       50
176
     1
 90
        3
176
     1
 62
     5
420
      255
176
     1
290
     0
176
     1
 90
       50
176
     1
 90
       50
176
     1
 90
       50
176
     1
290
     0
176
     1
 90
       50
176
     1
 62
   256
176
     0
 40
1.0
176
     0
 90
        2
176
     1
  1
strokes_ogs.tif
176
     1
290
     0
176
     1
 40
1.0
176
     1
 40
1.0
176
     1
  0
VISUALSTYLE
  5
30
102
{ACAD_REACTORS
330
29
102
}
330
29
100
AcDbVisualStyle
  2
Wireframe
 70
     5
177
     3
291
     0
 70
    58
 90
        0
176
     1
 90
        2
176
     1
 90
        0
176
     1
 90
        0
176
     1
 40
0.6
176
     1
 40
30.0
176
     1
 62
     7
420
 16777215
176
     1
 90
        1
176
     1
 90
        4
176
     1
 62
     7
176
     1
 62
   257
176
     1
 90
        1
176
     1
 90
        1
176
     1
 40
1.0
176
     1
 90
        0
176
     1
 62
   257
176
     1
 40
1.0
176
     1
 90
        1
176
     1
 90
        6
176
     1
 90
        2
176
     1
 62
     7
176
     1
 90
        3
176
     1
 90
        0
176
     1
 90
        0
176
     1
290
     0
176
     1
 90
        1
176
     1
 40
0.0
176
     1
 90
        0
176
     1
290
     0
176
     1
290
     1
176
     1
290
     1
176
     1
290
     0
176
     1
290
     0
176
     1
290
     0
176
     1
290
     0
176
     1
290
     0
176
     1
290
     0
176
     1
 90
       50
176
     1
 40
0.0
176
     1
 40
1.0
176
     1
 90
        0
176
     1
 62
    18
420
        0
176
     1
 90
       50
176
     1
 90
        3
176
     1
 62
     5
420
      255
176
     1
290
     0
176
     1
 90
       50
176
     1
 90
       50
176
     1
 90
       50
176
     1
290
     0
176
     1
 90
       50
176
     1
 62
   256
176
     0
 40
1.0
176
     0
 90
        2
176
     1
  1
strokes_ogs.tif
176
     1
290
     0
176
     1
 40
1.0
176
     1
 40
1.0
176
     1
  0
VISUALSTYLE
  5
3C
102
{ACAD_REACTORS
330
29
102
}
330
29
100
AcDbVisualStyle
  2
X-Ray
 70
    25
177
     3
291
     0
 70
    58
 90
        2
176
     1
 90
        2
176
     1
 90
        1
176
     1
 90
        1
176
     1
 40
0.5
176
     1
 40
30.0
176
     1
 62
     7
420
 16777215
176
     1
 90
        1
176
     1
 90
        0
176
     1
 62
     7
176
     1
 62
   257
176
     1
 90
        1
176
     1
 90
        1
176
     1
 40
1.0
176
     1
 90
        8
176
     1
 62
     7
176
     1
 40
1.0
176
     1
 90
        1
176
     1
 90
        6
176
     1
 90
        2
176
     1
 62
     7
176
     1
 90
        3
176
     1
 90
        0
176
     1
 90
        0
176
     1
290
     0
176
     1
 90
       13
176
     1
 40
0.0
176
     1
 90
        0
176
     1
290
     0
176
     1
290
     1
176
     1
290
     1
176
     1
290
     0
176
     1
290
     0
176
     1
290
     0
176
     1
290
     0
176
     1
290
     0
176
     1
290
     0
176
     1
 90
       50
176
     1
 40
0.0
176
     1
 40
1.0
176
     1
 90
        0
176
     1
 62
    18
420
        0
176
     1
 90
       50
176
     1
 90
        3
176
     1
 62
     5
420
      255
176
     1
290
     0
176
     1
 90
       50
176
     1
 90
       50
176
     1
 90
       50
176
     1
290
     0
176
     1
 90
       50
176
     1
 62
   256
176
     0
 40
1.0
176
     0
 90
        2
176
     1
  1
strokes_ogs.tif
176
     1
290
     0
176
     1
 40
1.0
176
     1
 40
1.0
176
     1
  0
DICTIONARYVAR
  5
81
102
{ACAD_REACTORS
330
7C
102
}
330
7C
100
DictionaryVariables
280
     0
  1
1:1
  0
DICTIONARYVAR
  5
7E
102
{ACAD_REACTORS
330
7C
102
}
330
7C
100
DictionaryVariables
280
     0
  1
STANDARD
  0
DICTIONARYVAR
  5
7D
102
{ACAD_REACTORS
330
7C
102
}
330
7C
100
DictionaryVariables
280
     0
  1
STANDARD
  0
DICTIONARYVAR
  5
7F
102
{ACAD_REACTORS
330
7C
102
}
330
7C
100
DictionaryVariables
280
     0
  1
Imperial24
  0
DICTIONARYVAR
  5
80
102
{ACAD_REACTORS
330
7C
102
}
330
7C
100
DictionaryVariables
280
     0
  1
Imperial24
  0
XRECORD
  5
29B
102
{ACAD_REACTORS
330
297
102
}
330
297
100
AcDbXrecord
280
     1
  1
BUILDING_ID
  1
Progetto per messa in tavola DXF, DWG
  1
FLOOR_ID
  1
694395
  0
XRECORD
  5
299
102
{ACAD_REACTORS
330
297
102
}
330
297
100
AcDbXrecord
280
     1
  1
-2001160
  1
Apparecchi idraulici
  0
XRECORD
  5
29A
102
{ACAD_REACTORS
330
297
102
}
330
297
100
AcDbXrecord
280
     1
  1
790271
  1
Body
  0
XRECORD
  5
298
102
{ACAD_REACTORS
330
297
102
}
330
297
100
AcDbXrecord
280
     1
  1
859151
  1
Automatic flow rate regulator valve_Caleffi_121 DN15 : 1/2''
  0
DICTIONARY
  5
1A
330
19
100
AcDbDictionary
280
     1
281
     1
  3
BUMPTILE
360
1C
  3
DIFFUSETILE
360
1B
  3
OPACITYTILE
360
1F
  3
REFLECTIONTILE
360
1E
  3
REFRACTIONTILE
360
20
  3
SPECULARTILE
360
1D
  0
DICTIONARY
  5
12
330
11
100
AcDbDictionary
280
     1
281
     1
  3
BUMPTILE
360
14
  3
DIFFUSETILE
360
13
  3
OPACITYTILE
360
17
  3
REFLECTIONTILE
360
16
  3
REFRACTIONTILE
360
18
  3
SPECULARTILE
360
15
  0
DICTIONARY
  5
22
330
21
100
AcDbDictionary
280
     1
281
     1
  3
BUMPTILE
360
24
  3
DIFFUSETILE
360
23
  3
OPACITYTILE
360
27
  3
REFLECTIONTILE
360
26
  3
REFRACTIONTILE
360
28
  3
SPECULARTILE
360
25
  0
DICTIONARY
  5
29E
330
65
100
AcDbDictionary
280
     1
281
     1
  3
ACAD_ROUNDTRIP_2008_TABLESTYLE_CELLSTYLEMAP
360
29F
  0
XRECORD
  5
1C
102
{ACAD_REACTORS
330
1A
102
}
330
1A
100
AcDbXrecord
280
     1
270
     1
271
     1
  0
XRECORD
  5
1B
102
{ACAD_REACTORS
330
1A
102
}
330
1A
100
AcDbXrecord
280
     1
270
     1
271
     1
  0
XRECORD
  5
1F
102
{ACAD_REACTORS
330
1A
102
}
330
1A
100
AcDbXrecord
280
     1
270
     1
271
     1
  0
XRECORD
  5
1E
102
{ACAD_REACTORS
330
1A
102
}
330
1A
100
AcDbXrecord
280
     1
270
     1
271
     1
  0
XRECORD
  5
20
102
{ACAD_REACTORS
330
1A
102
}
330
1A
100
AcDbXrecord
280
     1
270
     1
271
     1
  0
XRECORD
  5
1D
102
{ACAD_REACTORS
330
1A
102
}
330
1A
100
AcDbXrecord
280
     1
270
     1
271
     1
  0
XRECORD
  5
14
102
{ACAD_REACTORS
330
12
102
}
330
12
100
AcDbXrecord
280
     1
270
     1
271
     1
  0
XRECORD
  5
13
102
{ACAD_REACTORS
330
12
102
}
330
12
100
AcDbXrecord
280
     1
270
     1
271
     1
  0
XRECORD
  5
17
102
{ACAD_REACTORS
330
12
102
}
330
12
100
AcDbXrecord
280
     1
270
     1
271
     1
  0
XRECORD
  5
16
102
{ACAD_REACTORS
330
12
102
}
330
12
100
AcDbXrecord
280
     1
270
     1
271
     1
  0
XRECORD
  5
18
102
{ACAD_REACTORS
330
12
102
}
330
12
100
AcDbXrecord
280
     1
270
     1
271
     1
  0
XRECORD
  5
15
102
{ACAD_REACTORS
330
12
102
}
330
12
100
AcDbXrecord
280
     1
270
     1
271
     1
  0
XRECORD
  5
24
102
{ACAD_REACTORS
330
22
102
}
330
22
100
AcDbXrecord
280
     1
270
     1
271
     1
  0
XRECORD
  5
23
102
{ACAD_REACTORS
330
22
102
}
330
22
100
AcDbXrecord
280
     1
270
     1
271
     1
  0
XRECORD
  5
27
102
{ACAD_REACTORS
330
22
102
}
330
22
100
AcDbXrecord
280
     1
270
     1
271
     1
  0
XRECORD
  5
26
102
{ACAD_REACTORS
330
22
102
}
330
22
100
AcDbXrecord
280
     1
270
     1
271
     1
  0
XRECORD
  5
28
102
{ACAD_REACTORS
330
22
102
}
330
22
100
AcDbXrecord
280
     1
270
     1
271
     1
  0
XRECORD
  5
25
102
{ACAD_REACTORS
330
22
102
}
330
22
100
AcDbXrecord
280
     1
270
     1
271
     1
  0
CELLSTYLEMAP
  5
29F
102
{ACAD_REACTORS
330
29E
102
}
330
29E
100
AcDbCellStyleMap
 90
        3
300
CELLSTYLE
  1
TABLEFORMAT_BEGIN
 90
        5
170
     1
 91
        0
 92
    32768
 62
   257
 93
        1
300
CONTENTFORMAT
  1
CONTENTFORMAT_BEGIN
 90
        0
 91
        0
 92
      512
 93
        0
300

 40
0.0
140
1.0
 94
        5
 62
     0
340
55
144
0.25
309
CONTENTFORMAT_END
171
     0
 94
        0
309
TABLEFORMAT_END
  1
CELLSTYLE_BEGIN
 90
        1
 91
        1
300
_TITLE
309
CELLSTYLE_END
300
CELLSTYLE
  1
TABLEFORMAT_BEGIN
 90
        5
170
     1
 91
        0
 92
        0
 62
   257
 93
        1
300
CONTENTFORMAT
  1
CONTENTFORMAT_BEGIN
 90
        0
 91
        0
 92
      512
 93
        0
300

 40
0.0
140
1.0
 94
        5
 62
     0
340
55
144
0.18
309
CONTENTFORMAT_END
171
     0
 94
        0
309
TABLEFORMAT_END
  1
CELLSTYLE_BEGIN
 90
        2
 91
        1
300
_HEADER
309
CELLSTYLE_END
300
CELLSTYLE
  1
TABLEFORMAT_BEGIN
 90
        5
170
     1
 91
        0
 92
        0
 62
   257
 93
        1
300
CONTENTFORMAT
  1
CONTENTFORMAT_BEGIN
 90
        0
 91
        0
 92
      512
 93
        0
300

 40
0.0
140
1.0
 94
        2
 62
     0
340
55
144
0.18
309
CONTENTFORMAT_END
171
     0
 94
        0
309
TABLEFORMAT_END
  1
CELLSTYLE_BEGIN
 90
        3
 91
        2
300
_DATA
309
CELLSTYLE_END
  0
ENDSEC
  0
EOF
