  0
SECTION
  2
HEADER
  9
$ACADVER
  1
AC1027
  9
$ACADMAINTVER
 70
    20
  9
$DWGCODEPAGE
  3
ANSI_1252
  9
$LASTSAVEDBY
  1
sparenzan
  9
$REQUIREDVERSIONS
160
                 0
  9
$INSBASE
 10
0.0
 20
0.0
 30
0.0
  9
$EXTMIN
 10
769.4855994030532
 20
1806.150737862371
 30
0.0
  9
$EXTMAX
 10
1156.428244810776
 20
2103.830243597773
 30
0.0
  9
$LIMMIN
 10
0.0
 20
0.0
  9
$LIMMAX
 10
12.0
 20
9.0
  9
$ORTHOMODE
 70
     0
  9
$REGENMODE
 70
     1
  9
$FILLMODE
 70
     1
  9
$QTEXTMODE
 70
     0
  9
$MIRRTEXT
 70
     0
  9
$LTSCALE
 40
1.0
  9
$ATTMODE
 70
     1
  9
$TEXTSIZE
 40
0.2
  9
$TRACEWID
 40
0.05
  9
$TEXTSTYLE
  7
Standard
  9
$CLAYER
  8
M-PIPE
  9
$CELTYPE
  6
ByLayer
  9
$CECOLOR
 62
   256
  9
$CELTSCALE
 40
1.0
  9
$DISPSILH
 70
     0
  9
$DIMSCALE
 40
1.0
  9
$DIMASZ
 40
0.18
  9
$DIMEXO
 40
0.0625
  9
$DIMDLI
 40
0.38
  9
$DIMRND
 40
0.0
  9
$DIMDLE
 40
0.0
  9
$DIMEXE
 40
0.18
  9
$DIMTP
 40
0.0
  9
$DIMTM
 40
0.0
  9
$DIMTXT
 40
0.18
  9
$DIMCEN
 40
0.09
  9
$DIMTSZ
 40
0.0
  9
$DIMTOL
 70
     0
  9
$DIMLIM
 70
     0
  9
$DIMTIH
 70
     1
  9
$DIMTOH
 70
     1
  9
$DIMSE1
 70
     0
  9
$DIMSE2
 70
     0
  9
$DIMTAD
 70
     0
  9
$DIMZIN
 70
     0
  9
$DIMBLK
  1

  9
$DIMASO
 70
     1
  9
$DIMSHO
 70
     1
  9
$DIMPOST
  1

  9
$DIMAPOST
  1

  9
$DIMALT
 70
     0
  9
$DIMALTD
 70
     2
  9
$DIMALTF
 40
25.4
  9
$DIMLFAC
 40
1.0
  9
$DIMTOFL
 70
     0
  9
$DIMTVP
 40
0.0
  9
$DIMTIX
 70
     0
  9
$DIMSOXD
 70
     0
  9
$DIMSAH
 70
     0
  9
$DIMBLK1
  1

  9
$DIMBLK2
  1

  9
$DIMSTYLE
  2
Standard
  9
$DIMCLRD
 70
     0
  9
$DIMCLRE
 70
     0
  9
$DIMCLRT
 70
     0
  9
$DIMTFAC
 40
1.0
  9
$DIMGAP
 40
0.09
  9
$DIMJUST
 70
     0
  9
$DIMSD1
 70
     0
  9
$DIMSD2
 70
     0
  9
$DIMTOLJ
 70
     1
  9
$DIMTZIN
 70
     0
  9
$DIMALTZ
 70
     0
  9
$DIMALTTZ
 70
     0
  9
$DIMUPT
 70
     0
  9
$DIMDEC
 70
     4
  9
$DIMTDEC
 70
     4
  9
$DIMALTU
 70
     2
  9
$DIMALTTD
 70
     2
  9
$DIMTXSTY
  7
Standard
  9
$DIMAUNIT
 70
     0
  9
$DIMADEC
 70
     0
  9
$DIMALTRND
 40
0.0
  9
$DIMAZIN
 70
     0
  9
$DIMDSEP
 70
    46
  9
$DIMATFIT
 70
     3
  9
$DIMFRAC
 70
     0
  9
$DIMLDRBLK
  1

  9
$DIMLUNIT
 70
     2
  9
$DIMLWD
 70
    -2
  9
$DIMLWE
 70
    -2
  9
$DIMTMOVE
 70
     0
  9
$DIMFXL
 40
1.0
  9
$DIMFXLON
 70
     0
  9
$DIMJOGANG
 40
0.7853981633974483
  9
$DIMTFILL
 70
     0
  9
$DIMTFILLCLR
 70
     0
  9
$DIMARCSYM
 70
     0
  9
$DIMLTYPE
  6

  9
$DIMLTEX1
  6

  9
$DIMLTEX2
  6

  9
$DIMTXTDIRECTION
 70
     0
  9
$LUNITS
 70
     2
  9
$LUPREC
 70
     4
  9
$SKETCHINC
 40
0.1
  9
$FILLETRAD
 40
0.0
  9
$AUNITS
 70
     0
  9
$AUPREC
 70
     0
  9
$MENU
  1
.
  9
$ELEVATION
 40
0.0
  9
$PELEVATION
 40
0.0
  9
$THICKNESS
 40
0.0
  9
$LIMCHECK
 70
     0
  9
$CHAMFERA
 40
0.0
  9
$CHAMFERB
 40
0.0
  9
$CHAMFERC
 40
0.0
  9
$CHAMFERD
 40
0.0
  9
$SKPOLY
 70
     0
  9
$TDCREATE
 40
2457585.341066794
  9
$TDUCREATE
 40
2457585.257733461
  9
$TDUPDATE
 40
2457585.342729329
  9
$TDUUPDATE
 40
2457585.259395995
  9
$TDINDWG
 40
0.0007568287
  9
$TDUSRTIMER
 40
0.0007567593
  9
$USRTIMER
 70
     1
  9
$ANGBASE
 50
0.0
  9
$ANGDIR
 70
     0
  9
$PDMODE
 70
     0
  9
$PDSIZE
 40
0.0
  9
$PLINEWID
 40
0.0
  9
$SPLFRAME
 70
     0
  9
$SPLINETYPE
 70
     6
  9
$SPLINESEGS
 70
     8
  9
$HANDSEED
  5
37F
  9
$SURFTAB1
 70
     6
  9
$SURFTAB2
 70
     6
  9
$SURFTYPE
 70
     6
  9
$SURFU
 70
     6
  9
$SURFV
 70
     6
  9
$UCSBASE
  2

  9
$UCSNAME
  2

  9
$UCSORG
 10
0.0
 20
0.0
 30
0.0
  9
$UCSXDIR
 10
1.0
 20
0.0
 30
0.0
  9
$UCSYDIR
 10
0.0
 20
1.0
 30
0.0
  9
$UCSORTHOREF
  2

  9
$UCSORTHOVIEW
 70
     0
  9
$UCSORGTOP
 10
0.0
 20
0.0
 30
0.0
  9
$UCSORGBOTTOM
 10
0.0
 20
0.0
 30
0.0
  9
$UCSORGLEFT
 10
0.0
 20
0.0
 30
0.0
  9
$UCSORGRIGHT
 10
0.0
 20
0.0
 30
0.0
  9
$UCSORGFRONT
 10
0.0
 20
0.0
 30
0.0
  9
$UCSORGBACK
 10
0.0
 20
0.0
 30
0.0
  9
$PUCSBASE
  2

  9
$PUCSNAME
  2

  9
$PUCSORG
 10
0.0
 20
0.0
 30
0.0
  9
$PUCSXDIR
 10
1.0
 20
0.0
 30
0.0
  9
$PUCSYDIR
 10
0.0
 20
1.0
 30
0.0
  9
$PUCSORTHOREF
  2

  9
$PUCSORTHOVIEW
 70
     0
  9
$PUCSORGTOP
 10
0.0
 20
0.0
 30
0.0
  9
$PUCSORGBOTTOM
 10
0.0
 20
0.0
 30
0.0
  9
$PUCSORGLEFT
 10
0.0
 20
0.0
 30
0.0
  9
$PUCSORGRIGHT
 10
0.0
 20
0.0
 30
0.0
  9
$PUCSORGFRONT
 10
0.0
 20
0.0
 30
0.0
  9
$PUCSORGBACK
 10
0.0
 20
0.0
 30
0.0
  9
$USERI1
 70
     0
  9
$USERI2
 70
     0
  9
$USERI3
 70
     0
  9
$USERI4
 70
     0
  9
$USERI5
 70
     0
  9
$USERR1
 40
0.0
  9
$USERR2
 40
0.0
  9
$USERR3
 40
0.0
  9
$USERR4
 40
0.0
  9
$USERR5
 40
0.0
  9
$WORLDVIEW
 70
     1
  9
$SHADEDGE
 70
     3
  9
$SHADEDIF
 70
    70
  9
$TILEMODE
 70
     1
  9
$MAXACTVP
 70
    64
  9
$PINSBASE
 10
0.0
 20
0.0
 30
0.0
  9
$PLIMCHECK
 70
     0
  9
$PEXTMIN
 10
1.000000000000000E+20
 20
1.000000000000000E+20
 30
1.000000000000000E+20
  9
$PEXTMAX
 10
-1.000000000000000E+20
 20
-1.000000000000000E+20
 30
-1.000000000000000E+20
  9
$PLIMMIN
 10
0.0
 20
0.0
  9
$PLIMMAX
 10
12.0
 20
9.0
  9
$UNITMODE
 70
     0
  9
$VISRETAIN
 70
     1
  9
$PLINEGEN
 70
     0
  9
$PSLTSCALE
 70
     1
  9
$TREEDEPTH
 70
  3020
  9
$CMLSTYLE
  2
Standard
  9
$CMLJUST
 70
     0
  9
$CMLSCALE
 40
1.0
  9
$PROXYGRAPHICS
 70
     1
  9
$MEASUREMENT
 70
     1
  9
$CELWEIGHT
370
    -1
  9
$ENDCAPS
280
     0
  9
$JOINSTYLE
280
     0
  9
$LWDISPLAY
290
     0
  9
$INSUNITS
 70
     4
  9
$HYPERLINKBASE
  1

  9
$STYLESHEET
  1

  9
$XEDIT
290
     1
  9
$CEPSNTYPE
380
     0
  9
$PSTYLEMODE
290
     1
  9
$FINGERPRINTGUID
  2
{4D181E1D-D65C-4E3D-8762-302F12807812}
  9
$VERSIONGUID
  2
{0D413F63-4CE2-48C9-9936-15F1FD847B6D}
  9
$EXTNAMES
290
     1
  9
$PSVPSCALE
 40
0.0
  9
$OLESTARTUP
290
     0
  9
$SORTENTS
280
   127
  9
$INDEXCTL
280
     0
  9
$HIDETEXT
280
     1
  9
$XCLIPFRAME
280
     2
  9
$HALOGAP
280
     0
  9
$OBSCOLOR
 70
   257
  9
$OBSLTYPE
280
     0
  9
$INTERSECTIONDISPLAY
280
     0
  9
$INTERSECTIONCOLOR
 70
   257
  9
$DIMASSOC
280
     2
  9
$PROJECTNAME
  1

  9
$CAMERADISPLAY
290
     0
  9
$LENSLENGTH
 40
50.0
  9
$CAMERAHEIGHT
 40
0.0
  9
$STEPSPERSEC
 40
2.0
  9
$STEPSIZE
 40
6.0
  9
$3DDWFPREC
 40
2.0
  9
$PSOLWIDTH
 40
0.25
  9
$PSOLHEIGHT
 40
4.0
  9
$LOFTANG1
 40
1.570796326794896
  9
$LOFTANG2
 40
1.570796326794896
  9
$LOFTMAG1
 40
0.0
  9
$LOFTMAG2
 40
0.0
  9
$LOFTPARAM
 70
     7
  9
$LOFTNORMALS
280
     1
  9
$LATITUDE
 40
37.795
  9
$LONGITUDE
 40
-122.394
  9
$NORTHDIRECTION
 40
0.0
  9
$TIMEZONE
 70
 -8000
  9
$LIGHTGLYPHDISPLAY
280
     1
  9
$TILEMODELIGHTSYNCH
280
     1
  9
$CMATERIAL
347
11
  9
$SOLIDHIST
280
     0
  9
$SHOWHIST
280
     1
  9
$DWFFRAME
280
     2
  9
$DGNFRAME
280
     0
  9
$REALWORLDSCALE
290
     1
  9
$INTERFERECOLOR
 62
     1
  9
$INTERFEREOBJVS
345
33
  9
$INTERFEREVPVS
346
30
  9
$CSHADOW
280
     0
  9
$SHADOWPLANELOCATION
 40
0.0
  0
ENDSEC
  0
SECTION
  2
CLASSES
  0
CLASS
  1
ACDBDICTIONARYWDFLT
  2
AcDbDictionaryWithDefault
  3
ObjectDBX Classes
 90
        0
 91
        1
280
     0
281
     0
  0
CLASS
  1
MATERIAL
  2
AcDbMaterial
  3
ObjectDBX Classes
 90
     1153
 91
        3
280
     0
281
     0
  0
CLASS
  1
VISUALSTYLE
  2
AcDbVisualStyle
  3
ObjectDBX Classes
 90
     4095
 91
       24
280
     0
281
     0
  0
CLASS
  1
SCALE
  2
AcDbScale
  3
ObjectDBX Classes
 90
     1153
 91
       17
280
     0
281
     0
  0
CLASS
  1
TABLESTYLE
  2
AcDbTableStyle
  3
ObjectDBX Classes
 90
     4095
 91
        1
280
     0
281
     0
  0
CLASS
  1
MLEADERSTYLE
  2
AcDbMLeaderStyle
  3
ACDB_MLEADERSTYLE_CLASS
 90
     4095
 91
        1
280
     0
281
     0
  0
CLASS
  1
ACDBSECTIONVIEWSTYLE
  2
AcDbSectionViewStyle
  3
ObjectDBX Classes
 90
     1025
 91
        2
280
     0
281
     0
  0
CLASS
  1
ACDBDETAILVIEWSTYLE
  2
AcDbDetailViewStyle
  3
ObjectDBX Classes
 90
     1025
 91
        2
280
     0
281
     0
  0
CLASS
  1
RASTERVARIABLES
  2
AcDbRasterVariables
  3
ISM
 90
        0
 91
        1
280
     0
281
     0
  0
CLASS
  1
DICTIONARYVAR
  2
AcDbDictionaryVar
  3
ObjectDBX Classes
 90
        0
 91
        5
280
     0
281
     0
  0
CLASS
  1
CELLSTYLEMAP
  2
AcDbCellStyleMap
  3
ObjectDBX Classes
 90
     1152
 91
        2
280
     0
281
     0
  0
CLASS
  1
SORTENTSTABLE
  2
AcDbSortentsTable
  3
ObjectDBX Classes
 90
        0
 91
        1
280
     0
281
     0
  0
ENDSEC
  0
SECTION
  2
TABLES
  0
TABLE
  2
VPORT
  5
8
330
0
100
AcDbSymbolTable
 70
     1
  0
VPORT
  5
57
330
8
100
AcDbSymbolTableRecord
100
AcDbViewportTableRecord
  2
*Active
 70
     0
 10
0.0
 20
0.0
 11
1.0
 21
1.0
 12
911.9558428579638
 22
1941.006906779658
 13
0.0
 23
0.0
 14
1.0
 24
1.0
 15
0.0
 25
0.0
 16
0.0
 26
0.0
 36
1.0
 17
0.0
 27
0.0
 37
0.0
 40
669.7425390767166
 41
2.401774397972116
 42
50.0
 43
0.0
 44
0.0
 50
0.0
 51
0.0
 71
     0
 72
  1000
 73
     1
 74
     1
 75
     0
 76
     0
 77
     0
 78
     0
281
     0
 65
     1
110
0.0
120
0.0
130
0.0
111
1.0
121
0.0
131
0.0
112
0.0
122
1.0
132
0.0
 79
     0
146
0.0
348
2F
 60
     3
 61
     5
292
     1
282
     1
141
0.0
142
0.0
 63
   250
421
  3355443
1001
ACAD_NAV_VCDISPLAY
1070
     3
  0
ENDTAB
  0
TABLE
  2
LTYPE
  5
5
330
0
100
AcDbSymbolTable
 70
     4
  0
LTYPE
  5
5B
330
5
100
AcDbSymbolTableRecord
100
AcDbLinetypeTableRecord
  2
ByBlock
 70
     0
  3

 72
    65
 73
     0
 40
0.0
  0
LTYPE
  5
5C
330
5
100
AcDbSymbolTableRecord
100
AcDbLinetypeTableRecord
  2
ByLayer
 70
     0
  3

 72
    65
 73
     0
 40
0.0
  0
LTYPE
  5
5D
330
5
100
AcDbSymbolTableRecord
100
AcDbLinetypeTableRecord
  2
Continuous
 70
     0
  3
Solid line
 72
    65
 73
     0
 40
0.0
  0
LTYPE
  5
69
330
5
100
AcDbSymbolTableRecord
100
AcDbLinetypeTableRecord
  2
PHANTOM2
 70
     0
  3
___ _ _ ___ _ _ ___ _ _ ___ _ _
 72
    65
 73
     6
 40
1.25
 49
0.625
 74
     0
 49
-0.125
 74
     0
 49
0.125
 74
     0
 49
-0.125
 74
     0
 49
0.125
 74
     0
 49
-0.125
 74
     0
  0
LTYPE
  5
86
330
5
100
AcDbSymbolTableRecord
100
AcDbLinetypeTableRecord
  2
Nascosto 1_5 mm
 70
     0
  3

 72
    65
 73
     2
 40
2.2
 49
1.5
 74
     0
 49
-0.7000000000000001
 74
     0
  0
ENDTAB
  0
TABLE
  2
LAYER
  5
2
330
0
100
AcDbSymbolTable
 70
     3
  0
LAYER
  5
54
330
2
100
AcDbSymbolTableRecord
100
AcDbLayerTableRecord
  2
0
 70
     0
 62
     7
  6
Continuous
370
    -3
390
F
347
21
348
0
  0
LAYER
  5
85
330
2
100
AcDbSymbolTableRecord
100
AcDbLayerTableRecord
  2
P-SANR-FIXT
 70
     0
 62
     6
  6
Continuous
370
    18
390
F
347
21
348
0
  0
LAYER
  5
88
330
2
100
AcDbSymbolTableRecord
100
AcDbLayerTableRecord
  2
M-PIPE
 70
     0
 62
     3
  6
Continuous
370
    18
390
F
347
21
348
0
  0
ENDTAB
  0
TABLE
  2
STYLE
  5
3
330
0
100
AcDbSymbolTable
 70
     2
  0
STYLE
  5
55
330
3
100
AcDbSymbolTableRecord
100
AcDbTextStyleTableRecord
  2
Standard
 70
     0
 40
0.0
 41
1.0
 50
0.0
 71
     0
 42
0.2
  3
txt
  4

  0
STYLE
  5
5A
330
3
100
AcDbSymbolTableRecord
100
AcDbTextStyleTableRecord
  2
Annotative
 70
     0
 40
0.0
 41
1.0
 50
0.0
 71
     0
 42
0.2
  3
txt
  4

1001
AcadAnnotative
1000
AnnotativeData
1002
{
1070
     1
1070
     1
1002
}
  0
ENDTAB
  0
TABLE
  2
VIEW
  5
6
330
0
100
AcDbSymbolTable
 70
     0
  0
ENDTAB
  0
TABLE
  2
UCS
  5
7
330
0
100
AcDbSymbolTable
 70
     0
  0
ENDTAB
  0
TABLE
  2
APPID
  5
9
330
0
100
AcDbSymbolTable
 70
     5
  0
APPID
  5
56
330
9
100
AcDbSymbolTableRecord
100
AcDbRegAppTableRecord
  2
ACAD
 70
     0
  0
APPID
  5
5E
330
9
100
AcDbSymbolTableRecord
100
AcDbRegAppTableRecord
  2
AcadAnnotative
 70
     0
  0
APPID
  5
79
330
9
100
AcDbSymbolTableRecord
100
AcDbRegAppTableRecord
  2
REVIT
 70
     0
  0
APPID
  5
374
330
9
100
AcDbSymbolTableRecord
100
AcDbRegAppTableRecord
  2
ACAD_EXEMPT_FROM_CAD_STANDARDS
 70
     0
  0
APPID
  5
37C
330
9
100
AcDbSymbolTableRecord
100
AcDbRegAppTableRecord
  2
ACAD_NAV_VCDISPLAY
 70
     0
  0
ENDTAB
  0
TABLE
  2
DIMSTYLE
  5
A
330
0
100
AcDbSymbolTable
 70
     3
100
AcDbDimStyleTable
 71
     1
340
58
  0
DIMSTYLE
105
58
330
A
100
AcDbSymbolTableRecord
100
AcDbDimStyleTableRecord
  2
Standard
 70
     0
340
55
  0
DIMSTYLE
105
59
330
A
100
AcDbSymbolTableRecord
100
AcDbDimStyleTableRecord
  2
Annotative
 70
     0
340
55
1001
AcadAnnotative
1000
AnnotativeData
1002
{
1070
     1
1070
     1
1002
}
  0
ENDTAB
  0
TABLE
  2
BLOCK_RECORD
  5
1
330
0
100
AcDbSymbolTable
 70
     5
  0
BLOCK_RECORD
  5
71
102
{ACAD_XDICTIONARY
360
369
102
}
330
1
100
AcDbSymbolTableRecord
100
AcDbBlockTableRecord
  2
*Model_Space
340
74
 70
     0
280
     1
281
     0
  0
BLOCK_RECORD
  5
6D
330
1
100
AcDbSymbolTableRecord
100
AcDbBlockTableRecord
  2
*Paper_Space
340
70
 70
     0
280
     1
281
     0
  0
BLOCK_RECORD
  5
75
330
1
100
AcDbSymbolTableRecord
100
AcDbBlockTableRecord
  2
*Paper_Space0
340
78
 70
     0
280
     1
281
     0
  0
BLOCK_RECORD
  5
87
330
1
100
AcDbSymbolTableRecord
100
AcDbBlockTableRecord
  2
Automatic flow rate regulator valve_Caleffi_121 DN15 - 1_2__-859151-Est - Idraulica
340
0
102
{BLKREFS
331
19B
102
}
 70
     0
280
     1
281
     0
  0
BLOCK_RECORD
  5
19C
330
1
100
AcDbSymbolTableRecord
100
AcDbBlockTableRecord
  2
Automatic flow rate regulator valve_Caleffi_121 DN15 - 1_2__-V1-Est - Idraulica
340
0
102
{BLKREFS
331
2A2
102
}
 70
     0
280
     1
281
     0
  0
BLOCK_RECORD
  5
2A3
330
1
100
AcDbSymbolTableRecord
100
AcDbBlockTableRecord
  2
Automatic flow rate regulator valve_Caleffi_121 DN15 - 1_2__-V2-Est - Idraulica
340
0
102
{BLKREFS
331
362
102
}
 70
     0
280
     1
281
     0
  0
ENDTAB
  0
ENDSEC
  0
SECTION
  2
BLOCKS
  0
BLOCK
  5
72
330
71
100
AcDbEntity
  8
0
100
AcDbBlockBegin
  2
*Model_Space
 70
     0
 10
0.0
 20
0.0
 30
0.0
  3
*Model_Space
  1

  0
ENDBLK
  5
73
330
71
100
AcDbEntity
  8
0
100
AcDbBlockEnd
  0
BLOCK
  5
6E
330
6D
100
AcDbEntity
 67
     1
  8
0
100
AcDbBlockBegin
  2
*Paper_Space
 70
     0
 10
0.0
 20
0.0
 30
0.0
  3
*Paper_Space
  1

  0
ENDBLK
  5
6F
330
6D
100
AcDbEntity
 67
     1
  8
0
100
AcDbBlockEnd
  0
BLOCK
  5
76
330
75
100
AcDbEntity
 67
     1
  8
0
100
AcDbBlockBegin
  2
*Paper_Space0
 70
     0
 10
0.0
 20
0.0
 30
0.0
  3
*Paper_Space0
  1

  0
ENDBLK
  5
77
330
75
100
AcDbEntity
 67
     1
  8
0
100
AcDbBlockEnd
  0
BLOCK
  5
199
330
87
100
AcDbEntity
  8
0
100
AcDbBlockBegin
  2
Automatic flow rate regulator valve_Caleffi_121 DN15 - 1_2__-859151-Est - Idraulica
 70
     0
 10
0.0
 20
0.0
 30
0.0
  3
Automatic flow rate regulator valve_Caleffi_121 DN15 - 1_2__-859151-Est - Idraulica
  1

  0
LINE
  5
89
330
87
100
AcDbEntity
  8
M-PIPE
100
AcDbLine
 10
856.9403313350631
 20
2102.073523914423
 30
0.0
 11
833.322964843432
 21
2078.456157422793
 31
0.0
1001
REVIT
1002
{
1070
     3
1000
923267
1002
}
  0
LINE
  5
8A
330
87
100
AcDbEntity
  8
M-PIPE
100
AcDbLine
 10
884.9417598700549
 20
2026.837362396169
 30
0.0
 11
908.5591263616858
 21
2050.454728887799
 31
0.0
1001
REVIT
1002
{
1070
     3
1000
923267
1002
}
  0
LINE
  5
8B
330
87
100
AcDbEntity
  8
M-PIPE
100
AcDbLine
 10
857.478737590574
 20
2102.55090942169
 30
0.0
 11
857.5304034481304
 21
2102.589812178484
 31
0.0
1001
REVIT
1002
{
1070
     3
1000
923267
1002
}
  0
LINE
  5
8C
330
87
100
AcDbEntity
  8
M-PIPE
100
AcDbLine
 10
858.1829720221826
 20
2103.025659840081
 30
0.0
 11
858.2780368357411
 21
2103.080773851172
 31
0.0
1001
REVIT
1002
{
1070
     3
1000
923267
1002
}
  0
LINE
  5
8D
330
87
100
AcDbEntity
  8
M-PIPE
100
AcDbLine
 10
858.8868714279918
 20
2103.373381087231
 30
0.0
 11
858.9274032770964
 21
2103.390776179169
 31
0.0
1001
REVIT
1002
{
1070
     3
1000
923267
1002
}
  0
LINE
  5
8E
330
87
100
AcDbEntity
  8
M-PIPE
100
AcDbLine
 10
859.6092109508568
 20
2103.620812077504
 30
0.0
 11
859.6300577515673
 21
2103.626033070473
 31
0.0
1001
REVIT
1002
{
1070
     3
1000
923267
1002
}
  0
LINE
  5
8F
330
87
100
AcDbEntity
  8
M-PIPE
100
AcDbLine
 10
860.3136536025029
 20
2103.767573002356
 30
0.0
 11
860.3998148688623
 21
2103.778434457725
 31
0.0
1001
REVIT
1002
{
1070
     3
1000
923267
1002
}
  0
LINE
  5
90
330
87
100
AcDbEntity
  8
M-PIPE
100
AcDbLine
 10
861.1829720221823
 20
2103.829770671385
 30
0.0
 11
861.2705799285201
 21
2103.830243597773
 31
0.0
1001
REVIT
1002
{
1070
     3
1000
923267
1002
}
  0
LINE
  5
91
330
87
100
AcDbEntity
  8
M-PIPE
100
AcDbLine
 10
861.9661291755029
 20
2103.779146616615
 30
0.0
 11
861.9881465804343
 21
2103.776612276861
 31
0.0
1001
REVIT
1002
{
1070
     3
1000
923267
1002
}
  0
LINE
  5
92
330
87
100
AcDbEntity
  8
M-PIPE
100
AcDbLine
 10
862.6941326254488
 20
2103.63746515053
 30
0.0
 11
862.7358862927975
 21
2103.625702357329
 31
0.0
1001
REVIT
1002
{
1070
     3
1000
923267
1002
}
  0
LINE
  5
93
330
87
100
AcDbEntity
  8
M-PIPE
100
AcDbLine
 10
863.3783840581008
 20
2103.414803534091
 30
0.0
 11
863.4790726163732
 21
2103.372872333815
 31
0.0
1001
REVIT
1002
{
1070
     3
1000
923267
1002
}
  0
LINE
  5
94
330
87
100
AcDbEntity
  8
M-PIPE
100
AcDbLine
 10
878.703126037108
 20
2088.796010586618
 30
0.0
 11
866.5413463098978
 21
2100.957790313827
 31
0.0
1001
REVIT
1002
{
1070
     3
1000
923267
1002
}
  0
LINE
  5
95
330
87
100
AcDbEntity
  8
M-PIPE
100
AcDbLine
 10
907.4433927610913
 20
2060.055743862633
 30
0.0
 11
895.2816130338582
 21
2072.217523589866
 31
0.0
1001
REVIT
1002
{
1070
     3
1000
923267
1002
}
  0
LINE
  5
96
330
87
100
AcDbEntity
  8
M-PIPE
100
AcDbLine
 10
909.0365118689526
 20
2058.401604006527
 30
0.0
 11
909.0754146257468
 21
2058.349938148971
 31
0.0
1001
REVIT
1002
{
1070
     3
1000
923267
1002
}
  0
LINE
  5
97
330
87
100
AcDbEntity
  8
M-PIPE
100
AcDbLine
 10
909.8589835344935
 20
2056.993470169109
 30
0.0
 11
909.8763786264312
 21
2056.952938320004
 31
0.0
1001
REVIT
1002
{
1070
     3
1000
923267
1002
}
  0
LINE
  5
98
330
87
100
AcDbEntity
  8
M-PIPE
100
AcDbLine
 10
910.1064145247667
 20
2056.271130646244
 30
0.0
 11
910.1116355177353
 21
2056.250283845534
 31
0.0
1001
REVIT
1002
{
1070
     3
1000
923267
1002
}
  0
LINE
  5
99
330
87
100
AcDbEntity
  8
M-PIPE
100
AcDbLine
 10
910.2531754496183
 20
2055.566687994598
 30
0.0
 11
910.2640369049872
 21
2055.480526728238
 31
0.0
1001
REVIT
1002
{
1070
     3
1000
923267
1002
}
  0
LINE
  5
9A
330
87
100
AcDbEntity
  8
M-PIPE
100
AcDbLine
 10
910.315373118648
 20
2054.697369574919
 30
0.0
 11
910.315846045035
 21
2054.609761668581
 31
0.0
1001
REVIT
1002
{
1070
     3
1000
923267
1002
}
  0
LINE
  5
9B
330
87
100
AcDbEntity
  8
M-PIPE
100
AcDbLine
 10
910.2647490638776
 20
2053.914212421598
 30
0.0
 11
910.2622147241234
 21
2053.892195016667
 31
0.0
1001
REVIT
1002
{
1070
     3
1000
923267
1002
}
  0
LINE
  5
9C
330
87
100
AcDbEntity
  8
M-PIPE
100
AcDbLine
 10
910.1230675977928
 20
2053.186208971652
 30
0.0
 11
910.1113048045917
 21
2053.144455304304
 31
0.0
1001
REVIT
1002
{
1070
     3
1000
923267
1002
}
  0
LINE
  5
9D
330
87
100
AcDbEntity
  8
M-PIPE
100
AcDbLine
 10
909.9004059813532
 20
2052.501957539
 30
0.0
 11
909.8584747810772
 21
2052.401268980728
 31
0.0
1001
REVIT
1002
{
1070
     3
1000
923267
1002
}
  0
LINE
  5
9E
330
87
100
AcDbEntity
  8
M-PIPE
100
AcDbLine
 10
909.5115385691164
 20
2051.697369574918
 30
0.0
 11
909.4793150412796
 21
2051.640378745654
 31
0.0
1001
REVIT
1002
{
1070
     3
1000
923267
1002
}
  0
LINE
  5
9F
330
87
100
AcDbEntity
  8
M-PIPE
100
AcDbLine
 10
839.2273064663426
 20
2072.551815799883
 30
0.0
 11
838.5201996851559
 21
2071.844709018696
 31
0.0
1001
REVIT
1002
{
1070
     3
1000
923267
1002
}
  0
LINE
  5
A0
330
87
100
AcDbEntity
  8
M-PIPE
100
AcDbLine
 10
878.3303114659615
 20
2032.03459723789
 30
0.0
 11
879.0374182471477
 21
2032.741704019076
 31
0.0
1001
REVIT
1002
{
1070
     3
1000
923267
1002
}
  0
LWPOLYLINE
  5
A1
330
87
100
AcDbEntity
  8
M-PIPE
100
AcDbPolyline
 90
       41
 70
   128
 43
0.0
 10
878.3303114659618
 20
2032.03459723789
 10
878.2870479568877
 20
2031.993030558829
 10
878.2421568301863
 20
2031.953227207599
 10
878.1957099020839
 20
2031.915250861073
 10
878.1477814777577
 20
2031.879162273304
 10
878.0984482324623
 20
2031.845019178333
 10
878.047789088866
 20
2031.812876197829
 10
877.9958850907922
 20
2031.782784753703
 10
877.9428192735656
 20
2031.754792985848
 10
877.8886765311732
 20
2031.728945675121
 10
877.8335434804532
 20
2031.705284171704
 10
877.7775083225261
 20
2031.683846328956
 10
877.7206607016905
 20
2031.664666442853
 10
877.6630915620133
 20
2031.64777519712
 10
877.6048930018369
 20
2031.633199614148
 10
877.5461581264426
 20
2031.620963011758
 10
877.4869808991017
 20
2031.611084965907
 10
877.4274559907542
 20
2031.603581279359
 10
877.3676786285555
 20
2031.598463956412
 10
877.3077444435326
 20
2031.595741183692
 10
877.2477493175975
 20
2031.595417317053
 10
877.1877892301526
 20
2031.597492874614
 10
877.127960104547
 20
2031.601964535925
 10
877.068357654619
 20
2031.608825147281
 10
877.0090772315739
 20
2031.618063733169
 10
876.9502136714429
 20
2031.629665513821
 10
876.8918611433653
 20
2031.643611928863
 10
876.8341129989378
 20
2031.659880667008
 10
876.7770616228732
 20
2031.678445701743
 10
876.7207982852024
 20
2031.699277332974
 10
876.6654129952632
 20
2031.722342234534
 10
876.6109943577054
 20
2031.747603507501
 10
876.5576294307399
 20
2031.775020739228
 10
876.505403586866
 20
2031.804550067992
 10
876.4544003762926
 20
2031.836144253166
 10
876.4047013932776
 20
2031.869752750795
 10
876.3563861455905
 20
2031.90532179445
 10
876.3095319273221
 20
2031.942794481251
 10
876.264213695226
 20
2031.982110862891
 10
876.2205039488067
 20
2032.023208041548
 10
876.208991122402
 20
2032.03459723789
1001
REVIT
1002
{
1070
     3
1000
923267
1002
}
  0
LWPOLYLINE
  5
A2
330
87
100
AcDbEntity
  8
M-PIPE
100
AcDbPolyline
 90
       41
 70
   128
 43
0.0
 10
838.5201996851559
 20
2069.723388675137
 10
838.4786330060942
 20
2069.766652184211
 10
838.4388296548651
 20
2069.811543310912
 10
838.4008533083392
 20
2069.857990239015
 10
838.3647647205696
 20
2069.905918663341
 10
838.3306216255986
 20
2069.955251908636
 10
838.2984786450943
 20
2070.005911052232
 10
838.2683872009685
 20
2070.057815050306
 10
838.2403954331135
 20
2070.110880867533
 10
838.2145481223863
 20
2070.165023609925
 10
838.1908866189695
 20
2070.220156660645
 10
838.1694487762221
 20
2070.276191818572
 10
838.1502688901187
 20
2070.333039439407
 10
838.1333776443856
 20
2070.390608579085
 10
838.1188020614128
 20
2070.448807139261
 10
838.1065654590241
 20
2070.507542014655
 10
838.0966874131727
 20
2070.566719241996
 10
838.0891837266247
 20
2070.626244150344
 10
838.0840664036778
 20
2070.686021512543
 10
838.0813436309573
 20
2070.745955697566
 10
838.0810197643187
 20
2070.805950823501
 10
838.0830953218794
 20
2070.865910910946
 10
838.0875669831898
 20
2070.925740036551
 10
838.0944275945465
 20
2070.985342486479
 10
838.1036661804341
 20
2071.044622909524
 10
838.1152679610863
 20
2071.103486469656
 10
838.1292143761292
 20
2071.161838997733
 10
838.1454831142733
 20
2071.219587142161
 10
838.1640481490082
 20
2071.276638518225
 10
838.1848797802391
 20
2071.332901855896
 10
838.2079446817993
 20
2071.388287145835
 10
838.2332059547668
 20
2071.442705783393
 10
838.2606231864937
 20
2071.496070710358
 10
838.2901525152576
 20
2071.548296554233
 10
838.3217467004318
 20
2071.599299764805
 10
838.3553551980604
 20
2071.648998747821
 10
838.3909242417159
 20
2071.697313995508
 10
838.4283969285164
 20
2071.744168213776
 10
838.4677133101567
 20
2071.789486445872
 10
838.5088104888133
 20
2071.833196192292
 10
838.5201996851559
 20
2071.844709018696
1001
REVIT
1002
{
1070
     3
1000
923267
1002
}
  0
LWPOLYLINE
  5
A3
330
87
100
AcDbEntity
  8
M-PIPE
100
AcDbPolyline
 90
        3
 70
   128
 43
0.0
 10
876.208991122402
 20
2032.03459723789
 10
876.1939176157886
 20
2032.049670744504
 10
876.1649175768146
 20
2032.078670783477
1001
REVIT
1002
{
1070
     3
1000
923267
1002
}
  0
LWPOLYLINE
  5
A4
330
87
100
AcDbEntity
  8
M-PIPE
100
AcDbPolyline
 90
        4
 70
   128
 43
0.0
 10
838.5742399902932
 20
2069.669348369999
 10
838.5559329541676
 20
2069.687655406124
 10
838.5245925453402
 20
2069.718995814952
 10
838.5201996851559
 20
2069.723388675137
1001
REVIT
1002
{
1070
     3
1000
923267
1002
}
  0
LWPOLYLINE
  5
A5
330
87
100
AcDbEntity
  8
M-PIPE
100
AcDbPolyline
 90
       80
 70
   128
 43
0.0
 10
838.5201996851559
 20
2069.723388675137
 10
838.535273191769
 20
2069.708315168524
 10
838.5804695972135
 20
2069.663118763079
 10
838.6557165968824
 20
2069.58787176341
 10
838.7608938116274
 20
2069.482694548665
 10
838.8958329803417
 20
2069.347755379951
 10
839.0603182291412
 20
2069.183270131151
 10
839.2540864167161
 20
2068.989501943576
 10
839.4768275553007
 20
2068.766760804991
 10
839.7281853065896
 20
2068.515403053703
 10
840.0077575518006
 20
2068.235830808492
 10
840.3150970349797
 20
2067.928491325313
 10
840.6497120785166
 20
2067.593876281776
 10
841.0110673697227
 20
2067.23252099057
 10
841.3985848172165
 20
2066.845003543076
 10
841.8116444757481
 20
2066.431943884544
 10
842.2495855379786
 20
2065.994002822314
 10
842.7117073916313
 20
2065.531880968662
 10
843.1972707403199
 20
2065.046317619973
 10
843.7054987862692
 20
2064.538089574023
 10
844.2355784730215
 20
2064.008009887271
 10
844.7866617861553
 20
2063.456926574137
 10
845.3578671099277
 20
2062.885721250365
 10
845.9482806376717
 20
2062.295307722621
 10
846.5569578336907
 20
2061.686630526602
 10
847.1829249443157
 20
2061.060663415977
 10
847.8251805557016
 20
2060.418407804591
 10
848.4826971958781
 20
2059.760891164414
 10
849.1544229784832
 20
2059.089165381809
 10
849.8392832855586
 20
2058.404305074734
 10
850.536182486709
 20
2057.707405873584
 10
851.2440056918764
 20
2056.999582668416
 10
851.9616205349267
 20
2056.281967825366
 10
852.687878985194
 20
2055.555709375099
 10
853.4216191840846
 20
2054.821969176208
 10
854.1616673038033
 20
2054.081921056489
 10
854.9068394252271
 20
2053.336748935065
 10
855.6559434319233
 20
2052.587644928369
 10
856.4077809172815
 20
2051.835807443011
 10
857.1611491017087
 20
2051.082439258584
 10
857.9148427568194
 20
2050.328745603474
 10
858.6676561335449
 20
2049.575932226747
 10
859.418384891075
 20
2048.825203469217
 10
860.1658280235431
 20
2048.077760336749
 10
860.9087897813843
 20
2047.334798578908
 10
861.6460815842756
 20
2046.597506776016
 10
862.3765239226134
 20
2045.867064437679
 10
863.0989482444752
 20
2045.144640115817
 10
863.8121988250556
 20
2044.431389535237
 10
864.5151346155769
 20
2043.728453744716
 10
865.2066310687267
 20
2043.036957291565
 10
865.8855819376908
 20
2042.358006422602
 10
866.5509010459143
 20
2041.692687314379
 10
867.2015240247509
 20
2041.042064335542
 10
867.8364100162268
 20
2040.407178344066
 10
868.4545433381908
 20
2039.789045022102
 10
869.0549351091892
 20
2039.188653251104
 10
869.6366248304649
 20
2038.606963529828
 10
870.1986819225512
 20
2038.044906437741
 10
870.7402072140002
 20
2037.503381146292
 10
871.2603343798642
 20
2036.983253980428
 10
871.7582313276327
 20
2036.48535703266
 10
872.2331015284019
 20
2036.010486831891
 10
872.6841852911505
 20
2035.559403069143
 10
873.1107609780838
 20
2035.132827382208
 10
873.5121461591011
 20
2034.731442201191
 10
873.8876987035371
 20
2034.355889656755
 10
874.2368178074345
 20
2034.006770552858
 10
874.5589449547011
 20
2033.684643405591
 10
874.8535648106186
 20
2033.390023549674
 10
875.1202060462661
 20
2033.123382314026
 10
875.3584420925479
 20
2032.885146267744
 10
875.5678918226097
 20
2032.675696537682
 10
875.7482201615642
 20
2032.495368198728
 10
875.8991386225371
 20
2032.344449737755
 10
876.0204057681855
 20
2032.223182592107
 10
876.1118275969442
 20
2032.131760763348
 10
876.1732578533901
 20
2032.070330506902
 10
876.2045982622177
 20
2032.038990098075
 10
876.208991122402
 20
2032.03459723789
1001
REVIT
1002
{
1070
     3
1000
923267
1002
}
  0
LWPOLYLINE
  5
A6
330
87
100
AcDbEntity
  8
M-PIPE
100
AcDbPolyline
 90
       39
 70
   128
 43
0.0
 10
871.0062532439566
 20
2037.226027440527
 10
870.9288416971197
 20
2037.289321351404
 10
870.8489609899091
 20
2037.349468997686
 10
870.7667389144166
 20
2037.406374155972
 10
870.6823070084231
 20
2037.459945790146
 10
870.5958003449667
 20
2037.510098197021
 10
870.5073573162554
 20
2037.556751143446
 10
870.4171194122682
 20
2037.599829994659
 10
870.3252309944021
 20
2037.639265833687
 10
870.2318390645233
 20
2037.674995571599
 10
870.1370930297974
 20
2037.706962048438
 10
870.0411444636689
 20
2037.73511412466
 10
869.9441468633748
 20
2037.759406762948
 10
869.8462554043842
 20
2037.779801100262
 10
869.7476266921496
 20
2037.796264510015
 10
869.6484185115703
 20
2037.808770654262
 10
869.5487895745719
 20
2037.81729952584
 10
869.4488992662014
 20
2037.821837480374
 10
869.3489073896421
 20
2037.822377258105
 10
869.2489739105672
 20
2037.818917995504
 10
869.1492587012247
 20
2037.811465226653
 10
869.0499212846782
 20
2037.800030874391
 10
868.951120579603
 20
2037.784633231245
 10
868.8530146460513
 20
2037.765296930158
 10
868.7557604325887
 20
2037.742052905088
 10
868.6595135252098
 20
2037.714938341514
 10
868.564427898435
 20
2037.683996616955
 10
868.4706556689837
 20
2037.649277231571
 10
868.3783468524188
 20
2037.610835728971
 10
868.2876491231555
 20
2037.568733607358
 10
868.1987075782128
 20
2037.523038221147
 10
868.1116645050897
 20
2037.473822673207
 10
868.0266591541345
 20
2037.421165697916
 10
867.9438275157757
 20
2037.365151535202
 10
867.8633021029645
 20
2037.305869795776
 10
867.7852117391836
 20
2037.243415317775
 10
867.7096813523569
 20
2037.177888015042
 10
867.6368317749906
 20
2037.10939271728
 10
867.6176437309832
 20
2037.090410723376
1001
REVIT
1002
{
1070
     3
1000
923267
1002
}
  0
LWPOLYLINE
  5
A7
330
87
100
AcDbEntity
  8
M-PIPE
100
AcDbPolyline
 90
       38
 70
   128
 43
0.0
 10
843.5760131706418
 20
2061.132041283718
 10
843.6452909690773
 20
2061.204147132174
 10
843.7116298877926
 20
2061.278965676677
 10
843.7749237986693
 20
2061.356377223514
 10
843.8350714449521
 20
2061.436257930724
 10
843.8919766032372
 20
2061.518480006217
 10
843.9455482374112
 20
2061.60291191221
 10
843.995700644287
 20
2061.689418575667
 10
844.0423535907124
 20
2061.777861604378
 10
844.0854324419245
 20
2061.868099508365
 10
844.1248682809524
 20
2061.959987926231
 10
844.1605980188647
 20
2062.05337985611
 10
844.1925644957038
 20
2062.148125890836
 10
844.2207165719255
 20
2062.244074456965
 10
844.2450092102131
 20
2062.341072057259
 10
844.2654035475277
 20
2062.43896351625
 10
844.2818669572803
 20
2062.537592228484
 10
844.2943731015272
 20
2062.636800409064
 10
844.3029019731051
 20
2062.736429346062
 10
844.3074399276392
 20
2062.836319654433
 10
844.3079797053705
 20
2062.936311530992
 10
844.3045204427694
 20
2063.036245010067
 10
844.2970676739182
 20
2063.135960219409
 10
844.2856333216575
 20
2063.235297635955
 10
844.2702356785112
 20
2063.334098341031
 10
844.2508993774238
 20
2063.432204274582
 10
844.2276553523527
 20
2063.529458488045
 10
844.2005407887794
 20
2063.625705395423
 10
844.1695990642207
 20
2063.720791022199
 10
844.1348796788362
 20
2063.81456325165
 10
844.0964381762357
 20
2063.906872068215
 10
844.0543360546238
 20
2063.997569797479
 10
844.0086406684123
 20
2064.086511342421
 10
843.9594251204724
 20
2064.173554415544
 10
843.9067681451817
 20
2064.258559766499
 10
843.8507539824676
 20
2064.341391404858
 10
843.7914722430416
 20
2064.42191681767
 10
843.729017765041
 20
2064.50000718145
1001
REVIT
1002
{
1070
     3
1000
923267
1002
}
  0
LINE
  5
A8
330
87
100
AcDbEntity
  8
M-PIPE
100
AcDbLine
 10
843.6068904314016
 20
2064.635735690851
 30
0.0
 11
843.5949951645461
 21
2064.648387145643
 31
0.0
1001
REVIT
1002
{
1070
     3
1000
923267
1002
}
  0
LINE
  5
A9
330
87
100
AcDbEntity
  8
M-PIPE
100
AcDbLine
 10
843.5760131706418
 20
2061.132041283718
 30
0.0
 11
842.3032209645041
 21
2059.85924907758
 31
0.0
1001
REVIT
1002
{
1070
     3
1000
923267
1002
}
  0
LINE
  5
AA
330
87
100
AcDbEntity
  8
M-PIPE
100
AcDbLine
 10
866.3448515248456
 20
2035.817618517238
 30
0.0
 11
867.6176437309832
 21
2037.090410723376
 31
0.0
1001
REVIT
1002
{
1070
     3
1000
923267
1002
}
  0
LWPOLYLINE
  5
AB
330
87
100
AcDbEntity
  8
M-PIPE
100
AcDbPolyline
 90
       41
 70
   128
 43
0.0
 10
866.3448515248459
 20
2035.817618517238
 10
866.2583245066977
 20
2035.734485159116
 10
866.1685422532947
 20
2035.654878456657
 10
866.0756483970903
 20
2035.578925763605
 10
865.9797915484377
 20
2035.506748588066
 10
865.8811250578466
 20
2035.438462398124
 10
865.7798067706544
 20
2035.374176437115
 10
865.6759987745067
 20
2035.313993548864
 10
865.5698671400534
 20
2035.258010013154
 10
865.4615816552686
 20
2035.206315391699
 10
865.3513155538291
 20
2035.158992384866
 10
865.2392452379746
 20
2035.116116699371
 10
865.1255499963037
 20
2035.077756927164
 10
865.0104117169489
 20
2035.043974435698
 10
864.8940145965962
 20
2035.014823269753
 10
864.7765448458079
 20
2034.990350064975
 10
864.6581903911259
 20
2034.970593973272
 10
864.5391405744307
 20
2034.955586600176
 10
864.419585850033
 20
2034.945351954283
 10
864.299717479988
 20
2034.939906408841
 10
864.1797272281174
 20
2034.939258675564
 10
864.0598070532272
 20
2034.943409790685
 10
863.9401488020164
 20
2034.952353113307
 10
863.8209439021604
 20
2034.96607433602
 10
863.7023830560703
 20
2034.984551507795
 10
863.5846559358084
 20
2035.0077550691
 10
863.467950879653
 20
2035.035647899185
 10
863.3524545907985
 20
2035.068185375473
 10
863.2383518386687
 20
2035.105315444943
 10
863.1258251633271
 20
2035.146978707405
 10
863.015054583449
 20
2035.193108510525
 10
862.9062173083331
 20
2035.24363105646
 10
862.7994874544024
 20
2035.298465519913
 10
862.6950357666542
 20
2035.357524177442
 10
862.5930293455082
 20
2035.42071254779
 10
862.4936313794773
 20
2035.487929543047
 10
862.3970008841038
 20
2035.559067630359
 10
862.3032924475667
 20
2035.634013003959
 10
862.2126559833745
 20
2035.71264576724
 10
862.1252364905355
 20
2035.794840124553
 10
862.1022108377266
 20
2035.817618517238
1001
REVIT
1002
{
1070
     3
1000
923267
1002
}
  0
LWPOLYLINE
  5
AC
330
87
100
AcDbEntity
  8
M-PIPE
100
AcDbPolyline
 90
       41
 70
   128
 43
0.0
 10
842.3032209645041
 20
2055.616608390461
 10
842.220087606381
 20
2055.703135408609
 10
842.1404809039229
 20
2055.792917662012
 10
842.0645282108708
 20
2055.885811518217
 10
841.9923510353317
 20
2055.981668366869
 10
841.9240648453891
 20
2056.08033485746
 10
841.8597788843806
 20
2056.181653144653
 10
841.7995959961299
 20
2056.2854611408
 10
841.7436124604195
 20
2056.391592775254
 10
841.6919178389644
 20
2056.499878260038
 10
841.6445948321314
 20
2056.610144361478
 10
841.6017191466362
 20
2056.722214677332
 10
841.5633593744296
 20
2056.835909919003
 10
841.5295768829635
 20
2056.951048198358
 10
841.5004257170183
 20
2057.067445318711
 10
841.4759525122407
 20
2057.1849150695
 10
841.4561964205377
 20
2057.303269524181
 10
841.4411890474417
 20
2057.422319340876
 10
841.4309544015479
 20
2057.541874065274
 10
841.425508856107
 20
2057.661742435319
 10
841.4248611228293
 20
2057.781732687189
 10
841.4290122379506
 20
2057.90165286208
 10
841.4379555605721
 20
2058.021311113291
 10
841.4516767832854
 20
2058.140516013147
 10
841.4701539550609
 20
2058.259076859237
 10
841.4933575163653
 20
2058.376803979498
 10
841.5212503464507
 20
2058.493509035654
 10
841.5537878227391
 20
2058.609005324508
 10
841.590917892209
 20
2058.723108076638
 10
841.6325811546705
 20
2058.83563475198
 10
841.6787109577906
 20
2058.946405331858
 10
841.7292335037256
 20
2059.055242606973
 10
841.7840679671794
 20
2059.161972460905
 10
841.8431266247072
 20
2059.266424148653
 10
841.9063149950561
 20
2059.368430569799
 10
841.9735319903129
 20
2059.467828535829
 10
842.044670077624
 20
2059.564459031203
 10
842.119615451225
 20
2059.65816746774
 10
842.1982482145057
 20
2059.748803931932
 10
842.2804425718187
 20
2059.836223424771
 10
842.3032209645041
 20
2059.85924907758
1001
REVIT
1002
{
1070
     3
1000
923267
1002
}
  0
LWPOLYLINE
  5
AD
330
87
100
AcDbEntity
  8
M-PIPE
100
AcDbPolyline
 90
        4
 70
   128
 43
0.0
 10
862.1022108377266
 20
2035.817618517238
 10
862.0942922976668
 20
2035.825537057298
 10
862.0705493454634
 20
2035.849280009502
 10
862.0310199647745
 20
2035.888809390191
1001
REVIT
1002
{
1070
     3
1000
923267
1002
}
  0
LWPOLYLINE
  5
AE
330
87
100
AcDbEntity
  8
M-PIPE
100
AcDbPolyline
 90
        5
 70
   128
 43
0.0
 10
842.378512399452
 20
2055.541316955513
 10
842.3542637170896
 20
2055.565565637875
 10
842.3219926630466
 20
2055.597836691918
 10
842.3055286584096
 20
2055.614300696555
 10
842.3032209645041
 20
2055.616608390461
1001
REVIT
1002
{
1070
     3
1000
923267
1002
}
  0
LWPOLYLINE
  5
AF
330
87
100
AcDbEntity
  8
M-PIPE
100
AcDbPolyline
 90
       80
 70
   128
 43
0.0
 10
842.3032209645041
 20
2055.616608390461
 10
842.3111395045632
 20
2055.608689850402
 10
842.3348824567668
 20
2055.584946898198
 10
842.3744118374559
 20
2055.545417517508
 10
842.4296644080538
 20
2055.490164946911
 10
842.500551776234
 20
2055.419277578731
 10
842.5869605373295
 20
2055.332868817636
 10
842.6887524557551
 20
2055.23107689921
 10
842.8057646861557
 20
2055.114064668809
 10
842.9378100339247
 20
2054.98201932104
 10
843.0846772546733
 20
2054.835152100291
 10
843.2461313921788
 20
2054.673697962786
 10
843.4219141542618
 20
2054.497915200703
 10
843.6117443260021
 20
2054.308085028963
 10
843.8153182196201
 20
2054.104511135345
 10
844.0323101603123
 20
2053.887519194653
 10
844.2623730072622
 20
2053.657456347703
 10
844.5051387089934
 20
2053.414690645972
 10
844.7602188921697
 20
2053.159610462795
 10
845.0272054829124
 20
2052.892623872052
 10
845.30567135963
 20
2052.614157995335
 10
845.5951710363232
 20
2052.324658318642
 10
845.8952413752655
 20
2052.024587979699
 10
846.2054023279263
 20
2051.714427027039
 10
846.5251577029457
 20
2051.394671652019
 10
846.8539959599342
 20
2051.065833395031
 10
847.1913910278294
 20
2050.728438327135
 10
847.5368031464963
 20
2050.383026208469
 10
847.8896797302287
 20
2050.030149624737
 10
848.2494562517693
 20
2049.670373103197
 10
848.6155571454318
 20
2049.304272209534
 10
848.9873967278837
 20
2048.932432627081
 10
849.3643801351144
 20
2048.55544921985
 10
849.7459042740917
 20
2048.173925080873
 10
850.1313587875801
 20
2047.788470567385
 10
850.5201270305843
 20
2047.399702324381
 10
850.9115870568482
 20
2047.008242298117
 10
851.3051126138366
 20
2046.614716741128
 10
851.7000741446063
 20
2046.219755210358
 10
852.0958397949621
 20
2045.823989560003
 10
852.4917764242886
 20
2045.428052930677
 10
852.8872506184407
 20
2045.032578736524
 10
853.2816297030716
 20
2044.638199651894
 10
853.6742827557755
 20
2044.245546599189
 10
854.0645816154292
 20
2043.855247739536
 10
854.451901887117
 20
2043.467927467848
 10
854.835623941028
 20
2043.084205413937
 10
855.2151339037322
 20
2042.704695451233
 10
855.589824640247
 20
2042.330004714718
 10
855.9590967253241
 20
2041.960732629641
 10
856.3223594024007
 20
2041.597469952565
 10
856.6790315286857
 20
2041.240797826279
 10
857.0285425048631
 20
2040.891286850102
 10
857.3703331879292
 20
2040.549496167036
 10
857.7038567857028
 20
2040.215972569262
 10
858.0285797315749
 20
2039.89124962339
 10
858.3439825381029
 20
2039.575846816862
 10
858.649560628079
 20
2039.270268726886
 10
858.9448251417453
 20
2038.97500421322
 10
859.2293037188664
 20
2038.690525636098
 10
859.5025412544046
 20
2038.417288100561
 10
859.7641006265909
 20
2038.155728728374
 10
860.0135633962254
 20
2037.906265958739
 10
860.2505304760933
 20
2037.669298878872
 10
860.4746227694167
 20
2037.445206585548
 10
860.6854817763304
 20
2037.234347578634
 10
860.8827701674035
 20
2037.037059187561
 10
861.066172323297
 20
2036.853657031668
 10
861.2353948396847
 20
2036.68443451528
 10
861.3901669966397
 20
2036.529662358325
 10
861.5302411917266
 20
2036.389588163238
 10
861.6553933361146
 20
2036.26443601885
 10
861.7654232130702
 20
2036.154406141895
 10
861.8601547982619
 20
2036.059674556703
 10
861.9394365413622
 20
2035.980392813602
 10
862.0031416084946
 20
2035.91668774647
 10
862.0511680851407
 20
2035.868661269824
 10
862.0834391391836
 20
2035.836390215781
 10
862.0999031438211
 20
2035.819926211144
 10
862.1022108377266
 20
2035.817618517238
1001
REVIT
1002
{
1070
     3
1000
923267
1002
}
  0
LWPOLYLINE
  5
B0
330
87
100
AcDbEntity
  8
M-PIPE
100
AcDbPolyline
 90
       41
 70
   128
 43
0.0
 10
862.1022108377266
 20
2035.817618517238
 10
862.066157913498
 20
2035.852257416456
 10
862.0287486412468
 20
2035.885426875814
 10
861.9900428678283
 20
2035.917073831253
 10
861.9501025142232
 20
2035.947147654393
 10
861.9089914764769
 20
2035.975600233536
 10
861.8667755234799
 20
2036.002386050623
 10
861.8235221917519
 20
2036.027462254061
 10
861.7793006773963
 20
2036.050788727274
 10
861.7341817254027
 20
2036.07232815288
 10
861.6882375164697
 20
2036.092046072393
 10
861.6415415515303
 20
2036.10991094135
 10
861.5941685341674
 20
2036.125894179769
 10
861.5461942511029
 20
2036.13997021788
 10
861.4976954509558
 20
2036.152116537024
 10
861.4487497214607
 20
2036.162313705681
 10
861.3994353653433
 20
2036.170545410558
 10
861.3498312750536
 20
2036.176798482681
 10
861.3000168065546
 20
2036.18106291847
 10
861.2500716523694
 20
2036.183331895737
 10
861.2000757140899
 20
2036.183601784603
 10
861.1501089745523
 20
2036.181872153302
 10
861.100251369881
 20
2036.178145768877
 10
861.0505826616078
 20
2036.172428592746
 10
861.0011823090701
 20
2036.164729771173
 10
860.9521293422941
 20
2036.155061620629
 10
860.903502235563
 20
2036.143439608094
 10
860.8553787818735
 20
2036.129882326307
 10
860.8078359684862
 20
2036.114411464028
 10
860.7609498537605
 20
2036.097051771335
 10
860.7147954454779
 20
2036.077831020036
 10
860.6694465808464
 20
2036.056779959229
 10
860.6249758083752
 20
2036.033932266124
 10
860.5814542718135
 20
2036.009324492153
 10
860.5389515963359
 20
2035.982996004508
 10
860.4975357771563
 20
2035.954988923151
 10
860.4572730707507
 20
2035.925348053439
 10
860.4182278888602
 20
2035.894120814438
 10
860.3804626954469
 20
2035.861357163071
 10
860.344037906764
 20
2035.82710951419
 10
860.3344438847603
 20
2035.817618517238
1001
REVIT
1002
{
1070
     3
1000
923267
1002
}
  0
LWPOLYLINE
  5
B1
330
87
100
AcDbEntity
  8
M-PIPE
100
AcDbPolyline
 90
       41
 70
   128
 43
0.0
 10
842.3032209645041
 20
2053.848841437496
 10
842.3378598637217
 20
2053.884894361723
 10
842.3710293230794
 20
2053.922303633974
 10
842.4026762785178
 20
2053.961009407393
 10
842.4327501016589
 20
2054.000949760999
 10
842.4612026808016
 20
2054.042060798744
 10
842.4879884978887
 20
2054.084276751741
 10
842.5130647013267
 20
2054.127530083469
 10
842.5363911745391
 20
2054.171751597825
 10
842.5579306001454
 20
2054.216870549819
 10
842.5776485196591
 20
2054.262814758752
 10
842.5955133886155
 20
2054.309510723691
 10
842.6114966270349
 20
2054.356883741054
 10
842.6255726651456
 20
2054.404858024119
 10
842.6377189842897
 20
2054.453356824265
 10
842.6479161529469
 20
2054.50230255376
 10
842.6561478578232
 20
2054.551616909878
 10
842.6624009299466
 20
2054.601221000168
 10
842.6666653657358
 20
2054.651035468667
 10
842.6689343430027
 20
2054.700980622852
 10
842.6692042318682
 20
2054.750976561132
 10
842.6674746005677
 20
2054.800943300669
 10
842.6637482161423
 20
2054.85080090534
 10
842.6580310400119
 20
2054.900469613613
 10
842.6503322184387
 20
2054.949869966151
 10
842.6406640678949
 20
2054.998922932927
 10
842.6290420553595
 20
2055.047550039658
 10
842.6154847735727
 20
2055.095673493347
 10
842.6000139112932
 20
2055.143216306735
 10
842.5826542186014
 20
2055.190102421461
 10
842.5634334673011
 20
2055.236256829743
 10
842.5423824064948
 20
2055.281605694375
 10
842.5195347133891
 20
2055.326076466846
 10
842.4949269394192
 20
2055.369598003408
 10
842.4685984517736
 20
2055.412100678886
 10
842.4405913704168
 20
2055.453516498065
 10
842.410950500704
 20
2055.49377920447
 10
842.3797232617035
 20
2055.532824386361
 10
842.3469596103366
 20
2055.570589579774
 10
842.3127119614562
 20
2055.607014368458
 10
842.3032209645041
 20
2055.616608390461
1001
REVIT
1002
{
1070
     3
1000
923267
1002
}
  0
LINE
  5
B2
330
87
100
AcDbEntity
  8
M-PIPE
100
AcDbLine
 10
842.3032209645041
 20
2053.848841437494
 30
0.0
 11
834.9139551011043
 21
2046.459575574095
 31
0.0
1001
REVIT
1002
{
1070
     3
1000
923267
1002
}
  0
LINE
  5
B3
330
87
100
AcDbEntity
  8
M-PIPE
100
AcDbLine
 10
852.9451780213603
 20
2028.428352653839
 30
0.0
 11
860.3344438847603
 21
2035.817618517238
 31
0.0
1001
REVIT
1002
{
1070
     3
1000
923267
1002
}
  0
LWPOLYLINE
  5
B4
330
87
100
AcDbEntity
  8
M-PIPE
100
AcDbPolyline
 90
       41
 70
   128
 43
0.0
 10
852.9451780213607
 20
2028.428352653838
 10
852.9307568516694
 20
2028.414497094152
 10
852.915793142769
 20
2028.401229310409
 10
852.9003108334016
 20
2028.388570528233
 10
852.8843346919595
 20
2028.376540998976
 10
852.8678902768609
 20
2028.36515996732
 10
852.8510038956621
 20
2028.354445640485
 10
852.833702562971
 20
2028.344415159109
 10
852.8160139572287
 20
2028.335084569825
 10
852.7979663764313
 20
2028.326468799582
 10
852.7795886928581
 20
2028.318581631777
 10
852.7609103068822
 20
2028.311435684194
 10
852.7419610999372
 20
2028.305042388826
 10
852.7227713867112
 20
2028.299411973582
 10
852.7033718666523
 20
2028.294553445924
 10
852.6837935748542
 20
2028.290474578462
 10
852.6640678324072
 20
2028.28718189651
 10
852.6442261962916
 20
2028.284680667661
 10
852.6243004088922
 20
2028.282974893346
 10
852.6043223472179
 20
2028.282067302439
 10
852.584323971906
 20
2028.281959346893
 10
852.564337276091
 20
2028.282651199413
 10
852.5443942342224
 20
2028.284141753183
 10
852.5245267509131
 20
2028.286428623635
 10
852.5047666098981
 20
2028.289508152265
 10
852.4851454231876
 20
2028.293375412482
 10
852.4656945804952
 20
2028.298024217496
 10
852.4464451990196
 20
2028.303447130211
 10
852.4274280736646
 20
2028.309635475123
 10
852.4086736277741
 20
2028.3165793522
 10
852.3902118644612
 20
2028.32426765272
 10
852.3720723186087
 20
2028.332688077042
 10
852.3542840096201
 20
2028.341827154284
 10
852.3368753949956
 20
2028.351670263872
 10
852.3198743248045
 20
2028.36220165893
 10
852.3033079971327
 20
2028.373404491473
 10
852.2872029145704
 20
2028.385260839359
 10
852.2715848418144
 20
2028.397751734959
 10
852.2564787644489
 20
2028.410857195506
 10
852.2419088489757
 20
2028.424556255058
 10
852.2380712401742
 20
2028.428352653838
1001
REVIT
1002
{
1070
     3
1000
923267
1002
}
  0
LWPOLYLINE
  5
B5
330
87
100
AcDbEntity
  8
M-PIPE
100
AcDbPolyline
 90
       41
 70
   128
 43
0.0
 10
834.9139551011043
 20
2045.752468792909
 10
834.9000995414169
 20
2045.7668899626
 10
834.8868317576739
 20
2045.7818536715
 10
834.8741729754987
 20
2045.797335980868
 10
834.8621434462422
 20
2045.81331212231
 10
834.8507624145851
 20
2045.829756537409
 10
834.8400480877502
 20
2045.846642918607
 10
834.8300176063752
 20
2045.863944251298
 10
834.8206870170901
 20
2045.881632857041
 10
834.8120712468476
 20
2045.899680437838
 10
834.8041840790422
 20
2045.918058121412
 10
834.7970381314592
 20
2045.936736507387
 10
834.7906448360918
 20
2045.955685714333
 10
834.7850144208475
 20
2045.974875427558
 10
834.7801558931896
 20
2045.994274947617
 10
834.776077025727
 20
2046.013853239415
 10
834.7727843437763
 20
2046.033578981862
 10
834.7702831149272
 20
2046.053420617978
 10
834.7685773406114
 20
2046.073346405377
 10
834.7676697497046
 20
2046.093324467051
 10
834.7675617941582
 20
2046.113322842364
 10
834.7682536466786
 20
2046.133309538178
 10
834.769744200449
 20
2046.153252580047
 10
834.7720310709012
 20
2046.173120063356
 10
834.7751105995302
 20
2046.192880204371
 10
834.7789778597478
 20
2046.212501391082
 10
834.783626664762
 20
2046.231952233774
 10
834.7890495774768
 20
2046.25120161525
 10
834.7952379223883
 20
2046.270218740605
 10
834.8021817994652
 20
2046.288973186495
 10
834.8098700999852
 20
2046.307434949808
 10
834.8182905243076
 20
2046.325574495661
 10
834.82742960155
 20
2046.343362804649
 10
834.837272711138
 20
2046.360771419274
 10
834.8478041061962
 20
2046.377772489465
 10
834.8590069387388
 20
2046.394338817137
 10
834.8708632866241
 20
2046.410443899699
 10
834.8833541822243
 20
2046.426061972455
 10
834.8964596427711
 20
2046.44116804982
 10
834.9101587023232
 20
2046.455737965294
 10
834.9139551011043
 20
2046.459575574095
1001
REVIT
1002
{
1070
     3
1000
923267
1002
}
  0
LWPOLYLINE
  5
B6
330
87
100
AcDbEntity
  8
M-PIPE
100
AcDbPolyline
 90
        3
 70
   128
 43
0.0
 10
852.2380712401742
 20
2028.428352653838
 10
852.2311425176221
 20
2028.435281376391
 10
852.2103674344441
 20
2028.456056459569
1001
REVIT
1002
{
1070
     3
1000
923267
1002
}
  0
LWPOLYLINE
  5
B7
330
87
100
AcDbEntity
  8
M-PIPE
100
AcDbPolyline
 90
        4
 70
   128
 43
0.0
 10
834.9586175096165
 20
2045.707806384396
 10
834.930380337329
 20
2045.736043556684
 10
834.9159743332714
 20
2045.750449560741
 10
834.9139551011043
 20
2045.752468792909
1001
REVIT
1002
{
1070
     3
1000
923267
1002
}
  0
LWPOLYLINE
  5
B8
330
87
100
AcDbEntity
  8
M-PIPE
100
AcDbPolyline
 90
       80
 70
   128
 43
0.0
 10
834.9139551011043
 20
2045.752468792909
 10
834.920883823656
 20
2045.745540070356
 10
834.9416589068342
 20
2045.724764987179
 10
834.9762471149373
 20
2045.690176779075
 10
835.0245931142103
 20
2045.641830779803
 10
835.0866195613679
 20
2045.579804332644
 10
835.1622272273264
 20
2045.504196666687
 10
835.2512951559488
 20
2045.415128738064
 10
835.3536808575498
 20
2045.312743036463
 10
835.4692205368474
 20
2045.197203357165
 10
835.5977293550024
 20
2045.06869453901
 10
835.7390017253191
 20
2044.927422168694
 10
835.8928116421422
 20
2044.773612251871
 10
836.0589130424152
 20
2044.607510851598
 10
836.2370401993306
 20
2044.429383694682
 10
836.4269081474359
 20
2044.239515746577
 10
836.6282131385176
 20
2044.038210755495
 10
836.8406331275322
 20
2043.82579076648
 10
837.0638282878115
 20
2043.602595606202
 10
837.2974415547114
 20
2043.368982339301
 10
837.5410991968394
 20
2043.125324697173
 10
837.7944114139459
 20
2042.872012480067
 10
838.0569729605202
 20
2042.609450933492
 10
838.3283637940987
 20
2042.338060099914
 10
838.6081497472407
 20
2042.058274146772
 10
838.8958832221057
 20
2041.770540671907
 10
839.1911039065139
 20
2041.475319987499
 10
839.4933395103475
 20
2041.173084383665
 10
839.8021065211134
 20
2040.864317372899
 10
840.1169109774611
 20
2040.549512916551
 10
840.4372492594159
 20
2040.229174634597
 10
840.7626088940613
 20
2039.903814999952
 10
841.0924693753882
 20
2039.573954518624
 10
841.4263029969935
 20
2039.240120897019
 10
841.7635756962958
 20
2038.902848197717
 10
842.1037479089246
 20
2038.562675985089
 10
842.4462754319051
 20
2038.220148462107
 10
842.7906102942705
 20
2037.875813599742
 10
843.136201633694
 20
2037.530222260319
 10
843.4824965777552
 20
2037.183927316258
 10
843.8289411284156
 20
2036.837482765597
 10
844.1749810482988
 20
2036.491442845714
 10
844.5200627473511
 20
2036.146361146661
 10
844.863634168467
 20
2035.802789725546
 10
845.2051456706639
 20
2035.461278223349
 10
845.5440509083908
 20
2035.122372985622
 10
845.8798077055631
 20
2034.78661618845
 10
846.211878922929
 20
2034.454544971084
 10
846.5397333173795
 20
2034.126690576633
 10
846.8628463918218
 20
2033.803577502191
 10
847.1807012342637
 20
2033.485722659749
 10
847.4927893447635
 20
2033.17363454925
 10
847.7986114489183
 20
2032.867812445094
 10
848.0976782966012
 20
2032.568745597412
 10
848.3895114446532
 20
2032.27691244936
 10
848.6736440222912
 20
2031.992779871721
 10
848.9496214780036
 20
2031.716802416009
 10
849.2170023067322
 20
2031.44942158728
 10
849.4753587561906
 20
2031.191065137822
 10
849.7242775111715
 20
2030.942146382841
 10
849.9633603547675
 20
2030.703063539245
 10
850.1922248054304
 20
2030.474199088582
 10
850.4105047288609
 20
2030.255919165152
 10
850.617850923745
 20
2030.048572970267
 10
850.8139316804031
 20
2029.85249221361
 10
850.9984333114525
 20
2029.667990582561
 10
851.1710606536416
 20
2029.495363240371
 10
851.3315375400486
 20
2029.334886353964
 10
851.4796072418876
 20
2029.186816652125
 10
851.6150328792232
 20
2029.051391014789
 10
851.7375977999243
 20
2028.928826094089
 10
851.8471059262637
 20
2028.819317967749
 10
851.9433820685996
 20
2028.723041825413
 10
852.0262722056427
 20
2028.64015168837
 10
852.0956437308555
 20
2028.570780163157
 10
852.1513856645961
 20
2028.515038229417
 10
852.1934088316617
 20
2028.473015062351
 10
852.2216460039492
 20
2028.444777890063
 10
852.2360520080066
 20
2028.430371886006
 10
852.2380712401742
 20
2028.428352653838
1001
REVIT
1002
{
1070
     3
1000
923267
1002
}
  0
LINE
  5
B9
330
87
100
AcDbEntity
  8
M-PIPE
100
AcDbLine
 10
884.9417598700531
 20
2026.837362396168
 30
0.0
 11
880.4788254676745
 21
2031.300296798547
 31
0.0
1001
REVIT
1002
{
1070
     3
1000
923267
1002
}
  0
LINE
  5
BA
330
87
100
AcDbEntity
  8
M-PIPE
100
AcDbLine
 10
880.4788254676745
 20
2031.300296798547
 30
0.0
 11
875.5208631027796
 21
2036.258259163442
 31
0.0
1001
REVIT
1002
{
1070
     3
1000
923267
1002
}
  0
LINE
  5
BB
330
87
100
AcDbEntity
  8
M-PIPE
100
AcDbLine
 10
837.7858992458156
 20
2073.993223020407
 30
0.0
 11
833.3229648434302
 21
2078.456157422792
 31
0.0
1001
REVIT
1002
{
1070
     3
1000
923267
1002
}
  0
LINE
  5
BC
330
87
100
AcDbEntity
  8
M-PIPE
100
AcDbLine
 10
842.7438616107169
 20
2069.035260655506
 30
0.0
 11
837.7858992458156
 21
2073.993223020407
 31
0.0
1001
REVIT
1002
{
1070
     3
1000
923267
1002
}
  0
LINE
  5
BD
330
87
100
AcDbEntity
  8
M-PIPE
100
AcDbLine
 10
848.8753941329376
 20
2062.903728133285
 30
0.0
 11
872.4927606245687
 21
2086.521094624915
 31
0.0
1001
REVIT
1002
{
1070
     3
1000
923267
1002
}
  0
LINE
  5
BE
330
87
100
AcDbEntity
  8
M-PIPE
100
AcDbLine
 10
869.3893305805257
 20
2042.389791685696
 30
0.0
 11
893.0066986803886
 21
2066.007159785559
 31
0.0
1001
REVIT
1002
{
1070
     3
1000
923267
1002
}
  0
SPLINE
  5
BF
330
87
100
AcDbEntity
  8
M-PIPE
100
AcDbSpline
210
0.0
220
0.0
230
1.0
 70
     8
 71
     3
 72
    11
 73
     7
 74
     0
 42
0.000000001
 43
0.0000000001
 40
0.0
 40
0.0
 40
0.0
 40
0.0
 40
0.2857142857142857
 40
0.5714285714285714
 40
0.7857142857142857
 40
1.0
 40
1.0
 40
1.0
 40
1.0
 10
872.4927606245689
 20
2086.521094624915
 30
0.0
 10
873.1388939766734
 20
2087.166533695599
 30
0.0
 10
874.5608821688593
 20
2088.32278206716
 30
0.0
 10
876.4692128994097
 20
2089.205864660895
 30
0.0
 10
877.8779637891384
 20
2089.312505045738
 30
0.0
 10
878.4754884692826
 20
2089.023648154439
 30
0.0
 10
878.7031260371064
 20
2088.796010586616
 30
0.0
1001
REVIT
1002
{
1070
     3
1000
923267
1002
}
  0
SPLINE
  5
C0
330
87
100
AcDbEntity
  8
M-PIPE
100
AcDbSpline
210
0.0
220
0.0
230
1.0
 70
     8
 71
     3
 72
    10
 73
     6
 74
     0
 42
0.000000001
 43
0.0000000001
 40
-0.9999997665368239
 40
-0.9999997665368239
 40
-0.9999997665368239
 40
-0.9999997665368239
 40
-0.6666666666666666
 40
-0.3333333333333333
 40
0.0
 40
0.0
 40
0.0
 40
0.0
 10
893.0066986202454
 20
2066.007159740987
 30
0.0
 10
893.7434731255752
 20
2066.751345176242
 30
0.0
 10
895.0547396408182
 20
2068.399784454768
 30
0.0
 10
895.9362665593141
 20
2070.769653039231
 30
0.0
 10
895.6533421071036
 20
2071.845794516618
 30
0.0
 10
895.2816130338561
 20
2072.217523589865
 30
0.0
1001
REVIT
1002
{
1070
     3
1000
923267
1002
}
  0
LINE
  5
C1
330
87
100
AcDbEntity
  8
M-PIPE
100
AcDbLine
 10
875.52086310278
 20
2036.258259163442
 30
0.0
 11
842.7438616107165
 21
2069.035260655505
 31
0.0
1001
REVIT
1002
{
1070
     3
1000
923267
1002
}
  0
LINE
  5
C2
330
87
100
AcDbEntity
  8
M-PIPE
100
AcDbLine
 10
791.3355994030553
 20
2044.500000000074
 30
0.0
 11
791.3355994030553
 21
2044.000000000011
 31
0.0
1001
REVIT
1002
{
1070
     3
1000
790271
1002
}
  0
LINE
  5
C3
330
87
100
AcDbEntity
  8
M-PIPE
100
AcDbLine
 10
805.2355994030552
 20
2040.50000000001
 30
0.0
 11
805.2355994030552
 21
2042.500000000011
 31
0.0
1001
REVIT
1002
{
1070
     3
1000
790271
1002
}
  0
LINE
  5
C4
330
87
100
AcDbEntity
  8
M-PIPE
100
AcDbLine
 10
805.2355994030552
 20
2044.000000000011
 30
0.0
 11
805.2355994030552
 21
2044.500000000073
 31
0.0
1001
REVIT
1002
{
1070
     3
1000
790271
1002
}
  0
LINE
  5
C5
330
87
100
AcDbEntity
  8
M-PIPE
100
AcDbLine
 10
792.2855994030551
 20
2044.000000000011
 30
0.0
 11
792.2855994030551
 21
2042.500000000011
 31
0.0
1001
REVIT
1002
{
1070
     3
1000
790271
1002
}
  0
LINE
  5
C6
330
87
100
AcDbEntity
  8
M-PIPE
100
AcDbLine
 10
804.2855994030553
 20
2042.500000000011
 30
0.0
 11
804.2855994030553
 21
2044.000000000011
 31
0.0
1001
REVIT
1002
{
1070
     3
1000
790271
1002
}
  0
LINE
  5
C7
330
87
100
AcDbEntity
  8
M-PIPE
100
AcDbLine
 10
791.3355994030553
 20
2042.500000000011
 30
0.0
 11
791.3355994030553
 21
2040.500000000011
 31
0.0
1001
REVIT
1002
{
1070
     3
1000
790271
1002
}
  0
LINE
  5
C8
330
87
100
AcDbEntity
  8
M-PIPE
100
AcDbLine
 10
791.8355994029919
 20
2045.000000000011
 30
0.0
 11
791.3950576165071
 21
2044.559458213526
 31
0.0
1001
REVIT
1002
{
1070
     3
1000
790271
1002
}
  0
LINE
  5
C9
330
87
100
AcDbEntity
  8
M-PIPE
100
AcDbLine
 10
791.3763329255905
 20
2044.540733522609
 30
0.0
 11
791.3355994030553
 21
2044.500000000074
 31
0.0
1001
REVIT
1002
{
1070
     3
1000
790271
1002
}
  0
LINE
  5
CA
330
87
100
AcDbEntity
  8
M-PIPE
100
AcDbLine
 10
805.2355994030552
 20
2044.500000000073
 30
0.0
 11
804.7355994031184
 21
2045.000000000011
 31
0.0
1001
REVIT
1002
{
1070
     3
1000
790271
1002
}
  0
LINE
  5
CB
330
87
100
AcDbEntity
  8
M-PIPE
100
AcDbLine
 10
791.3355994030553
 20
2040.500000000011
 30
0.0
 11
791.2797046716941
 21
2040.467729161813
 31
0.0
1001
REVIT
1002
{
1070
     3
1000
790271
1002
}
  0
LINE
  5
CC
330
87
100
AcDbEntity
  8
M-PIPE
100
AcDbLine
 10
805.2914941344488
 20
2040.467729161794
 30
0.0
 11
805.2355994030552
 21
2040.50000000001
 31
0.0
1001
REVIT
1002
{
1070
     3
1000
790271
1002
}
  0
LINE
  5
CD
330
87
100
AcDbEntity
  8
M-PIPE
100
AcDbLine
 10
791.5355994030552
 20
2051.70000000001
 30
0.0
 11
791.5355994030551
 21
2047.700000000011
 31
0.0
1001
REVIT
1002
{
1070
     3
1000
790271
1002
}
  0
LINE
  5
CE
330
87
100
AcDbEntity
  8
M-PIPE
100
AcDbLine
 10
805.0355994030551
 20
2047.700000000011
 30
0.0
 11
805.0355994030551
 21
2051.70000000001
 31
0.0
1001
REVIT
1002
{
1070
     3
1000
790271
1002
}
  0
LINE
  5
CF
330
87
100
AcDbEntity
  8
M-PIPE
100
AcDbLine
 10
792.5355994030552
 20
2047.700000000011
 30
0.0
 11
792.5355994030552
 21
2046.000000000011
 31
0.0
1001
REVIT
1002
{
1070
     3
1000
790271
1002
}
  0
LINE
  5
D0
330
87
100
AcDbEntity
  8
M-PIPE
100
AcDbLine
 10
804.0355994030552
 20
2046.00000000001
 30
0.0
 11
804.0355994030552
 21
2047.700000000011
 31
0.0
1001
REVIT
1002
{
1070
     3
1000
790271
1002
}
  0
LINE
  5
D1
330
87
100
AcDbEntity
  8
M-PIPE
100
AcDbLine
 10
791.5355994030551
 20
2046.000000000011
 30
0.0
 11
791.5355994030551
 21
2045.000000000011
 31
0.0
1001
REVIT
1002
{
1070
     3
1000
790271
1002
}
  0
LINE
  5
D2
330
87
100
AcDbEntity
  8
M-PIPE
100
AcDbLine
 10
805.0355994030551
 20
2045.000000000011
 30
0.0
 11
805.0355994030551
 21
2046.00000000001
 31
0.0
1001
REVIT
1002
{
1070
     3
1000
790271
1002
}
  0
LINE
  5
D3
330
87
100
AcDbEntity
  8
M-PIPE
100
AcDbLine
 10
792.0355994030552
 20
2052.200000000011
 30
0.0
 11
791.5355994030552
 21
2051.70000000001
 31
0.0
1001
REVIT
1002
{
1070
     3
1000
790271
1002
}
  0
LINE
  5
D4
330
87
100
AcDbEntity
  8
M-PIPE
100
AcDbLine
 10
805.0355994030551
 20
2051.70000000001
 30
0.0
 11
804.5355994030552
 21
2052.20000000001
 31
0.0
1001
REVIT
1002
{
1070
     3
1000
790271
1002
}
  0
LINE
  5
D5
330
87
100
AcDbEntity
  8
M-PIPE
100
AcDbLine
 10
791.7355994030548
 20
2031.000000000008
 30
0.0
 11
791.7355994030548
 21
2026.800000000026
 31
0.0
1001
REVIT
1002
{
1070
     3
1000
790271
1002
}
  0
LINE
  5
D6
330
87
100
AcDbEntity
  8
M-PIPE
100
AcDbLine
 10
804.8355994030551
 20
2026.800000000026
 30
0.0
 11
804.8355994030551
 21
2030.999999999966
 31
0.0
1001
REVIT
1002
{
1070
     3
1000
790271
1002
}
  0
LINE
  5
D7
330
87
100
AcDbEntity
  8
M-PIPE
100
AcDbLine
 10
798.2855994030534
 20
2044.500000000073
 30
0.0
 11
791.3355994030535
 21
2044.500000000073
 31
0.0
1001
REVIT
1002
{
1070
     3
1000
790271
1002
}
  0
LINE
  5
D8
330
87
100
AcDbEntity
  8
M-PIPE
100
AcDbLine
 10
791.3355994030535
 20
2044.00000000001
 30
0.0
 11
798.2855994030534
 21
2044.00000000001
 31
0.0
1001
REVIT
1002
{
1070
     3
1000
790271
1002
}
  0
LINE
  5
D9
330
87
100
AcDbEntity
  8
M-PIPE
100
AcDbLine
 10
805.2355994030532
 20
2044.00000000001
 30
0.0
 11
798.2855994030534
 21
2044.00000000001
 31
0.0
1001
REVIT
1002
{
1070
     3
1000
790271
1002
}
  0
LINE
  5
DA
330
87
100
AcDbEntity
  8
M-PIPE
100
AcDbLine
 10
798.2855994030534
 20
2042.50000000001
 30
0.0
 11
805.2355994030532
 21
2042.50000000001
 31
0.0
1001
REVIT
1002
{
1070
     3
1000
790271
1002
}
  0
LINE
  5
DB
330
87
100
AcDbEntity
  8
M-PIPE
100
AcDbLine
 10
798.2855994030534
 20
2040.50000000001
 30
0.0
 11
804.3044759593552
 21
2040.50000000001
 31
0.0
1001
REVIT
1002
{
1070
     3
1000
790271
1002
}
  0
LINE
  5
DC
330
87
100
AcDbEntity
  8
M-PIPE
100
AcDbLine
 10
804.3044759593552
 20
2040.50000000001
 30
0.0
 11
805.2207189195627
 21
2040.50000000001
 31
0.0
1001
REVIT
1002
{
1070
     3
1000
790271
1002
}
  0
LINE
  5
DD
330
87
100
AcDbEntity
  8
M-PIPE
100
AcDbLine
 10
798.2855994030614
 20
2031.00000000001
 30
0.0
 11
791.2855994030699
 21
2031.00000000001
 31
0.0
1001
REVIT
1002
{
1070
     3
1000
790271
1002
}
  0
LINE
  5
DE
330
87
100
AcDbEntity
  8
M-PIPE
100
AcDbLine
 10
805.2355994030532
 20
2044.500000000073
 30
0.0
 11
798.2855994030534
 21
2044.500000000073
 31
0.0
1001
REVIT
1002
{
1070
     3
1000
790271
1002
}
  0
LINE
  5
DF
330
87
100
AcDbEntity
  8
M-PIPE
100
AcDbLine
 10
791.3355994030532
 20
2042.50000000001
 30
0.0
 11
798.2855994030533
 21
2042.50000000001
 31
0.0
1001
REVIT
1002
{
1070
     3
1000
790271
1002
}
  0
LINE
  5
E0
330
87
100
AcDbEntity
  8
M-PIPE
100
AcDbLine
 10
791.3504798865463
 20
2040.50000000001
 30
0.0
 11
792.2667228467515
 21
2040.50000000001
 31
0.0
1001
REVIT
1002
{
1070
     3
1000
790271
1002
}
  0
LINE
  5
E1
330
87
100
AcDbEntity
  8
M-PIPE
100
AcDbLine
 10
792.2667228467515
 20
2040.50000000001
 30
0.0
 11
798.2855994030534
 21
2040.50000000001
 31
0.0
1001
REVIT
1002
{
1070
     3
1000
790271
1002
}
  0
LINE
  5
E2
330
87
100
AcDbEntity
  8
M-PIPE
100
AcDbLine
 10
805.2855994030698
 20
2031.000000000009
 30
0.0
 11
798.2855994030533
 21
2031.00000000001
 31
0.0
1001
REVIT
1002
{
1070
     3
1000
790271
1002
}
  0
SPLINE
  5
E3
330
87
100
AcDbEntity
  8
M-PIPE
100
AcDbSpline
210
0.0
220
0.0
230
1.0
 70
    24
 71
     3
 72
     9
 73
     5
 74
     0
 42
0.000000001
 43
0.0000000001
 40
-0.5
 40
-0.5
 40
-0.5
 40
-0.5
 40
-0.3333333333333333
 40
0.0
 40
0.0
 40
0.0
 40
0.0
 10
791.2855994030699
 20
2040.467719243499
 30
0.0
 10
791.2855994030699
 20
2040.468227292897
 30
0.0
 10
791.2855994030699
 20
2040.400662381173
 30
0.0
 10
791.2855994030699
 20
2040.123310779408
 30
0.0
 10
791.2855994030699
 20
2039.845917704223
 30
0.0
1001
REVIT
1002
{
1070
     3
1000
790271
1002
}
  0
SPLINE
  5
E4
330
87
100
AcDbEntity
  8
M-PIPE
100
AcDbSpline
210
0.0
220
0.0
230
1.0
 70
     8
 71
     3
 72
    10
 73
     6
 74
     0
 42
0.000000001
 43
0.0000000001
 40
-1.0
 40
-1.0
 40
-1.0
 40
-1.0
 40
-0.6666666666666666
 40
-0.3333333333333333
 40
0.0
 40
0.0
 40
0.0
 40
0.0
 10
791.2855994030699
 20
2039.845917704223
 30
0.0
 10
792.069452723249
 20
2040.121237108396
 30
0.0
 10
793.632518699815
 20
2040.488384945185
 30
0.0
 10
795.9153811958392
 20
2040.493112915096
 30
0.0
 10
797.4917608355351
 20
2040.123310779403
 30
0.0
 10
798.2855994030614
 20
2039.845917704213
 30
0.0
1001
REVIT
1002
{
1070
     3
1000
790271
1002
}
  0
SPLINE
  5
E5
330
87
100
AcDbEntity
  8
M-PIPE
100
AcDbSpline
210
0.0
220
0.0
230
1.0
 70
     8
 71
     3
 72
    10
 73
     6
 74
     0
 42
0.000000001
 43
0.0000000001
 40
-1.0
 40
-1.0
 40
-1.0
 40
-1.0
 40
-0.6666666666666666
 40
-0.3333333333333333
 40
0.0
 40
0.0
 40
0.0
 40
0.0
 10
798.2855994030533
 20
2039.845917704213
 30
0.0
 10
799.0794379705824
 20
2040.123310779399
 30
0.0
 10
800.6558176102839
 20
2040.493112915086
 30
0.0
 10
802.9386801063177
 20
2040.488384945174
 30
0.0
 10
804.5017460828885
 20
2040.121237108381
 30
0.0
 10
805.2855994030698
 20
2039.845917704206
 30
0.0
1001
REVIT
1002
{
1070
     3
1000
790271
1002
}
  0
SPLINE
  5
E6
330
87
100
AcDbEntity
  8
M-PIPE
100
AcDbSpline
210
0.0
220
0.0
230
1.0
 70
    24
 71
     3
 72
     9
 73
     5
 74
     0
 42
0.000000001
 43
0.0000000001
 40
-1.0
 40
-1.0
 40
-1.0
 40
-1.0
 40
-0.6666666666666666
 40
-0.4984562428861154
 40
-0.4984562428861154
 40
-0.4984562428861154
 40
-0.4984562428861154
 10
805.2855994030698
 20
2039.845917704206
 30
0.0
 10
805.2855994030698
 20
2040.121237108378
 30
0.0
 10
805.28559940307
 20
2040.397448166596
 30
0.0
 10
805.28559940307
 20
2040.467645280844
 30
0.0
 10
805.28559940307
 20
2040.46772743327
 30
0.0
1001
REVIT
1002
{
1070
     3
1000
790271
1002
}
  0
LINE
  5
E7
330
87
100
AcDbEntity
  8
M-PIPE
100
AcDbLine
 10
805.2855994030698
 20
2039.845917704206
 30
0.0
 11
805.2855994030698
 21
2030.999999999961
 31
0.0
1001
REVIT
1002
{
1070
     3
1000
790271
1002
}
  0
LINE
  5
E8
330
87
100
AcDbEntity
  8
M-PIPE
100
AcDbLine
 10
798.2855994030614
 20
2039.845917704213
 30
0.0
 11
798.2855994030698
 21
2030.999999999962
 31
0.0
1001
REVIT
1002
{
1070
     3
1000
790271
1002
}
  0
LINE
  5
E9
330
87
100
AcDbEntity
  8
M-PIPE
100
AcDbLine
 10
791.2855994030699
 20
2039.845917704223
 30
0.0
 11
791.2855994030699
 21
2030.999999999962
 31
0.0
1001
REVIT
1002
{
1070
     3
1000
790271
1002
}
  0
LINE
  5
EA
330
87
100
AcDbEntity
  8
M-PIPE
100
AcDbLine
 10
792.0355994030534
 20
2052.20000000001
 30
0.0
 11
798.2855994030534
 21
2052.20000000001
 31
0.0
1001
REVIT
1002
{
1070
     3
1000
790271
1002
}
  0
LINE
  5
EB
330
87
100
AcDbEntity
  8
M-PIPE
100
AcDbLine
 10
798.2855994030534
 20
2052.20000000001
 30
0.0
 11
804.5355994030535
 21
2052.20000000001
 31
0.0
1001
REVIT
1002
{
1070
     3
1000
790271
1002
}
  0
LINE
  5
EC
330
87
100
AcDbEntity
  8
M-PIPE
100
AcDbLine
 10
798.2855994030534
 20
2051.70000000001
 30
0.0
 11
791.5355994030535
 21
2051.70000000001
 31
0.0
1001
REVIT
1002
{
1070
     3
1000
790271
1002
}
  0
LINE
  5
ED
330
87
100
AcDbEntity
  8
M-PIPE
100
AcDbLine
 10
805.0355994030534
 20
2051.70000000001
 30
0.0
 11
798.2855994030537
 21
2051.70000000001
 31
0.0
1001
REVIT
1002
{
1070
     3
1000
790271
1002
}
  0
LINE
  5
EE
330
87
100
AcDbEntity
  8
M-PIPE
100
AcDbLine
 10
791.5355994030534
 20
2047.70000000001
 30
0.0
 11
798.2855994030534
 21
2047.70000000001
 31
0.0
1001
REVIT
1002
{
1070
     3
1000
790271
1002
}
  0
LINE
  5
EF
330
87
100
AcDbEntity
  8
M-PIPE
100
AcDbLine
 10
798.2855994030534
 20
2047.70000000001
 30
0.0
 11
805.0355994030534
 21
2047.70000000001
 31
0.0
1001
REVIT
1002
{
1070
     3
1000
790271
1002
}
  0
LINE
  5
F0
330
87
100
AcDbEntity
  8
M-PIPE
100
AcDbLine
 10
791.5355994030533
 20
2046.00000000001
 30
0.0
 11
798.2855994030534
 21
2046.00000000001
 31
0.0
1001
REVIT
1002
{
1070
     3
1000
790271
1002
}
  0
LINE
  5
F1
330
87
100
AcDbEntity
  8
M-PIPE
100
AcDbLine
 10
798.2855994030534
 20
2046.00000000001
 30
0.0
 11
805.0355994030534
 21
2046.00000000001
 31
0.0
1001
REVIT
1002
{
1070
     3
1000
790271
1002
}
  0
LINE
  5
F2
330
87
100
AcDbEntity
  8
M-PIPE
100
AcDbLine
 10
791.5355994030533
 20
2045.00000000001
 30
0.0
 11
798.2855994030534
 21
2045.00000000001
 31
0.0
1001
REVIT
1002
{
1070
     3
1000
790271
1002
}
  0
LINE
  5
F3
330
87
100
AcDbEntity
  8
M-PIPE
100
AcDbLine
 10
798.2855994030534
 20
2045.00000000001
 30
0.0
 11
805.0355994030534
 21
2045.00000000001
 31
0.0
1001
REVIT
1002
{
1070
     3
1000
790271
1002
}
  0
LINE
  5
F4
330
87
100
AcDbEntity
  8
M-PIPE
100
AcDbLine
 10
772.0676127749022
 20
2041.465662591058
 30
0.0
 11
772.1544368637466
 21
2040.973258714489
 31
0.0
1001
REVIT
1002
{
1070
     3
1000
790271
1002
}
  0
LINE
  5
F5
330
87
100
AcDbEntity
  8
M-PIPE
100
AcDbLine
 10
785.8432646306163
 20
2043.386968384059
 30
0.0
 11
785.7564405417717
 21
2043.879372260628
 31
0.0
1001
REVIT
1002
{
1070
     3
1000
790271
1002
}
  0
LINE
  5
F6
330
87
100
AcDbEntity
  8
M-PIPE
100
AcDbLine
 10
773.0905822077215
 20
2041.134946603671
 30
0.0
 11
773.3504764956085
 21
2039.661012853755
 31
0.0
1001
REVIT
1002
{
1070
     3
1000
790271
1002
}
  0
LINE
  5
F7
330
87
100
AcDbEntity
  8
M-PIPE
100
AcDbLine
 10
785.1675915531417
 20
2041.74806886536
 30
0.0
 11
784.9076972652547
 21
2043.222002615276
 31
0.0
1001
REVIT
1002
{
1070
     3
1000
790271
1002
}
  0
LINE
  5
F8
330
87
100
AcDbEntity
  8
M-PIPE
100
AcDbLine
 10
772.414909130247
 20
2039.496047084971
 30
0.0
 11
772.7608400785957
 21
2037.534175186756
 31
0.0
1001
REVIT
1002
{
1070
     3
1000
790271
1002
}
  0
LINE
  5
F9
330
87
100
AcDbEntity
  8
M-PIPE
100
AcDbLine
 10
786.4510332524504
 20
2039.940141248516
 30
0.0
 11
786.1037368971165
 21
2041.909756754541
 31
0.0
1001
REVIT
1002
{
1070
     3
1000
790271
1002
}
  0
LINE
  5
FA
330
87
100
AcDbEntity
  8
M-PIPE
100
AcDbLine
 10
772.4731925625233
 20
2042.044890556324
 30
0.0
 11
772.0676127749022
 21
2041.465662591058
 31
0.0
1001
REVIT
1002
{
1070
     3
1000
790271
1002
}
  0
LINE
  5
FB
330
87
100
AcDbEntity
  8
M-PIPE
100
AcDbLine
 10
785.7564405417717
 20
2043.879372260628
 30
0.0
 11
785.7092525510136
 21
2043.912413647469
 31
0.0
1001
REVIT
1002
{
1070
     3
1000
790271
1002
}
  0
LINE
  5
FC
330
87
100
AcDbEntity
  8
M-PIPE
100
AcDbLine
 10
785.6978856321838
 20
2043.92037284972
 30
0.0
 11
785.1772125765054
 21
2044.284952048249
 31
0.0
1001
REVIT
1002
{
1070
     3
1000
790271
1002
}
  0
LINE
  5
FD
330
87
100
AcDbEntity
  8
M-PIPE
100
AcDbLine
 10
772.7622054855807
 20
2037.526431578946
 30
0.0
 11
772.7127636930287
 21
2037.484944989051
 31
0.0
1001
REVIT
1002
{
1070
     3
1000
790271
1002
}
  0
LINE
  5
FE
330
87
100
AcDbEntity
  8
M-PIPE
100
AcDbLine
 10
786.5116825895277
 20
2039.918066695094
 30
0.0
 11
786.4510332524504
 21
2039.940141248516
 31
0.0
1001
REVIT
1002
{
1070
     3
1000
790271
1002
}
  0
LINE
  5
FF
330
87
100
AcDbEntity
  8
M-PIPE
100
AcDbLine
 10
771.0143074463137
 20
2048.591008048216
 30
0.0
 11
771.7089001569814
 21
2044.651777036168
 31
0.0
1001
REVIT
1002
{
1070
     3
1000
790271
1002
}
  0
LINE
  5
100
330
87
100
AcDbEntity
  8
M-PIPE
100
AcDbLine
 10
785.0038048226462
 20
2046.996027434671
 30
0.0
 11
784.3092121119783
 21
2050.93525844672
 31
0.0
1001
REVIT
1002
{
1070
     3
1000
790271
1002
}
  0
LINE
  5
101
330
87
100
AcDbEntity
  8
M-PIPE
100
AcDbLine
 10
772.6937079099934
 20
2044.825425213835
 30
0.0
 11
772.9889098120272
 21
2043.151252033714
 31
0.0
1001
REVIT
1002
{
1070
     3
1000
790271
1002
}
  0
LINE
  5
102
330
87
100
AcDbEntity
  8
M-PIPE
100
AcDbLine
 10
784.3141989716678
 20
2045.148206076884
 30
0.0
 11
784.0189970696338
 21
2046.822379257004
 31
0.0
1001
REVIT
1002
{
1070
     3
1000
790271
1002
}
  0
LINE
  5
103
330
87
100
AcDbEntity
  8
M-PIPE
100
AcDbLine
 10
772.0041020590151
 20
2042.977603856047
 30
0.0
 11
772.1777502366818
 21
2041.992796103035
 31
0.0
1001
REVIT
1002
{
1070
     3
1000
790271
1002
}
  0
LINE
  5
104
330
87
100
AcDbEntity
  8
M-PIPE
100
AcDbLine
 10
785.4726549023467
 20
2044.337046501538
 30
0.0
 11
785.29900672468
 21
2045.321854254551
 31
0.0
1001
REVIT
1002
{
1070
     3
1000
790271
1002
}
  0
LINE
  5
105
330
87
100
AcDbEntity
  8
M-PIPE
100
AcDbLine
 10
771.4198872339864
 20
2049.170236013556
 30
0.0
 11
771.0143074463137
 21
2048.591008048216
 31
0.0
1001
REVIT
1002
{
1070
     3
1000
790271
1002
}
  0
LINE
  5
106
330
87
100
AcDbEntity
  8
M-PIPE
100
AcDbLine
 10
784.3092121119783
 20
2050.93525844672
 30
0.0
 11
784.2607734282678
 21
2050.969175578195
 31
0.0
1001
REVIT
1002
{
1070
     3
1000
790271
1002
}
  0
LINE
  5
107
330
87
100
AcDbEntity
  8
M-PIPE
100
AcDbLine
 10
784.2523422357602
 20
2050.975079162745
 30
0.0
 11
783.7299841466391
 21
2051.340838234392
 31
0.0
1001
REVIT
1002
{
1070
     3
1000
790271
1002
}
  0
LINE
  5
108
330
87
100
AcDbEntity
  8
M-PIPE
100
AcDbLine
 10
774.8057862746215
 20
2028.240217196394
 30
0.0
 11
775.5351086208193
 21
2024.104024633761
 31
0.0
1001
REVIT
1002
{
1070
     3
1000
790271
1002
}
  0
LINE
  5
109
330
87
100
AcDbEntity
  8
M-PIPE
100
AcDbLine
 10
788.4360901852796
 20
2026.378815761198
 30
0.0
 11
787.7067678390893
 21
2030.51500832379
 31
0.0
1001
REVIT
1002
{
1070
     3
1000
790271
1002
}
  0
LINE
  5
10A
330
87
100
AcDbEntity
  8
M-PIPE
100
AcDbLine
 10
778.9120266583353
 20
2042.672517425842
 30
0.0
 11
772.0676127749003
 21
2041.465662591057
 31
0.0
1001
REVIT
1002
{
1070
     3
1000
790271
1002
}
  0
LINE
  5
10B
330
87
100
AcDbEntity
  8
M-PIPE
100
AcDbLine
 10
785.7564405417702
 20
2043.879372260628
 30
0.0
 11
778.9120266583354
 21
2042.672517425842
 31
0.0
1001
REVIT
1002
{
1070
     3
1000
790271
1002
}
  0
LINE
  5
10C
330
87
100
AcDbEntity
  8
M-PIPE
100
AcDbLine
 10
772.1544368637447
 20
2040.973258714489
 30
0.0
 11
778.9988507471795
 21
2042.180113549274
 31
0.0
1001
REVIT
1002
{
1070
     3
1000
790271
1002
}
  0
LINE
  5
10D
330
87
100
AcDbEntity
  8
M-PIPE
100
AcDbLine
 10
778.9988507471795
 20
2042.180113549274
 30
0.0
 11
785.8432646306146
 21
2043.386968384059
 31
0.0
1001
REVIT
1002
{
1070
     3
1000
790271
1002
}
  0
LINE
  5
10E
330
87
100
AcDbEntity
  8
M-PIPE
100
AcDbLine
 10
772.4149091302451
 20
2039.49604708497
 30
0.0
 11
779.2593230136798
 21
2040.702901919755
 31
0.0
1001
REVIT
1002
{
1070
     3
1000
790271
1002
}
  0
LINE
  5
10F
330
87
100
AcDbEntity
  8
M-PIPE
100
AcDbLine
 10
772.7768599010902
 20
2037.529015547787
 30
0.0
 11
773.6791830719442
 21
2037.688119468127
 31
0.0
1001
REVIT
1002
{
1070
     3
1000
790271
1002
}
  0
LINE
  5
110
330
87
100
AcDbEntity
  8
M-PIPE
100
AcDbLine
 10
773.6791830719444
 20
2037.688119468127
 30
0.0
 11
779.6066193690138
 21
2038.733286413731
 31
0.0
1001
REVIT
1002
{
1070
     3
1000
790271
1002
}
  0
LINE
  5
111
330
87
100
AcDbEntity
  8
M-PIPE
100
AcDbLine
 10
779.2593230136799
 20
2040.702901919755
 30
0.0
 11
786.1037368971149
 21
2041.90975675454
 31
0.0
1001
REVIT
1002
{
1070
     3
1000
790271
1002
}
  0
LINE
  5
112
330
87
100
AcDbEntity
  8
M-PIPE
100
AcDbLine
 10
779.606619369014
 20
2038.733286413731
 30
0.0
 11
785.5340556660834
 21
2039.778453359335
 31
0.0
1001
REVIT
1002
{
1070
     3
1000
790271
1002
}
  0
LINE
  5
113
330
87
100
AcDbEntity
  8
M-PIPE
100
AcDbLine
 10
785.5340556660834
 20
2039.778453359335
 30
0.0
 11
786.4363788369372
 21
2039.937557279674
 31
0.0
1001
REVIT
1002
{
1070
     3
1000
790271
1002
}
  0
LINE
  5
114
330
87
100
AcDbEntity
  8
M-PIPE
100
AcDbLine
 10
781.2562770568575
 20
2029.377612760116
 30
0.0
 11
774.3626227857803
 21
2028.162075516449
 31
0.0
1001
REVIT
1002
{
1070
     3
1000
790271
1002
}
  0
LINE
  5
115
330
87
100
AcDbEntity
  8
M-PIPE
100
AcDbLine
 10
788.1499313279513
 20
2030.593150003786
 30
0.0
 11
781.2562770568495
 21
2029.377612760114
 31
0.0
1001
REVIT
1002
{
1070
     3
1000
790271
1002
}
  0
SPLINE
  5
116
330
87
100
AcDbEntity
  8
M-PIPE
100
AcDbSpline
210
0.0
220
0.0
230
1.0
 70
    24
 71
     3
 72
     9
 73
     5
 74
     0
 42
0.000000001
 43
0.0000000001
 40
-0.5
 40
-0.5
 40
-0.5
 40
-0.5
 40
-0.3333333333333333
 40
0.0
 40
0.0
 40
0.0
 40
0.0
 10
772.7185705924867
 20
2037.48595883078
 30
0.0
 10
772.7184823706343
 20
2037.486459161766
 30
0.0
 10
772.7302148944294
 20
2037.419920712869
 30
0.0
 10
772.7783764946487
 20
2037.146782705141
 30
0.0
 10
772.826545296652
 20
2036.873603854066
 30
0.0
1001
REVIT
1002
{
1070
     3
1000
790271
1002
}
  0
SPLINE
  5
117
330
87
100
AcDbEntity
  8
M-PIPE
100
AcDbSpline
210
0.0
220
0.0
230
1.0
 70
     8
 71
     3
 72
    10
 73
     6
 74
     0
 42
0.000000001
 43
0.0000000001
 40
-1.0
 40
-1.0
 40
-1.0
 40
-1.0
 40
-0.6666666666666666
 40
-0.3333333333333333
 40
0.0
 40
0.0
 40
0.0
 40
0.0
 10
772.826545296652
 20
2036.873603854066
 30
0.0
 10
773.5506814107782
 20
2037.280855238457
 30
0.0
 10
775.0262463501769
 20
2037.913848833033
 30
0.0
 10
777.2736060319633
 20
2038.314919886756
 30
0.0
 10
778.8902523897871
 20
2038.224471328189
 30
0.0
 10
779.7201995677313
 20
2038.089141097723
 30
0.0
1001
REVIT
1002
{
1070
     3
1000
790271
1002
}
  0
SPLINE
  5
118
330
87
100
AcDbEntity
  8
M-PIPE
100
AcDbSpline
210
0.0
220
0.0
230
1.0
 70
     8
 71
     3
 72
    10
 73
     6
 74
     0
 42
0.000000001
 43
0.0000000001
 40
-1.0
 40
-1.0
 40
-1.0
 40
-1.0
 40
-0.6666666666666666
 40
-0.3333333333333333
 40
0.0
 40
0.0
 40
0.0
 40
0.0
 10
779.7201995677233
 20
2038.089141097722
 30
0.0
 10
780.4538091416624
 20
2038.50016856941
 30
0.0
 10
781.9420245655714
 20
2039.138088031461
 30
0.0
 10
784.1910262540857
 20
2039.529846802336
 30
0.0
 10
785.7941002990759
 20
2039.439700324565
 30
0.0
 10
786.6138538388261
 20
2039.304678341387
 30
0.0
1001
REVIT
1002
{
1070
     3
1000
790271
1002
}
  0
SPLINE
  5
119
330
87
100
AcDbEntity
  8
M-PIPE
100
AcDbSpline
210
0.0
220
0.0
230
1.0
 70
    24
 71
     3
 72
     9
 73
     5
 74
     0
 42
0.000000001
 43
0.0000000001
 40
-1.0
 40
-1.0
 40
-1.0
 40
-1.0
 40
-0.6666666666666666
 40
-0.4984562428861141
 40
-0.4984562428861141
 40
-0.4984562428861141
 40
-0.4984562428861141
 10
786.6138538388261
 20
2039.304678341387
 30
0.0
 10
786.5660451260152
 20
2039.57581502517
 30
0.0
 10
786.5180815791043
 20
2039.847829816771
 30
0.0
 10
786.5058919781376
 20
2039.916960479121
 30
0.0
 10
786.5058777125186
 20
2039.917041383466
 30
0.0
1001
REVIT
1002
{
1070
     3
1000
790271
1002
}
  0
LINE
  5
11A
330
87
100
AcDbEntity
  8
M-PIPE
100
AcDbLine
 10
786.6138538388261
 20
2039.304678341387
 30
0.0
 11
788.1499313279597
 21
2030.593150003739
 31
0.0
1001
REVIT
1002
{
1070
     3
1000
790271
1002
}
  0
LINE
  5
11B
330
87
100
AcDbEntity
  8
M-PIPE
100
AcDbLine
 10
779.7201995677313
 20
2038.089141097723
 30
0.0
 11
781.2562770568741
 21
2029.37761276007
 31
0.0
1001
REVIT
1002
{
1070
     3
1000
790271
1002
}
  0
LINE
  5
11C
330
87
100
AcDbEntity
  8
M-PIPE
100
AcDbLine
 10
772.826545296652
 20
2036.873603854066
 30
0.0
 11
774.3626227857888
 21
2028.162075516402
 31
0.0
1001
REVIT
1002
{
1070
     3
1000
790271
1002
}
  0
LINE
  5
11D
330
87
100
AcDbEntity
  8
M-PIPE
100
AcDbLine
 10
771.4198872339847
 20
2049.170236013555
 30
0.0
 11
777.5749356903108
 21
2050.255537123973
 31
0.0
1001
REVIT
1002
{
1070
     3
1000
790271
1002
}
  0
LINE
  5
11E
330
87
100
AcDbEntity
  8
M-PIPE
100
AcDbLine
 10
777.5749356903108
 20
2050.255537123973
 30
0.0
 11
783.7299841466373
 21
2051.340838234391
 31
0.0
1001
REVIT
1002
{
1070
     3
1000
790271
1002
}
  0
LINE
  5
11F
330
87
100
AcDbEntity
  8
M-PIPE
100
AcDbLine
 10
777.6617597791442
 20
2049.763133247468
 30
0.0
 11
771.0143074463119
 21
2048.591008048215
 31
0.0
1001
REVIT
1002
{
1070
     3
1000
790271
1002
}
  0
LINE
  5
120
330
87
100
AcDbEntity
  8
M-PIPE
100
AcDbLine
 10
784.3092121119767
 20
2050.935258446719
 30
0.0
 11
777.6617597791446
 21
2049.763133247468
 31
0.0
1001
REVIT
1002
{
1070
     3
1000
790271
1002
}
  0
LINE
  5
121
330
87
100
AcDbEntity
  8
M-PIPE
100
AcDbLine
 10
771.7089001569797
 20
2044.651777036167
 30
0.0
 11
778.356352489812
 21
2045.823902235419
 31
0.0
1001
REVIT
1002
{
1070
     3
1000
790271
1002
}
  0
LINE
  5
122
330
87
100
AcDbEntity
  8
M-PIPE
100
AcDbLine
 10
778.356352489812
 20
2045.823902235419
 30
0.0
 11
785.0038048226445
 21
2046.99602743467
 31
0.0
1001
REVIT
1002
{
1070
     3
1000
790271
1002
}
  0
LINE
  5
123
330
87
100
AcDbEntity
  8
M-PIPE
100
AcDbLine
 10
772.0041020590132
 20
2042.977603856046
 30
0.0
 11
778.6515543918458
 21
2044.149729055298
 31
0.0
1001
REVIT
1002
{
1070
     3
1000
790271
1002
}
  0
LINE
  5
124
330
87
100
AcDbEntity
  8
M-PIPE
100
AcDbLine
 10
778.6515543918458
 20
2044.149729055298
 30
0.0
 11
785.2990067246781
 21
2045.32185425455
 31
0.0
1001
REVIT
1002
{
1070
     3
1000
790271
1002
}
  0
LINE
  5
125
330
87
100
AcDbEntity
  8
M-PIPE
100
AcDbLine
 10
772.1777502366802
 20
2041.992796103034
 30
0.0
 11
778.8252025695128
 21
2043.164921302286
 31
0.0
1001
REVIT
1002
{
1070
     3
1000
790271
1002
}
  0
LINE
  5
126
330
87
100
AcDbEntity
  8
M-PIPE
100
AcDbLine
 10
778.8252025695128
 20
2043.164921302286
 30
0.0
 11
785.4726549023451
 21
2044.337046501537
 31
0.0
1001
REVIT
1002
{
1070
     3
1000
790271
1002
}
  0
LINE
  5
127
330
87
100
AcDbEntity
  8
P-SANR-FIXT
100
AcDbLine
 10
773.1223296259448
 20
2023.678586598447
 30
0.0
 11
774.9237805227687
 21
2013.462050878356
 31
0.0
  0
LINE
  5
128
330
87
100
AcDbEntity
  8
P-SANR-FIXT
100
AcDbLine
 10
790.848869180163
 20
2026.804253796451
 30
0.0
 11
790.8411840311543
 21
2026.80289869733
 31
0.0
  0
LINE
  5
129
330
87
100
AcDbEntity
  8
P-SANR-FIXT
100
AcDbLine
 10
790.0839816979847
 20
2026.669383496137
 30
0.0
 11
773.1223296259432
 21
2023.678586598447
 31
0.0
  0
LINE
  5
12A
330
87
100
AcDbEntity
  8
P-SANR-FIXT
100
AcDbLine
 10
787.8381150572606
 20
2005.15250308508
 30
0.0
 11
788.6763687748563
 21
2005.300309832172
 31
0.0
  0
LINE
  5
12B
330
87
100
AcDbEntity
  8
P-SANR-FIXT
100
AcDbLine
 10
789.8620714222396
 20
2005.509381200003
 30
0.0
 11
791.9431673583833
 21
2005.876334562988
 31
0.0
  0
LINE
  5
12C
330
87
100
AcDbEntity
  8
P-SANR-FIXT
100
AcDbLine
 10
846.485599403055
 20
2012.999999999996
 30
0.0
 11
845.99115290252
 21
2013.856406460547
 31
0.0
  0
LINE
  5
12D
330
87
100
AcDbEntity
  8
P-SANR-FIXT
100
AcDbLine
 10
845.99115290252
 20
1986.143593539445
 30
0.0
 11
846.4855994030548
 21
1986.999999999996
 31
0.0
  0
LWPOLYLINE
  5
12E
330
87
100
AcDbEntity
  8
P-SANR-FIXT
100
AcDbPolyline
 90
        5
 70
   128
 43
0.0
 10
833.6226163198961
 20
1986.143593539445
 10
833.5593301961951
 20
1986.19252219423
 10
833.4980513189702
 20
1986.243942481259
 10
833.4388777213527
 20
1986.297772139044
 10
833.3998129654277
 20
1986.335786437623
  0
LINE
  5
12F
330
87
100
AcDbEntity
  8
P-SANR-FIXT
100
AcDbLine
 10
831.2142790594954
 20
1988.521320343555
 30
0.0
 11
833.3998129654277
 21
1986.335786437623
 31
0.0
  0
LWPOLYLINE
  5
130
330
87
100
AcDbEntity
  8
P-SANR-FIXT
100
AcDbPolyline
 90
       21
 70
   128
 43
0.0
 10
831.2142790594954
 20
1988.521320343555
 10
831.1277520413472
 20
1988.604453701678
 10
831.0379697879444
 20
1988.684060404136
 10
830.9450759317401
 20
1988.760013097189
 10
830.8492190830875
 20
1988.832190272727
 10
830.7505525924963
 20
1988.90047646267
 10
830.6492343053038
 20
1988.964762423679
 10
830.5454263091561
 20
1989.024945311929
 10
830.4392946747029
 20
1989.08092884764
 10
830.3310091899184
 20
1989.132623469094
 10
830.2207430884786
 20
1989.179946475928
 10
830.1086727726241
 20
1989.222822161423
 10
829.9949775309531
 20
1989.26118193363
 10
829.8798392515987
 20
1989.294964425096
 10
829.7634421312459
 20
1989.324115591041
 10
829.6459723804574
 20
1989.348588795818
 10
829.5276179257756
 20
1989.368344887521
 10
829.4085681090802
 20
1989.383352260618
 10
829.2890133846825
 20
1989.393586906511
 10
829.1691450146377
 20
1989.399032451952
 10
829.0929587159357
 20
1989.399999999995
  0
LINE
  5
131
330
87
100
AcDbEntity
  8
P-SANR-FIXT
100
AcDbLine
 10
819.5167972495381
 20
1989.399999999995
 30
0.0
 11
829.0929587159357
 21
1989.399999999995
 31
0.0
  0
LWPOLYLINE
  5
132
330
87
100
AcDbEntity
  8
P-SANR-FIXT
100
AcDbPolyline
 90
       15
 70
   128
 43
0.0
 10
819.5167972495381
 20
1989.399999999995
 10
819.3568399127917
 20
1989.403199573351
 10
819.1971384736612
 20
1989.412793174785
 10
819.0379484203825
 20
1989.42876545658
 10
818.8795244230812
 20
1989.451090866493
 10
818.7221199263579
 20
1989.47973368863
 10
818.5659867438296
 20
1989.514648100587
 10
818.4113746552815
 20
1989.555778246752
 10
818.2585310070736
 20
1989.603058327665
 10
818.1077003164377
 20
1989.656412705284
 10
817.9591238803036
 20
1989.715756023984
 10
817.8130393892741
 20
1989.780993347115
 10
817.6696805473723
 20
1989.852020308878
 10
817.5292766981632
 20
1989.928723281285
 10
817.5167972495383
 20
1989.935898384858
  0
LINE
  5
133
330
87
100
AcDbEntity
  8
P-SANR-FIXT
100
AcDbLine
 10
811.056455314581
 20
1993.665778540062
 30
0.0
 11
817.5167972495383
 21
1989.935898384858
 31
0.0
  0
LINE
  5
134
330
87
100
AcDbEntity
  8
P-SANR-FIXT
100
AcDbLine
 10
823.2325510758498
 20
2037.253045282994
 30
0.0
 11
820.1919919167476
 21
2034.212486123892
 31
0.0
  0
LINE
  5
135
330
87
100
AcDbEntity
  8
P-SANR-FIXT
100
AcDbLine
 10
840.8481055622223
 20
2013.856406460547
 30
0.0
 11
843.7386477302599
 21
2016.746948628584
 31
0.0
  0
LINE
  5
136
330
87
100
AcDbEntity
  8
P-SANR-FIXT
100
AcDbLine
 10
820.1919919167476
 20
2034.212486123892
 30
0.0
 11
819.7873476144444
 21
2033.100735040402
 31
0.0
  0
LINE
  5
137
330
87
100
AcDbEntity
  8
P-SANR-FIXT
100
AcDbLine
 10
819.7873476144444
 20
2033.100735040402
 30
0.0
 11
815.4034226994479
 21
2028.716810125406
 31
0.0
  0
LWPOLYLINE
  5
138
330
87
100
AcDbEntity
  8
P-SANR-FIXT
100
AcDbPolyline
 90
       19
 70
   128
 43
0.0
 10
814.8252468656378
 20
2027.476908048528
 10
814.8338111648904
 20
2027.556442943327
 10
814.8455491611047
 20
2027.635571738066
 10
814.8604420759909
 20
2027.714167843557
 10
814.8784660840616
 20
2027.792105522796
 10
814.8995923507497
 20
2027.869260092124
 10
814.9237870785341
 20
2027.945508120686
 10
814.9510115610125
 20
2028.020727627902
 10
814.9812222448199
 20
2028.094798278609
 10
815.0143707993072
 20
2028.167601575564
 10
815.0504041938585
 20
2028.239021049024
 10
815.0892647827291
 20
2028.308942443067
 10
815.1308903972665
 20
2028.377253898376
 10
815.1752144453675
 20
2028.443846131198
 10
815.2221660180099
 20
2028.508612608164
 10
815.2716700026939
 20
2028.571449716727
 10
815.3236472036036
 20
2028.632256930919
 10
815.3780144683057
 20
2028.690936972167
 10
815.4034226994479
 20
2028.716810125406
  0
LINE
  5
139
330
87
100
AcDbEntity
  8
P-SANR-FIXT
100
AcDbLine
 10
814.8252468656378
 20
2027.476908048528
 30
0.0
 11
814.737872403675
 21
2026.47821337837
 31
0.0
  0
LWPOLYLINE
  5
13A
330
87
100
AcDbEntity
  8
P-SANR-FIXT
100
AcDbPolyline
 90
       47
 70
   128
 43
0.0
 10
802.0627586778626
 20
2005.672671804465
 10
802.2940729792148
 20
2005.441357503113
 10
802.5330925626906
 20
2005.202337919637
 10
802.779435047945
 20
2004.955995434383
 10
803.0327063395514
 20
2004.702724142776
 10
803.2925012574718
 20
2004.442929224856
 10
803.5584041852573
 20
2004.17702629707
 10
803.8299897349471
 20
2003.905440747381
 10
804.1068234275957
 20
2003.628607054732
 10
804.3884623883503
 20
2003.346968093977
 10
804.6744560549534
 20
2003.060974427374
 10
804.964346898547
 20
2002.77108358378
 10
805.2576711556216
 20
2002.477759326706
 10
805.5539595699382
 20
2002.18147091239
 10
805.8527381432389
 20
2001.882692339089
 10
806.1535288935422
 20
2001.581901588786
 10
806.4558506198132
 20
2001.279579862515
 10
806.7592196717816
 20
2000.976210810546
 10
807.0631507236795
 20
2000.672279758648
 10
807.3671575506589
 20
2000.368272931669
 10
807.6707538066481
 20
2000.064676675679
 10
807.9734538024014
 20
1999.761976679926
 10
808.2747732824977
 20
1999.46065719983
 10
808.5742302000477
 20
1999.16120028228
 10
808.8713454878632
 20
1998.864084994464
 10
809.1656438248655
 20
1998.569786657462
 10
809.4566543964951
 20
1998.278776085832
 10
809.7439116479172
 20
1997.99151883441
 10
810.026956028807
 20
1997.70847445352
 10
810.3053347285351
 20
1997.430095753792
 10
810.5786024005661
 20
1997.156828081761
 10
810.8463218749188
 20
1996.889108607408
 10
811.1080648575446
 20
1996.627365624783
 10
811.3634126155067
 20
1996.372017866821
 10
811.611956646864
 20
1996.123473835464
 10
811.8532993341856
 20
1995.882131148142
 10
812.0870545806564
 20
1995.648375901671
 10
812.3128484277467
 20
1995.422582054581
 10
812.5303196534677
 20
1995.20511082886
 10
812.7391203502494
 20
1994.996310132078
 10
812.9389164815199
 20
1994.796514000807
 10
813.1293884160889
 20
1994.606042066238
 10
813.3102314394935
 20
1994.425199042834
 10
813.4811562414741
 20
1994.254274240853
 10
813.6418893788091
 20
1994.093541103518
 10
813.7921737127671
 20
1993.94325676956
 10
813.8061021619645
 20
1993.929328320363
  0
LWPOLYLINE
  5
13B
330
87
100
AcDbEntity
  8
P-SANR-FIXT
100
AcDbPolyline
 90
       24
 70
   128
 43
0.0
 10
811.056455314581
 20
1993.665778540062
 10
810.7750077901201
 20
1993.513549638832
 10
810.4876978612558
 20
1993.372697403598
 10
810.1949851625835
 20
1993.243447167888
 10
809.8973379719797
 20
1993.12600570451
 10
809.5952324614549
 20
1993.02056089475
 10
809.2891519353797
 20
1992.927281427811
 10
808.9795860573024
 20
1992.846316530942
 10
808.6670300665906
 20
1992.777795730705
 10
808.3519839861546
 20
1992.721828645765
 10
808.0349518225165
 20
1992.678504811519
 10
807.7164407595084
 20
1992.647893536858
 10
807.396960346886
 20
1992.630043793292
 10
807.0770216851569
 20
1992.624984136605
 10
806.7571366079302
 20
1992.632722661166
 10
806.4378168630906
 20
1992.653246986987
 10
806.1195732941119
 20
1992.686524279525
 10
805.8029150228168
 20
1992.732501302212
 10
805.4883486348886
 20
1992.791104501618
 10
805.1763773694442
 20
1992.862240125125
 10
804.8675003139583
 20
1992.945794370912
 10
804.5622116058286
 20
1993.041633570008
 10
804.2609996418644
 20
1993.149604400142
 10
804.0104127191192
 20
1993.249999999996
  0
LINE
  5
13C
330
87
100
AcDbEntity
  8
P-SANR-FIXT
100
AcDbLine
 10
793.9782400901739
 20
1993.249999999996
 30
0.0
 11
804.0104127191192
 21
1993.249999999996
 31
0.0
  0
LWPOLYLINE
  5
13D
330
87
100
AcDbEntity
  8
P-SANR-FIXT
100
AcDbPolyline
 90
       21
 70
   128
 43
0.0
 10
793.9782400901739
 20
1993.249999999996
 10
793.8582720876143
 20
1993.247600319979
 10
793.7384960082664
 20
1993.240405118904
 10
793.6191034683072
 20
1993.228425907557
 10
793.5002854703313
 20
1993.211681850123
 10
793.3822320977887
 20
1993.19019973352
 10
793.2651322108926
 20
1993.164013924552
 10
793.1491731444817
 20
1993.133166314928
 10
793.0345404083258
 20
1993.097706254243
 10
792.9214173903488
 20
1993.05769047103
 10
792.8099850632483
 20
1993.013182982004
 10
792.7004216949762
 20
1992.964254989655
 10
792.5929025635496
 20
1992.910984768334
 10
792.4875996766429
 20
1992.853457539029
 10
792.3846814964113
 20
1992.791765333036
 10
792.284312669989
 20
1992.726006844725
 10
792.1866537660867
 20
1992.656287273649
 10
792.0918610181185
 20
1992.582718156249
 10
792.0000860742598
 20
1992.505417187419
 10
791.9114757548424
 20
1992.424508032218
 10
791.8569197466142
 20
1992.371320343556
  0
LINE
  5
13E
330
87
100
AcDbEntity
  8
P-SANR-FIXT
100
AcDbLine
 10
789.8896123443127
 20
1990.404012941253
 30
0.0
 11
791.8569197466142
 21
1992.371320343556
 31
0.0
  0
LWPOLYLINE
  5
13F
330
87
100
AcDbEntity
  8
P-SANR-FIXT
100
AcDbPolyline
 90
       21
 70
   128
 43
0.0
 10
789.8896123443127
 20
1990.404012941254
 10
789.8498276117947
 20
1990.365788598302
 10
789.8085461367951
 20
1990.329185795713
 10
789.7658339608673
 20
1990.294263090161
 10
789.7217594143817
 20
1990.261076350526
 10
789.6763930072104
 20
1990.229678668511
 10
789.6298073159272
 20
1990.20012027371
 10
789.5820768677004
 20
1990.172448453249
 10
789.5332780210652
 20
1990.146707476138
 10
789.4834888437666
 20
1990.122938522449
 10
789.4327889878668
 20
1990.101179617438
 10
789.3812595623197
 20
1990.08146557071
 10
789.3289830032146
 20
1990.063827920536
 10
789.2760429418935
 20
1990.048294883394
 10
789.2225240711618
 20
1990.034891308828
 10
789.1685120097957
 20
1990.023638639699
 10
789.1140931655712
 20
1990.014554877877
 10
789.0593545970306
 20
1990.007654555444
 10
789.0043838742067
 20
1990.002948711443
 10
788.9492689385292
 20
1990.00044487422
 10
788.9142388221538
 20
1989.999999999996
  0
LINE
  5
140
330
87
100
AcDbEntity
  8
P-SANR-FIXT
100
AcDbLine
 10
787.9572872395417
 20
1989.999999999996
 30
0.0
 11
788.9142388221538
 21
1989.999999999996
 31
0.0
  0
LINE
  5
141
330
87
100
AcDbEntity
  8
P-SANR-FIXT
100
AcDbLine
 10
784.100880778991
 20
1986.143593539445
 30
0.0
 11
787.9572872395417
 21
1989.999999999996
 31
0.0
  0
LINE
  5
142
330
87
100
AcDbEntity
  8
P-SANR-FIXT
100
AcDbLine
 10
769.9800459035896
 20
2013.856406460547
 30
0.0
 11
769.4855994030548
 21
2012.999999999996
 31
0.0
  0
LINE
  5
143
330
87
100
AcDbEntity
  8
P-SANR-FIXT
100
AcDbLine
 10
769.4855994030548
 20
1986.999999999995
 30
0.0
 11
769.9800459035896
 21
1986.143593539445
 31
0.0
  0
LINE
  5
144
330
87
100
AcDbEntity
  8
P-SANR-FIXT
100
AcDbLine
 10
789.2855994030548
 20
2026.799999999996
 30
0.0
 11
789.2855994030548
 21
2026.528607156621
 31
0.0
  0
LINE
  5
145
330
87
100
AcDbEntity
  8
P-SANR-FIXT
100
AcDbLine
 10
807.2855994030547
 20
2026.47821337837
 30
0.0
 11
807.2855994030547
 21
2026.799999999996
 31
0.0
  0
LINE
  5
146
330
87
100
AcDbEntity
  8
P-SANR-FIXT
100
AcDbLine
 10
835.7978385775986
 20
2044.868585316414
 30
0.0
 11
827.4751917629796
 21
2036.545938501795
 31
0.0
  0
LINE
  5
147
330
87
100
AcDbEntity
  8
P-SANR-FIXT
100
AcDbLine
 10
843.0424296584074
 20
2021.000478025062
 30
0.0
 11
851.3541877636788
 21
2029.312236130333
 31
0.0
  0
LINE
  5
148
330
87
100
AcDbEntity
  8
P-SANR-FIXT
100
AcDbLine
 10
825.1770947241114
 20
2038.844035540663
 30
0.0
 11
823.4093277711462
 21
2037.076268587698
 31
0.0
  0
LINE
  5
149
330
87
100
AcDbEntity
  8
P-SANR-FIXT
100
AcDbLine
 10
843.5618710349633
 20
2016.923725323881
 30
0.0
 11
845.3296379879283
 21
2018.691492276846
 31
0.0
  0
SPLINE
  5
14A
330
87
100
AcDbEntity
  8
P-SANR-FIXT
100
AcDbSpline
210
0.0
220
0.0
230
1.0
 70
     8
 71
     3
 72
     9
 73
     5
 74
     0
 42
0.000000001
 43
0.0000000001
 40
-1.0
 40
-1.0
 40
-1.0
 40
-1.0
 40
-0.5
 40
0.0
 40
0.0
 40
0.0
 40
0.0
 10
845.9911529025184
 20
2013.856406460546
 30
0.0
 10
846.0836097300694
 20
2013.696997893342
 30
0.0
 10
846.2584743077096
 20
2013.376905723616
 30
0.0
 10
846.4132407304257
 20
2013.054263483251
 30
0.0
 10
846.4855994030532
 20
2012.892304845408
 30
0.0
  0
LINE
  5
14B
330
87
100
AcDbEntity
  8
P-SANR-FIXT
100
AcDbLine
 10
846.4855994030532
 20
2012.892304845408
 30
0.0
 11
846.4855994030532
 21
2012.999999999995
 31
0.0
  0
LINE
  5
14C
330
87
100
AcDbEntity
  8
P-SANR-FIXT
100
AcDbLine
 10
846.485599403053
 20
1986.999999999995
 30
0.0
 11
846.485599403053
 21
1987.107695154582
 31
0.0
  0
SPLINE
  5
14D
330
87
100
AcDbEntity
  8
P-SANR-FIXT
100
AcDbSpline
210
0.0
220
0.0
230
1.0
 70
     8
 71
     3
 72
     9
 73
     5
 74
     0
 42
0.000000001
 43
0.0000000001
 40
-1.0
 40
-1.0
 40
-1.0
 40
-1.0
 40
-0.5
 40
0.0
 40
0.0
 40
0.0
 40
0.0
 10
846.4855994030532
 20
1987.107695154582
 30
0.0
 10
846.4132407304257
 20
1986.945736516739
 30
0.0
 10
846.2584743077092
 20
1986.623094276374
 30
0.0
 10
846.0836097300692
 20
1986.303002106647
 30
0.0
 10
845.9911529025184
 20
1986.143593539444
 30
0.0
  0
LINE
  5
14E
330
87
100
AcDbEntity
  8
P-SANR-FIXT
100
AcDbLine
 10
846.4855994030534
 20
2004.999999999995
 30
0.0
 11
846.4855994030532
 21
2007.892304845409
 31
0.0
  0
SPLINE
  5
14F
330
87
100
AcDbEntity
  8
P-SANR-FIXT
100
AcDbSpline
210
0.0
220
0.0
230
1.0
 70
     8
 71
     3
 72
     9
 73
     5
 74
     0
 42
0.000000001
 43
0.0000000001
 40
-1.0
 40
-1.0
 40
-1.0
 40
-1.0
 40
-0.5
 40
0.0
 40
0.0
 40
0.0
 40
0.0
 10
846.4855994030532
 20
2007.892304845409
 30
0.0
 10
846.4132407304257
 20
2007.730346207566
 30
0.0
 10
846.2584743077096
 20
2007.407703967201
 30
0.0
 10
846.0836097300694
 20
2007.087611797474
 30
0.0
 10
845.9911529025184
 20
2006.928203230271
 30
0.0
  0
SPLINE
  5
150
330
87
100
AcDbEntity
  8
P-SANR-FIXT
100
AcDbSpline
210
0.0
220
0.0
230
1.0
 70
     8
 71
     3
 72
     9
 73
     5
 74
     0
 42
0.000000001
 43
0.0000000001
 40
-1.0
 40
-1.0
 40
-1.0
 40
-1.0
 40
-0.5
 40
0.0
 40
0.0
 40
0.0
 40
0.0
 10
845.9911529025184
 20
2006.928203230271
 30
0.0
 10
846.0836097300694
 20
2006.609386095863
 30
0.0
 10
846.2584743077098
 20
2005.969201756411
 30
0.0
 10
846.4132407304258
 20
2005.32391727568
 30
0.0
 10
846.4855994030534
 20
2004.999999999995
 30
0.0
  0
LINE
  5
151
330
87
100
AcDbEntity
  8
P-SANR-FIXT
100
AcDbLine
 10
846.4855994030532
 20
1992.107695154581
 30
0.0
 11
846.4855994030534
 21
1994.999999999995
 31
0.0
  0
SPLINE
  5
152
330
87
100
AcDbEntity
  8
P-SANR-FIXT
100
AcDbSpline
210
0.0
220
0.0
230
1.0
 70
     8
 71
     3
 72
     9
 73
     5
 74
     0
 42
0.000000001
 43
0.0000000001
 40
-1.0
 40
-1.0
 40
-1.0
 40
-1.0
 40
-0.5
 40
0.0
 40
0.0
 40
0.0
 40
0.0
 10
846.4855994030534
 20
1994.999999999995
 30
0.0
 10
846.4132407304258
 20
1994.67608272431
 30
0.0
 10
846.2584743077096
 20
1994.03079824358
 30
0.0
 10
846.0836097300694
 20
1993.390613904126
 30
0.0
 10
845.9911529025184
 20
1993.071796769719
 30
0.0
  0
SPLINE
  5
153
330
87
100
AcDbEntity
  8
P-SANR-FIXT
100
AcDbSpline
210
0.0
220
0.0
230
1.0
 70
     8
 71
     3
 72
     9
 73
     5
 74
     0
 42
0.000000001
 43
0.0000000001
 40
-1.0
 40
-1.0
 40
-1.0
 40
-1.0
 40
-0.5
 40
0.0
 40
0.0
 40
0.0
 40
0.0
 10
845.9911529025184
 20
1993.071796769719
 30
0.0
 10
846.0836097300694
 20
1992.912388202516
 30
0.0
 10
846.2584743077098
 20
1992.592296032789
 30
0.0
 10
846.4132407304257
 20
1992.269653792424
 30
0.0
 10
846.4855994030532
 20
1992.107695154581
 30
0.0
  0
SPLINE
  5
154
330
87
100
AcDbEntity
  8
P-SANR-FIXT
100
AcDbSpline
210
0.0
220
0.0
230
1.0
 70
     8
 71
     3
 72
     9
 73
     5
 74
     0
 42
0.000000001
 43
0.0000000001
 40
-1.0
 40
-1.0
 40
-1.0
 40
-1.0
 40
-0.5
 40
0.0
 40
0.0
 40
0.0
 40
0.0
 10
833.6226163198945
 20
1986.143593539444
 30
0.0
 10
833.5806789539264
 20
1986.174969820629
 30
0.0
 10
833.5016076955467
 20
1986.239084300363
 30
0.0
 10
833.4321433842807
 20
1986.305922614826
 30
0.0
 10
833.3998129654261
 20
1986.34002273074
 30
0.0
  0
SPLINE
  5
155
330
87
100
AcDbEntity
  8
P-SANR-FIXT
100
AcDbSpline
210
0.0
220
0.0
230
1.0
 70
     8
 71
     3
 72
     9
 73
     5
 74
     0
 42
0.000000001
 43
0.0000000001
 40
-1.0
 40
-1.0
 40
-1.0
 40
-1.0
 40
-0.5
 40
0.0
 40
0.0
 40
0.0
 40
0.0
 10
833.3998129654261
 20
2006.535344847678
 30
0.0
 10
833.4321433842807
 20
2006.603545079506
 30
0.0
 10
833.5016076955469
 20
2006.737221708432
 30
0.0
 10
833.5806789539265
 20
2006.865450667901
 30
0.0
 10
833.6226163198947
 20
2006.928203230271
 30
0.0
  0
SPLINE
  5
156
330
87
100
AcDbEntity
  8
P-SANR-FIXT
100
AcDbSpline
210
0.0
220
0.0
230
1.0
 70
     8
 71
     3
 72
     9
 73
     5
 74
     0
 42
0.000000001
 43
0.0000000001
 40
-1.0
 40
-1.0
 40
-1.0
 40
-1.0
 40
-0.5
 40
0.0
 40
0.0
 40
0.0
 40
0.0
 10
833.6226163198947
 20
2006.928203230271
 30
0.0
 10
833.5806789539265
 20
2006.959579511455
 30
0.0
 10
833.5016076955469
 20
2007.02369399119
 30
0.0
 10
833.4321433842807
 20
2007.090532305653
 30
0.0
 10
833.3998129654261
 20
2007.124632421567
 30
0.0
  0
SPLINE
  5
157
330
87
100
AcDbEntity
  8
P-SANR-FIXT
100
AcDbSpline
210
0.0
220
0.0
230
1.0
 70
     8
 71
     3
 72
     9
 73
     5
 74
     0
 42
0.000000001
 43
0.0000000001
 40
-1.0
 40
-1.0
 40
-1.0
 40
-1.0
 40
-0.5
 40
0.0
 40
0.0
 40
0.0
 40
0.0
 10
833.3998129654261
 20
1992.875367578423
 30
0.0
 10
833.4321433842807
 20
1992.909467694337
 30
0.0
 10
833.5016076955469
 20
1992.9763060088
 30
0.0
 10
833.5806789539265
 20
1993.040420488534
 30
0.0
 10
833.6226163198947
 20
1993.071796769719
 30
0.0
  0
SPLINE
  5
158
330
87
100
AcDbEntity
  8
P-SANR-FIXT
100
AcDbSpline
210
0.0
220
0.0
230
1.0
 70
     8
 71
     3
 72
     9
 73
     5
 74
     0
 42
0.000000001
 43
0.0000000001
 40
-1.0
 40
-1.0
 40
-1.0
 40
-1.0
 40
-0.5
 40
0.0
 40
0.0
 40
0.0
 40
0.0
 10
833.6226163198947
 20
1993.071796769719
 30
0.0
 10
833.5806789539265
 20
1993.134549332089
 30
0.0
 10
833.5016076955469
 20
1993.262778291558
 30
0.0
 10
833.4321433842807
 20
1993.396454920484
 30
0.0
 10
833.3998129654261
 20
1993.464655152312
 30
0.0
  0
SPLINE
  5
159
330
87
100
AcDbEntity
  8
P-SANR-FIXT
100
AcDbSpline
210
0.0
220
0.0
230
1.0
 70
     8
 71
     3
 72
    10
 73
     6
 74
     0
 42
0.000000001
 43
0.0000000001
 40
-1.0
 40
-1.0
 40
-1.0
 40
-1.0
 40
-0.6666666666666666
 40
-0.3333333333333333
 40
0.0
 40
0.0
 40
0.0
 40
0.0
 10
833.3998129654261
 20
1986.34002273074
 30
0.0
 10
832.6755718430925
 20
1987.034071804101
 30
0.0
 10
831.7096844106819
 20
1988.444901653502
 30
0.0
 10
831.6897968855865
 20
1990.737190328033
 30
0.0
 10
832.6668492443666
 20
1992.167047793222
 30
0.0
 10
833.3998129654261
 20
1992.875367578423
 30
0.0
  0
SPLINE
  5
15A
330
87
100
AcDbEntity
  8
P-SANR-FIXT
100
AcDbSpline
210
0.0
220
0.0
230
1.0
 70
     8
 71
     3
 72
    10
 73
     6
 74
     0
 42
0.000000001
 43
0.0000000001
 40
-1.0
 40
-1.0
 40
-1.0
 40
-1.0
 40
-0.6666666666666666
 40
-0.3333333333333333
 40
0.0
 40
0.0
 40
0.0
 40
0.0
 10
833.3998129654261
 20
1993.464655152312
 30
0.0
 10
832.6755718430927
 20
1994.852753299033
 30
0.0
 10
831.7096844106821
 20
1997.674412997836
 30
0.0
 10
831.6897968855865
 20
2002.258990346899
 30
0.0
 10
832.6668492443667
 20
2005.118705277275
 30
0.0
 10
833.3998129654261
 20
2006.535344847678
 30
0.0
  0
SPLINE
  5
15B
330
87
100
AcDbEntity
  8
P-SANR-FIXT
100
AcDbSpline
210
0.0
220
0.0
230
1.0
 70
     8
 71
     3
 72
     9
 73
     5
 74
     0
 42
0.000000001
 43
0.0000000001
 40
-1.0
 40
-1.0
 40
-1.0
 40
-1.0
 40
-0.5
 40
0.0
 40
0.0
 40
0.0
 40
0.0
 10
833.3998129654261
 20
2007.124632421567
 30
0.0
 10
832.9705613902905
 20
2007.560729337056
 30
0.0
 10
832.2750678227091
 20
2008.435807424367
 30
0.0
 10
831.905593420509
 20
2009.316654024341
 30
0.0
 10
831.8023610107541
 20
2009.758519452494
 30
0.0
  0
SPLINE
  5
15C
330
87
100
AcDbEntity
  8
P-SANR-FIXT
100
AcDbSpline
210
0.0
220
0.0
230
1.0
 70
     8
 71
     3
 72
     9
 73
     5
 74
     0
 42
0.000000001
 43
0.0000000001
 40
0.0
 40
0.0
 40
0.0
 40
0.0
 40
0.5
 40
1.0
 40
1.0
 40
1.0
 40
1.0
 10
831.8023610107541
 20
2009.758519452494
 30
0.0
 10
831.7369175900967
 20
2009.727260867228
 30
0.0
 10
831.6063446062504
 20
2009.665036967429
 30
0.0
 10
831.4763993373427
 20
2009.603257277598
 30
0.0
 10
831.4115836316231
 20
2009.572443292963
 30
0.0
  0
ELLIPSE
  5
15D
330
87
100
AcDbEntity
  8
P-SANR-FIXT
100
AcDbEllipse
 10
870.4494046294811
 20
1986.150194926826
 30
0.0
 11
71.15347967724094
 21
72.89733545227503
 31
0.0
210
0.0
220
0.0
230
1.0
 40
0.4371775478486275
 41
1.674119114676878
 42
1.677045185971133
  0
SPLINE
  5
15E
330
87
100
AcDbEntity
  8
P-SANR-FIXT
100
AcDbSpline
210
0.0
220
0.0
230
1.0
 70
     8
 71
     3
 72
    13
 73
     9
 74
     0
 42
0.000000001
 43
0.0000000001
 40
-1.0
 40
-1.0
 40
-1.0
 40
-1.0
 40
-0.75
 40
-0.625
 40
-0.5
 40
-0.375
 40
-0.25
 40
0.0
 40
0.0
 40
0.0
 40
0.0
 10
831.2142790594936
 20
2009.350790333347
 30
0.0
 10
831.0581859991602
 20
2009.178291851821
 30
0.0
 10
830.8153170667672
 20
2008.933950679183
 30
0.0
 10
830.4673661301158
 20
2008.636805267427
 30
0.0
 10
830.1992338472469
 20
2008.428670846475
 30
0.0
 10
829.9273195985707
 20
2008.235818727093
 30
0.0
 10
829.5588811644917
 20
2007.999192473338
 30
0.0
 10
829.2809704983602
 20
2007.845118858689
 30
0.0
 10
829.0929587159341
 20
2007.75347565203
 30
0.0
  0
SPLINE
  5
15F
330
87
100
AcDbEntity
  8
P-SANR-FIXT
100
AcDbSpline
210
0.0
220
0.0
230
1.0
 70
     8
 71
     3
 72
    11
 73
     7
 74
     0
 42
0.000000001
 43
0.0000000001
 40
0.0
 40
0.0
 40
0.0
 40
0.0
 40
0.3333333333333333
 40
0.5
 40
0.6666666666666666
 40
1.0
 40
1.0
 40
1.0
 40
1.0
 10
829.0929587159341
 20
2007.75347565203
 30
0.0
 10
828.0477045704671
 20
2007.260484464355
 30
0.0
 10
826.4698582756073
 20
2006.44942023906
 30
0.0
 10
824.314641394427
 20
2005.316264245841
 30
0.0
 10
822.1566349670489
 20
2004.124866636015
 30
0.0
 10
820.570420033596
 20
2003.124749226155
 30
0.0
 10
819.5167972495365
 20
2002.435513831095
 30
0.0
  0
LINE
  5
160
330
87
100
AcDbEntity
  8
P-SANR-FIXT
100
AcDbLine
 10
846.4855994030534
 20
2004.999999999995
 30
0.0
 11
846.4855994030534
 21
1994.999999999995
 31
0.0
  0
LINE
  5
161
330
87
100
AcDbEntity
  8
P-SANR-FIXT
100
AcDbLine
 10
846.4855994030532
 20
1992.107695154581
 30
0.0
 11
846.4855994030532
 21
1987.107695154582
 31
0.0
  0
LINE
  5
162
330
87
100
AcDbEntity
  8
P-SANR-FIXT
100
AcDbLine
 10
846.4855994030532
 20
2012.892304845408
 30
0.0
 11
846.4855994030532
 21
2007.892304845409
 31
0.0
  0
SPLINE
  5
163
330
87
100
AcDbEntity
  8
P-SANR-FIXT
100
AcDbSpline
210
0.0
220
0.0
230
1.0
 70
     8
 71
     3
 72
    12
 73
     8
 74
     0
 42
0.000000001
 43
0.0000000001
 40
-1.0
 40
-1.0
 40
-1.0
 40
-1.0
 40
-0.8333333333333332
 40
-0.6666666666666666
 40
-0.5
 40
-0.3333333333333333
 40
0.0
 40
0.0
 40
0.0
 40
0.0
 10
819.5167972495365
 20
2002.435513831095
 30
0.0
 10
819.3680593927021
 20
2002.329639095583
 30
0.0
 10
819.0831480458168
 20
2002.105701091923
 30
0.0
 10
818.6937481411861
 20
2001.736777082233
 30
0.0
 10
818.343102340847
 20
2001.322581252595
 30
0.0
 10
817.925369181065
 20
2000.735408040679
 30
0.0
 10
817.6662502673282
 20
2000.278375389158
 30
0.0
 10
817.5167972495364
 20
1999.960702221035
 30
0.0
  0
SPLINE
  5
164
330
87
100
AcDbEntity
  8
P-SANR-FIXT
100
AcDbSpline
210
0.0
220
0.0
230
1.0
 70
     8
 71
     3
 72
     9
 73
     5
 74
     0
 42
0.000000001
 43
0.0000000001
 40
-1.0
 40
-1.0
 40
-1.0
 40
-1.0
 40
-0.5
 40
0.0
 40
0.0
 40
0.0
 40
0.0
 10
817.5167972495364
 20
1999.960702221035
 30
0.0
 10
817.0676354582457
 20
1999.044134218578
 30
0.0
 10
816.3695579659387
 20
1997.224208273221
 30
0.0
 10
815.9974504559848
 20
1995.505224645172
 30
0.0
 10
815.8617698471719
 20
1994.702087759899
 30
0.0
  0
SPLINE
  5
165
330
87
100
AcDbEntity
  8
P-SANR-FIXT
100
AcDbSpline
210
0.0
220
0.0
230
1.0
 70
     8
 71
     3
 72
    22
 73
    18
 74
     0
 42
0.000000001
 43
0.0000000001
 40
0.0
 40
0.0
 40
0.0
 40
0.0
 40
0.1428571428571428
 40
0.2142857142857143
 40
0.2857142857142857
 40
0.3571428571428571
 40
0.4107142857142857
 40
0.4642857142857145
 40
0.5357142857142857
 40
0.5803571428571428
 40
0.6428571428571428
 40
0.6964285714285714
 40
0.75
 40
0.8214285714285713
 40
0.875
 40
0.9285714285714286
 40
1.0
 40
1.0
 40
1.0
 40
1.0
 10
815.8617698471719
 20
1994.702087759899
 30
0.0
 10
815.8384282491237
 20
1994.555070564191
 30
0.0
 10
815.7901910215807
 20
1994.347895937292
 30
0.0
 10
815.701870624715
 20
1994.097062114278
 30
0.0
 10
815.6214078965392
 20
1993.925206296569
 30
0.0
 10
815.5354100093028
 20
1993.781988110393
 30
0.0
 10
815.4455322404139
 20
1993.665912119513
 30
0.0
 10
815.3425123189059
 20
1993.565598426434
 30
0.0
 10
815.2347054153198
 20
1993.479767892707
 30
0.0
 10
815.0999381143417
 20
1993.422628059933
 30
0.0
 10
814.9608319637351
 20
1993.382743478864
 30
0.0
 10
814.798220203423
 20
1993.371438088257
 30
0.0
 10
814.6098446271899
 20
1993.409510115452
 30
0.0
 10
814.389958467273
 20
1993.491149837449
 30
0.0
 10
814.1916625720723
 20
1993.601568994098
 30
0.0
 10
814.0032881674866
 20
1993.737713162798
 30
0.0
 10
813.8765550399829
 20
1993.854993564312
 30
0.0
 10
813.806102161963
 20
1993.929328320362
 30
0.0
  0
SPLINE
  5
166
330
87
100
AcDbEntity
  8
P-SANR-FIXT
100
AcDbSpline
210
0.0
220
0.0
230
1.0
 70
     8
 71
     3
 72
    22
 73
    18
 74
     0
 42
0.000000001
 43
0.0000000001
 40
0.0
 40
0.0
 40
0.0
 40
0.0
 40
0.0833333333333333
 40
0.1666666666666666
 40
0.25
 40
0.2916666666666666
 40
0.375
 40
0.4166666666666666
 40
0.4583333333333333
 40
0.5208333333333333
 40
0.5833333333333333
 40
0.625
 40
0.6770833333333333
 40
0.75
 40
0.8333333333333332
 40
0.9166666666666667
 40
1.0
 40
1.0
 40
1.0
 40
1.0
 10
812.9418787152401
 20
1994.793551767085
 30
0.0
 10
812.8638343385125
 20
1994.876694281302
 30
0.0
 10
812.7028579376069
 20
1995.025803822884
 30
0.0
 10
812.455419067226
 20
1995.190401645476
 30
0.0
 10
812.2225197677394
 20
1995.294975292146
 30
0.0
 10
811.9895713914425
 20
1995.362698143346
 30
0.0
 10
811.8302485478787
 20
1995.368856926933
 30
0.0
 10
811.682018620009
 20
1995.3328309945
 30
0.0
 10
811.5637922628936
 20
1995.285435620117
 30
0.0
 10
811.4508920611193
 20
1995.221152437772
 30
0.0
 10
811.3682371620813
 20
1995.129624999525
 30
0.0
 10
811.3059237339543
 20
1995.034334494805
 30
0.0
 10
811.2465497472419
 20
1994.935702132302
 30
0.0
 10
811.1948937841527
 20
1994.805095131314
 30
0.0
 10
811.1556259091063
 20
1994.653167252053
 30
0.0
 10
811.1239507826198
 20
1994.504895087665
 30
0.0
 10
811.1150737649968
 20
1994.407416612119
 30
0.0
 10
811.113191881051
 20
1994.359496901477
 30
0.0
  0
SPLINE
  5
167
330
87
100
AcDbEntity
  8
P-SANR-FIXT
100
AcDbSpline
210
0.0
220
0.0
230
1.0
 70
     8
 71
     3
 72
     9
 73
     5
 74
     0
 42
0.000000001
 43
0.0000000001
 40
0.0
 40
0.0
 40
0.0
 40
0.0
 40
0.5
 40
1.0
 40
1.0
 40
1.0
 40
1.0
 10
811.113191881051
 20
1994.359496901477
 30
0.0
 10
811.0944581342224
 20
1994.132692106194
 30
0.0
 10
811.0662682929822
 20
1993.784474043313
 30
0.0
 10
811.0566337565746
 20
1993.665675516527
 30
0.0
 10
811.0564553145794
 20
1993.665778540061
 30
0.0
  0
LINE
  5
168
330
87
100
AcDbEntity
  8
P-SANR-FIXT
100
AcDbLine
 10
833.6226163198947
 20
1993.071796769719
 30
0.0
 11
845.9911529025184
 21
1993.071796769719
 31
0.0
  0
LINE
  5
169
330
87
100
AcDbEntity
  8
P-SANR-FIXT
100
AcDbLine
 10
845.9911529025184
 20
2006.928203230271
 30
0.0
 11
833.6226163198947
 21
2006.928203230271
 31
0.0
  0
LWPOLYLINE
  5
16A
330
87
100
AcDbEntity
  8
P-SANR-FIXT
100
AcDbPolyline
 90
        3
 70
   128
 43
0.0
 10
840.8481055622207
 20
2013.856406460546
 10
840.773094135601
 20
2013.782200639995
 10
840.6964773906675
 20
2013.70800064997
  0
ELLIPSE
  5
16B
330
87
100
AcDbEntity
  8
P-SANR-FIXT
100
AcDbEllipse
 10
818.8794803406148
 20
2029.144576147951
 30
0.0
 11
37.80387298547005
 21
0.0
 31
0.0
210
0.0
220
0.0
230
1.0
 40
0.5000000000000016
 41
5.29137339015897
 42
5.327574577895146
  0
LWPOLYLINE
  5
16C
330
87
100
AcDbEntity
  8
P-SANR-FIXT
100
AcDbPolyline
 90
        3
 70
   128
 43
0.0
 10
839.564782446863
 20
2013.32330020798
 10
837.1795617556799
 20
2011.648169070678
 10
834.0495107325653
 20
2010.070722092286
  0
SPLINE
  5
16D
330
87
100
AcDbEntity
  8
P-SANR-FIXT
100
AcDbSpline
210
0.0
220
0.0
230
1.0
 70
     8
 71
     3
 72
    11
 73
     7
 74
     0
 42
0.000000001
 43
0.0000000001
 40
0.0
 40
0.0
 40
0.0
 40
0.0
 40
0.3333333333333333
 40
0.5
 40
0.6666666666666666
 40
1.0
 40
1.0
 40
1.0
 40
1.0
 10
834.0495107325653
 20
2010.070722092286
 30
0.0
 10
833.908596794707
 20
2010.008530614848
 30
0.0
 10
833.6838096847197
 20
2009.929004617477
 30
0.0
 10
833.3508604704707
 20
2009.845911413867
 30
0.0
 10
833.0021565390222
 20
2009.782693494648
 30
0.0
 10
832.7301052774362
 20
2009.76279335045
 30
0.0
 10
832.5419271879795
 20
2009.760227726184
 30
0.0
  0
ELLIPSE
  5
16E
330
87
100
AcDbEntity
  8
P-SANR-FIXT
100
AcDbEllipse
 10
831.7206497556433
 20
2058.625949801123
 30
0.0
 11
97.73489485461121
 21
0.0
 31
0.0
210
0.0
220
0.0
230
1.0
 40
0.4999999999999936
 41
4.713225030443894
 42
4.720792192965504
  0
LINE
  5
16F
330
87
100
AcDbEntity
  8
P-SANR-FIXT
100
AcDbLine
 10
845.9911529025184
 20
2013.856406460546
 30
0.0
 11
840.8481055622207
 21
2013.856406460546
 31
0.0
  0
LINE
  5
170
330
87
100
AcDbEntity
  8
P-SANR-FIXT
100
AcDbLine
 10
845.9911529025184
 20
1986.143593539444
 30
0.0
 11
833.6226163198945
 21
1986.143593539444
 31
0.0
  0
LINE
  5
171
330
87
100
AcDbEntity
  8
P-SANR-FIXT
100
AcDbLine
 10
843.7386477302581
 20
2016.746948628584
 30
0.0
 11
823.2325510758482
 21
2037.253045282994
 31
0.0
  0
LINE
  5
172
330
87
100
AcDbEntity
  8
P-SANR-FIXT
100
AcDbLine
 10
820.1919919167462
 20
2034.212486123891
 30
0.0
 11
840.6964773906675
 21
2013.70800064997
 31
0.0
  0
LINE
  5
173
330
87
100
AcDbEntity
  8
P-SANR-FIXT
100
AcDbLine
 10
819.7873476144424
 20
2033.100735040401
 30
0.0
 11
839.564782446863
 21
2013.32330020798
 31
0.0
  0
LWPOLYLINE
  5
174
330
87
100
AcDbEntity
  8
P-SANR-FIXT
100
AcDbPolyline
 90
        3
 70
   128
 43
0.0
 10
814.7930715372107
 20
2026.478213378368
 10
814.7818552956094
 20
2026.345798372356
 10
814.7706439749475
 20
2026.213382949638
  0
LINE
  5
175
330
87
100
AcDbEntity
  8
P-SANR-FIXT
100
AcDbLine
 10
814.7706439749475
 20
2026.213382949638
 30
0.0
 11
831.4115836316229
 21
2009.572443292963
 31
0.0
  0
LINE
  5
176
330
87
100
AcDbEntity
  8
P-SANR-FIXT
100
AcDbLine
 10
814.7706439749475
 20
2026.213382949638
 30
0.0
 11
807.182239952783
 21
2018.624978927474
 31
0.0
  0
SPLINE
  5
177
330
87
100
AcDbEntity
  8
P-SANR-FIXT
100
AcDbSpline
210
0.0
220
0.0
230
1.0
 70
     8
 71
     3
 72
    24
 73
    20
 74
     0
 42
0.000000001
 43
0.0000000001
 40
0.0
 40
0.0
 40
0.0
 40
0.0
 40
0.0833333333333333
 40
0.125
 40
0.1666666666666666
 40
0.2083333333333333
 40
0.25
 40
0.2916666666666666
 40
0.3125
 40
0.3333333333333333
 40
0.3541666666666666
 40
0.375
 40
0.4166666666666666
 40
0.4583333333333333
 40
0.5
 40
0.5416666666666666
 40
0.5833333333333333
 40
0.6666666666666666
 40
1.0
 40
1.0
 40
1.0
 40
1.0
 10
807.182239952783
 20
2018.624978927474
 30
0.0
 10
807.1112701741174
 20
2018.500331801966
 30
0.0
 10
806.9958668924307
 20
2018.276276086012
 30
0.0
 10
806.8154889474525
 20
2017.909983647204
 30
0.0
 10
806.667277965983
 20
2017.605144855707
 30
0.0
 10
806.4960870882767
 20
2017.264310141963
 30
0.0
 10
806.3016730684374
 20
2016.890552290381
 30
0.0
 10
806.1294552915656
 20
2016.562153725677
 30
0.0
 10
805.9893557931959
 20
2016.293808015864
 30
0.0
 10
805.8850565955056
 20
2016.09160775914
 30
0.0
 10
805.7796044967988
 20
2015.887295978011
 30
0.0
 10
805.6338972406132
 20
2015.60951563616
 30
0.0
 10
805.4451750126313
 20
2015.254885495819
 30
0.0
 10
805.2106592135581
 20
2014.820216527966
 30
0.0
 10
804.9735742647715
 20
2014.380403219144
 30
0.0
 10
804.732351443253
 20
2013.935544293921
 30
0.0
 10
804.3992034363036
 20
2013.334097859031
 30
0.0
 10
803.4568166542353
 20
2011.659960176107
 30
0.0
 10
802.5201911938587
 20
2010.101331069508
 30
0.0
 10
801.6980441787149
 20
2008.865813428357
 30
0.0
  0
SPLINE
  5
178
330
87
100
AcDbEntity
  8
P-SANR-FIXT
100
AcDbSpline
210
0.0
220
0.0
230
1.0
 70
     8
 71
     3
 72
    12
 73
     8
 74
     0
 42
0.000000001
 43
0.0000000001
 40
-1.0
 40
-1.0
 40
-1.0
 40
-1.0
 40
-0.8333333333333332
 40
-0.6666666666666666
 40
-0.5
 40
-0.3333333333333333
 40
0.0
 40
0.0
 40
0.0
 40
0.0
 10
801.6980441787149
 20
2008.865813428357
 30
0.0
 10
801.6052837666148
 20
2008.724452125854
 30
0.0
 10
801.4532316271655
 20
2008.428157166027
 30
0.0
 10
801.3287354471698
 20
2007.929437467444
 30
0.0
 10
801.310529975839
 20
2007.417121093158
 30
0.0
 10
801.4172573506582
 20
2006.741704521324
 30
0.0
 10
801.6249058654318
 20
2006.277832801933
 30
0.0
 10
801.8098072888214
 20
2005.999999999995
 30
0.0
  0
SPLINE
  5
179
330
87
100
AcDbEntity
  8
P-SANR-FIXT
100
AcDbSpline
210
0.0
220
0.0
230
1.0
 70
     8
 71
     3
 72
     9
 73
     5
 74
     0
 42
0.000000001
 43
0.0000000001
 40
0.0
 40
0.0
 40
0.0
 40
0.0
 40
0.5
 40
1.0
 40
1.0
 40
1.0
 40
1.0
 10
801.8098072888214
 20
2005.999999999995
 30
0.0
 10
801.8455318074604
 20
2005.939630374022
 30
0.0
 10
801.9236494860788
 20
2005.824283892044
 30
0.0
 10
802.0144202068022
 20
2005.721010275522
 30
0.0
 10
802.062758677861
 20
2005.672671804465
 30
0.0
  0
SPLINE
  5
17A
330
87
100
AcDbEntity
  8
P-SANR-FIXT
100
AcDbSpline
210
0.0
220
0.0
230
1.0
 70
     8
 71
     3
 72
    13
 73
     9
 74
     0
 42
0.000000001
 43
0.0000000001
 40
0.0212741154639038
 40
0.0212741154639038
 40
0.0212741154639038
 40
0.0212741154639038
 40
0.1666666666666666
 40
0.3333333333333333
 40
0.5
 40
0.6666666666666666
 40
0.8333333333333332
 40
1.0
 40
1.0
 40
1.0
 40
1.0
 10
802.6799263843527
 20
2005.054298639208
 30
0.0
 10
802.7561447181136
 20
2004.972591416226
 30
0.0
 10
802.8988680594418
 20
2004.777904633684
 30
0.0
 10
803.0419973547619
 20
2004.42609831176
 30
0.0
 10
803.1040029958413
 20
2004.014290231109
 30
0.0
 10
803.0786844678647
 20
2003.576152644107
 30
0.0
 10
802.9696304007936
 20
2003.130212318989
 30
0.0
 10
802.8410973537146
 20
2002.844418838686
 30
0.0
 10
802.765833138687
 20
2002.706855643841
 30
0.0
  0
SPLINE
  5
17B
330
87
100
AcDbEntity
  8
P-SANR-FIXT
100
AcDbSpline
210
0.0
220
0.0
230
1.0
 70
     8
 71
     3
 72
     9
 73
     5
 74
     0
 42
0.000000001
 43
0.0000000001
 40
0.0
 40
0.0
 40
0.0
 40
0.0
 40
0.5
 40
1.0
 40
1.0
 40
1.0
 40
1.0
 10
802.765833138687
 20
2002.706855643841
 30
0.0
 10
802.7264988249417
 20
2002.636379204418
 30
0.0
 10
802.6494003698607
 20
2002.49464154198
 30
0.0
 10
802.5754633794607
 20
2002.351501589058
 30
0.0
 10
802.5392890508378
 20
2002.279623691797
 30
0.0
  0
SPLINE
  5
17C
330
87
100
AcDbEntity
  8
P-SANR-FIXT
100
AcDbSpline
210
0.0
220
0.0
230
1.0
 70
     8
 71
     3
 72
    15
 73
    11
 74
     0
 42
0.000000001
 43
0.0000000001
 40
-1.0
 40
-1.0
 40
-1.0
 40
-1.0
 40
-0.875
 40
-0.75
 40
-0.625
 40
-0.5
 40
-0.375
 40
-0.25
 40
-0.125
 40
0.0
 40
0.0
 40
0.0
 40
0.0
 10
802.5392890508378
 20
2002.279623691797
 30
0.0
 10
802.6096502440489
 20
2001.772942388173
 30
0.0
 10
802.7556203759305
 20
2000.716752505458
 30
0.0
 10
802.9952686688298
 20
1999.095470112538
 30
0.0
 10
803.2407604807097
 20
1997.525909406553
 30
0.0
 10
803.4795029563762
 20
1996.095203246756
 30
0.0
 10
803.6952056678869
 20
1994.88293541637
 30
0.0
 10
803.8694188308271
 20
1993.95917380394
 30
0.0
 10
803.9841264501047
 20
1993.381594798443
 30
0.0
 10
804.0095289042531
 20
1993.249999999995
 30
0.0
 10
804.0104127191174
 20
1993.249999999995
 30
0.0
  0
LINE
  5
17D
330
87
100
AcDbEntity
  8
P-SANR-FIXT
100
AcDbLine
 10
769.4855994030532
 20
2012.892304845408
 30
0.0
 11
769.4855994030532
 21
2012.999999999995
 31
0.0
  0
LINE
  5
17E
330
87
100
AcDbEntity
  8
P-SANR-FIXT
100
AcDbLine
 10
769.4855994030532
 20
1986.999999999994
 30
0.0
 11
769.4855994030532
 21
1987.107695154582
 31
0.0
  0
LINE
  5
17F
330
87
100
AcDbEntity
  8
P-SANR-FIXT
100
AcDbLine
 10
769.4855994030532
 20
1987.107695154582
 30
0.0
 11
769.4855994030532
 21
1992.107695154582
 31
0.0
  0
LINE
  5
180
330
87
100
AcDbEntity
  8
P-SANR-FIXT
100
AcDbLine
 10
769.4855994030532
 20
1992.107695154582
 30
0.0
 11
769.4855994030532
 21
1994.999999999995
 31
0.0
  0
LINE
  5
181
330
87
100
AcDbEntity
  8
P-SANR-FIXT
100
AcDbLine
 10
769.4855994030532
 20
1994.999999999995
 30
0.0
 11
769.4855994030532
 21
2004.999999999996
 31
0.0
  0
LINE
  5
182
330
87
100
AcDbEntity
  8
P-SANR-FIXT
100
AcDbLine
 10
769.4855994030532
 20
2004.999999999996
 30
0.0
 11
769.4855994030532
 21
2007.892304845408
 31
0.0
  0
LINE
  5
183
330
87
100
AcDbEntity
  8
P-SANR-FIXT
100
AcDbLine
 10
769.4855994030532
 20
2007.892304845408
 30
0.0
 11
769.4855994030532
 21
2012.892304845408
 31
0.0
  0
SPLINE
  5
184
330
87
100
AcDbEntity
  8
P-SANR-FIXT
100
AcDbSpline
210
0.0
220
0.0
230
1.0
 70
     8
 71
     3
 72
    35
 73
    31
 74
     0
 42
0.000000001
 43
0.0000000001
 40
0.0
 40
0.0
 40
0.0
 40
0.0
 40
0.05
 40
0.1
 40
0.15
 40
0.175
 40
0.2
 40
0.225
 40
0.25
 40
0.3
 40
0.35
 40
0.375
 40
0.4
 40
0.425
 40
0.45
 40
0.5
 40
0.55
 40
0.575
 40
0.6
 40
0.625
 40
0.65
 40
0.7
 40
0.75
 40
0.775
 40
0.8
 40
0.825
 40
0.85
 40
0.9
 40
0.95
 40
1.0
 40
1.0
 40
1.0
 40
1.0
 10
802.5392890508378
 20
2002.279623691797
 30
0.0
 10
802.4167379231993
 20
2002.168988516066
 30
0.0
 10
802.1678003415678
 20
2001.950515038953
 30
0.0
 10
801.7828963330384
 20
2001.632650131137
 30
0.0
 10
801.4525407717387
 20
2001.377452859239
 30
0.0
 10
801.182540876589
 20
2001.178894687603
 30
0.0
 10
800.9770664304131
 20
2001.034879740243
 30
0.0
 10
800.7690930094415
 20
2000.887802717289
 30
0.0
 10
800.4887284138003
 20
2000.683283649834
 30
0.0
 10
800.1314703258882
 20
2000.428917098577
 30
0.0
 10
799.7635353858862
 20
2000.208256756362
 30
0.0
 10
799.4612085082913
 20
2000.071193420218
 30
0.0
 10
799.2312701312607
 20
1999.994836433855
 30
0.0
 10
798.9934688622426
 20
1999.942234395408
 30
0.0
 10
798.6639295808563
 20
1999.893191180777
 30
0.0
 10
798.2384928543154
 20
1999.87528522335
 30
0.0
 10
797.813774028993
 20
1999.911250671569
 30
0.0
 10
797.4857296281593
 20
1999.971945024948
 30
0.0
 10
797.2493916431147
 20
2000.031006461954
 30
0.0
 10
797.0217312985354
 20
2000.111519166395
 30
0.0
 10
796.7237824106106
 20
2000.252367368506
 30
0.0
 10
796.3628482046385
 20
2000.474768318118
 30
0.0
 10
796.0128130848849
 20
2000.729003180268
 30
0.0
 10
795.7372709669827
 20
2000.933430577577
 30
0.0
 10
795.5320422552737
 20
2001.080875558729
 30
0.0
 10
795.3286312391347
 20
2001.225485509394
 30
0.0
 10
795.0611035858296
 20
2001.424460256119
 30
0.0
 10
794.733025361867
 20
2001.6797818204
 30
0.0
 10
794.3496445078126
 20
2001.997062752787
 30
0.0
 10
794.1008993664682
 20
2002.214681793756
 30
0.0
 10
793.9782400901722
 20
2002.324775273501
 30
0.0
  0
SPLINE
  5
185
330
87
100
AcDbEntity
  8
P-SANR-FIXT
100
AcDbSpline
210
0.0
220
0.0
230
1.0
 70
     8
 71
     3
 72
    17
 73
    13
 74
     0
 42
0.000000001
 43
0.0000000001
 40
0.0
 40
0.0
 40
0.0
 40
0.0
 40
0.125
 40
0.25
 40
0.3125
 40
0.375
 40
0.4375
 40
0.5
 40
0.5625
 40
0.625
 40
0.75
 40
0.9071884664693266
 40
0.9071884664693266
 40
0.9071884664693266
 40
0.9071884664693266
 10
793.9782400901722
 20
2002.324775273501
 30
0.0
 10
793.8730253681552
 20
2002.419053738042
 30
0.0
 10
793.6658660650294
 20
2002.611761782965
 30
0.0
 10
793.4167338236358
 20
2002.863754012814
 30
0.0
 10
793.2264287782002
 20
2003.074389713733
 30
0.0
 10
793.0885702402727
 20
2003.237010530575
 30
0.0
 10
792.9539507358525
 20
2003.40261678363
 30
0.0
 10
792.8208533796162
 20
2003.569697553922
 30
0.0
 10
792.6903276736084
 20
2003.739028821394
 30
0.0
 10
792.5216229715569
 20
2003.969293222283
 30
0.0
 10
792.2949501463591
 20
2004.292361042438
 30
0.0
 10
792.1167427110535
 20
2004.564371302835
 30
0.0
 10
792.0213905254986
 20
2004.719056571079
 30
0.0
  0
LINE
  5
186
330
87
100
AcDbEntity
  8
P-SANR-FIXT
100
AcDbLine
 10
787.95728723954
 20
2004.999999999995
 30
0.0
 11
787.95728723954
 21
1989.999999999995
 31
0.0
  0
SPLINE
  5
187
330
87
100
AcDbEntity
  8
P-SANR-FIXT
100
AcDbSpline
210
0.0
220
0.0
230
1.0
 70
     8
 71
     3
 72
     8
 73
     4
 74
     0
 42
0.000000001
 43
0.0000000001
 40
-0.2570651020290112
 40
-0.2570651020290112
 40
-0.2570651020290112
 40
-0.2570651020290112
 40
0.0
 40
0.0
 40
0.0
 40
0.0
 10
785.4893437907337
 20
2008.657703373767
 30
0.0
 10
785.1854097814675
 20
2008.067006761443
 30
0.0
 10
784.7230829109966
 20
2007.493757487372
 30
0.0
 10
784.1008807789892
 20
2006.928203230271
 30
0.0
  0
SPLINE
  5
188
330
87
100
AcDbEntity
  8
P-SANR-FIXT
100
AcDbSpline
210
0.0
220
0.0
230
1.0
 70
     8
 71
     3
 72
    10
 73
     6
 74
     0
 42
0.000000001
 43
0.0000000001
 40
-1.0
 40
-1.0
 40
-1.0
 40
-1.0
 40
-0.6666666666666666
 40
-0.3333333333333333
 40
0.0
 40
0.0
 40
0.0
 40
0.0
 10
784.1008807789892
 20
2006.928203230271
 30
0.0
 10
784.9166608587703
 20
2005.43382222022
 30
0.0
 10
786.0041282238428
 20
2002.411763724335
 30
0.0
 10
785.983658842503
 20
1997.523636235258
 30
0.0
 10
784.9076830599369
 20
1994.538492048172
 30
0.0
 10
784.1008807789892
 20
1993.07179676972
 30
0.0
  0
SPLINE
  5
189
330
87
100
AcDbEntity
  8
P-SANR-FIXT
100
AcDbSpline
210
0.0
220
0.0
230
1.0
 70
     8
 71
     3
 72
    10
 73
     6
 74
     0
 42
0.000000001
 43
0.0000000001
 40
-1.0
 40
-1.0
 40
-1.0
 40
-1.0
 40
-0.6666666666666666
 40
-0.3333333333333333
 40
0.0
 40
0.0
 40
0.0
 40
0.0
 10
784.1008807789892
 20
1993.07179676972
 30
0.0
 10
784.9076830599373
 20
1992.338449130494
 30
0.0
 10
785.983658842503
 20
1990.84587703695
 30
0.0
 10
786.0041282238423
 20
1988.401813292412
 30
0.0
 10
784.9166608587701
 20
1986.890784044469
 30
0.0
 10
784.1008807789892
 20
1986.143593539444
 30
0.0
  0
SPLINE
  5
18A
330
87
100
AcDbEntity
  8
P-SANR-FIXT
100
AcDbSpline
210
0.0
220
0.0
230
1.0
 70
     8
 71
     3
 72
     9
 73
     5
 74
     0
 42
0.000000001
 43
0.0000000001
 40
-1.0
 40
-1.0
 40
-1.0
 40
-1.0
 40
-0.5
 40
0.0
 40
0.0
 40
0.0
 40
0.0
 10
769.4855994030532
 20
2012.892304845408
 30
0.0
 10
769.5579580756805
 20
2013.054263483251
 30
0.0
 10
769.7127244983967
 20
2013.376905723616
 30
0.0
 10
769.8875890760366
 20
2013.696997893342
 30
0.0
 10
769.980045903588
 20
2013.856406460546
 30
0.0
  0
SPLINE
  5
18B
330
87
100
AcDbEntity
  8
P-SANR-FIXT
100
AcDbSpline
210
0.0
220
0.0
230
1.0
 70
     8
 71
     3
 72
     9
 73
     5
 74
     0
 42
0.000000001
 43
0.0000000001
 40
-1.0
 40
-1.0
 40
-1.0
 40
-1.0
 40
-0.5
 40
0.0
 40
0.0
 40
0.0
 40
0.0
 10
769.980045903588
 20
1986.143593539444
 30
0.0
 10
769.887589076037
 20
1986.303002106647
 30
0.0
 10
769.7127244983967
 20
1986.623094276374
 30
0.0
 10
769.5579580756805
 20
1986.945736516739
 30
0.0
 10
769.4855994030532
 20
1987.107695154582
 30
0.0
  0
SPLINE
  5
18C
330
87
100
AcDbEntity
  8
P-SANR-FIXT
100
AcDbSpline
210
0.0
220
0.0
230
1.0
 70
     8
 71
     3
 72
     9
 73
     5
 74
     0
 42
0.000000001
 43
0.0000000001
 40
-1.0
 40
-1.0
 40
-1.0
 40
-1.0
 40
-0.5
 40
0.0
 40
0.0
 40
0.0
 40
0.0
 10
769.4855994030532
 20
1992.107695154582
 30
0.0
 10
769.5579580756805
 20
1992.269653792424
 30
0.0
 10
769.7127244983969
 20
1992.592296032789
 30
0.0
 10
769.8875890760371
 20
1992.912388202516
 30
0.0
 10
769.9800459035881
 20
1993.07179676972
 30
0.0
  0
SPLINE
  5
18D
330
87
100
AcDbEntity
  8
P-SANR-FIXT
100
AcDbSpline
210
0.0
220
0.0
230
1.0
 70
     8
 71
     3
 72
     9
 73
     5
 74
     0
 42
0.000000001
 43
0.0000000001
 40
-1.0
 40
-1.0
 40
-1.0
 40
-1.0
 40
-0.5
 40
0.0
 40
0.0
 40
0.0
 40
0.0
 10
769.9800459035881
 20
1993.07179676972
 30
0.0
 10
769.8875890760371
 20
1993.390613904126
 30
0.0
 10
769.7127244983969
 20
1994.030798243579
 30
0.0
 10
769.5579580756807
 20
1994.67608272431
 30
0.0
 10
769.4855994030532
 20
1994.999999999995
 30
0.0
  0
SPLINE
  5
18E
330
87
100
AcDbEntity
  8
P-SANR-FIXT
100
AcDbSpline
210
0.0
220
0.0
230
1.0
 70
     8
 71
     3
 72
     9
 73
     5
 74
     0
 42
0.000000001
 43
0.0000000001
 40
-1.0
 40
-1.0
 40
-1.0
 40
-1.0
 40
-0.5
 40
0.0
 40
0.0
 40
0.0
 40
0.0
 10
769.4855994030532
 20
2004.999999999996
 30
0.0
 10
769.5579580756807
 20
2005.32391727568
 30
0.0
 10
769.7127244983969
 20
2005.969201756411
 30
0.0
 10
769.8875890760371
 20
2006.609386095863
 30
0.0
 10
769.9800459035881
 20
2006.928203230271
 30
0.0
  0
SPLINE
  5
18F
330
87
100
AcDbEntity
  8
P-SANR-FIXT
100
AcDbSpline
210
0.0
220
0.0
230
1.0
 70
     8
 71
     3
 72
     9
 73
     5
 74
     0
 42
0.000000001
 43
0.0000000001
 40
-1.0
 40
-1.0
 40
-1.0
 40
-1.0
 40
-0.5
 40
0.0
 40
0.0
 40
0.0
 40
0.0
 10
769.9800459035881
 20
2006.928203230271
 30
0.0
 10
769.8875890760371
 20
2007.087611797474
 30
0.0
 10
769.7127244983969
 20
2007.407703967201
 30
0.0
 10
769.5579580756805
 20
2007.730346207566
 30
0.0
 10
769.4855994030532
 20
2007.892304845408
 30
0.0
  0
LINE
  5
190
330
87
100
AcDbEntity
  8
P-SANR-FIXT
100
AcDbLine
 10
769.9800459035881
 20
2006.928203230271
 30
0.0
 11
784.1008807789892
 21
2006.928203230271
 31
0.0
  0
LINE
  5
191
330
87
100
AcDbEntity
  8
P-SANR-FIXT
100
AcDbLine
 10
774.8542449936337
 20
2013.856406460546
 30
0.0
 11
769.980045903588
 21
2013.856406460546
 31
0.0
  0
LINE
  5
192
330
87
100
AcDbEntity
  8
P-SANR-FIXT
100
AcDbLine
 10
784.1008807789892
 20
1986.143593539444
 30
0.0
 11
769.980045903588
 21
1986.143593539444
 31
0.0
  0
LINE
  5
193
330
87
100
AcDbEntity
  8
P-SANR-FIXT
100
AcDbLine
 10
784.1008807789892
 20
1993.07179676972
 30
0.0
 11
769.9800459035881
 21
1993.07179676972
 31
0.0
  0
LINE
  5
194
330
87
100
AcDbEntity
  8
P-SANR-FIXT
100
AcDbLine
 10
789.2855994030533
 20
2026.799999999994
 30
0.0
 11
807.2855994030531
 21
2026.799999999994
 31
0.0
  0
LINE
  5
195
330
87
100
AcDbEntity
  8
P-SANR-FIXT
100
AcDbLine
 10
807.182239952783
 20
2018.624978927474
 30
0.0
 11
807.182239952783
 21
2026.478213378368
 31
0.0
  0
LINE
  5
196
330
87
100
AcDbEntity
  8
P-SANR-FIXT
100
AcDbLine
 10
791.878712268723
 20
2005.999999999995
 30
0.0
 11
801.8098072888212
 21
2005.999999999995
 31
0.0
  0
LINE
  5
197
330
87
100
AcDbEntity
  8
P-SANR-FIXT
100
AcDbLine
 10
814.7930715372107
 20
2026.478213378368
 30
0.0
 11
807.182239952783
 21
2026.478213378368
 31
0.0
  0
LINE
  5
198
330
87
100
AcDbEntity
  8
P-SANR-FIXT
100
AcDbLine
 10
825.1770947241093
 20
2038.844035540662
 30
0.0
 11
845.3296379879265
 21
2018.691492276845
 31
0.0
  0
ENDBLK
  5
19A
330
87
100
AcDbEntity
  8
0
100
AcDbBlockEnd
  0
BLOCK
  5
2A0
330
19C
100
AcDbEntity
  8
0
100
AcDbBlockBegin
  2
Automatic flow rate regulator valve_Caleffi_121 DN15 - 1_2__-V1-Est - Idraulica
 70
     0
 10
0.0
 20
0.0
 30
0.0
  3
Automatic flow rate regulator valve_Caleffi_121 DN15 - 1_2__-V1-Est - Idraulica
  1

  0
LINE
  5
19D
330
19C
100
AcDbEntity
  8
M-PIPE
100
AcDbLine
 10
882.7497288483675
 20
1857.300737862362
 30
0.0
 11
859.1323623567367
 21
1857.300737862361
 31
0.0
1001
REVIT
1002
{
1070
     3
1000
923267
1002
}
  0
LINE
  5
19E
330
19C
100
AcDbEntity
  8
M-PIPE
100
AcDbLine
 10
859.1323623567369
 20
1811.300737862361
 30
0.0
 11
882.7497288483684
 21
1811.300737862362
 31
0.0
1001
REVIT
1002
{
1070
     3
1000
923267
1002
}
  0
LWPOLYLINE
  5
19F
330
19C
100
AcDbEntity
  8
M-PIPE
100
AcDbPolyline
 90
       19
 70
   128
 43
0.0
 10
882.7497288483684
 20
1811.300737862362
 10
883.5694830134563
 20
1811.323923270659
 10
884.3863123128395
 20
1811.393305426068
 10
885.1973575897043
 20
1811.508369730785
 10
885.9998865904373
 20
1811.668283156387
 10
886.7913466881113
 20
1811.871928742004
 10
887.5694061892351
 20
1812.117949375616
 10
888.3319825559791
 20
1812.404797164882
 10
889.0772572069852
 20
1812.730784619805
 10
889.8036777473761
 20
1813.094134223074
 10
890.5099493826739
 20
1813.493023634612
 10
891.1950178256143
 20
1813.925624614963
 10
891.8580462126865
 20
1814.390134613761
 10
892.4983884642538
 20
1814.884800742247
 10
893.1155612316667
 20
1815.407936462955
 10
893.709216165945
 20
1815.957931757743
 10
894.279113793574
 20
1816.533257783373
 10
894.8250998545381
 20
1817.132467119227
 10
894.9916081618253
 20
1817.325346328222
1001
REVIT
1002
{
1070
     3
1000
923267
1002
}
  0
LINE
  5
1A0
330
19C
100
AcDbEntity
  8
M-PIPE
100
AcDbLine
 10
894.4317159452246
 20
1816.751586595026
 30
0.0
 11
904.953029328554
 21
1819.964359665373
 31
0.0
1001
REVIT
1002
{
1070
     3
1000
923267
1002
}
  0
LWPOLYLINE
  5
1A1
330
19C
100
AcDbEntity
  8
M-PIPE
100
AcDbPolyline
 90
       35
 70
   128
 43
0.0
 10
904.953029328554
 20
1819.964359665373
 10
905.3135969255848
 20
1820.085144790216
 10
905.6623187639832
 20
1820.223000870765
 10
905.9981144156163
 20
1820.376465197449
 10
906.3201601585628
 20
1820.544036674572
 10
906.6278764000328
 20
1820.724218730662
 10
906.9209073955052
 20
1820.915555465355
 10
907.1990957841252
 20
1821.116660238214
 10
907.4624543020494
 20
1821.326236632972
 10
907.711136698143
 20
1821.543092287158
 10
907.9454094471962
 20
1821.766146446402
 10
908.165625407326
 20
1821.994432298808
 10
908.3722001524035
 20
1822.227095199636
 10
908.5655913579524
 20
1822.46338784861
 10
908.7462813428603
 20
1822.702663368936
 10
908.9147626692998
 20
1822.944367090195
 10
909.0715265712558
 20
1823.188027680714
 10
909.2170539058722
 20
1823.433248124882
 10
909.3518082883536
 20
1823.67969690698
 10
909.4762310681684
 20
1823.92709964983
 10
909.590737821424
 20
1824.175231365057
 10
909.6957160633673
 20
1824.4239094006
 10
909.7915239198892
 20
1824.672987118051
 10
909.8784895334516
 20
1824.922348294318
 10
909.9569110142523
 20
1825.171902216119
 10
910.0270567800103
 20
1825.421579419243
 10
910.089166156699
 20
1825.671328014801
 10
910.1434501375727
 20
1825.921110540159
 10
910.1900922189686
 20
1826.17090127105
 10
910.2292492489747
 20
1826.420683932548
 10
910.2610522394554
 20
1826.670449748982
 10
910.2856071036196
 20
1826.920195776061
 10
910.3029952907172
 20
1827.169923461742
 10
910.3132742970077
 20
1827.419637385506
 10
910.3164856745699
 20
1827.657732344279
1001
REVIT
1002
{
1070
     3
1000
923267
1002
}
  0
LINE
  5
1A2
330
19C
100
AcDbEntity
  8
M-PIPE
100
AcDbLine
 10
910.3164856745699
 20
1827.657732344279
 30
0.0
 11
910.3164856745699
 21
1840.943743380463
 31
0.0
1001
REVIT
1002
{
1070
     3
1000
923267
1002
}
  0
LWPOLYLINE
  5
1A3
330
19C
100
AcDbEntity
  8
M-PIPE
100
AcDbPolyline
 90
       35
 70
   128
 43
0.0
 10
910.3164856745699
 20
1840.943743380463
 10
910.3129533343524
 20
1841.193450293773
 10
910.3023446708892
 20
1841.443164723028
 10
910.2846246780403
 20
1841.692893179876
 10
910.2597347550592
 20
1841.942640124064
 10
910.2275923274246
 20
1842.192406828447
 10
910.1880903297493
 20
1842.442190111043
 10
910.1410965657819
 20
1842.691980886405
 10
910.0864529666866
 20
1842.941762485826
 10
910.0239747763897
 20
1843.191508692787
 10
909.9534497023132
 20
1843.441181436722
 10
909.8746370816028
 20
1843.690728085089
 10
909.7872671275078
 20
1843.940078271308
 10
909.6910403383246
 20
1844.189140195083
 10
909.5856271726443
 20
1844.437796332898
 10
909.4706681198337
 20
1844.685898501274
 10
909.3457743237976
 20
1844.933262225275
 10
909.2105289508122
 20
1845.179660381787
 10
909.0644895276913
 20
1845.424816113543
 10
908.9071915130968
 20
1845.668395048557
 10
908.7381533995651
 20
1845.909996913528
 10
908.5568836724879
 20
1846.14914670176
 10
908.3628899686866
 20
1846.385285648722
 10
908.1556907730504
 20
1846.617762382562
 10
907.9348299565255
 20
1846.845824751765
 10
907.6998943802648
 20
1847.068612982752
 10
907.4505346558307
 20
1847.285154976807
 10
907.1864889479956
 20
1847.494364701653
 10
906.9076094269616
 20
1847.695044743917
 10
906.6138906210582
 20
1847.885894132775
 10
906.3054985028086
 20
1848.065522484469
 10
905.9827986923162
 20
1848.232471313839
 10
905.6463817352119
 20
1848.38524298111
 10
905.2970830814457
 20
1848.522337177122
 10
904.9530293285437
 20
1848.637116059372
1001
REVIT
1002
{
1070
     3
1000
923267
1002
}
  0
LINE
  5
1A4
330
19C
100
AcDbEntity
  8
M-PIPE
100
AcDbLine
 10
904.9530293285441
 20
1848.637116059372
 30
0.0
 11
894.4233033681072
 21
1851.852457982105
 31
0.0
1001
REVIT
1002
{
1070
     3
1000
923267
1002
}
  0
LWPOLYLINE
  5
1A5
330
19C
100
AcDbEntity
  8
M-PIPE
100
AcDbPolyline
 90
       19
 70
   128
 43
0.0
 10
894.9915058040286
 20
1851.27624949237
 10
894.4530451508347
 20
1851.882668508227
 10
893.8906387070201
 20
1852.465642100353
 10
893.3044184069693
 20
1853.023747896234
 10
892.6945945654976
 20
1853.555482757122
 10
892.0614786522692
 20
1854.059261869429
 10
891.4055087163204
 20
1854.533421897017
 10
890.7272767303247
 20
1854.976229303341
 10
890.0275567083161
 20
1855.385894897345
 10
889.3073320021029
 20
1855.760595460538
 10
888.5678197525136
 20
1856.098502943014
 10
887.8104901347271
 20
1856.397821159288
 10
887.0370778791647
 20
1856.656829186453
 10
886.2495836582422
 20
1856.87392982323
 10
885.450263371535
 20
1857.047700608661
 10
884.6416041598565
 20
1857.176944159438
 10
883.826287089041
 20
1857.260734116694
 10
883.0071377491721
 20
1857.298452930196
 10
882.7497288483671
 20
1857.300737862362
1001
REVIT
1002
{
1070
     3
1000
923267
1002
}
  0
LINE
  5
1A6
330
19C
100
AcDbEntity
  8
M-PIPE
100
AcDbLine
 10
859.1323623567483
 20
1862.450737862376
 30
0.0
 11
858.425255575562
 21
1862.450737862376
 31
0.0
1001
REVIT
1002
{
1070
     3
1000
923267
1002
}
  0
LINE
  5
1A7
330
19C
100
AcDbEntity
  8
M-PIPE
100
AcDbLine
 10
858.4252555755623
 20
1806.150737862371
 30
0.0
 11
859.1323623567488
 21
1806.150737862371
 31
0.0
1001
REVIT
1002
{
1070
     3
1000
923267
1002
}
  0
LWPOLYLINE
  5
1A8
330
19C
100
AcDbEntity
  8
M-PIPE
100
AcDbPolyline
 90
       26
 70
   128
 43
0.0
 10
858.4252555755622
 20
1862.450737862376
 10
857.5869182962117
 20
1862.427023899508
 10
856.7503255361504
 20
1862.355954192628
 10
855.9172037663762
 20
1862.237743338397
 10
855.0892444925441
 20
1862.072742686484
 10
854.2680894608009
 20
1861.861431486109
 10
853.4553187255696
 20
1861.604405620748
 10
852.6524419987961
 20
1861.302364854907
 10
851.8608933674327
 20
1860.956099538061
 10
851.0820291690409
 20
1860.566477622583
 10
850.3171285893321
 20
1860.134432684978
 10
849.5673964068918
 20
1859.660953430353
 10
848.8339672583126
 20
1859.147074944782
 10
848.1179108176906
 20
1858.593871767183
 10
847.4202373569914
 20
1858.002452698928
 10
846.741903255975
 20
1857.373957162507
 10
846.0838161425645
 20
1856.709552858731
 10
845.4468394521025
 20
1856.01043444818
 10
844.8317962875316
 20
1855.277822987705
 10
844.2394725376463
 20
1854.51296587699
 10
843.670619266356
 20
1853.717137105123
 10
843.1259544238999
 20
1852.89163762618
 10
842.6061639539796
 20
1852.037795731315
 10
842.1119023820866
 20
1851.156967319901
 10
841.6437929730808
 20
1850.25053600242
 10
841.4724472813444
 20
1849.889252058259
1001
REVIT
1002
{
1070
     3
1000
923267
1002
}
  0
LWPOLYLINE
  5
1A9
330
19C
100
AcDbEntity
  8
M-PIPE
100
AcDbPolyline
 90
       27
 70
   128
 43
0.0
 10
841.4695053690165
 20
1818.713122004573
 10
841.5220058506507
 20
1818.599798402889
 10
841.9829538316422
 20
1817.686697359542
 10
842.4702168249076
 20
1816.798821033958
 10
842.9831800228349
 20
1815.937560507047
 10
843.5211973370492
 20
1815.104279155707
 10
844.0835913423011
 20
1814.300312702083
 10
844.6696528130368
 20
1813.526969444809
 10
845.2786397649401
 20
1812.785530612099
 10
845.9097759147125
 20
1812.077250747895
 10
846.5622484800407
 20
1811.403358008475
 10
847.2352052612666
 20
1810.765054209072
 10
847.9277509799079
 20
1810.163514420872
 10
848.638942899948
 20
1809.599885882033
 10
849.3677858276781
 20
1809.075285958592
 10
850.1132266747461
 20
1808.590798879912
 10
850.8741488735426
 20
1808.147470988327
 10
851.6493670462454
 20
1807.746304293422
 10
852.4376224354561
 20
1807.388248215646
 10
853.2375796870587
 20
1807.074189545114
 10
854.0478256128476
 20
1806.804940825027
 10
854.8668705298679
 20
1806.581227580784
 10
855.6931526589119
 20
1806.403675030091
 10
856.525045861329
 20
1806.272795092016
 10
857.3608707128018
 20
1806.188974625979
 10
858.1989085853139
 20
1806.15246584227
 10
858.4252555755627
 20
1806.150737862371
1001
REVIT
1002
{
1070
     3
1000
923267
1002
}
  0
ELLIPSE
  5
1AA
330
19C
100
AcDbEntity
  8
M-PIPE
100
AcDbEllipse
 10
838.9798190929266
 20
1827.657732344254
 30
0.0
 11
0.0
 21
7.999999999999924
 31
0.0
210
0.0
220
0.0
230
1.0
 40
0.7071067811865638
 41
1.570796326794869
 42
2.928936251132053
1001
REVIT
1002
{
1070
     3
1000
923267
1002
}
  0
LINE
  5
1AB
330
19C
100
AcDbEntity
  8
M-PIPE
100
AcDbLine
 10
833.322964843434
 20
1827.657732344254
 30
0.0
 11
833.322964843434
 21
1840.943743380469
 31
0.0
1001
REVIT
1002
{
1070
     3
1000
923267
1002
}
  0
ELLIPSE
  5
1AC
330
19C
100
AcDbEntity
  8
M-PIPE
100
AcDbEllipse
 10
838.9798190929262
 20
1840.943743380469
 30
0.0
 11
0.0
 21
7.999999999999772
 31
0.0
210
0.0
220
0.0
230
1.0
 40
0.7071067811865591
 41
0.2126564024588076
 42
1.570796326794898
1001
REVIT
1002
{
1070
     3
1000
923267
1002
}
  0
LINE
  5
1AD
330
19C
100
AcDbEntity
  8
M-PIPE
100
AcDbLine
 10
837.7858992458127
 20
1848.763533070565
 30
0.0
 11
842.7438616107114
 21
1850.277489302966
 31
0.0
1001
REVIT
1002
{
1070
     3
1000
923267
1002
}
  0
LINE
  5
1AE
330
19C
100
AcDbEntity
  8
M-PIPE
100
AcDbLine
 10
842.7438616107204
 20
1818.323986421762
 30
0.0
 11
837.7858992458191
 21
1819.837942654156
 31
0.0
1001
REVIT
1002
{
1070
     3
1000
923267
1002
}
  0
ELLIPSE
  5
1AF
330
19C
100
AcDbEntity
  8
M-PIPE
100
AcDbEllipse
 10
859.1323623567356
 20
1834.300737862361
 30
0.0
 11
0.0
 21
23.0
 31
0.0
210
0.0
220
0.0
230
1.0
 40
0.7071067811865384
 41
0.0000000000000226
 42
0.6824237375279873
1001
REVIT
1002
{
1070
     3
1000
923267
1002
}
  0
LINE
  5
1B0
330
19C
100
AcDbEntity
  8
M-PIPE
100
AcDbLine
 10
848.8753941329639
 20
1852.149805224916
 30
0.0
 11
872.4927606245945
 21
1852.149805224918
 31
0.0
1001
REVIT
1002
{
1070
     3
1000
923267
1002
}
  0
LINE
  5
1B1
330
19C
100
AcDbEntity
  8
M-PIPE
100
AcDbLine
 10
848.8753941329639
 20
1852.149805224916
 30
0.0
 11
842.7438616107112
 21
1850.277489302966
 31
0.0
1001
REVIT
1002
{
1070
     3
1000
923267
1002
}
  0
LINE
  5
1B2
330
19C
100
AcDbEntity
  8
M-PIPE
100
AcDbLine
 10
842.7438616107201
 20
1818.323986421762
 30
0.0
 11
848.8753941329411
 21
1816.45167049983
 31
0.0
1001
REVIT
1002
{
1070
     3
1000
923267
1002
}
  0
LINE
  5
1B3
330
19C
100
AcDbEntity
  8
M-PIPE
100
AcDbLine
 10
848.8753941329413
 20
1816.45167049983
 30
0.0
 11
872.4927606245724
 21
1816.451670499831
 31
0.0
1001
REVIT
1002
{
1070
     3
1000
923267
1002
}
  0
ELLIPSE
  5
1B4
330
19C
100
AcDbEntity
  8
M-PIPE
100
AcDbEllipse
 10
859.1323623567349
 20
1834.300737862361
 30
0.0
 11
0.0
 21
22.99999999999998
 31
0.0
210
0.0
220
0.0
230
1.0
 40
0.707106781186536
 41
2.459168916059991
 42
3.141592653589781
1001
REVIT
1002
{
1070
     3
1000
923267
1002
}
  0
SPLINE
  5
1B5
330
19C
100
AcDbEntity
  8
M-PIPE
100
AcDbSpline
210
0.0
220
0.0
230
1.0
 70
     8
 71
     3
 72
    11
 73
     7
 74
     0
 42
0.000000001
 43
0.0000000001
 40
0.0
 40
0.0
 40
0.0
 40
0.0
 40
0.2857142857142857
 40
0.5714285714285714
 40
0.7857142857142857
 40
1.0
 40
1.0
 40
1.0
 40
1.0
 10
872.4927606245724
 20
1816.451670499831
 30
0.0
 10
873.1388939766771
 20
1816.451564497445
 30
0.0
 10
874.560882168863
 20
1816.846037192464
 30
0.0
 10
876.4692128994131
 20
1818.337135013248
 30
0.0
 10
877.8779637891418
 20
1820.169643211904
 30
0.0
 10
878.4754884692864
 20
1821.385831069477
 30
0.0
 10
878.7031260371096
 20
1821.989081416162
 30
0.0
1001
REVIT
1002
{
1070
     3
1000
923267
1002
}
  0
SPLINE
  5
1B6
330
19C
100
AcDbEntity
  8
M-PIPE
100
AcDbSpline
210
0.0
220
0.0
230
1.0
 70
     8
 71
     3
 72
     9
 73
     5
 74
     0
 42
0.000000001
 43
0.0000000001
 40
-0.6666666666666666
 40
-0.6666666666666666
 40
-0.6666666666666666
 40
-0.6666666666666666
 40
-0.3333333333333333
 40
0.0
 40
0.0
 40
0.0
 40
0.0
 10
894.8738438154421
 20
1817.196428995542
 30
0.0
 10
895.3485818097847
 20
1817.681151061005
 30
0.0
 10
895.9362665593177
 20
1819.097703538847
 30
0.0
 10
895.6533421071068
 20
1821.031261414623
 30
0.0
 10
895.2816130338597
 20
1821.989081416159
 30
0.0
1001
REVIT
1002
{
1070
     3
1000
923267
1002
}
  0
SPLINE
  5
1B7
330
19C
100
AcDbEntity
  8
M-PIPE
100
AcDbSpline
210
0.0
220
0.0
230
1.0
 70
     8
 71
     3
 72
    10
 73
     6
 74
     0
 42
0.000000001
 43
0.0000000001
 40
0.2857142857142857
 40
0.2857142857142857
 40
0.2857142857142857
 40
0.2857142857142857
 40
0.5714285714285714
 40
0.7857142857142857
 40
1.0
 40
1.0
 40
1.0
 40
1.0
 10
894.6798828931026
 20
1851.582948011325
 30
0.0
 10
895.129505457581
 20
1851.213221142882
 30
0.0
 10
895.6914671081397
 20
1850.264340711474
 30
0.0
 10
895.7981074929827
 20
1848.431832512819
 30
0.0
 10
895.509250601685
 20
1847.215644655246
 30
0.0
 10
895.2816130338616
 20
1846.612394308561
 30
0.0
1001
REVIT
1002
{
1070
     3
1000
923267
1002
}
  0
SPLINE
  5
1B8
330
19C
100
AcDbEntity
  8
M-PIPE
100
AcDbSpline
210
0.0
220
0.0
230
1.0
 70
     8
 71
     3
 72
    10
 73
     6
 74
     0
 42
0.000000001
 43
0.0000000001
 40
-1.0
 40
-1.0
 40
-1.0
 40
-1.0
 40
-0.6666666666666666
 40
-0.3333333333333333
 40
0.0
 40
0.0
 40
0.0
 40
0.0
 10
872.4927606245945
 20
1852.149805224918
 30
0.0
 10
873.23694646896
 20
1852.150936686673
 30
0.0
 10
874.885386348758
 20
1851.628600902665
 30
0.0
 10
877.2552554864978
 20
1849.5037721859
 30
0.0
 10
878.3313969638832
 20
1847.570214310124
 30
0.0
 10
878.7031260371295
 20
1846.612394308588
 30
0.0
1001
REVIT
1002
{
1070
     3
1000
923267
1002
}
  0
ELLIPSE
  5
1B9
330
19C
100
AcDbEntity
  8
M-PIPE
100
AcDbEllipse
 10
859.132362356747
 20
1834.300737862373
 30
0.0
 11
0.0
 21
28.15000000000224
 31
0.0
210
0.0
220
0.0
230
1.0
 40
0.7071067811865409
 41
5.667610342023372
 42
7.250445083121976
1001
REVIT
1002
{
1070
     3
1000
923267
1002
}
  0
ELLIPSE
  5
1BA
330
19C
100
AcDbEntity
  8
M-PIPE
100
AcDbEllipse
 10
859.132362356747
 20
1834.300737862373
 30
0.0
 11
0.0
 21
28.15000000000221
 31
0.0
210
0.0
220
0.0
230
1.0
 40
0.707106781186547
 41
2.17433287764818
 42
3.75716761874449
1001
REVIT
1002
{
1070
     3
1000
923267
1002
}
  0
ARC
  5
1BB
330
19C
100
AcDbEntity
  8
M-PIPE
100
AcDbCircle
 10
798.2855994030569
 20
1834.300737862373
 30
0.0
 40
6.949999999999817
100
AcDbArc
 50
90.0
 51
269.9999999999997
1001
REVIT
1002
{
1070
     3
1000
790271
1002
}
  0
ARC
  5
1BC
330
19C
100
AcDbEntity
  8
M-PIPE
100
AcDbCircle
 10
798.2855994030569
 20
1834.300737862373
 30
0.0
 40
6.949999999999956
100
AcDbArc
 50
277.5167038303404
 51
279.9999999999987
1001
REVIT
1002
{
1070
     3
1000
790271
1002
}
  0
ARC
  5
1BD
330
19C
100
AcDbEntity
  8
M-PIPE
100
AcDbCircle
 10
798.2855994030569
 20
1834.300737862373
 30
0.0
 40
6.950000000000073
100
AcDbArc
 50
289.9999999999991
 51
292.5739540404358
1001
REVIT
1002
{
1070
     3
1000
790271
1002
}
  0
ARC
  5
1BE
330
19C
100
AcDbEntity
  8
M-PIPE
100
AcDbCircle
 10
798.2855994030569
 20
1834.300737862373
 30
0.0
 40
6.950000000000032
100
AcDbArc
 50
307.6170074733731
 51
309.999999999999
1001
REVIT
1002
{
1070
     3
1000
790271
1002
}
  0
ARC
  5
1BF
330
19C
100
AcDbEntity
  8
M-PIPE
100
AcDbCircle
 10
798.2855994030569
 20
1834.300737862373
 30
0.0
 40
6.950000000000022
100
AcDbArc
 50
320.0000000000011
 51
322.3829925266291
1001
REVIT
1002
{
1070
     3
1000
790271
1002
}
  0
ARC
  5
1C0
330
19C
100
AcDbEntity
  8
M-PIPE
100
AcDbCircle
 10
798.2855994030569
 20
1834.300737862373
 30
0.0
 40
6.950000000000059
100
AcDbArc
 50
337.426045959568
 51
340.0000000000016
1001
REVIT
1002
{
1070
     3
1000
790271
1002
}
  0
ARC
  5
1C1
330
19C
100
AcDbEntity
  8
M-PIPE
100
AcDbCircle
 10
798.2855994030569
 20
1834.300737862373
 30
0.0
 40
6.950000000000045
100
AcDbArc
 50
350.0000000000014
 51
352.4832961696609
1001
REVIT
1002
{
1070
     3
1000
790271
1002
}
  0
ARC
  5
1C2
330
19C
100
AcDbEntity
  8
M-PIPE
100
AcDbCircle
 10
798.2855994030569
 20
1834.300737862373
 30
0.0
 40
6.95000000000004
100
AcDbArc
 50
7.516703830340701
 51
10.00000000000213
1001
REVIT
1002
{
1070
     3
1000
790271
1002
}
  0
ARC
  5
1C3
330
19C
100
AcDbEntity
  8
M-PIPE
100
AcDbCircle
 10
798.2855994030569
 20
1834.300737862373
 30
0.0
 40
6.950000000000073
100
AcDbArc
 50
19.99999999999939
 51
22.57395404043709
1001
REVIT
1002
{
1070
     3
1000
790271
1002
}
  0
ARC
  5
1C4
330
19C
100
AcDbEntity
  8
M-PIPE
100
AcDbCircle
 10
798.2855994030569
 20
1834.300737862373
 30
0.0
 40
6.949999999999983
100
AcDbArc
 50
37.61700747337199
 51
39.99999999999984
1001
REVIT
1002
{
1070
     3
1000
790271
1002
}
  0
ARC
  5
1C5
330
19C
100
AcDbEntity
  8
M-PIPE
100
AcDbCircle
 10
798.2855994030569
 20
1834.300737862373
 30
0.0
 40
6.949999999999934
100
AcDbArc
 50
49.99999999999972
 51
52.38299252662897
1001
REVIT
1002
{
1070
     3
1000
790271
1002
}
  0
ARC
  5
1C6
330
19C
100
AcDbEntity
  8
M-PIPE
100
AcDbCircle
 10
798.2855994030569
 20
1834.300737862373
 30
0.0
 40
6.949999999999998
100
AcDbArc
 50
67.42604595956406
 51
69.9999999999992
1001
REVIT
1002
{
1070
     3
1000
790271
1002
}
  0
ARC
  5
1C7
330
19C
100
AcDbEntity
  8
M-PIPE
100
AcDbCircle
 10
798.2855994030569
 20
1834.300737862373
 30
0.0
 40
6.949999999999931
100
AcDbArc
 50
79.99999999999873
 51
82.48329616965902
1001
REVIT
1002
{
1070
     3
1000
790271
1002
}
  0
ARC
  5
1C8
330
19C
100
AcDbEntity
  8
M-PIPE
100
AcDbCircle
 10
798.2855994030569
 20
1834.300737862373
 30
0.0
 40
6.949999999999931
100
AcDbArc
 50
270.0000000000015
 51
90.0
1001
REVIT
1002
{
1070
     3
1000
790271
1002
}
  0
ARC
  5
1C9
330
19C
100
AcDbEntity
  8
M-PIPE
100
AcDbCircle
 10
798.2855994030569
 20
1834.300737862373
 30
0.0
 40
6.949999999999927
100
AcDbArc
 50
97.51670383033889
 51
100.0
1001
REVIT
1002
{
1070
     3
1000
790271
1002
}
  0
ARC
  5
1CA
330
19C
100
AcDbEntity
  8
M-PIPE
100
AcDbCircle
 10
798.2855994030569
 20
1834.300737862373
 30
0.0
 40
6.949999999999965
100
AcDbArc
 50
109.9999999999994
 51
112.573954040433
1001
REVIT
1002
{
1070
     3
1000
790271
1002
}
  0
ARC
  5
1CB
330
19C
100
AcDbEntity
  8
M-PIPE
100
AcDbCircle
 10
798.2855994030569
 20
1834.300737862373
 30
0.0
 40
6.950000000000073
100
AcDbArc
 50
127.6170074733703
 51
129.9999999999975
1001
REVIT
1002
{
1070
     3
1000
790271
1002
}
  0
ARC
  5
1CC
330
19C
100
AcDbEntity
  8
M-PIPE
100
AcDbCircle
 10
798.2855994030569
 20
1834.300737862373
 30
0.0
 40
6.950000000000008
100
AcDbArc
 50
139.9999999999979
 51
142.3829925266257
1001
REVIT
1002
{
1070
     3
1000
790271
1002
}
  0
ARC
  5
1CD
330
19C
100
AcDbEntity
  8
M-PIPE
100
AcDbCircle
 10
798.2855994030569
 20
1834.300737862373
 30
0.0
 40
6.949999999999998
100
AcDbArc
 50
157.4260459595619
 51
159.9999999999997
1001
REVIT
1002
{
1070
     3
1000
790271
1002
}
  0
ARC
  5
1CE
330
19C
100
AcDbEntity
  8
M-PIPE
100
AcDbCircle
 10
798.2855994030569
 20
1834.300737862373
 30
0.0
 40
6.949999999999914
100
AcDbArc
 50
169.9999999999979
 51
172.4832961696593
1001
REVIT
1002
{
1070
     3
1000
790271
1002
}
  0
ARC
  5
1CF
330
19C
100
AcDbEntity
  8
M-PIPE
100
AcDbCircle
 10
798.2855994030569
 20
1834.300737862373
 30
0.0
 40
6.949999999999927
100
AcDbArc
 50
187.5167038303388
 51
189.9999999999984
1001
REVIT
1002
{
1070
     3
1000
790271
1002
}
  0
ARC
  5
1D0
330
19C
100
AcDbEntity
  8
M-PIPE
100
AcDbCircle
 10
798.2855994030569
 20
1834.300737862373
 30
0.0
 40
6.949999999999965
100
AcDbArc
 50
199.999999999998
 51
202.5739540404325
1001
REVIT
1002
{
1070
     3
1000
790271
1002
}
  0
ARC
  5
1D1
330
19C
100
AcDbEntity
  8
M-PIPE
100
AcDbCircle
 10
798.2855994030569
 20
1834.300737862373
 30
0.0
 40
6.950000000000003
100
AcDbArc
 50
217.61700747337
 51
219.9999999999992
1001
REVIT
1002
{
1070
     3
1000
790271
1002
}
  0
ARC
  5
1D2
330
19C
100
AcDbEntity
  8
M-PIPE
100
AcDbCircle
 10
798.2855994030569
 20
1834.300737862373
 30
0.0
 40
6.950000000000096
100
AcDbArc
 50
229.9999999999995
 51
232.3829925266299
1001
REVIT
1002
{
1070
     3
1000
790271
1002
}
  0
ARC
  5
1D3
330
19C
100
AcDbEntity
  8
M-PIPE
100
AcDbCircle
 10
798.2855994030569
 20
1834.300737862373
 30
0.0
 40
6.950000000000017
100
AcDbArc
 50
247.426045959566
 51
249.9999999999996
1001
REVIT
1002
{
1070
     3
1000
790271
1002
}
  0
ARC
  5
1D4
330
19C
100
AcDbEntity
  8
M-PIPE
100
AcDbCircle
 10
798.2855994030569
 20
1834.300737862373
 30
0.0
 40
6.950000000000025
100
AcDbArc
 50
259.9999999999995
 51
262.4832961696607
1001
REVIT
1002
{
1070
     3
1000
790271
1002
}
  0
SPLINE
  5
1D5
330
19C
100
AcDbEntity
  8
M-PIPE
100
AcDbSpline
210
0.0
220
0.0
230
1.0
 70
    24
 71
     3
 72
    10
 73
     6
 74
     0
 42
0.000000001
 43
0.0000000001
 40
-1.0
 40
-1.0
 40
-1.0
 40
-1.0
 40
-0.6666666666666666
 40
-0.3333333333333333
 40
0.0
 40
0.0
 40
0.0
 40
0.0
 10
798.2855994030569
 20
1842.383641631031
 30
0.0
 10
797.4917608355317
 20
1841.925318720377
 30
0.0
 10
795.9153811958383
 20
1841.015195511055
 30
0.0
 10
793.6325186998158
 20
1839.697184234453
 30
0.0
 10
792.0694527232519
 20
1838.794747672123
 30
0.0
 10
791.2855994030734
 20
1838.342189746713
 30
0.0
1001
REVIT
1002
{
1070
     3
1000
790271
1002
}
  0
SPLINE
  5
1D6
330
19C
100
AcDbEntity
  8
M-PIPE
100
AcDbSpline
210
0.0
220
0.0
230
1.0
 70
    24
 71
     3
 72
    10
 73
     6
 74
     0
 42
0.000000001
 43
0.0000000001
 40
-1.0
 40
-1.0
 40
-1.0
 40
-1.0
 40
-0.6666666666666666
 40
-0.3333333333333333
 40
0.0
 40
0.0
 40
0.0
 40
0.0
 10
791.2855994030734
 20
1838.342189746713
 30
0.0
 10
791.2855994030734
 20
1837.437073895891
 30
0.0
 10
791.2855994030734
 20
1835.632200771227
 30
0.0
 10
791.2855994030734
 20
1832.996178218017
 30
0.0
 10
791.2855994030734
 20
1831.175931799368
 30
0.0
 10
791.2855994030734
 20
1830.259285978058
 30
0.0
1001
REVIT
1002
{
1070
     3
1000
790271
1002
}
  0
SPLINE
  5
1D7
330
19C
100
AcDbEntity
  8
M-PIPE
100
AcDbSpline
210
0.0
220
0.0
230
1.0
 70
    24
 71
     3
 72
    10
 73
     6
 74
     0
 42
0.000000001
 43
0.0000000001
 40
-1.0
 40
-1.0
 40
-1.0
 40
-1.0
 40
-0.6666666666666666
 40
-0.3333333333333333
 40
0.0
 40
0.0
 40
0.0
 40
0.0
 10
791.2855994030734
 20
1830.259285978058
 30
0.0
 10
792.0694527232527
 20
1829.806728052648
 30
0.0
 10
793.6325186998187
 20
1828.904291490316
 30
0.0
 10
795.9153811958429
 20
1827.586280213713
 30
0.0
 10
797.4917608355389
 20
1826.67615700439
 30
0.0
 10
798.2855994030651
 20
1826.217834093736
 30
0.0
1001
REVIT
1002
{
1070
     3
1000
790271
1002
}
  0
SPLINE
  5
1D8
330
19C
100
AcDbEntity
  8
M-PIPE
100
AcDbSpline
210
0.0
220
0.0
230
1.0
 70
    24
 71
     3
 72
    10
 73
     6
 74
     0
 42
0.000000001
 43
0.0000000001
 40
-1.0
 40
-1.0
 40
-1.0
 40
-1.0
 40
-0.6666666666666666
 40
-0.3333333333333333
 40
0.0
 40
0.0
 40
0.0
 40
0.0
 10
798.2855994030569
 20
1826.217834093721
 30
0.0
 10
799.0794379705861
 20
1826.676157004377
 30
0.0
 10
800.6558176102872
 20
1827.586280213704
 30
0.0
 10
802.9386801063214
 20
1828.904291490312
 30
0.0
 10
804.5017460828923
 20
1829.806728052647
 30
0.0
 10
805.2855994030736
 20
1830.259285978058
 30
0.0
1001
REVIT
1002
{
1070
     3
1000
790271
1002
}
  0
SPLINE
  5
1D9
330
19C
100
AcDbEntity
  8
M-PIPE
100
AcDbSpline
210
0.0
220
0.0
230
1.0
 70
    24
 71
     3
 72
    10
 73
     6
 74
     0
 42
0.000000001
 43
0.0000000001
 40
-1.0
 40
-1.0
 40
-1.0
 40
-1.0
 40
-0.6666666666666666
 40
-0.3333333333333333
 40
0.0
 40
0.0
 40
0.0
 40
0.0
 10
805.2855994030736
 20
1830.259285978058
 30
0.0
 10
805.2855994030736
 20
1831.16440182888
 30
0.0
 10
805.2855994030736
 20
1832.969274953546
 30
0.0
 10
805.2855994030736
 20
1835.605297506755
 30
0.0
 10
805.2855994030736
 20
1837.425543925403
 30
0.0
 10
805.2855994030736
 20
1838.342189746713
 30
0.0
1001
REVIT
1002
{
1070
     3
1000
790271
1002
}
  0
SPLINE
  5
1DA
330
19C
100
AcDbEntity
  8
M-PIPE
100
AcDbSpline
210
0.0
220
0.0
230
1.0
 70
    24
 71
     3
 72
    10
 73
     6
 74
     0
 42
0.000000001
 43
0.0000000001
 40
-1.0
 40
-1.0
 40
-1.0
 40
-1.0
 40
-0.6666666666666666
 40
-0.3333333333333333
 40
0.0
 40
0.0
 40
0.0
 40
0.0
 10
805.2855994030736
 20
1838.342189746713
 30
0.0
 10
804.501746082893
 20
1838.794747672124
 30
0.0
 10
802.9386801063241
 20
1839.697184234458
 30
0.0
 10
800.655817610292
 20
1841.015195511065
 30
0.0
 10
799.079437970593
 20
1841.925318720389
 30
0.0
 10
798.2855994030654
 20
1842.383641631045
 30
0.0
1001
REVIT
1002
{
1070
     3
1000
790271
1002
}
  0
ARC
  5
1DB
330
19C
100
AcDbEntity
  8
M-PIPE
100
AcDbCircle
 10
798.2855994030573
 20
1834.300737862373
 30
0.0
 40
6.250000000000111
100
AcDbArc
 50
90.0
 51
269.9999999999997
1001
REVIT
1002
{
1070
     3
1000
790271
1002
}
  0
ARC
  5
1DC
330
19C
100
AcDbEntity
  8
M-PIPE
100
AcDbCircle
 10
798.2855994030573
 20
1834.300737862373
 30
0.0
 40
6.249999999999886
100
AcDbArc
 50
269.9999999999997
 51
90.0
1001
REVIT
1002
{
1070
     3
1000
790271
1002
}
  0
ARC
  5
1DD
330
19C
100
AcDbEntity
  8
M-PIPE
100
AcDbCircle
 10
798.2855994030573
 20
1834.300737862373
 30
0.0
 40
6.750000000000111
100
AcDbArc
 50
90.0
 51
269.9999999999997
1001
REVIT
1002
{
1070
     3
1000
790271
1002
}
  0
ARC
  5
1DE
330
19C
100
AcDbEntity
  8
M-PIPE
100
AcDbCircle
 10
798.2855994030573
 20
1834.300737862373
 30
0.0
 40
6.749999999999886
100
AcDbArc
 50
270.0000000000006
 51
90.0
1001
REVIT
1002
{
1070
     3
1000
790271
1002
}
  0
ARC
  5
1DF
330
19C
100
AcDbEntity
  8
M-PIPE
100
AcDbCircle
 10
798.2855994030569
 20
1834.300737862373
 30
0.0
 40
6.749999999999973
100
AcDbArc
 50
97.51670383033749
 51
99.99999999999921
1001
REVIT
1002
{
1070
     3
1000
790271
1002
}
  0
ARC
  5
1E0
330
19C
100
AcDbEntity
  8
M-PIPE
100
AcDbCircle
 10
798.2855994030569
 20
1834.300737862373
 30
0.0
 40
6.749999999999943
100
AcDbArc
 50
109.9999999999992
 51
112.5739540404341
1001
REVIT
1002
{
1070
     3
1000
790271
1002
}
  0
ARC
  5
1E1
330
19C
100
AcDbEntity
  8
M-PIPE
100
AcDbCircle
 10
798.2855994030569
 20
1834.300737862373
 30
0.0
 40
6.749999999999968
100
AcDbArc
 50
127.6170074733698
 51
129.9999999999988
1001
REVIT
1002
{
1070
     3
1000
790271
1002
}
  0
ARC
  5
1E2
330
19C
100
AcDbEntity
  8
M-PIPE
100
AcDbCircle
 10
798.2855994030569
 20
1834.300737862373
 30
0.0
 40
6.749999999999943
100
AcDbArc
 50
139.9999999999999
 51
142.3829925266273
1001
REVIT
1002
{
1070
     3
1000
790271
1002
}
  0
ARC
  5
1E3
330
19C
100
AcDbEntity
  8
M-PIPE
100
AcDbCircle
 10
798.2855994030569
 20
1834.300737862373
 30
0.0
 40
6.749999999999894
100
AcDbArc
 50
157.4260459595635
 51
159.9999999999987
1001
REVIT
1002
{
1070
     3
1000
790271
1002
}
  0
ARC
  5
1E4
330
19C
100
AcDbEntity
  8
M-PIPE
100
AcDbCircle
 10
798.2855994030569
 20
1834.300737862373
 30
0.0
 40
6.74999999999994
100
AcDbArc
 50
170.0000000000011
 51
172.483296169659
1001
REVIT
1002
{
1070
     3
1000
790271
1002
}
  0
ARC
  5
1E5
330
19C
100
AcDbEntity
  8
M-PIPE
100
AcDbCircle
 10
798.2855994030569
 20
1834.300737862373
 30
0.0
 40
6.750000000000003
100
AcDbArc
 50
187.5167038303386
 51
190.0000000000004
1001
REVIT
1002
{
1070
     3
1000
790271
1002
}
  0
ARC
  5
1E6
330
19C
100
AcDbEntity
  8
M-PIPE
100
AcDbCircle
 10
798.2855994030569
 20
1834.300737862373
 30
0.0
 40
6.749999999999983
100
AcDbArc
 50
199.999999999999
 51
202.5739540404336
1001
REVIT
1002
{
1070
     3
1000
790271
1002
}
  0
ARC
  5
1E7
330
19C
100
AcDbEntity
  8
M-PIPE
100
AcDbCircle
 10
798.2855994030569
 20
1834.300737862373
 30
0.0
 40
6.750000000000105
100
AcDbArc
 50
217.6170074733706
 51
220.0000000000007
1001
REVIT
1002
{
1070
     3
1000
790271
1002
}
  0
ARC
  5
1E8
330
19C
100
AcDbEntity
  8
M-PIPE
100
AcDbCircle
 10
798.2855994030569
 20
1834.300737862373
 30
0.0
 40
6.750000000000031
100
AcDbArc
 50
229.9999999999999
 51
232.3829925266281
1001
REVIT
1002
{
1070
     3
1000
790271
1002
}
  0
ARC
  5
1E9
330
19C
100
AcDbEntity
  8
M-PIPE
100
AcDbCircle
 10
798.2855994030569
 20
1834.300737862373
 30
0.0
 40
6.750000000000059
100
AcDbArc
 50
247.4260459595658
 51
250.0000000000005
1001
REVIT
1002
{
1070
     3
1000
790271
1002
}
  0
ARC
  5
1EA
330
19C
100
AcDbEntity
  8
M-PIPE
100
AcDbCircle
 10
798.2855994030569
 20
1834.300737862373
 30
0.0
 40
6.750000000000052
100
AcDbArc
 50
260.0000000000004
 51
262.4832961696612
1001
REVIT
1002
{
1070
     3
1000
790271
1002
}
  0
ARC
  5
1EB
330
19C
100
AcDbEntity
  8
M-PIPE
100
AcDbCircle
 10
798.2855994030569
 20
1834.300737862373
 30
0.0
 40
6.750000000000031
100
AcDbArc
 50
277.5167038303409
 51
280.0000000000007
1001
REVIT
1002
{
1070
     3
1000
790271
1002
}
  0
ARC
  5
1EC
330
19C
100
AcDbEntity
  8
M-PIPE
100
AcDbCircle
 10
798.2855994030569
 20
1834.300737862373
 30
0.0
 40
6.750000000000236
100
AcDbArc
 50
289.9999999999995
 51
292.573954040436
1001
REVIT
1002
{
1070
     3
1000
790271
1002
}
  0
ARC
  5
1ED
330
19C
100
AcDbEntity
  8
M-PIPE
100
AcDbCircle
 10
798.2855994030569
 20
1834.300737862373
 30
0.0
 40
6.750000000000245
100
AcDbArc
 50
307.6170074733714
 51
309.9999999999988
1001
REVIT
1002
{
1070
     3
1000
790271
1002
}
  0
ARC
  5
1EE
330
19C
100
AcDbEntity
  8
M-PIPE
100
AcDbCircle
 10
798.2855994030569
 20
1834.300737862373
 30
0.0
 40
6.750000000000102
100
AcDbArc
 50
319.9999999999996
 51
322.3829925266297
1001
REVIT
1002
{
1070
     3
1000
790271
1002
}
  0
ARC
  5
1EF
330
19C
100
AcDbEntity
  8
M-PIPE
100
AcDbCircle
 10
798.2855994030569
 20
1834.300737862373
 30
0.0
 40
6.750000000000102
100
AcDbArc
 50
337.4260459595654
 51
340.0000000000006
1001
REVIT
1002
{
1070
     3
1000
790271
1002
}
  0
ARC
  5
1F0
330
19C
100
AcDbEntity
  8
M-PIPE
100
AcDbCircle
 10
798.2855994030569
 20
1834.300737862373
 30
0.0
 40
6.750000000000202
100
AcDbArc
 50
349.9999999999985
 51
352.4832961696603
1001
REVIT
1002
{
1070
     3
1000
790271
1002
}
  0
ARC
  5
1F1
330
19C
100
AcDbEntity
  8
M-PIPE
100
AcDbCircle
 10
798.2855994030569
 20
1834.300737862373
 30
0.0
 40
6.750000000000003
100
AcDbArc
 50
7.516703830341238
 51
9.999999999998983
1001
REVIT
1002
{
1070
     3
1000
790271
1002
}
  0
ARC
  5
1F2
330
19C
100
AcDbEntity
  8
M-PIPE
100
AcDbCircle
 10
798.2855994030569
 20
1834.300737862373
 30
0.0
 40
6.750000000000157
100
AcDbArc
 50
19.99999999999817
 51
22.57395404043711
1001
REVIT
1002
{
1070
     3
1000
790271
1002
}
  0
ARC
  5
1F3
330
19C
100
AcDbEntity
  8
M-PIPE
100
AcDbCircle
 10
798.2855994030569
 20
1834.300737862373
 30
0.0
 40
6.750000000000105
100
AcDbArc
 50
37.61700747337096
 51
40.00000000000048
1001
REVIT
1002
{
1070
     3
1000
790271
1002
}
  0
ARC
  5
1F4
330
19C
100
AcDbEntity
  8
M-PIPE
100
AcDbCircle
 10
798.2855994030569
 20
1834.300737862373
 30
0.0
 40
6.750000000000016
100
AcDbArc
 50
49.9999999999995
 51
52.38299252662846
1001
REVIT
1002
{
1070
     3
1000
790271
1002
}
  0
ARC
  5
1F5
330
19C
100
AcDbEntity
  8
M-PIPE
100
AcDbCircle
 10
798.2855994030569
 20
1834.300737862373
 30
0.0
 40
6.749999999999982
100
AcDbArc
 50
67.42604595956297
 51
69.99999999999885
1001
REVIT
1002
{
1070
     3
1000
790271
1002
}
  0
ARC
  5
1F6
330
19C
100
AcDbEntity
  8
M-PIPE
100
AcDbCircle
 10
798.2855994030569
 20
1834.300737862373
 30
0.0
 40
6.749999999999978
100
AcDbArc
 50
79.99999999999879
 51
82.48329616965866
1001
REVIT
1002
{
1070
     3
1000
790271
1002
}
  0
LINE
  5
1F7
330
19C
100
AcDbEntity
  8
M-PIPE
100
AcDbLine
 10
778.9120266583396
 20
1827.350737862374
 30
0.0
 11
778.9988507471841
 21
1827.350737862374
 31
0.0
1001
REVIT
1002
{
1070
     3
1000
790271
1002
}
  0
LINE
  5
1F8
330
19C
100
AcDbEntity
  8
M-PIPE
100
AcDbLine
 10
778.9988507471852
 20
1841.250737862374
 30
0.0
 11
778.9120266583405
 21
1841.250737862374
 31
0.0
1001
REVIT
1002
{
1070
     3
1000
790271
1002
}
  0
LINE
  5
1F9
330
19C
100
AcDbEntity
  8
M-PIPE
100
AcDbLine
 10
779.2593230136847
 20
1827.350737862374
 30
0.0
 11
779.6066193690185
 21
1827.350737862374
 31
0.0
1001
REVIT
1002
{
1070
     3
1000
790271
1002
}
  0
LINE
  5
1FA
330
19C
100
AcDbEntity
  8
M-PIPE
100
AcDbLine
 10
779.6066193690193
 20
1841.250737862374
 30
0.0
 11
779.2593230136855
 21
1841.250737862374
 31
0.0
1001
REVIT
1002
{
1070
     3
1000
790271
1002
}
  0
LINE
  5
1FB
330
19C
100
AcDbEntity
  8
M-PIPE
100
AcDbLine
 10
777.6617597791488
 20
1827.550737862374
 30
0.0
 11
778.3563524898165
 21
1827.550737862374
 31
0.0
1001
REVIT
1002
{
1070
     3
1000
790271
1002
}
  0
LINE
  5
1FC
330
19C
100
AcDbEntity
  8
M-PIPE
100
AcDbLine
 10
778.3563524898177
 20
1841.050737862374
 30
0.0
 11
777.6617597791499
 21
1841.050737862374
 31
0.0
1001
REVIT
1002
{
1070
     3
1000
790271
1002
}
  0
LINE
  5
1FD
330
19C
100
AcDbEntity
  8
M-PIPE
100
AcDbLine
 10
778.6515543918505
 20
1827.550737862373
 30
0.0
 11
778.8252025695172
 21
1827.550737862373
 31
0.0
1001
REVIT
1002
{
1070
     3
1000
790271
1002
}
  0
LINE
  5
1FE
330
19C
100
AcDbEntity
  8
M-PIPE
100
AcDbLine
 10
778.8252025695184
 20
1841.050737862374
 30
0.0
 11
778.6515543918514
 21
1841.050737862374
 31
0.0
1001
REVIT
1002
{
1070
     3
1000
790271
1002
}
  0
ELLIPSE
  5
1FF
330
19C
100
AcDbEntity
  8
M-PIPE
100
AcDbEllipse
 10
778.9120266583389
 20
1834.300737862373
 30
0.0
 11
0.0000000000074264
 21
6.950000000000043
 31
0.0
210
0.0
220
0.0
230
1.0
 40
0.9848077530122047
 41
2.879793265791732
 42
3.14159265359087
1001
REVIT
1002
{
1070
     3
1000
790271
1002
}
  0
ELLIPSE
  5
200
330
19C
100
AcDbEntity
  8
M-PIPE
100
AcDbEllipse
 10
778.9120266583389
 20
1834.300737862373
 30
0.0
 11
0.0
 21
6.94999999999992
 31
0.0
210
0.0
220
0.0
230
1.0
 40
0.9848077530122163
 41
0.0000000000000016
 42
0.2617993877991493
1001
REVIT
1002
{
1070
     3
1000
790271
1002
}
  0
ELLIPSE
  5
201
330
19C
100
AcDbEntity
  8
M-PIPE
100
AcDbEllipse
 10
778.9120266583389
 20
1834.300737862373
 30
0.0
 11
0.0
 21
6.949999999999817
 31
0.0
210
0.0
220
0.0
230
1.0
 40
0.9848077530122203
 41
5.920053221601785
 42
6.283185307179588
1001
REVIT
1002
{
1070
     3
1000
790271
1002
}
  0
ELLIPSE
  5
202
330
19C
100
AcDbEntity
  8
M-PIPE
100
AcDbEllipse
 10
778.9120266583389
 20
1834.300737862373
 30
0.0
 11
0.0
 21
6.950000000000047
 31
0.0
210
0.0
220
0.0
230
0.9999999999999998
 40
0.9848077530121999
 41
5.759586531581282
 42
5.890486225480869
1001
REVIT
1002
{
1070
     3
1000
790271
1002
}
  0
ELLIPSE
  5
203
330
19C
100
AcDbEntity
  8
M-PIPE
100
AcDbEllipse
 10
778.9120266583389
 20
1834.300737862373
 30
0.0
 11
0.0
 21
6.949999999999855
 31
0.0
210
0.0
220
0.0
230
0.9999999999999998
 40
0.9848077530122175
 41
3.680458921033573
 42
5.744319039735763
1001
REVIT
1002
{
1070
     3
1000
790271
1002
}
  0
ELLIPSE
  5
204
330
19C
100
AcDbEntity
  8
M-PIPE
100
AcDbEllipse
 10
778.9120266583389
 20
1834.300737862373
 30
0.0
 11
0.0
 21
6.950000000000067
 31
0.0
210
0.0
220
0.0
230
1.0
 40
0.9848077530121909
 41
3.534291735288515
 42
3.665191429188088
1001
REVIT
1002
{
1070
     3
1000
790271
1002
}
  0
ELLIPSE
  5
205
330
19C
100
AcDbEntity
  8
M-PIPE
100
AcDbEllipse
 10
778.9120266583389
 20
1834.300737862373
 30
0.0
 11
0.0
 21
6.950000000000008
 31
0.0
210
0.0
220
0.0
230
1.0
 40
0.9848077530122132
 41
3.141592653589805
 42
3.504724739167576
1001
REVIT
1002
{
1070
     3
1000
790271
1002
}
  0
ELLIPSE
  5
206
330
19C
100
AcDbEntity
  8
M-PIPE
100
AcDbEllipse
 10
778.9988507471832
 20
1834.300737862373
 30
0.0
 11
0.0
 21
6.949999999999972
 31
0.0
210
0.0
220
0.0
230
1.0
 40
0.9848077530122086
 41
0.1439412578532782
 42
0.1745329251994336
1001
REVIT
1002
{
1070
     3
1000
790271
1002
}
  0
ELLIPSE
  5
207
330
19C
100
AcDbEntity
  8
M-PIPE
100
AcDbEllipse
 10
778.9988507471832
 20
1834.300737862373
 30
0.0
 11
0.0
 21
6.950000000000136
 31
0.0
210
0.0
220
0.0
230
0.9999999999999998
 40
0.9848077530121843
 41
2.967059728390341
 42
2.997651395736546
1001
REVIT
1002
{
1070
     3
1000
790271
1002
}
  0
ELLIPSE
  5
208
330
19C
100
AcDbEntity
  8
M-PIPE
100
AcDbEllipse
 10
778.9988507471832
 20
1834.300737862373
 30
0.0
 11
0.0
 21
6.949999999999905
 31
0.0
210
0.0
220
0.0
230
0.9999999999999998
 40
0.9848077530122278
 41
3.486782049766965
 42
3.490658503988637
1001
REVIT
1002
{
1070
     3
1000
790271
1002
}
  0
ELLIPSE
  5
209
330
19C
100
AcDbEntity
  8
M-PIPE
100
AcDbEllipse
 10
778.9988507471832
 20
1834.300737862373
 30
0.0
 11
0.0
 21
6.949999999999937
 31
0.0
210
0.0
220
0.0
230
0.9999999999999998
 40
0.9848077530122175
 41
3.915893525534249
 42
3.923180680945835
1001
REVIT
1002
{
1070
     3
1000
790271
1002
}
  0
ELLIPSE
  5
20A
330
19C
100
AcDbEntity
  8
M-PIPE
100
AcDbEllipse
 10
778.9988507471832
 20
1834.300737862373
 30
0.0
 11
0.0
 21
6.949999999999847
 31
0.0
210
0.0
220
0.0
230
0.9999999999999998
 40
0.9848077530122257
 41
4.014257279586947
 42
5.410520681182421
1001
REVIT
1002
{
1070
     3
1000
790271
1002
}
  0
ELLIPSE
  5
20B
330
19C
100
AcDbEntity
  8
M-PIPE
100
AcDbEllipse
 10
778.9988507471832
 20
1834.300737862373
 30
0.0
 11
0.0
 21
6.949999999999683
 31
0.0
210
0.0
220
0.0
230
1.0
 40
0.9848077530122576
 41
5.50159727982353
 42
5.508884435235117
1001
REVIT
1002
{
1070
     3
1000
790271
1002
}
  0
ELLIPSE
  5
20C
330
19C
100
AcDbEntity
  8
M-PIPE
100
AcDbEllipse
 10
778.9988507471832
 20
1834.300737862373
 30
0.0
 11
0.0
 21
6.94999999999978
 31
0.0
210
0.0
220
0.0
230
1.0
 40
0.9848077530122465
 41
5.934119456780726
 42
5.93799591100241
1001
REVIT
1002
{
1070
     3
1000
790271
1002
}
  0
ELLIPSE
  5
20D
330
19C
100
AcDbEntity
  8
M-PIPE
100
AcDbEllipse
 10
779.2593230136838
 20
1834.300737862373
 30
0.0
 11
0.0
 21
6.950000000000043
 31
0.0
210
0.0
220
0.0
230
1.0
 40
0.9848077530122047
 41
0.0000000000000016
 42
0.0382500813448554
1001
REVIT
1002
{
1070
     3
1000
790271
1002
}
  0
ELLIPSE
  5
20E
330
19C
100
AcDbEntity
  8
M-PIPE
100
AcDbEllipse
 10
779.2593230136838
 20
1834.300737862373
 30
0.0
 11
0.0
 21
6.949999999999858
 31
0.0
210
0.0
220
0.0
230
1.0
 40
0.9848077530122028
 41
3.103342572244933
 42
3.141592653589754
1001
REVIT
1002
{
1070
     3
1000
790271
1002
}
  0
ELLIPSE
  5
20F
330
19C
100
AcDbEntity
  8
M-PIPE
100
AcDbEllipse
 10
779.2593230136838
 20
1834.300737862373
 30
0.0
 11
0.0
 21
6.949999999999917
 31
0.0
210
0.0
220
0.0
230
1.0
 40
0.9848077530122152
 41
3.277875497444368
 42
6.146902463325027
1001
REVIT
1002
{
1070
     3
1000
790271
1002
}
  0
ELLIPSE
  5
210
330
19C
100
AcDbEntity
  8
M-PIPE
100
AcDbEllipse
 10
779.6066193690173
 20
1834.300737862373
 30
0.0
 11
0.0
 21
6.94999999999986
 31
0.0
210
0.0
220
0.0
230
1.0
 40
0.9848077530122347
 41
3.272492347489357
 42
4.188790204786391
1001
REVIT
1002
{
1070
     3
1000
790271
1002
}
  0
ELLIPSE
  5
211
330
19C
100
AcDbEntity
  8
M-PIPE
100
AcDbEllipse
 10
779.6066193690173
 20
1834.300737862373
 30
0.0
 11
0.0
 21
6.949999999999952
 31
0.0
210
0.0
220
0.0
230
1.0
 40
0.9848077530122296
 41
4.188790204786394
 42
5.235987755983003
1001
REVIT
1002
{
1070
     3
1000
790271
1002
}
  0
ELLIPSE
  5
212
330
19C
100
AcDbEntity
  8
M-PIPE
100
AcDbEllipse
 10
779.6066193690173
 20
1834.300737862373
 30
0.0
 11
0.0
 21
6.950000000000067
 31
0.0
210
0.0
220
0.0
230
1.0
 40
0.9848077530122052
 41
5.235987755982993
 42
6.152285613279995
1001
REVIT
1002
{
1070
     3
1000
790271
1002
}
  0
LINE
  5
213
330
19C
100
AcDbEntity
  8
M-PIPE
100
AcDbLine
 10
788.149931327955
 20
1838.342189746713
 30
0.0
 11
788.149931327955
 21
1830.259285978058
 31
0.0
1001
REVIT
1002
{
1070
     3
1000
790271
1002
}
  0
LINE
  5
214
330
19C
100
AcDbEntity
  8
M-PIPE
100
AcDbLine
 10
788.149931327955
 20
1830.259285978058
 30
0.0
 11
781.2562770568531
 21
1826.217834093721
 31
0.0
1001
REVIT
1002
{
1070
     3
1000
790271
1002
}
  0
LINE
  5
215
330
19C
100
AcDbEntity
  8
M-PIPE
100
AcDbLine
 10
781.2562770568614
 20
1842.383641631045
 30
0.0
 11
788.149931327955
 21
1838.342189746713
 31
0.0
1001
REVIT
1002
{
1070
     3
1000
790271
1002
}
  0
SPLINE
  5
216
330
19C
100
AcDbEntity
  8
M-PIPE
100
AcDbSpline
210
0.0
220
0.0
230
1.0
 70
     8
 71
     3
 72
     8
 73
     4
 74
     0
 42
0.000000001
 43
0.0000000001
 40
-1.0
 40
-1.0
 40
-1.0
 40
-1.0
 40
-0.6759934513337856
 40
-0.6759934513337856
 40
-0.6759934513337856
 40
-0.6759934513337856
 10
779.7201995677275
 20
1842.383641631031
 30
0.0
 10
778.9134746056265
 20
1841.938142757664
 30
0.0
 10
778.1271804776953
 20
1841.495725238575
 30
0.0
 10
777.368643737868
 20
1841.060614520818
 30
0.0
1001
REVIT
1002
{
1070
     3
1000
790271
1002
}
  0
SPLINE
  5
217
330
19C
100
AcDbEntity
  8
M-PIPE
100
AcDbSpline
210
0.0
220
0.0
230
1.0
 70
     8
 71
     3
 72
     8
 73
     4
 74
     0
 42
0.000000001
 43
0.0000000001
 40
-0.3240065486573664
 40
-0.3240065486573664
 40
-0.3240065486573664
 40
-0.3240065486573664
 40
0.0
 40
0.0
 40
0.0
 40
0.0
 10
777.3686437379327
 20
1827.540861203914
 30
0.0
 10
778.1271804777421
 20
1827.105750486168
 30
0.0
 10
778.9134746056539
 20
1826.663332967091
 30
0.0
 10
779.7201995677348
 20
1826.217834093736
 30
0.0
1001
REVIT
1002
{
1070
     3
1000
790271
1002
}
  0
SPLINE
  5
218
330
19C
100
AcDbEntity
  8
M-PIPE
100
AcDbSpline
210
0.0
220
0.0
230
1.0
 70
     8
 71
     3
 72
    10
 73
     6
 74
     0
 42
0.000000001
 43
0.0000000001
 40
-1.0
 40
-1.0
 40
-1.0
 40
-1.0
 40
-0.6666666666666666
 40
-0.3333333333333333
 40
0.0
 40
0.0
 40
0.0
 40
0.0
 10
779.7201995677269
 20
1826.217834093721
 30
0.0
 10
780.453809141666
 20
1826.676157004377
 30
0.0
 10
781.9420245655749
 20
1827.586280213704
 30
0.0
 10
784.1910262540895
 20
1828.904291490312
 30
0.0
 10
785.7941002990794
 20
1829.806728052646
 30
0.0
 10
786.6138538388297
 20
1830.259285978058
 30
0.0
1001
REVIT
1002
{
1070
     3
1000
790271
1002
}
  0
SPLINE
  5
219
330
19C
100
AcDbEntity
  8
M-PIPE
100
AcDbSpline
210
0.0
220
0.0
230
1.0
 70
     8
 71
     3
 72
    10
 73
     6
 74
     0
 42
0.000000001
 43
0.0000000001
 40
-1.0
 40
-1.0
 40
-1.0
 40
-1.0
 40
-0.6666666666666666
 40
-0.3333333333333333
 40
0.0
 40
0.0
 40
0.0
 40
0.0
 10
786.6138538388297
 20
1830.259285978058
 30
0.0
 10
786.5660451260191
 20
1831.16440182888
 30
0.0
 10
786.5022905732263
 20
1832.969274953546
 30
0.0
 10
786.5014695698683
 20
1835.605297506755
 30
0.0
 10
786.5656850368277
 20
1837.425543925403
 30
0.0
 10
786.6138538388312
 20
1838.342189746713
 30
0.0
1001
REVIT
1002
{
1070
     3
1000
790271
1002
}
  0
SPLINE
  5
21A
330
19C
100
AcDbEntity
  8
M-PIPE
100
AcDbSpline
210
0.0
220
0.0
230
1.0
 70
     8
 71
     3
 72
    10
 73
     6
 74
     0
 42
0.000000001
 43
0.0000000001
 40
-1.0
 40
-1.0
 40
-1.0
 40
-1.0
 40
-0.6666666666666666
 40
-0.3333333333333333
 40
0.0
 40
0.0
 40
0.0
 40
0.0
 10
786.6138538388312
 20
1838.342189746713
 30
0.0
 10
785.7941002990822
 20
1838.794747672124
 30
0.0
 10
784.1910262540939
 20
1839.697184234458
 30
0.0
 10
781.9420245655824
 20
1841.015195511065
 30
0.0
 10
780.4538091416747
 20
1841.925318720389
 30
0.0
 10
779.7201995677355
 20
1842.383641631045
 30
0.0
1001
REVIT
1002
{
1070
     3
1000
790271
1002
}
  0
LINE
  5
21B
330
19C
100
AcDbEntity
  8
M-PIPE
100
AcDbLine
 10
788.1499313279634
 20
1838.342189746713
 30
0.0
 11
786.6138538388312
 21
1838.342189746713
 31
0.0
1001
REVIT
1002
{
1070
     3
1000
790271
1002
}
  0
LINE
  5
21C
330
19C
100
AcDbEntity
  8
M-PIPE
100
AcDbLine
 10
786.6138538388297
 20
1830.259285978058
 30
0.0
 11
788.1499313279634
 21
1830.259285978058
 31
0.0
1001
REVIT
1002
{
1070
     3
1000
790271
1002
}
  0
LINE
  5
21D
330
19C
100
AcDbEntity
  8
M-PIPE
100
AcDbLine
 10
779.7201995677348
 20
1826.217834093736
 30
0.0
 11
781.2562770568777
 21
1826.217834093731
 31
0.0
1001
REVIT
1002
{
1070
     3
1000
790271
1002
}
  0
LINE
  5
21E
330
19C
100
AcDbEntity
  8
M-PIPE
100
AcDbLine
 10
779.7201995677355
 20
1842.383641631045
 30
0.0
 11
781.2562770568781
 21
1842.383641631039
 31
0.0
1001
REVIT
1002
{
1070
     3
1000
790271
1002
}
  0
ELLIPSE
  5
21F
330
19C
100
AcDbEntity
  8
M-PIPE
100
AcDbEllipse
 10
777.5749356903146
 20
1834.300737862373
 30
0.0
 11
0.0
 21
6.25
 31
0.0
210
0.0
220
0.0
230
1.0
 40
0.98480775301221
 41
0.0000000000000016
 42
3.14159265358977
1001
REVIT
1002
{
1070
     3
1000
790271
1002
}
  0
ELLIPSE
  5
220
330
19C
100
AcDbEntity
  8
M-PIPE
100
AcDbEllipse
 10
777.5749356903146
 20
1834.300737862373
 30
0.0
 11
0.0
 21
6.249999999999772
 31
0.0
210
0.0
220
0.0
230
1.0
 40
0.984807753012264
 41
3.141592653589788
 42
6.283185307179588
1001
REVIT
1002
{
1070
     3
1000
790271
1002
}
  0
ELLIPSE
  5
221
330
19C
100
AcDbEntity
  8
M-PIPE
100
AcDbEllipse
 10
777.6617597791479
 20
1834.300737862373
 30
0.0
 11
0.0
 21
6.75
 31
0.0
210
0.0
220
0.0
230
1.0
 40
0.9848077530122012
 41
0.0000000000000016
 42
3.141592653589788
1001
REVIT
1002
{
1070
     3
1000
790271
1002
}
  0
ELLIPSE
  5
222
330
19C
100
AcDbEntity
  8
M-PIPE
100
AcDbEllipse
 10
777.6617597791479
 20
1834.300737862373
 30
0.0
 11
0.0
 21
6.749999999999772
 31
0.0
210
0.0
220
0.0
230
1.0
 40
0.9848077530122512
 41
3.141592653589821
 42
6.283185307179588
1001
REVIT
1002
{
1070
     3
1000
790271
1002
}
  0
ELLIPSE
  5
223
330
19C
100
AcDbEntity
  8
M-PIPE
100
AcDbEllipse
 10
778.3563524898156
 20
1834.300737862373
 30
0.0
 11
0.0
 21
6.749999999999826
 31
0.0
210
0.0
220
0.0
230
1.0
 40
0.9848077530122319
 41
3.31612557878922
 42
6.108652381980156
1001
REVIT
1002
{
1070
     3
1000
790271
1002
}
  0
ELLIPSE
  5
224
330
19C
100
AcDbEntity
  8
M-PIPE
100
AcDbEllipse
 10
778.6515543918495
 20
1834.300737862373
 30
0.0
 11
0.0
 21
6.749999999999772
 31
0.0
210
0.0
220
0.0
230
1.0
 40
0.9848077530122679
 41
0.0000000000000016
 42
0.0184657541991695
1001
REVIT
1002
{
1070
     3
1000
790271
1002
}
  0
ELLIPSE
  5
225
330
19C
100
AcDbEntity
  8
M-PIPE
100
AcDbEllipse
 10
778.6515543918495
 20
1834.300737862373
 30
0.0
 11
0.0
 21
6.750000000000023
 31
0.0
210
0.0
220
0.0
230
1.0
 40
0.9848077530122182
 41
3.123126899390618
 42
3.141592653589788
1001
REVIT
1002
{
1070
     3
1000
790271
1002
}
  0
ELLIPSE
  5
226
330
19C
100
AcDbEntity
  8
M-PIPE
100
AcDbEllipse
 10
778.6515543918495
 20
1834.300737862373
 30
0.0
 11
0.0
 21
6.750000000000226
 31
0.0
210
0.0
220
0.0
230
1.0
 40
0.9848077530121749
 41
3.271491039422358
 42
3.316125578789217
1001
REVIT
1002
{
1070
     3
1000
790271
1002
}
  0
ELLIPSE
  5
227
330
19C
100
AcDbEntity
  8
M-PIPE
100
AcDbEllipse
 10
778.6515543918495
 20
1834.300737862373
 30
0.0
 11
0.0
 21
6.750000000000181
 31
0.0
210
0.0
220
0.0
230
1.0
 40
0.9848077530121779
 41
3.343203952875772
 42
6.081574007893588
1001
REVIT
1002
{
1070
     3
1000
790271
1002
}
  0
ELLIPSE
  5
228
330
19C
100
AcDbEntity
  8
M-PIPE
100
AcDbEllipse
 10
778.6515543918495
 20
1834.300737862373
 30
0.0
 11
0.0
 21
6.750000000000052
 31
0.0
210
0.0
220
0.0
230
1.0
 40
0.9848077530122159
 41
6.108652381980151
 42
6.153286921347009
1001
REVIT
1002
{
1070
     3
1000
790271
1002
}
  0
ELLIPSE
  5
229
330
19C
100
AcDbEntity
  8
M-PIPE
100
AcDbEllipse
 10
778.8252025695165
 20
1834.300737862373
 30
0.0
 11
0.0
 21
6.750000000000119
 31
0.0
210
0.0
220
0.0
230
1.0
 40
0.984807753012198
 41
3.49065850398864
 42
5.9341194567807
1001
REVIT
1002
{
1070
     3
1000
790271
1002
}
  0
ELLIPSE
  5
22A
330
19C
100
AcDbEntity
  8
M-PIPE
100
AcDbEllipse
 10
781.9855994030517
 20
1834.300737862373
 30
0.0
 11
0.0
 21
6.550000000000266
 31
0.0
210
0.0
220
0.0
230
0.9999999999999998
 40
0.9848077530121893
 41
4.425008298875308
 42
4.999769661891849
1001
REVIT
1002
{
1070
     3
1000
790271
1002
}
  0
LINE
  5
22B
330
19C
100
AcDbEntity
  8
P-SANR-FIXT
100
AcDbLine
 10
785.5974814985303
 20
1843.300737862373
 30
0.0
 11
781.9855994030581
 21
1843.300737862373
 31
0.0
  0
LINE
  5
22C
330
19C
100
AcDbEntity
  8
P-SANR-FIXT
100
AcDbLine
 10
781.985599403058
 20
1825.300737862373
 30
0.0
 11
785.5974814985301
 21
1825.300737862373
 31
0.0
  0
ELLIPSE
  5
22D
330
19C
100
AcDbEntity
  8
P-SANR-FIXT
100
AcDbEllipse
 10
781.9855994030567
 20
1834.300737862372
 30
0.0
 11
0.0
 21
8.999999999999845
 31
0.0
210
0.0
220
0.0
230
1.0
 40
0.9848077530122287
 41
5.130864781396987
 42
7.035102288651825
  0
ELLIPSE
  5
22E
330
19C
100
AcDbEntity
  8
P-SANR-FIXT
100
AcDbEllipse
 10
781.9855994030567
 20
1834.300737862372
 30
0.0
 11
0.0
 21
9.000000000000023
 31
0.0
210
0.0
220
0.0
230
1.0
 40
0.9848077530121978
 41
4.712388980384685
 42
4.974188368183841
  0
ELLIPSE
  5
22F
330
19C
100
AcDbEntity
  8
P-SANR-FIXT
100
AcDbEllipse
 10
781.9855994030567
 20
1834.300737862372
 30
0.0
 11
0.0
 21
8.999999999999772
 31
0.0
210
0.0
220
0.0
230
1.0
 40
0.9848077530122305
 41
4.450589592585544
 42
4.712388980384685
  0
ELLIPSE
  5
230
330
19C
100
AcDbEntity
  8
P-SANR-FIXT
100
AcDbEllipse
 10
781.9855994030567
 20
1834.300737862372
 30
0.0
 11
0.0
 21
9.000000000000042
 31
0.0
210
0.0
220
0.0
230
1.0
 40
0.9848077530121996
 41
2.389675672117554
 42
4.293913179372392
  0
ELLIPSE
  5
231
330
19C
100
AcDbEntity
  8
P-SANR-FIXT
100
AcDbEllipse
 10
785.5974814985287
 20
1834.300737862372
 30
0.0
 11
0.0
 21
9.000000000000072
 31
0.0
210
0.0
220
0.0
230
1.0
 40
0.9848077530122028
 41
5.497787143782124
 42
5.781215675527783
  0
ELLIPSE
  5
232
330
19C
100
AcDbEntity
  8
P-SANR-FIXT
100
AcDbEllipse
 10
785.5974814985287
 20
1834.300737862372
 30
0.0
 11
0.0
 21
9.000000000000115
 31
0.0
210
0.0
220
0.0
230
1.0
 40
0.984807753012199
 41
5.947144789633957
 42
6.027612261396976
  0
ELLIPSE
  5
233
330
19C
100
AcDbEntity
  8
P-SANR-FIXT
100
AcDbEllipse
 10
785.5974814985287
 20
1834.300737862372
 30
0.0
 11
0.0
 21
9.000000000000122
 31
0.0
210
0.0
220
0.0
230
1.0
 40
0.9848077530121898
 41
3.397165699372383
 42
3.477633171135416
  0
ELLIPSE
  5
234
330
19C
100
AcDbEntity
  8
P-SANR-FIXT
100
AcDbEllipse
 10
785.5974814985287
 20
1834.300737862372
 30
0.0
 11
0.0
 21
9.000000000000005
 31
0.0
210
0.0
220
0.0
230
1.0
 40
0.9848077530121976
 41
3.643562285241553
 42
3.926990816987238
  0
LINE
  5
235
330
19C
100
AcDbEntity
  8
P-SANR-FIXT
100
AcDbLine
 10
833.4855994030583
 20
1848.800737862373
 30
0.0
 11
830.4450402439561
 21
1848.800737862373
 31
0.0
  0
LINE
  5
236
330
19C
100
AcDbEntity
  8
P-SANR-FIXT
100
AcDbLine
 10
830.4450402439561
 20
1819.800737862373
 30
0.0
 11
833.4855994030583
 21
1819.800737862374
 31
0.0
  0
LINE
  5
237
330
19C
100
AcDbEntity
  8
P-SANR-FIXT
100
AcDbLine
 10
825.6639652895469
 20
1847.127765755094
 30
0.0
 11
825.0706322502505
 21
1846.685454448449
 31
0.0
  0
LINE
  5
238
330
19C
100
AcDbEntity
  8
P-SANR-FIXT
100
AcDbLine
 10
825.0706322502505
 20
1821.916021276297
 30
0.0
 11
825.6639652895469
 21
1821.473709969652
 31
0.0
  0
LINE
  5
239
330
19C
100
AcDbEntity
  8
P-SANR-FIXT
100
AcDbLine
 10
827.8223308235093
 20
1848.300737862373
 30
0.0
 11
825.3029176360628
 21
1848.300737862373
 31
0.0
  0
LINE
  5
23A
330
19C
100
AcDbEntity
  8
P-SANR-FIXT
100
AcDbLine
 10
825.3029176360632
 20
1820.300737862373
 30
0.0
 11
827.8223308235091
 21
1820.300737862373
 31
0.0
  0
LWPOLYLINE
  5
23B
330
19C
100
AcDbEntity
  8
P-SANR-FIXT
100
AcDbPolyline
 90
       26
 70
   128
 43
0.0
 10
825.3029176360628
 20
1848.300737862373
 10
824.8505802949699
 20
1848.287943401794
 10
824.399504408433
 20
1848.249626147721
 10
823.9509290697071
 20
1848.185981933307
 10
823.5060501550384
 20
1848.097328892411
 10
823.0660022930283
 20
1847.984095895487
 10
822.6318446417749
 20
1847.846807865352
 10
822.2045510304399
 20
1847.686069204169
 10
821.7850045782649
 20
1847.502546591081
 10
821.3739965082151
 20
1847.296952292096
 10
820.9722285710501
 20
1847.070028900308
 10
820.5803183108677
 20
1846.822536145233
 10
820.1988063338614
 20
1846.555240122842
 10
819.828164769695
 20
1846.26890504037
 10
819.4688062116874
 20
1845.96428736526
 10
819.1210925582746
 20
1845.642132125007
 10
818.785343327881
 20
1845.30317102197
 10
818.46184316278
 20
1844.948121995507
 10
818.1508483623845
 20
1844.577689870364
 10
817.8525923866107
 20
1844.192567762424
 10
817.5672903444155
 20
1843.7934389594
 10
817.2951425333444
 20
1843.380979045982
 10
817.0363371266969
 20
1842.955858094154
 10
816.7910521200777
 20
1842.518742786065
 10
816.5594566528813
 20
1842.070298376862
 10
816.364843253816
 20
1841.661893332279
  0
LWPOLYLINE
  5
23C
330
19C
100
AcDbEntity
  8
P-SANR-FIXT
100
AcDbPolyline
 90
       26
 70
   128
 43
0.0
 10
816.3648432538158
 20
1826.939582392468
 10
816.5841102837646
 20
1826.481608069538
 10
816.8172107054802
 20
1826.034370120984
 10
817.0639825736232
 20
1825.598534006174
 10
817.3242558280415
 20
1825.17476504709
 10
817.5978514348187
 20
1824.763730197483
 10
817.8845800019953
 20
1824.366100026651
 10
818.1842397576621
 20
1823.982550854844
 10
818.4966137748727
 20
1823.613766943709
 10
818.8214663326156
 20
1823.260442604327
 10
819.1585383187867
 20
1822.923284038142
 10
819.5075416138051
 20
1822.603010674553
 10
819.8681524467202
 20
1822.300355717275
 10
820.2400037928422
 20
1822.01606556617
 10
820.6226769849816
 20
1821.750897751297
 10
821.0156928376571
 20
1821.505617012892
 10
821.4185027284896
 20
1821.280989197724
 10
821.8304802303038
 20
1821.077772731114
 10
822.2509140207545
 20
1820.896707573448
 10
822.6790028870146
 20
1820.738501781096
 10
823.1138536613682
 20
1820.603816053858
 10
823.5544828422776
 20
1820.493246939455
 10
823.9998224576613
 20
1820.407309641181
 10
824.4487304138742
 20
1820.346421589261
 10
824.9000051701449
 20
1820.310888039897
 10
825.3029176360632
 20
1820.300737862373
  0
LINE
  5
23D
330
19C
100
AcDbEntity
  8
P-SANR-FIXT
100
AcDbLine
 10
816.364843253816
 20
1841.661893332279
 30
0.0
 11
816.1698184348987
 21
1841.236454367808
 31
0.0
  0
LINE
  5
23E
330
19C
100
AcDbEntity
  8
P-SANR-FIXT
100
AcDbLine
 10
816.1698184348987
 20
1827.365021356938
 30
0.0
 11
816.3648432538158
 21
1826.939582392468
 31
0.0
  0
LINE
  5
23F
330
19C
100
AcDbEntity
  8
P-SANR-FIXT
100
AcDbLine
 10
820.9873592861598
 20
1847.050737862373
 30
0.0
 11
808.5247300271728
 21
1847.050737862373
 31
0.0
  0
LINE
  5
240
330
19C
100
AcDbEntity
  8
P-SANR-FIXT
100
AcDbLine
 10
808.5247300271733
 20
1821.550737862373
 30
0.0
 11
821.0611230668574
 21
1821.550737862373
 31
0.0
  0
LWPOLYLINE
  5
241
330
19C
100
AcDbEntity
  8
P-SANR-FIXT
100
AcDbPolyline
 90
       22
 70
   128
 43
0.0
 10
808.5247300271728
 20
1847.050737862373
 10
808.107738597803
 20
1847.038943268468
 10
807.6919520770706
 20
1847.003624014843
 10
807.2785531027735
 20
1846.944971138489
 10
806.8686812764775
 20
1846.863294788191
 10
806.4634152229121
 20
1846.759012673185
 10
806.0637584567006
 20
1846.632635396786
 10
805.6706296129485
 20
1846.48474990628
 10
805.2848571545577
 20
1846.316002318478
 10
804.9071782733077
 20
1846.127081262499
 10
804.5382414003663
 20
1845.918702657804
 10
804.1786115571317
 20
1845.691596566208
 10
803.8287777080167
 20
1845.446496469369
 10
803.4891613044377
 20
1845.184131065773
 10
803.1601253060754
 20
1844.905218476494
 10
802.8419831017394
 20
1844.61046260637
 10
802.5350069018426
 20
1844.300551324615
 10
802.2394353179477
 20
1843.976156097069
 10
801.9554799696965
 20
1843.637932708938
 10
801.6833310596489
 20
1843.286522748997
 10
801.4231619310264
 20
1842.922555572716
 10
801.3221905301152
 20
1842.773149147825
  0
LWPOLYLINE
  5
242
330
19C
100
AcDbEntity
  8
P-SANR-FIXT
100
AcDbPolyline
 90
       22
 70
   128
 43
0.0
 10
801.3221905301152
 20
1825.828326576921
 10
801.5775079620016
 20
1825.459496243232
 10
801.8448708199942
 20
1825.102973585325
 10
802.1241114605484
 20
1824.759383665094
 10
802.4150469369486
 20
1824.429362909203
 10
802.7174748332651
 20
1824.113561196591
 10
803.0311681026962
 20
1823.812643565872
 10
803.3558688722926
 20
1823.527291280692
 10
803.6912812406344
 20
1823.258201941477
 10
804.0370631848201
 20
1823.006088292947
 10
804.3928178085291
 20
1822.771675358358
 10
804.7580842999883
 20
1822.555695546331
 10
805.1323291178231
 20
1822.358881436887
 10
805.5149380672082
 20
1822.18195607126
 10
805.9052100448283
 20
1822.025620750168
 10
806.3023532901626
 20
1821.890540583569
 10
806.7054849531082
 20
1821.777328313939
 10
807.1136346508406
 20
1821.686527222889
 10
807.525752430916
 20
1821.618594183017
 10
807.9407211954265
 20
1821.573884082718
 10
808.357373209537
 20
1821.552636885865
 10
808.5247300271733
 20
1821.550737862373
  0
LWPOLYLINE
  5
243
330
19C
100
AcDbEntity
  8
P-SANR-FIXT
100
AcDbPolyline
 90
       10
 70
   128
 43
0.0
 10
791.8569197466178
 20
1841.929417518812
 10
791.9434467647661
 20
1841.846284160691
 10
792.033229018169
 20
1841.766677458232
 10
792.1261228743733
 20
1841.69072476518
 10
792.2219797230257
 20
1841.618547589641
 10
792.3206462136167
 20
1841.550261399699
 10
792.4219645008093
 20
1841.48597543869
 10
792.5257724969569
 20
1841.425792550439
 10
792.6319041314103
 20
1841.369809014729
 10
792.6926141761992
 20
1841.340826526539
  0
LWPOLYLINE
  5
244
330
19C
100
AcDbEntity
  8
P-SANR-FIXT
100
AcDbPolyline
 90
       10
 70
   128
 43
0.0
 10
792.6922677615127
 20
1827.260952995734
 10
792.5929025635529
 20
1827.211722630711
 10
792.4875996766462
 20
1827.154195401406
 10
792.3846814964148
 20
1827.092503195413
 10
792.2843126699922
 20
1827.026744707103
 10
792.1866537660902
 20
1826.957025136026
 10
792.0918610181217
 20
1826.883456018626
 10
792.0000860742629
 20
1826.806155049796
 10
791.9114757548457
 20
1826.725245894596
 10
791.8569197466174
 20
1826.672058205932
  0
LINE
  5
245
330
19C
100
AcDbEntity
  8
P-SANR-FIXT
100
AcDbLine
 10
791.8569197466178
 20
1841.929417518812
 30
0.0
 11
789.8896123443161
 21
1843.896724921116
 31
0.0
  0
LINE
  5
246
330
19C
100
AcDbEntity
  8
P-SANR-FIXT
100
AcDbLine
 10
789.889612344316
 20
1824.704750803631
 30
0.0
 11
791.8569197466174
 21
1826.672058205932
 31
0.0
  0
LWPOLYLINE
  5
247
330
19C
100
AcDbEntity
  8
P-SANR-FIXT
100
AcDbPolyline
 90
       21
 70
   128
 43
0.0
 10
788.9142388221571
 20
1844.300737862373
 10
788.969399568415
 20
1844.299634500329
 10
789.0244720692463
 20
1844.296326179341
 10
789.0793682203971
 20
1844.290818192017
 10
789.1340001997365
 20
1844.283119349961
 10
789.1882806077517
 20
1844.273241969678
 10
789.2421226073691
 20
1844.26120185287
 10
789.2954400628751
 20
1844.247018261155
 10
789.3481476777147
 20
1844.230713885255
 10
789.4001611309472
 20
1844.212314808693
 10
789.4513972121436
 20
1844.191850466065
 10
789.5017739545039
 20
1844.169353595956
 10
789.5512107659867
 20
1844.144860188558
 10
789.5996285582392
 20
1844.118409428096
 10
789.6469498731228
 20
1844.090043630149
 10
789.6930990066282
 20
1844.059808173938
 10
789.7380021299864
 20
1844.027751429746
 10
789.7815874077791
 20
1843.993924681524
 10
789.8237851128588
 20
1843.958382044852
 10
789.8645277379
 20
1843.92118038037
 10
789.8896123443161
 20
1843.896724921116
  0
LWPOLYLINE
  5
248
330
19C
100
AcDbEntity
  8
P-SANR-FIXT
100
AcDbPolyline
 90
       21
 70
   128
 43
0.0
 10
789.889612344316
 20
1824.704750803631
 10
789.849827611798
 20
1824.66652646068
 10
789.8085461367982
 20
1824.629923658091
 10
789.7658339608708
 20
1824.595000952539
 10
789.721759414385
 20
1824.561814212903
 10
789.6763930072137
 20
1824.530416530888
 10
789.6298073159305
 20
1824.500858136087
 10
789.5820768677037
 20
1824.473186315627
 10
789.5332780210684
 20
1824.447445338515
 10
789.4834888437697
 20
1824.423676384827
 10
789.4327889878699
 20
1824.401917479815
 10
789.3812595623232
 20
1824.382203433088
 10
789.3289830032178
 20
1824.364565782914
 10
789.2760429418967
 20
1824.349032745772
 10
789.222524071165
 20
1824.335629171206
 10
789.168512009799
 20
1824.324376502077
 10
789.1140931655743
 20
1824.315292740255
 10
789.059354597034
 20
1824.308392417822
 10
789.00438387421
 20
1824.30368657382
 10
788.9492689385327
 20
1824.301182736598
 10
788.914238822157
 20
1824.300737862374
  0
LINE
  5
249
330
19C
100
AcDbEntity
  8
P-SANR-FIXT
100
AcDbLine
 10
788.9142388221571
 20
1844.300737862373
 30
0.0
 11
787.9572872395453
 21
1844.300737862373
 31
0.0
  0
LINE
  5
24A
330
19C
100
AcDbEntity
  8
P-SANR-FIXT
100
AcDbLine
 10
787.9572872395453
 20
1824.300737862374
 30
0.0
 11
788.914238822157
 21
1824.300737862374
 31
0.0
  0
LINE
  5
24B
330
19C
100
AcDbEntity
  8
P-SANR-FIXT
100
AcDbLine
 10
787.9572872395453
 20
1844.300737862373
 30
0.0
 11
785.9263462361487
 21
1846.331678865769
 31
0.0
  0
LINE
  5
24C
330
19C
100
AcDbEntity
  8
P-SANR-FIXT
100
AcDbLine
 10
785.9263462361487
 20
1822.269796858977
 30
0.0
 11
787.9572872395453
 21
1824.300737862374
 31
0.0
  0
LINE
  5
24D
330
19C
100
AcDbEntity
  8
P-SANR-FIXT
100
AcDbLine
 10
835.2533663560231
 20
1848.550737862374
 30
0.0
 11
833.4855994030581
 21
1848.550737862374
 31
0.0
  0
LINE
  5
24E
330
19C
100
AcDbEntity
  8
P-SANR-FIXT
100
AcDbLine
 10
833.4855994030581
 20
1820.050737862373
 30
0.0
 11
835.2533663560231
 21
1820.050737862373
 31
0.0
  0
ELLIPSE
  5
24F
330
19C
100
AcDbEntity
  8
P-SANR-FIXT
100
AcDbEllipse
 10
833.4855994030567
 20
1834.300737862373
 30
0.0
 11
0.0000000000003229
 21
14.5
 31
0.0
210
0.0
220
0.0
230
1.0
 40
0.7071067811865415
 41
6.109769629023986
 42
7.853981633974513
  0
ELLIPSE
  5
250
330
19C
100
AcDbEntity
  8
P-SANR-FIXT
100
AcDbEllipse
 10
833.4855994030567
 20
1834.300737862373
 30
0.0
 11
0.0
 21
14.49999999999998
 31
0.0
210
0.0
220
0.0
230
1.0
 40
0.7071067811865404
 41
1.570796326794906
 42
3.315008331745412
  0
ELLIPSE
  5
251
330
19C
100
AcDbEntity
  8
P-SANR-FIXT
100
AcDbEllipse
 10
830.4450402439547
 20
1834.300737862372
 30
0.0
 11
0.0
 21
14.49999999999987
 31
0.0
210
0.0
220
0.0
230
1.0
 40
0.7071067811865561
 41
0.0088641334183257
 42
1.570796326794898
  0
ELLIPSE
  5
252
330
19C
100
AcDbEntity
  8
P-SANR-FIXT
100
AcDbEllipse
 10
830.4450402439547
 20
1834.300737862372
 30
0.0
 11
0.0000000000002263
 21
14.5
 31
0.0
210
0.0
220
0.0
230
1.0
 40
0.7071067811865494
 41
1.570796326794906
 42
3.13272852017149
  0
ELLIPSE
  5
253
330
19C
100
AcDbEntity
  8
P-SANR-FIXT
100
AcDbEllipse
 10
829.6868425510577
 20
1834.300737862372
 30
0.0
 11
0.0
 21
13.99999999999986
 31
0.0
210
0.0
220
0.0
230
1.0
 40
0.7071067811865525
 41
0.5135622821059433
 42
1.570796326794898
  0
ELLIPSE
  5
254
330
19C
100
AcDbEntity
  8
P-SANR-FIXT
100
AcDbEllipse
 10
829.6868425510577
 20
1834.300737862372
 30
0.0
 11
0.0
 21
14.0
 31
0.0
210
0.0
220
0.0
230
1.0
 40
0.7071067811865453
 41
1.570796326794898
 42
2.62803037148385
  0
SPLINE
  5
255
330
19C
100
AcDbEntity
  8
P-SANR-FIXT
100
AcDbSpline
210
0.0
220
0.0
230
1.0
 70
     8
 71
     3
 72
     9
 73
     5
 74
     0
 42
0.000000001
 43
0.0000000001
 40
-1.0
 40
-1.0
 40
-1.0
 40
-1.0
 40
-0.5
 40
0.0
 40
0.0
 40
0.0
 40
0.0
 10
815.0066932034915
 20
1837.300737862373
 30
0.0
 10
814.917403531089
 20
1836.804718119811
 30
0.0
 10
814.7833103920506
 20
1835.80869837725
 30
0.0
 10
814.7381896645459
 20
1834.804718119811
 30
0.0
 10
814.7378724036768
 20
1834.300737862372
 30
0.0
  0
SPLINE
  5
256
330
19C
100
AcDbEntity
  8
P-SANR-FIXT
100
AcDbSpline
210
0.0
220
0.0
230
1.0
 70
     8
 71
     3
 72
     9
 73
     5
 74
     0
 42
0.000000001
 43
0.0000000001
 40
-1.0
 40
-1.0
 40
-1.0
 40
-1.0
 40
-0.5
 40
0.0
 40
0.0
 40
0.0
 40
0.0
 10
814.7378724036768
 20
1834.300737862372
 30
0.0
 10
814.7378858536594
 20
1834.073687023586
 30
0.0
 10
814.7470991592316
 20
1833.619958064446
 30
0.0
 10
814.7746852760176
 20
1833.16697454217
 30
0.0
 10
814.7930715372142
 20
1832.940669140248
 30
0.0
  0
SPLINE
  5
257
330
19C
100
AcDbEntity
  8
P-SANR-FIXT
100
AcDbSpline
210
0.0
220
0.0
230
1.0
 70
     8
 71
     3
 72
     8
 73
     4
 74
     0
 42
0.000000001
 43
0.0000000001
 40
0.0
 40
0.0
 40
0.0
 40
0.0
 40
0.0050930100439113
 40
0.0050930100439113
 40
0.0050930100439113
 40
0.0050930100439113
 10
801.6980441787184
 20
1842.628716047566
 30
0.0
 10
801.7088542877592
 20
1842.62426102923
 30
0.0
 10
801.7196515662849
 20
1842.619788146951
 30
0.0
 10
801.7304360719105
 20
1842.615297351166
 30
0.0
  0
SPLINE
  5
258
330
19C
100
AcDbEntity
  8
P-SANR-FIXT
100
AcDbSpline
210
0.0
220
0.0
230
1.0
 70
     8
 71
     3
 72
     8
 73
     4
 74
     0
 42
0.000000001
 43
0.0000000001
 40
0.1781556091712179
 40
0.1781556091712179
 40
0.1781556091712179
 40
0.1781556091712179
 40
0.2
 40
0.2
 40
0.2
 40
0.2
 10
802.7878372278516
 20
1842.093502863583
 30
0.0
 10
802.8306551316166
 20
1842.068774351143
 30
0.0
 10
802.8732740496202
 20
1842.043685241517
 30
0.0
 10
802.9156985360719
 20
1842.018231645253
 30
0.0
  0
SPLINE
  5
259
330
19C
100
AcDbEntity
  8
P-SANR-FIXT
100
AcDbSpline
210
0.0
220
0.0
230
1.0
 70
     8
 71
     3
 72
     8
 73
     4
 74
     0
 42
0.000000001
 43
0.0000000001
 40
0.3
 40
0.3
 40
0.3
 40
0.3
 40
0.4
 40
0.4
 40
0.4
 40
0.4
 10
803.4865495550638
 20
1841.645379339458
 30
0.0
 10
803.6730497455451
 20
1841.513207729156
 30
0.0
 10
803.8559111736322
 20
1841.373021773673
 30
0.0
 10
804.0355720099835
 20
1841.224451823794
 30
0.0
  0
SPLINE
  5
25A
330
19C
100
AcDbEntity
  8
P-SANR-FIXT
100
AcDbSpline
210
0.0
220
0.0
230
1.0
 70
     8
 71
     3
 72
     8
 73
     4
 74
     0
 42
0.000000001
 43
0.0000000001
 40
0.5
 40
0.5
 40
0.5
 40
0.5
 40
0.516147301767163
 40
0.516147301767163
 40
0.516147301767163
 40
0.516147301767163
 10
804.5638747188251
 20
1840.751900433827
 30
0.0
 10
804.5916778456129
 20
1840.724931190198
 30
0.0
 10
804.6193696394146
 20
1840.697699909007
 30
0.0
 10
804.6469454891013
 20
1840.670199276219
 30
0.0
  0
SPLINE
  5
25B
330
19C
100
AcDbEntity
  8
P-SANR-FIXT
100
AcDbSpline
210
0.0
220
0.0
230
1.0
 70
     8
 71
     3
 72
     8
 73
     4
 74
     0
 42
0.000000001
 43
0.0000000001
 40
0.6732968676483701
 40
0.6732968676483701
 40
0.6732968676483701
 40
0.6732968676483701
 40
0.7
 40
0.7
 40
0.7
 40
0.7
 10
805.4206555491289
 20
1839.78736615106
 30
0.0
 10
805.4632482470088
 20
1839.732961751254
 30
0.0
 10
805.5055554386662
 20
1839.677693872655
 30
0.0
 10
805.5474722979573
 20
1839.621550955799
 30
0.0
  0
SPLINE
  5
25C
330
19C
100
AcDbEntity
  8
P-SANR-FIXT
100
AcDbSpline
210
0.0
220
0.0
230
1.0
 70
     8
 71
     3
 72
     9
 73
     5
 74
     0
 42
0.000000001
 43
0.0000000001
 40
0.8
 40
0.8
 40
0.8
 40
0.8
 40
0.8125
 40
0.8188336265317916
 40
0.8188336265317916
 40
0.8188336265317916
 40
0.8188336265317916
 10
805.9948003147978
 20
1838.944694746041
 30
0.0
 10
806.0123098459254
 20
1838.914405276417
 30
0.0
 10
806.0384645964361
 20
1838.868236538156
 30
0.0
 10
806.0644992695026
 20
1838.821931062901
 30
0.0
 10
806.0732339194817
 20
1838.806314927222
 30
0.0
  0
SPLINE
  5
25D
330
19C
100
AcDbEntity
  8
P-SANR-FIXT
100
AcDbSpline
210
0.0
220
0.0
230
1.0
 70
     8
 71
     3
 72
     8
 73
     4
 74
     0
 42
0.000000001
 43
0.0000000001
 40
0.9
 40
0.9
 40
0.9
 40
0.9
 40
1.0
 40
1.0
 40
1.0
 40
1.0
 10
806.3964577375383
 20
1838.170087524764
 30
0.0
 10
806.5251188447671
 20
1837.896137775536
 30
0.0
 10
806.6492694970111
 20
1837.606416059592
 30
0.0
 10
806.7708807772952
 20
1837.300737862373
 30
0.0
  0
ELLIPSE
  5
25E
330
19C
100
AcDbEntity
  8
P-SANR-FIXT
100
AcDbEllipse
 10
823.7348146859288
 20
1834.300737862372
 30
0.0
 11
0.0
 21
12.74999999999985
 31
0.0
210
0.0
220
0.0
230
1.0
 40
0.7071067811865542
 41
1.137266041207974
 42
1.333275156013412
  0
ELLIPSE
  5
25F
330
19C
100
AcDbEntity
  8
P-SANR-FIXT
100
AcDbEllipse
 10
823.7348146859288
 20
1834.300737862372
 30
0.0
 11
0.0
 21
12.75000000000002
 31
0.0
210
0.0
220
0.0
230
0.9999999999999998
 40
0.7071067811865375
 41
1.677671728664884
 42
1.988016121986992
  0
SPLINE
  5
260
330
19C
100
AcDbEntity
  8
P-SANR-FIXT
100
AcDbSpline
210
0.0
220
0.0
230
1.0
 70
     8
 71
     3
 72
     8
 73
     4
 74
     0
 42
0.000000001
 43
0.0000000001
 40
0.0788803348918022
 40
0.0788803348918022
 40
0.0788803348918022
 40
0.0788803348918022
 40
0.0833333333333333
 40
0.0833333333333333
 40
0.0833333333333333
 40
0.0833333333333333
 10
806.9622380451647
 20
1831.979186556876
 30
0.0
 10
806.9577048000311
 20
1831.96191636889
 30
0.0
 10
806.9531467634828
 20
1831.944693200787
 30
0.0
 10
806.9485634976288
 20
1831.92751715174
 30
0.0
  0
SPLINE
  5
261
330
19C
100
AcDbEntity
  8
P-SANR-FIXT
100
AcDbSpline
210
0.0
220
0.0
230
1.0
 70
     8
 71
     3
 72
     8
 73
     4
 74
     0
 42
0.000000001
 43
0.0000000001
 40
0.1666666666666666
 40
0.1666666666666666
 40
0.1666666666666666
 40
0.1666666666666666
 40
0.1827016997207128
 40
0.1827016997207128
 40
0.1827016997207128
 40
0.1827016997207128
 10
806.6634479832805
 20
1831.012630022468
 30
0.0
 10
806.6429615058027
 20
1830.957189109383
 30
0.0
 10
806.6219077986133
 20
1830.902400123723
 30
0.0
 10
806.6002845509775
 20
1830.848258120958
 30
0.0
  0
SPLINE
  5
262
330
19C
100
AcDbEntity
  8
P-SANR-FIXT
100
AcDbSpline
210
0.0
220
0.0
230
1.0
 70
     8
 71
     3
 72
    10
 73
     6
 74
     0
 42
0.000000001
 43
0.0000000001
 40
0.25
 40
0.25
 40
0.25
 40
0.25
 40
0.2916666666666666
 40
0.3125
 40
0.3333333333333333
 40
0.3333333333333333
 40
0.3333333333333333
 40
0.3333333333333333
 10
806.2996318497065
 20
1830.19994391519
 30
0.0
 10
806.2327859576923
 20
1830.072699597759
 30
0.0
 10
806.1294552974256
 20
1829.887511403306
 30
0.0
 10
805.989355783439
 20
1829.65086264973
 30
0.0
 10
805.9198230162126
 20
1829.535551229005
 30
0.0
 10
805.88486444534
 20
1829.478791075324
 30
0.0
  0
SPLINE
  5
263
330
19C
100
AcDbEntity
  8
P-SANR-FIXT
100
AcDbSpline
210
0.0
220
0.0
230
1.0
 70
     8
 71
     3
 72
     8
 73
     4
 74
     0
 42
0.000000001
 43
0.0000000001
 40
0.4166666666666666
 40
0.4166666666666666
 40
0.4166666666666666
 40
0.4166666666666666
 40
0.4198721957096149
 40
0.4198721957096149
 40
0.4198721957096149
 40
0.4198721957096149
 10
805.443833491719
 20
1828.842095444129
 30
0.0
 10
805.4379227209016
 20
1828.834454444711
 30
0.0
 10
805.4320040638172
 20
1828.826831305389
 30
0.0
 10
805.4260779239417
 20
1828.819225710171
 30
0.0
  0
SPLINE
  5
264
330
19C
100
AcDbEntity
  8
P-SANR-FIXT
100
AcDbSpline
210
0.0
220
0.0
230
1.0
 70
     8
 71
     3
 72
     9
 73
     5
 74
     0
 42
0.000000001
 43
0.0000000001
 40
0.5
 40
0.5
 40
0.5
 40
0.5
 40
0.5416666666666666
 40
0.5833333333333333
 40
0.5833333333333333
 40
0.5833333333333333
 40
0.5833333333333333
 10
804.9728846193199
 20
1828.277431757222
 30
0.0
 10
804.8931666576024
 20
1828.188085702625
 30
0.0
 10
804.7325346445688
 20
1828.013769981448
 30
0.0
 10
804.5654110371573
 20
1827.851839050213
 30
0.0
 10
804.481695596743
 20
1827.771785711647
 30
0.0
  0
SPLINE
  5
265
330
19C
100
AcDbEntity
  8
P-SANR-FIXT
100
AcDbSpline
210
0.0
220
0.0
230
1.0
 70
     8
 71
     3
 72
     8
 73
     4
 74
     0
 42
0.000000001
 43
0.0000000001
 40
0.6666666666666666
 40
0.6666666666666666
 40
0.6666666666666666
 40
0.6666666666666666
 40
0.75
 40
0.75
 40
0.75
 40
0.75
 10
803.9676493999362
 20
1827.321174277666
 30
0.0
 10
803.7931099404932
 20
1827.179153356414
 30
0.0
 10
803.6093077350896
 20
1827.055509479567
 30
0.0
 10
803.4204534102601
 20
1826.942019808423
 30
0.0
  0
SPLINE
  5
266
330
19C
100
AcDbEntity
  8
P-SANR-FIXT
100
AcDbSpline
210
0.0
220
0.0
230
1.0
 70
     8
 71
     3
 72
     8
 73
     4
 74
     0
 42
0.000000001
 43
0.0000000001
 40
0.8333333333333332
 40
0.8333333333333332
 40
0.8333333333333332
 40
0.8333333333333332
 40
0.8467829410572774
 40
0.8467829410572774
 40
0.8467829410572774
 40
0.8467829410572774
 10
802.8793427308416
 20
1826.561005065769
 30
0.0
 10
802.8488904088908
 20
1826.542950040725
 30
0.0
 10
802.8181340372999
 20
1826.525405302103
 30
0.0
 10
802.7871213644456
 20
1826.508290912109
 30
0.0
  0
SPLINE
  5
267
330
19C
100
AcDbEntity
  8
P-SANR-FIXT
100
AcDbSpline
210
0.0
220
0.0
230
1.0
 70
     8
 71
     3
 72
     8
 73
     4
 74
     0
 42
0.000000001
 43
0.0000000001
 40
0.9956206559728054
 40
0.9956206559728054
 40
0.9956206559728054
 40
0.9956206559728054
 40
1.0
 40
1.0
 40
1.0
 40
1.0
 10
801.7304106878023
 20
1825.986168416492
 30
0.0
 10
801.7196343925341
 20
1825.981681086229
 30
0.0
 10
801.7088455725794
 20
1825.977211524583
 30
0.0
 10
801.6980441787184
 20
1825.972759677179
 30
0.0
  0
SPLINE
  5
268
330
19C
100
AcDbEntity
  8
P-SANR-FIXT
100
AcDbSpline
210
0.0
220
0.0
230
1.0
 70
     8
 71
     3
 72
     8
 73
     4
 74
     0
 42
0.000000001
 43
0.0000000001
 40
-0.5
 40
-0.5
 40
-0.5
 40
-0.5
 40
-0.4483044596426036
 40
-0.4483044596426036
 40
-0.4483044596426036
 40
-0.4483044596426036
 10
801.3269051429167
 20
1842.771302152707
 30
0.0
 10
801.3237082876106
 20
1842.772453794637
 30
0.0
 10
801.3226819196434
 20
1842.772797337637
 30
0.0
 10
801.3233122959606
 20
1842.772542169806
 30
0.0
  0
SPLINE
  5
269
330
19C
100
AcDbEntity
  8
P-SANR-FIXT
100
AcDbSpline
210
0.0
220
0.0
230
1.0
 70
     8
 71
     3
 72
     8
 73
     4
 74
     0
 42
0.000000001
 43
0.0000000001
 40
-0.1666666666666666
 40
-0.1666666666666666
 40
-0.1666666666666666
 40
-0.1666666666666666
 40
0.0
 40
0.0
 40
0.0
 40
0.0
 10
801.4704952986987
 20
1842.718364495452
 30
0.0
 10
801.5292576968937
 20
1842.69613219658
 30
0.0
 10
801.6052837666187
 20
1842.666725246992
 30
0.0
 10
801.6980441787184
 20
1842.628716047566
 30
0.0
  0
SPLINE
  5
26A
330
19C
100
AcDbEntity
  8
P-SANR-FIXT
100
AcDbSpline
210
0.0
220
0.0
230
1.0
 70
     8
 71
     3
 72
     8
 73
     4
 74
     0
 42
0.000000001
 43
0.0000000001
 40
-1.0
 40
-1.0
 40
-1.0
 40
-1.0
 40
-0.8333333333333332
 40
-0.8333333333333332
 40
-0.8333333333333332
 40
-0.8333333333333332
 10
801.6980441787184
 20
1825.972759677179
 30
0.0
 10
801.6052837666187
 20
1825.934750477753
 30
0.0
 10
801.5292576968937
 20
1825.905343528165
 30
0.0
 10
801.4704952986987
 20
1825.883111229294
 30
0.0
  0
SPLINE
  5
26B
330
19C
100
AcDbEntity
  8
P-SANR-FIXT
100
AcDbSpline
210
0.0
220
0.0
230
1.0
 70
     8
 71
     3
 72
     8
 73
     4
 74
     0
 42
0.000000001
 43
0.0000000001
 40
-0.55169554035737
 40
-0.55169554035737
 40
-0.55169554035737
 40
-0.55169554035737
 40
-0.5
 40
-0.5
 40
-0.5
 40
-0.5
 10
801.3220808011597
 20
1825.828428804599
 30
0.0
 10
801.3220868452103
 20
1825.828434485127
 30
0.0
 10
801.324231596269
 20
1825.829248919327
 30
0.0
 10
801.3269051429167
 20
1825.830173572038
 30
0.0
  0
ELLIPSE
  5
26C
330
19C
100
AcDbEntity
  8
P-SANR-FIXT
100
AcDbEllipse
 10
833.4855994030567
 20
1834.300737862373
 30
0.0
 11
0.0000000000000926
 21
14.25000000000023
 31
0.0
210
0.0
220
0.0
230
0.9999999999999998
 40
0.7071067811865519
 41
0.0000000000000205
 42
1.570796326794916
  0
ELLIPSE
  5
26D
330
19C
100
AcDbEntity
  8
P-SANR-FIXT
100
AcDbEllipse
 10
833.4855994030567
 20
1834.300737862373
 30
0.0
 11
0.0000000000003205
 21
14.25000000000023
 31
0.0
210
0.0
220
0.0
230
0.9999999999999998
 40
0.7071067811865519
 41
1.570796326794944
 42
3.141592653589818
  0
LINE
  5
26E
330
19C
100
AcDbEntity
  8
P-SANR-FIXT
100
AcDbLine
 10
769.485599403057
 20
1834.300737862372
 30
0.0
 11
769.485599403057
 21
1835.97061084345
 31
0.0
  0
LINE
  5
26F
330
19C
100
AcDbEntity
  8
P-SANR-FIXT
100
AcDbLine
 10
769.485599403057
 20
1835.97061084345
 30
0.0
 11
769.485599403057
 21
1844.630864881296
 31
0.0
  0
LINE
  5
270
330
19C
100
AcDbEntity
  8
P-SANR-FIXT
100
AcDbLine
 10
769.485599403057
 20
1844.630864881296
 30
0.0
 11
769.485599403057
 21
1846.300737862373
 31
0.0
  0
LINE
  5
271
330
19C
100
AcDbEntity
  8
P-SANR-FIXT
100
AcDbLine
 10
769.485599403057
 20
1832.630864881296
 30
0.0
 11
769.485599403057
 21
1834.300737862372
 31
0.0
  0
LINE
  5
272
330
19C
100
AcDbEntity
  8
P-SANR-FIXT
100
AcDbLine
 10
769.485599403057
 20
1822.300737862373
 30
0.0
 11
769.485599403057
 21
1823.97061084345
 31
0.0
  0
LINE
  5
273
330
19C
100
AcDbEntity
  8
P-SANR-FIXT
100
AcDbLine
 10
769.485599403057
 20
1823.97061084345
 30
0.0
 11
769.485599403057
 21
1832.630864881296
 31
0.0
  0
LINE
  5
274
330
19C
100
AcDbEntity
  8
P-SANR-FIXT
100
AcDbLine
 10
787.9572872395438
 20
1844.300737862372
 30
0.0
 11
787.9572872395438
 21
1842.972721966401
 31
0.0
  0
SPLINE
  5
275
330
19C
100
AcDbEntity
  8
P-SANR-FIXT
100
AcDbSpline
210
0.0
220
0.0
230
1.0
 70
    24
 71
     3
 72
     9
 73
     5
 74
     0
 42
0.000000001
 43
0.0000000001
 40
-0.5555555555554768
 40
-0.5555555555554768
 40
-0.5555555555554768
 40
-0.5555555555554768
 40
-0.3333333333333333
 40
0.0
 40
0.0
 40
0.0
 40
0.0
 10
785.9015953969716
 20
1846.300737862373
 30
0.0
 10
785.9644442316035
 20
1846.300737862373
 30
0.0
 10
785.8228836630006
 20
1846.300737862373
 30
0.0
 10
784.9166608587737
 20
1846.300737862373
 30
0.0
 10
784.1008807789927
 20
1846.300737862373
 30
0.0
  0
SPLINE
  5
276
330
19C
100
AcDbEntity
  8
P-SANR-FIXT
100
AcDbSpline
210
0.0
220
0.0
230
1.0
 70
     8
 71
     3
 72
     8
 73
     4
 74
     0
 42
0.000000001
 43
0.0000000001
 40
-1.0
 40
-1.0
 40
-1.0
 40
-1.0
 40
-0.7429348979709735
 40
-0.7429348979709735
 40
-0.7429348979709735
 40
-0.7429348979709735
 10
784.1008807789927
 20
1846.300737862373
 30
0.0
 10
784.7230829109999
 20
1845.321169154637
 30
0.0
 10
785.1854097814714
 20
1844.328272286544
 30
0.0
 10
785.4893437907376
 20
1843.305155742139
 30
0.0
  0
LINE
  5
277
330
19C
100
AcDbEntity
  8
P-SANR-FIXT
100
AcDbLine
 10
787.9572872395438
 20
1825.628753758344
 30
0.0
 11
787.9572872395438
 21
1824.300737862373
 31
0.0
  0
SPLINE
  5
278
330
19C
100
AcDbEntity
  8
P-SANR-FIXT
100
AcDbSpline
210
0.0
220
0.0
230
1.0
 70
     8
 71
     3
 72
     8
 73
     4
 74
     0
 42
0.000000001
 43
0.0000000001
 40
-0.2570651020290027
 40
-0.2570651020290027
 40
-0.2570651020290027
 40
-0.2570651020290027
 40
0.0
 40
0.0
 40
0.0
 40
0.0
 10
785.4893437907373
 20
1825.296319982606
 30
0.0
 10
785.1854097814712
 20
1824.273203438202
 30
0.0
 10
784.7230829109999
 20
1823.280306570109
 30
0.0
 10
784.1008807789927
 20
1822.300737862373
 30
0.0
  0
SPLINE
  5
279
330
19C
100
AcDbEntity
  8
P-SANR-FIXT
100
AcDbSpline
210
0.0
220
0.0
230
1.0
 70
    24
 71
     3
 72
     9
 73
     5
 74
     0
 42
0.000000001
 43
0.0000000001
 40
-1.0
 40
-1.0
 40
-1.0
 40
-1.0
 40
-0.6666666666666666
 40
-0.4444444444444445
 40
-0.4444444444444445
 40
-0.4444444444444445
 40
-0.4444444444444445
 10
784.1008807789927
 20
1822.300737862373
 30
0.0
 10
784.9166608587737
 20
1822.300737862373
 30
0.0
 10
785.8228836630007
 20
1822.300737862373
 30
0.0
 10
785.9644442316037
 20
1822.300737862373
 30
0.0
 10
785.9015953969716
 20
1822.300737862373
 30
0.0
  0
SPLINE
  5
27A
330
19C
100
AcDbEntity
  8
P-SANR-FIXT
100
AcDbSpline
210
0.0
220
0.0
230
1.0
 70
     8
 71
     3
 72
     9
 73
     5
 74
     0
 42
0.000000001
 43
0.0000000001
 40
-1.0
 40
-1.0
 40
-1.0
 40
-1.0
 40
-0.5
 40
0.0
 40
0.0
 40
0.0
 40
0.0
 10
769.9800459035916
 20
1834.300737862372
 30
0.0
 10
769.8875890760406
 20
1834.576841599931
 30
0.0
 10
769.7127244984004
 20
1835.131257501002
 30
0.0
 10
769.5579580756842
 20
1835.690090253983
 30
0.0
 10
769.485599403057
 20
1835.97061084345
 30
0.0
  0
SPLINE
  5
27B
330
19C
100
AcDbEntity
  8
P-SANR-FIXT
100
AcDbSpline
210
0.0
220
0.0
230
1.0
 70
     8
 71
     3
 72
     9
 73
     5
 74
     0
 42
0.000000001
 43
0.0000000001
 40
-1.0
 40
-1.0
 40
-1.0
 40
-1.0
 40
-0.5
 40
0.0
 40
0.0
 40
0.0
 40
0.0
 10
769.485599403057
 20
1844.630864881296
 30
0.0
 10
769.5579580756842
 20
1844.911385470763
 30
0.0
 10
769.7127244984004
 20
1845.470218223743
 30
0.0
 10
769.8875890760406
 20
1846.024634124814
 30
0.0
 10
769.9800459035916
 20
1846.300737862373
 30
0.0
  0
SPLINE
  5
27C
330
19C
100
AcDbEntity
  8
P-SANR-FIXT
100
AcDbSpline
210
0.0
220
0.0
230
1.0
 70
    24
 71
     3
 72
     9
 73
     5
 74
     0
 42
0.000000001
 43
0.0000000001
 40
-1.0
 40
-1.0
 40
-1.0
 40
-1.0
 40
-0.5
 40
0.0
 40
0.0
 40
0.0
 40
0.0
 10
769.9800459035916
 20
1846.300737862373
 30
0.0
 10
769.8875890760406
 20
1846.300737862373
 30
0.0
 10
769.7127244984004
 20
1846.300737862373
 30
0.0
 10
769.5579580756842
 20
1846.300737862373
 30
0.0
 10
769.485599403057
 20
1846.300737862373
 30
0.0
  0
SPLINE
  5
27D
330
19C
100
AcDbEntity
  8
P-SANR-FIXT
100
AcDbSpline
210
0.0
220
0.0
230
1.0
 70
     8
 71
     3
 72
     9
 73
     5
 74
     0
 42
0.000000001
 43
0.0000000001
 40
-1.0
 40
-1.0
 40
-1.0
 40
-1.0
 40
-0.5
 40
0.0
 40
0.0
 40
0.0
 40
0.0
 10
769.485599403057
 20
1832.630864881296
 30
0.0
 10
769.5579580756842
 20
1832.911385470763
 30
0.0
 10
769.7127244984004
 20
1833.470218223743
 30
0.0
 10
769.8875890760405
 20
1834.024634124815
 30
0.0
 10
769.9800459035916
 20
1834.300737862372
 30
0.0
  0
SPLINE
  5
27E
330
19C
100
AcDbEntity
  8
P-SANR-FIXT
100
AcDbSpline
210
0.0
220
0.0
230
1.0
 70
    24
 71
     3
 72
     9
 73
     5
 74
     0
 42
0.000000001
 43
0.0000000001
 40
-1.0
 40
-1.0
 40
-1.0
 40
-1.0
 40
-0.5
 40
0.0
 40
0.0
 40
0.0
 40
0.0
 10
769.485599403057
 20
1822.300737862373
 30
0.0
 10
769.5579580756842
 20
1822.300737862373
 30
0.0
 10
769.7127244984004
 20
1822.300737862373
 30
0.0
 10
769.8875890760406
 20
1822.300737862373
 30
0.0
 10
769.9800459035916
 20
1822.300737862373
 30
0.0
  0
SPLINE
  5
27F
330
19C
100
AcDbEntity
  8
P-SANR-FIXT
100
AcDbSpline
210
0.0
220
0.0
230
1.0
 70
     8
 71
     3
 72
     9
 73
     5
 74
     0
 42
0.000000001
 43
0.0000000001
 40
-1.0
 40
-1.0
 40
-1.0
 40
-1.0
 40
-0.5
 40
0.0
 40
0.0
 40
0.0
 40
0.0
 10
769.9800459035916
 20
1822.300737862373
 30
0.0
 10
769.8875890760406
 20
1822.576841599931
 30
0.0
 10
769.7127244984004
 20
1823.131257501002
 30
0.0
 10
769.5579580756842
 20
1823.690090253983
 30
0.0
 10
769.485599403057
 20
1823.97061084345
 30
0.0
  0
LINE
  5
280
330
19C
100
AcDbEntity
  8
P-SANR-FIXT
100
AcDbLine
 10
769.9800459035916
 20
1822.300737862373
 30
0.0
 11
784.1008807789927
 21
1822.300737862373
 31
0.0
  0
LINE
  5
281
330
19C
100
AcDbEntity
  8
P-SANR-FIXT
100
AcDbLine
 10
771.0143074463156
 20
1834.300737862372
 30
0.0
 11
769.9800459035916
 21
1834.300737862372
 31
0.0
  0
LINE
  5
282
330
19C
100
AcDbEntity
  8
P-SANR-FIXT
100
AcDbLine
 10
784.1008807789927
 20
1846.300737862373
 30
0.0
 11
769.9800459035916
 21
1846.300737862373
 31
0.0
  0
ARC
  5
283
330
19C
100
AcDbEntity
  8
P-SANR-FIXT
100
AcDbCircle
 10
798.2855994030568
 20
1834.300737862372
 30
0.0
 40
9.0
100
AcDbArc
 50
0.0
 51
180.0
  0
ARC
  5
284
330
19C
100
AcDbEntity
  8
P-SANR-FIXT
100
AcDbCircle
 10
798.2855994030568
 20
1834.300737862372
 30
0.0
 40
8.999999999999984
100
AcDbArc
 50
7.514708894738006
 51
9.735610317245992
  0
ARC
  5
285
330
19C
100
AcDbEntity
  8
P-SANR-FIXT
100
AcDbCircle
 10
798.2855994030568
 20
1834.300737862372
 30
0.0
 40
8.999999999999907
100
AcDbArc
 50
15.05402469151414
 51
19.47122063449097
  0
ARC
  5
286
330
19C
100
AcDbEntity
  8
P-SANR-FIXT
100
AcDbCircle
 10
798.2855994030568
 20
1834.300737862372
 30
0.0
 40
9.0
100
AcDbArc
 50
180.0
 51
0.0
  0
ARC
  5
287
330
19C
100
AcDbEntity
  8
P-SANR-FIXT
100
AcDbCircle
 10
798.2855994030568
 20
1834.300737862372
 30
0.0
 40
9.000000000000056
100
AcDbArc
 50
351.3082348648242
 51
355.6541174324119
  0
ARC
  5
288
330
19C
100
AcDbEntity
  8
P-SANR-FIXT
100
AcDbCircle
 10
798.2855994030568
 20
1834.300737862372
 30
0.0
 40
8.999999999999943
100
AcDbArc
 50
73.1442210774114
 51
74.98227511571939
  0
ARC
  5
289
330
19C
100
AcDbEntity
  8
P-SANR-FIXT
100
AcDbCircle
 10
798.2855994030568
 20
1834.300737862372
 30
0.0
 40
9.000000000000012
100
AcDbArc
 50
79.34120573645028
 51
85.53819039548898
  0
ARC
  5
28A
330
19C
100
AcDbEntity
  8
P-SANR-FIXT
100
AcDbCircle
 10
798.2855994030568
 20
1834.300737862372
 30
0.0
 40
8.999999999999991
100
AcDbArc
 50
89.99892781974805
 51
91.73517505452819
  0
ARC
  5
28B
330
19C
100
AcDbEntity
  8
P-SANR-FIXT
100
AcDbCircle
 10
798.2855994030568
 20
1834.300737862372
 30
0.0
 40
9.000000000000062
100
AcDbArc
 50
97.50217594324194
 51
97.93215971356801
  0
ARC
  5
28C
330
19C
100
AcDbEntity
  8
P-SANR-FIXT
100
AcDbCircle
 10
798.2855994030568
 20
1834.300737862372
 30
0.0
 40
8.999999999999969
100
AcDbArc
 50
104.1291443726064
 51
105.0120277992285
  0
ARC
  5
28D
330
19C
100
AcDbEntity
  8
P-SANR-FIXT
100
AcDbCircle
 10
798.2855994030568
 20
1834.300737862372
 30
0.0
 40
9.00000000000003
100
AcDbArc
 50
110.3261290316456
 51
112.5326626058427
  0
ARC
  5
28E
330
19C
100
AcDbEntity
  8
P-SANR-FIXT
100
AcDbCircle
 10
798.2855994030568
 20
1834.300737862372
 30
0.0
 40
9.000000000000092
100
AcDbArc
 50
116.5231136906854
 51
122.7200983497246
  0
ARC
  5
28F
330
19C
100
AcDbEntity
  8
P-SANR-FIXT
100
AcDbCircle
 10
798.2855994030568
 20
1834.300737862372
 30
0.0
 40
9.000000000000015
100
AcDbArc
 50
127.5432464313795
 51
128.9170830087637
  0
ARC
  5
290
330
19C
100
AcDbEntity
  8
P-SANR-FIXT
100
AcDbCircle
 10
798.2855994030568
 20
1834.300737862372
 30
0.0
 40
8.999999999999976
100
AcDbArc
 50
135.0055602746873
 51
135.1140676678012
  0
ARC
  5
291
330
19C
100
AcDbEntity
  8
P-SANR-FIXT
100
AcDbCircle
 10
798.2855994030568
 20
1834.300737862372
 30
0.0
 40
8.999999999999925
100
AcDbArc
 50
224.8859323321953
 51
224.9944397253113
  0
ARC
  5
292
330
19C
100
AcDbEntity
  8
P-SANR-FIXT
100
AcDbCircle
 10
798.2855994030568
 20
1834.300737862372
 30
0.0
 40
8.999999999999976
100
AcDbArc
 50
231.0829169912349
 51
232.4567535686206
  0
ARC
  5
293
330
19C
100
AcDbEntity
  8
P-SANR-FIXT
100
AcDbCircle
 10
798.2855994030568
 20
1834.300737862372
 30
0.0
 40
9.000000000000039
100
AcDbArc
 50
237.2799016502741
 51
243.476886309314
  0
ARC
  5
294
330
19C
100
AcDbEntity
  8
P-SANR-FIXT
100
AcDbCircle
 10
798.2855994030568
 20
1834.300737862372
 30
0.0
 40
8.999999999999904
100
AcDbArc
 50
247.4673373941568
 51
249.673870968353
  0
ARC
  5
295
330
19C
100
AcDbEntity
  8
P-SANR-FIXT
100
AcDbCircle
 10
798.2855994030568
 20
1834.300737862372
 30
0.0
 40
8.999999999999927
100
AcDbArc
 50
254.9879722007711
 51
255.870855627392
  0
ARC
  5
296
330
19C
100
AcDbEntity
  8
P-SANR-FIXT
100
AcDbCircle
 10
798.2855994030568
 20
1834.300737862372
 30
0.0
 40
8.999999999999969
100
AcDbArc
 50
262.0678402864307
 51
262.4978240567561
  0
ARC
  5
297
330
19C
100
AcDbEntity
  8
P-SANR-FIXT
100
AcDbCircle
 10
798.2855994030568
 20
1834.300737862372
 30
0.0
 40
8.99999999999996
100
AcDbArc
 50
268.2648249454707
 51
270.0010721802509
  0
ARC
  5
298
330
19C
100
AcDbEntity
  8
P-SANR-FIXT
100
AcDbCircle
 10
798.2855994030568
 20
1834.300737862372
 30
0.0
 40
8.999999999999886
100
AcDbArc
 50
274.4618096045101
 51
280.658794263549
  0
ARC
  5
299
330
19C
100
AcDbEntity
  8
P-SANR-FIXT
100
AcDbCircle
 10
798.2855994030568
 20
1834.300737862372
 30
0.0
 40
8.999999999999987
100
AcDbArc
 50
285.0177248842801
 51
286.8557789225877
  0
LINE
  5
29A
330
19C
100
AcDbEntity
  8
P-SANR-FIXT
100
AcDbLine
 10
814.7930715372142
 20
1832.940669140248
 30
0.0
 11
807.1822399527865
 21
1832.940669140248
 31
0.0
  0
LINE
  5
29B
330
19C
100
AcDbEntity
  8
P-SANR-FIXT
100
AcDbLine
 10
806.7708807772952
 20
1837.300737862373
 30
0.0
 11
815.0066932034915
 21
1837.300737862373
 31
0.0
  0
ELLIPSE
  5
29C
330
19C
100
AcDbEntity
  8
P-SANR-FIXT
100
AcDbEllipse
 10
835.2533663560219
 20
1834.300737862373
 30
0.0
 11
0.0
 21
10.99999999998343
 31
0.0
210
0.0
220
0.0
230
0.9999999999999998
 40
0.7071067811865529
 41
0.1352684086195504
 42
1.570796326794911
  0
ELLIPSE
  5
29D
330
19C
100
AcDbEntity
  8
P-SANR-FIXT
100
AcDbEllipse
 10
835.2533663560219
 20
1834.300737862373
 30
0.0
 11
0.0000000000005478
 21
10.9999999999834
 31
0.0
210
0.0
220
0.0
230
0.9999999999999998
 40
0.7071067811865454
 41
1.570796326794951
 42
3.006324244970486
  0
ELLIPSE
  5
29E
330
19C
100
AcDbEntity
  8
P-SANR-FIXT
100
AcDbEllipse
 10
835.2533663560219
 20
1834.300737862373
 30
0.0
 11
0.0
 21
14.25000000000025
 31
0.0
210
0.0
220
0.0
230
0.9999999999999998
 40
0.7071067811865472
 41
6.12220522190207
 42
7.853981633974493
  0
ELLIPSE
  5
29F
330
19C
100
AcDbEntity
  8
P-SANR-FIXT
100
AcDbEllipse
 10
835.2533663560219
 20
1834.300737862373
 30
0.0
 11
0.0000000000005483
 21
14.25000000000023
 31
0.0
210
0.0
220
0.0
230
0.9999999999999998
 40
0.7071067811865599
 41
1.570796326794939
 42
3.302572738864376
  0
ENDBLK
  5
2A1
330
19C
100
AcDbEntity
  8
0
100
AcDbBlockEnd
  0
BLOCK
  5
360
330
2A3
100
AcDbEntity
  8
0
100
AcDbBlockBegin
  2
Automatic flow rate regulator valve_Caleffi_121 DN15 - 1_2__-V2-Est - Idraulica
 70
     0
 10
0.0
 20
0.0
 30
0.0
  3
Automatic flow rate regulator valve_Caleffi_121 DN15 - 1_2__-V2-Est - Idraulica
  1

  0
LINE
  5
2A4
330
2A3
100
AcDbEntity
  8
M-PIPE
100
AcDbLine
 10
1105.278244810785
 20
2076.246685251136
 30
0.0
 11
1105.278244810785
 21
2064.07925532382
 31
0.0
1001
REVIT
1002
{
1070
     3
1000
923267
1002
}
  0
LINE
  5
2A5
330
2A3
100
AcDbEntity
  8
M-PIPE
100
AcDbLine
 10
1151.278244810786
 20
2064.079255323796
 30
0.0
 11
1151.278244810785
 21
2076.246685251138
 31
0.0
1001
REVIT
1002
{
1070
     3
1000
923267
1002
}
  0
LWPOLYLINE
  5
2A6
330
2A3
100
AcDbEntity
  8
M-PIPE
100
AcDbPolyline
 90
       35
 70
   128
 43
0.0
 10
1121.635239292677
 20
2103.81344207732
 10
1121.385532379367
 20
2103.809909737103
 10
1121.135817950112
 20
2103.799301073639
 10
1120.886089493264
 20
2103.78158108079
 10
1120.636342549076
 20
2103.756691157809
 10
1120.386575844693
 20
2103.724548730174
 10
1120.136792562096
 20
2103.685046732499
 10
1119.887001786735
 20
2103.638052968532
 10
1119.637220187314
 20
2103.583409369436
 10
1119.387473980353
 20
2103.520931179139
 10
1119.137801236417
 20
2103.450406105063
 10
1118.88825458805
 20
2103.371593484353
 10
1118.638904401832
 20
2103.284223530258
 10
1118.389842478057
 20
2103.187996741074
 10
1118.141186340241
 20
2103.082583575394
 10
1117.893084171865
 20
2102.967624522583
 10
1117.645720447865
 20
2102.842730726547
 10
1117.399322291353
 20
2102.707485353562
 10
1117.154166559597
 20
2102.561445930441
 10
1116.910587624582
 20
2102.404147915847
 10
1116.668985759612
 20
2102.235109802315
 10
1116.429835971379
 20
2102.053840075237
 10
1116.193697024417
 20
2101.859846371437
 10
1115.961220290578
 20
2101.6526471758
 10
1115.733157921374
 20
2101.431786359275
 10
1115.510369690388
 20
2101.196850783014
 10
1115.293827696333
 20
2100.94749105858
 10
1115.084617971487
 20
2100.683445350746
 10
1114.883937929223
 20
2100.404565829711
 10
1114.693088540365
 20
2100.110847023808
 10
1114.513460188669
 20
2099.802454905558
 10
1114.346511359301
 20
2099.479755095066
 10
1114.19373969203
 20
2099.143338137961
 10
1114.056645496018
 20
2098.794039484195
 10
1113.941866613771
 20
2098.449985731303
1001
REVIT
1002
{
1070
     3
1000
923267
1002
}
  0
LINE
  5
2A7
330
2A3
100
AcDbEntity
  8
M-PIPE
100
AcDbLine
 10
1134.921250328892
 20
2103.81344207732
 30
0.0
 11
1121.635239292677
 21
2103.81344207732
 31
0.0
1001
REVIT
1002
{
1070
     3
1000
923267
1002
}
  0
LWPOLYLINE
  5
2A8
330
2A3
100
AcDbEntity
  8
M-PIPE
100
AcDbPolyline
 90
       35
 70
   128
 43
0.0
 10
1142.614623007802
 20
2098.449985731294
 10
1142.493837882958
 20
2098.810553328325
 10
1142.355981802411
 20
2099.159275166724
 10
1142.202517475726
 20
2099.495070818357
 10
1142.034945998604
 20
2099.817116561304
 10
1141.854763942514
 20
2100.124832802775
 10
1141.663427207822
 20
2100.417863798247
 10
1141.462322434962
 20
2100.696052186868
 10
1141.252746040205
 20
2100.959410704792
 10
1141.035890386019
 20
2101.208093100886
 10
1140.812836226775
 20
2101.44236584994
 10
1140.584550374369
 20
2101.66258181007
 10
1140.351887473542
 20
2101.869156555148
 10
1140.115594824567
 20
2102.062547760697
 10
1139.876319304242
 20
2102.243237745605
 10
1139.634615582983
 20
2102.411719072045
 10
1139.390954992464
 20
2102.568482974001
 10
1139.145734548296
 20
2102.714010308618
 10
1138.899285766198
 20
2102.8487646911
 10
1138.651883023348
 20
2102.973187470915
 10
1138.403751308121
 20
2103.087694224171
 10
1138.155073272578
 20
2103.192672466114
 10
1137.905995555126
 20
2103.288480322637
 10
1137.65663437886
 20
2103.375445936199
 10
1137.407080457058
 20
2103.453867417
 10
1137.157403253935
 20
2103.524013182758
 10
1136.907654658376
 20
2103.586122559447
 10
1136.65787213302
 20
2103.640406540321
 10
1136.408081402128
 20
2103.687048621717
 10
1136.15829874063
 20
2103.726205651724
 10
1135.908532924196
 20
2103.758008642205
 10
1135.658786897117
 20
2103.782563506369
 10
1135.409059211436
 20
2103.799951693467
 10
1135.159345287672
 20
2103.810230699758
 10
1134.921250328892
 20
2103.81344207732
1001
REVIT
1002
{
1070
     3
1000
923267
1002
}
  0
LINE
  5
2A9
330
2A3
100
AcDbEntity
  8
M-PIPE
100
AcDbLine
 10
1146.007445392442
 20
2087.339039896855
 30
0.0
 11
1142.614623007802
 21
2098.449985731294
 31
0.0
1001
REVIT
1002
{
1070
     3
1000
923267
1002
}
  0
LWPOLYLINE
  5
2AA
330
2A3
100
AcDbEntity
  8
M-PIPE
100
AcDbPolyline
 90
       18
 70
   128
 43
0.0
 10
1151.278244810785
 20
2076.246685251138
 10
1151.255059402488
 20
2077.066439416225
 10
1151.185677247079
 20
2077.883268715608
 10
1151.070612942362
 20
2078.694313992473
 10
1150.91069951676
 20
2079.496842993207
 10
1150.707053931142
 20
2080.288303090881
 10
1150.461033297531
 20
2081.066362592004
 10
1150.174185508266
 20
2081.828938958748
 10
1149.848198053342
 20
2082.574213609754
 10
1149.484848450073
 20
2083.300634150145
 10
1149.085959038535
 20
2084.006905785443
 10
1148.653358058184
 20
2084.691974228384
 10
1148.188848059386
 20
2085.355002615456
 10
1147.694181930899
 20
2085.995344867023
 10
1147.171046210192
 20
2086.612517634436
 10
1146.621050915404
 20
2087.206172568714
 10
1146.045724889774
 20
2087.776070196344
 10
1145.804743445752
 20
2087.995647064584
1001
REVIT
1002
{
1070
     3
1000
923267
1002
}
  0
LWPOLYLINE
  5
2AB
330
2A3
100
AcDbEntity
  8
M-PIPE
100
AcDbPolyline
 90
       19
 70
   128
 43
0.0
 10
1110.756551215022
 20
2088.003491599369
 10
1110.696429835555
 20
2087.950108575837
 10
1110.113451549314
 20
2087.387706777121
 10
1109.555340775004
 20
2086.80149108959
 10
1109.023600635468
 20
2086.1916718107
 10
1108.519815928571
 20
2085.558560388053
 10
1108.045649975807
 20
2084.902594843463
 10
1107.602836301269
 20
2084.224367116946
 10
1107.193164087054
 20
2083.524651184434
 10
1106.818456547626
 20
2082.804430354527
 10
1106.480541735282
 20
2082.064921720519
 10
1106.181215845726
 20
2081.307595406983
 10
1105.922199821079
 20
2080.534186092402
 10
1105.705090891599
 20
2079.74669439811
 10
1105.53131155719
 20
2078.947376175952
 10
1105.402059249593
 20
2078.138718524987
 10
1105.318260384364
 20
2077.32340247779
 10
1105.280532574751
 20
2076.504253601816
 10
1105.278244810785
 20
2076.246685251137
1001
REVIT
1002
{
1070
     3
1000
923267
1002
}
  0
LINE
  5
2AC
330
2A3
100
AcDbEntity
  8
M-PIPE
100
AcDbLine
 10
1113.941866613771
 20
2098.449985731304
 30
0.0
 11
1110.548314215735
 21
2087.336649220848
 31
0.0
1001
REVIT
1002
{
1070
     3
1000
923267
1002
}
  0
LINE
  5
2AD
330
2A3
100
AcDbEntity
  8
M-PIPE
100
AcDbLine
 10
1100.128244810771
 20
2052.629318759495
 30
0.0
 11
1100.128244810771
 21
2051.922211978309
 31
0.0
1001
REVIT
1002
{
1070
     3
1000
923267
1002
}
  0
LINE
  5
2AE
330
2A3
100
AcDbEntity
  8
M-PIPE
100
AcDbLine
 10
1156.428244810776
 20
2051.922211978309
 30
0.0
 11
1156.428244810776
 21
2052.629318759495
 31
0.0
1001
REVIT
1002
{
1070
     3
1000
923267
1002
}
  0
LWPOLYLINE
  5
2AF
330
2A3
100
AcDbEntity
  8
M-PIPE
100
AcDbPolyline
 90
       29
 70
   128
 43
0.0
 10
1100.128244810771
 20
2051.922211978309
 10
1100.151958773639
 20
2051.083874698958
 10
1100.223028480519
 20
2050.247281938897
 10
1100.341239334751
 20
2049.414160169123
 10
1100.506239986663
 20
2048.586200895291
 10
1100.717551187038
 20
2047.765045863548
 10
1100.974577052399
 20
2046.952275128317
 10
1101.27661781824
 20
2046.149398401543
 10
1101.622883135085
 20
2045.35784977018
 10
1102.012505050563
 20
2044.578985571788
 10
1102.444549988169
 20
2043.814084992079
 10
1102.918029242794
 20
2043.064352809639
 10
1103.431907728365
 20
2042.33092366106
 10
1103.985110905963
 20
2041.614867220438
 10
1104.576529974219
 20
2040.917193759738
 10
1105.20502551064
 20
2040.238859658722
 10
1105.869429814416
 20
2039.580772545312
 10
1106.568548224967
 20
2038.94379585485
 10
1107.301159685442
 20
2038.328752690279
 10
1108.066016796157
 20
2037.736428940394
 10
1108.861845568024
 20
2037.167575669103
 10
1109.687345046966
 20
2036.622910826647
 10
1110.541186941831
 20
2036.103120356727
 10
1111.422015353246
 20
2035.608858784834
 10
1112.328446670727
 20
2035.140749375827
 10
1113.259069680664
 20
2034.699383945781
 10
1114.212445908345
 20
2034.285322406512
 10
1115.187110202451
 20
2033.899092112709
 10
1115.847489216531
 20
2033.661422769471
1001
REVIT
1002
{
1070
     3
1000
923267
1002
}
  0
LWPOLYLINE
  5
2B0
330
2A3
100
AcDbEntity
  8
M-PIPE
100
AcDbPolyline
 90
       30
 70
   128
 43
0.0
 10
1140.708820630168
 20
2033.661634856402
 10
1141.102853973896
 20
2033.799679961606
 10
1142.083009619043
 20
2034.178312301117
 10
1143.042277124515
 20
2034.584912543831
 10
1143.979184270258
 20
2035.018962253397
 10
1144.892285313604
 20
2035.479910234389
 10
1145.780161639189
 20
2035.967173227654
 10
1146.641422166099
 20
2036.480136425582
 10
1147.47470351744
 20
2037.018153739795
 10
1148.278669971064
 20
2037.580547745048
 10
1149.052013228337
 20
2038.166609215783
 10
1149.793452061048
 20
2038.775596167686
 10
1150.501731925251
 20
2039.406732317459
 10
1151.175624664672
 20
2040.059204882787
 10
1151.813928464074
 20
2040.732161664013
 10
1152.415468252275
 20
2041.424707382654
 10
1152.979096791114
 20
2042.135899302694
 10
1153.503696714555
 20
2042.864742230424
 10
1153.988183793235
 20
2043.610183077493
 10
1154.43151168482
 20
2044.371105276289
 10
1154.832678379725
 20
2045.146323448992
 10
1155.190734457501
 20
2045.934578838203
 10
1155.504793128033
 20
2046.734536089805
 10
1155.77404184812
 20
2047.544782015594
 10
1155.997755092363
 20
2048.363826932614
 10
1156.175307643055
 20
2049.190109061658
 10
1156.306187581131
 20
2050.022002264076
 10
1156.390008047168
 20
2050.857827115548
 10
1156.426516830877
 20
2051.69586498806
 10
1156.428244810776
 20
2051.922211978309
1001
REVIT
1002
{
1070
     3
1000
923267
1002
}
  0
LINE
  5
2B1
330
2A3
100
AcDbEntity
  8
M-PIPE
100
AcDbLine
 10
1111.278244810774
 20
2049.093784853562
 30
0.0
 11
1111.278244810774
 21
2047.820992647425
 31
0.0
1001
REVIT
1002
{
1070
     3
1000
923267
1002
}
  0
LINE
  5
2B2
330
2A3
100
AcDbEntity
  8
M-PIPE
100
AcDbLine
 10
1145.278244810773
 20
2047.820992647425
 30
0.0
 11
1145.278244810773
 21
2049.093784853562
 31
0.0
1001
REVIT
1002
{
1070
     3
1000
923267
1002
}
  0
LWPOLYLINE
  5
2B3
330
2A3
100
AcDbEntity
  8
M-PIPE
100
AcDbPolyline
 90
       19
 70
   128
 43
0.0
 10
1111.278244810774
 20
2047.820992647425
 10
1111.294236928287
 20
2047.2555935533
 10
1111.342119207963
 20
2046.691905694068
 10
1111.421613247789
 20
2046.131607052151
 10
1111.532267399221
 20
2045.576311362942
 10
1111.673474072468
 20
2045.02754135695
 10
1111.844491705715
 20
2044.486707712203
 10
1112.044469551324
 20
2043.955094551466
 10
1112.272473390042
 20
2043.433851653313
 10
1112.527510460902
 20
2042.923992952398
 10
1112.808552229883
 20
2042.426400452166
 10
1113.114554039364
 20
2041.941832396125
 10
1113.444471111187
 20
2041.470934439868
 10
1113.797270762489
 20
2041.014252607499
 10
1114.171941000496
 20
2040.572246961352
 10
1114.567495876461
 20
2040.145305118278
 10
1114.982978102915
 20
2039.733754970277
 10
1115.417459486076
 20
2039.337876182486
 10
1115.528244810774
 20
2039.244865819162
1001
REVIT
1002
{
1070
     3
1000
923267
1002
}
  0
LWPOLYLINE
  5
2B4
330
2A3
100
AcDbEntity
  8
M-PIPE
100
AcDbPolyline
 90
       19
 70
   128
 43
0.0
 10
1141.028244810772
 20
2039.242318726883
 10
1141.458075372295
 20
2039.625349284751
 10
1141.878775884337
 20
2040.032695398389
 10
1142.27980241442
 20
2040.45551299658
 10
1142.660205563108
 20
2040.893488278986
 10
1143.019006960872
 20
2041.34625095738
 10
1143.355201240795
 20
2041.813361831362
 10
1143.667760600962
 20
2042.294299432887
 10
1143.95564248035
 20
2042.788446321841
 10
1144.217800770305
 20
2043.295075839365
 10
1144.453200794856
 20
2043.813340338917
 10
1144.66083801064
 20
2044.342262080564
 10
1144.839760009753
 20
2044.88072804785
 10
1144.9890909854
 20
2045.427489885456
 10
1145.108057391396
 20
2045.981169926961
 10
1145.196013161154
 20
2046.540273875391
 10
1145.252462625317
 20
2047.10321013839
 10
1145.277079245937
 20
2047.668315164916
 10
1145.278244810773
 20
2047.820992647425
1001
REVIT
1002
{
1070
     3
1000
923267
1002
}
  0
LINE
  5
2B5
330
2A3
100
AcDbEntity
  8
M-PIPE
100
AcDbLine
 10
1115.528244810774
 20
2044.815788827382
 30
0.0
 11
1115.528244810774
 21
2037.426522963983
 31
0.0
1001
REVIT
1002
{
1070
     3
1000
923267
1002
}
  0
LINE
  5
2B6
330
2A3
100
AcDbEntity
  8
M-PIPE
100
AcDbLine
 10
1141.028244810773
 20
2037.426522963983
 30
0.0
 11
1141.028244810773
 21
2044.815788827382
 31
0.0
1001
REVIT
1002
{
1070
     3
1000
923267
1002
}
  0
LWPOLYLINE
  5
2B7
330
2A3
100
AcDbEntity
  8
M-PIPE
100
AcDbPolyline
 90
       10
 70
   128
 43
0.0
 10
1115.528244810774
 20
2037.426522963983
 10
1115.538842439304
 20
2037.051878881958
 10
1115.570606956137
 20
2036.677968603371
 10
1115.623453911392
 20
2036.305519671919
 10
1115.69724468204
 20
2035.93524748929
 10
1115.791789457464
 20
2035.567850141299
 10
1115.906851042648
 20
2035.204004179175
 10
1116.04214917095
 20
2034.844361496228
 10
1116.197365011334
 20
2034.489547329181
 10
1116.328033952602
 20
2034.228338882595
1001
REVIT
1002
{
1070
     3
1000
923267
1002
}
  0
LWPOLYLINE
  5
2B8
330
2A3
100
AcDbEntity
  8
M-PIPE
100
AcDbPolyline
 90
       11
 70
   128
 43
0.0
 10
1140.228035391407
 20
2034.228834699302
 10
1140.313862131903
 20
2034.394685748267
 10
1140.474394755989
 20
2034.748093078314
 10
1140.615101753591
 20
2035.106492967031
 10
1140.73565465142
 20
2035.469267575299
 10
1140.83576232893
 20
2035.835772053695
 10
1140.915175527111
 20
2036.205336245883
 10
1140.973691244168
 20
2036.577267506821
 10
1141.011156707622
 20
2036.950854634949
 10
1141.027472608915
 20
2037.325372808373
 10
1141.028244810773
 20
2037.426522963983
1001
REVIT
1002
{
1070
     3
1000
923267
1002
}
  0
ELLIPSE
  5
2B9
330
2A3
100
AcDbEntity
  8
M-PIPE
100
AcDbEllipse
 10
1121.635239292683
 20
2032.476775495676
 30
0.0
 11
8.000000000000051
 21
0.0
 31
0.0
210
0.0
220
0.0
230
1.0
 40
0.7071067811865497
 41
3.354249056047499
 42
3.525059686174299
1001
REVIT
1002
{
1070
     3
1000
923267
1002
}
  0
ELLIPSE
  5
2BA
330
2A3
100
AcDbEntity
  8
M-PIPE
100
AcDbEllipse
 10
1134.921250328866
 20
2032.476775495676
 30
0.0
 11
7.99999999999996
 21
0.0
 31
0.0
210
0.0
220
0.0
230
1.0
 40
0.7071067811865647
 41
5.899718274593412
 42
6.070528904720761
1001
REVIT
1002
{
1070
     3
1000
923267
1002
}
  0
LINE
  5
2BB
330
2A3
100
AcDbEntity
  8
M-PIPE
100
AcDbLine
 10
1142.741040018963
 20
2031.282855648563
 30
0.0
 11
1143.881774465214
 21
2035.018576887933
 31
0.0
1001
REVIT
1002
{
1070
     3
1000
923267
1002
}
  0
LINE
  5
2BC
330
2A3
100
AcDbEntity
  8
M-PIPE
100
AcDbLine
 10
1112.680209864893
 20
2035.000582604065
 30
0.0
 11
1113.815449602584
 21
2031.282855648569
 31
0.0
1001
REVIT
1002
{
1070
     3
1000
923267
1002
}
  0
ELLIPSE
  5
2BD
330
2A3
100
AcDbEntity
  8
M-PIPE
100
AcDbEllipse
 10
1134.92125032889
 20
2072.781862023316
 30
0.0
 11
8.000000000000099
 21
0.0
 31
0.0
210
0.0
220
0.0
230
1.0
 40
0.7071067811865177
 41
0.2126564024577229
 42
1.570796326794896
1001
REVIT
1002
{
1070
     3
1000
923267
1002
}
  0
LINE
  5
2BE
330
2A3
100
AcDbEntity
  8
M-PIPE
100
AcDbLine
 10
1134.92125032889
 20
2078.438716272808
 30
0.0
 11
1121.635239292675
 21
2078.438716272808
 31
0.0
1001
REVIT
1002
{
1070
     3
1000
923267
1002
}
  0
ELLIPSE
  5
2BF
330
2A3
100
AcDbEntity
  8
M-PIPE
100
AcDbEllipse
 10
1121.635239292675
 20
2072.781862023316
 30
0.0
 11
8.0
 21
0.0
 31
0.0
210
0.0
220
0.0
230
1.0
 40
0.7071067811865534
 41
1.570796326794924
 42
2.928936251131004
1001
REVIT
1002
{
1070
     3
1000
923267
1002
}
  0
LINE
  5
2C0
330
2A3
100
AcDbEntity
  8
M-PIPE
100
AcDbLine
 10
1113.815449602579
 20
2073.97578187043
 30
0.0
 11
1112.301493370178
 21
2069.01781950553
 31
0.0
1001
REVIT
1002
{
1070
     3
1000
923267
1002
}
  0
ELLIPSE
  5
2C1
330
2A3
100
AcDbEntity
  8
M-PIPE
100
AcDbEllipse
 10
1128.278244810771
 20
2052.629318759495
 30
0.0
 11
28.15000000000205
 21
0.0
 31
0.0
210
0.0
220
0.0
230
1.0
 40
0.7071067811865382
 41
1.570796326794904
 42
2.174332877647411
1001
REVIT
1002
{
1070
     3
1000
923267
1002
}
  0
ELLIPSE
  5
2C2
330
2A3
100
AcDbEntity
  8
M-PIPE
100
AcDbEllipse
 10
1128.278244810771
 20
2052.629318759495
 30
0.0
 11
28.15000000000214
 21
0.0
 31
0.0
210
0.0
220
0.0
230
1.0
 40
0.7071067811865453
 41
0.9672597759415978
 42
1.570796326794888
1001
REVIT
1002
{
1070
     3
1000
923267
1002
}
  0
LINE
  5
2C3
330
2A3
100
AcDbEntity
  8
M-PIPE
100
AcDbLine
 10
1144.254996251382
 20
2069.017819505521
 30
0.0
 11
1142.741040018988
 21
2073.975781870423
 31
0.0
1001
REVIT
1002
{
1070
     3
1000
923267
1002
}
  0
LINE
  5
2C4
330
2A3
100
AcDbEntity
  8
M-PIPE
100
AcDbLine
 10
1110.429177448226
 20
2068.01874750171
 30
0.0
 11
1110.429177448226
 21
2086.503653474907
 31
0.0
1001
REVIT
1002
{
1070
     3
1000
923267
1002
}
  0
LINE
  5
2C5
330
2A3
100
AcDbEntity
  8
M-PIPE
100
AcDbLine
 10
1146.127312173313
 20
2068.018747501711
 30
0.0
 11
1146.127312173313
 21
2086.503653474931
 31
0.0
1001
REVIT
1002
{
1070
     3
1000
923267
1002
}
  0
SPLINE
  5
2C6
330
2A3
100
AcDbEntity
  8
M-PIPE
100
AcDbSpline
210
0.0
220
0.0
230
1.0
 70
     8
 71
     3
 72
     8
 73
     4
 74
     0
 42
0.000000001
 43
0.0000000001
 40
0.0
 40
0.0
 40
0.0
 40
0.0
 40
0.1428571428571428
 40
0.1428571428571428
 40
0.1428571428571428
 40
0.1428571428571428
 10
1146.127312173313
 20
2086.503653474931
 30
0.0
 10
1146.127365174507
 20
2086.826373010273
 30
0.0
 10
1146.078082588226
 20
2087.132263824389
 30
0.0
 10
1145.982570893091
 20
2087.413677575229
 30
0.0
1001
REVIT
1002
{
1070
     3
1000
923267
1002
}
  0
SPLINE
  5
2C7
330
2A3
100
AcDbEntity
  8
M-PIPE
100
AcDbSpline
210
0.0
220
0.0
230
1.0
 70
     8
 71
     3
 72
     8
 73
     4
 74
     0
 42
0.000000001
 43
0.0000000001
 40
-1.0
 40
-1.0
 40
-1.0
 40
-1.0
 40
-0.867580203385091
 40
-0.867580203385091
 40
-0.867580203385091
 40
-0.867580203385091
 10
1110.429177448226
 20
2086.503653474907
 30
0.0
 10
1110.42872796442
 20
2086.796344315499
 30
0.0
 10
1110.469673259113
 20
2087.076229805086
 30
0.0
 10
1110.549584261356
 20
2087.337056010127
 30
0.0
1001
REVIT
1002
{
1070
     3
1000
923267
1002
}
  0
ELLIPSE
  5
2C8
330
2A3
100
AcDbEntity
  8
M-PIPE
100
AcDbEllipse
 10
1128.278244810771
 20
2052.629318759494
 30
0.0
 11
28.1500000000021
 21
0.0
 31
0.0
210
0.0
220
0.0
230
0.9999999999999998
 40
0.7071067811865498
 41
2.174332877647399
 42
3.060987672261628
1001
REVIT
1002
{
1070
     3
1000
923267
1002
}
  0
ELLIPSE
  5
2C9
330
2A3
100
AcDbEntity
  8
M-PIPE
100
AcDbEllipse
 10
1128.278244810771
 20
2052.629318759494
 30
0.0
 11
28.15000000000213
 21
0.0
 31
0.0
210
0.0
220
0.0
230
1.0
 40
0.7071067811865471
 41
0.0806049813280497
 42
0.9672597759415971
1001
REVIT
1002
{
1070
     3
1000
923267
1002
}
  0
LINE
  5
2CA
330
2A3
100
AcDbEntity
  8
M-PIPE
100
AcDbLine
 10
1121.328244810773
 20
2044.48255885009
 30
0.0
 11
1121.328244810773
 21
2043.982558850026
 31
0.0
1001
REVIT
1002
{
1070
     3
1000
790271
1002
}
  0
LINE
  5
2CB
330
2A3
100
AcDbEntity
  8
M-PIPE
100
AcDbLine
 10
1135.228244810773
 20
2043.982558850027
 30
0.0
 11
1135.228244810773
 21
2044.48255885009
 31
0.0
1001
REVIT
1002
{
1070
     3
1000
790271
1002
}
  0
LINE
  5
2CC
330
2A3
100
AcDbEntity
  8
M-PIPE
100
AcDbLine
 10
1121.328244810773
 20
2042.16267239929
 30
0.0
 11
1121.328244810773
 21
2040.685460769771
 31
0.0
1001
REVIT
1002
{
1070
     3
1000
790271
1002
}
  0
LINE
  5
2CD
330
2A3
100
AcDbEntity
  8
M-PIPE
100
AcDbLine
 10
1135.228244810773
 20
2040.685460769772
 30
0.0
 11
1135.228244810773
 21
2042.16267239929
 31
0.0
1001
REVIT
1002
{
1070
     3
1000
790271
1002
}
  0
LINE
  5
2CE
330
2A3
100
AcDbEntity
  8
M-PIPE
100
AcDbLine
 10
1121.82824481071
 20
2044.982558850026
 30
0.0
 11
1121.387703024225
 21
2044.542017063541
 31
0.0
1001
REVIT
1002
{
1070
     3
1000
790271
1002
}
  0
LINE
  5
2CF
330
2A3
100
AcDbEntity
  8
M-PIPE
100
AcDbLine
 10
1121.368978333308
 20
2044.523292372625
 30
0.0
 11
1121.328244810773
 21
2044.48255885009
 31
0.0
1001
REVIT
1002
{
1070
     3
1000
790271
1002
}
  0
LINE
  5
2D0
330
2A3
100
AcDbEntity
  8
M-PIPE
100
AcDbLine
 10
1135.228244810773
 20
2044.48255885009
 30
0.0
 11
1135.187511288238
 21
2044.523292372625
 31
0.0
1001
REVIT
1002
{
1070
     3
1000
790271
1002
}
  0
LINE
  5
2D1
330
2A3
100
AcDbEntity
  8
M-PIPE
100
AcDbLine
 10
1135.168786597321
 20
2044.542017063542
 30
0.0
 11
1134.728244810836
 21
2044.982558850026
 31
0.0
1001
REVIT
1002
{
1070
     3
1000
790271
1002
}
  0
LINE
  5
2D2
330
2A3
100
AcDbEntity
  8
M-PIPE
100
AcDbLine
 10
1121.328244810773
 20
2040.482558850027
 30
0.0
 11
1120.195341042115
 21
2039.828476554226
 31
0.0
1001
REVIT
1002
{
1070
     3
1000
790271
1002
}
  0
LINE
  5
2D3
330
2A3
100
AcDbEntity
  8
M-PIPE
100
AcDbLine
 10
1136.361148579425
 20
2039.828476554229
 30
0.0
 11
1135.228244810773
 21
2040.482558850027
 31
0.0
1001
REVIT
1002
{
1070
     3
1000
790271
1002
}
  0
LINE
  5
2D4
330
2A3
100
AcDbEntity
  8
M-PIPE
100
AcDbLine
 10
1121.528244810773
 20
2051.682558850027
 30
0.0
 11
1121.528244810773
 21
2049.745692097484
 31
0.0
1001
REVIT
1002
{
1070
     3
1000
790271
1002
}
  0
LINE
  5
2D5
330
2A3
100
AcDbEntity
  8
M-PIPE
100
AcDbLine
 10
1135.028244810773
 20
2049.745692097484
 30
0.0
 11
1135.028244810773
 21
2051.682558850027
 31
0.0
1001
REVIT
1002
{
1070
     3
1000
790271
1002
}
  0
LINE
  5
2D6
330
2A3
100
AcDbEntity
  8
M-PIPE
100
AcDbLine
 10
1121.528244810773
 20
2045.806461085435
 30
0.0
 11
1121.528244810773
 21
2044.982558850026
 31
0.0
1001
REVIT
1002
{
1070
     3
1000
790271
1002
}
  0
LINE
  5
2D7
330
2A3
100
AcDbEntity
  8
M-PIPE
100
AcDbLine
 10
1135.028244810773
 20
2044.982558850026
 30
0.0
 11
1135.028244810773
 21
2045.806461085435
 31
0.0
1001
REVIT
1002
{
1070
     3
1000
790271
1002
}
  0
LINE
  5
2D8
330
2A3
100
AcDbEntity
  8
M-PIPE
100
AcDbLine
 10
1122.028244810773
 20
2052.182558850026
 30
0.0
 11
1121.5859919965
 21
2051.740306035753
 31
0.0
1001
REVIT
1002
{
1070
     3
1000
790271
1002
}
  0
LINE
  5
2D9
330
2A3
100
AcDbEntity
  8
M-PIPE
100
AcDbLine
 10
1121.570057953964
 20
2051.724371993218
 30
0.0
 11
1121.528244810773
 21
2051.682558850027
 31
0.0
1001
REVIT
1002
{
1070
     3
1000
790271
1002
}
  0
LINE
  5
2DA
330
2A3
100
AcDbEntity
  8
M-PIPE
100
AcDbLine
 10
1135.028244810773
 20
2051.682558850027
 30
0.0
 11
1134.986431667581
 21
2051.724371993218
 31
0.0
1001
REVIT
1002
{
1070
     3
1000
790271
1002
}
  0
LINE
  5
2DB
330
2A3
100
AcDbEntity
  8
M-PIPE
100
AcDbLine
 10
1134.970497625046
 20
2051.740306035753
 30
0.0
 11
1134.528244810773
 21
2052.182558850026
 31
0.0
1001
REVIT
1002
{
1070
     3
1000
790271
1002
}
  0
LINE
  5
2DC
330
2A3
100
AcDbEntity
  8
M-PIPE
100
AcDbLine
 10
1135.228244810771
 20
2044.482558850089
 30
0.0
 11
1134.699292425088
 21
2044.482558850089
 31
0.0
1001
REVIT
1002
{
1070
     3
1000
790271
1002
}
  0
LINE
  5
2DD
330
2A3
100
AcDbEntity
  8
M-PIPE
100
AcDbLine
 10
1121.857197196454
 20
2044.482558850089
 30
0.0
 11
1121.328244810771
 21
2044.482558850089
 31
0.0
1001
REVIT
1002
{
1070
     3
1000
790271
1002
}
  0
LINE
  5
2DE
330
2A3
100
AcDbEntity
  8
M-PIPE
100
AcDbLine
 10
1121.328244810771
 20
2043.982558850025
 30
0.0
 11
1121.50667655926
 21
2043.982558850025
 31
0.0
1001
REVIT
1002
{
1070
     3
1000
790271
1002
}
  0
LINE
  5
2DF
330
2A3
100
AcDbEntity
  8
M-PIPE
100
AcDbLine
 10
1135.049813062281
 20
2043.982558850025
 30
0.0
 11
1135.228244810771
 21
2043.982558850025
 31
0.0
1001
REVIT
1002
{
1070
     3
1000
790271
1002
}
  0
SPLINE
  5
2E0
330
2A3
100
AcDbEntity
  8
M-PIPE
100
AcDbSpline
210
0.0
220
0.0
230
1.0
 70
     8
 71
     3
 72
     8
 73
     4
 74
     0
 42
0.000000001
 43
0.0000000001
 40
-1.0
 40
-1.0
 40
-1.0
 40
-1.0
 40
-0.7243754966940517
 40
-0.7243754966940517
 40
-0.7243754966940517
 40
-0.7243754966940517
 10
1120.195341042113
 20
2039.828476554225
 30
0.0
 10
1120.574316115921
 20
2040.05784553993
 30
0.0
 10
1120.951061370244
 20
2040.223975908744
 30
0.0
 10
1121.32297565882
 20
2040.326445614855
 30
0.0
1001
REVIT
1002
{
1070
     3
1000
790271
1002
}
  0
SPLINE
  5
2E1
330
2A3
100
AcDbEntity
  8
M-PIPE
100
AcDbSpline
210
0.0
220
0.0
230
1.0
 70
     8
 71
     3
 72
     8
 73
     4
 74
     0
 42
0.000000001
 43
0.0000000001
 40
-0.2756245033004684
 40
-0.2756245033004684
 40
-0.2756245033004684
 40
-0.2756245033004684
 40
0.0
 40
0.0
 40
0.0
 40
0.0
 10
1135.233513962721
 20
2040.326445614862
 30
0.0
 10
1135.605428251292
 20
2040.223975908748
 30
0.0
 10
1135.982173505607
 20
2040.057845539933
 30
0.0
 10
1136.361148579408
 20
2039.828476554228
 30
0.0
1001
REVIT
1002
{
1070
     3
1000
790271
1002
}
  0
LINE
  5
2E2
330
2A3
100
AcDbEntity
  8
M-PIPE
100
AcDbLine
 10
1136.361148579408
 20
2039.828476554228
 30
0.0
 11
1136.361148579409
 21
2038.071699947739
 31
0.0
1001
REVIT
1002
{
1070
     3
1000
790271
1002
}
  0
LINE
  5
2E3
330
2A3
100
AcDbEntity
  8
M-PIPE
100
AcDbLine
 10
1120.195341042099
 20
2039.828476554225
 30
0.0
 11
1120.1953410421
 21
2038.071699947734
 31
0.0
1001
REVIT
1002
{
1070
     3
1000
790271
1002
}
  0
LINE
  5
2E4
330
2A3
100
AcDbEntity
  8
M-PIPE
100
AcDbLine
 10
1122.028244810771
 20
2052.182558850025
 30
0.0
 11
1134.528244810771
 21
2052.182558850025
 31
0.0
1001
REVIT
1002
{
1070
     3
1000
790271
1002
}
  0
LINE
  5
2E5
330
2A3
100
AcDbEntity
  8
M-PIPE
100
AcDbLine
 10
1135.028244810771
 20
2051.682558850026
 30
0.0
 11
1121.528244810771
 21
2051.682558850025
 31
0.0
1001
REVIT
1002
{
1070
     3
1000
790271
1002
}
  0
LINE
  5
2E6
330
2A3
100
AcDbEntity
  8
M-PIPE
100
AcDbLine
 10
1121.528244810771
 20
2044.982558850025
 30
0.0
 11
1122.517859030379
 21
2044.982558850025
 31
0.0
1001
REVIT
1002
{
1070
     3
1000
790271
1002
}
  0
LINE
  5
2E7
330
2A3
100
AcDbEntity
  8
M-PIPE
100
AcDbLine
 10
1134.038630591162
 20
2044.982558850025
 30
0.0
 11
1135.028244810771
 21
2044.982558850025
 31
0.0
1001
REVIT
1002
{
1070
     3
1000
790271
1002
}
  0
LINE
  5
2E8
330
2A3
100
AcDbEntity
  8
M-PIPE
100
AcDbLine
 10
1121.328244810773
 20
2042.655076275858
 30
0.0
 11
1121.328244810773
 21
2042.16267239929
 31
0.0
1001
REVIT
1002
{
1070
     3
1000
790271
1002
}
  0
LINE
  5
2E9
330
2A3
100
AcDbEntity
  8
M-PIPE
100
AcDbLine
 10
1135.228244810773
 20
2042.16267239929
 30
0.0
 11
1135.228244810773
 21
2042.655076275858
 31
0.0
1001
REVIT
1002
{
1070
     3
1000
790271
1002
}
  0
LINE
  5
2EA
330
2A3
100
AcDbEntity
  8
M-PIPE
100
AcDbLine
 10
1122.278244810773
 20
2041.559244981897
 30
0.0
 11
1122.278244810773
 21
2040.685460769771
 31
0.0
1001
REVIT
1002
{
1070
     3
1000
790271
1002
}
  0
LINE
  5
2EB
330
2A3
100
AcDbEntity
  8
M-PIPE
100
AcDbLine
 10
1134.278244810773
 20
2040.685460769772
 30
0.0
 11
1134.278244810773
 21
2041.559244981897
 31
0.0
1001
REVIT
1002
{
1070
     3
1000
790271
1002
}
  0
LINE
  5
2EC
330
2A3
100
AcDbEntity
  8
M-PIPE
100
AcDbLine
 10
1121.328244810773
 20
2040.685460769771
 30
0.0
 11
1121.328244810773
 21
2038.715845263747
 31
0.0
1001
REVIT
1002
{
1070
     3
1000
790271
1002
}
  0
LINE
  5
2ED
330
2A3
100
AcDbEntity
  8
M-PIPE
100
AcDbLine
 10
1135.228244810773
 20
2038.715845263747
 30
0.0
 11
1135.228244810773
 21
2040.685460769772
 31
0.0
1001
REVIT
1002
{
1070
     3
1000
790271
1002
}
  0
LINE
  5
2EE
330
2A3
100
AcDbEntity
  8
M-PIPE
100
AcDbLine
 10
1121.59299623939
 20
2043.018961014764
 30
0.0
 11
1121.437139847924
 21
2042.867877345029
 31
0.0
1001
REVIT
1002
{
1070
     3
1000
790271
1002
}
  0
LINE
  5
2EF
330
2A3
100
AcDbEntity
  8
M-PIPE
100
AcDbLine
 10
1135.119349773622
 20
2042.867877345029
 30
0.0
 11
1134.963493382156
 21
2043.018961014765
 31
0.0
1001
REVIT
1002
{
1070
     3
1000
790271
1002
}
  0
LINE
  5
2F0
330
2A3
100
AcDbEntity
  8
M-PIPE
100
AcDbLine
 10
1121.528244810773
 20
2049.745692097484
 30
0.0
 11
1121.528244810773
 21
2045.806461085435
 31
0.0
1001
REVIT
1002
{
1070
     3
1000
790271
1002
}
  0
LINE
  5
2F1
330
2A3
100
AcDbEntity
  8
M-PIPE
100
AcDbLine
 10
1135.028244810773
 20
2045.806461085435
 30
0.0
 11
1135.028244810773
 21
2049.745692097484
 31
0.0
1001
REVIT
1002
{
1070
     3
1000
790271
1002
}
  0
LINE
  5
2F2
330
2A3
100
AcDbEntity
  8
M-PIPE
100
AcDbLine
 10
1122.528244810773
 20
2045.196672409644
 30
0.0
 11
1122.528244810773
 21
2044.132287905314
 31
0.0
1001
REVIT
1002
{
1070
     3
1000
790271
1002
}
  0
LINE
  5
2F3
330
2A3
100
AcDbEntity
  8
M-PIPE
100
AcDbLine
 10
1134.028244810773
 20
2044.132287905314
 30
0.0
 11
1134.028244810773
 21
2045.196672409644
 31
0.0
1001
REVIT
1002
{
1070
     3
1000
790271
1002
}
  0
LINE
  5
2F4
330
2A3
100
AcDbEntity
  8
M-PIPE
100
AcDbLine
 10
1121.528244810773
 20
2044.132287905314
 30
0.0
 11
1121.528244810773
 21
2043.147480152302
 31
0.0
1001
REVIT
1002
{
1070
     3
1000
790271
1002
}
  0
LINE
  5
2F5
330
2A3
100
AcDbEntity
  8
M-PIPE
100
AcDbLine
 10
1135.028244810773
 20
2043.147480152302
 30
0.0
 11
1135.028244810773
 21
2044.132287905314
 31
0.0
1001
REVIT
1002
{
1070
     3
1000
790271
1002
}
  0
LINE
  5
2F6
330
2A3
100
AcDbEntity
  8
M-PIPE
100
AcDbLine
 10
1122.126172002455
 20
2050.429463841949
 30
0.0
 11
1121.63400617779
 21
2049.95236939488
 31
0.0
1001
REVIT
1002
{
1070
     3
1000
790271
1002
}
  0
LINE
  5
2F7
330
2A3
100
AcDbEntity
  8
M-PIPE
100
AcDbLine
 10
1134.922483443755
 20
2049.952369394881
 30
0.0
 11
1134.43031761909
 21
2050.42946384195
 31
0.0
1001
REVIT
1002
{
1070
     3
1000
790271
1002
}
  0
LINE
  5
2F8
330
2A3
100
AcDbEntity
  8
M-PIPE
100
AcDbLine
 10
1121.728244810773
 20
2028.899124027439
 30
0.0
 11
1121.728244810773
 21
2025.223979047495
 31
0.0
1001
REVIT
1002
{
1070
     3
1000
790271
1002
}
  0
LINE
  5
2F9
330
2A3
100
AcDbEntity
  8
M-PIPE
100
AcDbLine
 10
1134.828244810773
 20
2025.223979047495
 30
0.0
 11
1134.828244810773
 21
2028.899124027435
 31
0.0
1001
REVIT
1002
{
1070
     3
1000
790271
1002
}
  0
ELLIPSE
  5
2FA
330
2A3
100
AcDbEntity
  8
M-PIPE
100
AcDbEllipse
 10
1128.278244810771
 20
2042.655076275857
 30
0.0
 11
6.949999999999817
 21
0.0
 31
0.0
210
0.0
220
0.0
230
1.0
 40
0.1736481776669057
 41
3.141592653589792
 42
6.283185307179585
1001
REVIT
1002
{
1070
     3
1000
790271
1002
}
  0
ELLIPSE
  5
2FB
330
2A3
100
AcDbEntity
  8
M-PIPE
100
AcDbEllipse
 10
1128.278244810771
 20
2042.655076275857
 30
0.0
 11
6.950000000000043
 21
0.0
 31
0.0
210
0.0
220
0.0
230
1.0
 40
0.1736481776669327
 41
3.010692959690187
 42
3.141592653589792
1001
REVIT
1002
{
1070
     3
1000
790271
1002
}
  0
ELLIPSE
  5
2FC
330
2A3
100
AcDbEntity
  8
M-PIPE
100
AcDbEllipse
 10
1128.278244810771
 20
2042.655076275857
 30
0.0
 11
6.949999999999828
 21
0.0
 31
0.0
210
0.0
220
0.0
230
0.9999999999999998
 40
0.1736481776669078
 41
0.0
 42
0.1308996938998152
1001
REVIT
1002
{
1070
     3
1000
790271
1002
}
  0
ELLIPSE
  5
2FD
330
2A3
100
AcDbEntity
  8
M-PIPE
100
AcDbEllipse
 10
1128.278244810771
 20
2042.162672399289
 30
0.0
 11
6.950000000000043
 21
0.0
 31
0.0
210
0.0
220
0.0
230
1.0
 40
0.1736481776669
 41
3.141592653589975
 42
6.283185307179585
1001
REVIT
1002
{
1070
     3
1000
790271
1002
}
  0
ELLIPSE
  5
2FE
330
2A3
100
AcDbEntity
  8
M-PIPE
100
AcDbEllipse
 10
1128.278244810771
 20
2040.685460769771
 30
0.0
 11
6.0
 21
0.0
 31
0.0
210
0.0
220
0.0
230
1.0
 40
0.1736481776669052
 41
3.141592653589792
 42
6.283185307179585
1001
REVIT
1002
{
1070
     3
1000
790271
1002
}
  0
ELLIPSE
  5
2FF
330
2A3
100
AcDbEntity
  8
M-PIPE
100
AcDbEllipse
 10
1128.278244810771
 20
2040.685460769771
 30
0.0
 11
6.950000000000043
 21
0.0
 31
0.0
210
0.0
220
0.0
230
1.0
 40
0.1736481776669327
 41
3.141592653589792
 42
6.283185307179585
1001
REVIT
1002
{
1070
     3
1000
790271
1002
}
  0
ELLIPSE
  5
300
330
2A3
100
AcDbEntity
  8
M-PIPE
100
AcDbEllipse
 10
1128.278244810771
 20
2038.715845263746
 30
0.0
 11
6.950000000000043
 21
0.0
 31
0.0
210
0.0
220
0.0
230
1.0
 40
0.1736481776669327
 41
3.141592653589975
 42
4.188790204786361
1001
REVIT
1002
{
1070
     3
1000
790271
1002
}
  0
ELLIPSE
  5
301
330
2A3
100
AcDbEntity
  8
M-PIPE
100
AcDbEllipse
 10
1128.278244810771
 20
2038.715845263746
 30
0.0
 11
6.94999999999987
 21
0.0
 31
0.0
210
0.0
220
0.0
230
1.0
 40
0.1736481776669342
 41
4.188790204786356
 42
5.23598775598298
1001
REVIT
1002
{
1070
     3
1000
790271
1002
}
  0
ELLIPSE
  5
302
330
2A3
100
AcDbEntity
  8
M-PIPE
100
AcDbEllipse
 10
1128.278244810771
 20
2038.715845263746
 30
0.0
 11
6.949999999999952
 21
0.0
 31
0.0
210
0.0
220
0.0
230
1.0
 40
0.1736481776669321
 41
5.235987755982976
 42
6.283185307179585
1001
REVIT
1002
{
1070
     3
1000
790271
1002
}
  0
ELLIPSE
  5
303
330
2A3
100
AcDbEntity
  8
M-PIPE
100
AcDbEllipse
 10
1128.278244810771
 20
2040.685460769771
 30
0.0
 11
6.950000000000043
 21
0.0
 31
0.0
210
0.0
220
0.0
230
1.0
 40
0.1736481776669
 41
0.0
 42
0.528340082036803
1001
REVIT
1002
{
1070
     3
1000
790271
1002
}
  0
ELLIPSE
  5
304
330
2A3
100
AcDbEntity
  8
M-PIPE
100
AcDbEllipse
 10
1128.278244810771
 20
2040.685460769771
 30
0.0
 11
6.949999999999905
 21
0.0
 31
0.0
210
0.0
220
0.0
230
0.9999999999999998
 40
0.1736481776669308
 41
2.61325257155305
 42
3.141592653589792
1001
REVIT
1002
{
1070
     3
1000
790271
1002
}
  0
LINE
  5
305
330
2A3
100
AcDbEntity
  8
M-PIPE
100
AcDbLine
 10
1136.361148579408
 20
2029.360171610132
 30
0.0
 11
1132.319696695085
 21
2028.144634366465
 31
0.0
1001
REVIT
1002
{
1070
     3
1000
790271
1002
}
  0
LINE
  5
306
330
2A3
100
AcDbEntity
  8
M-PIPE
100
AcDbLine
 10
1132.319696695085
 20
2028.144634366465
 30
0.0
 11
1124.236792926431
 21
2028.144634366465
 31
0.0
1001
REVIT
1002
{
1070
     3
1000
790271
1002
}
  0
LINE
  5
307
330
2A3
100
AcDbEntity
  8
M-PIPE
100
AcDbLine
 10
1124.236792926431
 20
2028.144634366465
 30
0.0
 11
1120.195341042113
 21
2029.360171610131
 31
0.0
1001
REVIT
1002
{
1070
     3
1000
790271
1002
}
  0
SPLINE
  5
308
330
2A3
100
AcDbEntity
  8
M-PIPE
100
AcDbSpline
210
0.0
220
0.0
230
1.0
 70
     8
 71
     3
 72
    10
 73
     6
 74
     0
 42
0.000000001
 43
0.0000000001
 40
-1.0
 40
-1.0
 40
-1.0
 40
-1.0
 40
-0.6666666666666666
 40
-0.3333333333333333
 40
0.0
 40
0.0
 40
0.0
 40
0.0
 10
1120.195341042113
 20
2038.071699947734
 30
0.0
 10
1120.653663952767
 20
2038.207030178195
 30
0.0
 10
1121.563787162089
 20
2038.297478736756
 30
0.0
 10
1122.88179843869
 20
2037.896407683037
 30
0.0
 10
1123.784235001021
 20
2037.263414088464
 30
0.0
 10
1124.236792926431
 20
2036.856162704075
 30
0.0
1001
REVIT
1002
{
1070
     3
1000
790271
1002
}
  0
SPLINE
  5
309
330
2A3
100
AcDbEntity
  8
M-PIPE
100
AcDbSpline
210
0.0
220
0.0
230
1.0
 70
     8
 71
     3
 72
    10
 73
     6
 74
     0
 42
0.000000001
 43
0.0000000001
 40
-1.0
 40
-1.0
 40
-1.0
 40
-1.0
 40
-0.6666666666666666
 40
-0.3333333333333333
 40
0.0
 40
0.0
 40
0.0
 40
0.0
 10
1124.236792926431
 20
2036.856162704075
 30
0.0
 10
1125.141908777253
 20
2037.12729938786
 30
0.0
 10
1126.946781901917
 20
2037.488869424035
 30
0.0
 10
1129.582804455127
 20
2037.49352556546
 30
0.0
 10
1131.403050873776
 20
2037.129341555156
 30
0.0
 10
1132.319696695085
 20
2036.856162704082
 30
0.0
1001
REVIT
1002
{
1070
     3
1000
790271
1002
}
  0
SPLINE
  5
30A
330
2A3
100
AcDbEntity
  8
M-PIPE
100
AcDbSpline
210
0.0
220
0.0
230
1.0
 70
     8
 71
     3
 72
    10
 73
     6
 74
     0
 42
0.000000001
 43
0.0000000001
 40
-1.0
 40
-1.0
 40
-1.0
 40
-1.0
 40
-0.6666666666666666
 40
-0.3333333333333333
 40
0.0
 40
0.0
 40
0.0
 40
0.0
 10
1132.319696695085
 20
2036.856162704082
 30
0.0
 10
1132.772254620496
 20
2037.263414088473
 30
0.0
 10
1133.674691182828
 20
2037.896407683049
 30
0.0
 10
1134.99270245943
 20
2038.297478736772
 30
0.0
 10
1135.902825668754
 20
2038.207030178205
 30
0.0
 10
1136.361148579408
 20
2038.071699947739
 30
0.0
1001
REVIT
1002
{
1070
     3
1000
790271
1002
}
  0
SPLINE
  5
30B
330
2A3
100
AcDbEntity
  8
M-PIPE
100
AcDbSpline
210
0.0
220
0.0
230
1.0
 70
     8
 71
     3
 72
     8
 73
     4
 74
     0
 42
0.000000001
 43
0.0000000001
 40
-1.0
 40
-1.0
 40
-1.0
 40
-1.0
 40
-0.8333333333333332
 40
-0.8333333333333332
 40
-0.8333333333333332
 40
-0.8333333333333332
 10
1136.361148579423
 20
2038.071699947737
 30
0.0
 10
1136.131987124094
 20
2038.277213683581
 30
0.0
 10
1135.903640995265
 20
2038.459710484261
 30
0.0
 10
1135.676685311713
 20
2038.618925475226
 30
0.0
1001
REVIT
1002
{
1070
     3
1000
790271
1002
}
  0
SPLINE
  5
30C
330
2A3
100
AcDbEntity
  8
M-PIPE
100
AcDbSpline
210
0.0
220
0.0
230
1.0
 70
     8
 71
     3
 72
     8
 73
     4
 74
     0
 42
0.000000001
 43
0.0000000001
 40
-0.1666666666666667
 40
-0.1666666666666667
 40
-0.1666666666666667
 40
-0.1666666666666667
 40
0.0
 40
0.0
 40
0.0
 40
0.0
 10
1120.879804309808
 20
2038.618925475218
 30
0.0
 10
1120.652848626256
 20
2038.459710484253
 30
0.0
 10
1120.424502497426
 20
2038.277213683577
 30
0.0
 10
1120.195341042099
 20
2038.071699947735
 30
0.0
1001
REVIT
1002
{
1070
     3
1000
790271
1002
}
  0
LINE
  5
30D
330
2A3
100
AcDbEntity
  8
M-PIPE
100
AcDbLine
 10
1136.361148579408
 20
2038.071699947739
 30
0.0
 11
1136.361148579413
 21
2029.360171610086
 31
0.0
1001
REVIT
1002
{
1070
     3
1000
790271
1002
}
  0
LINE
  5
30E
330
2A3
100
AcDbEntity
  8
M-PIPE
100
AcDbLine
 10
1132.319696695085
 20
2036.856162704082
 30
0.0
 11
1132.319696695085
 21
2028.144634366418
 31
0.0
1001
REVIT
1002
{
1070
     3
1000
790271
1002
}
  0
LINE
  5
30F
330
2A3
100
AcDbEntity
  8
M-PIPE
100
AcDbLine
 10
1124.236792926431
 20
2036.856162704075
 30
0.0
 11
1124.236792926431
 21
2028.144634366418
 31
0.0
1001
REVIT
1002
{
1070
     3
1000
790271
1002
}
  0
LINE
  5
310
330
2A3
100
AcDbEntity
  8
M-PIPE
100
AcDbLine
 10
1120.195341042099
 20
2038.071699947735
 30
0.0
 11
1120.195341042104
 21
2029.360171610086
 31
0.0
1001
REVIT
1002
{
1070
     3
1000
790271
1002
}
  0
ELLIPSE
  5
311
330
2A3
100
AcDbEntity
  8
M-PIPE
100
AcDbEllipse
 10
1128.278244810771
 20
2050.238095973989
 30
0.0
 11
6.25
 21
0.0
 31
0.0
210
0.0
220
0.0
230
1.0
 40
0.1736481776669098
 41
3.141592653589792
 42
6.283185307179585
1001
REVIT
1002
{
1070
     3
1000
790271
1002
}
  0
ELLIPSE
  5
312
330
2A3
100
AcDbEntity
  8
M-PIPE
100
AcDbEllipse
 10
1128.278244810771
 20
2050.238095973989
 30
0.0
 11
6.25
 21
0.0
 31
0.0
210
0.0
220
0.0
230
1.0
 40
0.1736481776669098
 41
0.0
 42
3.141592653589792
1001
REVIT
1002
{
1070
     3
1000
790271
1002
}
  0
ELLIPSE
  5
313
330
2A3
100
AcDbEntity
  8
M-PIPE
100
AcDbEllipse
 10
1128.278244810771
 20
2049.745692097483
 30
0.0
 11
6.750000000000226
 21
0.0
 31
0.0
210
0.0
220
0.0
230
1.0
 40
0.173648177666912
 41
3.141592653589792
 42
6.283185307179973
1001
REVIT
1002
{
1070
     3
1000
790271
1002
}
  0
ELLIPSE
  5
314
330
2A3
100
AcDbEntity
  8
M-PIPE
100
AcDbEllipse
 10
1128.278244810771
 20
2049.745692097483
 30
0.0
 11
6.75
 21
0.0
 31
0.0
210
0.0
220
0.0
230
1.0
 40
0.1736481776669852
 41
3.010692959690343
 42
3.141592653589792
1001
REVIT
1002
{
1070
     3
1000
790271
1002
}
  0
ELLIPSE
  5
315
330
2A3
100
AcDbEntity
  8
M-PIPE
100
AcDbEllipse
 10
1128.278244810771
 20
2049.745692097483
 30
0.0
 11
6.750000000000184
 21
0.0
 31
0.0
210
0.0
220
0.0
230
1.0
 40
0.1736481776668566
 41
0.000000000000388
 42
0.1308996938999261
1001
REVIT
1002
{
1070
     3
1000
790271
1002
}
  0
ELLIPSE
  5
316
330
2A3
100
AcDbEntity
  8
M-PIPE
100
AcDbEllipse
 10
1128.278244810771
 20
2045.806461085434
 30
0.0
 11
6.750000000000226
 21
0.0
 31
0.0
210
0.0
220
0.0
230
1.0
 40
0.173648177666912
 41
3.141592653589792
 42
6.283185307179585
1001
REVIT
1002
{
1070
     3
1000
790271
1002
}
  0
ELLIPSE
  5
317
330
2A3
100
AcDbEntity
  8
M-PIPE
100
AcDbEllipse
 10
1128.278244810771
 20
2044.132287905314
 30
0.0
 11
5.75
 21
0.0
 31
0.0
210
0.0
220
0.0
230
1.0
 40
0.1736481776669003
 41
3.141592653590013
 42
6.283185307179585
1001
REVIT
1002
{
1070
     3
1000
790271
1002
}
  0
ELLIPSE
  5
318
330
2A3
100
AcDbEntity
  8
M-PIPE
100
AcDbEllipse
 10
1128.278244810771
 20
2044.132287905314
 30
0.0
 11
6.750000000000226
 21
0.0
 31
0.0
210
0.0
220
0.0
230
1.0
 40
0.1736481776669457
 41
3.14159265358998
 42
6.283185307179585
1001
REVIT
1002
{
1070
     3
1000
790271
1002
}
  0
ELLIPSE
  5
319
330
2A3
100
AcDbEntity
  8
M-PIPE
100
AcDbEllipse
 10
1128.278244810771
 20
2044.132287905314
 30
0.0
 11
6.75
 21
0.0
 31
0.0
210
0.0
220
0.0
230
1.0
 40
0.1736481776669178
 41
0.0
 42
0.5483410011458733
1001
REVIT
1002
{
1070
     3
1000
790271
1002
}
  0
ELLIPSE
  5
31A
330
2A3
100
AcDbEntity
  8
M-PIPE
100
AcDbEllipse
 10
1128.278244810771
 20
2044.132287905314
 30
0.0
 11
6.750000000000132
 21
0.0
 31
0.0
210
0.0
220
0.0
230
1.0
 40
0.1736481776668977
 41
2.593251652443868
 42
3.14159265358998
1001
REVIT
1002
{
1070
     3
1000
790271
1002
}
  0
ELLIPSE
  5
31B
330
2A3
100
AcDbEntity
  8
M-PIPE
100
AcDbEllipse
 10
1128.278244810771
 20
2043.147480152301
 30
0.0
 11
6.750000000000226
 21
0.0
 31
0.0
210
0.0
220
0.0
230
1.0
 40
0.1736481776669457
 41
3.14159265358998
 42
6.283185307179585
1001
REVIT
1002
{
1070
     3
1000
790271
1002
}
  0
ELLIPSE
  5
31C
330
2A3
100
AcDbEntity
  8
M-PIPE
100
AcDbEllipse
 10
1128.278244810771
 20
2025.223979047494
 30
0.0
 11
6.550000000000181
 21
0.0
 31
0.0
210
0.0
220
0.0
230
1.0
 40
0.1736481776668961
 41
3.141592653589792
 42
6.283185307179585
1001
REVIT
1002
{
1070
     3
1000
790271
1002
}
  0
LINE
  5
31D
330
2A3
100
AcDbEntity
  8
P-SANR-FIXT
100
AcDbLine
 10
1119.278244810773
 20
2025.223979047465
 30
0.0
 11
1119.278244810773
 21
2008.642812887856
 31
0.0
  0
LINE
  5
31E
330
2A3
100
AcDbEntity
  8
P-SANR-FIXT
100
AcDbLine
 10
1137.278244810773
 20
2008.642812887856
 30
0.0
 11
1137.278244810773
 21
2025.223979047465
 31
0.0
  0
ELLIPSE
  5
31F
330
2A3
100
AcDbEntity
  8
P-SANR-FIXT
100
AcDbEllipse
 10
1128.278244810771
 20
2025.223979047464
 30
0.0
 11
9.0
 21
0.0
 31
0.0
210
0.0
220
0.0
230
1.0
 40
0.1736481776669178
 41
2.387567650518811
 42
4.712388980384683
  0
ELLIPSE
  5
320
330
2A3
100
AcDbEntity
  8
P-SANR-FIXT
100
AcDbEllipse
 10
1128.278244810771
 20
2025.223979047464
 30
0.0
 11
8.999999999999889
 21
0.0
 31
0.0
210
0.0
220
0.0
230
1.0
 40
0.1736481776669162
 41
4.712388980384683
 42
7.03721031025064
  0
ELLIPSE
  5
321
330
2A3
100
AcDbEntity
  8
P-SANR-FIXT
100
AcDbEllipse
 10
1128.278244810771
 20
2004.73997778481
 30
0.0
 11
9.000000000000019
 21
0.0
 31
0.0
210
0.0
220
0.0
230
1.0
 40
0.1736481776668965
 41
4.083762800858733
 42
4.712388980384683
  0
ELLIPSE
  5
322
330
2A3
100
AcDbEntity
  8
P-SANR-FIXT
100
AcDbEllipse
 10
1128.278244810771
 20
2004.73997778481
 30
0.0
 11
9.0
 21
0.0
 31
0.0
210
0.0
220
0.0
230
1.0
 40
0.1736481776669178
 41
4.712388980384683
 42
5.34101515991067
  0
ELLIPSE
  5
323
330
2A3
100
AcDbEntity
  8
P-SANR-FIXT
100
AcDbEllipse
 10
1128.278244810771
 20
1998.966527565556
 30
0.0
 11
6.86621904387042
 21
0.0
 31
0.0
210
0.0
220
0.0
230
1.0
 40
0.1736481776668973
 41
3.593068202677378
 42
3.599768437755078
  0
ELLIPSE
  5
324
330
2A3
100
AcDbEntity
  8
P-SANR-FIXT
100
AcDbEllipse
 10
1128.278244810771
 20
1998.966527565556
 30
0.0
 11
6.866219043870171
 21
0.0
 31
0.0
210
0.0
220
0.0
230
1.0
 40
0.1736481776669426
 41
5.825009523014389
 42
5.831709758092062
  0
LINE
  5
325
330
2A3
100
AcDbEntity
  8
P-SANR-FIXT
100
AcDbLine
 10
1113.778244810774
 20
2026.982555805805
 30
0.0
 11
1113.778244810773
 21
2023.941996646703
 31
0.0
  0
LINE
  5
326
330
2A3
100
AcDbEntity
  8
P-SANR-FIXT
100
AcDbLine
 10
1142.778244810773
 20
2023.941996646703
 30
0.0
 11
1142.778244810773
 21
2026.982555805805
 31
0.0
  0
LINE
  5
327
330
2A3
100
AcDbEntity
  8
P-SANR-FIXT
100
AcDbLine
 10
1114.278244810773
 20
2023.183798953806
 30
0.0
 11
1114.278244810773
 21
2018.79987403881
 31
0.0
  0
LINE
  5
328
330
2A3
100
AcDbEntity
  8
P-SANR-FIXT
100
AcDbLine
 10
1142.278244810773
 20
2018.79987403881
 30
0.0
 11
1142.278244810773
 21
2023.183798953806
 31
0.0
  0
LWPOLYLINE
  5
329
330
2A3
100
AcDbEntity
  8
P-SANR-FIXT
100
AcDbPolyline
 90
       12
 70
   128
 43
0.0
 10
1114.278244810773
 20
2018.79987403881
 10
1114.291039271353
 20
2018.347536697717
 10
1114.329356525425
 20
2017.89646081118
 10
1114.39300073984
 20
2017.447885472454
 10
1114.481653780736
 20
2017.003006557785
 10
1114.59488677766
 20
2016.562958695775
 10
1114.732174807795
 20
2016.128801044521
 10
1114.892913468978
 20
2015.701507433186
 10
1115.076436082065
 20
2015.281960981011
 10
1115.282030381051
 20
2014.870952910962
 10
1115.508953772838
 20
2014.469184973797
 10
1115.539460218185
 20
2014.420877341804
  0
LWPOLYLINE
  5
32A
330
2A3
100
AcDbEntity
  8
P-SANR-FIXT
100
AcDbPolyline
 90
       12
 70
   128
 43
0.0
 10
1141.023217569563
 20
2014.432296438341
 10
1141.073365660254
 20
2014.512649240403
 10
1141.297993475423
 20
2014.915459131236
 10
1141.501209942033
 20
2015.32743663305
 10
1141.682275099698
 20
2015.747870423501
 10
1141.840480892051
 20
2016.175959289761
 10
1141.975166619288
 20
2016.610810064115
 10
1142.085735733691
 20
2017.051439245024
 10
1142.171673031966
 20
2017.496778860408
 10
1142.232561083885
 20
2017.945686816621
 10
1142.268094633249
 20
2018.396961572891
 10
1142.278244810773
 20
2018.79987403881
  0
LINE
  5
32B
330
2A3
100
AcDbEntity
  8
P-SANR-FIXT
100
AcDbLine
 10
1115.528244810773
 20
2017.231771088677
 30
0.0
 11
1115.528244810773
 21
2002.02168642992
 31
0.0
  0
LINE
  5
32C
330
2A3
100
AcDbEntity
  8
P-SANR-FIXT
100
AcDbLine
 10
1141.028244810773
 20
2002.02168642992
 30
0.0
 11
1141.028244810773
 21
2017.231771088677
 31
0.0
  0
LWPOLYLINE
  5
32D
330
2A3
100
AcDbEntity
  8
P-SANR-FIXT
100
AcDbPolyline
 90
       10
 70
   128
 43
0.0
 10
1115.528244810773
 20
2002.02168642992
 10
1115.540039404679
 20
2001.60469500055
 10
1115.575358658303
 20
2001.188908479818
 10
1115.634011534657
 20
2000.77550950552
 10
1115.715687884955
 20
2000.365637679224
 10
1115.819969999961
 20
1999.960371625659
 10
1115.94634727636
 20
1999.560714859447
 10
1116.094232766867
 20
1999.167586015695
 10
1116.262980354669
 20
1998.781813557305
 10
1116.278244810773
 20
1998.751297833821
  0
LWPOLYLINE
  5
32E
330
2A3
100
AcDbEntity
  8
P-SANR-FIXT
100
AcDbPolyline
 90
       10
 70
   128
 43
0.0
 10
1140.278244810773
 20
1998.752815955049
 10
1140.308206566954
 20
1998.813348336518
 10
1140.475258328054
 20
1999.199756944264
 10
1140.621392848635
 20
1999.593457042899
 10
1140.745968249893
 20
1999.993612633317
 10
1140.848403234461
 20
2000.399297816043
 10
1140.928194254975
 20
2000.809502447489
 10
1140.984931957079
 20
2001.223142279619
 10
1141.018315633833
 20
2001.639073434575
 10
1141.028244810773
 20
2002.02168642992
  0
LINE
  5
32F
330
2A3
100
AcDbEntity
  8
P-SANR-FIXT
100
AcDbLine
 10
1119.278244810773
 20
2026.782558850011
 30
0.0
 11
1119.278244810773
 21
2025.223979047465
 31
0.0
  0
LINE
  5
330
330
2A3
100
AcDbEntity
  8
P-SANR-FIXT
100
AcDbLine
 10
1137.278244810773
 20
2025.223979047465
 30
0.0
 11
1137.278244810773
 21
2026.782558850011
 31
0.0
  0
LINE
  5
331
330
2A3
100
AcDbEntity
  8
P-SANR-FIXT
100
AcDbLine
 10
1117.27824481079
 20
2037.072969573389
 30
0.0
 11
1117.27824481079
 21
2035.142641811462
 31
0.0
  0
LINE
  5
332
330
2A3
100
AcDbEntity
  8
P-SANR-FIXT
100
AcDbLine
 10
1139.278244810757
 20
2035.142641811462
 30
0.0
 11
1139.278244810757
 21
2037.072969573389
 31
0.0
  0
SPLINE
  5
333
330
2A3
100
AcDbEntity
  8
P-SANR-FIXT
100
AcDbSpline
210
0.0
220
0.0
230
1.0
 70
     8
 71
     3
 72
     8
 73
     4
 74
     0
 42
0.000000001
 43
0.0000000001
 40
0.3631387586691003
 40
0.3631387586691003
 40
0.3631387586691003
 40
0.3631387586691003
 40
0.5
 40
0.5
 40
0.5
 40
0.5
 10
1127.170492288914
 20
1993.741448883401
 30
0.0
 10
1127.03279043152
 20
1993.764768564357
 30
0.0
 10
1126.894698414621
 20
1993.78919279541
 30
0.0
 10
1126.760001574734
 20
1993.824387777353
 30
0.0
  0
SPLINE
  5
334
330
2A3
100
AcDbEntity
  8
P-SANR-FIXT
100
AcDbSpline
210
0.0
220
0.0
230
1.0
 70
     8
 71
     3
 72
     8
 73
     4
 74
     0
 42
0.000000001
 43
0.0000000001
 40
0.5
 40
0.5
 40
0.5
 40
0.5
 40
0.6368612413308439
 40
0.6368612413308439
 40
0.6368612413308439
 40
0.6368612413308439
 10
1129.796488046809
 20
1993.824387777353
 30
0.0
 10
1129.660617091521
 20
1993.792429542261
 30
0.0
 10
1129.52306724847
 20
1993.771159404258
 30
0.0
 10
1129.384620437802
 20
1993.755373453412
 30
0.0
  0
ELLIPSE
  5
335
330
2A3
100
AcDbEntity
  8
P-SANR-FIXT
100
AcDbEllipse
 10
1128.278244810771
 20
2026.982555805804
 30
0.0
 11
14.50000000000007
 21
0.0
 31
0.0
210
0.0
220
0.0
230
0.9999999999999998
 40
0.7071067811865384
 41
2.162175801437792
 42
3.141592653589792
  0
ELLIPSE
  5
336
330
2A3
100
AcDbEntity
  8
P-SANR-FIXT
100
AcDbEllipse
 10
1128.278244810771
 20
2026.982555805804
 30
0.0
 11
14.49999999999977
 21
0.0
 31
0.0
210
0.0
220
0.0
230
1.0
 40
0.7071067811865684
 41
0.0
 42
0.9794168521535819
  0
ELLIPSE
  5
337
330
2A3
100
AcDbEntity
  8
P-SANR-FIXT
100
AcDbEllipse
 10
1128.278244810771
 20
2023.941996646702
 30
0.0
 11
14.50000000000018
 21
0.0
 31
0.0
210
0.0
220
0.0
230
1.0
 40
0.7071067811865395
 41
2.162282585426988
 42
3.403320740780265
  0
ELLIPSE
  5
338
330
2A3
100
AcDbEntity
  8
P-SANR-FIXT
100
AcDbEllipse
 10
1128.278244810771
 20
2023.941996646702
 30
0.0
 11
14.49999999999985
 21
0.0
 31
0.0
210
0.0
220
0.0
230
1.0
 40
0.7071067811865603
 41
6.021457219989124
 42
7.262495375343824
  0
ELLIPSE
  5
339
330
2A3
100
AcDbEntity
  8
P-SANR-FIXT
100
AcDbEllipse
 10
1128.278244810771
 20
2023.183798953805
 30
0.0
 11
-14.00000000000023
 21
0.000000000000321
 31
0.0
210
0.0
220
0.0
230
0.9999999999999998
 40
0.7071067811865418
 41
5.328667181908993
 42
6.283185307179619
  0
ELLIPSE
  5
33A
330
2A3
100
AcDbEntity
  8
P-SANR-FIXT
100
AcDbEllipse
 10
1128.278244810771
 20
2023.183798953805
 30
0.0
 11
14.00000000000001
 21
0.0
 31
0.0
210
0.0
220
0.0
230
1.0
 40
0.7071067811865447
 41
0.0
 42
0.9545181252720384
  0
ELLIPSE
  5
33B
330
2A3
100
AcDbEntity
  8
P-SANR-FIXT
100
AcDbEllipse
 10
1128.278244810771
 20
2017.231771088676
 30
0.0
 11
-12.75
 21
0.0000000000003207
 31
0.0
210
0.0
220
0.0
230
1.0
 40
0.7071067811865423
 41
5.497214680539533
 42
6.283185307179622
  0
ELLIPSE
  5
33C
330
2A3
100
AcDbEntity
  8
P-SANR-FIXT
100
AcDbEllipse
 10
1128.278244810771
 20
2017.231771088676
 30
0.0
 11
12.74999999999997
 21
0.0
 31
0.0
210
0.0
220
0.0
230
1.0
 40
0.7071067811865488
 41
0.0
 42
0.7858140732519861
  0
ARC
  5
33D
330
2A3
100
AcDbEntity
  8
P-SANR-FIXT
100
AcDbCircle
 10
1128.278244810771
 20
1999.982558850011
 30
0.0
 40
13.00000000000023
100
AcDbArc
 50
90.0
 51
97.38013505195951
  0
LINE
  5
33E
330
2A3
100
AcDbEntity
  8
P-SANR-FIXT
100
AcDbLine
 10
1126.608371829693
 20
2012.874863695424
 30
0.0
 11
1117.948117791848
 21
2007.874863695423
 31
0.0
  0
ARC
  5
33F
330
2A3
100
AcDbEntity
  8
P-SANR-FIXT
100
AcDbCircle
 10
1128.278244810771
 20
1999.982558850011
 30
0.0
 40
13.00000000000028
100
AcDbArc
 50
142.619864948044
 51
157.3801350519585
  0
LINE
  5
340
330
2A3
100
AcDbEntity
  8
P-SANR-FIXT
100
AcDbLine
 10
1116.278244810771
 20
2004.982558850011
 30
0.0
 11
1116.278244810771
 21
1994.98255885001
 31
0.0
  0
ARC
  5
341
330
2A3
100
AcDbEntity
  8
P-SANR-FIXT
100
AcDbCircle
 10
1128.278244810771
 20
1999.982558850011
 30
0.0
 40
13.00000000000026
100
AcDbArc
 50
202.6198649480436
 51
217.3801350519584
  0
LINE
  5
342
330
2A3
100
AcDbEntity
  8
P-SANR-FIXT
100
AcDbLine
 10
1117.948117791849
 20
1992.090254004597
 30
0.0
 11
1126.608371829694
 21
1987.090254004597
 31
0.0
  0
ARC
  5
343
330
2A3
100
AcDbEntity
  8
P-SANR-FIXT
100
AcDbCircle
 10
1128.278244810771
 20
1999.982558850011
 30
0.0
 40
13.00000000000016
100
AcDbArc
 50
262.6198649480423
 51
269.9999999999997
  0
ARC
  5
344
330
2A3
100
AcDbEntity
  8
P-SANR-FIXT
100
AcDbCircle
 10
1128.278244810771
 20
1999.982558850011
 30
0.0
 40
6.350000000000137
100
AcDbArc
 50
90.0
 51
269.9999999999997
  0
ARC
  5
345
330
2A3
100
AcDbEntity
  8
P-SANR-FIXT
100
AcDbCircle
 10
1128.278244810771
 20
1999.982558850011
 30
0.0
 40
13.00000000000036
100
AcDbArc
 50
82.61986494804373
 51
90.0
  0
ARC
  5
346
330
2A3
100
AcDbEntity
  8
P-SANR-FIXT
100
AcDbCircle
 10
1128.278244810771
 20
1999.982558850011
 30
0.0
 40
6.349999999999909
100
AcDbArc
 50
269.9999999999997
 51
90.0
  0
ARC
  5
347
330
2A3
100
AcDbEntity
  8
P-SANR-FIXT
100
AcDbCircle
 10
1128.278244810771
 20
1999.982558850011
 30
0.0
 40
13.0
100
AcDbArc
 50
269.9999999999997
 51
277.3801350519582
  0
LINE
  5
348
330
2A3
100
AcDbEntity
  8
P-SANR-FIXT
100
AcDbLine
 10
1129.948117791849
 20
1987.090254004597
 30
0.0
 11
1138.608371829694
 21
1992.090254004598
 31
0.0
  0
ARC
  5
349
330
2A3
100
AcDbEntity
  8
P-SANR-FIXT
100
AcDbCircle
 10
1128.278244810771
 20
1999.982558850011
 30
0.0
 40
13.0000000000001
100
AcDbArc
 50
322.619864948043
 51
337.3801350519583
  0
LINE
  5
34A
330
2A3
100
AcDbEntity
  8
P-SANR-FIXT
100
AcDbLine
 10
1140.278244810771
 20
1994.98255885001
 30
0.0
 11
1140.278244810771
 21
2004.982558850011
 31
0.0
  0
ARC
  5
34B
330
2A3
100
AcDbEntity
  8
P-SANR-FIXT
100
AcDbCircle
 10
1128.278244810771
 20
1999.982558850011
 30
0.0
 40
13.00000000000005
100
AcDbArc
 50
22.61986494804326
 51
37.38013505195848
  0
LINE
  5
34C
330
2A3
100
AcDbEntity
  8
P-SANR-FIXT
100
AcDbLine
 10
1138.608371829694
 20
2007.874863695424
 30
0.0
 11
1129.948117791848
 21
2012.874863695424
 31
0.0
  0
SPLINE
  5
34D
330
2A3
100
AcDbEntity
  8
P-SANR-FIXT
100
AcDbSpline
210
0.0
220
0.0
230
1.0
 70
    24
 71
     3
 72
     9
 73
     5
 74
     0
 42
0.000000001
 43
0.0000000001
 40
-1.0
 40
-1.0
 40
-1.0
 40
-1.0
 40
-0.5
 40
0.0
 40
0.0
 40
0.0
 40
0.0
 10
1128.278244810771
 20
2013.838965310561
 30
0.0
 10
1128.002141073213
 20
2013.679556743358
 30
0.0
 10
1127.447725172141
 20
2013.359464573632
 30
0.0
 10
1126.888892419161
 20
2013.036822333266
 30
0.0
 10
1126.608371829693
 20
2012.874863695424
 30
0.0
  0
SPLINE
  5
34E
330
2A3
100
AcDbEntity
  8
P-SANR-FIXT
100
AcDbSpline
210
0.0
220
0.0
230
1.0
 70
    24
 71
     3
 72
     9
 73
     5
 74
     0
 42
0.000000001
 43
0.0000000001
 40
-1.0
 40
-1.0
 40
-1.0
 40
-1.0
 40
-0.5
 40
0.0
 40
0.0
 40
0.0
 40
0.0
 10
1117.948117791848
 20
2007.874863695423
 30
0.0
 10
1117.667597202381
 20
2007.712905057581
 30
0.0
 10
1117.1087644494
 20
2007.390262817216
 30
0.0
 10
1116.554348548329
 20
2007.070170647489
 30
0.0
 10
1116.278244810771
 20
2006.910762080286
 30
0.0
  0
SPLINE
  5
34F
330
2A3
100
AcDbEntity
  8
P-SANR-FIXT
100
AcDbSpline
210
0.0
220
0.0
230
1.0
 70
    24
 71
     3
 72
     9
 73
     5
 74
     0
 42
0.000000001
 43
0.0000000001
 40
-1.0
 40
-1.0
 40
-1.0
 40
-1.0
 40
-0.5
 40
0.0
 40
0.0
 40
0.0
 40
0.0
 10
1116.278244810771
 20
2006.910762080286
 30
0.0
 10
1116.278244810771
 20
2006.591944945879
 30
0.0
 10
1116.278244810771
 20
2005.951760606426
 30
0.0
 10
1116.278244810771
 20
2005.306476125696
 30
0.0
 10
1116.278244810771
 20
2004.982558850011
 30
0.0
  0
SPLINE
  5
350
330
2A3
100
AcDbEntity
  8
P-SANR-FIXT
100
AcDbSpline
210
0.0
220
0.0
230
1.0
 70
    24
 71
     3
 72
     9
 73
     5
 74
     0
 42
0.000000001
 43
0.0000000001
 40
-1.0
 40
-1.0
 40
-1.0
 40
-1.0
 40
-0.5
 40
0.0
 40
0.0
 40
0.0
 40
0.0
 10
1116.278244810771
 20
1994.98255885001
 30
0.0
 10
1116.278244810771
 20
1994.658641574325
 30
0.0
 10
1116.278244810771
 20
1994.013357093595
 30
0.0
 10
1116.278244810771
 20
1993.373172754142
 30
0.0
 10
1116.278244810771
 20
1993.054355619735
 30
0.0
  0
SPLINE
  5
351
330
2A3
100
AcDbEntity
  8
P-SANR-FIXT
100
AcDbSpline
210
0.0
220
0.0
230
1.0
 70
    24
 71
     3
 72
     9
 73
     5
 74
     0
 42
0.000000001
 43
0.0000000001
 40
-1.0
 40
-1.0
 40
-1.0
 40
-1.0
 40
-0.5
 40
0.0
 40
0.0
 40
0.0
 40
0.0
 10
1116.278244810771
 20
1993.054355619735
 30
0.0
 10
1116.55434854833
 20
1992.894947052531
 30
0.0
 10
1117.108764449401
 20
1992.574854882805
 30
0.0
 10
1117.667597202381
 20
1992.25221264244
 30
0.0
 10
1117.948117791849
 20
1992.090254004597
 30
0.0
  0
SPLINE
  5
352
330
2A3
100
AcDbEntity
  8
P-SANR-FIXT
100
AcDbSpline
210
0.0
220
0.0
230
1.0
 70
    24
 71
     3
 72
     9
 73
     5
 74
     0
 42
0.000000001
 43
0.0000000001
 40
-1.0
 40
-1.0
 40
-1.0
 40
-1.0
 40
-0.5
 40
0.0
 40
0.0
 40
0.0
 40
0.0
 10
1126.608371829694
 20
1987.090254004597
 30
0.0
 10
1126.888892419162
 20
1986.928295366755
 30
0.0
 10
1127.447725172142
 20
1986.60565312639
 30
0.0
 10
1128.002141073213
 20
1986.285560956663
 30
0.0
 10
1128.278244810771
 20
1986.126152389459
 30
0.0
  0
SPLINE
  5
353
330
2A3
100
AcDbEntity
  8
P-SANR-FIXT
100
AcDbSpline
210
0.0
220
0.0
230
1.0
 70
    24
 71
     3
 72
     9
 73
     5
 74
     0
 42
0.000000001
 43
0.0000000001
 40
-1.0
 40
-1.0
 40
-1.0
 40
-1.0
 40
-0.5
 40
0.0
 40
0.0
 40
0.0
 40
0.0
 10
1129.948117791848
 20
2012.874863695424
 30
0.0
 10
1129.667597202381
 20
2013.036822333266
 30
0.0
 10
1129.108764449401
 20
2013.359464573632
 30
0.0
 10
1128.554348548329
 20
2013.679556743358
 30
0.0
 10
1128.278244810771
 20
2013.838965310561
 30
0.0
  0
SPLINE
  5
354
330
2A3
100
AcDbEntity
  8
P-SANR-FIXT
100
AcDbSpline
210
0.0
220
0.0
230
1.0
 70
    24
 71
     3
 72
     9
 73
     5
 74
     0
 42
0.000000001
 43
0.0000000001
 40
-1.0
 40
-1.0
 40
-1.0
 40
-1.0
 40
-0.5
 40
0.0
 40
0.0
 40
0.0
 40
0.0
 10
1128.278244810771
 20
1986.126152389459
 30
0.0
 10
1128.55434854833
 20
1986.285560956663
 30
0.0
 10
1129.108764449401
 20
1986.60565312639
 30
0.0
 10
1129.667597202381
 20
1986.928295366755
 30
0.0
 10
1129.948117791849
 20
1987.090254004597
 30
0.0
  0
SPLINE
  5
355
330
2A3
100
AcDbEntity
  8
P-SANR-FIXT
100
AcDbSpline
210
0.0
220
0.0
230
1.0
 70
    24
 71
     3
 72
     9
 73
     5
 74
     0
 42
0.000000001
 43
0.0000000001
 40
-1.0
 40
-1.0
 40
-1.0
 40
-1.0
 40
-0.5
 40
0.0
 40
0.0
 40
0.0
 40
0.0
 10
1138.608371829694
 20
1992.090254004598
 30
0.0
 10
1138.888892419161
 20
1992.25221264244
 30
0.0
 10
1139.447725172142
 20
1992.574854882805
 30
0.0
 10
1140.002141073213
 20
1992.894947052532
 30
0.0
 10
1140.278244810771
 20
1993.054355619735
 30
0.0
  0
SPLINE
  5
356
330
2A3
100
AcDbEntity
  8
P-SANR-FIXT
100
AcDbSpline
210
0.0
220
0.0
230
1.0
 70
    24
 71
     3
 72
     9
 73
     5
 74
     0
 42
0.000000001
 43
0.0000000001
 40
-1.0
 40
-1.0
 40
-1.0
 40
-1.0
 40
-0.5
 40
0.0
 40
0.0
 40
0.0
 40
0.0
 10
1140.278244810771
 20
1993.054355619735
 30
0.0
 10
1140.278244810771
 20
1993.373172754142
 30
0.0
 10
1140.278244810771
 20
1994.013357093595
 30
0.0
 10
1140.278244810771
 20
1994.658641574326
 30
0.0
 10
1140.278244810771
 20
1994.98255885001
 30
0.0
  0
SPLINE
  5
357
330
2A3
100
AcDbEntity
  8
P-SANR-FIXT
100
AcDbSpline
210
0.0
220
0.0
230
1.0
 70
    24
 71
     3
 72
     9
 73
     5
 74
     0
 42
0.000000001
 43
0.0000000001
 40
-1.0
 40
-1.0
 40
-1.0
 40
-1.0
 40
-0.5
 40
0.0
 40
0.0
 40
0.0
 40
0.0
 10
1140.278244810771
 20
2004.982558850011
 30
0.0
 10
1140.278244810771
 20
2005.306476125696
 30
0.0
 10
1140.278244810771
 20
2005.951760606427
 30
0.0
 10
1140.278244810771
 20
2006.59194494588
 30
0.0
 10
1140.278244810771
 20
2006.910762080286
 30
0.0
  0
SPLINE
  5
358
330
2A3
100
AcDbEntity
  8
P-SANR-FIXT
100
AcDbSpline
210
0.0
220
0.0
230
1.0
 70
    24
 71
     3
 72
     9
 73
     5
 74
     0
 42
0.000000001
 43
0.0000000001
 40
-1.0
 40
-1.0
 40
-1.0
 40
-1.0
 40
-0.5
 40
0.0
 40
0.0
 40
0.0
 40
0.0
 10
1140.278244810771
 20
2006.910762080286
 30
0.0
 10
1140.002141073213
 20
2007.07017064749
 30
0.0
 10
1139.447725172142
 20
2007.390262817216
 30
0.0
 10
1138.888892419161
 20
2007.712905057582
 30
0.0
 10
1138.608371829694
 20
2007.874863695424
 30
0.0
  0
LINE
  5
359
330
2A3
100
AcDbEntity
  8
P-SANR-FIXT
100
AcDbLine
 10
1119.278244810771
 20
2026.78255885001
 30
0.0
 11
1121.717790649342
 21
2026.78255885001
 31
0.0
  0
LINE
  5
35A
330
2A3
100
AcDbEntity
  8
P-SANR-FIXT
100
AcDbLine
 10
1134.8386989722
 20
2026.78255885001
 30
0.0
 11
1137.278244810771
 21
2026.78255885001
 31
0.0
  0
LINE
  5
35B
330
2A3
100
AcDbEntity
  8
P-SANR-FIXT
100
AcDbLine
 10
1122.16711141785
 20
2001.707826555012
 30
0.0
 11
1122.168070432995
 21
2001.711219913716
 31
0.0
  0
ELLIPSE
  5
35C
330
2A3
100
AcDbEntity
  8
P-SANR-FIXT
100
AcDbEllipse
 10
1128.278244810771
 20
2037.072969573388
 30
0.0
 11
-10.9999999999834
 21
0.0000000000003206
 31
0.0
210
0.0
220
0.0
230
0.9999999999999998
 40
0.7071067811865352
 41
5.37337608850692
 42
6.283185307179627
  0
ELLIPSE
  5
35D
330
2A3
100
AcDbEntity
  8
P-SANR-FIXT
100
AcDbEllipse
 10
1128.278244810771
 20
2037.072969573388
 30
0.0
 11
10.99999999998331
 21
0.0
 31
0.0
210
0.0
220
0.0
230
1.0
 40
0.7071067811865399
 41
0.0
 42
0.9098092186727699
  0
ELLIPSE
  5
35E
330
2A3
100
AcDbEntity
  8
P-SANR-FIXT
100
AcDbEllipse
 10
1128.278244810771
 20
2028.750322758769
 30
0.0
 11
14.25000000000029
 21
0.0
 31
0.0
210
0.0
220
0.0
230
1.0
 40
0.7071067811865291
 41
2.174356472153551
 42
3.118481182898144
  0
ELLIPSE
  5
35F
330
2A3
100
AcDbEntity
  8
P-SANR-FIXT
100
AcDbEllipse
 10
1128.278244810771
 20
2028.750322758769
 30
0.0
 11
14.25000000000011
 21
0.0
 31
0.0
210
0.0
220
0.0
230
0.9999999999999998
 40
0.7071067811865431
 41
0.0231114706916476
 42
0.9672361814379383
  0
ENDBLK
  5
361
330
2A3
100
AcDbEntity
  8
0
100
AcDbBlockEnd
  0
ENDSEC
  0
SECTION
  2
ENTITIES
  0
INSERT
  5
19B
330
71
100
AcDbEntity
  8
P-SANR-FIXT
100
AcDbBlockReference
  2
Automatic flow rate regulator valve_Caleffi_121 DN15 - 1_2__-859151-Est - Idraulica
 10
0.0
 20
0.0
 30
0.0
1001
REVIT
1002
{
1070
     1
1000
863131
1002
}
1002
{
1070
     5
1000
859151
1002
}
1002
{
1070
     2
1000
-2001160
1002
}
  0
INSERT
  5
2A2
330
71
100
AcDbEntity
  8
P-SANR-FIXT
100
AcDbBlockReference
  2
Automatic flow rate regulator valve_Caleffi_121 DN15 - 1_2__-V1-Est - Idraulica
 10
0.0
 20
0.0
 30
0.0
1001
REVIT
1002
{
1070
     1
1000
863152
1002
}
1002
{
1070
     5
1000
859151
1002
}
1002
{
1070
     2
1000
-2001160
1002
}
  0
INSERT
  5
362
330
71
100
AcDbEntity
  8
P-SANR-FIXT
100
AcDbBlockReference
  2
Automatic flow rate regulator valve_Caleffi_121 DN15 - 1_2__-V2-Est - Idraulica
 10
0.0
 20
0.0
 30
0.0
1001
REVIT
1002
{
1070
     1
1000
863172
1002
}
1002
{
1070
     5
1000
859151
1002
}
1002
{
1070
     2
1000
-2001160
1002
}
  0
LINE
  5
37B
330
71
100
AcDbEntity
  8
M-PIPE
100
AcDbLine
 10
878.7031260371064
 20
2088.796010586616
 30
0.0
 11
895.2816130338561
 21
2072.217523589865
 31
0.0
  0
ENDSEC
  0
SECTION
  2
OBJECTS
  0
DICTIONARY
  5
C
330
0
100
AcDbDictionary
281
     1
  3
ACAD_CIP_PREVIOUS_PRODUCT_INFO
350
7A
  3
ACAD_COLOR
350
63
  3
ACAD_DETAILVIEWSTYLE
350
6B
  3
ACAD_GROUP
350
D
  3
ACAD_IMAGE_VARS
350
7B
  3
ACAD_LAYOUT
350
62
  3
ACAD_MATERIAL
350
10
  3
ACAD_MLEADERSTYLE
350
66
  3
ACAD_MLINESTYLE
350
5F
  3
ACAD_PLOTSETTINGS
350
61
  3
ACAD_PLOTSTYLENAME
350
E
  3
ACAD_SCALELIST
350
42
  3
ACAD_SECTIONVIEWSTYLE
350
68
  3
ACAD_TABLESTYLE
350
64
  3
ACAD_VISUALSTYLE
350
29
  3
ACDB_RECOMPOSE_DATA
350
37E
  3
AcDbVariableDictionary
350
7C
  3
REVIT_DICTIONARY
350
364
  0
DICTIONARY
  5
369
330
71
100
AcDbDictionary
280
     1
281
     1
  3
ACAD_SORTENTS
360
36A
  0
XRECORD
  5
7A
102
{ACAD_REACTORS
330
C
102
}
330
C
100
AcDbXrecord
280
     1
300
ACD
300
2013
300
BDSPRM_F_S
  0
DICTIONARY
  5
63
102
{ACAD_REACTORS
330
C
102
}
330
C
100
AcDbDictionary
281
     1
  0
DICTIONARY
  5
6B
102
{ACAD_REACTORS
330
C
102
}
330
C
100
AcDbDictionary
281
     1
  3
Imperial24
350
6C
  3
Metric50
350
371
  0
DICTIONARY
  5
D
102
{ACAD_REACTORS
330
C
102
}
330
C
100
AcDbDictionary
281
     1
  0
RASTERVARIABLES
  5
7B
102
{ACAD_REACTORS
330
C
102
}
330
C
100
AcDbRasterVariables
 90
        0
 70
     0
 71
     1
 72
     1
  0
DICTIONARY
  5
62
102
{ACAD_REACTORS
330
C
102
}
330
C
100
AcDbDictionary
281
     1
  3
Layout1
350
70
  3
Layout2
350
78
  3
Model
350
74
  0
DICTIONARY
  5
10
102
{ACAD_REACTORS
330
C
102
}
330
C
100
AcDbDictionary
281
     1
  3
ByBlock
350
19
  3
ByLayer
350
11
  3
Global
350
21
  0
DICTIONARY
  5
66
102
{ACAD_REACTORS
330
C
102
}
330
C
100
AcDbDictionary
281
     1
  3
Standard
350
67
  0
DICTIONARY
  5
5F
102
{ACAD_REACTORS
330
C
102
}
330
C
100
AcDbDictionary
281
     1
  3
Standard
350
60
  0
DICTIONARY
  5
61
102
{ACAD_REACTORS
330
C
102
}
330
C
100
AcDbDictionary
281
     1
  0
ACDBDICTIONARYWDFLT
  5
E
102
{ACAD_REACTORS
330
C
102
}
330
C
100
AcDbDictionary
281
     1
  3
Normal
350
F
100
AcDbDictionaryWithDefault
340
F
  0
DICTIONARY
  5
42
102
{ACAD_REACTORS
330
C
102
}
330
C
100
AcDbDictionary
281
     1
  3
A0
350
43
  3
A1
350
44
  3
A2
350
45
  3
A3
350
46
  3
A4
350
47
  3
A5
350
48
  3
A6
350
49
  3
A7
350
4A
  3
A8
350
4B
  3
A9
350
4C
  3
B0
350
4D
  3
B1
350
4E
  3
B2
350
4F
  3
B3
350
50
  3
B4
350
51
  3
B5
350
52
  3
B6
350
53
  0
DICTIONARY
  5
68
102
{ACAD_REACTORS
330
C
102
}
330
C
100
AcDbDictionary
281
     1
  3
Imperial24
350
6A
  3
Metric50
350
370
  0
DICTIONARY
  5
64
102
{ACAD_REACTORS
330
C
102
}
330
C
100
AcDbDictionary
281
     1
  3
Standard
350
65
  0
DICTIONARY
  5
29
102
{ACAD_REACTORS
330
C
102
}
330
C
100
AcDbDictionary
281
     1
  3
2dWireframe
350
2F
  3
Basic
350
2E
  3
Brighten
350
35
  3
ColorChange
350
39
  3
Conceptual
350
32
  3
Dim
350
34
  3
EdgeColorOff
350
41
  3
Facepattern
350
38
  3
Flat
350
2A
  3
FlatWithEdges
350
2B
  3
Gouraud
350
2C
  3
GouraudWithEdges
350
2D
  3
Hidden
350
31
  3
JitterOff
350
3F
  3
Linepattern
350
37
  3
OverhangOff
350
40
  3
Realistic
350
33
  3
Shaded
350
3E
  3
Shaded with edges
350
3D
  3
Shades of Gray
350
3A
  3
Sketchy
350
3B
  3
Thicken
350
36
  3
Wireframe
350
30
  3
X-Ray
350
3C
  0
XRECORD
  5
37E
102
{ACAD_REACTORS
330
C
102
}
330
C
100
AcDbXrecord
280
     1
 90
        1
330
65
  0
DICTIONARY
  5
7C
102
{ACAD_REACTORS
330
C
102
}
330
C
100
AcDbDictionary
281
     1
  3
CANNOSCALE
350
81
  3
CMLEADERSTYLE
350
7E
  3
CTABLESTYLE
350
7D
  3
CVIEWDETAILSTYLE
350
7F
  3
CVIEWSECTIONSTYLE
350
80
  0
DICTIONARY
  5
364
102
{ACAD_REACTORS
330
C
102
}
330
C
100
AcDbDictionary
281
     1
  3
DRAWING_TOOL
350
368
  3
REVIT_CATEGORY_MAPPING
350
366
  3
REVIT_SUB_CATEGORY_MAPPING
350
367
  3
REVIT_TYPE_MAPPING
350
365
  0
SORTENTSTABLE
  5
36A
102
{ACAD_REACTORS
330
369
102
}
330
369
100
AcDbSortentsTable
330
71
  0
ACDBDETAILVIEWSTYLE
  5
6C
102
{ACAD_REACTORS
330
6B
102
}
330
6B
100
AcDbModelDocViewStyle
 70
     0
  3
Imperial24
290
     0
100
AcDbDetailViewStyle
 70
     0
 71
     0
 90
        3
 71
     1
340
55
 62
   256
 40
0.24
340
0
 62
   256
 40
0.24
300

 40
0.36
280
     3
 71
     2
340
5D
 90
       25
 62
   256
 71
     3
340
55
 62
   256
 40
0.24
 90
        1
 40
0.75
 90
        1
300
%<\AcVar ViewType \f "%tc1">% %<\AcVar ViewDetailId>%\PSCALA %<\AcVar ViewScale \f "%sn">%
 71
     4
340
5D
 90
       25
 62
   256
340
5D
 90
       25
 62
   256
280
     0
  0
ACDBDETAILVIEWSTYLE
  5
371
102
{ACAD_REACTORS
330
6B
102
}
330
6B
100
AcDbModelDocViewStyle
 70
     0
  3
Metric50
290
     1
100
AcDbDetailViewStyle
 70
     0
 71
     0
 90
        3
 71
     1
340
55
 62
   256
 40
5.0
340
0
 62
   256
 40
5.0
300

 40
0.0
280
     1
 71
     2
340
5D
 90
       25
 62
   256
 71
     3
340
55
 62
   256
 40
5.0
 90
        0
 40
15.0
 90
        1
300
%<\AcVar ViewDetailId>% (%<\AcVar ViewScale \f "%sn">%)
 71
     4
340
5D
 90
       25
 62
   256
340
5D
 90
       25
 62
   256
280
     0
  0
LAYOUT
  5
70
102
{ACAD_REACTORS
330
62
102
}
330
62
100
AcDbPlotSettings
  1

  2

  4

  6

 40
0.0
 41
0.0
 42
0.0
 43
0.0
 44
0.0
 45
0.0
 46
0.0
 47
0.0
 48
0.0
 49
0.0
140
0.0
141
0.0
142
1.0
143
1.0
 70
   688
 72
     0
 73
     0
 74
     5
  7

 75
    16
147
1.0
 76
     0
 77
     2
 78
   300
148
0.0
149
0.0
100
AcDbLayout
  1
Layout1
 70
     1
 71
     1
 10
0.0
 20
0.0
 11
12.0
 21
9.0
 12
0.0
 22
0.0
 32
0.0
 14
1.000000000000000E+20
 24
1.000000000000000E+20
 34
1.000000000000000E+20
 15
-1.000000000000000E+20
 25
-1.000000000000000E+20
 35
-1.000000000000000E+20
146
0.0
 13
0.0
 23
0.0
 33
0.0
 16
1.0
 26
0.0
 36
0.0
 17
0.0
 27
1.0
 37
0.0
 76
     0
330
6D
  0
LAYOUT
  5
78
102
{ACAD_REACTORS
330
62
102
}
330
62
100
AcDbPlotSettings
  1

  2

  4

  6

 40
0.0
 41
0.0
 42
0.0
 43
0.0
 44
0.0
 45
0.0
 46
0.0
 47
0.0
 48
0.0
 49
0.0
140
0.0
141
0.0
142
1.0
143
1.0
 70
   688
 72
     0
 73
     0
 74
     5
  7

 75
    16
147
1.0
 76
     0
 77
     2
 78
   300
148
0.0
149
0.0
100
AcDbLayout
  1
Layout2
 70
     1
 71
     2
 10
0.0
 20
0.0
 11
12.0
 21
9.0
 12
0.0
 22
0.0
 32
0.0
 14
0.0
 24
0.0
 34
0.0
 15
0.0
 25
0.0
 35
0.0
146
0.0
 13
0.0
 23
0.0
 33
0.0
 16
1.0
 26
0.0
 36
0.0
 17
0.0
 27
1.0
 37
0.0
 76
     0
330
75
  0
LAYOUT
  5
74
102
{ACAD_REACTORS
330
62
102
}
330
62
100
AcDbPlotSettings
  1

  2

  4

  6

 40
0.0
 41
0.0
 42
0.0
 43
0.0
 44
0.0
 45
0.0
 46
0.0
 47
0.0
 48
0.0
 49
0.0
140
0.0
141
0.0
142
1.0
143
1.0
 70
  1712
 72
     0
 73
     0
 74
     0
  7

 75
     0
147
1.0
 76
     0
 77
     2
 78
   300
148
0.0
149
0.0
100
AcDbLayout
  1
Model
 70
     1
 71
     0
 10
0.0
 20
0.0
 11
12.0
 21
9.0
 12
0.0
 22
0.0
 32
0.0
 14
0.0
 24
0.0
 34
0.0
 15
0.0
 25
0.0
 35
0.0
146
0.0
 13
0.0
 23
0.0
 33
0.0
 16
1.0
 26
0.0
 36
0.0
 17
0.0
 27
1.0
 37
0.0
 76
     0
330
71
331
57
  0
MATERIAL
  5
19
102
{ACAD_XDICTIONARY
360
1A
102
}
102
{ACAD_REACTORS
330
10
102
}
330
10
100
AcDbMaterial
  1
ByBlock
 72
     0
 43
0.0208333333333333
 43
0.0
 43
0.0
 43
0.0
 43
0.0
 43
0.0208333333333333
 43
0.0
 43
0.0
 43
0.0
 43
0.0
 43
1.0
 43
0.0
 43
0.0
 43
0.0
 43
0.0
 43
1.0
 77
     0
 47
0.0208333333333333
 47
0.0
 47
0.0
 47
0.0
 47
0.0
 47
0.0208333333333333
 47
0.0
 47
0.0
 47
0.0
 47
0.0
 47
1.0
 47
0.0
 47
0.0
 47
0.0
 47
0.0
 47
1.0
171
     0
 49
0.0208333333333333
 49
0.0
 49
0.0
 49
0.0
 49
0.0
 49
0.0208333333333333
 49
0.0
 49
0.0
 49
0.0
 49
0.0
 49
1.0
 49
0.0
 49
0.0
 49
0.0
 49
0.0
 49
1.0
175
     0
142
0.0208333333333333
142
0.0
142
0.0
142
0.0
142
0.0
142
0.0208333333333333
142
0.0
142
0.0
142
0.0
142
0.0
142
1.0
142
0.0
142
0.0
142
0.0
142
0.0
142
1.0
179
     0
144
0.0208333333333333
144
0.0
144
0.0
144
0.0
144
0.0
144
0.0208333333333333
144
0.0
144
0.0
144
0.0
144
0.0
144
1.0
144
0.0
144
0.0
144
0.0
144
0.0
144
1.0
147
0.0208333333333333
147
0.0
147
0.0
147
0.0
147
0.0
147
0.0208333333333333
147
0.0
147
0.0
147
0.0
147
0.0
147
1.0
147
0.0
147
0.0
147
0.0
147
0.0
147
1.0
  0
MATERIAL
  5
11
102
{ACAD_XDICTIONARY
360
12
102
}
102
{ACAD_REACTORS
330
10
102
}
330
10
100
AcDbMaterial
  1
ByLayer
 72
     0
 43
0.0208333333333333
 43
0.0
 43
0.0
 43
0.0
 43
0.0
 43
0.0208333333333333
 43
0.0
 43
0.0
 43
0.0
 43
0.0
 43
1.0
 43
0.0
 43
0.0
 43
0.0
 43
0.0
 43
1.0
 77
     0
 47
0.0208333333333333
 47
0.0
 47
0.0
 47
0.0
 47
0.0
 47
0.0208333333333333
 47
0.0
 47
0.0
 47
0.0
 47
0.0
 47
1.0
 47
0.0
 47
0.0
 47
0.0
 47
0.0
 47
1.0
171
     0
 49
0.0208333333333333
 49
0.0
 49
0.0
 49
0.0
 49
0.0
 49
0.0208333333333333
 49
0.0
 49
0.0
 49
0.0
 49
0.0
 49
1.0
 49
0.0
 49
0.0
 49
0.0
 49
0.0
 49
1.0
175
     0
142
0.0208333333333333
142
0.0
142
0.0
142
0.0
142
0.0
142
0.0208333333333333
142
0.0
142
0.0
142
0.0
142
0.0
142
1.0
142
0.0
142
0.0
142
0.0
142
0.0
142
1.0
179
     0
144
0.0208333333333333
144
0.0
144
0.0
144
0.0
144
0.0
144
0.0208333333333333
144
0.0
144
0.0
144
0.0
144
0.0
144
1.0
144
0.0
144
0.0
144
0.0
144
0.0
144
1.0
147
0.0208333333333333
147
0.0
147
0.0
147
0.0
147
0.0
147
0.0208333333333333
147
0.0
147
0.0
147
0.0
147
0.0
147
1.0
147
0.0
147
0.0
147
0.0
147
0.0
147
1.0
  0
MATERIAL
  5
21
102
{ACAD_XDICTIONARY
360
22
102
}
102
{ACAD_REACTORS
330
10
102
}
330
10
100
AcDbMaterial
  1
Global
 72
     0
 43
0.0208333333333333
 43
0.0
 43
0.0
 43
0.0
 43
0.0
 43
0.0208333333333333
 43
0.0
 43
0.0
 43
0.0
 43
0.0
 43
1.0
 43
0.0
 43
0.0
 43
0.0
 43
0.0
 43
1.0
 77
     0
 47
0.0208333333333333
 47
0.0
 47
0.0
 47
0.0
 47
0.0
 47
0.0208333333333333
 47
0.0
 47
0.0
 47
0.0
 47
0.0
 47
1.0
 47
0.0
 47
0.0
 47
0.0
 47
0.0
 47
1.0
171
     0
 49
0.0208333333333333
 49
0.0
 49
0.0
 49
0.0
 49
0.0
 49
0.0208333333333333
 49
0.0
 49
0.0
 49
0.0
 49
0.0
 49
1.0
 49
0.0
 49
0.0
 49
0.0
 49
0.0
 49
1.0
175
     0
142
0.0208333333333333
142
0.0
142
0.0
142
0.0
142
0.0
142
0.0208333333333333
142
0.0
142
0.0
142
0.0
142
0.0
142
1.0
142
0.0
142
0.0
142
0.0
142
0.0
142
1.0
179
     0
144
0.0208333333333333
144
0.0
144
0.0
144
0.0
144
0.0
144
0.0208333333333333
144
0.0
144
0.0
144
0.0
144
0.0
144
1.0
144
0.0
144
0.0
144
0.0
144
0.0
144
1.0
147
0.0208333333333333
147
0.0
147
0.0
147
0.0
147
0.0
147
0.0208333333333333
147
0.0
147
0.0
147
0.0
147
0.0
147
1.0
147
0.0
147
0.0
147
0.0
147
0.0
147
1.0
  0
MLEADERSTYLE
  5
67
102
{ACAD_REACTORS
330
66
102
}
330
66
100
AcDbMLeaderStyle
179
     2
170
     2
171
     1
172
     0
 90
        2
 40
0.0
 41
0.0
173
     1
 91
-1056964608
340
5B
 92
       -2
290
     1
 42
0.09
291
     1
 43
0.36
  3
Standard
 44
0.18
300

342
55
174
     1
178
     6
175
     1
176
     0
 93
-1056964608
 45
0.18
292
     0
297
     0
 46
0.18
 94
-1056964608
 47
1.0
 49
1.0
140
1.0
293
     1
141
0.0
294
     1
177
     0
142
1.0
295
     0
296
     0
143
0.125
271
     0
272
     9
273
     9
298
     1
  0
MLINESTYLE
  5
60
102
{ACAD_REACTORS
330
5F
102
}
330
5F
100
AcDbMlineStyle
  2
STANDARD
 70
     0
  3

 62
   256
 51
90.0
 52
90.0
 71
     2
 49
0.5
 62
   256
  6
BYLAYER
 49
-0.5
 62
   256
  6
BYLAYER
  0
ACDBPLACEHOLDER
  5
F
102
{ACAD_REACTORS
330
E
102
}
330
E
  0
SCALE
  5
43
102
{ACAD_REACTORS
330
42
102
}
330
42
100
AcDbScale
 70
     0
300
1:1
140
1.0
141
1.0
290
     1
  0
SCALE
  5
44
102
{ACAD_REACTORS
330
42
102
}
330
42
100
AcDbScale
 70
     0
300
1/128" = 1'-0"
140
0.0078125
141
12.0
290
     0
  0
SCALE
  5
45
102
{ACAD_REACTORS
330
42
102
}
330
42
100
AcDbScale
 70
     0
300
1/64" = 1'-0"
140
0.015625
141
12.0
290
     0
  0
SCALE
  5
46
102
{ACAD_REACTORS
330
42
102
}
330
42
100
AcDbScale
 70
     0
300
1/32" = 1'-0"
140
0.03125
141
12.0
290
     0
  0
SCALE
  5
47
102
{ACAD_REACTORS
330
42
102
}
330
42
100
AcDbScale
 70
     0
300
1/16" = 1'-0"
140
0.0625
141
12.0
290
     0
  0
SCALE
  5
48
102
{ACAD_REACTORS
330
42
102
}
330
42
100
AcDbScale
 70
     0
300
3/32" = 1'-0"
140
0.09375
141
12.0
290
     0
  0
SCALE
  5
49
102
{ACAD_REACTORS
330
42
102
}
330
42
100
AcDbScale
 70
     0
300
1/8" = 1'-0"
140
0.125
141
12.0
290
     0
  0
SCALE
  5
4A
102
{ACAD_REACTORS
330
42
102
}
330
42
100
AcDbScale
 70
     0
300
3/16" = 1'-0"
140
0.1875
141
12.0
290
     0
  0
SCALE
  5
4B
102
{ACAD_REACTORS
330
42
102
}
330
42
100
AcDbScale
 70
     0
300
1/4" = 1'-0"
140
0.25
141
12.0
290
     0
  0
SCALE
  5
4C
102
{ACAD_REACTORS
330
42
102
}
330
42
100
AcDbScale
 70
     0
300
3/8" = 1'-0"
140
0.375
141
12.0
290
     0
  0
SCALE
  5
4D
102
{ACAD_REACTORS
330
42
102
}
330
42
100
AcDbScale
 70
     0
300
1/2" = 1'-0"
140
0.5
141
12.0
290
     0
  0
SCALE
  5
4E
102
{ACAD_REACTORS
330
42
102
}
330
42
100
AcDbScale
 70
     0
300
3/4" = 1'-0"
140
0.75
141
12.0
290
     0
  0
SCALE
  5
4F
102
{ACAD_REACTORS
330
42
102
}
330
42
100
AcDbScale
 70
     0
300
1" = 1'-0"
140
1.0
141
12.0
290
     0
  0
SCALE
  5
50
102
{ACAD_REACTORS
330
42
102
}
330
42
100
AcDbScale
 70
     0
300
1-1/2" = 1'-0"
140
1.5
141
12.0
290
     0
  0
SCALE
  5
51
102
{ACAD_REACTORS
330
42
102
}
330
42
100
AcDbScale
 70
     0
300
3" = 1'-0"
140
3.0
141
12.0
290
     0
  0
SCALE
  5
52
102
{ACAD_REACTORS
330
42
102
}
330
42
100
AcDbScale
 70
     0
300
6" = 1'-0"
140
6.0
141
12.0
290
     0
  0
SCALE
  5
53
102
{ACAD_REACTORS
330
42
102
}
330
42
100
AcDbScale
 70
     0
300
1'-0" = 1'-0"
140
12.0
141
12.0
290
     0
  0
ACDBSECTIONVIEWSTYLE
  5
6A
102
{ACAD_REACTORS
330
68
102
}
330
68
100
AcDbModelDocViewStyle
 70
     0
  3
Imperial24
290
     0
100
AcDbSectionViewStyle
 70
     0
 71
     0
 90
       78
 71
     1
340
55
 62
   256
 40
0.24
340
0
340
0
 62
   256
 40
0.24
300
I, O, Q, S, X, Z
 40
0.48
 90
        3
 40
0.18
 90
        1
 71
     2
340
69
 90
       25
 62
   256
340
5D
 90
       50
 62
   256
 40
0.24
 40
0.0
 40
0.24
 71
     3
340
55
 62
   256
 40
0.24
 90
        1
 40
0.75
 90
        1
300
%<\AcVar ViewType \f "%tc1">% %<\AcVar ViewSectionStartId>%-%<\AcVar ViewSectionEndId>%\PSCALA %<\AcVar ViewScale \f "%sn">%
 71
     4
 62
   256
 62
   257
300
ANSI31
 40
1.0
 90
        0
290
     0
290
     0
 90
        6
 40
0.0
 40
1.570796326794896
 40
0.2617993877991494
 40
1.308996938995747
 40
-0.2617993877991494
 40
1.832595714594045
  0
ACDBSECTIONVIEWSTYLE
  5
370
102
{ACAD_REACTORS
330
68
102
}
330
68
100
AcDbModelDocViewStyle
 70
     0
  3
Metric50
290
     1
100
AcDbSectionViewStyle
 70
     0
 71
     0
 90
      102
 71
     1
340
55
 62
   256
 40
5.0
340
0
340
0
 62
   256
 40
5.0
300
I, O, Q, S, X, Z
 40
10.0
 90
        0
 40
2.5
 90
        0
 71
     2
340
5D
 90
       25
 62
   256
340
5D
 90
       50
 62
   256
 40
5.0
 40
2.5
 40
5.0
 71
     3
340
55
 62
   256
 40
5.0
 90
        0
 40
15.0
 90
        1
300
%<\AcVar ViewSectionStartId>%-%<\AcVar ViewSectionEndId>% (%<\AcVar ViewScale \f "%sn">%)
 71
     4
 62
   256
 62
   257
300
ANSI31
 40
1.0
 90
        0
290
     0
290
     0
 90
        6
 40
0.0
 40
1.570796326794896
 40
0.2617993877991494
 40
1.308996938995747
 40
-0.2617993877991494
 40
1.832595714594046
  0
TABLESTYLE
  5
65
102
{ACAD_XDICTIONARY
360
36B
102
}
102
{ACAD_REACTORS
330
64
102
}
330
64
100
AcDbTableStyle
280
     0
  3
Standard
 70
     0
 71
     0
 40
0.06
 41
0.06
280
     0
281
     0
  7
Standard
140
0.18
170
     2
 62
     0
 63
     7
283
     0
 90
      512
 91
        0
  1

274
    -2
284
     1
 64
     0
275
    -2
285
     1
 65
     0
276
    -2
286
     1
 66
     0
277
    -2
287
     1
 67
     0
278
    -2
288
     1
 68
     0
279
    -2
289
     1
 69
     0
  7
Standard
140
0.25
170
     5
 62
     0
 63
     7
283
     0
 90
      512
 91
        0
  1

274
    -2
284
     1
 64
     0
275
    -2
285
     1
 65
     0
276
    -2
286
     1
 66
     0
277
    -2
287
     1
 67
     0
278
    -2
288
     1
 68
     0
279
    -2
289
     1
 69
     0
  7
Standard
140
0.18
170
     5
 62
     0
 63
     7
283
     0
 90
      512
 91
        0
  1

274
    -2
284
     1
 64
     0
275
    -2
285
     1
 65
     0
276
    -2
286
     1
 66
     0
277
    -2
287
     1
 67
     0
278
    -2
288
     1
 68
     0
279
    -2
289
     1
 69
     0
  0
VISUALSTYLE
  5
2F
102
{ACAD_REACTORS
330
29
102
}
330
29
100
AcDbVisualStyle
  2
2dWireframe
 70
     4
177
     3
291
     0
 70
    58
 90
        0
176
     1
 90
        2
176
     1
 90
        0
176
     1
 90
        0
176
     1
 40
0.6
176
     1
 40
30.0
176
     1
 62
     7
420
 16777215
176
     1
 90
        1
176
     1
 90
        4
176
     1
 62
     7
176
     1
 62
   257
176
     1
 90
        1
176
     1
 90
        1
176
     1
 40
1.0
176
     1
 90
        0
176
     1
 62
   257
176
     1
 40
1.0
176
     1
 90
        1
176
     1
 90
        6
176
     1
 90
        2
176
     1
 62
     7
176
     1
 90
        5
176
     1
 90
        0
176
     1
 90
        0
176
     1
290
     0
176
     1
 90
        1
176
     1
 40
0.0
176
     1
 90
        0
176
     1
290
     1
176
     1
290
     1
176
     1
290
     0
176
     1
290
     0
176
     1
290
     0
176
     1
290
     0
176
     1
290
     0
176
     1
290
     0
176
     1
290
     0
176
     1
 90
       50
176
     1
 40
0.0
176
     1
 40
1.0
176
     1
 90
        0
176
     1
 62
    18
176
     1
 90
       50
176
     1
 90
        3
176
     1
 62
     5
420
      255
176
     1
290
     0
176
     1
 90
       50
176
     1
 90
       50
176
     1
 90
       50
176
     1
290
     0
176
     1
 90
       50
176
     1
 62
   256
176
     0
 40
1.0
176
     0
 90
        2
176
     1
  1
strokes_ogs.tif
176
     1
290
     0
176
     1
 40
1.0
176
     1
 40
1.0
176
     1
  0
VISUALSTYLE
  5
2E
102
{ACAD_REACTORS
330
29
102
}
330
29
100
AcDbVisualStyle
  2
Basic
 70
     7
177
     3
291
     1
 70
    58
 90
        1
176
     1
 90
        0
176
     1
 90
        1
176
     1
 90
        0
176
     1
 40
0.6
176
     1
 40
30.0
176
     1
 62
     7
420
 16777215
176
     1
 90
        0
176
     1
 90
        4
176
     1
 62
     7
176
     1
 62
   257
176
     1
 90
        1
176
     1
 90
        1
176
     1
 40
1.0
176
     1
 90
        8
176
     1
 62
     7
176
     1
 40
1.0
176
     1
 90
        1
176
     1
 90
        6
176
     1
 90
        2
176
     1
 62
     7
176
     1
 90
        5
176
     1
 90
        0
176
     1
 90
        0
176
     1
290
     0
176
     1
 90
        1
176
     1
 40
0.0
176
     1
 90
        0
176
     1
290
     0
176
     1
290
     1
176
     1
290
     1
176
     1
290
     0
176
     1
290
     0
176
     1
290
     0
176
     1
290
     0
176
     1
290
     0
176
     1
290
     0
176
     1
 90
       50
176
     1
 40
0.0
176
     1
 40
1.0
176
     1
 90
        0
176
     1
 62
    18
176
     1
 90
       50
176
     1
 90
        3
176
     1
 62
     5
420
      255
176
     1
290
     0
176
     1
 90
       50
176
     1
 90
       50
176
     1
 90
       50
176
     1
290
     0
176
     1
 90
       50
176
     1
 62
   256
176
     0
 40
1.0
176
     0
 90
        2
176
     1
  1
strokes_ogs.tif
176
     1
290
     0
176
     1
 40
1.0
176
     1
 40
1.0
176
     1
  0
VISUALSTYLE
  5
35
102
{ACAD_REACTORS
330
29
102
}
330
29
100
AcDbVisualStyle
  2
Brighten
 70
    12
177
     3
291
     1
 70
    58
 90
        2
176
     1
 90
        2
176
     1
 90
        0
176
     1
 90
        0
176
     1
 40
0.6
176
     1
 40
30.0
176
     1
 62
     7
420
 16777215
176
     1
 90
        1
176
     1
 90
        4
176
     1
 62
     7
176
     1
 62
   257
176
     1
 90
        1
176
     1
 90
        1
176
     1
 40
1.0
176
     1
 90
        8
176
     1
 62
     7
176
     1
 40
1.0
176
     1
 90
        1
176
     1
 90
        6
176
     1
 90
        2
176
     1
 62
     7
176
     1
 90
        5
176
     1
 90
        0
176
     1
 90
        0
176
     1
290
     0
176
     1
 90
        1
176
     1
 40
50.0
176
     1
 90
        0
176
     1
290
     0
176
     1
290
     1
176
     1
290
     1
176
     1
290
     0
176
     1
290
     0
176
     1
290
     0
176
     1
290
     0
176
     1
290
     0
176
     1
290
     0
176
     1
 90
       50
176
     1
 40
0.0
176
     1
 40
1.0
176
     1
 90
        0
176
     1
 62
    18
176
     1
 90
       50
176
     1
 90
        3
176
     1
 62
     5
420
      255
176
     1
290
     0
176
     1
 90
       50
176
     1
 90
       50
176
     1
 90
       50
176
     1
290
     0
176
     1
 90
       50
176
     1
 62
   256
176
     0
 40
1.0
176
     0
 90
        2
176
     1
  1
strokes_ogs.tif
176
     1
290
     0
176
     1
 40
1.0
176
     1
 40
1.0
176
     1
  0
VISUALSTYLE
  5
39
102
{ACAD_REACTORS
330
29
102
}
330
29
100
AcDbVisualStyle
  2
ColorChange
 70
    16
177
     3
291
     1
 70
    58
 90
        2
176
     1
 90
        2
176
     1
 90
        3
176
     1
 90
        0
176
     1
 40
0.6
176
     1
 40
30.0
176
     1
 62
     8
420
  8421504
176
     1
 90
        1
176
     1
 90
        4
176
     1
 62
     7
176
     1
 62
   257
176
     1
 90
        1
176
     1
 90
        1
176
     1
 40
1.0
176
     1
 90
        8
176
     1
 62
     8
420
  8421504
176
     1
 40
1.0
176
     1
 90
        1
176
     1
 90
        6
176
     1
 90
        2
176
     1
 62
     7
176
     1
 90
        5
176
     1
 90
        0
176
     1
 90
        0
176
     1
290
     0
176
     1
 90
        1
176
     1
 40
0.0
176
     1
 90
        0
176
     1
290
     0
176
     1
290
     1
176
     1
290
     1
176
     1
290
     0
176
     1
290
     0
176
     1
290
     0
176
     1
290
     0
176
     1
290
     0
176
     1
290
     0
176
     1
 90
       50
176
     1
 40
0.0
176
     1
 40
1.0
176
     1
 90
        0
176
     1
 62
    18
176
     1
 90
       50
176
     1
 90
        3
176
     1
 62
     5
420
      255
176
     1
290
     0
176
     1
 90
       50
176
     1
 90
       50
176
     1
 90
       50
176
     1
290
     0
176
     1
 90
       50
176
     1
 62
   256
176
     0
 40
1.0
176
     0
 90
        2
176
     1
  1
strokes_ogs.tif
176
     1
290
     0
176
     1
 40
1.0
176
     1
 40
1.0
176
     1
  0
VISUALSTYLE
  5
32
102
{ACAD_REACTORS
330
29
102
}
330
29
100
AcDbVisualStyle
  2
Conceptual
 70
     9
177
     3
291
     0
 70
    58
 90
        3
176
     1
 90
        2
176
     1
 90
        0
176
     1
 90
        0
176
     1
 40
0.6
176
     1
 40
30.0
176
     1
 62
     7
420
 16777215
176
     1
 90
        2
176
     1
 90
        2
176
     1
 62
     7
176
     1
 62
   257
176
     1
 90
        1
176
     1
 90
        1
176
     1
 40
179.0
176
     1
 90
        8
176
     1
 62
     7
176
     1
 40
1.0
176
     1
 90
        1
176
     1
 90
        6
176
     1
 90
        2
176
     1
 62
     7
176
     1
 90
        3
176
     1
 90
        0
176
     1
 90
        0
176
     1
290
     0
176
     1
 90
        1
176
     1
 40
0.0
176
     1
 90
        0
176
     1
290
     0
176
     1
290
     1
176
     1
290
     1
176
     1
290
     0
176
     1
290
     0
176
     1
290
     0
176
     1
290
     0
176
     1
290
     0
176
     1
290
     0
176
     1
 90
       50
176
     1
 40
0.0
176
     1
 40
1.0
176
     1
 90
        0
176
     1
 62
    18
176
     1
 90
       50
176
     1
 90
        3
176
     1
 62
     5
420
      255
176
     1
290
     0
176
     1
 90
       50
176
     1
 90
       50
176
     1
 90
       50
176
     1
290
     0
176
     1
 90
       50
176
     1
 62
   256
176
     0
 40
1.0
176
     0
 90
        2
176
     1
  1
strokes_ogs.tif
176
     1
290
     0
176
     1
 40
1.0
176
     1
 40
1.0
176
     1
  0
VISUALSTYLE
  5
34
102
{ACAD_REACTORS
330
29
102
}
330
29
100
AcDbVisualStyle
  2
Dim
 70
    11
177
     3
291
     1
 70
    58
 90
        2
176
     1
 90
        2
176
     1
 90
        0
176
     1
 90
        0
176
     1
 40
0.6
176
     1
 40
30.0
176
     1
 62
     7
420
 16777215
176
     1
 90
        1
176
     1
 90
        4
176
     1
 62
     7
176
     1
 62
   257
176
     1
 90
        1
176
     1
 90
        1
176
     1
 40
1.0
176
     1
 90
        8
176
     1
 62
     7
176
     1
 40
1.0
176
     1
 90
        1
176
     1
 90
        6
176
     1
 90
        2
176
     1
 62
     7
176
     1
 90
        5
176
     1
 90
        0
176
     1
 90
        0
176
     1
290
     0
176
     1
 90
        1
176
     1
 40
-50.0
176
     1
 90
        0
176
     1
290
     0
176
     1
290
     1
176
     1
290
     1
176
     1
290
     0
176
     1
290
     0
176
     1
290
     0
176
     1
290
     0
176
     1
290
     0
176
     1
290
     0
176
     1
 90
       50
176
     1
 40
0.0
176
     1
 40
1.0
176
     1
 90
        0
176
     1
 62
    18
176
     1
 90
       50
176
     1
 90
        3
176
     1
 62
     5
420
      255
176
     1
290
     0
176
     1
 90
       50
176
     1
 90
       50
176
     1
 90
       50
176
     1
290
     0
176
     1
 90
       50
176
     1
 62
   256
176
     0
 40
1.0
176
     0
 90
        2
176
     1
  1
strokes_ogs.tif
176
     1
290
     0
176
     1
 40
1.0
176
     1
 40
1.0
176
     1
  0
VISUALSTYLE
  5
41
102
{ACAD_REACTORS
330
29
102
}
330
29
100
AcDbVisualStyle
  2
EdgeColorOff
 70
    22
177
     3
291
     1
 70
    58
 90
        2
176
     0
 90
        2
176
     0
 90
        0
176
     0
 90
        0
176
     0
 40
0.6
176
     0
 40
30.0
176
     0
 62
     7
420
 16777215
176
     0
 90
        1
176
     0
 90
        4
176
     0
 62
     7
176
     0
 62
   257
176
     0
 90
        1
176
     0
 90
        1
176
     0
 40
1.0
176
     0
 90
        8
176
     2
 62
     7
176
     0
 40
1.0
176
     0
 90
        1
176
     0
 90
        6
176
     0
 90
        2
176
     0
 62
     7
176
     0
 90
        5
176
     0
 90
        0
176
     0
 90
        0
176
     0
290
     0
176
     0
 90
        1
176
     0
 40
0.0
176
     0
 90
        0
176
     0
290
     0
176
     0
290
     1
176
     0
290
     1
176
     0
290
     0
176
     0
290
     0
176
     0
290
     0
176
     0
290
     0
176
     0
290
     0
176
     0
290
     0
176
     0
 90
       50
176
     0
 40
0.0
176
     0
 40
1.0
176
     0
 90
        0
176
     0
 62
    18
176
     0
 90
       50
176
     0
 90
        3
176
     0
 62
     5
420
      255
176
     0
290
     0
176
     0
 90
       50
176
     0
 90
       50
176
     0
 90
       50
176
     0
290
     0
176
     0
 90
       50
176
     0
 62
   256
176
     0
 40
1.0
176
     0
 90
        2
176
     0
  1
strokes_ogs.tif
176
     0
290
     0
176
     0
 40
1.0
176
     0
 40
1.0
176
     0
  0
VISUALSTYLE
  5
38
102
{ACAD_REACTORS
330
29
102
}
330
29
100
AcDbVisualStyle
  2
Facepattern
 70
    15
177
     3
291
     1
 70
    58
 90
        2
176
     1
 90
        2
176
     1
 90
        0
176
     1
 90
        0
176
     1
 40
0.6
176
     1
 40
30.0
176
     1
 62
     7
420
 16777215
176
     1
 90
        1
176
     1
 90
        4
176
     1
 62
     7
176
     1
 62
   257
176
     1
 90
        1
176
     1
 90
        1
176
     1
 40
1.0
176
     1
 90
        8
176
     1
 62
     7
176
     1
 40
1.0
176
     1
 90
        1
176
     1
 90
        6
176
     1
 90
        2
176
     1
 62
     7
176
     1
 90
        5
176
     1
 90
        0
176
     1
 90
        0
176
     1
290
     0
176
     1
 90
        1
176
     1
 40
0.0
176
     1
 90
        0
176
     1
290
     0
176
     1
290
     1
176
     1
290
     1
176
     1
290
     0
176
     1
290
     0
176
     1
290
     0
176
     1
290
     0
176
     1
290
     0
176
     1
290
     0
176
     1
 90
       50
176
     1
 40
0.0
176
     1
 40
1.0
176
     1
 90
        0
176
     1
 62
    18
176
     1
 90
       50
176
     1
 90
        3
176
     1
 62
     5
420
      255
176
     1
290
     0
176
     1
 90
       50
176
     1
 90
       50
176
     1
 90
       50
176
     1
290
     0
176
     1
 90
       50
176
     1
 62
   256
176
     0
 40
1.0
176
     0
 90
        2
176
     1
  1
strokes_ogs.tif
176
     1
290
     0
176
     1
 40
1.0
176
     1
 40
1.0
176
     1
  0
VISUALSTYLE
  5
2A
102
{ACAD_REACTORS
330
29
102
}
330
29
100
AcDbVisualStyle
  2
Flat
 70
     0
177
     3
291
     1
 70
    58
 90
        2
176
     1
 90
        1
176
     1
 90
        1
176
     1
 90
        2
176
     1
 40
0.6
176
     1
 40
30.0
176
     1
 62
     7
420
 16777215
176
     1
 90
        0
176
     1
 90
        0
176
     1
 62
     7
176
     1
 62
   257
176
     1
 90
        1
176
     1
 90
        1
176
     1
 40
1.0
176
     1
 90
        8
176
     1
 62
     7
176
     1
 40
1.0
176
     1
 90
        1
176
     1
 90
        6
176
     1
 90
        2
176
     1
 62
     7
176
     1
 90
        5
176
     1
 90
        0
176
     1
 90
        0
176
     1
290
     0
176
     1
 90
       13
176
     1
 40
0.0
176
     1
 90
        0
176
     1
290
     0
176
     1
290
     1
176
     1
290
     1
176
     1
290
     0
176
     1
290
     0
176
     1
290
     0
176
     1
290
     0
176
     1
290
     0
176
     1
290
     0
176
     1
 90
       50
176
     1
 40
0.0
176
     1
 40
1.0
176
     1
 90
        0
176
     1
 62
    18
176
     1
 90
       50
176
     1
 90
        3
176
     1
 62
     5
420
      255
176
     1
290
     0
176
     1
 90
       50
176
     1
 90
       50
176
     1
 90
       50
176
     1
290
     0
176
     1
 90
       50
176
     1
 62
   256
176
     0
 40
1.0
176
     0
 90
        2
176
     1
  1
strokes_ogs.tif
176
     1
290
     0
176
     1
 40
1.0
176
     1
 40
1.0
176
     1
  0
VISUALSTYLE
  5
2B
102
{ACAD_REACTORS
330
29
102
}
330
29
100
AcDbVisualStyle
  2
FlatWithEdges
 70
     1
177
     3
291
     1
 70
    58
 90
        2
176
     1
 90
        1
176
     1
 90
        1
176
     1
 90
        2
176
     1
 40
0.6
176
     1
 40
30.0
176
     1
 62
     7
420
 16777215
176
     1
 90
        1
176
     1
 90
        0
176
     1
 62
     7
176
     1
 62
   257
176
     1
 90
        1
176
     1
 90
        1
176
     1
 40
1.0
176
     1
 90
        0
176
     1
 62
   257
176
     1
 40
1.0
176
     1
 90
        1
176
     1
 90
        6
176
     1
 90
        2
176
     1
 62
     7
176
     1
 90
        5
176
     1
 90
        0
176
     1
 90
        0
176
     1
290
     0
176
     1
 90
       13
176
     1
 40
0.0
176
     1
 90
        0
176
     1
290
     0
176
     1
290
     1
176
     1
290
     1
176
     1
290
     0
176
     1
290
     0
176
     1
290
     0
176
     1
290
     0
176
     1
290
     0
176
     1
290
     0
176
     1
 90
       50
176
     1
 40
0.0
176
     1
 40
1.0
176
     1
 90
        0
176
     1
 62
    18
176
     1
 90
       50
176
     1
 90
        3
176
     1
 62
     5
420
      255
176
     1
290
     0
176
     1
 90
       50
176
     1
 90
       50
176
     1
 90
       50
176
     1
290
     0
176
     1
 90
       50
176
     1
 62
   256
176
     0
 40
1.0
176
     0
 90
        2
176
     1
  1
strokes_ogs.tif
176
     1
290
     0
176
     1
 40
1.0
176
     1
 40
1.0
176
     1
  0
VISUALSTYLE
  5
2C
102
{ACAD_REACTORS
330
29
102
}
330
29
100
AcDbVisualStyle
  2
Gouraud
 70
     2
177
     3
291
     1
 70
    58
 90
        2
176
     1
 90
        2
176
     1
 90
        1
176
     1
 90
        2
176
     1
 40
0.6
176
     1
 40
30.0
176
     1
 62
     7
420
 16777215
176
     1
 90
        0
176
     1
 90
        0
176
     1
 62
     7
176
     1
 62
   257
176
     1
 90
        1
176
     1
 90
        1
176
     1
 40
1.0
176
     1
 90
        0
176
     1
 62
     7
176
     1
 40
1.0
176
     1
 90
        1
176
     1
 90
        6
176
     1
 90
        2
176
     1
 62
     7
176
     1
 90
        5
176
     1
 90
        0
176
     1
 90
        0
176
     1
290
     0
176
     1
 90
       13
176
     1
 40
0.0
176
     1
 90
        0
176
     1
290
     0
176
     1
290
     1
176
     1
290
     1
176
     1
290
     0
176
     1
290
     0
176
     1
290
     0
176
     1
290
     0
176
     1
290
     0
176
     1
290
     0
176
     1
 90
       50
176
     1
 40
0.0
176
     1
 40
1.0
176
     1
 90
        0
176
     1
 62
    18
176
     1
 90
       50
176
     1
 90
        3
176
     1
 62
     5
420
      255
176
     1
290
     0
176
     1
 90
       50
176
     1
 90
       50
176
     1
 90
       50
176
     1
290
     0
176
     1
 90
       50
176
     1
 62
   256
176
     0
 40
1.0
176
     0
 90
        2
176
     1
  1
strokes_ogs.tif
176
     1
290
     0
176
     1
 40
1.0
176
     1
 40
1.0
176
     1
  0
VISUALSTYLE
  5
2D
102
{ACAD_REACTORS
330
29
102
}
330
29
100
AcDbVisualStyle
  2
GouraudWithEdges
 70
     3
177
     3
291
     1
 70
    58
 90
        2
176
     1
 90
        2
176
     1
 90
        1
176
     1
 90
        2
176
     1
 40
0.6
176
     1
 40
30.0
176
     1
 62
     7
420
 16777215
176
     1
 90
        1
176
     1
 90
        0
176
     1
 62
     7
176
     1
 62
   257
176
     1
 90
        1
176
     1
 90
        1
176
     1
 40
1.0
176
     1
 90
        0
176
     1
 62
   257
176
     1
 40
1.0
176
     1
 90
        1
176
     1
 90
        6
176
     1
 90
        2
176
     1
 62
     7
176
     1
 90
        5
176
     1
 90
        0
176
     1
 90
        0
176
     1
290
     0
176
     1
 90
       13
176
     1
 40
0.0
176
     1
 90
        0
176
     1
290
     0
176
     1
290
     1
176
     1
290
     1
176
     1
290
     0
176
     1
290
     0
176
     1
290
     0
176
     1
290
     0
176
     1
290
     0
176
     1
290
     0
176
     1
 90
       50
176
     1
 40
0.0
176
     1
 40
1.0
176
     1
 90
        0
176
     1
 62
    18
176
     1
 90
       50
176
     1
 90
        3
176
     1
 62
     5
420
      255
176
     1
290
     0
176
     1
 90
       50
176
     1
 90
       50
176
     1
 90
       50
176
     1
290
     0
176
     1
 90
       50
176
     1
 62
   256
176
     0
 40
1.0
176
     0
 90
        2
176
     1
  1
strokes_ogs.tif
176
     1
290
     0
176
     1
 40
1.0
176
     1
 40
1.0
176
     1
  0
VISUALSTYLE
  5
31
102
{ACAD_REACTORS
330
29
102
}
330
29
100
AcDbVisualStyle
  2
Hidden
 70
     6
177
     3
291
     0
 70
    58
 90
        1
176
     1
 90
        2
176
     1
 90
        2
176
     1
 90
        0
176
     1
 40
0.6
176
     1
 40
30.0
176
     1
 62
     7
420
 16777215
176
     1
 90
        2
176
     1
 90
        2
176
     1
 62
     7
176
     1
 62
   257
176
     1
 90
        2
176
     1
 90
        1
176
     1
 40
40.0
176
     1
 90
        0
176
     1
 62
   257
176
     1
 40
1.0
176
     1
 90
        1
176
     1
 90
        6
176
     1
 90
        2
176
     1
 62
     7
176
     1
 90
        3
176
     1
 90
        0
176
     1
 90
        0
176
     1
290
     0
176
     1
 90
        1
176
     1
 40
0.0
176
     1
 90
        0
176
     1
290
     0
176
     1
290
     1
176
     1
290
     1
176
     1
290
     0
176
     1
290
     0
176
     1
290
     0
176
     1
290
     0
176
     1
290
     0
176
     1
290
     0
176
     1
 90
       50
176
     1
 40
0.0
176
     1
 40
1.0
176
     1
 90
        0
176
     1
 62
    18
176
     1
 90
       50
176
     1
 90
        3
176
     1
 62
     5
420
      255
176
     1
290
     0
176
     1
 90
       50
176
     1
 90
       50
176
     1
 90
       50
176
     1
290
     0
176
     1
 90
       50
176
     1
 62
   256
176
     0
 40
1.0
176
     0
 90
        2
176
     1
  1
strokes_ogs.tif
176
     1
290
     0
176
     1
 40
1.0
176
     1
 40
1.0
176
     1
  0
VISUALSTYLE
  5
3F
102
{ACAD_REACTORS
330
29
102
}
330
29
100
AcDbVisualStyle
  2
JitterOff
 70
    20
177
     3
291
     1
 70
    58
 90
        2
176
     0
 90
        2
176
     0
 90
        0
176
     0
 90
        0
176
     0
 40
0.6
176
     0
 40
30.0
176
     0
 62
     7
420
 16777215
176
     0
 90
        1
176
     0
 90
        4
176
     0
 62
     7
176
     0
 62
   257
176
     0
 90
        1
176
     0
 90
        1
176
     0
 40
1.0
176
     0
 90
       10
176
     2
 62
     7
176
     0
 40
1.0
176
     0
 90
        1
176
     0
 90
        6
176
     0
 90
        2
176
     0
 62
     7
176
     0
 90
        5
176
     0
 90
        0
176
     0
 90
        0
176
     0
290
     0
176
     0
 90
        1
176
     0
 40
0.0
176
     0
 90
        0
176
     0
290
     0
176
     0
290
     1
176
     0
290
     1
176
     0
290
     0
176
     0
290
     0
176
     0
290
     0
176
     0
290
     0
176
     0
290
     0
176
     0
290
     0
176
     0
 90
       50
176
     0
 40
0.0
176
     0
 40
1.0
176
     0
 90
        0
176
     0
 62
    18
176
     0
 90
       50
176
     0
 90
        3
176
     0
 62
     5
420
      255
176
     0
290
     0
176
     0
 90
       50
176
     0
 90
       50
176
     0
 90
       50
176
     0
290
     0
176
     0
 90
       50
176
     0
 62
   256
176
     0
 40
1.0
176
     0
 90
        2
176
     0
  1
strokes_ogs.tif
176
     0
290
     0
176
     0
 40
1.0
176
     0
 40
1.0
176
     0
  0
VISUALSTYLE
  5
37
102
{ACAD_REACTORS
330
29
102
}
330
29
100
AcDbVisualStyle
  2
Linepattern
 70
    14
177
     3
291
     1
 70
    58
 90
        2
176
     1
 90
        2
176
     1
 90
        0
176
     1
 90
        0
176
     1
 40
0.6
176
     1
 40
30.0
176
     1
 62
     7
420
 16777215
176
     1
 90
        1
176
     1
 90
        4
176
     1
 62
     7
176
     1
 62
   257
176
     1
 90
        7
176
     1
 90
        7
176
     1
 40
1.0
176
     1
 90
        8
176
     1
 62
     7
176
     1
 40
1.0
176
     1
 90
        1
176
     1
 90
        6
176
     1
 90
        2
176
     1
 62
     7
176
     1
 90
        5
176
     1
 90
        0
176
     1
 90
        0
176
     1
290
     0
176
     1
 90
        1
176
     1
 40
0.0
176
     1
 90
        0
176
     1
290
     0
176
     1
290
     1
176
     1
290
     1
176
     1
290
     0
176
     1
290
     0
176
     1
290
     0
176
     1
290
     0
176
     1
290
     0
176
     1
290
     0
176
     1
 90
       50
176
     1
 40
0.0
176
     1
 40
1.0
176
     1
 90
        0
176
     1
 62
    18
176
     1
 90
       50
176
     1
 90
        3
176
     1
 62
     5
420
      255
176
     1
290
     0
176
     1
 90
       50
176
     1
 90
       50
176
     1
 90
       50
176
     1
290
     0
176
     1
 90
       50
176
     1
 62
   256
176
     0
 40
1.0
176
     0
 90
        2
176
     1
  1
strokes_ogs.tif
176
     1
290
     0
176
     1
 40
1.0
176
     1
 40
1.0
176
     1
  0
VISUALSTYLE
  5
40
102
{ACAD_REACTORS
330
29
102
}
330
29
100
AcDbVisualStyle
  2
OverhangOff
 70
    21
177
     3
291
     1
 70
    58
 90
        2
176
     0
 90
        2
176
     0
 90
        0
176
     0
 90
        0
176
     0
 40
0.6
176
     0
 40
30.0
176
     0
 62
     7
420
 16777215
176
     0
 90
        1
176
     0
 90
        4
176
     0
 62
     7
176
     0
 62
   257
176
     0
 90
        1
176
     0
 90
        1
176
     0
 40
1.0
176
     0
 90
        9
176
     2
 62
     7
176
     0
 40
1.0
176
     0
 90
        1
176
     0
 90
        6
176
     0
 90
        2
176
     0
 62
     7
176
     0
 90
        5
176
     0
 90
        0
176
     0
 90
        0
176
     0
290
     0
176
     0
 90
        1
176
     0
 40
0.0
176
     0
 90
        0
176
     0
290
     0
176
     0
290
     1
176
     0
290
     1
176
     0
290
     0
176
     0
290
     0
176
     0
290
     0
176
     0
290
     0
176
     0
290
     0
176
     0
290
     0
176
     0
 90
       50
176
     0
 40
0.0
176
     0
 40
1.0
176
     0
 90
        0
176
     0
 62
    18
176
     0
 90
       50
176
     0
 90
        3
176
     0
 62
     5
420
      255
176
     0
290
     0
176
     0
 90
       50
176
     0
 90
       50
176
     0
 90
       50
176
     0
290
     0
176
     0
 90
       50
176
     0
 62
   256
176
     0
 40
1.0
176
     0
 90
        2
176
     0
  1
strokes_ogs.tif
176
     0
290
     0
176
     0
 40
1.0
176
     0
 40
1.0
176
     0
  0
VISUALSTYLE
  5
33
102
{ACAD_REACTORS
330
29
102
}
330
29
100
AcDbVisualStyle
  2
Realistic
 70
     8
177
     3
291
     0
 70
    58
 90
        2
176
     1
 90
        3
176
     1
 90
        0
176
     1
 90
        2
176
     1
 40
0.6
176
     1
 40
30.0
176
     1
 62
     7
420
 16777215
176
     1
 90
        0
176
     1
 90
        0
176
     1
 62
     7
176
     1
 62
   257
176
     1
 90
        1
176
     1
 90
        1
176
     1
 40
1.0
176
     1
 90
        8
176
     1
 62
   257
176
     1
 40
1.0
176
     1
 90
        1
176
     1
 90
        6
176
     1
 90
        2
176
     1
 62
     7
176
     1
 90
        3
176
     1
 90
        0
176
     1
 90
        0
176
     1
290
     0
176
     1
 90
       13
176
     1
 40
0.0
176
     1
 90
        0
176
     1
290
     0
176
     1
290
     1
176
     1
290
     1
176
     1
290
     0
176
     1
290
     0
176
     1
290
     0
176
     1
290
     0
176
     1
290
     0
176
     1
290
     0
176
     1
 90
       50
176
     1
 40
0.0
176
     1
 40
1.0
176
     1
 90
        0
176
     1
 62
    18
176
     1
 90
       50
176
     1
 90
        3
176
     1
 62
     5
420
      255
176
     1
290
     0
176
     1
 90
       50
176
     1
 90
       50
176
     1
 90
       50
176
     1
290
     0
176
     1
 90
       50
176
     1
 62
   256
176
     0
 40
1.0
176
     0
 90
        2
176
     1
  1
strokes_ogs.tif
176
     1
290
     0
176
     1
 40
1.0
176
     1
 40
1.0
176
     1
  0
VISUALSTYLE
  5
3E
102
{ACAD_REACTORS
330
29
102
}
330
29
100
AcDbVisualStyle
  2
Shaded
 70
    27
177
     3
291
     0
 70
    58
 90
        2
176
     1
 90
        2
176
     1
 90
        1
176
     1
 90
        2
176
     1
 40
0.6
176
     1
 40
30.0
176
     1
 62
     7
420
 16777215
176
     1
 90
        0
176
     1
 90
        4
176
     1
 62
     7
176
     1
 62
   257
176
     1
 90
        1
176
     1
 90
        1
176
     1
 40
1.0
176
     1
 90
        8
176
     1
 62
   257
176
     1
 40
1.0
176
     1
 90
        1
176
     1
 90
        6
176
     1
 90
        2
176
     1
 62
     8
420
  7895160
176
     1
 90
        3
176
     1
 90
        0
176
     1
 90
        0
176
     1
290
     0
176
     1
 90
        5
176
     1
 40
0.0
176
     1
 90
        0
176
     1
290
     0
176
     1
290
     1
176
     1
290
     1
176
     1
290
     0
176
     1
290
     0
176
     1
290
     0
176
     1
290
     0
176
     1
290
     0
176
     1
290
     0
176
     1
 90
       50
176
     1
 40
0.0
176
     1
 40
1.0
176
     1
 90
        0
176
     1
 62
    18
176
     1
 90
       50
176
     1
 90
        3
176
     1
 62
     5
420
      255
176
     1
290
     0
176
     1
 90
       50
176
     1
 90
       50
176
     1
 90
       50
176
     1
290
     0
176
     1
 90
       50
176
     1
 62
   256
176
     0
 40
1.0
176
     0
 90
        2
176
     1
  1
strokes_ogs.tif
176
     1
290
     0
176
     1
 40
1.0
176
     1
 40
1.0
176
     1
  0
VISUALSTYLE
  5
3D
102
{ACAD_REACTORS
330
29
102
}
330
29
100
AcDbVisualStyle
  2
Shaded with edges
 70
    26
177
     3
291
     0
 70
    58
 90
        2
176
     1
 90
        2
176
     1
 90
        1
176
     1
 90
        2
176
     1
 40
0.6
176
     1
 40
30.0
176
     1
 62
     7
420
 16777215
176
     1
 90
        1
176
     1
 90
       10
176
     1
 62
     7
176
     1
 62
   257
176
     1
 90
        2
176
     1
 90
        1
176
     1
 40
1.0
176
     1
 90
        8
176
     1
 62
   257
176
     1
 40
1.0
176
     1
 90
        1
176
     1
 90
        6
176
     1
 90
        2
176
     1
 62
     7
176
     1
 90
        3
176
     1
 90
        0
176
     1
 90
        0
176
     1
290
     0
176
     1
 90
        5
176
     1
 40
0.0
176
     1
 90
        0
176
     1
290
     0
176
     1
290
     1
176
     1
290
     1
176
     1
290
     0
176
     1
290
     0
176
     1
290
     0
176
     1
290
     0
176
     1
290
     0
176
     1
290
     0
176
     1
 90
       50
176
     1
 40
0.0
176
     1
 40
1.0
176
     1
 90
        0
176
     1
 62
    18
176
     1
 90
       50
176
     1
 90
        3
176
     1
 62
     5
420
      255
176
     1
290
     0
176
     1
 90
       50
176
     1
 90
       50
176
     1
 90
       50
176
     1
290
     0
176
     1
 90
       50
176
     1
 62
   256
176
     0
 40
1.0
176
     0
 90
        2
176
     1
  1
strokes_ogs.tif
176
     1
290
     0
176
     1
 40
1.0
176
     1
 40
1.0
176
     1
  0
VISUALSTYLE
  5
3A
102
{ACAD_REACTORS
330
29
102
}
330
29
100
AcDbVisualStyle
  2
Shades of Gray
 70
    23
177
     3
291
     0
 70
    58
 90
        2
176
     1
 90
        2
176
     1
 90
        3
176
     1
 90
        0
176
     1
 40
0.6
176
     1
 40
30.0
176
     1
 62
     7
420
 16777215
176
     1
 90
        2
176
     1
 90
        2
176
     1
 62
     7
176
     1
 62
     7
176
     1
 90
        1
176
     1
 90
        1
176
     1
 40
40.0
176
     1
 90
        8
176
     1
 62
     7
176
     1
 40
1.0
176
     1
 90
        1
176
     1
 90
        6
176
     1
 90
        2
176
     1
 62
     7
176
     1
 90
        3
176
     1
 90
        0
176
     1
 90
        0
176
     1
290
     0
176
     1
 90
        1
176
     1
 40
0.0
176
     1
 90
        0
176
     1
290
     0
176
     1
290
     1
176
     1
290
     1
176
     1
290
     0
176
     1
290
     0
176
     1
290
     0
176
     1
290
     0
176
     1
290
     0
176
     1
290
     0
176
     1
 90
       50
176
     1
 40
0.0
176
     1
 40
1.0
176
     1
 90
        0
176
     1
 62
    18
176
     1
 90
       50
176
     1
 90
        3
176
     1
 62
     5
420
      255
176
     1
290
     0
176
     1
 90
       50
176
     1
 90
       50
176
     1
 90
       50
176
     1
290
     0
176
     1
 90
       50
176
     1
 62
   256
176
     0
 40
1.0
176
     0
 90
        2
176
     1
  1
strokes_ogs.tif
176
     1
290
     0
176
     1
 40
1.0
176
     1
 40
1.0
176
     1
  0
VISUALSTYLE
  5
3B
102
{ACAD_REACTORS
330
29
102
}
330
29
100
AcDbVisualStyle
  2
Sketchy
 70
    24
177
     3
291
     0
 70
    58
 90
        1
176
     1
 90
        2
176
     1
 90
        2
176
     1
 90
        0
176
     1
 40
0.6
176
     1
 40
30.0
176
     1
 62
     7
420
 16777215
176
     1
 90
        2
176
     1
 90
        2
176
     1
 62
     7
176
     1
 62
     7
176
     1
 90
        1
176
     1
 90
        1
176
     1
 40
40.0
176
     1
 90
       11
176
     1
 62
     7
176
     1
 40
1.0
176
     1
 90
        1
176
     1
 90
        6
176
     1
 90
        2
176
     1
 62
     7
176
     1
 90
        6
176
     1
 90
        0
176
     1
 90
        0
176
     1
290
     0
176
     1
 90
        1
176
     1
 40
0.0
176
     1
 90
        0
176
     1
290
     0
176
     1
290
     1
176
     1
290
     1
176
     1
290
     0
176
     1
290
     0
176
     1
290
     0
176
     1
290
     0
176
     1
290
     0
176
     1
290
     0
176
     1
 90
       50
176
     1
 40
0.0
176
     1
 40
1.0
176
     1
 90
        0
176
     1
 62
    18
176
     1
 90
       50
176
     1
 90
        3
176
     1
 62
     5
420
      255
176
     1
290
     0
176
     1
 90
       50
176
     1
 90
       50
176
     1
 90
       50
176
     1
290
     0
176
     1
 90
       50
176
     1
 62
   256
176
     0
 40
1.0
176
     0
 90
        2
176
     1
  1
strokes_ogs.tif
176
     1
290
     0
176
     1
 40
1.0
176
     1
 40
1.0
176
     1
  0
VISUALSTYLE
  5
36
102
{ACAD_REACTORS
330
29
102
}
330
29
100
AcDbVisualStyle
  2
Thicken
 70
    13
177
     3
291
     1
 70
    58
 90
        2
176
     1
 90
        2
176
     1
 90
        0
176
     1
 90
        0
176
     1
 40
0.6
176
     1
 40
30.0
176
     1
 62
     7
420
 16777215
176
     1
 90
        1
176
     1
 90
        4
176
     1
 62
     7
176
     1
 62
   257
176
     1
 90
        1
176
     1
 90
        1
176
     1
 40
1.0
176
     1
 90
       12
176
     1
 62
     7
176
     1
 40
1.0
176
     1
 90
        1
176
     1
 90
        6
176
     1
 90
        2
176
     1
 62
     7
176
     1
 90
        5
176
     1
 90
        0
176
     1
 90
        0
176
     1
290
     0
176
     1
 90
        1
176
     1
 40
0.0
176
     1
 90
        0
176
     1
290
     0
176
     1
290
     1
176
     1
290
     1
176
     1
290
     0
176
     1
290
     0
176
     1
290
     0
176
     1
290
     0
176
     1
290
     0
176
     1
290
     0
176
     1
 90
       50
176
     1
 40
0.0
176
     1
 40
1.0
176
     1
 90
        0
176
     1
 62
    18
176
     1
 90
       50
176
     1
 90
        3
176
     1
 62
     5
420
      255
176
     1
290
     0
176
     1
 90
       50
176
     1
 90
       50
176
     1
 90
       50
176
     1
290
     0
176
     1
 90
       50
176
     1
 62
   256
176
     0
 40
1.0
176
     0
 90
        2
176
     1
  1
strokes_ogs.tif
176
     1
290
     0
176
     1
 40
1.0
176
     1
 40
1.0
176
     1
  0
VISUALSTYLE
  5
30
102
{ACAD_REACTORS
330
29
102
}
330
29
100
AcDbVisualStyle
  2
Wireframe
 70
     5
177
     3
291
     0
 70
    58
 90
        0
176
     1
 90
        2
176
     1
 90
        0
176
     1
 90
        0
176
     1
 40
0.6
176
     1
 40
30.0
176
     1
 62
     7
420
 16777215
176
     1
 90
        1
176
     1
 90
        4
176
     1
 62
     7
176
     1
 62
   257
176
     1
 90
        1
176
     1
 90
        1
176
     1
 40
1.0
176
     1
 90
        0
176
     1
 62
   257
176
     1
 40
1.0
176
     1
 90
        1
176
     1
 90
        6
176
     1
 90
        2
176
     1
 62
     7
176
     1
 90
        3
176
     1
 90
        0
176
     1
 90
        0
176
     1
290
     0
176
     1
 90
        1
176
     1
 40
0.0
176
     1
 90
        0
176
     1
290
     0
176
     1
290
     1
176
     1
290
     1
176
     1
290
     0
176
     1
290
     0
176
     1
290
     0
176
     1
290
     0
176
     1
290
     0
176
     1
290
     0
176
     1
 90
       50
176
     1
 40
0.0
176
     1
 40
1.0
176
     1
 90
        0
176
     1
 62
    18
176
     1
 90
       50
176
     1
 90
        3
176
     1
 62
     5
420
      255
176
     1
290
     0
176
     1
 90
       50
176
     1
 90
       50
176
     1
 90
       50
176
     1
290
     0
176
     1
 90
       50
176
     1
 62
   256
176
     0
 40
1.0
176
     0
 90
        2
176
     1
  1
strokes_ogs.tif
176
     1
290
     0
176
     1
 40
1.0
176
     1
 40
1.0
176
     1
  0
VISUALSTYLE
  5
3C
102
{ACAD_REACTORS
330
29
102
}
330
29
100
AcDbVisualStyle
  2
X-Ray
 70
    25
177
     3
291
     0
 70
    58
 90
        2
176
     1
 90
        2
176
     1
 90
        1
176
     1
 90
        1
176
     1
 40
0.5
176
     1
 40
30.0
176
     1
 62
     7
420
 16777215
176
     1
 90
        1
176
     1
 90
        0
176
     1
 62
     7
176
     1
 62
   257
176
     1
 90
        1
176
     1
 90
        1
176
     1
 40
1.0
176
     1
 90
        8
176
     1
 62
     7
176
     1
 40
1.0
176
     1
 90
        1
176
     1
 90
        6
176
     1
 90
        2
176
     1
 62
     7
176
     1
 90
        3
176
     1
 90
        0
176
     1
 90
        0
176
     1
290
     0
176
     1
 90
       13
176
     1
 40
0.0
176
     1
 90
        0
176
     1
290
     0
176
     1
290
     1
176
     1
290
     1
176
     1
290
     0
176
     1
290
     0
176
     1
290
     0
176
     1
290
     0
176
     1
290
     0
176
     1
290
     0
176
     1
 90
       50
176
     1
 40
0.0
176
     1
 40
1.0
176
     1
 90
        0
176
     1
 62
    18
176
     1
 90
       50
176
     1
 90
        3
176
     1
 62
     5
420
      255
176
     1
290
     0
176
     1
 90
       50
176
     1
 90
       50
176
     1
 90
       50
176
     1
290
     0
176
     1
 90
       50
176
     1
 62
   256
176
     0
 40
1.0
176
     0
 90
        2
176
     1
  1
strokes_ogs.tif
176
     1
290
     0
176
     1
 40
1.0
176
     1
 40
1.0
176
     1
  0
DICTIONARYVAR
  5
81
102
{ACAD_REACTORS
330
7C
102
}
330
7C
100
DictionaryVariables
280
     0
  1
1:1
  0
DICTIONARYVAR
  5
7E
102
{ACAD_REACTORS
330
7C
102
}
330
7C
100
DictionaryVariables
280
     0
  1
STANDARD
  0
DICTIONARYVAR
  5
7D
102
{ACAD_REACTORS
330
7C
102
}
330
7C
100
DictionaryVariables
280
     0
  1
STANDARD
  0
DICTIONARYVAR
  5
7F
102
{ACAD_REACTORS
330
7C
102
}
330
7C
100
DictionaryVariables
280
     0
  1
Imperial24
  0
DICTIONARYVAR
  5
80
102
{ACAD_REACTORS
330
7C
102
}
330
7C
100
DictionaryVariables
280
     0
  1
Imperial24
  0
XRECORD
  5
368
102
{ACAD_REACTORS
330
364
102
}
330
364
100
AcDbXrecord
280
     1
  1
BUILDING_ID
  1
Progetto per messa in tavola DXF, DWG
  1
FLOOR_ID
  1
694395
  0
XRECORD
  5
366
102
{ACAD_REACTORS
330
364
102
}
330
364
100
AcDbXrecord
280
     1
  1
-2001160
  1
Apparecchi idraulici
  0
XRECORD
  5
367
102
{ACAD_REACTORS
330
364
102
}
330
364
100
AcDbXrecord
280
     1
  1
790271
  1
Body
  1
923267
  1
Handle
  0
XRECORD
  5
365
102
{ACAD_REACTORS
330
364
102
}
330
364
100
AcDbXrecord
280
     1
  1
859151
  1
Automatic flow rate regulator valve_Caleffi_121 DN15 : 1/2''
  0
DICTIONARY
  5
1A
330
19
100
AcDbDictionary
280
     1
281
     1
  3
BUMPTILE
360
1C
  3
DIFFUSETILE
360
1B
  3
OPACITYTILE
360
1F
  3
REFLECTIONTILE
360
1E
  3
REFRACTIONTILE
360
20
  3
SPECULARTILE
360
1D
  0
DICTIONARY
  5
12
330
11
100
AcDbDictionary
280
     1
281
     1
  3
BUMPTILE
360
14
  3
DIFFUSETILE
360
13
  3
OPACITYTILE
360
17
  3
REFLECTIONTILE
360
16
  3
REFRACTIONTILE
360
18
  3
SPECULARTILE
360
15
  0
DICTIONARY
  5
22
330
21
100
AcDbDictionary
280
     1
281
     1
  3
BUMPTILE
360
24
  3
DIFFUSETILE
360
23
  3
OPACITYTILE
360
27
  3
REFLECTIONTILE
360
26
  3
REFRACTIONTILE
360
28
  3
SPECULARTILE
360
25
  0
DICTIONARY
  5
36B
330
65
100
AcDbDictionary
280
     1
281
     1
  3
ACAD_ROUNDTRIP_2008_TABLESTYLE_CELLSTYLEMAP
360
37D
  0
XRECORD
  5
1C
102
{ACAD_REACTORS
330
1A
102
}
330
1A
100
AcDbXrecord
280
     1
270
     1
271
     1
  0
XRECORD
  5
1B
102
{ACAD_REACTORS
330
1A
102
}
330
1A
100
AcDbXrecord
280
     1
270
     1
271
     1
  0
XRECORD
  5
1F
102
{ACAD_REACTORS
330
1A
102
}
330
1A
100
AcDbXrecord
280
     1
270
     1
271
     1
  0
XRECORD
  5
1E
102
{ACAD_REACTORS
330
1A
102
}
330
1A
100
AcDbXrecord
280
     1
270
     1
271
     1
  0
XRECORD
  5
20
102
{ACAD_REACTORS
330
1A
102
}
330
1A
100
AcDbXrecord
280
     1
270
     1
271
     1
  0
XRECORD
  5
1D
102
{ACAD_REACTORS
330
1A
102
}
330
1A
100
AcDbXrecord
280
     1
270
     1
271
     1
  0
XRECORD
  5
14
102
{ACAD_REACTORS
330
12
102
}
330
12
100
AcDbXrecord
280
     1
270
     1
271
     1
  0
XRECORD
  5
13
102
{ACAD_REACTORS
330
12
102
}
330
12
100
AcDbXrecord
280
     1
270
     1
271
     1
  0
XRECORD
  5
17
102
{ACAD_REACTORS
330
12
102
}
330
12
100
AcDbXrecord
280
     1
270
     1
271
     1
  0
XRECORD
  5
16
102
{ACAD_REACTORS
330
12
102
}
330
12
100
AcDbXrecord
280
     1
270
     1
271
     1
  0
XRECORD
  5
18
102
{ACAD_REACTORS
330
12
102
}
330
12
100
AcDbXrecord
280
     1
270
     1
271
     1
  0
XRECORD
  5
15
102
{ACAD_REACTORS
330
12
102
}
330
12
100
AcDbXrecord
280
     1
270
     1
271
     1
  0
XRECORD
  5
24
102
{ACAD_REACTORS
330
22
102
}
330
22
100
AcDbXrecord
280
     1
270
     1
271
     1
  0
XRECORD
  5
23
102
{ACAD_REACTORS
330
22
102
}
330
22
100
AcDbXrecord
280
     1
270
     1
271
     1
  0
XRECORD
  5
27
102
{ACAD_REACTORS
330
22
102
}
330
22
100
AcDbXrecord
280
     1
270
     1
271
     1
  0
XRECORD
  5
26
102
{ACAD_REACTORS
330
22
102
}
330
22
100
AcDbXrecord
280
     1
270
     1
271
     1
  0
XRECORD
  5
28
102
{ACAD_REACTORS
330
22
102
}
330
22
100
AcDbXrecord
280
     1
270
     1
271
     1
  0
XRECORD
  5
25
102
{ACAD_REACTORS
330
22
102
}
330
22
100
AcDbXrecord
280
     1
270
     1
271
     1
  0
CELLSTYLEMAP
  5
37D
102
{ACAD_REACTORS
330
36B
102
}
330
36B
100
AcDbCellStyleMap
 90
        3
300
CELLSTYLE
  1
TABLEFORMAT_BEGIN
 90
        5
170
     1
 91
        0
 92
    32768
 62
   257
 93
        1
300
CONTENTFORMAT
  1
CONTENTFORMAT_BEGIN
 90
        0
 91
        0
 92
      512
 93
        0
300

 40
0.0
140
1.0
 94
        5
 62
     0
340
55
144
0.25
309
CONTENTFORMAT_END
171
     1
301
MARGIN
  1
CELLMARGIN_BEGIN
 40
0.06
 40
0.06
 40
0.06
 40
0.06
 40
0.18
 40
0.18
309
CELLMARGIN_END
 94
        6
 95
        1
302
GRIDFORMAT
  1
GRIDFORMAT_BEGIN
 90
        0
 91
        1
 62
     0
 92
       -2
340
0
 93
        0
 40
0.045
309
GRIDFORMAT_END
 95
        2
302
GRIDFORMAT
  1
GRIDFORMAT_BEGIN
 90
        0
 91
        1
 62
     0
 92
       -2
340
0
 93
        0
 40
0.045
309
GRIDFORMAT_END
 95
        4
302
GRIDFORMAT
  1
GRIDFORMAT_BEGIN
 90
        0
 91
        1
 62
     0
 92
       -2
340
0
 93
        0
 40
0.045
309
GRIDFORMAT_END
 95
        8
302
GRIDFORMAT
  1
GRIDFORMAT_BEGIN
 90
        0
 91
        1
 62
     0
 92
       -2
340
0
 93
        0
 40
0.045
309
GRIDFORMAT_END
 95
       16
302
GRIDFORMAT
  1
GRIDFORMAT_BEGIN
 90
        0
 91
        1
 62
     0
 92
       -2
340
0
 93
        0
 40
0.045
309
GRIDFORMAT_END
 95
       32
302
GRIDFORMAT
  1
GRIDFORMAT_BEGIN
 90
        0
 91
        1
 62
     0
 92
       -2
340
0
 93
        0
 40
0.045
309
GRIDFORMAT_END
309
TABLEFORMAT_END
  1
CELLSTYLE_BEGIN
 90
        1
 91
        1
300
_TITLE
309
CELLSTYLE_END
300
CELLSTYLE
  1
TABLEFORMAT_BEGIN
 90
        5
170
     1
 91
        0
 92
        0
 62
   257
 93
        1
300
CONTENTFORMAT
  1
CONTENTFORMAT_BEGIN
 90
        0
 91
        0
 92
      512
 93
        0
300

 40
0.0
140
1.0
 94
        5
 62
     0
340
55
144
0.18
309
CONTENTFORMAT_END
171
     1
301
MARGIN
  1
CELLMARGIN_BEGIN
 40
0.06
 40
0.06
 40
0.06
 40
0.06
 40
0.18
 40
0.18
309
CELLMARGIN_END
 94
        6
 95
        1
302
GRIDFORMAT
  1
GRIDFORMAT_BEGIN
 90
        0
 91
        1
 62
     0
 92
       -2
340
0
 93
        0
 40
0.045
309
GRIDFORMAT_END
 95
        2
302
GRIDFORMAT
  1
GRIDFORMAT_BEGIN
 90
        0
 91
        1
 62
     0
 92
       -2
340
0
 93
        0
 40
0.045
309
GRIDFORMAT_END
 95
        4
302
GRIDFORMAT
  1
GRIDFORMAT_BEGIN
 90
        0
 91
        1
 62
     0
 92
       -2
340
0
 93
        0
 40
0.045
309
GRIDFORMAT_END
 95
        8
302
GRIDFORMAT
  1
GRIDFORMAT_BEGIN
 90
        0
 91
        1
 62
     0
 92
       -2
340
0
 93
        0
 40
0.045
309
GRIDFORMAT_END
 95
       16
302
GRIDFORMAT
  1
GRIDFORMAT_BEGIN
 90
        0
 91
        1
 62
     0
 92
       -2
340
0
 93
        0
 40
0.045
309
GRIDFORMAT_END
 95
       32
302
GRIDFORMAT
  1
GRIDFORMAT_BEGIN
 90
        0
 91
        1
 62
     0
 92
       -2
340
0
 93
        0
 40
0.045
309
GRIDFORMAT_END
309
TABLEFORMAT_END
  1
CELLSTYLE_BEGIN
 90
        2
 91
        1
300
_HEADER
309
CELLSTYLE_END
300
CELLSTYLE
  1
TABLEFORMAT_BEGIN
 90
        5
170
     1
 91
        0
 92
        0
 62
   257
 93
        1
300
CONTENTFORMAT
  1
CONTENTFORMAT_BEGIN
 90
        0
 91
        0
 92
      512
 93
        0
300

 40
0.0
140
1.0
 94
        2
 62
     0
340
55
144
0.18
309
CONTENTFORMAT_END
171
     1
301
MARGIN
  1
CELLMARGIN_BEGIN
 40
0.06
 40
0.06
 40
0.06
 40
0.06
 40
0.18
 40
0.18
309
CELLMARGIN_END
 94
        6
 95
        1
302
GRIDFORMAT
  1
GRIDFORMAT_BEGIN
 90
        0
 91
        1
 62
     0
 92
       -2
340
0
 93
        0
 40
0.045
309
GRIDFORMAT_END
 95
        2
302
GRIDFORMAT
  1
GRIDFORMAT_BEGIN
 90
        0
 91
        1
 62
     0
 92
       -2
340
0
 93
        0
 40
0.045
309
GRIDFORMAT_END
 95
        4
302
GRIDFORMAT
  1
GRIDFORMAT_BEGIN
 90
        0
 91
        1
 62
     0
 92
       -2
340
0
 93
        0
 40
0.045
309
GRIDFORMAT_END
 95
        8
302
GRIDFORMAT
  1
GRIDFORMAT_BEGIN
 90
        0
 91
        1
 62
     0
 92
       -2
340
0
 93
        0
 40
0.045
309
GRIDFORMAT_END
 95
       16
302
GRIDFORMAT
  1
GRIDFORMAT_BEGIN
 90
        0
 91
        1
 62
     0
 92
       -2
340
0
 93
        0
 40
0.045
309
GRIDFORMAT_END
 95
       32
302
GRIDFORMAT
  1
GRIDFORMAT_BEGIN
 90
        0
 91
        1
 62
     0
 92
       -2
340
0
 93
        0
 40
0.045
309
GRIDFORMAT_END
309
TABLEFORMAT_END
  1
CELLSTYLE_BEGIN
 90
        3
 91
        2
300
_DATA
309
CELLSTYLE_END
  0
ENDSEC
  0
EOF
