  0
SECTION
  2
HEADER
  9
$ACADVER
  1
AC1027
  9
$ACADMAINTVER
 70
    20
  9
$DWGCODEPAGE
  3
ANSI_1252
  9
$REQUIREDVERSIONS
160
                 0
  9
$INSBASE
 10
0.0
 20
0.0
 30
0.0
  9
$EXTMIN
 10
433.2855994030532
 20
1041.800737862376
 30
-0.00000001
  9
$EXTMAX
 10
2185.778244820763
 20
2522.437330991505
 30
0.00000001
  9
$LIMMIN
 10
0.0
 20
0.0
  9
$LIMMAX
 10
12.0
 20
9.0
  9
$ORTHOMODE
 70
     0
  9
$REGENMODE
 70
     1
  9
$FILLMODE
 70
     1
  9
$QTEXTMODE
 70
     0
  9
$MIRRTEXT
 70
     0
  9
$LTSCALE
 40
1.0
  9
$ATTMODE
 70
     1
  9
$TEXTSIZE
 40
0.2
  9
$TRACEWID
 40
0.05
  9
$TEXTSTYLE
  7
Standard
  9
$CLAYER
  8
0
  9
$CELTYPE
  6
ByLayer
  9
$CECOLOR
 62
   256
  9
$CELTSCALE
 40
1.0
  9
$DISPSILH
 70
     0
  9
$DIMSCALE
 40
1.0
  9
$DIMASZ
 40
0.18
  9
$DIMEXO
 40
0.0625
  9
$DIMDLI
 40
0.38
  9
$DIMRND
 40
0.0
  9
$DIMDLE
 40
0.0
  9
$DIMEXE
 40
0.18
  9
$DIMTP
 40
0.0
  9
$DIMTM
 40
0.0
  9
$DIMTXT
 40
0.18
  9
$DIMCEN
 40
0.09
  9
$DIMTSZ
 40
0.0
  9
$DIMTOL
 70
     0
  9
$DIMLIM
 70
     0
  9
$DIMTIH
 70
     1
  9
$DIMTOH
 70
     1
  9
$DIMSE1
 70
     0
  9
$DIMSE2
 70
     0
  9
$DIMTAD
 70
     0
  9
$DIMZIN
 70
     0
  9
$DIMBLK
  1

  9
$DIMASO
 70
     1
  9
$DIMSHO
 70
     1
  9
$DIMPOST
  1

  9
$DIMAPOST
  1

  9
$DIMALT
 70
     0
  9
$DIMALTD
 70
     2
  9
$DIMALTF
 40
25.4
  9
$DIMLFAC
 40
1.0
  9
$DIMTOFL
 70
     0
  9
$DIMTVP
 40
0.0
  9
$DIMTIX
 70
     0
  9
$DIMSOXD
 70
     0
  9
$DIMSAH
 70
     0
  9
$DIMBLK1
  1

  9
$DIMBLK2
  1

  9
$DIMSTYLE
  2
Standard
  9
$DIMCLRD
 70
     0
  9
$DIMCLRE
 70
     0
  9
$DIMCLRT
 70
     0
  9
$DIMTFAC
 40
1.0
  9
$DIMGAP
 40
0.09
  9
$DIMJUST
 70
     0
  9
$DIMSD1
 70
     0
  9
$DIMSD2
 70
     0
  9
$DIMTOLJ
 70
     1
  9
$DIMTZIN
 70
     0
  9
$DIMALTZ
 70
     0
  9
$DIMALTTZ
 70
     0
  9
$DIMUPT
 70
     0
  9
$DIMDEC
 70
     4
  9
$DIMTDEC
 70
     4
  9
$DIMALTU
 70
     2
  9
$DIMALTTD
 70
     2
  9
$DIMTXSTY
  7
Standard
  9
$DIMAUNIT
 70
     0
  9
$DIMADEC
 70
     0
  9
$DIMALTRND
 40
0.0
  9
$DIMAZIN
 70
     0
  9
$DIMDSEP
 70
    46
  9
$DIMATFIT
 70
     3
  9
$DIMFRAC
 70
     0
  9
$DIMLDRBLK
  1

  9
$DIMLUNIT
 70
     2
  9
$DIMLWD
 70
    -2
  9
$DIMLWE
 70
    -2
  9
$DIMTMOVE
 70
     0
  9
$DIMFXL
 40
1.0
  9
$DIMFXLON
 70
     0
  9
$DIMJOGANG
 40
0.7853981633974483
  9
$DIMTFILL
 70
     0
  9
$DIMTFILLCLR
 70
     0
  9
$DIMARCSYM
 70
     0
  9
$DIMLTYPE
  6

  9
$DIMLTEX1
  6

  9
$DIMLTEX2
  6

  9
$DIMTXTDIRECTION
 70
     0
  9
$LUNITS
 70
     2
  9
$LUPREC
 70
     4
  9
$SKETCHINC
 40
0.1
  9
$FILLETRAD
 40
0.0
  9
$AUNITS
 70
     0
  9
$AUPREC
 70
     0
  9
$MENU
  1
.
  9
$ELEVATION
 40
0.0
  9
$PELEVATION
 40
0.0
  9
$THICKNESS
 40
0.0
  9
$LIMCHECK
 70
     0
  9
$CHAMFERA
 40
0.0
  9
$CHAMFERB
 40
0.0
  9
$CHAMFERC
 40
0.0
  9
$CHAMFERD
 40
0.0
  9
$SKPOLY
 70
     0
  9
$TDCREATE
 40
2457585.382232789
  9
$TDUCREATE
 40
2457585.298899456
  9
$TDUPDATE
 40
2457585.382232789
  9
$TDUUPDATE
 40
2457585.298899456
  9
$TDINDWG
 40
0.0000626505
  9
$TDUSRTIMER
 40
0.0000626505
  9
$USRTIMER
 70
     1
  9
$ANGBASE
 50
0.0
  9
$ANGDIR
 70
     0
  9
$PDMODE
 70
     0
  9
$PDSIZE
 40
0.0
  9
$PLINEWID
 40
0.0
  9
$SPLFRAME
 70
     0
  9
$SPLINETYPE
 70
     6
  9
$SPLINESEGS
 70
     8
  9
$HANDSEED
  5
1E4
  9
$SURFTAB1
 70
     6
  9
$SURFTAB2
 70
     6
  9
$SURFTYPE
 70
     6
  9
$SURFU
 70
     6
  9
$SURFV
 70
     6
  9
$UCSBASE
  2

  9
$UCSNAME
  2

  9
$UCSORG
 10
0.0
 20
0.0
 30
0.0
  9
$UCSXDIR
 10
1.0
 20
0.0
 30
0.0
  9
$UCSYDIR
 10
0.0
 20
1.0
 30
0.0
  9
$UCSORTHOREF
  2

  9
$UCSORTHOVIEW
 70
     0
  9
$UCSORGTOP
 10
0.0
 20
0.0
 30
0.0
  9
$UCSORGBOTTOM
 10
0.0
 20
0.0
 30
0.0
  9
$UCSORGLEFT
 10
0.0
 20
0.0
 30
0.0
  9
$UCSORGRIGHT
 10
0.0
 20
0.0
 30
0.0
  9
$UCSORGFRONT
 10
0.0
 20
0.0
 30
0.0
  9
$UCSORGBACK
 10
0.0
 20
0.0
 30
0.0
  9
$PUCSBASE
  2

  9
$PUCSNAME
  2

  9
$PUCSORG
 10
0.0
 20
0.0
 30
0.0
  9
$PUCSXDIR
 10
1.0
 20
0.0
 30
0.0
  9
$PUCSYDIR
 10
0.0
 20
1.0
 30
0.0
  9
$PUCSORTHOREF
  2

  9
$PUCSORTHOVIEW
 70
     0
  9
$PUCSORGTOP
 10
0.0
 20
0.0
 30
0.0
  9
$PUCSORGBOTTOM
 10
0.0
 20
0.0
 30
0.0
  9
$PUCSORGLEFT
 10
0.0
 20
0.0
 30
0.0
  9
$PUCSORGRIGHT
 10
0.0
 20
0.0
 30
0.0
  9
$PUCSORGFRONT
 10
0.0
 20
0.0
 30
0.0
  9
$PUCSORGBACK
 10
0.0
 20
0.0
 30
0.0
  9
$USERI1
 70
     0
  9
$USERI2
 70
     0
  9
$USERI3
 70
     0
  9
$USERI4
 70
     0
  9
$USERI5
 70
     0
  9
$USERR1
 40
0.0
  9
$USERR2
 40
0.0
  9
$USERR3
 40
0.0
  9
$USERR4
 40
0.0
  9
$USERR5
 40
0.0
  9
$WORLDVIEW
 70
     1
  9
$SHADEDGE
 70
     3
  9
$SHADEDIF
 70
    70
  9
$TILEMODE
 70
     1
  9
$MAXACTVP
 70
    64
  9
$PINSBASE
 10
0.0
 20
0.0
 30
0.0
  9
$PLIMCHECK
 70
     0
  9
$PEXTMIN
 10
1.000000000000000E+20
 20
1.000000000000000E+20
 30
1.000000000000000E+20
  9
$PEXTMAX
 10
-1.000000000000000E+20
 20
-1.000000000000000E+20
 30
-1.000000000000000E+20
  9
$PLIMMIN
 10
0.0
 20
0.0
  9
$PLIMMAX
 10
12.0
 20
9.0
  9
$UNITMODE
 70
     0
  9
$VISRETAIN
 70
     1
  9
$PLINEGEN
 70
     0
  9
$PSLTSCALE
 70
     1
  9
$TREEDEPTH
 70
  3020
  9
$CMLSTYLE
  2
Standard
  9
$CMLJUST
 70
     0
  9
$CMLSCALE
 40
1.0
  9
$PROXYGRAPHICS
 70
     1
  9
$MEASUREMENT
 70
     1
  9
$CELWEIGHT
370
    -1
  9
$ENDCAPS
280
     0
  9
$JOINSTYLE
280
     0
  9
$LWDISPLAY
290
     0
  9
$INSUNITS
 70
     4
  9
$HYPERLINKBASE
  1

  9
$STYLESHEET
  1

  9
$XEDIT
290
     1
  9
$CEPSNTYPE
380
     0
  9
$PSTYLEMODE
290
     1
  9
$FINGERPRINTGUID
  2
{59D890A5-D451-4DFF-B646-058B8DA25134}
  9
$VERSIONGUID
  2
{135B78B5-2495-4B43-A06A-871FD4D55B54}
  9
$EXTNAMES
290
     1
  9
$PSVPSCALE
 40
0.0
  9
$OLESTARTUP
290
     0
  9
$SORTENTS
280
   127
  9
$INDEXCTL
280
     0
  9
$HIDETEXT
280
     1
  9
$XCLIPFRAME
280
     2
  9
$HALOGAP
280
     0
  9
$OBSCOLOR
 70
   257
  9
$OBSLTYPE
280
     0
  9
$INTERSECTIONDISPLAY
280
     0
  9
$INTERSECTIONCOLOR
 70
   257
  9
$DIMASSOC
280
     2
  9
$PROJECTNAME
  1

  9
$CAMERADISPLAY
290
     0
  9
$LENSLENGTH
 40
50.0
  9
$CAMERAHEIGHT
 40
0.0
  9
$STEPSPERSEC
 40
2.0
  9
$STEPSIZE
 40
6.0
  9
$3DDWFPREC
 40
2.0
  9
$PSOLWIDTH
 40
0.25
  9
$PSOLHEIGHT
 40
4.0
  9
$LOFTANG1
 40
1.570796326794896
  9
$LOFTANG2
 40
1.570796326794896
  9
$LOFTMAG1
 40
0.0
  9
$LOFTMAG2
 40
0.0
  9
$LOFTPARAM
 70
     7
  9
$LOFTNORMALS
280
     1
  9
$LATITUDE
 40
37.795
  9
$LONGITUDE
 40
-122.394
  9
$NORTHDIRECTION
 40
0.0
  9
$TIMEZONE
 70
 -8000
  9
$LIGHTGLYPHDISPLAY
280
     1
  9
$TILEMODELIGHTSYNCH
280
     1
  9
$CMATERIAL
347
11
  9
$SOLIDHIST
280
     0
  9
$SHOWHIST
280
     1
  9
$DWFFRAME
280
     2
  9
$DGNFRAME
280
     0
  9
$REALWORLDSCALE
290
     1
  9
$INTERFERECOLOR
 62
     1
  9
$INTERFEREOBJVS
345
33
  9
$INTERFEREVPVS
346
30
  9
$CSHADOW
280
     0
  9
$SHADOWPLANELOCATION
 40
0.0
  0
ENDSEC
  0
SECTION
  2
CLASSES
  0
CLASS
  1
ACDBDICTIONARYWDFLT
  2
AcDbDictionaryWithDefault
  3
ObjectDBX Classes
 90
        0
 91
        1
280
     0
281
     0
  0
CLASS
  1
MATERIAL
  2
AcDbMaterial
  3
ObjectDBX Classes
 90
     1153
 91
        3
280
     0
281
     0
  0
CLASS
  1
VISUALSTYLE
  2
AcDbVisualStyle
  3
ObjectDBX Classes
 90
     4095
 91
       24
280
     0
281
     0
  0
CLASS
  1
SCALE
  2
AcDbScale
  3
ObjectDBX Classes
 90
     1153
 91
       17
280
     0
281
     0
  0
CLASS
  1
TABLESTYLE
  2
AcDbTableStyle
  3
ObjectDBX Classes
 90
     4095
 91
        1
280
     0
281
     0
  0
CLASS
  1
MLEADERSTYLE
  2
AcDbMLeaderStyle
  3
ACDB_MLEADERSTYLE_CLASS
 90
     4095
 91
        1
280
     0
281
     0
  0
CLASS
  1
ACDBSECTIONVIEWSTYLE
  2
AcDbSectionViewStyle
  3
ObjectDBX Classes
 90
     1025
 91
        1
280
     0
281
     0
  0
CLASS
  1
ACDBDETAILVIEWSTYLE
  2
AcDbDetailViewStyle
  3
ObjectDBX Classes
 90
     1025
 91
        1
280
     0
281
     0
  0
CLASS
  1
RASTERVARIABLES
  2
AcDbRasterVariables
  3
ISM
 90
        0
 91
        1
280
     0
281
     0
  0
CLASS
  1
DICTIONARYVAR
  2
AcDbDictionaryVar
  3
ObjectDBX Classes
 90
        0
 91
        5
280
     0
281
     0
  0
CLASS
  1
CELLSTYLEMAP
  2
AcDbCellStyleMap
  3
ObjectDBX Classes
 90
     1152
 91
        2
280
     0
281
     0
  0
CLASS
  1
SORTENTSTABLE
  2
AcDbSortentsTable
  3
ObjectDBX Classes
 90
        0
 91
        1
280
     0
281
     0
  0
ENDSEC
  0
SECTION
  2
TABLES
  0
TABLE
  2
VPORT
  5
8
330
0
100
AcDbSymbolTable
 70
     1
  0
VPORT
  5
57
330
8
100
AcDbSymbolTableRecord
100
AcDbViewportTableRecord
  2
*Active
 70
     0
 10
0.0
 20
0.0
 11
1.0
 21
1.0
 12
1309.531922111908
 22
1782.119034426941
 13
0.0
 23
0.0
 14
1.0
 24
1.0
 15
0.0
 25
0.0
 16
0.0
 26
0.0
 36
1.0
 17
0.0
 27
0.0
 37
0.0
 40
1480.636593129128
 41
1.183607546612129
 42
50.0
 43
0.0
 44
0.0
 50
0.0
 51
0.0
 71
     0
 72
  1000
 73
     1
 74
     1
 75
     0
 76
     0
 77
     0
 78
     0
281
     0
 65
     1
110
0.0
120
0.0
130
0.0
111
1.0
121
0.0
131
0.0
112
0.0
122
1.0
132
0.0
 79
     0
146
0.0
 60
     3
 61
     5
292
     1
282
     1
141
0.0
142
0.0
 63
   250
421
  3355443
  0
ENDTAB
  0
TABLE
  2
LTYPE
  5
5
330
0
100
AcDbSymbolTable
 70
     3
  0
LTYPE
  5
5B
330
5
100
AcDbSymbolTableRecord
100
AcDbLinetypeTableRecord
  2
ByBlock
 70
     0
  3

 72
    65
 73
     0
 40
0.0
  0
LTYPE
  5
5C
330
5
100
AcDbSymbolTableRecord
100
AcDbLinetypeTableRecord
  2
ByLayer
 70
     0
  3

 72
    65
 73
     0
 40
0.0
  0
LTYPE
  5
5D
330
5
100
AcDbSymbolTableRecord
100
AcDbLinetypeTableRecord
  2
Continuous
 70
     0
  3
Solid line
 72
    65
 73
     0
 40
0.0
  0
LTYPE
  5
69
330
5
100
AcDbSymbolTableRecord
100
AcDbLinetypeTableRecord
  2
PHANTOM2
 70
     0
  3
___ _ _ ___ _ _ ___ _ _ ___ _ _
 72
    65
 73
     6
 40
1.25
 49
0.625
 74
     0
 49
-0.125
 74
     0
 49
0.125
 74
     0
 49
-0.125
 74
     0
 49
0.125
 74
     0
 49
-0.125
 74
     0
  0
LTYPE
  5
86
330
5
100
AcDbSymbolTableRecord
100
AcDbLinetypeTableRecord
  2
Nascosto 1_5 mm
 70
     0
  3

 72
    65
 73
     2
 40
2.2
 49
1.5
 74
     0
 49
-0.7000000000000001
 74
     0
  0
ENDTAB
  0
TABLE
  2
LAYER
  5
2
330
0
100
AcDbSymbolTable
 70
     3
  0
LAYER
  5
54
330
2
100
AcDbSymbolTableRecord
100
AcDbLayerTableRecord
  2
0
 70
     0
 62
     7
  6
Continuous
370
    -3
390
F
347
21
348
0
  0
LAYER
  5
85
330
2
100
AcDbSymbolTableRecord
100
AcDbLayerTableRecord
  2
P-SANR-FIXT
 70
     0
 62
     6
  6
Continuous
370
    18
390
F
347
21
348
0
  0
ENDTAB
  0
TABLE
  2
STYLE
  5
3
330
0
100
AcDbSymbolTable
 70
     2
  0
STYLE
  5
55
330
3
100
AcDbSymbolTableRecord
100
AcDbTextStyleTableRecord
  2
Standard
 70
     0
 40
0.0
 41
1.0
 50
0.0
 71
     0
 42
0.2
  3
txt
  4

  0
STYLE
  5
5A
330
3
100
AcDbSymbolTableRecord
100
AcDbTextStyleTableRecord
  2
Annotative
 70
     0
 40
0.0
 41
1.0
 50
0.0
 71
     0
 42
0.2
  3
txt
  4

1001
AcadAnnotative
1000
AnnotativeData
1002
{
1070
     1
1070
     1
1002
}
  0
ENDTAB
  0
TABLE
  2
VIEW
  5
6
330
0
100
AcDbSymbolTable
 70
     0
  0
ENDTAB
  0
TABLE
  2
UCS
  5
7
330
0
100
AcDbSymbolTable
 70
     0
  0
ENDTAB
  0
TABLE
  2
APPID
  5
9
330
0
100
AcDbSymbolTable
 70
     3
  0
APPID
  5
56
330
9
100
AcDbSymbolTableRecord
100
AcDbRegAppTableRecord
  2
ACAD
 70
     0
  0
APPID
  5
5E
330
9
100
AcDbSymbolTableRecord
100
AcDbRegAppTableRecord
  2
AcadAnnotative
 70
     0
  0
APPID
  5
79
330
9
100
AcDbSymbolTableRecord
100
AcDbRegAppTableRecord
  2
REVIT
 70
     0
  0
ENDTAB
  0
TABLE
  2
DIMSTYLE
  5
A
330
0
100
AcDbSymbolTable
 70
     2
100
AcDbDimStyleTable
 71
     0
  0
DIMSTYLE
105
58
330
A
100
AcDbSymbolTableRecord
100
AcDbDimStyleTableRecord
  2
Standard
 70
     0
340
55
  0
DIMSTYLE
105
59
330
A
100
AcDbSymbolTableRecord
100
AcDbDimStyleTableRecord
  2
Annotative
 70
     0
340
55
1001
AcadAnnotative
1000
AnnotativeData
1002
{
1070
     1
1070
     1
1002
}
  0
ENDTAB
  0
TABLE
  2
BLOCK_RECORD
  5
1
330
0
100
AcDbSymbolTable
 70
     4
  0
BLOCK_RECORD
  5
71
102
{ACAD_XDICTIONARY
360
1DF
102
}
330
1
100
AcDbSymbolTableRecord
100
AcDbBlockTableRecord
  2
*Model_Space
340
74
 70
     0
280
     1
281
     0
  0
BLOCK_RECORD
  5
6D
330
1
100
AcDbSymbolTableRecord
100
AcDbBlockTableRecord
  2
*Paper_Space
340
70
 70
     0
280
     1
281
     0
  0
BLOCK_RECORD
  5
75
330
1
100
AcDbSymbolTableRecord
100
AcDbBlockTableRecord
  2
*Paper_Space0
340
78
 70
     0
280
     1
281
     0
  0
BLOCK_RECORD
  5
87
330
1
100
AcDbSymbolTableRecord
100
AcDbBlockTableRecord
  2
Automatic flow rate regulator valve_Caleffi_121 DN15 - 1_2__-859151-Est - Idraulica
340
0
102
{BLKREFS
331
FE
102
}
 70
     0
280
     1
281
     0
  0
BLOCK_RECORD
  5
FF
330
1
100
AcDbSymbolTableRecord
100
AcDbBlockTableRecord
  2
Automatic flow rate regulator valve_Caleffi_121 DN15 - 1_2__-V1-Est - Idraulica
340
0
102
{BLKREFS
331
181
102
}
 70
     0
280
     1
281
     0
  0
BLOCK_RECORD
  5
182
330
1
100
AcDbSymbolTableRecord
100
AcDbBlockTableRecord
  2
Automatic flow rate regulator valve_Caleffi_121 DN15 - 1_2__-V2-Est - Idraulica
340
0
102
{BLKREFS
331
1D9
102
}
 70
     0
280
     1
281
     0
  0
ENDTAB
  0
ENDSEC
  0
SECTION
  2
BLOCKS
  0
BLOCK
  5
72
330
71
100
AcDbEntity
  8
0
100
AcDbBlockBegin
  2
*Model_Space
 70
     0
 10
0.0
 20
0.0
 30
0.0
  3
*Model_Space
  1

  0
ENDBLK
  5
73
330
71
100
AcDbEntity
  8
0
100
AcDbBlockEnd
  0
BLOCK
  5
6E
330
6D
100
AcDbEntity
 67
     1
  8
0
100
AcDbBlockBegin
  2
*Paper_Space
 70
     0
 10
0.0
 20
0.0
 30
0.0
  3
*Paper_Space
  1

  0
ENDBLK
  5
6F
330
6D
100
AcDbEntity
 67
     1
  8
0
100
AcDbBlockEnd
  0
BLOCK
  5
76
330
75
100
AcDbEntity
 67
     1
  8
0
100
AcDbBlockBegin
  2
*Paper_Space0
 70
     0
 10
0.0
 20
0.0
 30
0.0
  3
*Paper_Space0
  1

  0
ENDBLK
  5
77
330
75
100
AcDbEntity
 67
     1
  8
0
100
AcDbBlockEnd
  0
BLOCK
  5
FC
330
87
100
AcDbEntity
  8
0
100
AcDbBlockBegin
  2
Automatic flow rate regulator valve_Caleffi_121 DN15 - 1_2__-859151-Est - Idraulica
 70
     0
 10
0.0
 20
0.0
 30
0.0
  3
Automatic flow rate regulator valve_Caleffi_121 DN15 - 1_2__-859151-Est - Idraulica
  1

  0
LINE
  5
88
330
87
100
AcDbEntity
  8
P-SANR-FIXT
100
AcDbLine
 10
1095.435653845935
 20
2170.938263937644
 30
0.0
 11
1095.435653845935
 21
2175.938263937644
 31
0.0
  0
LINE
  5
89
330
87
100
AcDbEntity
  8
P-SANR-FIXT
100
AcDbLine
 10
1085.435653845935
 20
2175.938263937644
 30
0.0
 11
1085.435653845935
 21
2170.938263937644
 31
0.0
  0
LINE
  5
8A
330
87
100
AcDbEntity
  8
P-SANR-FIXT
100
AcDbLine
 10
1100.435653845935
 20
2153.438263937643
 30
0.0
 11
1100.435653845935
 21
2170.938263937644
 31
0.0
  0
LINE
  5
8B
330
87
100
AcDbEntity
  8
P-SANR-FIXT
100
AcDbLine
 10
1080.435653845935
 20
2170.938263937644
 30
0.0
 11
1080.435653845935
 21
2153.438263937643
 31
0.0
  0
LINE
  5
8C
330
87
100
AcDbEntity
  8
P-SANR-FIXT
100
AcDbLine
 10
1085.435653845933
 20
2175.938263937642
 30
0.0
 11
1095.435653845933
 21
2175.938263937642
 31
0.0
  0
LINE
  5
8D
330
87
100
AcDbEntity
  8
P-SANR-FIXT
100
AcDbLine
 10
1080.435653845933
 20
2170.938263937642
 30
0.0
 11
1100.435653845933
 21
2170.938263937642
 31
0.0
  0
LINE
  5
8E
330
87
100
AcDbEntity
  8
P-SANR-FIXT
100
AcDbLine
 10
501.1355449601741
 20
2175.938263937644
 30
0.0
 11
501.1355449601741
 21
2170.938263937644
 31
0.0
  0
LINE
  5
8F
330
87
100
AcDbEntity
  8
P-SANR-FIXT
100
AcDbLine
 10
511.135544960174
 20
2170.938263937644
 30
0.0
 11
511.135544960174
 21
2175.938263937644
 31
0.0
  0
LINE
  5
90
330
87
100
AcDbEntity
  8
P-SANR-FIXT
100
AcDbLine
 10
496.135544960174
 20
2170.938263937644
 30
0.0
 11
496.135544960174
 21
2153.438263937643
 31
0.0
  0
LINE
  5
91
330
87
100
AcDbEntity
  8
P-SANR-FIXT
100
AcDbLine
 10
516.1355449601741
 20
2153.438263937643
 30
0.0
 11
516.1355449601741
 21
2170.938263937644
 31
0.0
  0
LINE
  5
92
330
87
100
AcDbEntity
  8
P-SANR-FIXT
100
AcDbLine
 10
501.135544960173
 20
2175.938263937642
 30
0.0
 11
511.135544960173
 21
2175.938263937642
 31
0.0
  0
LINE
  5
93
330
87
100
AcDbEntity
  8
P-SANR-FIXT
100
AcDbLine
 10
496.135544960173
 20
2170.938263937642
 30
0.0
 11
516.1355449601731
 21
2170.938263937642
 31
0.0
  0
LINE
  5
94
330
87
100
AcDbEntity
  8
P-SANR-FIXT
100
AcDbLine
 10
924.2708616298612
 20
2468.831055049471
 30
0.0
 11
921.6212521153071
 21
2464.181479403632
 31
0.0
  0
LINE
  5
95
330
87
100
AcDbEntity
  8
P-SANR-FIXT
100
AcDbLine
 10
973.7510165910537
 20
2434.474785617497
 30
0.0
 11
976.400626105608
 21
2439.124361263336
 31
0.0
  0
LWPOLYLINE
  5
96
330
87
100
AcDbEntity
  8
P-SANR-FIXT
100
AcDbPolyline
 90
       41
 70
   128
 43
0.0
 10
1073.725844843719
 20
2377.511053173082
 10
1074.01394566214
 20
2377.339153675178
 10
1074.348954171648
 20
2377.120640594652
 10
1074.674956517481
 20
2376.88890553404
 10
1074.991431165426
 20
2376.644319220007
 10
1075.297871823559
 20
2376.38727293848
 10
1075.593788252197
 20
2376.118177908673
 10
1075.878707048181
 20
2375.837464625233
 10
1076.152172402215
 20
2375.54558216953
 10
1076.41374682807
 20
2375.242997491228
 10
1076.663011862463
 20
2374.930194661264
 10
1076.899568734514
 20
2374.60767409744
 10
1077.12303900369
 20
2374.275951763855
 10
1077.333065165231
 20
2373.93555834548
 10
1077.529311222082
 20
2373.587038399172
 10
1077.711463222416
 20
2373.230949482497
 10
1077.879229761889
 20
2372.867861261761
 10
1078.032342449826
 20
2372.498354600661
 10
1078.17055633859
 20
2372.123020631032
 10
1078.293650315441
 20
2371.742459807158
 10
1078.401427456275
 20
2371.357280945176
 10
1078.49371534066
 20
2370.968100249097
 10
1078.570366327666
 20
2370.575540325015
 10
1078.631257792065
 20
2370.180229185066
 10
1078.676292320505
 20
2369.782799242746
 10
1078.705397867346
 20
2369.383886301182
 10
1078.718527869922
 20
2368.984128535982
 10
1078.715661323031
 20
2368.584165474297
 10
1078.696802812535
 20
2368.184636971701
 10
1078.661982508029
 20
2367.786182188572
 10
1078.611256114571
 20
2367.389438567563
 10
1078.544704783571
 20
2366.995040813834
 10
1078.462434982961
 20
2366.603619879657
 10
1078.364578326873
 20
2366.215801955028
 10
1078.251291365079
 20
2365.832207465897
 10
1078.122755332554
 20
2365.453450081616
 10
1077.97917585953
 20
2365.080135733204
 10
1077.820782642534
 20
2364.712861643981
 10
1077.647829076926
 20
2364.352215374144
 10
1077.460591851515
 20
2363.998773880789
 10
1077.407645379374
 20
2363.904685490992
  0
LWPOLYLINE
  5
97
330
87
100
AcDbEntity
  8
P-SANR-FIXT
100
AcDbPolyline
 90
       41
 70
   128
 43
0.0
 10
808.0705289213492
 20
2517.389270052688
 10
808.2754704474762
 20
2517.732748783723
 10
808.4939835280032
 20
2518.067757293231
 10
808.7257185886143
 20
2518.393759639063
 10
808.9703049026473
 20
2518.710234287008
 10
809.2273511841753
 20
2519.016674945142
 10
809.4964462139811
 20
2519.31259137378
 10
809.7771594974213
 20
2519.597510169764
 10
810.0690419531245
 20
2519.870975523798
 10
810.3716266314267
 20
2520.132549949653
 10
810.6844294613901
 20
2520.381814984046
 10
811.0069500252151
 20
2520.618371856097
 10
811.3386723587998
 20
2520.841842125273
 10
811.6790657771742
 20
2521.051868286814
 10
812.0275857234826
 20
2521.248114343665
 10
812.3836746401577
 20
2521.430266343999
 10
812.7467628608942
 20
2521.598032883472
 10
813.116269521994
 20
2521.751145571409
 10
813.4916034916228
 20
2521.889359460173
 10
813.8721643154964
 20
2522.012453437024
 10
814.2573431774788
 20
2522.120230577859
 10
814.6465238735574
 20
2522.212518462243
 10
815.0390837976397
 20
2522.289169449249
 10
815.4343949375885
 20
2522.350060913649
 10
815.8318248799087
 20
2522.395095442087
 10
816.230737821473
 20
2522.424200988929
 10
816.6304955866719
 20
2522.437330991505
 10
817.0304586483579
 20
2522.434464444614
 10
817.4299871509537
 20
2522.415605934118
 10
817.8284419340828
 20
2522.380785629612
 10
818.2251855550914
 20
2522.330059236154
 10
818.6195833088207
 20
2522.263507905154
 10
819.0110042429978
 20
2522.181238104544
 10
819.3988221676267
 20
2522.083381448455
 10
819.7824166567583
 20
2521.970094486662
 10
820.161174041039
 20
2521.841558454137
 10
820.5344883894511
 20
2521.697978981113
 10
820.9017624786735
 20
2521.539585764117
 10
821.262408748511
 20
2521.366632198509
 10
821.6158502418659
 20
2521.179394973098
 10
821.7099386316627
 20
2521.126448500957
  0
LWPOLYLINE
  5
98
330
87
100
AcDbEntity
  8
P-SANR-FIXT
100
AcDbPolyline
 90
        4
 70
   128
 43
0.0
 10
821.7099386316627
 20
2521.126448500957
 10
821.8107094058042
 20
2521.069023216954
 10
822.1128605164869
 20
2520.89683923315
 10
822.3317102529669
 20
2520.77212541232
  0
LWPOLYLINE
  5
99
330
87
100
AcDbEntity
  8
P-SANR-FIXT
100
AcDbPolyline
 90
        4
 70
   128
 43
0.0
 10
1073.201688211728
 20
2377.811233677952
 10
1073.431579638764
 20
2377.680227633792
 10
1073.641099383603
 20
2377.560830606686
 10
1073.670466931105
 20
2377.544095201306
  0
LWPOLYLINE
  5
9A
330
87
100
AcDbEntity
  8
P-SANR-FIXT
100
AcDbPolyline
 90
       80
 70
   128
 43
0.0
 10
1073.670466931105
 20
2377.544095201306
 10
1073.569696156964
 20
2377.601520485308
 10
1073.267545046281
 20
2377.773704469112
 10
1072.764496976379
 20
2378.060371695074
 10
1072.061356716857
 20
2378.461063556784
 10
1071.159249142138
 20
2378.97513903274
 10
1070.059617431899
 20
2379.601775711845
 10
1068.764220762301
 20
2380.339971109087
 10
1067.275131491681
 20
2381.188544269304
 10
1065.594731845216
 20
2382.146137656458
 10
1063.725710103873
 20
2383.211219325406
 10
1061.671056303735
 20
2384.382085372684
 10
1059.43405745258
 20
2385.656862662385
 10
1057.01829227137
 20
2387.033511822787
 10
1054.427625469056
 20
2388.509830508899
 10
1051.666201559878
 20
2390.083456925758
 10
1048.738438233019
 20
2391.751873606784
 10
1045.649019285244
 20
2393.512411441198
 10
1042.402887127829
 20
2395.362253944026
 10
1039.005234879754
 20
2397.298441761876
 10
1035.461498059824
 20
2399.31787740727
 10
1031.777345890992
 20
2401.417330213966
 10
1027.958672230819
 20
2403.593441505333
 10
1024.011586142554
 20
2405.842729967516
 10
1019.942402121938
 20
2408.161597218798
 10
1015.757629995357
 20
2410.546333566244
 10
1011.463964505511
 20
2412.993123940412
 10
1007.068274601249
 20
2415.498053998661
 10
1002.577592448722
 20
2418.057116387251
 10
997.9991021814131
 20
2420.666217152267
 10
993.3401284070564
 20
2423.321182289062
 10
988.6081244898305
 20
2426.01776441978
 10
983.8106606265618
 20
2428.751649588252
 10
978.955411736028
 20
2431.518464161405
 10
974.0501451807219
 20
2434.313781826146
 10
969.1027083407311
 20
2437.133130670514
 10
964.1210160596031
 20
2439.972000337785
 10
959.1130379822834
 20
2442.825849242087
 10
954.0867858053836
 20
2445.69011183396
 10
949.0503004601773
 20
2448.560205904269
 10
944.0116392488231
 20
2451.431539914753
 10
938.978862954403
 20
2454.299520343517
 10
933.9600229453861
 20
2457.159559033675
 10
928.9631482951577
 20
2460.007080533433
 10
923.9962329372158
 20
2462.837529415831
 10
919.0672228765803
 20
2465.646377566454
 10
914.1840034778825
 20
2468.429131427448
 10
909.3543868504623
 20
2471.18133918626
 10
904.5860993506602
 20
2473.898597897582
 10
899.8867692212954
 20
2476.576560527126
 10
895.2639143881052
 20
2479.210942905953
 10
890.7249304326658
 20
2481.79753058423
 10
886.277078761041
 20
2484.332185573445
 10
881.9274749870809
 20
2486.810852966316
 10
877.6830775489584
 20
2489.229567423766
 10
873.5506765771505
 20
2491.584459518629
 10
869.5368830316805
 20
2493.871761925904
 10
865.6481181259913
 20
2496.087815449671
 10
861.8906030543728
 20
2498.229074877023
 10
858.2703490393788
 20
2500.292114649656
 10
854.7931477151545
 20
2502.273634344024
 10
851.4645618620539
 20
2504.170463951319
 10
848.2899165073828
 20
2505.979568948804
 10
845.2742904064866
 20
2507.698055154405
 10
842.4225079178272
 20
2509.323173356784
 10
839.7391312850395
 20
2510.85232371349
 10
837.2284533383115
 20
2512.283059910155
 10
834.8944906267764
 20
2513.61309307407
 10
832.7409769928868
 20
2514.840295435899
 10
830.7713575990648
 20
2515.962703733652
 10
828.9887834161781
 20
2516.978522353487
 10
827.3961061826568
 20
2517.886126202309
 10
825.9958738423215
 20
2518.684063307572
 10
824.7903264682161
 20
2519.371057140123
 10
823.78139267897
 20
2519.946008656384
 10
822.9706865534179
 20
2520.407998056576
 10
822.3595050484197
 20
2520.756286256212
 10
821.9488259240046
 20
2520.990316068472
 10
821.7393061791646
 20
2521.109713095576
 10
821.7099386316627
 20
2521.126448500957
  0
LINE
  5
9B
330
87
100
AcDbEntity
  8
P-SANR-FIXT
100
AcDbLine
 10
808.0705289213492
 20
2517.389270052688
 30
0.0
 11
793.3871652991211
 21
2491.622677080442
 31
0.0
  0
LINE
  5
9C
330
87
100
AcDbEntity
  8
P-SANR-FIXT
100
AcDbLine
 10
1062.724281757146
 20
2338.138092518745
 30
0.0
 11
1077.407645379374
 21
2363.904685490992
 31
0.0
  0
LINE
  5
9D
330
87
100
AcDbEntity
  8
P-SANR-FIXT
100
AcDbLine
 10
924.2708616298598
 20
2468.83105504947
 30
0.0
 11
976.4006261056064
 21
2439.124361263335
 31
0.0
  0
LINE
  5
9E
330
87
100
AcDbEntity
  8
P-SANR-FIXT
100
AcDbLine
 10
793.3871652991197
 20
2491.62267708044
 30
0.0
 11
1062.724281757144
 21
2338.138092518744
 31
0.0
  0
LINE
  5
9F
330
87
100
AcDbEntity
  8
P-SANR-FIXT
100
AcDbLine
 10
433.2855994030542
 20
1840.499999999996
 30
0.0
 11
438.2855994030542
 21
1831.839745962151
 31
0.0
  0
LINE
  5
A0
330
87
100
AcDbEntity
  8
P-SANR-FIXT
100
AcDbLine
 10
438.2855994030554
 20
2168.160254037839
 30
0.0
 11
433.2855994030551
 21
2159.499999999995
 31
0.0
  0
LINE
  5
A1
330
87
100
AcDbEntity
  8
P-SANR-FIXT
100
AcDbLine
 10
438.285599403054
 20
1797.499999999995
 30
0.0
 11
466.1355449601731
 21
1797.499999999995
 31
0.0
  0
LINE
  5
A2
330
87
100
AcDbEntity
  8
P-SANR-FIXT
100
AcDbLine
 10
466.1355449601744
 20
2202.499999999996
 30
0.0
 11
438.2855994030554
 21
2202.499999999996
 31
0.0
  0
LINE
  5
A3
330
87
100
AcDbEntity
  8
P-SANR-FIXT
100
AcDbLine
 10
466.1355449601741
 20
1847.895739192096
 30
0.0
 11
499.9429488802903
 21
1856.954405770684
 31
0.0
  0
LINE
  5
A4
330
87
100
AcDbEntity
  8
P-SANR-FIXT
100
AcDbLine
 10
499.9429488802899
 20
1856.954405770681
 30
0.0
 11
699.9429488802826
 21
1856.954405770681
 31
0.0
  0
LINE
  5
A5
330
87
100
AcDbEntity
  8
P-SANR-FIXT
100
AcDbLine
 10
567.4251866431322
 20
2143.045594229308
 30
0.0
 11
521.135544960174
 21
2143.045594229308
 31
0.0
  0
LWPOLYLINE
  5
A6
330
87
100
AcDbEntity
  8
P-SANR-FIXT
100
AcDbPolyline
 90
       15
 70
   128
 43
0.0
 10
727.9333299370569
 20
1864.454405770685
 10
725.9722272199109
 20
1863.373868507279
 10
723.9694832100381
 20
1862.372618750364
 10
721.9283018706249
 20
1861.452258285961
 10
719.8519486563857
 20
1860.614259494481
 10
717.7437452895315
 20
1859.859962995225
 10
715.6070644457233
 20
1859.190575501685
 10
713.4453243585099
 20
1858.607167891056
 10
711.2619833508846
 20
1858.11067349106
 10
709.0605343027051
 20
1857.701886586826
 10
706.8444990628306
 20
1857.381461150196
 10
704.6174228149165
 20
1857.149909793514
 10
702.3828684058748
 20
1857.007602949558
 10
700.1444106460804
 20
1856.95476827892
 10
699.9429488802826
 20
1856.954405770685
  0
LINE
  5
A7
330
87
100
AcDbEntity
  8
P-SANR-FIXT
100
AcDbLine
 10
727.9333299370573
 20
1864.454405770685
 30
0.0
 11
1008.637868869052
 21
1864.454405770684
 31
0.0
  0
LINE
  5
A8
330
87
100
AcDbEntity
  8
P-SANR-FIXT
100
AcDbLine
 10
1008.637868869053
 20
2135.545594229302
 30
0.0
 11
967.3424005393398
 21
2135.545594229302
 31
0.0
  0
LINE
  5
A9
330
87
100
AcDbEntity
  8
P-SANR-FIXT
100
AcDbLine
 10
1008.637868869051
 20
1864.454405770684
 30
0.0
 11
1021.628249925818
 21
1856.954405770684
 31
0.0
  0
LINE
  5
AA
330
87
100
AcDbEntity
  8
P-SANR-FIXT
100
AcDbLine
 10
1021.628249925819
 20
2143.045594229302
 30
0.0
 11
1008.637868869052
 21
2135.545594229302
 31
0.0
  0
LINE
  5
AB
330
87
100
AcDbEntity
  8
P-SANR-FIXT
100
AcDbLine
 10
1021.628249925818
 20
1856.954405770684
 30
0.0
 11
1096.628249925818
 21
1856.954405770684
 31
0.0
  0
LINE
  5
AC
330
87
100
AcDbEntity
  8
P-SANR-FIXT
100
AcDbLine
 10
1075.435653845935
 20
2143.045594229302
 30
0.0
 11
1021.628249925819
 21
2143.045594229302
 31
0.0
  0
LINE
  5
AD
330
87
100
AcDbEntity
  8
P-SANR-FIXT
100
AcDbLine
 10
1096.628249925818
 20
1856.954405770684
 30
0.0
 11
1126.729749071448
 21
1848.888733383646
 31
0.0
  0
LWPOLYLINE
  5
AE
330
87
100
AcDbEntity
  8
P-SANR-FIXT
100
AcDbPolyline
 90
       14
 70
   128
 43
0.0
 10
1129.795887405548
 20
2153.495582509859
 10
1129.860876478113
 20
2153.613363867084
 10
1129.950413222213
 20
2153.79218735102
 10
1130.032727314409
 20
2153.974448310024
 10
1130.107687069711
 20
2154.159855165442
 10
1130.175172568503
 20
2154.348111305858
 10
1130.235075848382
 20
2154.538915561603
 10
1130.287301076879
 20
2154.731962686574
 10
1130.33176470477
 20
2154.926943846551
 10
1130.368395599735
 20
2155.123547113271
 10
1130.397135160156
 20
2155.321457963449
 10
1130.417937408866
 20
2155.520359781942
 10
1130.430769066706
 20
2155.71993436827
 10
1130.435609605762
 20
2155.91986244567
  0
LWPOLYLINE
  5
AF
330
87
100
AcDbEntity
  8
P-SANR-FIXT
100
AcDbPolyline
 90
       34
 70
   128
 43
0.0
 10
1130.435653845936
 20
1844.059104252201
 10
1130.431654379241
 20
1844.259050923134
 10
1130.419662377449
 20
1844.458677722047
 10
1130.399697025205
 20
1844.657665288646
 10
1130.371790262814
 20
1844.855695285272
 10
1130.335986735143
 20
1845.052450906176
 10
1130.292343720196
 20
1845.247617384337
 10
1130.24093103749
 20
1845.440882495022
 10
1130.181830936348
 20
1845.631937055281
 10
1130.115137964326
 20
1845.820475418576
 10
1130.040958815951
 20
1846.006195963744
 10
1129.959412162036
 20
1846.188801577531
 10
1129.870628459832
 20
1846.368000129908
 10
1129.774749744324
 20
1846.54350494142
 10
1129.671929401003
 20
1846.715035241805
 10
1129.562331920484
 20
1846.882316619176
 10
1129.446132635358
 20
1847.045081459013
 10
1129.32351743969
 20
1847.203069372293
 10
1129.194682491641
 20
1847.356027612058
 10
1129.059833899641
 20
1847.503711477753
 10
1128.919187392672
 20
1847.645884706698
 10
1128.772967975143
 20
1847.782319852055
 10
1128.621409566929
 20
1847.912798646696
 10
1128.464754629153
 20
1848.037112352383
 10
1128.303253776298
 20
1848.155062093706
 10
1128.137165375276
 20
1848.26645917624
 10
1127.9667551321
 20
1848.371125388418
 10
1127.792295666804
 20
1848.468893286626
 10
1127.614066077319
 20
1848.559606463084
 10
1127.432351492967
 20
1848.64311979606
 10
1127.247442618319
 20
1848.719299682037
 10
1127.05963526813
 20
1848.788024249449
 10
1126.869229894096
 20
1848.849183553647
 10
1126.729749071449
 20
1848.888733383646
  0
LINE
  5
B0
330
87
100
AcDbEntity
  8
P-SANR-FIXT
100
AcDbLine
 10
1130.435653845936
 20
1797.499999999988
 30
0.0
 11
1158.285599403055
 21
1797.499999999988
 31
0.0
  0
LINE
  5
B1
330
87
100
AcDbEntity
  8
P-SANR-FIXT
100
AcDbLine
 10
1158.285599403056
 20
2202.499999999997
 30
0.0
 11
1130.435653845937
 21
2202.499999999997
 31
0.0
  0
LINE
  5
B2
330
87
100
AcDbEntity
  8
P-SANR-FIXT
100
AcDbLine
 10
1158.285599403056
 20
1831.839745962152
 30
0.0
 11
1163.285599403055
 21
1840.499999999996
 31
0.0
  0
LINE
  5
B3
330
87
100
AcDbEntity
  8
P-SANR-FIXT
100
AcDbLine
 10
1163.285599403056
 20
2159.49999999999
 30
0.0
 11
1158.285599403056
 21
2168.160254037834
 31
0.0
  0
LINE
  5
B4
330
87
100
AcDbEntity
  8
P-SANR-FIXT
100
AcDbLine
 10
521.135544960174
 20
2143.045594229308
 30
0.0
 11
521.135544960174
 21
2153.438263937643
 31
0.0
  0
LINE
  5
B5
330
87
100
AcDbEntity
  8
P-SANR-FIXT
100
AcDbLine
 10
1075.435653845935
 20
2153.438263937643
 30
0.0
 11
1075.435653845935
 21
2143.045594229302
 31
0.0
  0
LINE
  5
B6
330
87
100
AcDbEntity
  8
P-SANR-FIXT
100
AcDbLine
 10
945.854641655657
 20
2404.619296713897
 30
0.0
 11
947.2210576129937
 21
2403.912398682648
 31
0.0
  0
LINE
  5
B7
330
87
100
AcDbEntity
  8
P-SANR-FIXT
100
AcDbLine
 10
908.0066036562881
 20
2426.305586327054
 30
0.0
 11
895.7193229919532
 21
2417.701939781788
 31
0.0
  0
LINE
  5
B8
330
87
100
AcDbEntity
  8
P-SANR-FIXT
100
AcDbLine
 10
946.9660096571795
 20
2388.498477160618
 30
0.0
 11
948.1048433999793
 21
2403.455183272134
 31
0.0
  0
LINE
  5
B9
330
87
100
AcDbEntity
  8
P-SANR-FIXT
100
AcDbLine
 10
895.7193229919532
 20
2417.701939781788
 30
0.0
 11
890.4201303496211
 21
2409.221458820224
 31
0.0
  0
LINE
  5
BA
330
87
100
AcDbEntity
  8
P-SANR-FIXT
100
AcDbLine
 10
942.3711078938744
 20
2379.616648644733
 30
0.0
 11
946.9660096571795
 21
2388.498477160618
 31
0.0
  0
LINE
  5
BB
330
87
100
AcDbEntity
  8
P-SANR-FIXT
100
AcDbLine
 10
890.4201303496208
 20
2409.221458820224
 30
0.0
 11
880.7608720867303
 21
2406.633268369199
 31
0.0
  0
LINE
  5
BC
330
87
100
AcDbEntity
  8
P-SANR-FIXT
100
AcDbLine
 10
945.068001962894
 20
2369.987175015272
 30
0.0
 11
942.3711078938744
 21
2379.616648644733
 31
0.0
  0
LINE
  5
BD
330
87
100
AcDbEntity
  8
P-SANR-FIXT
100
AcDbLine
 10
880.7608720867303
 20
2406.633268369199
 30
0.0
 11
861.3912473194579
 21
2375.635389039564
 31
0.0
  0
LINE
  5
BE
330
87
100
AcDbEntity
  8
P-SANR-FIXT
100
AcDbLine
 10
928.2727033193388
 20
2337.522288906843
 30
0.0
 11
945.068001962894
 21
2369.987175015273
 31
0.0
  0
LWPOLYLINE
  5
BF
330
87
100
AcDbEntity
  8
P-SANR-FIXT
100
AcDbPolyline
 90
       40
 70
   128
 43
0.0
 10
1002.896365030125
 20
2295.016127090455
 10
1003.583322492194
 20
2294.606244038201
 10
1004.253339511211
 20
2294.169217877147
 10
1004.905344202875
 20
2293.705747755925
 10
1005.538293498766
 20
2293.216575127859
 10
1006.151174815032
 20
2292.702482564803
 10
1006.743007672309
 20
2292.164292505191
 10
1007.312845264276
 20
2291.60286593831
 10
1007.859775972345
 20
2291.019101026904
 10
1008.382924824054
 20
2290.4139316703
 10
1008.881454892841
 20
2289.788326010373
 10
1009.354568636943
 20
2289.143284882723
 10
1009.801509175294
 20
2288.479840215554
 10
1010.221561498376
 20
2287.799053378805
 10
1010.614053612079
 20
2287.102013486188
 10
1010.978357612747
 20
2286.389835652838
 10
1011.313890691693
 20
2285.663659211365
 10
1011.620116067567
 20
2284.924645889165
 10
1011.896543845094
 20
2284.173977949908
 10
1012.142731798796
 20
2283.41285630216
 10
1012.358286080466
 20
2282.642498578196
 10
1012.542861849234
 20
2281.864137186039
 10
1012.696163823246
 20
2281.079017337874
 10
1012.817946752045
 20
2280.288395057976
 10
1012.908015808924
 20
2279.493535173336
 10
1012.966226902606
 20
2278.695709290207
 10
1012.992486907759
 20
2277.89619375981
 10
1012.986753813976
 20
2277.096267636437
 10
1012.949036792985
 20
2276.297210631247
 10
1012.879396183972
 20
2275.500301064988
 10
1012.777943397057
 20
2274.70681382297
 10
1012.644840735057
 20
2273.918018315512
 10
1012.480301133837
 20
2273.135176447159
 10
1012.284587821659
 20
2272.3595405979
 10
1012.058013898073
 20
2271.592351619637
 10
1011.800941833023
 20
2270.834836851076
 10
1011.513782886974
 20
2270.088208154251
 10
1011.196996452983
 20
2269.353659975806
 10
1010.851089321766
 20
2268.632367436131
 10
1010.757790799849
 20
2268.449735405262
  0
LWPOLYLINE
  5
C0
330
87
100
AcDbEntity
  8
P-SANR-FIXT
100
AcDbPolyline
 90
       40
 70
   128
 43
0.0
 10
759.920666136313
 20
2411.3919053443
 10
760.358055467766
 20
2412.061685340977
 10
760.8218789905246
 20
2412.713438676951
 10
761.3113946858966
 20
2413.346122685918
 10
761.8258194331933
 20
2413.958725208428
 10
762.3643302625578
 20
2414.550266211128
 10
762.9260656715388
 20
2415.119799354601
 10
763.5101270033126
 20
2415.666413507313
 10
764.1155798843416
 20
2416.189234203223
 10
764.7414557191721
 20
2416.687425040747
 10
765.386753239982
 20
2417.160189020819
 10
766.0504401083938
 20
2417.606769821925
 10
766.731454566997
 20
2418.026453010045
 10
767.4287071379332
 20
2418.418567181607
 10
768.1410823658283
 20
2418.782485037585
 10
768.8674406022829
 20
2419.117624387038
 10
769.6066198290668
 20
2419.423449078502
 10
770.3574375171004
 20
2419.699469857708
 10
771.1186925182486
 20
2419.945245150292
 10
771.8891669869019
 20
2420.160381768214
 10
772.6676283282698
 20
2420.344535538779
 10
773.4528311702689
 20
2420.497411855238
 10
774.2435193558529
 20
2420.618766148097
 10
775.0384279525965
 20
2420.708404276375
 10
775.8362852763156
 20
2420.766182838188
 10
776.6358149254934
 20
2420.792009400163
 10
777.435737823248
 20
2420.78584264531
 10
778.2347742635844
 20
2420.747692439122
 10
779.0316459586498
 20
2420.677619813788
 10
779.8250780837227
 20
2420.575736870564
 10
780.6138013166592
 20
2420.442206600423
 10
781.3965538685386
 20
2420.277242623313
 10
782.1720835022564
 20
2420.081108846408
 10
782.9391495358358
 20
2419.854119041909
 10
783.6965248272555
 20
2419.596636345083
 10
784.4429977376136
 20
2419.309072673318
 10
785.1773740694928
 20
2418.991888067145
 10
785.8984789774208
 20
2418.645589954271
 10
786.6051588473725
 20
2418.270732337805
 10
786.7838593214863
 20
2418.170108218218
  0
LWPOLYLINE
  5
C1
330
87
100
AcDbEntity
  8
P-SANR-FIXT
100
AcDbPolyline
 90
        5
 70
   128
 43
0.0
 10
786.7838593214863
 20
2418.170108218218
 10
786.8702927983843
 20
2418.12085319363
 10
787.1294549539531
 20
2417.973166917394
 10
787.5609311840286
 20
2417.72728565605
 10
787.8109436159697
 20
2417.584813445921
  0
LWPOLYLINE
  5
C2
330
87
100
AcDbEntity
  8
P-SANR-FIXT
100
AcDbPolyline
 90
        5
 70
   128
 43
0.0
 10
1001.853007022827
 20
2295.610695608917
 10
1002.339216547794
 20
2295.333624004636
 10
1002.691465748169
 20
2295.132891098259
 10
1002.87117578989
 20
2295.030481443557
 10
1002.896365030125
 20
2295.016127090455
  0
LWPOLYLINE
  5
C3
330
87
100
AcDbEntity
  8
P-SANR-FIXT
100
AcDbPolyline
 90
       80
 70
   128
 43
0.0
 10
1002.896365030125
 20
2295.016127090455
 10
1002.809931553228
 20
2295.065382115044
 10
1002.550769397659
 20
2295.213068391279
 10
1002.119293167583
 20
2295.458949652623
 10
1001.516193132926
 20
2295.802632541509
 10
1000.742434125087
 20
2296.243567238631
 10
999.7992539934196
 20
2296.781048342533
 10
998.6881616249336
 20
2297.414215998108
 10
997.4109345303979
 20
2298.142057272173
 10
995.9696160007036
 20
2298.963407773954
 10
994.3665118380328
 20
2299.876953517861
 10
992.604186667069
 20
2300.881233025585
 10
990.6854598321423
 20
2301.974639664146
 10
988.6134008868827
 20
2303.155424216171
 10
986.3913246835865
 20
2304.421697678263
 10
984.0227860701618
 20
2305.771434283008
 10
981.5115742031288
 20
2307.202474739766
 10
978.8617064857774
 20
2308.712529689079
 10
976.0774221411811
 20
2310.299183365156
 10
973.1631754303421
 20
2311.959897460582
 10
970.1236285263249
 20
2313.692015187073
 10
966.9636440557738
 20
2315.492765525765
 10
963.6882773197477
 20
2317.359267660254
 10
960.3027682063162
 20
2319.288535585293
 10
956.8125328078579
 20
2321.277482883755
 10
953.2231547564665
 20
2323.32292766425
 10
949.5403762913307
 20
2325.421597651468
 10
945.7700890723772
 20
2327.570135421121
 10
941.9183247548717
 20
2329.765103771107
 10
937.9912453400562
 20
2332.002991220302
 10
933.9951333172619
 20
2334.280217626177
 10
929.936381613267
 20
2336.593139912267
 10
925.8214833649768
 20
2338.938057896308
 10
921.6570215317906
 20
2341.311220209751
 10
917.4496583642705
 20
2343.708830299142
 10
913.2061247459617
 20
2346.127052499799
 10
908.9332094254141
 20
2348.562018172062
 10
904.6377481556344
 20
2351.009831890286
 10
900.3266127583376
 20
2353.466577674696
 10
896.0067001305
 20
2355.928325256113
 10
891.6849212107935
 20
2358.391136363553
 10
887.3681899235597
 20
2360.851071024615
 10
883.0634121180043
 20
2363.304193868599
 10
878.7774745203128
 20
2365.746580422261
 10
874.5172337163568
 20
2368.174323388128
 10
870.2895051826196
 20
2370.583538895347
 10
866.1010523828883
 20
2372.970372713044
 10
861.958575948153
 20
2375.331006416275
 10
857.8687029570284
 20
2377.66166349469
 10
853.8379763338404
 20
2379.958615394145
 10
849.8728443813437
 20
2382.218187481589
 10
845.9796504648126
 20
2384.4367649237
 10
842.1646228640099
 20
2386.610798469841
 10
838.4338648092677
 20
2388.736810130107
 10
834.7933447176211
 20
2390.811398739367
 10
831.2488866446134
 20
2392.831245398403
 10
827.8061609670515
 20
2394.793118783436
 10
824.4706753116098
 20
2396.693880315561
 10
821.2477657438046
 20
2398.530489181802
 10
818.1425882314274
 20
2400.30000719976
 10
815.1601103960956
 20
2401.999603518085
 10
812.3051035661173
 20
2403.626559145229
 10
809.5821351433853
 20
2405.178271299253
 10
806.9955612965069
 20
2406.652257571725
 10
804.5495199918635
 20
2408.046159899043
 10
802.2479243737489
 20
2409.357748334833
 10
800.0944565041709
 20
2410.584924617388
 10
798.0925614723389
 20
2411.72572552644
 10
796.245441883256
 20
2412.778326023893
 10
794.5560527342329
 20
2413.741042173493
 10
793.0270966875249
 20
2414.612333834769
 10
791.6610197466464
 20
2415.390807126929
 10
790.4600073432889
 20
2416.075216658772
 10
789.4259808410952
 20
2416.664467521044
 10
788.5605944618885
 20
2417.157617038069
 10
787.8652326392694
 20
2417.553876275816
 10
787.3410078038182
 20
2417.852611304037
 10
786.988758603443
 20
2418.053344210414
 10
786.8090485617217
 20
2418.155753865117
 10
786.7838593214863
 20
2418.170108218219
  0
LINE
  5
C4
330
87
100
AcDbEntity
  8
P-SANR-FIXT
100
AcDbLine
 10
759.920666136313
 20
2411.3919053443
 30
0.0
 11
711.45983332566
 21
2333.838361291327
 31
0.0
  0
LINE
  5
C5
330
87
100
AcDbEntity
  8
P-SANR-FIXT
100
AcDbLine
 10
968.7376603456163
 20
2187.22588947017
 30
0.0
 11
1010.757790799849
 21
2268.449735405262
 31
0.0
  0
LWPOLYLINE
  5
C6
330
87
100
AcDbEntity
  8
P-SANR-FIXT
100
AcDbPolyline
 90
       26
 70
   128
 43
0.0
 10
968.7376603456163
 20
2187.22588947017
 10
968.6493390722667
 20
2187.046462550157
 10
968.5682636095817
 20
2186.863647243628
 10
968.4945636610066
 20
2186.677736016072
 10
968.428357130737
 20
2186.489026285796
 10
968.3697499350984
 20
2186.297819948113
 10
968.3188358331014
 20
2186.104422892372
 10
968.275696276448
 20
2185.90914451261
 10
968.2404002792267
 20
2185.712297212574
 10
968.2130043075032
 20
2185.514195905954
 10
968.1935521889879
 20
2185.315157512582
 10
968.1820750429217
 20
2185.115500451426
 10
968.1785912302892
 20
2184.915544131194
 10
968.1831063244477
 20
2184.715608439343
 10
968.1956131022095
 20
2184.51601323033
 10
968.2160915553987
 20
2184.317077813911
 10
968.2445089228583
 20
2184.119120444313
 10
968.2808197428624
 20
2183.922457811101
 10
968.3249659258452
 20
2183.727404532536
 10
968.3768768473308
 20
2183.534272652253
 10
968.4364694609188
 20
2183.343371140062
 10
968.50364843114
 20
2183.155005397659
 10
968.5783062859727
 20
2182.969476770049
 10
968.6603235887751
 20
2182.787082063458
 10
968.7495691293591
 20
2182.608113070511
 10
968.8209438324792
 20
2182.478259613089
  0
LWPOLYLINE
  5
C7
330
87
100
AcDbEntity
  8
P-SANR-FIXT
100
AcDbPolyline
 90
       27
 70
   128
 43
0.0
 10
707.3324385156253
 20
2331.490230684931
 10
707.4297147822751
 20
2331.492374686405
 10
707.6293167422254
 20
2331.504773256287
 10
707.8282632313431
 20
2331.525143858115
 10
708.0262359776851
 20
2331.553453903275
 10
708.2229182670893
 20
2331.58965810173
 10
708.4179954498495
 20
2331.633698534488
 10
708.6111554440869
 20
2331.68550474625
 10
708.8020892350167
 20
2331.74499385813
 10
708.9904913693036
 20
2331.81207070024
 10
709.1760604437228
 20
2331.886627963938
 10
709.3584995873414
 20
2331.968546373511
 10
709.5375169364479
 20
2332.057694876976
 10
709.7128261014719
 20
2332.153930855744
 10
709.8841466251467
 20
2332.257100352782
 10
710.0512044311811
 20
2332.3670383189
 10
710.213732262722
 20
2332.483568876805
 10
710.3714701099103
 20
2332.606505602463
 10
710.524165625839
 20
2332.735651823338
 10
710.6715745302564
 20
2332.870800933027
 10
710.8134610003604
 20
2333.011736721783
 10
710.9495980480665
 20
2333.158233722411
 10
711.0797678831398
 20
2333.31005757096
 10
711.2037622616116
 20
2333.466965381659
 10
711.3213828189278
 20
2333.628706135484
 10
711.4324413872874
 20
2333.79502108173
 10
711.4598333256597
 20
2333.838361291327
  0
LINE
  5
C8
330
87
100
AcDbEntity
  8
P-SANR-FIXT
100
AcDbLine
 10
689.7229283534517
 20
2341.525194997015
 30
0.0
 11
655.278176178293
 21
2286.402068746848
 31
0.0
  0
LINE
  5
C9
330
87
100
AcDbEntity
  8
P-SANR-FIXT
100
AcDbLine
 10
967.3424005393595
 20
2135.545594229292
 30
0.0
 11
986.4308447872037
 21
2172.443072603764
 31
0.0
  0
LINE
  5
CA
330
87
100
AcDbEntity
  8
P-SANR-FIXT
100
AcDbLine
 10
655.278176178293
 20
2286.402068746848
 30
0.0
 11
663.395080051856
 21
2281.330064283864
 31
0.0
  0
LINE
  5
CB
330
87
100
AcDbEntity
  8
P-SANR-FIXT
100
AcDbLine
 10
663.395080051856
 20
2281.330064283864
 30
0.0
 11
664.8039047519014
 21
2273.340222375468
 31
0.0
  0
LINE
  5
CC
330
87
100
AcDbEntity
  8
P-SANR-FIXT
100
AcDbLine
 10
664.8039047519012
 20
2273.340222375468
 30
0.0
 11
632.5298290507675
 21
2221.69090463806
 31
0.0
  0
LWPOLYLINE
  5
CD
330
87
100
AcDbEntity
  8
P-SANR-FIXT
100
AcDbPolyline
 90
       40
 70
   128
 43
0.0
 10
625.8527870093494
 20
2219.975283663321
 10
625.9897304844056
 20
2219.900832865078
 10
626.1691094966636
 20
2219.812414332448
 10
626.3518808230941
 20
2219.73123977248
 10
626.5377520685639
 20
2219.657439047155
 10
626.7264258787312
 20
2219.591130221889
 10
626.9176004157472
 20
2219.532419376658
 10
627.110969841135
 20
2219.481400436289
 10
627.3062248050635
 20
2219.438155020204
 10
627.5030529412429
 20
2219.402752311844
 10
627.701139366643
 20
2219.37524894799
 10
627.9001671852393
 20
2219.355688928155
 10
628.099817994979
 20
2219.344103544202
 10
628.2997723971564
 20
2219.34051133027
 10
628.499710507383
 20
2219.344918033138
 10
628.6993124673332
 20
2219.357316603019
 10
628.8982589564508
 20
2219.377687204848
 10
629.096231702793
 20
2219.405997250007
 10
629.2929139921972
 20
2219.442201448462
 10
629.4879911749571
 20
2219.48624188122
 10
629.6811511691949
 20
2219.538048092983
 10
629.8720849601247
 20
2219.597537204863
 10
630.0604870944115
 20
2219.664614046972
 10
630.2460561688307
 20
2219.739171310671
 10
630.4284953124493
 20
2219.821089720243
 10
630.6075126615557
 20
2219.910238223708
 10
630.7828218265798
 20
2220.006474202477
 10
630.9541423502546
 20
2220.109643699514
 10
631.1212001562891
 20
2220.219581665632
 10
631.2837279878301
 20
2220.336112223537
 10
631.4414658350182
 20
2220.459048949195
 10
631.5941613509472
 20
2220.58819517007
 10
631.741570255364
 20
2220.723344279759
 10
631.8834567254681
 20
2220.864280068516
 10
632.0195937731743
 20
2221.010777069143
 10
632.1497636082476
 20
2221.162600917692
 10
632.2737579867196
 20
2221.319508728392
 10
632.3913785440358
 20
2221.481249482216
 10
632.5024371123951
 20
2221.647564428463
 10
632.5298290507675
 20
2221.69090463806
  0
LWPOLYLINE
  5
CE
330
87
100
AcDbEntity
  8
P-SANR-FIXT
100
AcDbPolyline
 90
       40
 70
   128
 43
0.0
 10
611.8603186449231
 20
2216.918972159211
 10
612.0790133106496
 20
2217.25386215755
 10
612.3109250720289
 20
2217.579738825537
 10
612.5556829197148
 20
2217.89608083002
 10
612.8128952933633
 20
2218.202382091275
 10
613.0821507080455
 20
2218.498152592625
 10
613.363018412536
 20
2218.782919164362
 10
613.655049078423
 20
2219.056226240718
 10
613.9577755189375
 20
2219.317636588673
 10
614.2707134363527
 20
2219.566732007435
 10
614.5933621967576
 20
2219.803113997471
 10
614.9252056309635
 20
2220.026404398023
 10
615.2657128602651
 20
2220.236245992083
 10
615.6143391457333
 20
2220.432303077865
 10
615.9705267596807
 20
2220.614262005854
 10
616.3337058779083
 20
2220.78183168058
 10
616.7032954913
 20
2220.934744026312
 10
617.0787043353167
 20
2221.072754415915
 10
617.4593318358908
 20
2221.195642062207
 10
617.8445690702176
 20
2221.303210371169
 10
618.2337997409015
 20
2221.395287256451
 10
618.6264011619011
 20
2221.47172541468
 10
619.0217452546932
 20
2221.53240256111
 10
619.4191995530648
 20
2221.577221625249
 10
619.8181282149245
 20
2221.606110906155
 10
620.2178930395132
 20
2221.619024187143
 10
620.6178544883906
 20
2221.615940809717
 10
621.0173727085587
 20
2221.596865706622
 10
621.4158085560916
 20
2221.561829393956
 10
621.8125246186281
 20
2221.510887922343
 10
622.2068862350965
 20
2221.444122787273
 10
622.598262511036
 20
2221.361640798718
 10
622.986027327895
 20
2221.263573910265
 10
623.3695603446846
 20
2221.150079008016
 10
623.7482479903942
 20
2221.021337659603
 10
624.1214844455734
 20
2220.877555823721
 10
624.488672611513
 20
2220.718963520634
 10
624.849225065477
 20
2220.545814464197
 10
625.2025650004529
 20
2220.358385655964
 10
625.2919152375097
 20
2220.30807359617
  0
LWPOLYLINE
  5
CF
330
87
100
AcDbEntity
  8
P-SANR-FIXT
100
AcDbPolyline
 90
        4
 70
   128
 43
0.0
 10
625.2919152375097
 20
2220.30807359617
 10
625.4077773727084
 20
2220.242048341571
 10
625.7551784236027
 20
2220.044078204094
 10
625.7994399661058
 20
2220.018855299235
  0
LWPOLYLINE
  5
D0
330
87
100
AcDbEntity
  8
P-SANR-FIXT
100
AcDbPolyline
 90
       62
 70
   128
 43
0.0
 10
877.5470180738558
 20
2076.557853902857
 10
873.5749002760677
 20
2078.821406947611
 10
869.4373069368262
 20
2081.17925796759
 10
865.1408573228351
 20
2083.627634904143
 10
860.6924248369502
 20
2086.162620876466
 10
856.0991260221998
 20
2088.780160447769
 10
851.3683091768363
 20
2091.476066113119
 10
846.5075425986251
 20
2094.246024998545
 10
841.5246024771832
 20
2097.085605760726
 10
836.4274604537342
 20
2099.990265676185
 10
831.2242708681839
 20
2102.955357908687
 10
825.9233577139138
 20
2105.976138943177
 10
820.5332013211702
 20
2109.0477761744
 10
815.0624247903424
 20
2112.165355638035
 10
809.5197801968431
 20
2115.323889871985
 10
803.9141345896542
 20
2118.518325895264
 10
798.2544558059396
 20
2121.743553291677
 10
792.5497981244199
 20
2124.994412385399
 10
786.8092877804565
 20
2128.265702495363
 10
781.0421083660231
 20
2131.55219025523
 10
775.2574861379168
 20
2134.848617985664
 10
769.4646752577154
 20
2138.149712105496
 10
763.6729429870937
 20
2141.450191568331
 10
757.8915548621806
 20
2144.744776311094
 10
752.1297598706794
 20
2148.028195701002
 10
746.3967756554592
 20
2151.295196967458
 10
740.7017737682926
 20
2154.540553605357
 10
735.0538649973302
 20
2157.759073736386
 10
729.4620847917829
 20
2160.945608414917
 10
723.9353788071294
 20
2164.095059865219
 10
718.4825885939781
 20
2167.202389636821
 10
713.1124374534703
 20
2170.262626664951
 10
707.8335164818589
 20
2173.270875223177
 10
702.654270826589
 20
2176.222322755534
 10
697.5829861758626
 20
2179.112247575577
 10
692.6277755033045
 20
2181.936026420079
 10
687.7965660889349
 20
2184.689141845263
 10
683.0970868372141
 20
2187.367189453747
 10
678.536855912443
 20
2189.965884940646
 10
674.1231687113037
 20
2192.48107094754
 10
669.8630861917815
 20
2194.90872371336
 10
665.7634235771387
 20
2197.244959511554
 10
661.8307394530103
 20
2199.486040863215
 10
658.0713252750675
 20
2201.628382516252
 10
654.4911953040294
 20
2203.668557181028
 10
651.096076984129
 20
2205.603301013296
 10
647.8914017804251
 20
2207.429518835644
 10
644.8822964896158
 20
2209.144289089132
 10
642.0735750382583
 20
2210.74486850715
 10
639.4697307815134
 20
2212.228696504069
 10
637.0749293147335
 20
2213.593399271627
 10
634.893001809403
 20
2214.836793576517
 10
632.9274388840764
 20
2215.956890253095
 10
631.1813850201373
 20
2216.951897385618
 10
629.6576335312956
 20
2217.820223174933
 10
628.3586220948843
 20
2218.560478485008
 10
627.2864288520939
 20
2219.171479065261
 10
626.4427690833907
 20
2219.652247445103
 10
625.828992464433
 20
2220.002014497685
 10
625.4460809068793
 20
2220.220220670335
 10
625.2946469875383
 20
2220.306516879726
 10
625.2919152375097
 20
2220.30807359617
  0
LINE
  5
D1
330
87
100
AcDbEntity
  8
P-SANR-FIXT
100
AcDbLine
 10
611.8603186449231
 20
2216.918972159211
 30
0.0
 11
571.0890806217403
 21
2151.671352158961
 31
0.0
  0
LWPOLYLINE
  5
D2
330
87
100
AcDbEntity
  8
P-SANR-FIXT
100
AcDbPolyline
 90
        9
 70
   128
 43
0.0
 10
567.4251866431322
 20
2143.045594229308
 10
567.7392630482378
 20
2144.203680591371
 10
568.0993993282686
 20
2145.348280901543
 10
568.5050193420015
 20
2146.477564043496
 10
568.9554741839424
 20
2147.589723405104
 10
569.4500432224355
 20
2148.682979768635
 10
569.9879352525219
 20
2149.755584157126
 10
570.5682897616979
 20
2150.805820632363
 10
571.0890806217407
 20
2151.671352158962
  0
LINE
  5
D3
330
87
100
AcDbEntity
  8
P-SANR-FIXT
100
AcDbLine
 10
433.2855994030532
 20
1840.499999999995
 30
0.0
 11
433.2855994030542
 21
2159.499999999994
 31
0.0
  0
LINE
  5
D4
330
87
100
AcDbEntity
  8
P-SANR-FIXT
100
AcDbLine
 10
438.2855994030531
 20
1797.499999999994
 30
0.0
 11
438.2855994030545
 21
2202.499999999995
 31
0.0
  0
LINE
  5
D5
330
87
100
AcDbEntity
  8
P-SANR-FIXT
100
AcDbLine
 10
466.135544960172
 20
1797.499999999994
 30
0.0
 11
466.1355449601733
 21
2202.499999999995
 31
0.0
  0
SPLINE
  5
D6
330
87
100
AcDbEntity
  8
P-SANR-FIXT
100
AcDbSpline
210
0.0
220
0.0
230
1.0
 70
     8
 71
     3
 72
     9
 73
     5
 74
     0
 42
0.000000001
 43
0.0000000001
 40
-1.0
 40
-1.0
 40
-1.0
 40
-1.0
 40
-0.5
 40
0.0
 40
0.0
 40
0.0
 40
0.0
 10
499.9429488802898
 20
2140.518950226036
 30
0.0
 10
498.904339506376
 20
2140.756677670661
 30
0.0
 10
496.8048543893754
 20
2141.257767211419
 30
0.0
 10
494.6898419173292
 20
2141.810126055194
 30
0.0
 10
493.6355449601729
 20
2142.099122802836
 30
0.0
  0
LWPOLYLINE
  5
D7
330
87
100
AcDbEntity
  8
P-SANR-FIXT
100
AcDbPolyline
 90
        3
 70
   128
 43
0.0
 10
493.6355449601729
 20
2142.099122802836
 10
479.8859651123849
 20
2145.849926020312
 10
466.1355449601734
 20
2149.597647561437
  0
SPLINE
  5
D8
330
87
100
AcDbEntity
  8
P-SANR-FIXT
100
AcDbSpline
210
0.0
220
0.0
230
1.0
 70
     8
 71
     3
 72
    10
 73
     6
 74
     0
 42
0.000000001
 43
0.0000000001
 40
0.0
 40
0.0
 40
0.0
 40
0.0
 40
0.3333333333333333
 40
0.6666666666666666
 40
1.0
 40
1.0
 40
1.0
 40
1.0
 10
699.9429488802827
 20
2041.70831777059
 30
0.0
 10
691.7453785179458
 20
2046.33452975459
 30
0.0
 10
675.4970659525603
 20
2055.653998334029
 30
0.0
 10
651.640901165117
 20
2069.438653994529
 30
0.0
 10
635.9293548483705
 20
2078.70404224509
 30
0.0
 10
628.1343591725127
 20
2083.263151921485
 30
0.0
  0
SPLINE
  5
D9
330
87
100
AcDbEntity
  8
P-SANR-FIXT
100
AcDbSpline
210
0.0
220
0.0
230
1.0
 70
     8
 71
     3
 72
    15
 73
    11
 74
     0
 42
0.000000001
 43
0.0000000001
 40
0.0
 40
0.0
 40
0.0
 40
0.0
 40
0.125
 40
0.25
 40
0.375
 40
0.5
 40
0.625
 40
0.75
 40
0.875
 40
1.0
 40
1.0
 40
1.0
 40
1.0
 10
628.1343591725127
 20
2083.263151921485
 30
0.0
 10
622.8527219737785
 20
2086.333540703366
 30
0.0
 10
612.9154553310408
 20
2092.823524166556
 30
0.0
 10
599.6723158342855
 20
2103.265764303881
 30
0.0
 10
588.7377251954035
 20
2113.803690788657
 30
0.0
 10
580.2439374180859
 20
2123.619949796979
 30
0.0
 10
574.1244627172736
 20
2131.967983092862
 30
0.0
 10
570.1153784132852
 20
2138.269221329757
 30
0.0
 10
567.9032814250603
 20
2142.167696147661
 30
0.0
 10
567.4090518461622
 20
2143.045594229308
 30
0.0
 10
567.425186643131
 20
2143.045594229308
 30
0.0
  0
SPLINE
  5
DA
330
87
100
AcDbEntity
  8
P-SANR-FIXT
100
AcDbSpline
210
0.0
220
0.0
230
1.0
 70
     8
 71
     3
 72
    12
 73
     8
 74
     0
 42
0.000000001
 43
0.0000000001
 40
0.0
 40
0.0
 40
0.0
 40
0.0
 40
0.1666666666666666
 40
0.3333333333333333
 40
0.6666666666666666
 40
0.8333333333333332
 40
1.0
 40
1.0
 40
1.0
 40
1.0
 10
521.135544960173
 20
2143.045594229308
 30
0.0
 10
521.1290252681589
 20
2143.045594229308
 30
0.0
 10
520.6761931690559
 20
2142.955574732507
 30
0.0
 10
517.9536428716816
 20
2142.452633817411
 30
0.0
 10
512.7654820004655
 20
2141.609081821089
 30
0.0
 10
505.7988959945547
 20
2140.866970142865
 30
0.0
 10
501.9666388446118
 20
2140.6112053915
 30
0.0
 10
499.9429488802899
 20
2140.518950226036
 30
0.0
  0
LINE
  5
DB
330
87
100
AcDbEntity
  8
P-SANR-FIXT
100
AcDbLine
 10
499.9429488802888
 20
1856.954405770681
 30
0.0
 11
499.9429488802899
 21
2140.518950226036
 31
0.0
  0
SPLINE
  5
DC
330
87
100
AcDbEntity
  8
P-SANR-FIXT
100
AcDbSpline
210
0.0
220
0.0
230
1.0
 70
     8
 71
     3
 72
    10
 73
     6
 74
     0
 42
0.000000001
 43
0.0000000001
 40
0.0
 40
0.0
 40
0.0
 40
0.0
 40
0.3333333333333333
 40
0.6666666666666666
 40
1.0
 40
1.0
 40
1.0
 40
1.0
 10
727.9333299370572
 20
2025.615070789113
 30
0.0
 10
725.0248682845465
 20
2027.317526016071
 30
0.0
 10
718.9646788040769
 20
2030.831965290098
 30
0.0
 10
709.4536142271786
 20
2036.29990985771
 30
0.0
 10
703.0877703604044
 20
2039.925199780329
 30
0.0
 10
699.9429488802828
 20
2041.708317770589
 30
0.0
  0
SPLINE
  5
DD
330
87
100
AcDbEntity
  8
P-SANR-FIXT
100
AcDbSpline
210
0.0
220
0.0
230
1.0
 70
     8
 71
     3
 72
    13
 73
     9
 74
     0
 42
0.000000001
 43
0.0000000001
 40
0.0
 40
0.0
 40
0.0
 40
0.0
 40
0.25
 40
0.375
 40
0.5
 40
0.625
 40
0.75
 40
1.0
 40
1.0
 40
1.0
 40
1.0
 10
967.3424005393382
 20
2135.545594229302
 30
0.0
 10
967.3071427581776
 20
2135.545594229302
 30
0.0
 10
966.5789964718664
 20
2134.992007140091
 30
0.0
 10
964.0962736590934
 20
2133.232218246848
 30
0.0
 10
961.6107899805582
 20
2131.436841975739
 30
0.0
 10
958.5424930851349
 20
2129.223342213587
 30
0.0
 10
953.7608431861714
 20
2125.759987140359
 30
0.0
 10
949.610415555519
 20
2122.662122503958
 30
0.0
 10
946.5339587789106
 20
2120.426902080152
 30
0.0
  0
SPLINE
  5
DE
330
87
100
AcDbEntity
  8
P-SANR-FIXT
100
AcDbSpline
210
0.0
220
0.0
230
1.0
 70
     8
 71
     3
 72
     9
 73
     5
 74
     0
 42
0.000000001
 43
0.0000000001
 40
0.0
 40
0.0
 40
0.0
 40
0.0
 40
0.5
 40
1.0
 40
1.0
 40
1.0
 40
1.0
 10
946.5339587789106
 20
2120.426902080152
 30
0.0
 10
945.3681065017752
 20
2121.014338098903
 30
0.0
 10
943.0745017045435
 20
2122.172026003981
 30
0.0
 10
940.8570964213897
 20
2123.289350783731
 30
0.0
 10
939.767443658332
 20
2123.836370246023
 30
0.0
  0
SPLINE
  5
DF
330
87
100
AcDbEntity
  8
P-SANR-FIXT
100
AcDbSpline
210
0.0
220
0.0
230
1.0
 70
     8
 71
     3
 72
     9
 73
     5
 74
     0
 42
0.000000001
 43
0.0000000001
 40
0.0
 40
0.0
 40
0.0
 40
0.0
 40
0.5
 40
1.0
 40
1.0
 40
1.0
 40
1.0
 10
939.767443658332
 20
2123.836370246023
 30
0.0
 10
938.2398986672528
 20
2123.516397188465
 30
0.0
 10
935.1691670991051
 20
2122.876941589484
 30
0.0
 10
932.0671523589789
 20
2122.241633960315
 30
0.0
 10
930.5083241959213
 20
2121.925768360074
 30
0.0
  0
SPLINE
  5
E0
330
87
100
AcDbEntity
  8
P-SANR-FIXT
100
AcDbSpline
210
0.0
220
0.0
230
1.0
 70
     8
 71
     3
 72
    11
 73
     7
 74
     0
 42
0.000000001
 43
0.0000000001
 40
0.0
 40
0.0
 40
0.0
 40
0.0
 40
0.25
 40
0.5
 40
0.75
 40
1.0
 40
1.0
 40
1.0
 40
1.0
 10
930.5083241959213
 20
2121.925768360074
 30
0.0
 10
926.7517884289684
 20
2119.384074412664
 30
0.0
 10
918.8280487213852
 20
2113.764500057383
 30
0.0
 10
905.484599463965
 20
2104.256513510936
 30
0.0
 10
891.3608160355389
 20
2093.862664873474
 30
0.0
 10
881.6763758372671
 20
2086.363213223808
 30
0.0
 10
876.7460397431884
 20
2082.521732062472
 30
0.0
  0
SPLINE
  5
E1
330
87
100
AcDbEntity
  8
P-SANR-FIXT
100
AcDbSpline
210
0.0
220
0.0
230
1.0
 70
     8
 71
     3
 72
    21
 73
    17
 74
     0
 42
0.000000001
 43
0.0000000001
 40
0.0
 40
0.0
 40
0.0
 40
0.0
 40
0.1428571428571428
 40
0.2142857142857143
 40
0.2857142857142857
 40
0.3214285714285714
 40
0.3571428571428571
 40
0.4285714285714286
 40
0.4642857142857144
 40
0.5
 40
0.5714285714285714
 40
0.6785714285714287
 40
0.7321428571428572
 40
0.7857142857142857
 40
0.8392857142857142
 40
0.8571428571428569
 40
0.8571428571428569
 40
0.8571428571428569
 40
0.8571428571428569
 10
876.7460397431884
 20
2082.521732062472
 30
0.0
 10
876.4584801590949
 20
2082.298506585269
 30
0.0
 10
876.0808559130239
 20
2081.93741199694
 30
0.0
 10
875.665124860996
 20
2081.394622926035
 30
0.0
 10
875.4541033440702
 20
2081.034997226241
 30
0.0
 10
875.3221495764016
 20
2080.736452187592
 30
0.0
 10
875.2090074984916
 20
2080.427863163702
 30
0.0
 10
875.1350215302371
 20
2080.113845551613
 30
0.0
 10
875.1062161733567
 20
2079.796520914522
 30
0.0
 10
875.1034136330273
 20
2079.471891170596
 30
0.0
 10
875.1624200441566
 20
2078.993332315125
 30
0.0
 10
875.3582096453977
 20
2078.48407119595
 30
0.0
 10
875.6198704990975
 20
2078.052915010704
 30
0.0
 10
875.8660665789125
 20
2077.745909475774
 30
0.0
 10
876.0869248915753
 20
2077.522897304626
 30
0.0
 10
876.2201810362157
 20
2077.403876385228
 30
0.0
 10
876.2539896084316
 20
2077.374618653748
 30
0.0
  0
SPLINE
  5
E2
330
87
100
AcDbEntity
  8
P-SANR-FIXT
100
AcDbSpline
210
0.0
220
0.0
230
1.0
 70
     8
 71
     3
 72
    17
 73
    13
 74
     0
 42
0.000000001
 43
0.0000000001
 40
0.0271315508011544
 40
0.0271315508011544
 40
0.0271315508011544
 40
0.0271315508011544
 40
0.1428571428571428
 40
0.2857142857142857
 40
0.3571428571428571
 40
0.4285714285714286
 40
0.5
 40
0.5714285714285714
 40
0.6785714285714287
 40
0.7321428571428572
 40
0.7857142857142857
 40
1.0
 40
1.0
 40
1.0
 40
1.0
 10
877.5512470838728
 20
2076.557390380966
 30
0.0
 10
878.0747948425782
 20
2076.260686995052
 30
0.0
 10
879.1424515138494
 20
2075.517186786127
 30
0.0
 10
880.2536397262342
 20
2074.318990639013
 30
0.0
 10
880.9290220123052
 20
2073.140144434781
 30
0.0
 10
881.2963976030589
 20
2072.204478661977
 30
0.0
 10
881.4966296574699
 20
2071.227961106003
 30
0.0
 10
881.5565000126698
 20
2070.067339504453
 30
0.0
 10
881.385101228137
 20
2068.982271057592
 30
0.0
 10
881.077813333448
 20
2068.019937842651
 30
0.0
 10
880.4407184020599
 20
2066.599769886822
 30
0.0
 10
879.64190661406
 20
2065.54102801449
 30
0.0
 10
878.8341246299916
 20
2064.781144891504
 30
0.0
  0
SPLINE
  5
E3
330
87
100
AcDbEntity
  8
P-SANR-FIXT
100
AcDbSpline
210
0.0
220
0.0
230
1.0
 70
     8
 71
     3
 72
    13
 73
     9
 74
     0
 42
0.000000001
 43
0.0000000001
 40
0.0
 40
0.0
 40
0.0
 40
0.0
 40
0.25
 40
0.375
 40
0.5
 40
0.625
 40
0.75
 40
1.0
 40
1.0
 40
1.0
 40
1.0
 10
878.8341246299916
 20
2064.781144891504
 30
0.0
 10
874.2543206836264
 20
2060.496163197802
 30
0.0
 10
867.5420694099196
 20
2053.762085789496
 30
0.0
 10
858.766805338112
 20
2044.308073717175
 30
0.0
 10
852.3907184003538
 20
2036.924355229171
 30
0.0
 10
846.2359097832674
 20
2029.229955801759
 30
0.0
 10
838.4381724283398
 20
2018.548858677814
 30
0.0
 10
833.2668528498793
 20
2009.983321297304
 30
0.0
 10
830.0591355411908
 20
2004.094546496434
 30
0.0
  0
SPLINE
  5
E4
330
87
100
AcDbEntity
  8
P-SANR-FIXT
100
AcDbSpline
210
0.0
220
0.0
230
1.0
 70
     8
 71
     3
 72
    31
 73
    27
 74
     0
 42
0.000000001
 43
0.0000000001
 40
0.0
 40
0.0
 40
0.0
 40
0.0
 40
0.0833333333333333
 40
0.125
 40
0.1458333333333333
 40
0.1666666666666666
 40
0.2083333333333333
 40
0.25
 40
0.2916666666666666
 40
0.3125
 40
0.3333333333333333
 40
0.3541666666666666
 40
0.375
 40
0.4166666666666666
 40
0.4583333333333333
 40
0.4791666666666666
 40
0.5
 40
0.5208333333333333
 40
0.5416666666666666
 40
0.5833333333333333
 40
0.625
 40
0.6666666666666666
 40
0.7083333333333333
 40
0.75
 40
0.8333333333333333
 40
1.0
 40
1.0
 40
1.0
 40
1.0
 10
830.0591355411908
 20
2004.094546496434
 30
0.0
 10
829.0704165208778
 20
2002.381669531582
 30
0.0
 10
827.4042549807898
 20
2000.070414251895
 30
0.0
 10
825.1421574950082
 20
1997.827997654806
 30
0.0
 10
823.7561435030505
 20
1996.676886615225
 30
0.0
 10
822.3168933291999
 20
1995.610929201504
 30
0.0
 10
820.3488120552298
 20
1994.451254725045
 30
0.0
 10
817.7592630497793
 20
1993.327992067761
 30
0.0
 10
815.5078224250996
 20
1992.596638832857
 30
0.0
 10
813.6949141118615
 20
1992.126829732012
 30
0.0
 10
812.3496635535069
 20
1991.825754327307
 30
0.0
 10
811.00027264848
 20
1991.589558257287
 30
0.0
 10
809.1624342018818
 20
1991.372819888622
 30
0.0
 10
806.8263505440524
 20
1991.258601029259
 30
0.0
 10
804.4738560615646
 20
1991.307390208268
 30
0.0
 10
802.605531108762
 20
1991.41730433065
 30
0.0
 10
801.2199261146173
 20
1991.523031748911
 30
0.0
 10
799.8437934025845
 20
1991.665678207646
 30
0.0
 10
798.0070081558136
 20
1991.926000957834
 30
0.0
 10
795.718276038624
 20
1992.356127367546
 30
0.0
 10
792.9901316879648
 20
1993.006647925878
 30
0.0
 10
790.2949728251809
 20
1993.732826665619
 30
0.0
 10
787.6286143000672
 20
1994.55177534406
 30
0.0
 10
784.1010517586803
 20
1995.812083460746
 30
0.0
 10
778.0452338941812
 20
1998.272636880947
 30
0.0
 10
773.0862876477488
 20
2000.69174295129
 30
0.0
 10
769.8708754547909
 20
2002.493109511835
 30
0.0
  0
SPLINE
  5
E5
330
87
100
AcDbEntity
  8
P-SANR-FIXT
100
AcDbSpline
210
0.0
220
0.0
230
1.0
 70
     8
 71
     3
 72
     9
 73
     5
 74
     0
 42
0.000000001
 43
0.0000000001
 40
0.0
 40
0.0
 40
0.0
 40
0.0
 40
0.5
 40
1.0
 40
1.0
 40
1.0
 40
1.0
 10
769.8708754547909
 20
2002.493109511835
 30
0.0
 10
762.719322239718
 20
2006.38652373382
 30
0.0
 10
748.578178105023
 20
2014.152511562328
 30
0.0
 10
734.760958561229
 20
2021.819853910775
 30
0.0
 10
727.9333299370572
 20
2025.615070789113
 30
0.0
  0
LINE
  5
E6
330
87
100
AcDbEntity
  8
P-SANR-FIXT
100
AcDbLine
 10
727.9333299370559
 20
1864.454405770684
 30
0.0
 11
727.9333299370573
 21
2025.615070789112
 31
0.0
  0
LINE
  5
E7
330
87
100
AcDbEntity
  8
P-SANR-FIXT
100
AcDbLine
 10
1008.63786886905
 20
1864.454405770684
 30
0.0
 11
1008.637868869051
 21
2135.545594229302
 31
0.0
  0
LINE
  5
E8
330
87
100
AcDbEntity
  8
P-SANR-FIXT
100
AcDbLine
 10
1021.628249925817
 20
1856.954405770683
 30
0.0
 11
1021.628249925818
 21
2143.045594229302
 31
0.0
  0
SPLINE
  5
E9
330
87
100
AcDbEntity
  8
P-SANR-FIXT
100
AcDbSpline
210
0.0
220
0.0
230
1.0
 70
     8
 71
     3
 72
    12
 73
     8
 74
     0
 42
0.000000001
 43
0.0000000001
 40
0.0
 40
0.0
 40
0.0
 40
0.0
 40
0.1666666666666666
 40
0.3333333333333333
 40
0.6666666666666666
 40
0.8333333333333332
 40
1.0
 40
1.0
 40
1.0
 40
1.0
 10
1096.628249925817
 20
2140.51895022603
 30
0.0
 10
1094.604559961495
 20
2140.611205391494
 30
0.0
 10
1090.772302811552
 20
2140.866970142859
 30
0.0
 10
1083.805716805642
 20
2141.609081821083
 30
0.0
 10
1078.617555934425
 20
2142.452633817404
 30
0.0
 10
1075.89500563705
 20
2142.955574732501
 30
0.0
 10
1075.442173537947
 20
2143.045594229302
 30
0.0
 10
1075.435653845933
 20
2143.045594229302
 30
0.0
  0
LWPOLYLINE
  5
EA
330
87
100
AcDbEntity
  8
P-SANR-FIXT
100
AcDbPolyline
 90
        3
 70
   128
 43
0.0
 10
1126.729749071448
 20
2148.587902934238
 10
1114.832383643753
 20
2145.344678267838
 10
1102.935653845933
 20
2142.099122802832
  0
SPLINE
  5
EB
330
87
100
AcDbEntity
  8
P-SANR-FIXT
100
AcDbSpline
210
0.0
220
0.0
230
1.0
 70
     8
 71
     3
 72
     9
 73
     5
 74
     0
 42
0.000000001
 43
0.0000000001
 40
-1.0
 40
-1.0
 40
-1.0
 40
-1.0
 40
-0.5
 40
0.0
 40
0.0
 40
0.0
 40
0.0
 10
1102.935653845933
 20
2142.099122802831
 30
0.0
 10
1101.881356888778
 20
2141.81012605519
 30
0.0
 10
1099.766344416732
 20
2141.257767211415
 30
0.0
 10
1097.666859299732
 20
2140.756677670656
 30
0.0
 10
1096.628249925817
 20
2140.51895022603
 30
0.0
  0
LINE
  5
EC
330
87
100
AcDbEntity
  8
P-SANR-FIXT
100
AcDbLine
 10
1096.628249925817
 20
1856.954405770683
 30
0.0
 11
1096.628249925818
 21
2140.51895022603
 31
0.0
  0
SPLINE
  5
ED
330
87
100
AcDbEntity
  8
P-SANR-FIXT
100
AcDbSpline
210
0.0
220
0.0
230
1.0
 70
     8
 71
     3
 72
    11
 73
     7
 74
     0
 42
0.000000001
 43
0.0000000001
 40
-1.0
 40
-1.0
 40
-1.0
 40
-1.0
 40
-0.6666666666666666
 40
-0.5
 40
-0.3333333333333333
 40
0.0
 40
0.0
 40
0.0
 40
0.0
 10
1130.435653845935
 20
2153.496947743665
 30
0.0
 10
1130.434043567927
 20
2152.752022046315
 30
0.0
 10
1130.197228575502
 20
2151.664609268039
 30
0.0
 10
1129.443851972684
 20
2150.391790216848
 30
0.0
 10
1128.432361417086
 20
2149.311626138343
 30
0.0
 10
1127.449555059665
 20
2148.786650581426
 30
0.0
 10
1126.729749071448
 20
2148.587902934238
 30
0.0
  0
LINE
  5
EE
330
87
100
AcDbEntity
  8
P-SANR-FIXT
100
AcDbLine
 10
1130.435653845934
 20
1797.499999999988
 30
0.0
 11
1130.435653845935
 21
2202.499999999996
 31
0.0
  0
LINE
  5
EF
330
87
100
AcDbEntity
  8
P-SANR-FIXT
100
AcDbLine
 10
1158.285599403053
 20
1797.499999999988
 30
0.0
 11
1158.285599403054
 21
2202.499999999996
 31
0.0
  0
LINE
  5
F0
330
87
100
AcDbEntity
  8
P-SANR-FIXT
100
AcDbLine
 10
1163.285599403053
 20
1840.499999999995
 30
0.0
 11
1163.285599403054
 21
2159.499999999989
 31
0.0
  0
LINE
  5
F1
330
87
100
AcDbEntity
  8
P-SANR-FIXT
100
AcDbLine
 10
493.6355449601729
 20
2153.438263937642
 30
0.0
 11
521.135544960173
 21
2153.438263937642
 31
0.0
  0
LINE
  5
F2
330
87
100
AcDbEntity
  8
P-SANR-FIXT
100
AcDbLine
 10
466.1355449601733
 20
2153.438263937642
 30
0.0
 11
493.635544960173
 21
2153.438263937642
 31
0.0
  0
LINE
  5
F3
330
87
100
AcDbEntity
  8
P-SANR-FIXT
100
AcDbLine
 10
1075.435653845933
 20
2153.438263937642
 30
0.0
 11
1102.935653845933
 21
2153.438263937642
 31
0.0
  0
LINE
  5
F4
330
87
100
AcDbEntity
  8
P-SANR-FIXT
100
AcDbLine
 10
1102.935653845934
 20
2153.438263937642
 30
0.0
 11
1130.435653845935
 21
2153.438263937642
 31
0.0
  0
LINE
  5
F5
330
87
100
AcDbEntity
  8
P-SANR-FIXT
100
AcDbLine
 10
895.7193229919516
 20
2417.701939781786
 30
0.0
 11
946.966009657178
 21
2388.498477160617
 31
0.0
  0
LINE
  5
F6
330
87
100
AcDbEntity
  8
P-SANR-FIXT
100
AcDbLine
 10
890.4201303496195
 20
2409.221458820223
 30
0.0
 11
942.371107893873
 21
2379.616648644732
 31
0.0
  0
LINE
  5
F7
330
87
100
AcDbEntity
  8
P-SANR-FIXT
100
AcDbLine
 10
880.7608720867289
 20
2406.633268369197
 30
0.0
 11
945.0680019628924
 21
2369.987175015271
 31
0.0
  0
LINE
  5
F8
330
87
100
AcDbEntity
  8
P-SANR-FIXT
100
AcDbLine
 10
689.7229283534506
 20
2341.525194997014
 30
0.0
 11
986.4308447872023
 21
2172.443072603763
 31
0.0
  0
LINE
  5
F9
330
87
100
AcDbEntity
  8
P-SANR-FIXT
100
AcDbLine
 10
655.2781761782918
 20
2286.402068746846
 30
0.0
 11
946.5339587789106
 21
2120.426902080151
 31
0.0
  0
LINE
  5
FA
330
87
100
AcDbEntity
  8
P-SANR-FIXT
100
AcDbLine
 10
663.3950800518546
 20
2281.330064283863
 30
0.0
 11
939.7674436583324
 21
2123.836370246023
 31
0.0
  0
LINE
  5
FB
330
87
100
AcDbEntity
  8
P-SANR-FIXT
100
AcDbLine
 10
664.8039047519
 20
2273.340222375467
 30
0.0
 11
930.5083241959215
 21
2121.925768360073
 31
0.0
  0
ENDBLK
  5
FD
330
87
100
AcDbEntity
  8
0
100
AcDbBlockEnd
  0
BLOCK
  5
17F
330
FF
100
AcDbEntity
  8
0
100
AcDbBlockBegin
  2
Automatic flow rate regulator valve_Caleffi_121 DN15 - 1_2__-V1-Est - Idraulica
 70
     0
 10
0.0
 20
0.0
 30
0.0
  3
Automatic flow rate regulator valve_Caleffi_121 DN15 - 1_2__-V1-Est - Idraulica
  1

  0
ARC
  5
100
330
FF
100
AcDbEntity
  8
P-SANR-FIXT
100
AcDbCircle
 10
1090.435653845937
 20
1244.30073786238
 30
0.0
 40
5.000000000000113
100
AcDbArc
 50
0.000000000001304
 51
179.9999999999987
  0
ARC
  5
101
330
FF
100
AcDbEntity
  8
P-SANR-FIXT
100
AcDbCircle
 10
1090.435653845937
 20
1244.30073786238
 30
0.0
 40
5.0
100
AcDbArc
 50
180.0
 51
0.0000000000025953
  0
ARC
  5
102
330
FF
100
AcDbEntity
  8
P-SANR-FIXT
100
AcDbCircle
 10
1090.435653845937
 20
1244.30073786238
 30
0.0
 40
10.00000000000005
100
AcDbArc
 50
0.0000000000006488
 51
179.9999999999993
  0
ARC
  5
103
330
FF
100
AcDbEntity
  8
P-SANR-FIXT
100
AcDbCircle
 10
1090.435653845937
 20
1244.30073786238
 30
0.0
 40
10.0
100
AcDbArc
 50
180.0
 51
0.0000000000013231
  0
ARC
  5
104
330
FF
100
AcDbEntity
  8
P-SANR-FIXT
100
AcDbCircle
 10
506.1355449601767
 20
1244.300737862378
 30
0.0
 40
5.0
100
AcDbArc
 50
0.0
 51
180.0000000000022
  0
ARC
  5
105
330
FF
100
AcDbEntity
  8
P-SANR-FIXT
100
AcDbCircle
 10
506.1355449601767
 20
1244.300737862378
 30
0.0
 40
5.000000000000145
100
AcDbArc
 50
180.0000000000013
 51
359.9999999999983
  0
ARC
  5
106
330
FF
100
AcDbEntity
  8
P-SANR-FIXT
100
AcDbCircle
 10
506.1355449601767
 20
1244.300737862378
 30
0.0
 40
10.0
100
AcDbArc
 50
0.0
 51
180.0000000000009
  0
ARC
  5
107
330
FF
100
AcDbEntity
  8
P-SANR-FIXT
100
AcDbCircle
 10
506.1355449601767
 20
1244.300737862378
 30
0.0
 40
10.00000000000008
100
AcDbArc
 50
180.0000000000008
 51
359.9999999999992
  0
LINE
  5
108
330
FF
100
AcDbEntity
  8
P-SANR-FIXT
100
AcDbLine
 10
950.335743867738
 20
1274.30073786238
 30
0.0
 11
945.3846282367155
 21
1274.30073786238
 31
0.0
  0
LINE
  5
109
330
FF
100
AcDbEntity
  8
P-SANR-FIXT
100
AcDbLine
 10
945.3846282367162
 20
1214.30073786238
 30
0.0
 11
950.3357438677387
 21
1214.30073786238
 31
0.0
  0
LWPOLYLINE
  5
10A
330
FF
100
AcDbEntity
  8
P-SANR-FIXT
100
AcDbPolyline
 90
       41
 70
   128
 43
0.0
 10
1078.719351300087
 20
1244.300737862381
 10
1078.612540638714
 20
1250.446698534303
 10
1078.292258230995
 20
1256.583234978112
 10
1077.758952665493
 20
1262.700934555913
 10
1077.013371124208
 20
1268.790407779042
 10
1076.056558695134
 20
1274.842299805684
 10
1074.889857431693
 20
1280.847301848918
 10
1073.514905180527
 20
1286.796162470103
 10
1071.933634204823
 20
1292.679698736704
 10
1070.148269635507
 20
1298.488807229003
 10
1068.161327787234
 20
1304.21447488674
 10
1065.975614379819
 20
1309.847789694539
 10
1063.594222708373
 20
1315.379951214145
 10
1061.020531806581
 20
1320.802280981896
 10
1058.258204646911
 20
1326.106232801505
 10
1055.311186418671
 20
1331.283402974863
 10
1052.183702919274
 20
1336.325540527086
 10
1048.880259085274
 20
1341.224557495819
 10
1045.405637677448
 20
1345.972539368521
 10
1041.764898117774
 20
1350.561755764178
 10
1037.963375455519
 20
1354.984671466801
 10
1034.006679414655
 20
1359.233957925969
 10
1029.900693445608
 20
1363.302505343316
 10
1025.651573671567
 20
1367.183435461784
 10
1021.265747584097
 20
1370.870115165222
 10
1016.749912306191
 20
1374.35617097817
 10
1012.111032205133
 20
1377.635504528141
 10
1007.356335605155
 20
1380.702308994967
 10
1002.493310323927
 20
1383.551086523318
 10
997.5296977406049
 20
1386.176666516553
 10
992.4734850998804
 20
1388.574224663907
 10
987.3328957692834
 20
1390.739302481925
 10
982.1163771981812
 20
1392.667827078646
 10
976.8325863779491
 20
1394.356130780489
 10
971.4903726733513
 20
1395.800970202461
 10
966.0987579834449
 20
1396.999544298087
 10
960.6669142924648
 20
1397.94951090169
 10
955.204138781565
 20
1398.649001276586
 10
949.7198267839186
 20
1399.096632211226
 10
944.2234429705818
 20
1399.291515261638
 10
942.7390871503643
 20
1399.300737862381
  0
LWPOLYLINE
  5
10B
330
FF
100
AcDbEntity
  8
P-SANR-FIXT
100
AcDbPolyline
 90
       41
 70
   128
 43
0.0
 10
942.7390871503673
 20
1089.30073786238
 10
948.2371013827791
 20
1089.427314785585
 10
953.725606393098
 20
1089.806793732403
 10
959.1951239135292
 20
1090.438420979221
 10
964.636236993873
 20
1091.320946073011
 10
970.0396192146543
 20
1092.452630244831
 10
975.3960622518119
 20
1093.831257772303
 10
980.6965013794513
 20
1095.454149909259
 10
985.9320385988359
 20
1097.318180937044
 10
991.0939631924168
 20
1099.419795855977
 10
996.173769613175
 20
1101.75502922726
 10
1001.163172724567
 20
1104.319524693089
 10
1006.054120498818
 20
1107.108554741949
 10
1010.838804356935
 20
1110.117040341862
 10
1015.509667390183
 20
1113.339570130996
 10
1020.059410739254
 20
1116.770418926929
 10
1024.480998424929
 20
1120.40356538775
 10
1028.767660924801
 20
1124.232708725973
 10
1032.912897777531
 20
1128.251284436654
 10
1036.910479472409
 20
1132.452479052205
 10
1040.754448851045
 20
1136.829243977071
 10
1044.439122212899
 20
1141.374308485681
 10
1047.959090279724
 20
1146.080191987349
 10
1051.309219138093
 20
1150.939215673224
 10
1054.484651245505
 20
1155.943513664256
 10
1057.480806555344
 20
1161.085043776882
 10
1060.293383789818
 20
1166.355598016282
 10
1062.918361868127
 20
1171.746812896831
 10
1065.352001479653
 20
1177.250179676999
 10
1067.590846778528
 20
1182.857054582499
 10
1069.631727166259
 20
1188.558669077572
 10
1071.471759122724
 20
1194.346140230732
 10
1073.108348042277
 20
1200.210481208351
 10
1074.539190030496
 20
1206.142611917534
 10
1075.762273617859
 20
1212.133369808998
 10
1076.775881348845
 20
1218.173520841165
 10
1077.578591208471
 20
1224.253770598475
 10
1078.169277852574
 20
1230.364775550041
 10
1078.547113613276
 20
1236.497154429069
 10
1078.711569256517
 20
1242.641499708962
 10
1078.719351300087
 20
1244.300737862381
  0
LINE
  5
10C
330
FF
100
AcDbEntity
  8
P-SANR-FIXT
100
AcDbLine
 10
942.7390871503643
 20
1399.300737862381
 30
0.0
 11
928.0557235281362
 21
1399.30073786238
 31
0.0
  0
LINE
  5
10D
330
FF
100
AcDbEntity
  8
P-SANR-FIXT
100
AcDbLine
 10
928.0557235281392
 20
1089.30073786238
 30
0.0
 11
942.7390871503673
 21
1089.30073786238
 31
0.0
  0
ELLIPSE
  5
10E
330
FF
100
AcDbEntity
  8
P-SANR-FIXT
100
AcDbEllipse
 10
950.3357438677367
 20
1244.30073786238
 30
0.0
 11
0.0
 21
30.0
 31
0.0
210
0.0
220
0.0
230
1.0
 40
0.8688294079291077
 41
4.712388980384692
 42
7.853981633974476
  0
ELLIPSE
  5
10F
330
FF
100
AcDbEntity
  8
P-SANR-FIXT
100
AcDbEllipse
 10
950.3357438677367
 20
1244.30073786238
 30
0.0
 11
0.0
 21
30.00000000000023
 31
0.0
210
0.0
220
0.0
230
1.0
 40
0.8688294079291088
 41
1.570796326794898
 42
4.712388980384693
  0
ELLIPSE
  5
110
330
FF
100
AcDbEntity
  8
P-SANR-FIXT
100
AcDbEllipse
 10
945.3846282367141
 20
1244.30073786238
 30
0.0
 11
0.0
 21
30.0
 31
0.0
210
0.0
220
0.0
230
1.0
 40
0.8688294079291114
 41
0.0000000000000016
 42
1.57079632679489
  0
ELLIPSE
  5
111
330
FF
100
AcDbEntity
  8
P-SANR-FIXT
100
AcDbEllipse
 10
945.3846282367141
 20
1244.30073786238
 30
0.0
 11
0.0
 21
30.00000000000023
 31
0.0
210
0.0
220
0.0
230
1.0
 40
0.8688294079291051
 41
1.570796326794898
 42
3.141592653589793
  0
ELLIPSE
  5
112
330
FF
100
AcDbEntity
  8
P-SANR-FIXT
100
AcDbEllipse
 10
928.0557235281358
 20
1244.30073786238
 30
0.0
 11
0.0
 21
154.9999999999998
 31
0.0
210
0.0
220
0.0
230
1.0
 40
0.8688294079291138
 41
0.0000000000000033
 42
1.570796326794893
  0
ELLIPSE
  5
113
330
FF
100
AcDbEntity
  8
P-SANR-FIXT
100
AcDbEllipse
 10
928.0557235281358
 20
1244.30073786238
 30
0.0
 11
0.0
 21
155.0
 31
0.0
210
0.0
220
0.0
230
1.0
 40
0.8688294079291123
 41
1.570796326794898
 42
3.141592653589791
  0
LINE
  5
114
330
FF
100
AcDbEntity
  8
P-SANR-FIXT
100
AcDbLine
 10
438.2855994030577
 20
1412.460991900222
 30
0.0
 11
433.2855994030578
 21
1403.800737862377
 31
0.0
  0
LINE
  5
115
330
FF
100
AcDbEntity
  8
P-SANR-FIXT
100
AcDbLine
 10
433.2855994030591
 20
1084.800737862378
 30
0.0
 11
438.2855994030591
 21
1076.140483824534
 31
0.0
  0
LINE
  5
116
330
FF
100
AcDbEntity
  8
P-SANR-FIXT
100
AcDbLine
 10
466.1355449601765
 20
1446.800737862379
 30
0.0
 11
438.2855994030576
 21
1446.800737862379
 31
0.0
  0
LINE
  5
117
330
FF
100
AcDbEntity
  8
P-SANR-FIXT
100
AcDbLine
 10
438.2855994030593
 20
1041.800737862377
 30
0.0
 11
466.1355449601783
 21
1041.800737862377
 31
0.0
  0
LINE
  5
118
330
FF
100
AcDbEntity
  8
P-SANR-FIXT
100
AcDbLine
 10
499.9429488802938
 20
1387.346332091689
 30
0.0
 11
466.1355449601772
 21
1396.404998670277
 31
0.0
  0
LINE
  5
119
330
FF
100
AcDbEntity
  8
P-SANR-FIXT
100
AcDbLine
 10
466.1355449601784
 20
1092.196477054478
 30
0.0
 11
499.9429488802952
 21
1101.255143633067
 31
0.0
  0
LINE
  5
11A
330
FF
100
AcDbEntity
  8
P-SANR-FIXT
100
AcDbLine
 10
629.649020196662
 20
1387.346332091692
 30
0.0
 11
499.9429488802938
 21
1387.346332091692
 31
0.0
  0
LINE
  5
11B
330
FF
100
AcDbEntity
  8
P-SANR-FIXT
100
AcDbLine
 10
499.9429488802946
 20
1101.255143633064
 30
0.0
 11
629.6043394722447
 21
1101.255143633064
 31
0.0
  0
LINE
  5
11C
330
FF
100
AcDbEntity
  8
P-SANR-FIXT
100
AcDbLine
 10
1021.628249925822
 20
1387.346332091689
 30
0.0
 11
1008.715842337639
 21
1379.891350094765
 31
0.0
  0
LINE
  5
11D
330
FF
100
AcDbEntity
  8
P-SANR-FIXT
100
AcDbLine
 10
1008.659193384597
 20
1108.742831918283
 30
0.0
 11
1021.628249925823
 21
1101.255143633071
 31
0.0
  0
LINE
  5
11E
330
FF
100
AcDbEntity
  8
P-SANR-FIXT
100
AcDbLine
 10
1096.628249925822
 20
1387.34633209169
 30
0.0
 11
1021.628249925822
 21
1387.346332091689
 31
0.0
  0
LINE
  5
11F
330
FF
100
AcDbEntity
  8
P-SANR-FIXT
100
AcDbLine
 10
1021.628249925823
 20
1101.255143633071
 30
0.0
 11
1096.628249925823
 21
1101.255143633071
 31
0.0
  0
LINE
  5
120
330
FF
100
AcDbEntity
  8
P-SANR-FIXT
100
AcDbLine
 10
1126.729749071452
 20
1395.412004478727
 30
0.0
 11
1096.628249925822
 21
1387.34633209169
 31
0.0
  0
LINE
  5
121
330
FF
100
AcDbEntity
  8
P-SANR-FIXT
100
AcDbLine
 10
1096.628249925823
 20
1101.255143633071
 30
0.0
 11
1126.729749071453
 21
1093.189471246033
 31
0.0
  0
LWPOLYLINE
  5
122
330
FF
100
AcDbEntity
  8
P-SANR-FIXT
100
AcDbPolyline
 90
       34
 70
   128
 43
0.0
 10
1126.729749071452
 20
1395.412004478727
 10
1126.921847586636
 20
1395.467617673342
 10
1127.111568508873
 20
1395.530868275053
 10
1127.298608325158
 20
1395.60165509639
 10
1127.482667811685
 20
1395.679864893541
 10
1127.663452512541
 20
1395.765372547512
 10
1127.840673210768
 20
1395.858041264299
 10
1128.014046391055
 20
1395.957722793723
 10
1128.183294693298
 20
1396.064257666601
 10
1128.348147356316
 20
1396.177475449863
 10
1128.508340651017
 20
1396.297195019207
 10
1128.663618302302
 20
1396.423224848861
 10
1128.813731899052
 20
1396.555363317983
 10
1128.958441291535
 20
1396.69339903321
 10
1129.097514975593
 20
1396.837111166844
 10
1129.230730463
 20
1396.986269810128
 10
1129.357874637392
 20
1397.140636341051
 10
1129.478744095213
 20
1397.299963806094
 10
1129.593145471116
 20
1397.463997315301
 10
1129.700895747302
 20
1397.632474450049
 10
1129.801822546316
 20
1397.805125682862
 10
1129.895764406809
 20
1397.981674808598
 10
1129.982571041845
 20
1398.161839386317
 10
1130.062103579324
 20
1398.34533119113
 10
1130.134234784153
 20
1398.53185667529
 10
1130.198849261791
 20
1398.721117437812
 10
1130.255843642858
 20
1398.912810701851
 10
1130.305126748503
 20
1399.106629799076
 10
1130.346619736268
 20
1399.302264660277
 10
1130.380256226227
 20
1399.499402311411
 10
1130.405982407168
 20
1399.697727374288
 10
1130.423757122692
 20
1399.896922571115
 10
1130.433551937045
 20
1400.096669232071
 10
1130.435653845939
 20
1400.241633610173
  0
LWPOLYLINE
  5
123
330
FF
100
AcDbEntity
  8
P-SANR-FIXT
100
AcDbPolyline
 90
       34
 70
   128
 43
0.0
 10
1130.435653845941
 20
1088.359842114588
 10
1130.431654379246
 20
1088.559788785521
 10
1130.419662377454
 20
1088.759415584434
 10
1130.39969702521
 20
1088.958403151033
 10
1130.371790262819
 20
1089.156433147659
 10
1130.335986735147
 20
1089.353188768564
 10
1130.292343720201
 20
1089.548355246724
 10
1130.240931037495
 20
1089.741620357409
 10
1130.181830936353
 20
1089.932674917669
 10
1130.115137964331
 20
1090.121213280964
 10
1130.040958815955
 20
1090.306933826131
 10
1129.959412162041
 20
1090.489539439919
 10
1129.870628459838
 20
1090.668737992296
 10
1129.774749744329
 20
1090.844242803807
 10
1129.671929401008
 20
1091.015773104193
 10
1129.562331920489
 20
1091.183054481563
 10
1129.446132635362
 20
1091.3458193214
 10
1129.323517439696
 20
1091.503807234681
 10
1129.194682491646
 20
1091.656765474446
 10
1129.059833899646
 20
1091.804449340141
 10
1128.919187392677
 20
1091.946622569086
 10
1128.772967975147
 20
1092.083057714442
 10
1128.621409566934
 20
1092.213536509083
 10
1128.464754629158
 20
1092.33785021477
 10
1128.303253776303
 20
1092.455799956093
 10
1128.137165375282
 20
1092.567197038627
 10
1127.966755132105
 20
1092.671863250805
 10
1127.79229566681
 20
1092.769631149013
 10
1127.614066077325
 20
1092.860344325471
 10
1127.432351492972
 20
1092.943857658447
 10
1127.247442618324
 20
1093.020037544425
 10
1127.059635268135
 20
1093.088762111836
 10
1126.869229894101
 20
1093.149921416034
 10
1126.729749071454
 20
1093.189471246033
  0
LINE
  5
124
330
FF
100
AcDbEntity
  8
P-SANR-FIXT
100
AcDbLine
 10
1158.285599403058
 20
1446.800737862385
 30
0.0
 11
1130.435653845939
 21
1446.800737862385
 31
0.0
  0
LINE
  5
125
330
FF
100
AcDbEntity
  8
P-SANR-FIXT
100
AcDbLine
 10
1130.435653845941
 20
1041.800737862376
 30
0.0
 11
1158.28559940306
 21
1041.800737862376
 31
0.0
  0
LINE
  5
126
330
FF
100
AcDbEntity
  8
P-SANR-FIXT
100
AcDbLine
 10
1163.285599403058
 20
1403.800737862378
 30
0.0
 11
1158.285599403059
 21
1412.460991900221
 31
0.0
  0
LINE
  5
127
330
FF
100
AcDbEntity
  8
P-SANR-FIXT
100
AcDbLine
 10
1158.28559940306
 20
1076.140483824539
 30
0.0
 11
1163.28559940306
 21
1084.800737862383
 31
0.0
  0
LINE
  5
128
330
FF
100
AcDbEntity
  8
P-SANR-FIXT
100
AcDbLine
 10
880.7260734100214
 20
1389.400265702262
 30
0.0
 11
849.255644855676
 21
1391.985186517558
 31
0.0
  0
LINE
  5
129
330
FF
100
AcDbEntity
  8
P-SANR-FIXT
100
AcDbLine
 10
849.2556448556786
 20
1096.616289207202
 30
0.0
 11
880.7260734100234
 21
1099.201210022498
 31
0.0
  0
LINE
  5
12A
330
FF
100
AcDbEntity
  8
P-SANR-FIXT
100
AcDbLine
 10
848.637159734913
 20
1414.619126966103
 30
0.0
 11
816.6442868114307
 21
1417.246960362723
 31
0.0
  0
LINE
  5
12B
330
FF
100
AcDbEntity
  8
P-SANR-FIXT
100
AcDbLine
 10
816.6442868114339
 20
1071.354515362036
 30
0.0
 11
848.6371597349162
 21
1073.982348758656
 31
0.0
  0
LWPOLYLINE
  5
12C
330
FF
100
AcDbEntity
  8
P-SANR-FIXT
100
AcDbPolyline
 90
        6
 70
   128
 43
0.0
 10
796.6359460215719
 20
1417.327181916575
 10
796.1828701583412
 20
1417.443601510526
 10
790.0366429870468
 20
1418.728305312405
 10
783.847968064757
 20
1419.729534949085
 10
777.6273682032828
 20
1420.445362477662
 10
776.3170406866423
 20
1420.559363234884
  0
LWPOLYLINE
  5
12D
330
FF
100
AcDbEntity
  8
P-SANR-FIXT
100
AcDbPolyline
 90
        5
 70
   128
 43
0.0
 10
776.3170406866458
 20
1068.042112489875
 10
782.5430019750069
 20
1068.697768248883
 10
788.7392629308295
 20
1069.639162489792
 10
794.8952780484723
 20
1070.864480633462
 10
796.5811614043046
 20
1071.280582638364
  0
LINE
  5
12E
330
FF
100
AcDbEntity
  8
P-SANR-FIXT
100
AcDbLine
 10
776.3170406866422
 20
1420.559363234884
 30
0.0
 11
738.4480198739611
 21
1423.669852181183
 31
0.0
  0
LINE
  5
12F
330
FF
100
AcDbEntity
  8
P-SANR-FIXT
100
AcDbLine
 10
738.4480198739644
 20
1064.931623543575
 30
0.0
 11
776.3170406866455
 21
1068.042112489875
 31
0.0
  0
LWPOLYLINE
  5
130
330
FF
100
AcDbEntity
  8
P-SANR-FIXT
100
AcDbPolyline
 90
       35
 70
   128
 43
0.0
 10
738.4480198739609
 20
1423.669852181183
 10
731.8700264557398
 20
1424.058148961257
 10
725.2821268937434
 20
1424.143401856712
 10
718.6970052014278
 20
1423.925391227702
 10
712.1273305527469
 20
1423.404678358043
 10
705.5856900080169
 20
1422.582598780467
 10
699.0845233419591
 20
1421.461246579169
 10
692.636061577973
 20
1420.043450295353
 10
686.2522706329091
 20
1418.332741374139
 10
679.9448012094634
 20
1416.333316339972
 10
673.7249457606038
 20
1414.04999405913
 10
667.6036030163217
 20
1411.488169535685
 10
661.5912502314132
 20
1408.653765692388
 10
655.6979230053172
 20
1405.553184518375
 10
649.9332022583029
 20
1402.193258833786
 10
644.3062077342449
 20
1398.581205743757
 10
638.8255972448326
 20
1394.724582647639
 10
633.4995707741064
 20
1390.631246450834
 10
628.335878521955
 20
1386.309316410951
 10
623.3418319736249
 20
1381.767140849198
 10
618.5243171302918
 20
1377.013267780764
 10
613.8898091133608
 20
1372.05641936987
 10
609.4443874524852
 20
1366.905469998454
 10
605.1937514753067
 20
1361.569427652154
 10
601.1432353279033
 20
1356.057418271084
 10
597.2978222627166
 20
1350.378672682668
 10
593.6621579308408
 20
1344.542515725291
 10
590.2405625049088
 20
1338.558357180424
 10
587.0370415357792
 20
1332.43568415286
 10
584.0552955101367
 20
1326.184054569937
 10
581.2987281272191
 20
1319.813091507568
 10
578.7704533519202
 20
1313.332478090834
 10
576.4733013296742
 20
1306.751952757537
 10
574.409823267144
 20
1300.081304712686
 10
574.1636042012952
 20
1299.224677209882
  0
LWPOLYLINE
  5
131
330
FF
100
AcDbEntity
  8
P-SANR-FIXT
100
AcDbPolyline
 90
       35
 70
   128
 43
0.0
 10
574.1636042012955
 20
1189.376798514874
 10
576.1971145146848
 20
1182.695364078434
 10
578.4646042788999
 20
1176.102800600843
 10
580.9635575552239
 20
1169.608903438341
 10
583.691180019978
 20
1163.223417753151
 10
586.6443942076272
 20
1156.956033981876
 10
589.8198337338548
 20
1150.816383132158
 10
593.2138363928345
 20
1144.814031740494
 10
596.8224360404173
 20
1138.958476284713
 10
600.6413532018121
 20
1133.259136804064
 10
604.6659843799217
 20
1127.725349439737
 10
608.8913900900039
 20
1122.366357571116
 10
613.3122817085759
 20
1117.191301190972
 10
617.9230072997953
 20
1112.209204139402
 10
622.7175366704035
 20
1107.428958805539
 10
627.6894460031829
 20
1102.859307912083
 10
632.8319025259077
 20
1098.508823024954
 10
638.1376497836623
 20
1094.385879482971
 10
643.5989941911699
 20
1090.498627523971
 10
649.2077936409612
 20
1086.854959496353
 10
654.9554490238657
 20
1083.462473189258
 10
660.8328995706536
 20
1080.328431488225
 10
666.8306229376512
 20
1077.459718761396
 10
672.9386409255551
 20
1074.862794595695
 10
679.1465316320933
 20
1072.543645721339
 10
685.4434486914501
 20
1070.507737171996
 10
691.8181480465597
 20
1068.759963910268
 10
698.2590224398421
 20
1067.304604286704
 10
704.7541435046391
 20
1066.145276778901
 10
711.2913110099692
 20
1065.284901462165
 10
717.8581084761181
 20
1064.725667586246
 10
724.4419640617772
 20
1064.469008471655
 10
731.030215349202
 20
1064.515584699545
 10
737.6101764444131
 20
1064.865276263645
 10
738.4480198739644
 20
1064.931623543575
  0
LINE
  5
132
330
FF
100
AcDbEntity
  8
P-SANR-FIXT
100
AcDbLine
 10
433.2855994030579
 20
1244.300737862377
 30
0.0
 11
433.2855994030567
 21
1403.800737862377
 31
0.0
  0
LINE
  5
133
330
FF
100
AcDbEntity
  8
P-SANR-FIXT
100
AcDbLine
 10
433.2855994030579
 20
1084.800737862378
 30
0.0
 11
433.2855994030579
 21
1244.300737862377
 31
0.0
  0
LINE
  5
134
330
FF
100
AcDbEntity
  8
P-SANR-FIXT
100
AcDbLine
 10
438.2855994030581
 20
1244.300737862378
 30
0.0
 11
438.2855994030566
 21
1446.666298599074
 31
0.0
  0
LINE
  5
135
330
FF
100
AcDbEntity
  8
P-SANR-FIXT
100
AcDbLine
 10
438.2855994030582
 20
1041.964965732634
 30
0.0
 11
438.2855994030582
 21
1228.780624274166
 31
0.0
  0
LINE
  5
136
330
FF
100
AcDbEntity
  8
P-SANR-FIXT
100
AcDbLine
 10
466.135544960177
 20
1244.300737862378
 30
0.0
 11
466.1355449601755
 21
1446.666298599074
 31
0.0
  0
LINE
  5
137
330
FF
100
AcDbEntity
  8
P-SANR-FIXT
100
AcDbLine
 10
466.1355449601771
 20
1041.964965732634
 30
0.0
 11
466.135544960177
 21
1228.780624274166
 31
0.0
  0
SPLINE
  5
138
330
FF
100
AcDbEntity
  8
P-SANR-FIXT
100
AcDbSpline
210
0.0
220
0.0
230
1.0
 70
     8
 71
     3
 72
     9
 73
     5
 74
     0
 42
0.000000001
 43
0.0000000001
 40
-0.6214124542291178
 40
-0.6214124542291178
 40
-0.6214124542291178
 40
-0.6214124542291178
 40
-0.5
 40
0.0
 40
0.0
 40
0.0
 40
0.0
 10
496.0328486716966
 20
1271.696040034758
 30
0.0
 10
496.2890511664959
 20
1271.673623361926
 30
0.0
 10
497.5996933072067
 20
1271.540413430216
 30
0.0
 10
498.9043395063802
 20
1271.312372598376
 30
0.0
 10
499.9429488802936
 20
1271.067632635371
 30
0.0
  0
SPLINE
  5
139
330
FF
100
AcDbEntity
  8
P-SANR-FIXT
100
AcDbSpline
210
0.0
220
0.0
230
1.0
 70
     8
 71
     3
 72
     9
 73
     5
 74
     0
 42
0.000000001
 43
0.0000000001
 40
-1.0
 40
-1.0
 40
-1.0
 40
-1.0
 40
-0.5
 40
-0.3785875457708017
 40
-0.3785875457708017
 40
-0.3785875457708017
 40
-0.3785875457708017
 10
499.9429488802934
 20
1217.533843089385
 30
0.0
 10
498.9043395063795
 20
1217.28910312638
 30
0.0
 10
497.5996933072067
 20
1217.06106229454
 30
0.0
 10
496.2890511664954
 20
1216.927852362829
 30
0.0
 10
496.0328486716959
 20
1216.905435689998
 30
0.0
  0
LINE
  5
13A
330
FF
100
AcDbEntity
  8
P-SANR-FIXT
100
AcDbLine
 10
499.9429488802937
 20
1271.06763263537
 30
0.0
 11
499.9429488802928
 21
1387.270232632446
 31
0.0
  0
LINE
  5
13B
330
FF
100
AcDbEntity
  8
P-SANR-FIXT
100
AcDbLine
 10
499.9429488802928
 20
1271.078871552988
 30
0.0
 11
499.9429488802928
 21
1271.054346778909
 31
0.0
  0
SPLINE
  5
13C
330
FF
100
AcDbEntity
  8
P-SANR-FIXT
100
AcDbSpline
210
0.0
220
0.0
230
1.0
 70
     8
 71
     3
 72
     8
 73
     4
 74
     0
 42
0.000000001
 43
0.0000000001
 40
0.0
 40
0.0
 40
0.0
 40
0.0
 40
0.1111111111111111
 40
0.1111111111111111
 40
0.1111111111111111
 40
0.1111111111111111
 10
499.9429488802932
 20
1271.067632635371
 30
0.0
 10
501.2946239840028
 20
1270.743813176647
 30
0.0
 10
502.5980311879881
 20
1270.332165687292
 30
0.0
 10
503.8590583016063
 20
1269.828512858079
 30
0.0
  0
SPLINE
  5
13D
330
FF
100
AcDbEntity
  8
P-SANR-FIXT
100
AcDbSpline
210
0.0
220
0.0
230
1.0
 70
     8
 71
     3
 72
     8
 73
     4
 74
     0
 42
0.000000001
 43
0.0000000001
 40
0.1528440470072745
 40
0.1528440470072745
 40
0.1528440470072745
 40
0.1528440470072745
 40
0.1666666666666666
 40
0.1666666666666666
 40
0.1666666666666666
 40
0.1666666666666666
 10
505.2623460772753
 20
1269.221842596502
 30
0.0
 10
505.4153652264628
 20
1269.150515073365
 30
0.0
 10
505.5676709905692
 20
1269.077679649762
 30
0.0
 10
505.719549880428
 20
1269.003507445713
 30
0.0
  0
SPLINE
  5
13E
330
FF
100
AcDbEntity
  8
P-SANR-FIXT
100
AcDbSpline
210
0.0
220
0.0
230
1.0
 70
     8
 71
     3
 72
     8
 73
     4
 74
     0
 42
0.000000001
 43
0.0000000001
 40
0.2181105725661804
 40
0.2181105725661804
 40
0.2181105725661804
 40
0.2181105725661804
 40
0.2222222222222222
 40
0.2222222222222222
 40
0.2222222222222222
 40
0.2222222222222222
 10
507.3871631495809
 20
1268.115230200758
 30
0.0
 10
507.43082202443
 20
1268.090008607605
 30
0.0
 10
507.4744342045427
 20
1268.064675898039
 30
0.0
 10
507.5179968137085
 20
1268.03923142206
 30
0.0
  0
SPLINE
  5
13F
330
FF
100
AcDbEntity
  8
P-SANR-FIXT
100
AcDbSpline
210
0.0
220
0.0
230
1.0
 70
     8
 71
     3
 72
     8
 73
     4
 74
     0
 42
0.000000001
 43
0.0000000001
 40
0.2777777777777778
 40
0.2777777777777778
 40
0.2777777777777778
 40
0.2777777777777778
 40
0.2831893424770553
 40
0.2831893424770553
 40
0.2831893424770553
 40
0.2831893424770553
 10
509.2439348220623
 20
1266.941647831472
 30
0.0
 10
509.2986579095367
 20
1266.903933307769
 30
0.0
 10
509.3532803204811
 20
1266.866039477404
 30
0.0
 10
509.407789853951
 20
1266.827962029532
 30
0.0
  0
SPLINE
  5
140
330
FF
100
AcDbEntity
  8
P-SANR-FIXT
100
AcDbSpline
210
0.0
220
0.0
230
1.0
 70
     8
 71
     3
 72
     8
 73
     4
 74
     0
 42
0.000000001
 43
0.0000000001
 40
0.3333333333333333
 40
0.3333333333333333
 40
0.3333333333333333
 40
0.3333333333333333
 40
0.3487800063426901
 40
0.3487800063426901
 40
0.3487800063426901
 40
0.3487800063426901
 10
510.8842769474464
 20
1265.718750021104
 30
0.0
 10
511.0319256604736
 20
1265.599847236927
 30
0.0
 10
511.1776913248932
 20
1265.479131558852
 30
0.0
 10
511.321635781392
 20
1265.356672590168
 30
0.0
  0
SPLINE
  5
141
330
FF
100
AcDbEntity
  8
P-SANR-FIXT
100
AcDbSpline
210
0.0
220
0.0
230
1.0
 70
     8
 71
     3
 72
     8
 73
     4
 74
     0
 42
0.000000001
 43
0.0000000001
 40
0.3888888888888889
 40
0.3888888888888889
 40
0.3888888888888889
 40
0.3888888888888889
 40
0.5000000000000001
 40
0.5000000000000001
 40
0.5000000000000001
 40
0.5000000000000001
 10
512.4268693656651
 20
1264.378387401745
 30
0.0
 10
513.4208844552711
 20
1263.447396363764
 30
0.0
 10
514.3162114350426
 20
1262.432401756576
 30
0.0
 10
515.1385822004632
 20
1261.356891807791
 30
0.0
  0
SPLINE
  5
142
330
FF
100
AcDbEntity
  8
P-SANR-FIXT
100
AcDbSpline
210
0.0
220
0.0
230
1.0
 70
     8
 71
     3
 72
     8
 73
     4
 74
     0
 42
0.000000001
 43
0.0000000001
 40
0.5440508893081174
 40
0.5440508893081174
 40
0.5440508893081174
 40
0.5440508893081174
 40
0.5555555555555558
 40
0.5555555555555558
 40
0.5555555555555558
 40
0.5555555555555558
 10
516.15752603811
 20
1260.078798671012
 30
0.0
 10
516.2384418735967
 20
1259.963363454292
 30
0.0
 10
516.3180650530455
 20
1259.847158092952
 30
0.0
 10
516.3965024909665
 20
1259.730234158137
 30
0.0
  0
SPLINE
  5
143
330
FF
100
AcDbEntity
  8
P-SANR-FIXT
100
AcDbSpline
210
0.0
220
0.0
230
1.0
 70
     8
 71
     3
 72
     8
 73
     4
 74
     0
 42
0.000000001
 43
0.0000000001
 40
0.6093095900885835
 40
0.6093095900885835
 40
0.6093095900885835
 40
0.6093095900885835
 40
0.6111111111111113
 40
0.6111111111111113
 40
0.6111111111111113
 40
0.6111111111111113
 10
517.4478774401962
 20
1258.055918469333
 30
0.0
 10
517.4589384594219
 20
1258.036785049243
 30
0.0
 10
517.4699652349171
 20
1258.017634356981
 30
0.0
 10
517.4809588019761
 20
1257.998466764832
 30
0.0
  0
SPLINE
  5
144
330
FF
100
AcDbEntity
  8
P-SANR-FIXT
100
AcDbSpline
210
0.0
220
0.0
230
1.0
 70
     8
 71
     3
 72
     8
 73
     4
 74
     0
 42
0.000000001
 43
0.0000000001
 40
0.6666666666666666
 40
0.6666666666666666
 40
0.6666666666666666
 40
0.6666666666666666
 40
0.6745294148409432
 40
0.6745294148409432
 40
0.6745294148409432
 40
0.6745294148409432
 10
518.4336413452423
 20
1256.187891250679
 30
0.0
 10
518.4754005607816
 20
1256.100746554329
 30
0.0
 10
518.5171804864219
 20
1256.013491604756
 30
0.0
 10
518.5589111912527
 20
1255.926115960814
 30
0.0
  0
SPLINE
  5
145
330
FF
100
AcDbEntity
  8
P-SANR-FIXT
100
AcDbSpline
210
0.0
220
0.0
230
1.0
 70
     8
 71
     3
 72
     9
 73
     5
 74
     0
 42
0.000000001
 43
0.0000000001
 40
0.7222222222222224
 40
0.7222222222222224
 40
0.7222222222222224
 40
0.7222222222222224
 40
0.8333333333333332
 40
0.8888888888888891
 40
0.8888888888888891
 40
0.8888888888888891
 40
0.8888888888888891
 10
519.2494842401575
 20
1254.307951103878
 30
0.0
 10
519.7466366778185
 20
1253.034559018228
 30
0.0
 10
520.4098023991114
 20
1251.082745860669
 30
0.0
 10
520.6683777429081
 20
1249.054600853804
 30
0.0
 10
520.736206148518
 20
1248.375242326523
 30
0.0
  0
SPLINE
  5
146
330
FF
100
AcDbEntity
  8
P-SANR-FIXT
100
AcDbSpline
210
0.0
220
0.0
230
1.0
 70
     8
 71
     3
 72
     8
 73
     4
 74
     0
 42
0.000000001
 43
0.0000000001
 40
0.9354115586468406
 40
0.9354115586468406
 40
0.9354115586468406
 40
0.9354115586468406
 40
0.9444444444444448
 40
0.9444444444444448
 40
0.9444444444444448
 40
0.9444444444444448
 10
521.0291112684875
 20
1246.697528085894
 30
0.0
 10
521.0387276216273
 20
1246.586883972167
 30
0.0
 10
521.0465737429532
 20
1246.475823921625
 30
0.0
 10
521.0531192293589
 20
1246.364458566881
 30
0.0
  0
SPLINE
  5
147
330
FF
100
AcDbEntity
  8
P-SANR-FIXT
100
AcDbSpline
210
0.0
220
0.0
230
1.0
 70
     8
 71
     3
 72
    10
 73
     6
 74
     0
 42
0.000000001
 43
0.0000000001
 40
0.0
 40
0.0
 40
0.0
 40
0.0
 40
0.125
 40
0.25
 40
0.375
 40
0.375
 40
0.375
 40
0.375
 10
567.4251866431347
 20
1244.300737862379
 30
0.0
 10
567.4090518461659
 20
1250.774149689638
 30
0.0
 10
567.9032814250638
 20
1263.672784659485
 30
0.0
 10
570.1153784132887
 20
1282.596915249969
 30
0.0
 10
572.7881012826143
 20
1294.566646491085
 30
0.0
 10
574.4761944500811
 20
1300.304436258184
 30
0.0
  0
SPLINE
  5
148
330
FF
100
AcDbEntity
  8
P-SANR-FIXT
100
AcDbSpline
210
0.0
220
0.0
230
1.0
 70
     8
 71
     3
 72
    10
 73
     6
 74
     0
 42
0.000000001
 43
0.0000000001
 40
0.625
 40
0.625
 40
0.625
 40
0.625
 40
0.75
 40
0.875
 40
1.0
 40
1.0
 40
1.0
 40
1.0
 10
574.4761944500813
 20
1188.297039466574
 30
0.0
 10
572.7881012826145
 20
1194.034829233673
 30
0.0
 10
570.1153784132888
 20
1206.004560474789
 30
0.0
 10
567.9032814250639
 20
1224.928691065272
 30
0.0
 10
567.4090518461659
 20
1237.82732603512
 30
0.0
 10
567.4251866431347
 20
1244.300737862379
 30
0.0
  0
SPLINE
  5
149
330
FF
100
AcDbEntity
  8
P-SANR-FIXT
100
AcDbSpline
210
0.0
220
0.0
230
1.0
 70
     8
 71
     3
 72
     8
 73
     4
 74
     0
 42
0.000000001
 43
0.0000000001
 40
0.0555555555555556
 40
0.0555555555555556
 40
0.0555555555555556
 40
0.0555555555555556
 40
0.064475198564225
 40
0.064475198564225
 40
0.064475198564225
 40
0.064475198564225
 10
521.0554592821368
 20
1242.232625012835
 30
0.0
 10
521.0472218742085
 20
1242.122902693918
 30
0.0
 10
521.03832114694
 20
1242.013350186429
 30
0.0
 10
521.0287624036985
 20
1241.903958893443
 30
0.0
  0
SPLINE
  5
14A
330
FF
100
AcDbEntity
  8
P-SANR-FIXT
100
AcDbSpline
210
0.0
220
0.0
230
1.0
 70
     8
 71
     3
 72
     9
 73
     5
 74
     0
 42
0.000000001
 43
0.0000000001
 40
0.1111111111111111
 40
0.1111111111111111
 40
0.1111111111111111
 40
0.1111111111111111
 40
0.1666666666666666
 40
0.2777777777777778
 40
0.2777777777777778
 40
0.2777777777777778
 40
0.2777777777777778
 10
520.8271728313256
 20
1240.198801365021
 30
0.0
 10
520.7261990854733
 20
1239.526062929218
 30
0.0
 10
520.3457698038299
 20
1237.52559785808
 30
0.0
 10
519.7538661027579
 20
1235.545280088838
 30
0.0
 10
519.255472342057
 20
1234.272441810527
 30
0.0
  0
SPLINE
  5
14B
330
FF
100
AcDbEntity
  8
P-SANR-FIXT
100
AcDbSpline
210
0.0
220
0.0
230
1.0
 70
     8
 71
     3
 72
     8
 73
     4
 74
     0
 42
0.000000001
 43
0.0000000001
 40
0.3251723746121027
 40
0.3251723746121027
 40
0.3251723746121027
 40
0.3251723746121027
 40
0.3333333333333333
 40
0.3333333333333333
 40
0.3333333333333333
 40
0.3333333333333333
 10
518.5574988544301
 20
1232.675602063226
 30
0.0
 10
518.515097867886
 20
1232.584657859731
 30
0.0
 10
518.4722623416861
 20
1232.493887503608
 30
0.0
 10
518.4288128982086
 20
1232.403516970382
 30
0.0
  0
SPLINE
  5
14C
330
FF
100
AcDbEntity
  8
P-SANR-FIXT
100
AcDbSpline
210
0.0
220
0.0
230
1.0
 70
     8
 71
     3
 72
     8
 73
     4
 74
     0
 42
0.000000001
 43
0.0000000001
 40
0.3888888888888889
 40
0.3888888888888889
 40
0.3888888888888889
 40
0.3888888888888889
 40
0.3903704204518475
 40
0.3903704204518475
 40
0.3903704204518475
 40
0.3903704204518475
 10
517.475279064795
 20
1230.593133826187
 30
0.0
 10
517.4662129621185
 20
1230.577378657672
 30
0.0
 10
517.4571273589537
 20
1230.561637968979
 30
0.0
 10
517.4480223397197
 20
1230.545911702081
 30
0.0
  0
SPLINE
  5
14D
330
FF
100
AcDbEntity
  8
P-SANR-FIXT
100
AcDbSpline
210
0.0
220
0.0
230
1.0
 70
     8
 71
     3
 72
     8
 73
     4
 74
     0
 42
0.000000001
 43
0.0000000001
 40
0.4444444444444446
 40
0.4444444444444446
 40
0.4444444444444446
 40
0.4444444444444446
 40
0.4556226050090729
 40
0.4556226050090729
 40
0.4556226050090729
 40
0.4556226050090729
 10
516.391129694308
 20
1228.861323238863
 30
0.0
 10
516.3141790449641
 20
1228.747981723834
 30
0.0
 10
516.2361690450993
 20
1228.635531305272
 30
0.0
 10
516.1571416787648
 20
1228.523936042558
 30
0.0
  0
SPLINE
  5
14E
330
FF
100
AcDbEntity
  8
P-SANR-FIXT
100
AcDbSpline
210
0.0
220
0.0
230
1.0
 70
     8
 71
     3
 72
     8
 73
     4
 74
     0
 42
0.000000001
 43
0.0000000001
 40
0.5000000000000001
 40
0.5000000000000001
 40
0.5000000000000001
 40
0.5000000000000001
 40
0.6666666666666666
 40
0.6666666666666666
 40
0.6666666666666666
 40
0.6666666666666666
 10
515.1827276148881
 20
1227.215883265857
 30
0.0
 10
513.9143201237151
 20
1225.616227952493
 30
0.0
 10
512.440394774193
 20
1224.211008540086
 30
0.0
 10
510.8756334044334
 20
1222.875767607225
 30
0.0
  0
SPLINE
  5
14F
330
FF
100
AcDbEntity
  8
P-SANR-FIXT
100
AcDbSpline
210
0.0
220
0.0
230
1.0
 70
     8
 71
     3
 72
     8
 73
     4
 74
     0
 42
0.000000001
 43
0.0000000001
 40
0.7165127514907837
 40
0.7165127514907837
 40
0.7165127514907837
 40
0.7165127514907837
 40
0.7222222222222224
 40
0.7222222222222224
 40
0.7222222222222224
 40
0.7222222222222224
 10
509.4078102375411
 20
1221.773736729762
 30
0.0
 10
509.3503739039984
 20
1221.733539652976
 30
0.0
 10
509.2929017210913
 20
1221.693328693769
 30
0.0
 10
509.2353790325588
 20
1221.653139482543
 30
0.0
  0
SPLINE
  5
150
330
FF
100
AcDbEntity
  8
P-SANR-FIXT
100
AcDbSpline
210
0.0
220
0.0
230
1.0
 70
     8
 71
     3
 72
     8
 73
     4
 74
     0
 42
0.000000001
 43
0.0000000001
 40
0.7777777777777781
 40
0.7777777777777781
 40
0.7777777777777781
 40
0.7777777777777781
 40
0.7816228426338851
 40
0.7816228426338851
 40
0.7816228426338851
 40
0.7816228426338851
 10
507.5092043334977
 20
1220.557290267487
 30
0.0
 10
507.4685092422286
 20
1220.533500941013
 30
0.0
 10
507.4278077591905
 20
1220.509710761992
 30
0.0
 10
507.3870900733078
 20
1220.485942445258
 30
0.0
  0
SPLINE
  5
151
330
FF
100
AcDbEntity
  8
P-SANR-FIXT
100
AcDbSpline
210
0.0
220
0.0
230
1.0
 70
     8
 71
     3
 72
     8
 73
     4
 74
     0
 42
0.000000001
 43
0.0000000001
 40
0.8333333333333332
 40
0.8333333333333332
 40
0.8333333333333332
 40
0.8333333333333332
 40
0.8469325987383609
 40
0.8469325987383609
 40
0.8469325987383609
 40
0.8469325987383609
 10
505.7116549578116
 20
1219.594107834691
 30
0.0
 10
505.562425795642
 20
1219.521170517062
 30
0.0
 10
505.4114145212282
 20
1219.452140850984
 30
0.0
 10
505.2589041518436
 20
1219.386399870391
 30
0.0
  0
SPLINE
  5
152
330
FF
100
AcDbEntity
  8
P-SANR-FIXT
100
AcDbSpline
210
0.0
220
0.0
230
1.0
 70
     8
 71
     3
 72
     8
 73
     4
 74
     0
 42
0.000000001
 43
0.0000000001
 40
0.8888888888888891
 40
0.8888888888888891
 40
0.8888888888888891
 40
0.8888888888888891
 40
1.0
 40
1.0
 40
1.0
 40
1.0
 10
503.8529344683527
 20
1218.770307060889
 30
0.0
 10
502.5933971041227
 20
1218.267483723005
 30
0.0
 10
501.2920755231749
 20
1217.856719516004
 30
0.0
 10
499.9429488802936
 20
1217.533843089386
 30
0.0
  0
LINE
  5
153
330
FF
100
AcDbEntity
  8
P-SANR-FIXT
100
AcDbLine
 10
499.9429488802928
 20
1217.547128945849
 30
0.0
 11
499.9429488802928
 21
1217.522604171771
 31
0.0
  0
LINE
  5
154
330
FF
100
AcDbEntity
  8
P-SANR-FIXT
100
AcDbLine
 10
499.9429488802936
 20
1101.331243092309
 30
0.0
 11
499.9429488802936
 21
1217.533843089385
 31
0.0
  0
LINE
  5
155
330
FF
100
AcDbEntity
  8
P-SANR-FIXT
100
AcDbLine
 10
1021.628249925821
 20
1370.594886199751
 30
0.0
 11
1021.62824992582
 21
1387.346332091689
 31
0.0
  0
SPLINE
  5
156
330
FF
100
AcDbEntity
  8
P-SANR-FIXT
100
AcDbSpline
210
0.0
220
0.0
230
1.0
 70
     8
 71
     3
 72
     8
 73
     4
 74
     0
 42
0.000000001
 43
0.0000000001
 40
0.3888888888888889
 40
0.3888888888888889
 40
0.3888888888888889
 40
0.3888888888888889
 40
0.3903704204518044
 40
0.3903704204518044
 40
0.3903704204518044
 40
0.3903704204518044
 10
1079.095919741319
 20
1258.008341898573
 30
0.0
 10
1079.104985843995
 20
1258.024097067087
 30
0.0
 10
1079.11407144716
 20
1258.03983775578
 30
0.0
 10
1079.123176466393
 20
1258.055564022677
 30
0.0
  0
SPLINE
  5
157
330
FF
100
AcDbEntity
  8
P-SANR-FIXT
100
AcDbSpline
210
0.0
220
0.0
230
1.0
 70
     8
 71
     3
 72
     8
 73
     4
 74
     0
 42
0.000000001
 43
0.0000000001
 40
0.4444444444444446
 40
0.4444444444444446
 40
0.4444444444444446
 40
0.4444444444444446
 40
0.4556226050090328
 40
0.4556226050090328
 40
0.4556226050090328
 40
0.4556226050090328
 10
1080.180069111806
 20
1259.740152485897
 30
0.0
 10
1080.25701976115
 20
1259.853494000926
 30
0.0
 10
1080.335029761015
 20
1259.965944419487
 30
0.0
 10
1080.414057127349
 20
1260.0775396822
 30
0.0
  0
SPLINE
  5
158
330
FF
100
AcDbEntity
  8
P-SANR-FIXT
100
AcDbSpline
210
0.0
220
0.0
230
1.0
 70
     8
 71
     3
 72
     8
 73
     4
 74
     0
 42
0.000000001
 43
0.0000000001
 40
0.5000000000000001
 40
0.5000000000000001
 40
0.5000000000000001
 40
0.5000000000000001
 40
0.6666666666666666
 40
0.6666666666666666
 40
0.6666666666666666
 40
0.6666666666666666
 10
1081.388471191226
 20
1261.385592458903
 30
0.0
 10
1082.656878682399
 20
1262.985247772266
 30
0.0
 10
1084.130804031921
 20
1264.390467184673
 30
0.0
 10
1085.695565401681
 20
1265.725708117535
 30
0.0
  0
SPLINE
  5
159
330
FF
100
AcDbEntity
  8
P-SANR-FIXT
100
AcDbSpline
210
0.0
220
0.0
230
1.0
 70
     8
 71
     3
 72
     8
 73
     4
 74
     0
 42
0.000000001
 43
0.0000000001
 40
0.7165127514907322
 40
0.7165127514907322
 40
0.7165127514907322
 40
0.7165127514907322
 40
0.7222222222222224
 40
0.7222222222222224
 40
0.7222222222222224
 40
0.7222222222222224
 10
1087.163388568572
 20
1266.827738994997
 30
0.0
 10
1087.220824902115
 20
1266.867936071782
 30
0.0
 10
1087.278297085022
 20
1266.90814703099
 30
0.0
 10
1087.335819773555
 20
1266.948336242216
 30
0.0
  0
SPLINE
  5
15A
330
FF
100
AcDbEntity
  8
P-SANR-FIXT
100
AcDbSpline
210
0.0
220
0.0
230
1.0
 70
     8
 71
     3
 72
     8
 73
     4
 74
     0
 42
0.000000001
 43
0.0000000001
 40
0.7777777777777781
 40
0.7777777777777781
 40
0.7777777777777781
 40
0.7777777777777781
 40
0.7816228426338459
 40
0.7816228426338459
 40
0.7816228426338459
 40
0.7816228426338459
 10
1089.061994472617
 20
1268.044185457272
 30
0.0
 10
1089.102689563886
 20
1268.067974783745
 30
0.0
 10
1089.143391046923
 20
1268.091764962767
 30
0.0
 10
1089.184108732805
 20
1268.1155332795
 30
0.0
  0
SPLINE
  5
15B
330
FF
100
AcDbEntity
  8
P-SANR-FIXT
100
AcDbSpline
210
0.0
220
0.0
230
1.0
 70
     8
 71
     3
 72
     8
 73
     4
 74
     0
 42
0.000000001
 43
0.0000000001
 40
0.8333333333333332
 40
0.8333333333333332
 40
0.8333333333333332
 40
0.8333333333333332
 40
0.8469325987383189
 40
0.8469325987383189
 40
0.8469325987383189
 40
0.8469325987383189
 10
1090.859543848303
 20
1269.007367890068
 30
0.0
 10
1091.008773010472
 20
1269.080305207697
 30
0.0
 10
1091.159784284885
 20
1269.149334873775
 30
0.0
 10
1091.312294654269
 20
1269.215075854368
 30
0.0
  0
SPLINE
  5
15C
330
FF
100
AcDbEntity
  8
P-SANR-FIXT
100
AcDbSpline
210
0.0
220
0.0
230
1.0
 70
     8
 71
     3
 72
     8
 73
     4
 74
     0
 42
0.000000001
 43
0.0000000001
 40
0.8888888888888891
 40
0.8888888888888891
 40
0.8888888888888891
 40
0.8888888888888891
 40
1.0
 40
1.0
 40
1.0
 40
1.0
 10
1092.718264337762
 20
1269.83116866387
 30
0.0
 10
1093.977801701992
 20
1270.333992001755
 30
0.0
 10
1095.279123282939
 20
1270.744756208756
 30
0.0
 10
1096.628249925821
 20
1271.067632635374
 30
0.0
  0
LINE
  5
15D
330
FF
100
AcDbEntity
  8
P-SANR-FIXT
100
AcDbLine
 10
1021.628249925822
 20
1101.255143633071
 30
0.0
 11
1021.628249925822
 21
1118.002283387932
 31
0.0
  0
SPLINE
  5
15E
330
FF
100
AcDbEntity
  8
P-SANR-FIXT
100
AcDbSpline
210
0.0
220
0.0
230
1.0
 70
     8
 71
     3
 72
     8
 73
     4
 74
     0
 42
0.000000001
 43
0.0000000001
 40
0.0
 40
0.0
 40
0.0
 40
0.0
 40
0.1111111111111111
 40
0.1111111111111111
 40
0.1111111111111111
 40
0.1111111111111111
 10
1096.628249925821
 20
1217.533843089388
 30
0.0
 10
1095.279123282939
 20
1217.856719516006
 30
0.0
 10
1093.977801701992
 20
1218.267483723006
 30
0.0
 10
1092.718264337762
 20
1218.770307060891
 30
0.0
  0
SPLINE
  5
15F
330
FF
100
AcDbEntity
  8
P-SANR-FIXT
100
AcDbSpline
210
0.0
220
0.0
230
1.0
 70
     8
 71
     3
 72
     8
 73
     4
 74
     0
 42
0.000000001
 43
0.0000000001
 40
0.1530674012616748
 40
0.1530674012616748
 40
0.1530674012616748
 40
0.1530674012616748
 40
0.1666666666666666
 40
0.1666666666666666
 40
0.1666666666666666
 40
0.1666666666666666
 10
1091.308984884628
 20
1219.379519141335
 30
0.0
 10
1091.158583009567
 20
1219.449643501961
 30
0.0
 10
1091.008861800167
 20
1219.521228638007
 30
0.0
 10
1090.859543848303
 20
1219.594107834693
 30
0.0
  0
SPLINE
  5
160
330
FF
100
AcDbEntity
  8
P-SANR-FIXT
100
AcDbSpline
210
0.0
220
0.0
230
1.0
 70
     8
 71
     3
 72
     8
 73
     4
 74
     0
 42
0.000000001
 43
0.0000000001
 40
0.2183771573661439
 40
0.2183771573661439
 40
0.2183771573661439
 40
0.2183771573661439
 40
0.2222222222222222
 40
0.2222222222222222
 40
0.2222222222222222
 40
0.2222222222222222
 10
1089.184250744222
 20
1220.486242067276
 30
0.0
 10
1089.143441903935
 20
1220.509818062385
 30
0.0
 10
1089.102673379341
 20
1220.533491219508
 30
0.0
 10
1089.061947543011
 20
1220.557262078463
 30
0.0
  0
SPLINE
  5
161
330
FF
100
AcDbEntity
  8
P-SANR-FIXT
100
AcDbSpline
210
0.0
220
0.0
230
1.0
 70
     8
 71
     3
 72
     8
 73
     4
 74
     0
 42
0.000000001
 43
0.0000000001
 40
0.2777777777777778
 40
0.2777777777777778
 40
0.2777777777777778
 40
0.2777777777777778
 40
0.2834872485092451
 40
0.2834872485092451
 40
0.2834872485092451
 40
0.2834872485092451
 10
1087.336152689831
 20
1221.653805121121
 30
0.0
 10
1087.278413759441
 20
1221.693561974628
 30
0.0
 10
1087.220786219181
 20
1221.733518497238
 30
0.0
 10
1087.16328444616
 20
1221.773679785099
 30
0.0
  0
SPLINE
  5
162
330
FF
100
AcDbEntity
  8
P-SANR-FIXT
100
AcDbSpline
210
0.0
220
0.0
230
1.0
 70
     8
 71
     3
 72
     8
 73
     4
 74
     0
 42
0.000000001
 43
0.0000000001
 40
0.3333333333333333
 40
0.3333333333333333
 40
0.3333333333333333
 40
0.3333333333333333
 40
0.5000000000000001
 40
0.5000000000000001
 40
0.5000000000000001
 40
0.5000000000000001
 10
1085.695565401681
 20
1222.875767607227
 30
0.0
 10
1084.102120994761
 20
1224.15782564678
 30
0.0
 10
1082.714237218724
 20
1225.638370606927
 30
0.0
 10
1081.474508995714
 20
1227.249097247507
 30
0.0
  0
SPLINE
  5
163
330
FF
100
AcDbEntity
  8
P-SANR-FIXT
100
AcDbSpline
210
0.0
220
0.0
230
1.0
 70
     8
 71
     3
 72
     8
 73
     4
 74
     0
 42
0.000000001
 43
0.0000000001
 40
0.5443773949909514
 40
0.5443773949909514
 40
0.5443773949909514
 40
0.5443773949909514
 40
0.5555555555555558
 40
0.5555555555555558
 40
0.5555555555555558
 40
0.5555555555555558
 10
1080.413427558098
 20
1228.523057603712
 30
0.0
 10
1080.334808789342
 20
1228.635222983193
 30
0.0
 10
1080.257410413916
 20
1228.748117624637
 30
0.0
 10
1080.181133944289
 20
1228.861693674197
 30
0.0
  0
SPLINE
  5
164
330
FF
100
AcDbEntity
  8
P-SANR-FIXT
100
AcDbSpline
210
0.0
220
0.0
230
1.0
 70
     8
 71
     3
 72
     8
 73
     4
 74
     0
 42
0.000000001
 43
0.0000000001
 40
0.6096295795481636
 40
0.6096295795481636
 40
0.6096295795481636
 40
0.6096295795481636
 40
0.6111111111111113
 40
0.6111111111111113
 40
0.6111111111111113
 40
0.6111111111111113
 10
1079.123164473456
 20
1230.545896284092
 30
0.0
 10
1079.114067428078
 20
1230.561632802093
 30
0.0
 10
1079.104993546817
 20
1230.577381047439
 30
0.0
 10
1079.095942249546
 20
1230.593140809261
 30
0.0
  0
LINE
  5
165
330
FF
100
AcDbEntity
  8
P-SANR-FIXT
100
AcDbLine
 10
1096.628249925821
 20
1271.067632635373
 30
0.0
 11
1096.62824992582
 21
1387.270232632445
 31
0.0
  0
LINE
  5
166
330
FF
100
AcDbEntity
  8
P-SANR-FIXT
100
AcDbLine
 10
1096.62824992582
 20
1271.078871552991
 30
0.0
 11
1096.62824992582
 21
1271.054346778912
 31
0.0
  0
SPLINE
  5
167
330
FF
100
AcDbEntity
  8
P-SANR-FIXT
100
AcDbSpline
210
0.0
220
0.0
230
1.0
 70
     8
 71
     3
 72
     9
 73
     5
 74
     0
 42
0.000000001
 43
0.0000000001
 40
-1.0
 40
-1.0
 40
-1.0
 40
-1.0
 40
-0.5
 40
-0.3785875457709232
 40
-0.3785875457709232
 40
-0.3785875457709232
 40
-0.3785875457709232
 10
1096.628249925821
 20
1271.067632635374
 30
0.0
 10
1097.666859299735
 20
1271.312372598379
 30
0.0
 10
1098.971505498908
 20
1271.540413430219
 30
0.0
 10
1100.282147639618
 20
1271.673623361929
 30
0.0
 10
1100.538350134417
 20
1271.69604003476
 30
0.0
  0
SPLINE
  5
168
330
FF
100
AcDbEntity
  8
P-SANR-FIXT
100
AcDbSpline
210
0.0
220
0.0
230
1.0
 70
     8
 71
     3
 72
     9
 73
     5
 74
     0
 42
0.000000001
 43
0.0000000001
 40
-0.621412454229003
 40
-0.621412454229003
 40
-0.621412454229003
 40
-0.621412454229003
 40
-0.5
 40
0.0
 40
0.0
 40
0.0
 40
0.0
 10
1100.538350134417
 20
1216.905435690001
 30
0.0
 10
1100.282147639618
 20
1216.927852362832
 30
0.0
 10
1098.971505498908
 20
1217.061062294542
 30
0.0
 10
1097.666859299735
 20
1217.289103126382
 30
0.0
 10
1096.628249925821
 20
1217.533843089387
 30
0.0
  0
LINE
  5
169
330
FF
100
AcDbEntity
  8
P-SANR-FIXT
100
AcDbLine
 10
1096.628249925821
 20
1217.547128945851
 30
0.0
 11
1096.628249925821
 21
1217.522604171773
 31
0.0
  0
LINE
  5
16A
330
FF
100
AcDbEntity
  8
P-SANR-FIXT
100
AcDbLine
 10
1096.628249925821
 20
1101.331243092316
 30
0.0
 11
1096.628249925822
 21
1217.533843089387
 31
0.0
  0
LWPOLYLINE
  5
16B
330
FF
100
AcDbEntity
  8
P-SANR-FIXT
100
AcDbPolyline
 90
        3
 70
   128
 43
0.0
 10
1130.435653845939
 20
1271.800737862381
 10
1130.065618064111
 20
1258.051543067076
 10
1129.7642603218
 20
1244.300737862381
  0
LWPOLYLINE
  5
16C
330
FF
100
AcDbEntity
  8
P-SANR-FIXT
100
AcDbPolyline
 90
        3
 70
   128
 43
0.0
 10
1129.7642603218
 20
1244.300737862381
 10
1130.065618064111
 20
1230.549932657686
 10
1130.435653845939
 20
1216.800737862381
  0
LINE
  5
16D
330
FF
100
AcDbEntity
  8
P-SANR-FIXT
100
AcDbLine
 10
1130.435653845939
 20
1244.30073786238
 30
0.0
 11
1130.435653845938
 21
1446.66629859908
 31
0.0
  0
LINE
  5
16E
330
FF
100
AcDbEntity
  8
P-SANR-FIXT
100
AcDbLine
 10
1130.435653845939
 20
1041.964965732634
 30
0.0
 11
1130.435653845939
 21
1228.780624274169
 31
0.0
  0
LINE
  5
16F
330
FF
100
AcDbEntity
  8
P-SANR-FIXT
100
AcDbLine
 10
1158.285599403058
 20
1244.30073786238
 30
0.0
 11
1158.285599403057
 21
1446.66629859908
 31
0.0
  0
LINE
  5
170
330
FF
100
AcDbEntity
  8
P-SANR-FIXT
100
AcDbLine
 10
1158.285599403058
 20
1041.964965732634
 30
0.0
 11
1158.285599403058
 21
1228.780624274169
 31
0.0
  0
LINE
  5
171
330
FF
100
AcDbEntity
  8
P-SANR-FIXT
100
AcDbLine
 10
1163.285599403057
 20
1244.30073786238
 30
0.0
 11
1163.285599403057
 21
1403.800737862378
 31
0.0
  0
LINE
  5
172
330
FF
100
AcDbEntity
  8
P-SANR-FIXT
100
AcDbLine
 10
1163.285599403058
 20
1084.800737862384
 30
0.0
 11
1163.285599403057
 21
1244.30073786238
 31
0.0
  0
ARC
  5
173
330
FF
100
AcDbEntity
  8
P-SANR-FIXT
100
AcDbCircle
 10
493.6355449601768
 20
1244.300737862378
 30
0.0
 40
27.50000000000003
100
AcDbArc
 50
269.9999999999991
 51
89.99999999999941
  0
LINE
  5
174
330
FF
100
AcDbEntity
  8
P-SANR-FIXT
100
AcDbLine
 10
493.6355449601768
 20
1271.800737862378
 30
0.0
 11
466.1355449601766
 21
1271.800737862378
 31
0.0
  0
LINE
  5
175
330
FF
100
AcDbEntity
  8
P-SANR-FIXT
100
AcDbLine
 10
466.1355449601769
 20
1216.800737862378
 30
0.0
 11
493.6355449601766
 21
1216.800737862378
 31
0.0
  0
ARC
  5
176
330
FF
100
AcDbEntity
  8
P-SANR-FIXT
100
AcDbCircle
 10
1102.935653845937
 20
1244.300737862381
 30
0.0
 40
27.5
100
AcDbArc
 50
90.0
 51
153.9041058510024
  0
ARC
  5
177
330
FF
100
AcDbEntity
  8
P-SANR-FIXT
100
AcDbCircle
 10
1102.935653845937
 20
1244.300737862381
 30
0.0
 40
27.49999999999977
100
AcDbArc
 50
206.0587300839513
 51
269.9999999999997
  0
LINE
  5
178
330
FF
100
AcDbEntity
  8
P-SANR-FIXT
100
AcDbLine
 10
1102.935653845937
 20
1216.800737862381
 30
0.0
 11
1130.435653845939
 21
1216.800737862381
 31
0.0
  0
LINE
  5
179
330
FF
100
AcDbEntity
  8
P-SANR-FIXT
100
AcDbLine
 10
1130.435653845939
 20
1271.800737862381
 30
0.0
 11
1102.935653845936
 21
1271.800737862381
 31
0.0
  0
ELLIPSE
  5
17A
330
FF
100
AcDbEntity
  8
P-SANR-FIXT
100
AcDbEllipse
 10
838.07688657033
 20
1244.30073786238
 30
0.0
 11
0.0
 21
170.7515386368922
 31
0.0
210
0.0
220
0.0
230
1.0
 40
0.86882940792911
 41
5.818431465084284
 42
7.853981633974481
  0
ELLIPSE
  5
17B
330
FF
100
AcDbEntity
  8
P-SANR-FIXT
100
AcDbEllipse
 10
838.07688657033
 20
1244.30073786238
 30
0.0
 11
0.0000000000005792
 21
170.7515386368922
 31
0.0
210
0.0
220
0.0
230
0.9999999999999998
 40
0.8688294079291111
 41
1.570796326794903
 42
3.606346495685094
  0
ELLIPSE
  5
17C
330
FF
100
AcDbEntity
  8
P-SANR-FIXT
100
AcDbEllipse
 10
805.9210797520091
 20
1244.300737862379
 30
0.0
 11
0.0
 21
173.3860550746974
 31
0.0
210
0.0
220
0.0
230
1.0
 40
0.8688294079291118
 41
6.174867736551492
 42
7.853981633974479
  0
ELLIPSE
  5
17D
330
FF
100
AcDbEntity
  8
P-SANR-FIXT
100
AcDbEllipse
 10
805.9210797520091
 20
1244.300737862379
 30
0.0
 11
0.0
 21
173.3860550746974
 31
0.0
210
0.0
220
0.0
230
0.9999999999999998
 40
0.8688294079291123
 41
1.570796326794893
 42
3.249910224217764
  0
LINE
  5
17E
330
FF
100
AcDbEntity
  8
P-SANR-FIXT
100
AcDbLine
 10
861.3925102080598
 20
1395.076223459591
 30
0.0
 11
861.2102237674898
 21
1395.165202004264
 31
0.0
  0
ENDBLK
  5
180
330
FF
100
AcDbEntity
  8
0
100
AcDbBlockEnd
  0
BLOCK
  5
1D7
330
182
100
AcDbEntity
  8
0
100
AcDbBlockBegin
  2
Automatic flow rate regulator valve_Caleffi_121 DN15 - 1_2__-V2-Est - Idraulica
 70
     0
 10
0.0
 20
0.0
 30
0.0
  3
Automatic flow rate regulator valve_Caleffi_121 DN15 - 1_2__-V2-Est - Idraulica
  1

  0
LWPOLYLINE
  5
183
330
182
100
AcDbEntity
  8
P-SANR-FIXT
100
AcDbPolyline
 90
       41
 70
   128
 43
0.0
 10
1828.278244810764
 20
2440.629536621856
 10
1828.426739973412
 20
2444.306119924441
 10
1828.870573486661
 20
2447.965140136973
 10
1829.604978525293
 20
2451.59005230578
 10
1830.622594415943
 20
2455.166169745959
 10
1831.914198680507
 20
2458.68120223441
 10
1833.469498773312
 20
2462.125451914388
 10
1835.277849192837
 20
2465.491705784726
 10
1837.328807533363
 20
2468.774913634784
 10
1839.612498022754
 20
2471.971754221991
 10
1842.119794887388
 20
2475.080178609852
 10
1844.84236294939
 20
2478.098992137294
 10
1847.772600629148
 20
2481.027507868689
 10
1850.903526755241
 20
2483.865281691131
 10
1854.228643367511
 20
2486.611924625762
 10
1857.741796461992
 20
2489.266980492876
 10
1861.437047775132
 20
2491.829854726859
 10
1865.30856409898
 20
2494.299780788692
 10
1869.350526217687
 20
2496.675812685463
 10
1873.557056928789
 20
2498.956834570313
 10
1877.922166249407
 20
2501.141580719568
 10
1882.439711362234
 20
2503.228661133399
 10
1887.103368793855
 20
2505.216589528379
 10
1891.906616510231
 20
2507.103811619597
 10
1896.842723917441
 20
2508.888732395004
 10
1901.904748086118
 20
2510.569741639309
 10
1907.085534831197
 20
2512.145237334417
 10
1912.377723554309
 20
2513.613646801073
 10
1917.773754988269
 20
2514.973445592631
 10
1923.265881172626
 20
2516.223174236151
 10
1928.846177140763
 20
2517.361452959564
 10
1934.506553918366
 20
2518.386994561073
 10
1940.238772525871
 20
2519.298615578123
 10
1946.034458749087
 20
2520.09524590499
 10
1951.885118496954
 20
2520.775936994362
 10
1957.782153606991
 20
2521.339868762224
 10
1963.716877990384
 20
2521.786355298339
 10
1969.680534032164
 20
2522.114849467704
 10
1975.66430917926
 20
2522.324946472021
 10
1981.65935266174
 20
2522.416386424606
 10
1983.278244810765
 20
2522.420713271681
  0
LWPOLYLINE
  5
184
330
182
100
AcDbEntity
  8
P-SANR-FIXT
100
AcDbPolyline
 90
       41
 70
   128
 43
0.0
 10
2138.278244810765
 20
2440.629536621855
 10
2138.129749648117
 20
2444.306119924441
 10
2137.685916134868
 20
2447.965140136973
 10
2136.951511096237
 20
2451.59005230578
 10
2135.933895205587
 20
2455.166169745959
 10
2134.642290941023
 20
2458.68120223441
 10
2133.086990848218
 20
2462.125451914388
 10
2131.278640428694
 20
2465.491705784726
 10
2129.227682088167
 20
2468.774913634784
 10
2126.943991598776
 20
2471.971754221991
 10
2124.436694734142
 20
2475.080178609852
 10
2121.71412667214
 20
2478.098992137294
 10
2118.783888992382
 20
2481.027507868688
 10
2115.652962866289
 20
2483.865281691131
 10
2112.327846254019
 20
2486.611924625762
 10
2108.814693159539
 20
2489.266980492876
 10
2105.119441846397
 20
2491.829854726859
 10
2101.24792552255
 20
2494.299780788692
 10
2097.205963403844
 20
2496.675812685463
 10
2092.999432692741
 20
2498.956834570312
 10
2088.634323372124
 20
2501.141580719568
 10
2084.116778259296
 20
2503.228661133399
 10
2079.453120827675
 20
2505.216589528379
 10
2074.649873111299
 20
2507.103811619597
 10
2069.71376570409
 20
2508.888732395003
 10
2064.651741535413
 20
2510.569741639309
 10
2059.470954790333
 20
2512.145237334417
 10
2054.178766067221
 20
2513.613646801073
 10
2048.782734633261
 20
2514.973445592631
 10
2043.290608448904
 20
2516.223174236151
 10
2037.710312480767
 20
2517.361452959564
 10
2032.049935703163
 20
2518.386994561072
 10
2026.317717095659
 20
2519.298615578122
 10
2020.522030872443
 20
2520.09524590499
 10
2014.671371124576
 20
2520.775936994362
 10
2008.774336014539
 20
2521.339868762223
 10
2002.839611631147
 20
2521.786355298339
 10
1996.875955589365
 20
2522.114849467704
 10
1990.89218044227
 20
2522.324946472021
 10
1984.89713695979
 20
2522.416386424606
 10
1983.278244810766
 20
2522.420713271681
  0
LINE
  5
185
330
182
100
AcDbEntity
  8
P-SANR-FIXT
100
AcDbLine
 10
1828.278244810764
 20
2440.629536621856
 30
0.0
 11
1828.278244810764
 21
2414.862943649609
 31
0.0
  0
LINE
  5
186
330
182
100
AcDbEntity
  8
P-SANR-FIXT
100
AcDbLine
 10
2138.278244810765
 20
2414.862943649609
 30
0.0
 11
2138.278244810765
 21
2440.629536621856
 31
0.0
  0
ELLIPSE
  5
187
330
182
100
AcDbEntity
  8
P-SANR-FIXT
100
AcDbEllipse
 10
1983.278244810762
 20
2414.862943649608
 30
0.0
 11
154.9999999999998
 21
0.0
 31
0.0
210
0.0
220
0.0
230
1.0
 40
0.4951115631022474
 41
1.570796326794902
 42
3.700778570016141
  0
ELLIPSE
  5
188
330
182
100
AcDbEntity
  8
P-SANR-FIXT
100
AcDbEllipse
 10
1983.278244810762
 20
2414.862943649608
 30
0.0
 11
155.0
 21
0.0
 31
0.0
210
0.0
220
0.0
230
1.0
 40
0.4951115631022467
 41
5.724281520129193
 42
7.853981633974482
  0
LWPOLYLINE
  5
189
330
182
100
AcDbEntity
  8
P-SANR-FIXT
100
AcDbPolyline
 90
       40
 70
   128
 43
0.0
 10
1838.963321798894
 20
2341.555506506272
 10
1839.316956346154
 20
2345.615621790457
 10
1839.992018222606
 20
2349.629393650191
 10
1840.976694548906
 20
2353.570939346919
 10
1842.255220322572
 20
2357.41877602233
 10
1843.809446068774
 20
2361.156491837562
 10
1845.620359764753
 20
2364.772761212913
 10
1847.669345300783
 20
2368.260848563511
 10
1849.939069235997
 20
2371.617802602449
 10
1852.413987764549
 20
2374.843535784079
 10
1855.080532244127
 20
2377.939936519856
 10
1857.927060650884
 20
2380.910103152432
 10
1860.943662939319
 20
2383.757737269689
 10
1864.121893133277
 20
2386.486697883668
 10
1867.454480553499
 20
2389.100697534952
 10
1870.935053357314
 20
2391.603112949947
 10
1874.557892393701
 20
2393.996882108254
 10
1878.317722792857
 20
2396.284462819967
 10
1882.209544083616
 20
2398.467832680069
 10
1886.228495959685
 20
2400.548515117937
 10
1890.369755130519
 20
2402.527620503133
 10
1894.62845822838
 20
2404.40589467186
 10
1898.999645957255
 20
2406.183769813557
 10
1903.478224209278
 20
2407.861414522221
 10
1908.058938527371
 20
2409.438781120029
 10
1912.736358941567
 20
2410.915649241394
 10
1917.504872792961
 20
2412.291665240786
 10
1922.358683661262
 20
2413.566377348418
 10
1927.291814926661
 20
2414.739266712322
 10
1932.298116831074
 20
2415.809774582149
 10
1937.371276168754
 20
2416.777325943523
 10
1942.504827943347
 20
2417.641349925415
 10
1947.692168488879
 20
2418.401297292655
 10
1952.92656967523
 20
2419.056655311548
 10
1958.201193912604
 20
2419.606960245505
 10
1963.509109740572
 20
2420.051807703474
 10
1968.84330784072
 20
2420.390861029417
 10
1974.196717351686
 20
2420.623857887299
 10
1979.562222394418
 20
2420.750615163671
 10
1983.278244810765
 20
2420.776078909652
  0
LWPOLYLINE
  5
18A
330
182
100
AcDbEntity
  8
P-SANR-FIXT
100
AcDbPolyline
 90
       40
 70
   128
 43
0.0
 10
2127.593167822637
 20
2341.555506506272
 10
2127.239533275377
 20
2345.615621790457
 10
2126.564471398924
 20
2349.62939365019
 10
2125.579795072623
 20
2353.570939346918
 10
2124.301269298958
 20
2357.41877602233
 10
2122.747043552757
 20
2361.156491837562
 10
2120.936129856778
 20
2364.772761212913
 10
2118.887144320747
 20
2368.260848563511
 10
2116.617420385534
 20
2371.617802602449
 10
2114.142501856981
 20
2374.843535784079
 10
2111.475957377404
 20
2377.939936519856
 10
2108.629428970645
 20
2380.910103152431
 10
2105.612826682211
 20
2383.757737269688
 10
2102.434596488253
 20
2386.486697883668
 10
2099.102009068031
 20
2389.100697534952
 10
2095.621436264217
 20
2391.603112949947
 10
2091.99859722783
 20
2393.996882108254
 10
2088.238766828673
 20
2396.284462819967
 10
2084.346945537914
 20
2398.467832680069
 10
2080.327993661846
 20
2400.548515117936
 10
2076.18673449101
 20
2402.527620503133
 10
2071.92803139315
 20
2404.40589467186
 10
2067.556843664275
 20
2406.183769813556
 10
2063.078265412253
 20
2407.861414522221
 10
2058.49755109416
 20
2409.438781120029
 10
2053.820130679962
 20
2410.915649241394
 10
2049.051616828569
 20
2412.291665240786
 10
2044.197805960268
 20
2413.566377348418
 10
2039.264674694869
 20
2414.739266712322
 10
2034.258372790456
 20
2415.809774582149
 10
2029.185213452777
 20
2416.777325943523
 10
2024.051661678182
 20
2417.641349925415
 10
2018.864321132651
 20
2418.401297292655
 10
2013.6299199463
 20
2419.056655311548
 10
2008.355295708927
 20
2419.606960245506
 10
2003.047379880959
 20
2420.051807703474
 10
1997.71318178081
 20
2420.390861029417
 10
1992.359772269843
 20
2420.623857887299
 10
1986.994267227112
 20
2420.750615163671
 10
1983.278244810766
 20
2420.776078909652
  0
LINE
  5
18B
330
182
100
AcDbEntity
  8
P-SANR-FIXT
100
AcDbLine
 10
1838.963321798894
 20
2341.555506506272
 30
0.0
 11
1837.046669513625
 21
2300.514575040136
 31
0.0
  0
LINE
  5
18C
330
182
100
AcDbEntity
  8
P-SANR-FIXT
100
AcDbLine
 10
2129.509820107905
 20
2300.514575040136
 30
0.0
 11
2127.593167822637
 21
2341.555506506272
 31
0.0
  0
LINE
  5
18D
330
182
100
AcDbEntity
  8
P-SANR-FIXT
100
AcDbLine
 10
1812.572332858592
 20
2258.920945809811
 30
0.0
 11
1809.938520392487
 21
2202.523592076502
 31
0.0
  0
LINE
  5
18E
330
182
100
AcDbEntity
  8
P-SANR-FIXT
100
AcDbLine
 10
2156.617969229043
 20
2202.523592076501
 30
0.0
 11
2153.984156762938
 21
2258.920945809811
 31
0.0
  0
LINE
  5
18F
330
182
100
AcDbEntity
  8
P-SANR-FIXT
100
AcDbLine
 10
1824.677885110444
 20
2196.592588864751
 30
0.0
 11
1823.391194961362
 21
2169.040923582285
 31
0.0
  0
LINE
  5
190
330
182
100
AcDbEntity
  8
P-SANR-FIXT
100
AcDbLine
 10
2143.162860635849
 20
2169.093042908277
 30
0.0
 11
2141.878604511086
 21
2196.592588864751
 31
0.0
  0
LWPOLYLINE
  5
191
330
182
100
AcDbEntity
  8
P-SANR-FIXT
100
AcDbPolyline
 90
       40
 70
   128
 43
0.0
 10
1806.618580860291
 20
2131.434322593591
 10
1806.975615819044
 20
2135.53248138466
 10
1807.660257363837
 20
2139.602246040465
 10
1808.666043752075
 20
2143.627375025826
 10
1809.984271074887
 20
2147.593840380008
 10
1811.604778396597
 20
2151.490168544073
 10
1813.516710454624
 20
2155.307453208264
 10
1815.709149048473
 20
2159.039112368778
 10
1818.171558993535
 20
2162.680490621387
 10
1820.89404459332
 20
2166.228403970025
 10
1823.867445801323
 20
2169.680700958394
 10
1827.083317749147
 20
2173.035884609412
 10
1830.533837624054
 20
2176.29281395542
 10
1834.211675302314
 20
2179.450485913821
 10
1838.109853933739
 20
2182.507888030791
 10
1842.221617057228
 20
2185.463908399266
 10
1846.540311240405
 20
2188.317288672463
 10
1851.059287943761
 20
2191.066607715685
 10
1855.771824996277
 20
2193.710285823019
 10
1860.671066232738
 20
2196.246601851145
 10
1865.749976999842
 20
2198.673717744272
 10
1871.001313005564
 20
2200.989706626045
 10
1876.417600092753
 20
2203.192581922019
 10
1881.991122787498
 20
2205.280325909127
 10
1887.713919798816
 20
2207.250916740265
 10
1893.577784970174
 20
2209.102353432715
 10
1899.574272476169
 20
2210.832678596931
 10
1905.694705308296
 20
2212.439998862903
 10
1911.930186300724
 20
2213.922503068824
 10
1918.271611113828
 20
2215.278478335429
 10
1924.709682725344
 20
2216.506324176477
 10
1931.234927082262
 20
2217.604564802925
 10
1937.837709646472
 20
2218.571859773491
 10
1944.508252628478
 20
2219.407013132558
 10
1951.236652750228
 20
2220.108981161127
 10
1958.01289941342
 20
2220.676878849822
 10
1964.826893176225
 20
2221.109985185987
 10
1971.668464461044
 20
2221.407747330353
 10
1978.527392430362
 20
2221.56978374292
 10
1983.278244810765
 20
2221.602338366895
  0
LWPOLYLINE
  5
192
330
182
100
AcDbEntity
  8
P-SANR-FIXT
100
AcDbPolyline
 90
       40
 70
   128
 43
0.0
 10
2159.937908761238
 20
2131.434322593591
 10
2159.580873802487
 20
2135.532481384659
 10
2158.896232257693
 20
2139.602246040464
 10
2157.890445869455
 20
2143.627375025826
 10
2156.572218546644
 20
2147.593840380008
 10
2154.951711224933
 20
2151.490168544073
 10
2153.039779166905
 20
2155.307453208264
 10
2150.847340573057
 20
2159.039112368778
 10
2148.384930627996
 20
2162.680490621387
 10
2145.662445028211
 20
2166.228403970025
 10
2142.689043820208
 20
2169.680700958394
 10
2139.473171872383
 20
2173.035884609412
 10
2136.022651997476
 20
2176.29281395542
 10
2132.344814319217
 20
2179.450485913821
 10
2128.446635687792
 20
2182.50788803079
 10
2124.334872564304
 20
2185.463908399265
 10
2120.016178381126
 20
2188.317288672462
 10
2115.49720167777
 20
2191.066607715685
 10
2110.784664625254
 20
2193.710285823019
 10
2105.885423388794
 20
2196.246601851145
 10
2100.806512621689
 20
2198.673717744272
 10
2095.555176615968
 20
2200.989706626044
 10
2090.138889528778
 20
2203.192581922019
 10
2084.565366834033
 20
2205.280325909127
 10
2078.842569822715
 20
2207.250916740265
 10
2072.978704651358
 20
2209.102353432715
 10
2066.982217145362
 20
2210.832678596931
 10
2060.861784313235
 20
2212.439998862903
 10
2054.626303320807
 20
2213.922503068824
 10
2048.284878507704
 20
2215.278478335429
 10
2041.846806896187
 20
2216.506324176477
 10
2035.321562539269
 20
2217.604564802925
 10
2028.71877997506
 20
2218.571859773491
 10
2022.048236993053
 20
2219.407013132558
 10
2015.319836871304
 20
2220.108981161127
 10
2008.543590208111
 20
2220.676878849822
 10
2001.729596445306
 20
2221.109985185987
 10
1994.888025160487
 20
2221.407747330353
 10
1988.029097191169
 20
2221.56978374292
 10
1983.278244810766
 20
2221.602338366895
  0
LINE
  5
193
330
182
100
AcDbEntity
  8
P-SANR-FIXT
100
AcDbLine
 10
1806.618580860291
 20
2131.434322593591
 30
0.0
 11
1804.944415943018
 21
2095.585729627138
 31
0.0
  0
LINE
  5
194
330
182
100
AcDbEntity
  8
P-SANR-FIXT
100
AcDbLine
 10
2161.612073678512
 20
2095.585729627139
 30
0.0
 11
2159.937908761238
 21
2131.434322593591
 31
0.0
  0
ARC
  5
195
330
182
100
AcDbEntity
  8
P-SANR-FIXT
100
AcDbCircle
 10
1983.278244810762
 20
1999.982558850011
 30
0.0
 40
124.9999999999982
100
AcDbArc
 50
90.0000000000009
 51
270.0000000000001
  0
ARC
  5
196
330
182
100
AcDbEntity
  8
P-SANR-FIXT
100
AcDbCircle
 10
1983.278244810762
 20
1999.982558850011
 30
0.0
 40
124.9999999999985
100
AcDbArc
 50
270.0000000000002
 51
89.99999999999991
  0
ARC
  5
197
330
182
100
AcDbEntity
  8
P-SANR-FIXT
100
AcDbCircle
 10
1983.278244810762
 20
1999.98255885001
 30
0.0
 40
159.4999999999993
100
AcDbArc
 50
89.99999999999976
 51
269.9999999999993
  0
ARC
  5
198
330
182
100
AcDbEntity
  8
P-SANR-FIXT
100
AcDbCircle
 10
1983.278244810762
 20
1999.98255885001
 30
0.0
 40
159.4999999999993
100
AcDbArc
 50
269.9999999999996
 51
89.99999999999971
  0
ARC
  5
199
330
182
100
AcDbEntity
  8
P-SANR-FIXT
100
AcDbCircle
 10
1983.278244810762
 20
1999.98255885001
 30
0.0
 40
168.1602540378435
100
AcDbArc
 50
89.99999999999976
 51
269.9999999999993
  0
ARC
  5
19A
330
182
100
AcDbEntity
  8
P-SANR-FIXT
100
AcDbCircle
 10
1983.278244810762
 20
1999.98255885001
 30
0.0
 40
168.1602540378437
100
AcDbArc
 50
269.9999999999996
 51
89.99999999999971
  0
ARC
  5
19B
330
182
100
AcDbEntity
  8
P-SANR-FIXT
100
AcDbCircle
 10
1983.278244810762
 20
1999.98255885001
 30
0.0
 40
202.5000000000002
100
AcDbArc
 50
89.99999999999976
 51
269.9999999999993
  0
ARC
  5
19C
330
182
100
AcDbEntity
  8
P-SANR-FIXT
100
AcDbCircle
 10
1983.278244810762
 20
1999.98255885001
 30
0.0
 40
202.5000000000003
100
AcDbArc
 50
269.9999999999996
 51
89.99999999999975
  0
ELLIPSE
  5
19D
330
182
100
AcDbEntity
  8
P-SANR-FIXT
100
AcDbEllipse
 10
1983.278244810762
 20
2414.862943649608
 30
0.0
 11
23.07601433477427
 21
0.0
 31
0.0
210
0.0
220
0.0
230
0.9999999999999998
 40
0.4951115631022311
 41
1.570796326794896
 42
2.680057139005214
  0
ELLIPSE
  5
19E
330
182
100
AcDbEntity
  8
P-SANR-FIXT
100
AcDbEllipse
 10
1983.278244810762
 20
2414.862943649608
 30
0.0
 11
23.0760143347743
 21
0.0
 31
0.0
210
0.0
220
0.0
230
1.0
 40
0.4951115631022335
 41
0.4626488421098772
 42
1.570796326794886
  0
ELLIPSE
  5
19F
330
182
100
AcDbEntity
  8
P-SANR-FIXT
100
AcDbEllipse
 10
1983.278244810762
 20
2256.966692650404
 30
0.0
 11
-170.7515386368922
 21
0.0000000000001621
 31
0.0
210
0.0
220
0.0
230
0.9999999999999998
 40
0.4951115631022465
 41
4.712388980384692
 42
6.283185307179595
  0
ELLIPSE
  5
1A0
330
182
100
AcDbEntity
  8
P-SANR-FIXT
100
AcDbEllipse
 10
1983.278244810762
 20
2256.966692650404
 30
0.0
 11
170.7515386368925
 21
0.0
 31
0.0
210
0.0
220
0.0
230
0.9999999999999998
 40
0.4951115631022459
 41
0.0
 42
1.570796326794896
  0
ELLIPSE
  5
1A1
330
182
100
AcDbEntity
  8
P-SANR-FIXT
100
AcDbEllipse
 10
1983.278244810762
 20
2200.539186848696
 30
0.0
 11
173.3860550746974
 21
0.0
 31
0.0
210
0.0
220
0.0
230
1.0
 40
0.4951115631022469
 41
1.5707963267949
 42
3.527061422988738
  0
ELLIPSE
  5
1A2
330
182
100
AcDbEntity
  8
P-SANR-FIXT
100
AcDbEllipse
 10
1983.278244810762
 20
2200.539186848696
 30
0.0
 11
173.3860550746974
 21
0.0
 31
0.0
210
0.0
220
0.0
230
0.9999999999999998
 40
0.4951115631022452
 41
5.898293584181141
 42
7.853981633974481
  0
ELLIPSE
  5
1A3
330
182
100
AcDbEntity
  8
P-SANR-FIXT
100
AcDbEllipse
 10
1983.278244810762
 20
2200.202138667703
 30
0.0
 11
163.8226422302827
 21
0.0
 31
0.0
210
0.0
220
0.0
230
1.0
 40
0.4951115631022477
 41
1.5707963267949
 42
3.376493781731956
  0
ELLIPSE
  5
1A4
330
182
100
AcDbEntity
  8
P-SANR-FIXT
100
AcDbEllipse
 10
1983.278244810762
 20
2200.202138667703
 30
0.0
 11
163.822642230283
 21
0.0
 31
0.0
210
0.0
220
0.0
230
1.0
 40
0.4951115631022459
 41
6.048284179037433
 42
7.853981633974481
  0
ELLIPSE
  5
1A5
330
182
100
AcDbEntity
  8
P-SANR-FIXT
100
AcDbEllipse
 10
1983.278244810762
 20
2194.776920909946
 30
0.0
 11
158.6427507840607
 21
0.0
 31
0.0
210
0.0
220
0.0
230
1.0
 40
0.495111563102248
 41
1.5707963267949
 42
3.159098080698739
  0
ELLIPSE
  5
1A6
330
182
100
AcDbEntity
  8
P-SANR-FIXT
100
AcDbEllipse
 10
1983.278244810762
 20
2194.776920909946
 30
0.0
 11
158.6427507840606
 21
0.0
 31
0.0
210
0.0
220
0.0
230
1.0
 40
0.4951115631022481
 41
6.26567988007065
 42
7.853981633974481
  0
ARC
  5
1A7
330
182
100
AcDbEntity
  8
P-SANR-FIXT
100
AcDbCircle
 10
1983.278244810762
 20
1999.982558850011
 30
0.0
 40
124.9999999999982
100
AcDbArc
 50
99.53373631443746
 51
101.3996801074556
  0
ARC
  5
1A8
330
182
100
AcDbEntity
  8
P-SANR-FIXT
100
AcDbCircle
 10
1983.278244810762
 20
1999.982558850011
 30
0.0
 40
124.9999999999982
100
AcDbArc
 50
104.3081845850417
 51
106.2852899190644
  0
ARC
  5
1A9
330
182
100
AcDbEntity
  8
P-SANR-FIXT
100
AcDbCircle
 10
1983.278244810762
 20
1999.982558850011
 30
0.0
 40
124.9999999999982
100
AcDbArc
 50
109.091428491929
 51
111.110617397133
  0
ARC
  5
1AA
330
182
100
AcDbEntity
  8
P-SANR-FIXT
100
AcDbCircle
 10
1983.278244810762
 20
1999.982558850011
 30
0.0
 40
124.9999999999982
100
AcDbArc
 50
113.8893826028678
 51
115.9085715080715
  0
ARC
  5
1AB
330
182
100
AcDbEntity
  8
P-SANR-FIXT
100
AcDbCircle
 10
1983.278244810762
 20
1999.982558850011
 30
0.0
 40
124.9999999999983
100
AcDbArc
 50
118.7147100809385
 51
120.6918154149576
  0
ARC
  5
1AC
330
182
100
AcDbEntity
  8
P-SANR-FIXT
100
AcDbCircle
 10
1983.278244810762
 20
1999.982558850011
 30
0.0
 40
124.9999999999982
100
AcDbArc
 50
123.6003198925443
 51
125.4662636855633
  0
ARC
  5
1AD
330
182
100
AcDbEntity
  8
P-SANR-FIXT
100
AcDbCircle
 10
1983.278244810762
 20
1999.982558850011
 30
0.0
 40
124.9999999999983
100
AcDbArc
 50
144.5337363144378
 51
146.3996801074525
  0
ARC
  5
1AE
330
182
100
AcDbEntity
  8
P-SANR-FIXT
100
AcDbCircle
 10
1983.278244810762
 20
1999.982558850011
 30
0.0
 40
124.9999999999982
100
AcDbArc
 50
149.3081845850407
 51
151.2852899190676
  0
ARC
  5
1AF
330
182
100
AcDbEntity
  8
P-SANR-FIXT
100
AcDbCircle
 10
1983.278244810762
 20
1999.982558850011
 30
0.0
 40
124.999999999998
100
AcDbArc
 50
154.0914284919286
 51
156.1106173971312
  0
ARC
  5
1B0
330
182
100
AcDbEntity
  8
P-SANR-FIXT
100
AcDbCircle
 10
1983.278244810762
 20
1999.982558850011
 30
0.0
 40
124.9999999999982
100
AcDbArc
 50
158.8893826028679
 51
160.9085715080725
  0
ARC
  5
1B1
330
182
100
AcDbEntity
  8
P-SANR-FIXT
100
AcDbCircle
 10
1983.278244810762
 20
1999.982558850011
 30
0.0
 40
124.9999999999981
100
AcDbArc
 50
163.7147100809385
 51
165.6918154149573
  0
ARC
  5
1B2
330
182
100
AcDbEntity
  8
P-SANR-FIXT
100
AcDbCircle
 10
1983.278244810762
 20
1999.982558850011
 30
0.0
 40
124.9999999999984
100
AcDbArc
 50
168.6003198925515
 51
170.4662636855608
  0
ARC
  5
1B3
330
182
100
AcDbEntity
  8
P-SANR-FIXT
100
AcDbCircle
 10
1983.278244810762
 20
1999.982558850011
 30
0.0
 40
124.9999999999982
100
AcDbArc
 50
189.5337363144371
 51
191.3996801074543
  0
ARC
  5
1B4
330
182
100
AcDbEntity
  8
P-SANR-FIXT
100
AcDbCircle
 10
1983.278244810762
 20
1999.982558850011
 30
0.0
 40
124.9999999999981
100
AcDbArc
 50
194.3081845850379
 51
196.2852899190722
  0
ARC
  5
1B5
330
182
100
AcDbEntity
  8
P-SANR-FIXT
100
AcDbCircle
 10
1983.278244810762
 20
1999.982558850011
 30
0.0
 40
124.9999999999982
100
AcDbArc
 50
199.0914284919249
 51
201.1106173971366
  0
ARC
  5
1B6
330
182
100
AcDbEntity
  8
P-SANR-FIXT
100
AcDbCircle
 10
1983.278244810762
 20
1999.982558850011
 30
0.0
 40
124.9999999999983
100
AcDbArc
 50
203.8893826028675
 51
205.9085715080715
  0
ARC
  5
1B7
330
182
100
AcDbEntity
  8
P-SANR-FIXT
100
AcDbCircle
 10
1983.278244810762
 20
1999.982558850011
 30
0.0
 40
124.999999999998
100
AcDbArc
 50
208.7147100809318
 51
210.6918154149597
  0
ARC
  5
1B8
330
182
100
AcDbEntity
  8
P-SANR-FIXT
100
AcDbCircle
 10
1983.278244810762
 20
1999.982558850011
 30
0.0
 40
124.9999999999981
100
AcDbArc
 50
213.6003198925486
 51
215.4662636855618
  0
ARC
  5
1B9
330
182
100
AcDbEntity
  8
P-SANR-FIXT
100
AcDbCircle
 10
1983.278244810762
 20
1999.982558850011
 30
0.0
 40
124.9999999999983
100
AcDbArc
 50
234.5337363144381
 51
236.3996801074506
  0
ARC
  5
1BA
330
182
100
AcDbEntity
  8
P-SANR-FIXT
100
AcDbCircle
 10
1983.278244810762
 20
1999.982558850011
 30
0.0
 40
124.9999999999981
100
AcDbArc
 50
239.3081845850415
 51
241.2852899190653
  0
ARC
  5
1BB
330
182
100
AcDbEntity
  8
P-SANR-FIXT
100
AcDbCircle
 10
1983.278244810762
 20
1999.982558850011
 30
0.0
 40
124.9999999999983
100
AcDbArc
 50
244.0914284919274
 51
246.1106173971335
  0
ARC
  5
1BC
330
182
100
AcDbEntity
  8
P-SANR-FIXT
100
AcDbCircle
 10
1983.278244810762
 20
1999.982558850011
 30
0.0
 40
124.9999999999981
100
AcDbArc
 50
248.8893826028658
 51
250.9085715080727
  0
ARC
  5
1BD
330
182
100
AcDbEntity
  8
P-SANR-FIXT
100
AcDbCircle
 10
1983.278244810762
 20
1999.982558850011
 30
0.0
 40
124.9999999999984
100
AcDbArc
 50
253.7147100809347
 51
255.6918154149582
  0
ARC
  5
1BE
330
182
100
AcDbEntity
  8
P-SANR-FIXT
100
AcDbCircle
 10
1983.278244810762
 20
1999.982558850011
 30
0.0
 40
124.9999999999986
100
AcDbArc
 50
258.6003198925501
 51
260.4662636855606
  0
ARC
  5
1BF
330
182
100
AcDbEntity
  8
P-SANR-FIXT
100
AcDbCircle
 10
1983.278244810762
 20
1999.982558850011
 30
0.0
 40
124.9999999999984
100
AcDbArc
 50
279.5337363144389
 51
281.3996801074505
  0
ARC
  5
1C0
330
182
100
AcDbEntity
  8
P-SANR-FIXT
100
AcDbCircle
 10
1983.278244810762
 20
1999.982558850011
 30
0.0
 40
124.9999999999986
100
AcDbArc
 50
284.3081845850399
 51
286.2852899190673
  0
ARC
  5
1C1
330
182
100
AcDbEntity
  8
P-SANR-FIXT
100
AcDbCircle
 10
1983.278244810762
 20
1999.982558850011
 30
0.0
 40
124.9999999999983
100
AcDbArc
 50
289.0914284919247
 51
291.1106173971348
  0
ARC
  5
1C2
330
182
100
AcDbEntity
  8
P-SANR-FIXT
100
AcDbCircle
 10
1983.278244810762
 20
1999.982558850011
 30
0.0
 40
124.9999999999983
100
AcDbArc
 50
293.8893826028675
 51
295.9085715080706
  0
ARC
  5
1C3
330
182
100
AcDbEntity
  8
P-SANR-FIXT
100
AcDbCircle
 10
1983.278244810762
 20
1999.982558850011
 30
0.0
 40
124.9999999999982
100
AcDbArc
 50
298.7147100809324
 51
300.6918154149591
  0
ARC
  5
1C4
330
182
100
AcDbEntity
  8
P-SANR-FIXT
100
AcDbCircle
 10
1983.278244810762
 20
1999.982558850011
 30
0.0
 40
124.9999999999987
100
AcDbArc
 50
303.6003198925452
 51
305.4662636855618
  0
ARC
  5
1C5
330
182
100
AcDbEntity
  8
P-SANR-FIXT
100
AcDbCircle
 10
1983.278244810762
 20
1999.982558850011
 30
0.0
 40
124.9999999999984
100
AcDbArc
 50
324.5337363144363
 51
326.3996801074534
  0
ARC
  5
1C6
330
182
100
AcDbEntity
  8
P-SANR-FIXT
100
AcDbCircle
 10
1983.278244810762
 20
1999.982558850011
 30
0.0
 40
124.9999999999984
100
AcDbArc
 50
329.3081845850377
 51
331.2852899190717
  0
ARC
  5
1C7
330
182
100
AcDbEntity
  8
P-SANR-FIXT
100
AcDbCircle
 10
1983.278244810762
 20
1999.982558850011
 30
0.0
 40
124.9999999999984
100
AcDbArc
 50
334.0914284919273
 51
336.1106173971318
  0
ARC
  5
1C8
330
182
100
AcDbEntity
  8
P-SANR-FIXT
100
AcDbCircle
 10
1983.278244810762
 20
1999.982558850011
 30
0.0
 40
124.9999999999984
100
AcDbArc
 50
338.8893826028644
 51
340.9085715080739
  0
ARC
  5
1C9
330
182
100
AcDbEntity
  8
P-SANR-FIXT
100
AcDbCircle
 10
1983.278244810762
 20
1999.982558850011
 30
0.0
 40
124.9999999999985
100
AcDbArc
 50
343.7147100809362
 51
345.6918154149566
  0
ARC
  5
1CA
330
182
100
AcDbEntity
  8
P-SANR-FIXT
100
AcDbCircle
 10
1983.278244810762
 20
1999.982558850011
 30
0.0
 40
124.9999999999984
100
AcDbArc
 50
348.6003198925381
 51
350.4662636855646
  0
ARC
  5
1CB
330
182
100
AcDbEntity
  8
P-SANR-FIXT
100
AcDbCircle
 10
1983.278244810762
 20
1999.982558850011
 30
0.0
 40
124.9999999999984
100
AcDbArc
 50
9.533736314436707
 51
11.39968010745566
  0
ARC
  5
1CC
330
182
100
AcDbEntity
  8
P-SANR-FIXT
100
AcDbCircle
 10
1983.278244810762
 20
1999.982558850011
 30
0.0
 40
124.999999999998
100
AcDbArc
 50
14.3081845850402
 51
16.28528991906676
  0
ARC
  5
1CD
330
182
100
AcDbEntity
  8
P-SANR-FIXT
100
AcDbCircle
 10
1983.278244810762
 20
1999.982558850011
 30
0.0
 40
124.9999999999982
100
AcDbArc
 50
19.09142849192828
 51
21.1106173971321
  0
ARC
  5
1CE
330
182
100
AcDbEntity
  8
P-SANR-FIXT
100
AcDbCircle
 10
1983.278244810762
 20
1999.982558850011
 30
0.0
 40
124.9999999999982
100
AcDbArc
 50
23.88938260286694
 51
25.90857150807087
  0
ARC
  5
1CF
330
182
100
AcDbEntity
  8
P-SANR-FIXT
100
AcDbCircle
 10
1983.278244810762
 20
1999.982558850011
 30
0.0
 40
124.999999999998
100
AcDbArc
 50
28.71471008093273
 51
30.69181541495873
  0
ARC
  5
1D0
330
182
100
AcDbEntity
  8
P-SANR-FIXT
100
AcDbCircle
 10
1983.278244810762
 20
1999.982558850011
 30
0.0
 40
124.9999999999981
100
AcDbArc
 50
33.60031989255065
 51
35.46626368556015
  0
ARC
  5
1D1
330
182
100
AcDbEntity
  8
P-SANR-FIXT
100
AcDbCircle
 10
1983.278244810762
 20
1999.982558850011
 30
0.0
 40
124.9999999999981
100
AcDbArc
 50
54.53373631443763
 51
56.399680107451
  0
ARC
  5
1D2
330
182
100
AcDbEntity
  8
P-SANR-FIXT
100
AcDbCircle
 10
1983.278244810762
 20
1999.982558850011
 30
0.0
 40
124.999999999998
100
AcDbArc
 50
59.30818458504091
 51
61.28528991906591
  0
ARC
  5
1D3
330
182
100
AcDbEntity
  8
P-SANR-FIXT
100
AcDbCircle
 10
1983.278244810762
 20
1999.982558850011
 30
0.0
 40
124.9999999999981
100
AcDbArc
 50
64.09142849192957
 51
66.11061739713014
  0
ARC
  5
1D4
330
182
100
AcDbEntity
  8
P-SANR-FIXT
100
AcDbCircle
 10
1983.278244810762
 20
1999.982558850011
 30
0.0
 40
124.9999999999978
100
AcDbArc
 50
68.88938260286941
 51
70.90857150806948
  0
ARC
  5
1D5
330
182
100
AcDbEntity
  8
P-SANR-FIXT
100
AcDbCircle
 10
1983.278244810762
 20
1999.982558850011
 30
0.0
 40
124.9999999999981
100
AcDbArc
 50
73.71471008093516
 51
75.69181541495822
  0
ARC
  5
1D6
330
182
100
AcDbEntity
  8
P-SANR-FIXT
100
AcDbCircle
 10
1983.278244810762
 20
1999.982558850011
 30
0.0
 40
124.9999999999981
100
AcDbArc
 50
78.60031989254643
 51
80.46626368556204
  0
ENDBLK
  5
1D8
330
182
100
AcDbEntity
  8
0
100
AcDbBlockEnd
  0
ENDSEC
  0
SECTION
  2
ENTITIES
  0
INSERT
  5
FE
330
71
100
AcDbEntity
  8
P-SANR-FIXT
100
AcDbBlockReference
  2
Automatic flow rate regulator valve_Caleffi_121 DN15 - 1_2__-859151-Est - Idraulica
 10
0.0
 20
0.0
 30
0.0
1001
REVIT
1002
{
1070
     1
1000
863131
1002
}
1002
{
1070
     5
1000
859151
1002
}
1002
{
1070
     2
1000
-2001160
1002
}
  0
INSERT
  5
181
330
71
100
AcDbEntity
  8
P-SANR-FIXT
100
AcDbBlockReference
  2
Automatic flow rate regulator valve_Caleffi_121 DN15 - 1_2__-V1-Est - Idraulica
 10
0.0
 20
0.0
 30
0.0
1001
REVIT
1002
{
1070
     1
1000
863152
1002
}
1002
{
1070
     5
1000
859151
1002
}
1002
{
1070
     2
1000
-2001160
1002
}
  0
INSERT
  5
1D9
330
71
100
AcDbEntity
  8
P-SANR-FIXT
100
AcDbBlockReference
  2
Automatic flow rate regulator valve_Caleffi_121 DN15 - 1_2__-V2-Est - Idraulica
 10
0.0
 20
0.0
 30
0.0
1001
REVIT
1002
{
1070
     1
1000
863172
1002
}
1002
{
1070
     5
1000
859151
1002
}
1002
{
1070
     2
1000
-2001160
1002
}
  0
ENDSEC
  0
SECTION
  2
OBJECTS
  0
DICTIONARY
  5
C
330
0
100
AcDbDictionary
281
     1
  3
ACAD_CIP_PREVIOUS_PRODUCT_INFO
350
7A
  3
ACAD_COLOR
350
63
  3
ACAD_DETAILVIEWSTYLE
350
6B
  3
ACAD_GROUP
350
D
  3
ACAD_IMAGE_VARS
350
7B
  3
ACAD_LAYOUT
350
62
  3
ACAD_MATERIAL
350
10
  3
ACAD_MLEADERSTYLE
350
66
  3
ACAD_MLINESTYLE
350
5F
  3
ACAD_PLOTSETTINGS
350
61
  3
ACAD_PLOTSTYLENAME
350
E
  3
ACAD_SCALELIST
350
42
  3
ACAD_SECTIONVIEWSTYLE
350
68
  3
ACAD_TABLESTYLE
350
64
  3
ACAD_VISUALSTYLE
350
29
  3
ACDB_RECOMPOSE_DATA
350
1E3
  3
AcDbVariableDictionary
350
7C
  3
REVIT_DICTIONARY
350
1DB
  0
DICTIONARY
  5
1DF
330
71
100
AcDbDictionary
280
     1
281
     1
  3
ACAD_SORTENTS
360
1E0
  0
XRECORD
  5
7A
102
{ACAD_REACTORS
330
C
102
}
330
C
100
AcDbXrecord
280
     1
300
RVT
300
2013
300
RVT2013
  0
DICTIONARY
  5
63
102
{ACAD_REACTORS
330
C
102
}
330
C
100
AcDbDictionary
281
     1
  0
DICTIONARY
  5
6B
102
{ACAD_REACTORS
330
C
102
}
330
C
100
AcDbDictionary
281
     1
  3
Imperial24
350
6C
  0
DICTIONARY
  5
D
102
{ACAD_REACTORS
330
C
102
}
330
C
100
AcDbDictionary
281
     1
  0
RASTERVARIABLES
  5
7B
102
{ACAD_REACTORS
330
C
102
}
330
C
100
AcDbRasterVariables
 90
        0
 70
     0
 71
     1
 72
     1
  0
DICTIONARY
  5
62
102
{ACAD_REACTORS
330
C
102
}
330
C
100
AcDbDictionary
281
     1
  3
Layout1
350
70
  3
Layout2
350
78
  3
Model
350
74
  0
DICTIONARY
  5
10
102
{ACAD_REACTORS
330
C
102
}
330
C
100
AcDbDictionary
281
     1
  3
ByBlock
350
19
  3
ByLayer
350
11
  3
Global
350
21
  0
DICTIONARY
  5
66
102
{ACAD_REACTORS
330
C
102
}
330
C
100
AcDbDictionary
281
     1
  3
Standard
350
67
  0
DICTIONARY
  5
5F
102
{ACAD_REACTORS
330
C
102
}
330
C
100
AcDbDictionary
281
     1
  3
Standard
350
60
  0
DICTIONARY
  5
61
102
{ACAD_REACTORS
330
C
102
}
330
C
100
AcDbDictionary
281
     1
  0
ACDBDICTIONARYWDFLT
  5
E
102
{ACAD_REACTORS
330
C
102
}
330
C
100
AcDbDictionary
281
     1
  3
Normal
350
F
100
AcDbDictionaryWithDefault
340
F
  0
DICTIONARY
  5
42
102
{ACAD_REACTORS
330
C
102
}
330
C
100
AcDbDictionary
281
     1
  3
A0
350
43
  3
A1
350
44
  3
A2
350
45
  3
A3
350
46
  3
A4
350
47
  3
A5
350
48
  3
A6
350
49
  3
A7
350
4A
  3
A8
350
4B
  3
A9
350
4C
  3
B0
350
4D
  3
B1
350
4E
  3
B2
350
4F
  3
B3
350
50
  3
B4
350
51
  3
B5
350
52
  3
B6
350
53
  0
DICTIONARY
  5
68
102
{ACAD_REACTORS
330
C
102
}
330
C
100
AcDbDictionary
281
     1
  3
Imperial24
350
6A
  0
DICTIONARY
  5
64
102
{ACAD_REACTORS
330
C
102
}
330
C
100
AcDbDictionary
281
     1
  3
Standard
350
65
  0
DICTIONARY
  5
29
102
{ACAD_REACTORS
330
C
102
}
330
C
100
AcDbDictionary
281
     1
  3
2dWireframe
350
2F
  3
Basic
350
2E
  3
Brighten
350
35
  3
ColorChange
350
39
  3
Conceptual
350
32
  3
Dim
350
34
  3
EdgeColorOff
350
41
  3
Facepattern
350
38
  3
Flat
350
2A
  3
FlatWithEdges
350
2B
  3
Gouraud
350
2C
  3
GouraudWithEdges
350
2D
  3
Hidden
350
31
  3
JitterOff
350
3F
  3
Linepattern
350
37
  3
OverhangOff
350
40
  3
Realistic
350
33
  3
Shaded
350
3E
  3
Shaded with edges
350
3D
  3
Shades of Gray
350
3A
  3
Sketchy
350
3B
  3
Thicken
350
36
  3
Wireframe
350
30
  3
X-Ray
350
3C
  0
XRECORD
  5
1E3
102
{ACAD_REACTORS
330
C
102
}
330
C
100
AcDbXrecord
280
     1
 90
        1
330
65
  0
DICTIONARY
  5
7C
102
{ACAD_REACTORS
330
C
102
}
330
C
100
AcDbDictionary
281
     1
  3
CANNOSCALE
350
81
  3
CMLEADERSTYLE
350
7E
  3
CTABLESTYLE
350
7D
  3
CVIEWDETAILSTYLE
350
7F
  3
CVIEWSECTIONSTYLE
350
80
  0
DICTIONARY
  5
1DB
102
{ACAD_REACTORS
330
C
102
}
330
C
100
AcDbDictionary
281
     1
  3
DRAWING_TOOL
350
1DE
  3
REVIT_CATEGORY_MAPPING
350
1DD
  3
REVIT_TYPE_MAPPING
350
1DC
  0
SORTENTSTABLE
  5
1E0
102
{ACAD_REACTORS
330
1DF
102
}
330
1DF
100
AcDbSortentsTable
330
71
  0
ACDBDETAILVIEWSTYLE
  5
6C
102
{ACAD_REACTORS
330
6B
102
}
330
6B
100
AcDbModelDocViewStyle
 70
     0
  3
Imperial24
290
     1
100
AcDbDetailViewStyle
 70
     0
 71
     0
 90
        3
 71
     1
340
55
 62
   256
 40
0.24
340
0
 62
   256
 40
0.24
300

 40
0.36
280
     3
 71
     2
340
5D
 90
       25
 62
   256
 71
     3
340
55
 62
   256
 40
0.24
 90
        1
 40
0.75
 90
        1
300
%<\AcVar ViewType \f "%tc1">% %<\AcVar ViewDetailId>%\PSCALA %<\AcVar ViewScale \f "%sn">%
 71
     4
340
5D
 90
       25
 62
   256
340
5D
 90
       25
 62
   256
280
     0
  0
LAYOUT
  5
70
102
{ACAD_REACTORS
330
62
102
}
330
62
100
AcDbPlotSettings
  1

  2

  4

  6

 40
0.0
 41
0.0
 42
0.0
 43
0.0
 44
0.0
 45
0.0
 46
0.0
 47
0.0
 48
0.0
 49
0.0
140
0.0
141
0.0
142
1.0
143
1.0
 70
   688
 72
     0
 73
     0
 74
     5
  7

 75
    16
147
1.0
 76
     0
 77
     2
 78
   300
148
0.0
149
0.0
100
AcDbLayout
  1
Layout1
 70
     1
 71
     1
 10
0.0
 20
0.0
 11
12.0
 21
9.0
 12
0.0
 22
0.0
 32
0.0
 14
0.0
 24
0.0
 34
0.0
 15
0.0
 25
0.0
 35
0.0
146
0.0
 13
0.0
 23
0.0
 33
0.0
 16
1.0
 26
0.0
 36
0.0
 17
0.0
 27
1.0
 37
0.0
 76
     0
330
6D
  0
LAYOUT
  5
78
102
{ACAD_REACTORS
330
62
102
}
330
62
100
AcDbPlotSettings
  1

  2

  4

  6

 40
0.0
 41
0.0
 42
0.0
 43
0.0
 44
0.0
 45
0.0
 46
0.0
 47
0.0
 48
0.0
 49
0.0
140
0.0
141
0.0
142
1.0
143
1.0
 70
   688
 72
     0
 73
     0
 74
     5
  7

 75
    16
147
1.0
 76
     0
 77
     2
 78
   300
148
0.0
149
0.0
100
AcDbLayout
  1
Layout2
 70
     1
 71
     2
 10
0.0
 20
0.0
 11
12.0
 21
9.0
 12
0.0
 22
0.0
 32
0.0
 14
0.0
 24
0.0
 34
0.0
 15
0.0
 25
0.0
 35
0.0
146
0.0
 13
0.0
 23
0.0
 33
0.0
 16
1.0
 26
0.0
 36
0.0
 17
0.0
 27
1.0
 37
0.0
 76
     0
330
75
  0
LAYOUT
  5
74
102
{ACAD_REACTORS
330
62
102
}
330
62
100
AcDbPlotSettings
  1

  2

  4

  6

 40
0.0
 41
0.0
 42
0.0
 43
0.0
 44
0.0
 45
0.0
 46
0.0
 47
0.0
 48
0.0
 49
0.0
140
0.0
141
0.0
142
1.0
143
1.0
 70
  1712
 72
     0
 73
     0
 74
     0
  7

 75
     0
147
1.0
 76
     0
 77
     2
 78
   300
148
0.0
149
0.0
100
AcDbLayout
  1
Model
 70
     1
 71
     0
 10
0.0
 20
0.0
 11
12.0
 21
9.0
 12
0.0
 22
0.0
 32
0.0
 14
0.0
 24
0.0
 34
0.0
 15
0.0
 25
0.0
 35
0.0
146
0.0
 13
0.0
 23
0.0
 33
0.0
 16
1.0
 26
0.0
 36
0.0
 17
0.0
 27
1.0
 37
0.0
 76
     0
330
71
  0
MATERIAL
  5
19
102
{ACAD_XDICTIONARY
360
1A
102
}
102
{ACAD_REACTORS
330
10
102
}
330
10
100
AcDbMaterial
  1
ByBlock
 72
     0
 43
0.0208333333333333
 43
0.0
 43
0.0
 43
0.0
 43
0.0
 43
0.0208333333333333
 43
0.0
 43
0.0
 43
0.0
 43
0.0
 43
1.0
 43
0.0
 43
0.0
 43
0.0
 43
0.0
 43
1.0
 77
     0
 47
0.0208333333333333
 47
0.0
 47
0.0
 47
0.0
 47
0.0
 47
0.0208333333333333
 47
0.0
 47
0.0
 47
0.0
 47
0.0
 47
1.0
 47
0.0
 47
0.0
 47
0.0
 47
0.0
 47
1.0
171
     0
 49
0.0208333333333333
 49
0.0
 49
0.0
 49
0.0
 49
0.0
 49
0.0208333333333333
 49
0.0
 49
0.0
 49
0.0
 49
0.0
 49
1.0
 49
0.0
 49
0.0
 49
0.0
 49
0.0
 49
1.0
175
     0
142
0.0208333333333333
142
0.0
142
0.0
142
0.0
142
0.0
142
0.0208333333333333
142
0.0
142
0.0
142
0.0
142
0.0
142
1.0
142
0.0
142
0.0
142
0.0
142
0.0
142
1.0
179
     0
144
0.0208333333333333
144
0.0
144
0.0
144
0.0
144
0.0
144
0.0208333333333333
144
0.0
144
0.0
144
0.0
144
0.0
144
1.0
144
0.0
144
0.0
144
0.0
144
0.0
144
1.0
147
0.0208333333333333
147
0.0
147
0.0
147
0.0
147
0.0
147
0.0208333333333333
147
0.0
147
0.0
147
0.0
147
0.0
147
1.0
147
0.0
147
0.0
147
0.0
147
0.0
147
1.0
  0
MATERIAL
  5
11
102
{ACAD_XDICTIONARY
360
12
102
}
102
{ACAD_REACTORS
330
10
102
}
330
10
100
AcDbMaterial
  1
ByLayer
 72
     0
 43
0.0208333333333333
 43
0.0
 43
0.0
 43
0.0
 43
0.0
 43
0.0208333333333333
 43
0.0
 43
0.0
 43
0.0
 43
0.0
 43
1.0
 43
0.0
 43
0.0
 43
0.0
 43
0.0
 43
1.0
 77
     0
 47
0.0208333333333333
 47
0.0
 47
0.0
 47
0.0
 47
0.0
 47
0.0208333333333333
 47
0.0
 47
0.0
 47
0.0
 47
0.0
 47
1.0
 47
0.0
 47
0.0
 47
0.0
 47
0.0
 47
1.0
171
     0
 49
0.0208333333333333
 49
0.0
 49
0.0
 49
0.0
 49
0.0
 49
0.0208333333333333
 49
0.0
 49
0.0
 49
0.0
 49
0.0
 49
1.0
 49
0.0
 49
0.0
 49
0.0
 49
0.0
 49
1.0
175
     0
142
0.0208333333333333
142
0.0
142
0.0
142
0.0
142
0.0
142
0.0208333333333333
142
0.0
142
0.0
142
0.0
142
0.0
142
1.0
142
0.0
142
0.0
142
0.0
142
0.0
142
1.0
179
     0
144
0.0208333333333333
144
0.0
144
0.0
144
0.0
144
0.0
144
0.0208333333333333
144
0.0
144
0.0
144
0.0
144
0.0
144
1.0
144
0.0
144
0.0
144
0.0
144
0.0
144
1.0
147
0.0208333333333333
147
0.0
147
0.0
147
0.0
147
0.0
147
0.0208333333333333
147
0.0
147
0.0
147
0.0
147
0.0
147
1.0
147
0.0
147
0.0
147
0.0
147
0.0
147
1.0
  0
MATERIAL
  5
21
102
{ACAD_XDICTIONARY
360
22
102
}
102
{ACAD_REACTORS
330
10
102
}
330
10
100
AcDbMaterial
  1
Global
 72
     0
 43
0.0208333333333333
 43
0.0
 43
0.0
 43
0.0
 43
0.0
 43
0.0208333333333333
 43
0.0
 43
0.0
 43
0.0
 43
0.0
 43
1.0
 43
0.0
 43
0.0
 43
0.0
 43
0.0
 43
1.0
 77
     0
 47
0.0208333333333333
 47
0.0
 47
0.0
 47
0.0
 47
0.0
 47
0.0208333333333333
 47
0.0
 47
0.0
 47
0.0
 47
0.0
 47
1.0
 47
0.0
 47
0.0
 47
0.0
 47
0.0
 47
1.0
171
     0
 49
0.0208333333333333
 49
0.0
 49
0.0
 49
0.0
 49
0.0
 49
0.0208333333333333
 49
0.0
 49
0.0
 49
0.0
 49
0.0
 49
1.0
 49
0.0
 49
0.0
 49
0.0
 49
0.0
 49
1.0
175
     0
142
0.0208333333333333
142
0.0
142
0.0
142
0.0
142
0.0
142
0.0208333333333333
142
0.0
142
0.0
142
0.0
142
0.0
142
1.0
142
0.0
142
0.0
142
0.0
142
0.0
142
1.0
179
     0
144
0.0208333333333333
144
0.0
144
0.0
144
0.0
144
0.0
144
0.0208333333333333
144
0.0
144
0.0
144
0.0
144
0.0
144
1.0
144
0.0
144
0.0
144
0.0
144
0.0
144
1.0
147
0.0208333333333333
147
0.0
147
0.0
147
0.0
147
0.0
147
0.0208333333333333
147
0.0
147
0.0
147
0.0
147
0.0
147
1.0
147
0.0
147
0.0
147
0.0
147
0.0
147
1.0
  0
MLEADERSTYLE
  5
67
102
{ACAD_REACTORS
330
66
102
}
330
66
100
AcDbMLeaderStyle
179
     2
170
     2
171
     1
172
     0
 90
        2
 40
0.0
 41
0.0
173
     1
 91
-1056964608
340
5B
 92
       -2
290
     1
 42
0.09
291
     1
 43
0.36
  3
Standard
 44
0.18
300

342
55
174
     1
178
     6
175
     1
176
     0
 93
-1056964608
 45
0.18
292
     0
297
     0
 46
0.18
 94
-1056964608
 47
1.0
 49
1.0
140
1.0
293
     1
141
0.0
294
     1
177
     0
142
1.0
295
     1
296
     0
143
0.125
271
     0
272
     9
273
     9
298
     1
  0
MLINESTYLE
  5
60
102
{ACAD_REACTORS
330
5F
102
}
330
5F
100
AcDbMlineStyle
  2
STANDARD
 70
     0
  3

 62
   256
 51
90.0
 52
90.0
 71
     2
 49
0.5
 62
   256
  6
BYLAYER
 49
-0.5
 62
   256
  6
BYLAYER
  0
ACDBPLACEHOLDER
  5
F
102
{ACAD_REACTORS
330
E
102
}
330
E
  0
SCALE
  5
43
102
{ACAD_REACTORS
330
42
102
}
330
42
100
AcDbScale
 70
     0
300
1:1
140
1.0
141
1.0
290
     1
  0
SCALE
  5
44
102
{ACAD_REACTORS
330
42
102
}
330
42
100
AcDbScale
 70
     0
300
1/128" = 1'-0"
140
0.0078125
141
12.0
290
     0
  0
SCALE
  5
45
102
{ACAD_REACTORS
330
42
102
}
330
42
100
AcDbScale
 70
     0
300
1/64" = 1'-0"
140
0.015625
141
12.0
290
     0
  0
SCALE
  5
46
102
{ACAD_REACTORS
330
42
102
}
330
42
100
AcDbScale
 70
     0
300
1/32" = 1'-0"
140
0.03125
141
12.0
290
     0
  0
SCALE
  5
47
102
{ACAD_REACTORS
330
42
102
}
330
42
100
AcDbScale
 70
     0
300
1/16" = 1'-0"
140
0.0625
141
12.0
290
     0
  0
SCALE
  5
48
102
{ACAD_REACTORS
330
42
102
}
330
42
100
AcDbScale
 70
     0
300
3/32" = 1'-0"
140
0.09375
141
12.0
290
     0
  0
SCALE
  5
49
102
{ACAD_REACTORS
330
42
102
}
330
42
100
AcDbScale
 70
     0
300
1/8" = 1'-0"
140
0.125
141
12.0
290
     0
  0
SCALE
  5
4A
102
{ACAD_REACTORS
330
42
102
}
330
42
100
AcDbScale
 70
     0
300
3/16" = 1'-0"
140
0.1875
141
12.0
290
     0
  0
SCALE
  5
4B
102
{ACAD_REACTORS
330
42
102
}
330
42
100
AcDbScale
 70
     0
300
1/4" = 1'-0"
140
0.25
141
12.0
290
     0
  0
SCALE
  5
4C
102
{ACAD_REACTORS
330
42
102
}
330
42
100
AcDbScale
 70
     0
300
3/8" = 1'-0"
140
0.375
141
12.0
290
     0
  0
SCALE
  5
4D
102
{ACAD_REACTORS
330
42
102
}
330
42
100
AcDbScale
 70
     0
300
1/2" = 1'-0"
140
0.5
141
12.0
290
     0
  0
SCALE
  5
4E
102
{ACAD_REACTORS
330
42
102
}
330
42
100
AcDbScale
 70
     0
300
3/4" = 1'-0"
140
0.75
141
12.0
290
     0
  0
SCALE
  5
4F
102
{ACAD_REACTORS
330
42
102
}
330
42
100
AcDbScale
 70
     0
300
1" = 1'-0"
140
1.0
141
12.0
290
     0
  0
SCALE
  5
50
102
{ACAD_REACTORS
330
42
102
}
330
42
100
AcDbScale
 70
     0
300
1-1/2" = 1'-0"
140
1.5
141
12.0
290
     0
  0
SCALE
  5
51
102
{ACAD_REACTORS
330
42
102
}
330
42
100
AcDbScale
 70
     0
300
3" = 1'-0"
140
3.0
141
12.0
290
     0
  0
SCALE
  5
52
102
{ACAD_REACTORS
330
42
102
}
330
42
100
AcDbScale
 70
     0
300
6" = 1'-0"
140
6.0
141
12.0
290
     0
  0
SCALE
  5
53
102
{ACAD_REACTORS
330
42
102
}
330
42
100
AcDbScale
 70
     0
300
1'-0" = 1'-0"
140
12.0
141
12.0
290
     0
  0
ACDBSECTIONVIEWSTYLE
  5
6A
102
{ACAD_REACTORS
330
68
102
}
330
68
100
AcDbModelDocViewStyle
 70
     0
  3
Imperial24
290
     1
100
AcDbSectionViewStyle
 70
     0
 71
     0
 90
       78
 71
     1
340
55
 62
   256
 40
0.24
340
0
340
0
 62
   256
 40
0.24
300
I, O, Q, S, X, Z
 40
0.48
 90
        3
 40
0.18
 90
        1
 71
     2
340
69
 90
       25
 62
   256
340
5D
 90
       50
 62
   256
 40
0.24
 40
0.0
 40
0.24
 71
     3
340
55
 62
   256
 40
0.24
 90
        1
 40
0.75
 90
        1
300
%<\AcVar ViewType \f "%tc1">% %<\AcVar ViewSectionStartId>%-%<\AcVar ViewSectionEndId>%\PSCALA %<\AcVar ViewScale \f "%sn">%
 71
     4
 62
   256
 62
   257
300
ANSI31
 40
1.0
 90
        0
290
     0
290
     0
 90
        6
 40
0.0
 40
1.570796326794896
 40
0.2617993877991494
 40
1.308996938995747
 40
-0.2617993877991494
 40
1.832595714594046
  0
TABLESTYLE
  5
65
102
{ACAD_XDICTIONARY
360
1E1
102
}
102
{ACAD_REACTORS
330
64
102
}
330
64
100
AcDbTableStyle
280
     0
  3
Standard
 70
     0
 71
     0
 40
0.06
 41
0.06
280
     0
281
     0
  7
Standard
140
0.18
170
     2
 62
     0
 63
     7
283
     0
 90
      512
 91
        0
  1

274
    -2
284
     1
 64
     0
275
    -2
285
     1
 65
     0
276
    -2
286
     1
 66
     0
277
    -2
287
     1
 67
     0
278
    -2
288
     1
 68
     0
279
    -2
289
     1
 69
     0
  7
Standard
140
0.25
170
     5
 62
     0
 63
     7
283
     0
 90
      512
 91
        0
  1

274
    -2
284
     1
 64
     0
275
    -2
285
     1
 65
     0
276
    -2
286
     1
 66
     0
277
    -2
287
     1
 67
     0
278
    -2
288
     1
 68
     0
279
    -2
289
     1
 69
     0
  7
Standard
140
0.18
170
     5
 62
     0
 63
     7
283
     0
 90
      512
 91
        0
  1

274
    -2
284
     1
 64
     0
275
    -2
285
     1
 65
     0
276
    -2
286
     1
 66
     0
277
    -2
287
     1
 67
     0
278
    -2
288
     1
 68
     0
279
    -2
289
     1
 69
     0
  0
VISUALSTYLE
  5
2F
102
{ACAD_REACTORS
330
29
102
}
330
29
100
AcDbVisualStyle
  2
2dWireframe
 70
     4
177
     3
291
     0
 70
    58
 90
        0
176
     1
 90
        2
176
     1
 90
        0
176
     1
 90
        0
176
     1
 40
0.6
176
     1
 40
30.0
176
     1
 62
     7
420
 16777215
176
     1
 90
        1
176
     1
 90
        4
176
     1
 62
     7
176
     1
 62
   257
176
     1
 90
        1
176
     1
 90
        1
176
     1
 40
1.0
176
     1
 90
        0
176
     1
 62
   257
176
     1
 40
1.0
176
     1
 90
        1
176
     1
 90
        6
176
     1
 90
        2
176
     1
 62
     7
176
     1
 90
        5
176
     1
 90
        0
176
     1
 90
        0
176
     1
290
     0
176
     1
 90
        1
176
     1
 40
0.0
176
     1
 90
        0
176
     1
290
     1
176
     1
290
     1
176
     1
290
     0
176
     1
290
     0
176
     1
290
     0
176
     1
290
     0
176
     1
290
     0
176
     1
290
     0
176
     1
290
     0
176
     1
 90
       50
176
     1
 40
0.0
176
     1
 40
1.0
176
     1
 90
        0
176
     1
 62
    18
420
        0
176
     1
 90
       50
176
     1
 90
        3
176
     1
 62
     5
420
      255
176
     1
290
     0
176
     1
 90
       50
176
     1
 90
       50
176
     1
 90
       50
176
     1
290
     0
176
     1
 90
       50
176
     1
 62
   256
176
     0
 40
1.0
176
     0
 90
        2
176
     1
  1
strokes_ogs.tif
176
     1
290
     0
176
     1
 40
1.0
176
     1
 40
1.0
176
     1
  0
VISUALSTYLE
  5
2E
102
{ACAD_REACTORS
330
29
102
}
330
29
100
AcDbVisualStyle
  2
Basic
 70
     7
177
     3
291
     1
 70
    58
 90
        1
176
     1
 90
        0
176
     1
 90
        1
176
     1
 90
        0
176
     1
 40
0.6
176
     1
 40
30.0
176
     1
 62
     7
420
 16777215
176
     1
 90
        0
176
     1
 90
        4
176
     1
 62
     7
176
     1
 62
   257
176
     1
 90
        1
176
     1
 90
        1
176
     1
 40
1.0
176
     1
 90
        8
176
     1
 62
     7
176
     1
 40
1.0
176
     1
 90
        1
176
     1
 90
        6
176
     1
 90
        2
176
     1
 62
     7
176
     1
 90
        5
176
     1
 90
        0
176
     1
 90
        0
176
     1
290
     0
176
     1
 90
        1
176
     1
 40
0.0
176
     1
 90
        0
176
     1
290
     0
176
     1
290
     1
176
     1
290
     1
176
     1
290
     0
176
     1
290
     0
176
     1
290
     0
176
     1
290
     0
176
     1
290
     0
176
     1
290
     0
176
     1
 90
       50
176
     1
 40
0.0
176
     1
 40
1.0
176
     1
 90
        0
176
     1
 62
    18
420
        0
176
     1
 90
       50
176
     1
 90
        3
176
     1
 62
     5
420
      255
176
     1
290
     0
176
     1
 90
       50
176
     1
 90
       50
176
     1
 90
       50
176
     1
290
     0
176
     1
 90
       50
176
     1
 62
   256
176
     0
 40
1.0
176
     0
 90
        2
176
     1
  1
strokes_ogs.tif
176
     1
290
     0
176
     1
 40
1.0
176
     1
 40
1.0
176
     1
  0
VISUALSTYLE
  5
35
102
{ACAD_REACTORS
330
29
102
}
330
29
100
AcDbVisualStyle
  2
Brighten
 70
    12
177
     3
291
     1
 70
    58
 90
        2
176
     1
 90
        2
176
     1
 90
        0
176
     1
 90
        0
176
     1
 40
0.6
176
     1
 40
30.0
176
     1
 62
     7
420
 16777215
176
     1
 90
        1
176
     1
 90
        4
176
     1
 62
     7
176
     1
 62
   257
176
     1
 90
        1
176
     1
 90
        1
176
     1
 40
1.0
176
     1
 90
        8
176
     1
 62
     7
176
     1
 40
1.0
176
     1
 90
        1
176
     1
 90
        6
176
     1
 90
        2
176
     1
 62
     7
176
     1
 90
        5
176
     1
 90
        0
176
     1
 90
        0
176
     1
290
     0
176
     1
 90
        1
176
     1
 40
50.0
176
     1
 90
        0
176
     1
290
     0
176
     1
290
     1
176
     1
290
     1
176
     1
290
     0
176
     1
290
     0
176
     1
290
     0
176
     1
290
     0
176
     1
290
     0
176
     1
290
     0
176
     1
 90
       50
176
     1
 40
0.0
176
     1
 40
1.0
176
     1
 90
        0
176
     1
 62
    18
420
        0
176
     1
 90
       50
176
     1
 90
        3
176
     1
 62
     5
420
      255
176
     1
290
     0
176
     1
 90
       50
176
     1
 90
       50
176
     1
 90
       50
176
     1
290
     0
176
     1
 90
       50
176
     1
 62
   256
176
     0
 40
1.0
176
     0
 90
        2
176
     1
  1
strokes_ogs.tif
176
     1
290
     0
176
     1
 40
1.0
176
     1
 40
1.0
176
     1
  0
VISUALSTYLE
  5
39
102
{ACAD_REACTORS
330
29
102
}
330
29
100
AcDbVisualStyle
  2
ColorChange
 70
    16
177
     3
291
     1
 70
    58
 90
        2
176
     1
 90
        2
176
     1
 90
        3
176
     1
 90
        0
176
     1
 40
0.6
176
     1
 40
30.0
176
     1
 62
     8
420
  8421504
176
     1
 90
        1
176
     1
 90
        4
176
     1
 62
     7
176
     1
 62
   257
176
     1
 90
        1
176
     1
 90
        1
176
     1
 40
1.0
176
     1
 90
        8
176
     1
 62
     8
420
  8421504
176
     1
 40
1.0
176
     1
 90
        1
176
     1
 90
        6
176
     1
 90
        2
176
     1
 62
     7
176
     1
 90
        5
176
     1
 90
        0
176
     1
 90
        0
176
     1
290
     0
176
     1
 90
        1
176
     1
 40
0.0
176
     1
 90
        0
176
     1
290
     0
176
     1
290
     1
176
     1
290
     1
176
     1
290
     0
176
     1
290
     0
176
     1
290
     0
176
     1
290
     0
176
     1
290
     0
176
     1
290
     0
176
     1
 90
       50
176
     1
 40
0.0
176
     1
 40
1.0
176
     1
 90
        0
176
     1
 62
    18
420
        0
176
     1
 90
       50
176
     1
 90
        3
176
     1
 62
     5
420
      255
176
     1
290
     0
176
     1
 90
       50
176
     1
 90
       50
176
     1
 90
       50
176
     1
290
     0
176
     1
 90
       50
176
     1
 62
   256
176
     0
 40
1.0
176
     0
 90
        2
176
     1
  1
strokes_ogs.tif
176
     1
290
     0
176
     1
 40
1.0
176
     1
 40
1.0
176
     1
  0
VISUALSTYLE
  5
32
102
{ACAD_REACTORS
330
29
102
}
330
29
100
AcDbVisualStyle
  2
Conceptual
 70
     9
177
     3
291
     0
 70
    58
 90
        3
176
     1
 90
        2
176
     1
 90
        0
176
     1
 90
        0
176
     1
 40
0.6
176
     1
 40
30.0
176
     1
 62
     7
420
 16777215
176
     1
 90
        2
176
     1
 90
        2
176
     1
 62
     7
176
     1
 62
   257
176
     1
 90
        1
176
     1
 90
        1
176
     1
 40
179.0
176
     1
 90
        8
176
     1
 62
     7
176
     1
 40
1.0
176
     1
 90
        1
176
     1
 90
        6
176
     1
 90
        2
176
     1
 62
     7
176
     1
 90
        3
176
     1
 90
        0
176
     1
 90
        0
176
     1
290
     0
176
     1
 90
        1
176
     1
 40
0.0
176
     1
 90
        0
176
     1
290
     0
176
     1
290
     1
176
     1
290
     1
176
     1
290
     0
176
     1
290
     0
176
     1
290
     0
176
     1
290
     0
176
     1
290
     0
176
     1
290
     0
176
     1
 90
       50
176
     1
 40
0.0
176
     1
 40
1.0
176
     1
 90
        0
176
     1
 62
    18
420
        0
176
     1
 90
       50
176
     1
 90
        3
176
     1
 62
     5
420
      255
176
     1
290
     0
176
     1
 90
       50
176
     1
 90
       50
176
     1
 90
       50
176
     1
290
     0
176
     1
 90
       50
176
     1
 62
   256
176
     0
 40
1.0
176
     0
 90
        2
176
     1
  1
strokes_ogs.tif
176
     1
290
     0
176
     1
 40
1.0
176
     1
 40
1.0
176
     1
  0
VISUALSTYLE
  5
34
102
{ACAD_REACTORS
330
29
102
}
330
29
100
AcDbVisualStyle
  2
Dim
 70
    11
177
     3
291
     1
 70
    58
 90
        2
176
     1
 90
        2
176
     1
 90
        0
176
     1
 90
        0
176
     1
 40
0.6
176
     1
 40
30.0
176
     1
 62
     7
420
 16777215
176
     1
 90
        1
176
     1
 90
        4
176
     1
 62
     7
176
     1
 62
   257
176
     1
 90
        1
176
     1
 90
        1
176
     1
 40
1.0
176
     1
 90
        8
176
     1
 62
     7
176
     1
 40
1.0
176
     1
 90
        1
176
     1
 90
        6
176
     1
 90
        2
176
     1
 62
     7
176
     1
 90
        5
176
     1
 90
        0
176
     1
 90
        0
176
     1
290
     0
176
     1
 90
        1
176
     1
 40
-50.0
176
     1
 90
        0
176
     1
290
     0
176
     1
290
     1
176
     1
290
     1
176
     1
290
     0
176
     1
290
     0
176
     1
290
     0
176
     1
290
     0
176
     1
290
     0
176
     1
290
     0
176
     1
 90
       50
176
     1
 40
0.0
176
     1
 40
1.0
176
     1
 90
        0
176
     1
 62
    18
420
        0
176
     1
 90
       50
176
     1
 90
        3
176
     1
 62
     5
420
      255
176
     1
290
     0
176
     1
 90
       50
176
     1
 90
       50
176
     1
 90
       50
176
     1
290
     0
176
     1
 90
       50
176
     1
 62
   256
176
     0
 40
1.0
176
     0
 90
        2
176
     1
  1
strokes_ogs.tif
176
     1
290
     0
176
     1
 40
1.0
176
     1
 40
1.0
176
     1
  0
VISUALSTYLE
  5
41
102
{ACAD_REACTORS
330
29
102
}
330
29
100
AcDbVisualStyle
  2
EdgeColorOff
 70
    22
177
     3
291
     1
 70
    58
 90
        2
176
     0
 90
        2
176
     0
 90
        0
176
     0
 90
        0
176
     0
 40
0.6
176
     0
 40
30.0
176
     0
 62
     7
420
 16777215
176
     0
 90
        1
176
     0
 90
        4
176
     0
 62
     7
176
     0
 62
   257
176
     0
 90
        1
176
     0
 90
        1
176
     0
 40
1.0
176
     0
 90
        8
176
     2
 62
     7
176
     0
 40
1.0
176
     0
 90
        1
176
     0
 90
        6
176
     0
 90
        2
176
     0
 62
     7
176
     0
 90
        5
176
     0
 90
        0
176
     0
 90
        0
176
     0
290
     0
176
     0
 90
        1
176
     0
 40
0.0
176
     0
 90
        0
176
     0
290
     0
176
     0
290
     1
176
     0
290
     1
176
     0
290
     0
176
     0
290
     0
176
     0
290
     0
176
     0
290
     0
176
     0
290
     0
176
     0
290
     0
176
     0
 90
       50
176
     0
 40
0.0
176
     0
 40
1.0
176
     0
 90
        0
176
     0
 62
    18
420
        0
176
     0
 90
       50
176
     0
 90
        3
176
     0
 62
     5
420
      255
176
     0
290
     0
176
     0
 90
       50
176
     0
 90
       50
176
     0
 90
       50
176
     0
290
     0
176
     0
 90
       50
176
     0
 62
   256
176
     0
 40
1.0
176
     0
 90
        2
176
     0
  1
strokes_ogs.tif
176
     0
290
     0
176
     0
 40
1.0
176
     0
 40
1.0
176
     0
  0
VISUALSTYLE
  5
38
102
{ACAD_REACTORS
330
29
102
}
330
29
100
AcDbVisualStyle
  2
Facepattern
 70
    15
177
     3
291
     1
 70
    58
 90
        2
176
     1
 90
        2
176
     1
 90
        0
176
     1
 90
        0
176
     1
 40
0.6
176
     1
 40
30.0
176
     1
 62
     7
420
 16777215
176
     1
 90
        1
176
     1
 90
        4
176
     1
 62
     7
176
     1
 62
   257
176
     1
 90
        1
176
     1
 90
        1
176
     1
 40
1.0
176
     1
 90
        8
176
     1
 62
     7
176
     1
 40
1.0
176
     1
 90
        1
176
     1
 90
        6
176
     1
 90
        2
176
     1
 62
     7
176
     1
 90
        5
176
     1
 90
        0
176
     1
 90
        0
176
     1
290
     0
176
     1
 90
        1
176
     1
 40
0.0
176
     1
 90
        0
176
     1
290
     0
176
     1
290
     1
176
     1
290
     1
176
     1
290
     0
176
     1
290
     0
176
     1
290
     0
176
     1
290
     0
176
     1
290
     0
176
     1
290
     0
176
     1
 90
       50
176
     1
 40
0.0
176
     1
 40
1.0
176
     1
 90
        0
176
     1
 62
    18
420
        0
176
     1
 90
       50
176
     1
 90
        3
176
     1
 62
     5
420
      255
176
     1
290
     0
176
     1
 90
       50
176
     1
 90
       50
176
     1
 90
       50
176
     1
290
     0
176
     1
 90
       50
176
     1
 62
   256
176
     0
 40
1.0
176
     0
 90
        2
176
     1
  1
strokes_ogs.tif
176
     1
290
     0
176
     1
 40
1.0
176
     1
 40
1.0
176
     1
  0
VISUALSTYLE
  5
2A
102
{ACAD_REACTORS
330
29
102
}
330
29
100
AcDbVisualStyle
  2
Flat
 70
     0
177
     3
291
     1
 70
    58
 90
        2
176
     1
 90
        1
176
     1
 90
        1
176
     1
 90
        2
176
     1
 40
0.6
176
     1
 40
30.0
176
     1
 62
     7
420
 16777215
176
     1
 90
        0
176
     1
 90
        0
176
     1
 62
     7
176
     1
 62
   257
176
     1
 90
        1
176
     1
 90
        1
176
     1
 40
1.0
176
     1
 90
        8
176
     1
 62
     7
176
     1
 40
1.0
176
     1
 90
        1
176
     1
 90
        6
176
     1
 90
        2
176
     1
 62
     7
176
     1
 90
        5
176
     1
 90
        0
176
     1
 90
        0
176
     1
290
     0
176
     1
 90
       13
176
     1
 40
0.0
176
     1
 90
        0
176
     1
290
     0
176
     1
290
     1
176
     1
290
     1
176
     1
290
     0
176
     1
290
     0
176
     1
290
     0
176
     1
290
     0
176
     1
290
     0
176
     1
290
     0
176
     1
 90
       50
176
     1
 40
0.0
176
     1
 40
1.0
176
     1
 90
        0
176
     1
 62
    18
420
        0
176
     1
 90
       50
176
     1
 90
        3
176
     1
 62
     5
420
      255
176
     1
290
     0
176
     1
 90
       50
176
     1
 90
       50
176
     1
 90
       50
176
     1
290
     0
176
     1
 90
       50
176
     1
 62
   256
176
     0
 40
1.0
176
     0
 90
        2
176
     1
  1
strokes_ogs.tif
176
     1
290
     0
176
     1
 40
1.0
176
     1
 40
1.0
176
     1
  0
VISUALSTYLE
  5
2B
102
{ACAD_REACTORS
330
29
102
}
330
29
100
AcDbVisualStyle
  2
FlatWithEdges
 70
     1
177
     3
291
     1
 70
    58
 90
        2
176
     1
 90
        1
176
     1
 90
        1
176
     1
 90
        2
176
     1
 40
0.6
176
     1
 40
30.0
176
     1
 62
     7
420
 16777215
176
     1
 90
        1
176
     1
 90
        0
176
     1
 62
     7
176
     1
 62
   257
176
     1
 90
        1
176
     1
 90
        1
176
     1
 40
1.0
176
     1
 90
        0
176
     1
 62
   257
176
     1
 40
1.0
176
     1
 90
        1
176
     1
 90
        6
176
     1
 90
        2
176
     1
 62
     7
176
     1
 90
        5
176
     1
 90
        0
176
     1
 90
        0
176
     1
290
     0
176
     1
 90
       13
176
     1
 40
0.0
176
     1
 90
        0
176
     1
290
     0
176
     1
290
     1
176
     1
290
     1
176
     1
290
     0
176
     1
290
     0
176
     1
290
     0
176
     1
290
     0
176
     1
290
     0
176
     1
290
     0
176
     1
 90
       50
176
     1
 40
0.0
176
     1
 40
1.0
176
     1
 90
        0
176
     1
 62
    18
420
        0
176
     1
 90
       50
176
     1
 90
        3
176
     1
 62
     5
420
      255
176
     1
290
     0
176
     1
 90
       50
176
     1
 90
       50
176
     1
 90
       50
176
     1
290
     0
176
     1
 90
       50
176
     1
 62
   256
176
     0
 40
1.0
176
     0
 90
        2
176
     1
  1
strokes_ogs.tif
176
     1
290
     0
176
     1
 40
1.0
176
     1
 40
1.0
176
     1
  0
VISUALSTYLE
  5
2C
102
{ACAD_REACTORS
330
29
102
}
330
29
100
AcDbVisualStyle
  2
Gouraud
 70
     2
177
     3
291
     1
 70
    58
 90
        2
176
     1
 90
        2
176
     1
 90
        1
176
     1
 90
        2
176
     1
 40
0.6
176
     1
 40
30.0
176
     1
 62
     7
420
 16777215
176
     1
 90
        0
176
     1
 90
        0
176
     1
 62
     7
176
     1
 62
   257
176
     1
 90
        1
176
     1
 90
        1
176
     1
 40
1.0
176
     1
 90
        0
176
     1
 62
     7
176
     1
 40
1.0
176
     1
 90
        1
176
     1
 90
        6
176
     1
 90
        2
176
     1
 62
     7
176
     1
 90
        5
176
     1
 90
        0
176
     1
 90
        0
176
     1
290
     0
176
     1
 90
       13
176
     1
 40
0.0
176
     1
 90
        0
176
     1
290
     0
176
     1
290
     1
176
     1
290
     1
176
     1
290
     0
176
     1
290
     0
176
     1
290
     0
176
     1
290
     0
176
     1
290
     0
176
     1
290
     0
176
     1
 90
       50
176
     1
 40
0.0
176
     1
 40
1.0
176
     1
 90
        0
176
     1
 62
    18
420
        0
176
     1
 90
       50
176
     1
 90
        3
176
     1
 62
     5
420
      255
176
     1
290
     0
176
     1
 90
       50
176
     1
 90
       50
176
     1
 90
       50
176
     1
290
     0
176
     1
 90
       50
176
     1
 62
   256
176
     0
 40
1.0
176
     0
 90
        2
176
     1
  1
strokes_ogs.tif
176
     1
290
     0
176
     1
 40
1.0
176
     1
 40
1.0
176
     1
  0
VISUALSTYLE
  5
2D
102
{ACAD_REACTORS
330
29
102
}
330
29
100
AcDbVisualStyle
  2
GouraudWithEdges
 70
     3
177
     3
291
     1
 70
    58
 90
        2
176
     1
 90
        2
176
     1
 90
        1
176
     1
 90
        2
176
     1
 40
0.6
176
     1
 40
30.0
176
     1
 62
     7
420
 16777215
176
     1
 90
        1
176
     1
 90
        0
176
     1
 62
     7
176
     1
 62
   257
176
     1
 90
        1
176
     1
 90
        1
176
     1
 40
1.0
176
     1
 90
        0
176
     1
 62
   257
176
     1
 40
1.0
176
     1
 90
        1
176
     1
 90
        6
176
     1
 90
        2
176
     1
 62
     7
176
     1
 90
        5
176
     1
 90
        0
176
     1
 90
        0
176
     1
290
     0
176
     1
 90
       13
176
     1
 40
0.0
176
     1
 90
        0
176
     1
290
     0
176
     1
290
     1
176
     1
290
     1
176
     1
290
     0
176
     1
290
     0
176
     1
290
     0
176
     1
290
     0
176
     1
290
     0
176
     1
290
     0
176
     1
 90
       50
176
     1
 40
0.0
176
     1
 40
1.0
176
     1
 90
        0
176
     1
 62
    18
420
        0
176
     1
 90
       50
176
     1
 90
        3
176
     1
 62
     5
420
      255
176
     1
290
     0
176
     1
 90
       50
176
     1
 90
       50
176
     1
 90
       50
176
     1
290
     0
176
     1
 90
       50
176
     1
 62
   256
176
     0
 40
1.0
176
     0
 90
        2
176
     1
  1
strokes_ogs.tif
176
     1
290
     0
176
     1
 40
1.0
176
     1
 40
1.0
176
     1
  0
VISUALSTYLE
  5
31
102
{ACAD_REACTORS
330
29
102
}
330
29
100
AcDbVisualStyle
  2
Hidden
 70
     6
177
     3
291
     0
 70
    58
 90
        1
176
     1
 90
        2
176
     1
 90
        2
176
     1
 90
        0
176
     1
 40
0.6
176
     1
 40
30.0
176
     1
 62
     7
420
 16777215
176
     1
 90
        2
176
     1
 90
        2
176
     1
 62
     7
176
     1
 62
   257
176
     1
 90
        2
176
     1
 90
        1
176
     1
 40
40.0
176
     1
 90
        0
176
     1
 62
   257
176
     1
 40
1.0
176
     1
 90
        1
176
     1
 90
        6
176
     1
 90
        2
176
     1
 62
     7
176
     1
 90
        3
176
     1
 90
        0
176
     1
 90
        0
176
     1
290
     0
176
     1
 90
        1
176
     1
 40
0.0
176
     1
 90
        0
176
     1
290
     0
176
     1
290
     1
176
     1
290
     1
176
     1
290
     0
176
     1
290
     0
176
     1
290
     0
176
     1
290
     0
176
     1
290
     0
176
     1
290
     0
176
     1
 90
       50
176
     1
 40
0.0
176
     1
 40
1.0
176
     1
 90
        0
176
     1
 62
    18
420
        0
176
     1
 90
       50
176
     1
 90
        3
176
     1
 62
     5
420
      255
176
     1
290
     0
176
     1
 90
       50
176
     1
 90
       50
176
     1
 90
       50
176
     1
290
     0
176
     1
 90
       50
176
     1
 62
   256
176
     0
 40
1.0
176
     0
 90
        2
176
     1
  1
strokes_ogs.tif
176
     1
290
     0
176
     1
 40
1.0
176
     1
 40
1.0
176
     1
  0
VISUALSTYLE
  5
3F
102
{ACAD_REACTORS
330
29
102
}
330
29
100
AcDbVisualStyle
  2
JitterOff
 70
    20
177
     3
291
     1
 70
    58
 90
        2
176
     0
 90
        2
176
     0
 90
        0
176
     0
 90
        0
176
     0
 40
0.6
176
     0
 40
30.0
176
     0
 62
     7
420
 16777215
176
     0
 90
        1
176
     0
 90
        4
176
     0
 62
     7
176
     0
 62
   257
176
     0
 90
        1
176
     0
 90
        1
176
     0
 40
1.0
176
     0
 90
       10
176
     2
 62
     7
176
     0
 40
1.0
176
     0
 90
        1
176
     0
 90
        6
176
     0
 90
        2
176
     0
 62
     7
176
     0
 90
        5
176
     0
 90
        0
176
     0
 90
        0
176
     0
290
     0
176
     0
 90
        1
176
     0
 40
0.0
176
     0
 90
        0
176
     0
290
     0
176
     0
290
     1
176
     0
290
     1
176
     0
290
     0
176
     0
290
     0
176
     0
290
     0
176
     0
290
     0
176
     0
290
     0
176
     0
290
     0
176
     0
 90
       50
176
     0
 40
0.0
176
     0
 40
1.0
176
     0
 90
        0
176
     0
 62
    18
420
        0
176
     0
 90
       50
176
     0
 90
        3
176
     0
 62
     5
420
      255
176
     0
290
     0
176
     0
 90
       50
176
     0
 90
       50
176
     0
 90
       50
176
     0
290
     0
176
     0
 90
       50
176
     0
 62
   256
176
     0
 40
1.0
176
     0
 90
        2
176
     0
  1
strokes_ogs.tif
176
     0
290
     0
176
     0
 40
1.0
176
     0
 40
1.0
176
     0
  0
VISUALSTYLE
  5
37
102
{ACAD_REACTORS
330
29
102
}
330
29
100
AcDbVisualStyle
  2
Linepattern
 70
    14
177
     3
291
     1
 70
    58
 90
        2
176
     1
 90
        2
176
     1
 90
        0
176
     1
 90
        0
176
     1
 40
0.6
176
     1
 40
30.0
176
     1
 62
     7
420
 16777215
176
     1
 90
        1
176
     1
 90
        4
176
     1
 62
     7
176
     1
 62
   257
176
     1
 90
        7
176
     1
 90
        7
176
     1
 40
1.0
176
     1
 90
        8
176
     1
 62
     7
176
     1
 40
1.0
176
     1
 90
        1
176
     1
 90
        6
176
     1
 90
        2
176
     1
 62
     7
176
     1
 90
        5
176
     1
 90
        0
176
     1
 90
        0
176
     1
290
     0
176
     1
 90
        1
176
     1
 40
0.0
176
     1
 90
        0
176
     1
290
     0
176
     1
290
     1
176
     1
290
     1
176
     1
290
     0
176
     1
290
     0
176
     1
290
     0
176
     1
290
     0
176
     1
290
     0
176
     1
290
     0
176
     1
 90
       50
176
     1
 40
0.0
176
     1
 40
1.0
176
     1
 90
        0
176
     1
 62
    18
420
        0
176
     1
 90
       50
176
     1
 90
        3
176
     1
 62
     5
420
      255
176
     1
290
     0
176
     1
 90
       50
176
     1
 90
       50
176
     1
 90
       50
176
     1
290
     0
176
     1
 90
       50
176
     1
 62
   256
176
     0
 40
1.0
176
     0
 90
        2
176
     1
  1
strokes_ogs.tif
176
     1
290
     0
176
     1
 40
1.0
176
     1
 40
1.0
176
     1
  0
VISUALSTYLE
  5
40
102
{ACAD_REACTORS
330
29
102
}
330
29
100
AcDbVisualStyle
  2
OverhangOff
 70
    21
177
     3
291
     1
 70
    58
 90
        2
176
     0
 90
        2
176
     0
 90
        0
176
     0
 90
        0
176
     0
 40
0.6
176
     0
 40
30.0
176
     0
 62
     7
420
 16777215
176
     0
 90
        1
176
     0
 90
        4
176
     0
 62
     7
176
     0
 62
   257
176
     0
 90
        1
176
     0
 90
        1
176
     0
 40
1.0
176
     0
 90
        9
176
     2
 62
     7
176
     0
 40
1.0
176
     0
 90
        1
176
     0
 90
        6
176
     0
 90
        2
176
     0
 62
     7
176
     0
 90
        5
176
     0
 90
        0
176
     0
 90
        0
176
     0
290
     0
176
     0
 90
        1
176
     0
 40
0.0
176
     0
 90
        0
176
     0
290
     0
176
     0
290
     1
176
     0
290
     1
176
     0
290
     0
176
     0
290
     0
176
     0
290
     0
176
     0
290
     0
176
     0
290
     0
176
     0
290
     0
176
     0
 90
       50
176
     0
 40
0.0
176
     0
 40
1.0
176
     0
 90
        0
176
     0
 62
    18
420
        0
176
     0
 90
       50
176
     0
 90
        3
176
     0
 62
     5
420
      255
176
     0
290
     0
176
     0
 90
       50
176
     0
 90
       50
176
     0
 90
       50
176
     0
290
     0
176
     0
 90
       50
176
     0
 62
   256
176
     0
 40
1.0
176
     0
 90
        2
176
     0
  1
strokes_ogs.tif
176
     0
290
     0
176
     0
 40
1.0
176
     0
 40
1.0
176
     0
  0
VISUALSTYLE
  5
33
102
{ACAD_REACTORS
330
29
102
}
330
29
100
AcDbVisualStyle
  2
Realistic
 70
     8
177
     3
291
     0
 70
    58
 90
        2
176
     1
 90
        3
176
     1
 90
        0
176
     1
 90
        2
176
     1
 40
0.6
176
     1
 40
30.0
176
     1
 62
     7
420
 16777215
176
     1
 90
        0
176
     1
 90
        0
176
     1
 62
     7
176
     1
 62
   257
176
     1
 90
        1
176
     1
 90
        1
176
     1
 40
1.0
176
     1
 90
        8
176
     1
 62
   257
176
     1
 40
1.0
176
     1
 90
        1
176
     1
 90
        6
176
     1
 90
        2
176
     1
 62
     7
176
     1
 90
        3
176
     1
 90
        0
176
     1
 90
        0
176
     1
290
     0
176
     1
 90
       13
176
     1
 40
0.0
176
     1
 90
        0
176
     1
290
     0
176
     1
290
     1
176
     1
290
     1
176
     1
290
     0
176
     1
290
     0
176
     1
290
     0
176
     1
290
     0
176
     1
290
     0
176
     1
290
     0
176
     1
 90
       50
176
     1
 40
0.0
176
     1
 40
1.0
176
     1
 90
        0
176
     1
 62
    18
420
        0
176
     1
 90
       50
176
     1
 90
        3
176
     1
 62
     5
420
      255
176
     1
290
     0
176
     1
 90
       50
176
     1
 90
       50
176
     1
 90
       50
176
     1
290
     0
176
     1
 90
       50
176
     1
 62
   256
176
     0
 40
1.0
176
     0
 90
        2
176
     1
  1
strokes_ogs.tif
176
     1
290
     0
176
     1
 40
1.0
176
     1
 40
1.0
176
     1
  0
VISUALSTYLE
  5
3E
102
{ACAD_REACTORS
330
29
102
}
330
29
100
AcDbVisualStyle
  2
Shaded
 70
    27
177
     3
291
     0
 70
    58
 90
        2
176
     1
 90
        2
176
     1
 90
        1
176
     1
 90
        2
176
     1
 40
0.6
176
     1
 40
30.0
176
     1
 62
     7
420
 16777215
176
     1
 90
        0
176
     1
 90
        4
176
     1
 62
     7
176
     1
 62
   257
176
     1
 90
        1
176
     1
 90
        1
176
     1
 40
1.0
176
     1
 90
        8
176
     1
 62
   257
176
     1
 40
1.0
176
     1
 90
        1
176
     1
 90
        6
176
     1
 90
        2
176
     1
 62
     8
420
  7895160
176
     1
 90
        3
176
     1
 90
        0
176
     1
 90
        0
176
     1
290
     0
176
     1
 90
        5
176
     1
 40
0.0
176
     1
 90
        0
176
     1
290
     0
176
     1
290
     1
176
     1
290
     1
176
     1
290
     0
176
     1
290
     0
176
     1
290
     0
176
     1
290
     0
176
     1
290
     0
176
     1
290
     0
176
     1
 90
       50
176
     1
 40
0.0
176
     1
 40
1.0
176
     1
 90
        0
176
     1
 62
    18
420
        0
176
     1
 90
       50
176
     1
 90
        3
176
     1
 62
     5
420
      255
176
     1
290
     0
176
     1
 90
       50
176
     1
 90
       50
176
     1
 90
       50
176
     1
290
     0
176
     1
 90
       50
176
     1
 62
   256
176
     0
 40
1.0
176
     0
 90
        2
176
     1
  1
strokes_ogs.tif
176
     1
290
     0
176
     1
 40
1.0
176
     1
 40
1.0
176
     1
  0
VISUALSTYLE
  5
3D
102
{ACAD_REACTORS
330
29
102
}
330
29
100
AcDbVisualStyle
  2
Shaded with edges
 70
    26
177
     3
291
     0
 70
    58
 90
        2
176
     1
 90
        2
176
     1
 90
        1
176
     1
 90
        2
176
     1
 40
0.6
176
     1
 40
30.0
176
     1
 62
     7
420
 16777215
176
     1
 90
        1
176
     1
 90
       10
176
     1
 62
     7
176
     1
 62
   257
176
     1
 90
        2
176
     1
 90
        1
176
     1
 40
1.0
176
     1
 90
        8
176
     1
 62
   257
176
     1
 40
1.0
176
     1
 90
        1
176
     1
 90
        6
176
     1
 90
        2
176
     1
 62
     7
176
     1
 90
        3
176
     1
 90
        0
176
     1
 90
        0
176
     1
290
     0
176
     1
 90
        5
176
     1
 40
0.0
176
     1
 90
        0
176
     1
290
     0
176
     1
290
     1
176
     1
290
     1
176
     1
290
     0
176
     1
290
     0
176
     1
290
     0
176
     1
290
     0
176
     1
290
     0
176
     1
290
     0
176
     1
 90
       50
176
     1
 40
0.0
176
     1
 40
1.0
176
     1
 90
        0
176
     1
 62
    18
420
        0
176
     1
 90
       50
176
     1
 90
        3
176
     1
 62
     5
420
      255
176
     1
290
     0
176
     1
 90
       50
176
     1
 90
       50
176
     1
 90
       50
176
     1
290
     0
176
     1
 90
       50
176
     1
 62
   256
176
     0
 40
1.0
176
     0
 90
        2
176
     1
  1
strokes_ogs.tif
176
     1
290
     0
176
     1
 40
1.0
176
     1
 40
1.0
176
     1
  0
VISUALSTYLE
  5
3A
102
{ACAD_REACTORS
330
29
102
}
330
29
100
AcDbVisualStyle
  2
Shades of Gray
 70
    23
177
     3
291
     0
 70
    58
 90
        2
176
     1
 90
        2
176
     1
 90
        3
176
     1
 90
        0
176
     1
 40
0.6
176
     1
 40
30.0
176
     1
 62
     7
420
 16777215
176
     1
 90
        2
176
     1
 90
        2
176
     1
 62
     7
176
     1
 62
     7
176
     1
 90
        1
176
     1
 90
        1
176
     1
 40
40.0
176
     1
 90
        8
176
     1
 62
     7
176
     1
 40
1.0
176
     1
 90
        1
176
     1
 90
        6
176
     1
 90
        2
176
     1
 62
     7
176
     1
 90
        3
176
     1
 90
        0
176
     1
 90
        0
176
     1
290
     0
176
     1
 90
        1
176
     1
 40
0.0
176
     1
 90
        0
176
     1
290
     0
176
     1
290
     1
176
     1
290
     1
176
     1
290
     0
176
     1
290
     0
176
     1
290
     0
176
     1
290
     0
176
     1
290
     0
176
     1
290
     0
176
     1
 90
       50
176
     1
 40
0.0
176
     1
 40
1.0
176
     1
 90
        0
176
     1
 62
    18
420
        0
176
     1
 90
       50
176
     1
 90
        3
176
     1
 62
     5
420
      255
176
     1
290
     0
176
     1
 90
       50
176
     1
 90
       50
176
     1
 90
       50
176
     1
290
     0
176
     1
 90
       50
176
     1
 62
   256
176
     0
 40
1.0
176
     0
 90
        2
176
     1
  1
strokes_ogs.tif
176
     1
290
     0
176
     1
 40
1.0
176
     1
 40
1.0
176
     1
  0
VISUALSTYLE
  5
3B
102
{ACAD_REACTORS
330
29
102
}
330
29
100
AcDbVisualStyle
  2
Sketchy
 70
    24
177
     3
291
     0
 70
    58
 90
        1
176
     1
 90
        2
176
     1
 90
        2
176
     1
 90
        0
176
     1
 40
0.6
176
     1
 40
30.0
176
     1
 62
     7
420
 16777215
176
     1
 90
        2
176
     1
 90
        2
176
     1
 62
     7
176
     1
 62
     7
176
     1
 90
        1
176
     1
 90
        1
176
     1
 40
40.0
176
     1
 90
       11
176
     1
 62
     7
176
     1
 40
1.0
176
     1
 90
        1
176
     1
 90
        6
176
     1
 90
        2
176
     1
 62
     7
176
     1
 90
        6
176
     1
 90
        0
176
     1
 90
        0
176
     1
290
     0
176
     1
 90
        1
176
     1
 40
0.0
176
     1
 90
        0
176
     1
290
     0
176
     1
290
     1
176
     1
290
     1
176
     1
290
     0
176
     1
290
     0
176
     1
290
     0
176
     1
290
     0
176
     1
290
     0
176
     1
290
     0
176
     1
 90
       50
176
     1
 40
0.0
176
     1
 40
1.0
176
     1
 90
        0
176
     1
 62
    18
420
        0
176
     1
 90
       50
176
     1
 90
        3
176
     1
 62
     5
420
      255
176
     1
290
     0
176
     1
 90
       50
176
     1
 90
       50
176
     1
 90
       50
176
     1
290
     0
176
     1
 90
       50
176
     1
 62
   256
176
     0
 40
1.0
176
     0
 90
        2
176
     1
  1
strokes_ogs.tif
176
     1
290
     0
176
     1
 40
1.0
176
     1
 40
1.0
176
     1
  0
VISUALSTYLE
  5
36
102
{ACAD_REACTORS
330
29
102
}
330
29
100
AcDbVisualStyle
  2
Thicken
 70
    13
177
     3
291
     1
 70
    58
 90
        2
176
     1
 90
        2
176
     1
 90
        0
176
     1
 90
        0
176
     1
 40
0.6
176
     1
 40
30.0
176
     1
 62
     7
420
 16777215
176
     1
 90
        1
176
     1
 90
        4
176
     1
 62
     7
176
     1
 62
   257
176
     1
 90
        1
176
     1
 90
        1
176
     1
 40
1.0
176
     1
 90
       12
176
     1
 62
     7
176
     1
 40
1.0
176
     1
 90
        1
176
     1
 90
        6
176
     1
 90
        2
176
     1
 62
     7
176
     1
 90
        5
176
     1
 90
        0
176
     1
 90
        0
176
     1
290
     0
176
     1
 90
        1
176
     1
 40
0.0
176
     1
 90
        0
176
     1
290
     0
176
     1
290
     1
176
     1
290
     1
176
     1
290
     0
176
     1
290
     0
176
     1
290
     0
176
     1
290
     0
176
     1
290
     0
176
     1
290
     0
176
     1
 90
       50
176
     1
 40
0.0
176
     1
 40
1.0
176
     1
 90
        0
176
     1
 62
    18
420
        0
176
     1
 90
       50
176
     1
 90
        3
176
     1
 62
     5
420
      255
176
     1
290
     0
176
     1
 90
       50
176
     1
 90
       50
176
     1
 90
       50
176
     1
290
     0
176
     1
 90
       50
176
     1
 62
   256
176
     0
 40
1.0
176
     0
 90
        2
176
     1
  1
strokes_ogs.tif
176
     1
290
     0
176
     1
 40
1.0
176
     1
 40
1.0
176
     1
  0
VISUALSTYLE
  5
30
102
{ACAD_REACTORS
330
29
102
}
330
29
100
AcDbVisualStyle
  2
Wireframe
 70
     5
177
     3
291
     0
 70
    58
 90
        0
176
     1
 90
        2
176
     1
 90
        0
176
     1
 90
        0
176
     1
 40
0.6
176
     1
 40
30.0
176
     1
 62
     7
420
 16777215
176
     1
 90
        1
176
     1
 90
        4
176
     1
 62
     7
176
     1
 62
   257
176
     1
 90
        1
176
     1
 90
        1
176
     1
 40
1.0
176
     1
 90
        0
176
     1
 62
   257
176
     1
 40
1.0
176
     1
 90
        1
176
     1
 90
        6
176
     1
 90
        2
176
     1
 62
     7
176
     1
 90
        3
176
     1
 90
        0
176
     1
 90
        0
176
     1
290
     0
176
     1
 90
        1
176
     1
 40
0.0
176
     1
 90
        0
176
     1
290
     0
176
     1
290
     1
176
     1
290
     1
176
     1
290
     0
176
     1
290
     0
176
     1
290
     0
176
     1
290
     0
176
     1
290
     0
176
     1
290
     0
176
     1
 90
       50
176
     1
 40
0.0
176
     1
 40
1.0
176
     1
 90
        0
176
     1
 62
    18
420
        0
176
     1
 90
       50
176
     1
 90
        3
176
     1
 62
     5
420
      255
176
     1
290
     0
176
     1
 90
       50
176
     1
 90
       50
176
     1
 90
       50
176
     1
290
     0
176
     1
 90
       50
176
     1
 62
   256
176
     0
 40
1.0
176
     0
 90
        2
176
     1
  1
strokes_ogs.tif
176
     1
290
     0
176
     1
 40
1.0
176
     1
 40
1.0
176
     1
  0
VISUALSTYLE
  5
3C
102
{ACAD_REACTORS
330
29
102
}
330
29
100
AcDbVisualStyle
  2
X-Ray
 70
    25
177
     3
291
     0
 70
    58
 90
        2
176
     1
 90
        2
176
     1
 90
        1
176
     1
 90
        1
176
     1
 40
0.5
176
     1
 40
30.0
176
     1
 62
     7
420
 16777215
176
     1
 90
        1
176
     1
 90
        0
176
     1
 62
     7
176
     1
 62
   257
176
     1
 90
        1
176
     1
 90
        1
176
     1
 40
1.0
176
     1
 90
        8
176
     1
 62
     7
176
     1
 40
1.0
176
     1
 90
        1
176
     1
 90
        6
176
     1
 90
        2
176
     1
 62
     7
176
     1
 90
        3
176
     1
 90
        0
176
     1
 90
        0
176
     1
290
     0
176
     1
 90
       13
176
     1
 40
0.0
176
     1
 90
        0
176
     1
290
     0
176
     1
290
     1
176
     1
290
     1
176
     1
290
     0
176
     1
290
     0
176
     1
290
     0
176
     1
290
     0
176
     1
290
     0
176
     1
290
     0
176
     1
 90
       50
176
     1
 40
0.0
176
     1
 40
1.0
176
     1
 90
        0
176
     1
 62
    18
420
        0
176
     1
 90
       50
176
     1
 90
        3
176
     1
 62
     5
420
      255
176
     1
290
     0
176
     1
 90
       50
176
     1
 90
       50
176
     1
 90
       50
176
     1
290
     0
176
     1
 90
       50
176
     1
 62
   256
176
     0
 40
1.0
176
     0
 90
        2
176
     1
  1
strokes_ogs.tif
176
     1
290
     0
176
     1
 40
1.0
176
     1
 40
1.0
176
     1
  0
DICTIONARYVAR
  5
81
102
{ACAD_REACTORS
330
7C
102
}
330
7C
100
DictionaryVariables
280
     0
  1
1:1
  0
DICTIONARYVAR
  5
7E
102
{ACAD_REACTORS
330
7C
102
}
330
7C
100
DictionaryVariables
280
     0
  1
STANDARD
  0
DICTIONARYVAR
  5
7D
102
{ACAD_REACTORS
330
7C
102
}
330
7C
100
DictionaryVariables
280
     0
  1
STANDARD
  0
DICTIONARYVAR
  5
7F
102
{ACAD_REACTORS
330
7C
102
}
330
7C
100
DictionaryVariables
280
     0
  1
Imperial24
  0
DICTIONARYVAR
  5
80
102
{ACAD_REACTORS
330
7C
102
}
330
7C
100
DictionaryVariables
280
     0
  1
Imperial24
  0
XRECORD
  5
1DE
102
{ACAD_REACTORS
330
1DB
102
}
330
1DB
100
AcDbXrecord
280
     1
  1
BUILDING_ID
  1
Progetto per messa in tavola DXF, DWG
  1
FLOOR_ID
  1
694395
  0
XRECORD
  5
1DD
102
{ACAD_REACTORS
330
1DB
102
}
330
1DB
100
AcDbXrecord
280
     1
  1
-2001160
  1
Apparecchi idraulici
  0
XRECORD
  5
1DC
102
{ACAD_REACTORS
330
1DB
102
}
330
1DB
100
AcDbXrecord
280
     1
  1
859151
  1
Automatic flow rate regulator valve_Caleffi_121 DN15 : 1/2''
  0
DICTIONARY
  5
1A
330
19
100
AcDbDictionary
280
     1
281
     1
  3
BUMPTILE
360
1C
  3
DIFFUSETILE
360
1B
  3
OPACITYTILE
360
1F
  3
REFLECTIONTILE
360
1E
  3
REFRACTIONTILE
360
20
  3
SPECULARTILE
360
1D
  0
DICTIONARY
  5
12
330
11
100
AcDbDictionary
280
     1
281
     1
  3
BUMPTILE
360
14
  3
DIFFUSETILE
360
13
  3
OPACITYTILE
360
17
  3
REFLECTIONTILE
360
16
  3
REFRACTIONTILE
360
18
  3
SPECULARTILE
360
15
  0
DICTIONARY
  5
22
330
21
100
AcDbDictionary
280
     1
281
     1
  3
BUMPTILE
360
24
  3
DIFFUSETILE
360
23
  3
OPACITYTILE
360
27
  3
REFLECTIONTILE
360
26
  3
REFRACTIONTILE
360
28
  3
SPECULARTILE
360
25
  0
DICTIONARY
  5
1E1
330
65
100
AcDbDictionary
280
     1
281
     1
  3
ACAD_ROUNDTRIP_2008_TABLESTYLE_CELLSTYLEMAP
360
1E2
  0
XRECORD
  5
1C
102
{ACAD_REACTORS
330
1A
102
}
330
1A
100
AcDbXrecord
280
     1
270
     1
271
     1
  0
XRECORD
  5
1B
102
{ACAD_REACTORS
330
1A
102
}
330
1A
100
AcDbXrecord
280
     1
270
     1
271
     1
  0
XRECORD
  5
1F
102
{ACAD_REACTORS
330
1A
102
}
330
1A
100
AcDbXrecord
280
     1
270
     1
271
     1
  0
XRECORD
  5
1E
102
{ACAD_REACTORS
330
1A
102
}
330
1A
100
AcDbXrecord
280
     1
270
     1
271
     1
  0
XRECORD
  5
20
102
{ACAD_REACTORS
330
1A
102
}
330
1A
100
AcDbXrecord
280
     1
270
     1
271
     1
  0
XRECORD
  5
1D
102
{ACAD_REACTORS
330
1A
102
}
330
1A
100
AcDbXrecord
280
     1
270
     1
271
     1
  0
XRECORD
  5
14
102
{ACAD_REACTORS
330
12
102
}
330
12
100
AcDbXrecord
280
     1
270
     1
271
     1
  0
XRECORD
  5
13
102
{ACAD_REACTORS
330
12
102
}
330
12
100
AcDbXrecord
280
     1
270
     1
271
     1
  0
XRECORD
  5
17
102
{ACAD_REACTORS
330
12
102
}
330
12
100
AcDbXrecord
280
     1
270
     1
271
     1
  0
XRECORD
  5
16
102
{ACAD_REACTORS
330
12
102
}
330
12
100
AcDbXrecord
280
     1
270
     1
271
     1
  0
XRECORD
  5
18
102
{ACAD_REACTORS
330
12
102
}
330
12
100
AcDbXrecord
280
     1
270
     1
271
     1
  0
XRECORD
  5
15
102
{ACAD_REACTORS
330
12
102
}
330
12
100
AcDbXrecord
280
     1
270
     1
271
     1
  0
XRECORD
  5
24
102
{ACAD_REACTORS
330
22
102
}
330
22
100
AcDbXrecord
280
     1
270
     1
271
     1
  0
XRECORD
  5
23
102
{ACAD_REACTORS
330
22
102
}
330
22
100
AcDbXrecord
280
     1
270
     1
271
     1
  0
XRECORD
  5
27
102
{ACAD_REACTORS
330
22
102
}
330
22
100
AcDbXrecord
280
     1
270
     1
271
     1
  0
XRECORD
  5
26
102
{ACAD_REACTORS
330
22
102
}
330
22
100
AcDbXrecord
280
     1
270
     1
271
     1
  0
XRECORD
  5
28
102
{ACAD_REACTORS
330
22
102
}
330
22
100
AcDbXrecord
280
     1
270
     1
271
     1
  0
XRECORD
  5
25
102
{ACAD_REACTORS
330
22
102
}
330
22
100
AcDbXrecord
280
     1
270
     1
271
     1
  0
CELLSTYLEMAP
  5
1E2
102
{ACAD_REACTORS
330
1E1
102
}
330
1E1
100
AcDbCellStyleMap
 90
        3
300
CELLSTYLE
  1
TABLEFORMAT_BEGIN
 90
        5
170
     1
 91
        0
 92
    32768
 62
   257
 93
        1
300
CONTENTFORMAT
  1
CONTENTFORMAT_BEGIN
 90
        0
 91
        0
 92
      512
 93
        0
300

 40
0.0
140
1.0
 94
        5
 62
     0
340
55
144
0.25
309
CONTENTFORMAT_END
171
     0
 94
        0
309
TABLEFORMAT_END
  1
CELLSTYLE_BEGIN
 90
        1
 91
        1
300
_TITLE
309
CELLSTYLE_END
300
CELLSTYLE
  1
TABLEFORMAT_BEGIN
 90
        5
170
     1
 91
        0
 92
        0
 62
   257
 93
        1
300
CONTENTFORMAT
  1
CONTENTFORMAT_BEGIN
 90
        0
 91
        0
 92
      512
 93
        0
300

 40
0.0
140
1.0
 94
        5
 62
     0
340
55
144
0.18
309
CONTENTFORMAT_END
171
     0
 94
        0
309
TABLEFORMAT_END
  1
CELLSTYLE_BEGIN
 90
        2
 91
        1
300
_HEADER
309
CELLSTYLE_END
300
CELLSTYLE
  1
TABLEFORMAT_BEGIN
 90
        5
170
     1
 91
        0
 92
        0
 62
   257
 93
        1
300
CONTENTFORMAT
  1
CONTENTFORMAT_BEGIN
 90
        0
 91
        0
 92
      512
 93
        0
300

 40
0.0
140
1.0
 94
        2
 62
     0
340
55
144
0.18
309
CONTENTFORMAT_END
171
     0
 94
        0
309
TABLEFORMAT_END
  1
CELLSTYLE_BEGIN
 90
        3
 91
        2
300
_DATA
309
CELLSTYLE_END
  0
ENDSEC
  0
EOF
