  0
SECTION
  2
HEADER
  9
$ACADVER
  1
AC1027
  9
$ACADMAINTVER
 70
    20
  9
$DWGCODEPAGE
  3
ANSI_1252
  9
$REQUIREDVERSIONS
160
                 0
  9
$INSBASE
 10
0.0
 20
0.0
 30
0.0
  9
$EXTMIN
 10
675.6664074431879
 20
1770.245878720053
 30
-0.00000001
  9
$EXTMAX
 10
1103.114353953096
 20
2038.563700103275
 30
0.00000001
  9
$LIMMIN
 10
0.0
 20
0.0
  9
$LIMMAX
 10
12.0
 20
9.0
  9
$ORTHOMODE
 70
     0
  9
$REGENMODE
 70
     1
  9
$FILLMODE
 70
     1
  9
$QTEXTMODE
 70
     0
  9
$MIRRTEXT
 70
     0
  9
$LTSCALE
 40
1.0
  9
$ATTMODE
 70
     1
  9
$TEXTSIZE
 40
0.2
  9
$TRACEWID
 40
0.05
  9
$TEXTSTYLE
  7
Standard
  9
$CLAYER
  8
0
  9
$CELTYPE
  6
ByLayer
  9
$CECOLOR
 62
   256
  9
$CELTSCALE
 40
1.0
  9
$DISPSILH
 70
     0
  9
$DIMSCALE
 40
1.0
  9
$DIMASZ
 40
0.18
  9
$DIMEXO
 40
0.0625
  9
$DIMDLI
 40
0.38
  9
$DIMRND
 40
0.0
  9
$DIMDLE
 40
0.0
  9
$DIMEXE
 40
0.18
  9
$DIMTP
 40
0.0
  9
$DIMTM
 40
0.0
  9
$DIMTXT
 40
0.18
  9
$DIMCEN
 40
0.09
  9
$DIMTSZ
 40
0.0
  9
$DIMTOL
 70
     0
  9
$DIMLIM
 70
     0
  9
$DIMTIH
 70
     1
  9
$DIMTOH
 70
     1
  9
$DIMSE1
 70
     0
  9
$DIMSE2
 70
     0
  9
$DIMTAD
 70
     0
  9
$DIMZIN
 70
     0
  9
$DIMBLK
  1

  9
$DIMASO
 70
     1
  9
$DIMSHO
 70
     1
  9
$DIMPOST
  1

  9
$DIMAPOST
  1

  9
$DIMALT
 70
     0
  9
$DIMALTD
 70
     2
  9
$DIMALTF
 40
25.4
  9
$DIMLFAC
 40
1.0
  9
$DIMTOFL
 70
     0
  9
$DIMTVP
 40
0.0
  9
$DIMTIX
 70
     0
  9
$DIMSOXD
 70
     0
  9
$DIMSAH
 70
     0
  9
$DIMBLK1
  1

  9
$DIMBLK2
  1

  9
$DIMSTYLE
  2
Standard
  9
$DIMCLRD
 70
     0
  9
$DIMCLRE
 70
     0
  9
$DIMCLRT
 70
     0
  9
$DIMTFAC
 40
1.0
  9
$DIMGAP
 40
0.09
  9
$DIMJUST
 70
     0
  9
$DIMSD1
 70
     0
  9
$DIMSD2
 70
     0
  9
$DIMTOLJ
 70
     1
  9
$DIMTZIN
 70
     0
  9
$DIMALTZ
 70
     0
  9
$DIMALTTZ
 70
     0
  9
$DIMUPT
 70
     0
  9
$DIMDEC
 70
     4
  9
$DIMTDEC
 70
     4
  9
$DIMALTU
 70
     2
  9
$DIMALTTD
 70
     2
  9
$DIMTXSTY
  7
Standard
  9
$DIMAUNIT
 70
     0
  9
$DIMADEC
 70
     0
  9
$DIMALTRND
 40
0.0
  9
$DIMAZIN
 70
     0
  9
$DIMDSEP
 70
    46
  9
$DIMATFIT
 70
     3
  9
$DIMFRAC
 70
     0
  9
$DIMLDRBLK
  1

  9
$DIMLUNIT
 70
     2
  9
$DIMLWD
 70
    -2
  9
$DIMLWE
 70
    -2
  9
$DIMTMOVE
 70
     0
  9
$DIMFXL
 40
1.0
  9
$DIMFXLON
 70
     0
  9
$DIMJOGANG
 40
0.7853981633974483
  9
$DIMTFILL
 70
     0
  9
$DIMTFILLCLR
 70
     0
  9
$DIMARCSYM
 70
     0
  9
$DIMLTYPE
  6

  9
$DIMLTEX1
  6

  9
$DIMLTEX2
  6

  9
$DIMTXTDIRECTION
 70
     0
  9
$LUNITS
 70
     2
  9
$LUPREC
 70
     4
  9
$SKETCHINC
 40
0.1
  9
$FILLETRAD
 40
0.0
  9
$AUNITS
 70
     0
  9
$AUPREC
 70
     0
  9
$MENU
  1
.
  9
$ELEVATION
 40
0.0
  9
$PELEVATION
 40
0.0
  9
$THICKNESS
 40
0.0
  9
$LIMCHECK
 70
     0
  9
$CHAMFERA
 40
0.0
  9
$CHAMFERB
 40
0.0
  9
$CHAMFERC
 40
0.0
  9
$CHAMFERD
 40
0.0
  9
$SKPOLY
 70
     0
  9
$TDCREATE
 40
2457540.433530267
  9
$TDUCREATE
 40
2457540.350196933
  9
$TDUPDATE
 40
2457540.433530267
  9
$TDUUPDATE
 40
2457540.350196933
  9
$TDINDWG
 40
0.0000129630
  9
$TDUSRTIMER
 40
0.0000129630
  9
$USRTIMER
 70
     1
  9
$ANGBASE
 50
0.0
  9
$ANGDIR
 70
     0
  9
$PDMODE
 70
     0
  9
$PDSIZE
 40
0.0
  9
$PLINEWID
 40
0.0
  9
$SPLFRAME
 70
     0
  9
$SPLINETYPE
 70
     6
  9
$SPLINESEGS
 70
     8
  9
$HANDSEED
  5
2D8
  9
$SURFTAB1
 70
     6
  9
$SURFTAB2
 70
     6
  9
$SURFTYPE
 70
     6
  9
$SURFU
 70
     6
  9
$SURFV
 70
     6
  9
$UCSBASE
  2

  9
$UCSNAME
  2

  9
$UCSORG
 10
0.0
 20
0.0
 30
0.0
  9
$UCSXDIR
 10
1.0
 20
0.0
 30
0.0
  9
$UCSYDIR
 10
0.0
 20
1.0
 30
0.0
  9
$UCSORTHOREF
  2

  9
$UCSORTHOVIEW
 70
     0
  9
$UCSORGTOP
 10
0.0
 20
0.0
 30
0.0
  9
$UCSORGBOTTOM
 10
0.0
 20
0.0
 30
0.0
  9
$UCSORGLEFT
 10
0.0
 20
0.0
 30
0.0
  9
$UCSORGRIGHT
 10
0.0
 20
0.0
 30
0.0
  9
$UCSORGFRONT
 10
0.0
 20
0.0
 30
0.0
  9
$UCSORGBACK
 10
0.0
 20
0.0
 30
0.0
  9
$PUCSBASE
  2

  9
$PUCSNAME
  2

  9
$PUCSORG
 10
0.0
 20
0.0
 30
0.0
  9
$PUCSXDIR
 10
1.0
 20
0.0
 30
0.0
  9
$PUCSYDIR
 10
0.0
 20
1.0
 30
0.0
  9
$PUCSORTHOREF
  2

  9
$PUCSORTHOVIEW
 70
     0
  9
$PUCSORGTOP
 10
0.0
 20
0.0
 30
0.0
  9
$PUCSORGBOTTOM
 10
0.0
 20
0.0
 30
0.0
  9
$PUCSORGLEFT
 10
0.0
 20
0.0
 30
0.0
  9
$PUCSORGRIGHT
 10
0.0
 20
0.0
 30
0.0
  9
$PUCSORGFRONT
 10
0.0
 20
0.0
 30
0.0
  9
$PUCSORGBACK
 10
0.0
 20
0.0
 30
0.0
  9
$USERI1
 70
     0
  9
$USERI2
 70
     0
  9
$USERI3
 70
     0
  9
$USERI4
 70
     0
  9
$USERI5
 70
     0
  9
$USERR1
 40
0.0
  9
$USERR2
 40
0.0
  9
$USERR3
 40
0.0
  9
$USERR4
 40
0.0
  9
$USERR5
 40
0.0
  9
$WORLDVIEW
 70
     1
  9
$SHADEDGE
 70
     3
  9
$SHADEDIF
 70
    70
  9
$TILEMODE
 70
     1
  9
$MAXACTVP
 70
    64
  9
$PINSBASE
 10
0.0
 20
0.0
 30
0.0
  9
$PLIMCHECK
 70
     0
  9
$PEXTMIN
 10
1.000000000000000E+20
 20
1.000000000000000E+20
 30
1.000000000000000E+20
  9
$PEXTMAX
 10
-1.000000000000000E+20
 20
-1.000000000000000E+20
 30
-1.000000000000000E+20
  9
$PLIMMIN
 10
0.0
 20
0.0
  9
$PLIMMAX
 10
12.0
 20
9.0
  9
$UNITMODE
 70
     0
  9
$VISRETAIN
 70
     1
  9
$PLINEGEN
 70
     0
  9
$PSLTSCALE
 70
     1
  9
$TREEDEPTH
 70
  3020
  9
$CMLSTYLE
  2
Standard
  9
$CMLJUST
 70
     0
  9
$CMLSCALE
 40
1.0
  9
$PROXYGRAPHICS
 70
     1
  9
$MEASUREMENT
 70
     1
  9
$CELWEIGHT
370
    -1
  9
$ENDCAPS
280
     0
  9
$JOINSTYLE
280
     0
  9
$LWDISPLAY
290
     0
  9
$INSUNITS
 70
     4
  9
$HYPERLINKBASE
  1

  9
$STYLESHEET
  1

  9
$XEDIT
290
     1
  9
$CEPSNTYPE
380
     0
  9
$PSTYLEMODE
290
     1
  9
$FINGERPRINTGUID
  2
{CFD4FBB5-1013-4EF6-A6C3-C324E332C155}
  9
$VERSIONGUID
  2
{FD44960E-0BC9-4B40-80B5-B65AA2BFD907}
  9
$EXTNAMES
290
     1
  9
$PSVPSCALE
 40
0.0
  9
$OLESTARTUP
290
     0
  9
$SORTENTS
280
   127
  9
$INDEXCTL
280
     0
  9
$HIDETEXT
280
     1
  9
$XCLIPFRAME
280
     2
  9
$HALOGAP
280
     0
  9
$OBSCOLOR
 70
   257
  9
$OBSLTYPE
280
     0
  9
$INTERSECTIONDISPLAY
280
     0
  9
$INTERSECTIONCOLOR
 70
   257
  9
$DIMASSOC
280
     2
  9
$PROJECTNAME
  1

  9
$CAMERADISPLAY
290
     0
  9
$LENSLENGTH
 40
50.0
  9
$CAMERAHEIGHT
 40
0.0
  9
$STEPSPERSEC
 40
2.0
  9
$STEPSIZE
 40
6.0
  9
$3DDWFPREC
 40
2.0
  9
$PSOLWIDTH
 40
0.25
  9
$PSOLHEIGHT
 40
4.0
  9
$LOFTANG1
 40
1.570796326794896
  9
$LOFTANG2
 40
1.570796326794896
  9
$LOFTMAG1
 40
0.0
  9
$LOFTMAG2
 40
0.0
  9
$LOFTPARAM
 70
     7
  9
$LOFTNORMALS
280
     1
  9
$LATITUDE
 40
37.795
  9
$LONGITUDE
 40
-122.394
  9
$NORTHDIRECTION
 40
0.0
  9
$TIMEZONE
 70
 -8000
  9
$LIGHTGLYPHDISPLAY
280
     1
  9
$TILEMODELIGHTSYNCH
280
     1
  9
$CMATERIAL
347
11
  9
$SOLIDHIST
280
     0
  9
$SHOWHIST
280
     1
  9
$DWFFRAME
280
     2
  9
$DGNFRAME
280
     0
  9
$REALWORLDSCALE
290
     1
  9
$INTERFERECOLOR
 62
     1
  9
$INTERFEREOBJVS
345
33
  9
$INTERFEREVPVS
346
30
  9
$CSHADOW
280
     0
  9
$SHADOWPLANELOCATION
 40
0.0
  0
ENDSEC
  0
SECTION
  2
CLASSES
  0
CLASS
  1
ACDBDICTIONARYWDFLT
  2
AcDbDictionaryWithDefault
  3
ObjectDBX Classes
 90
        0
 91
        1
280
     0
281
     0
  0
CLASS
  1
MATERIAL
  2
AcDbMaterial
  3
ObjectDBX Classes
 90
     1153
 91
        3
280
     0
281
     0
  0
CLASS
  1
VISUALSTYLE
  2
AcDbVisualStyle
  3
ObjectDBX Classes
 90
     4095
 91
       24
280
     0
281
     0
  0
CLASS
  1
SCALE
  2
AcDbScale
  3
ObjectDBX Classes
 90
     1153
 91
       17
280
     0
281
     0
  0
CLASS
  1
TABLESTYLE
  2
AcDbTableStyle
  3
ObjectDBX Classes
 90
     4095
 91
        1
280
     0
281
     0
  0
CLASS
  1
MLEADERSTYLE
  2
AcDbMLeaderStyle
  3
ACDB_MLEADERSTYLE_CLASS
 90
     4095
 91
        1
280
     0
281
     0
  0
CLASS
  1
ACDBSECTIONVIEWSTYLE
  2
AcDbSectionViewStyle
  3
ObjectDBX Classes
 90
     1025
 91
        1
280
     0
281
     0
  0
CLASS
  1
ACDBDETAILVIEWSTYLE
  2
AcDbDetailViewStyle
  3
ObjectDBX Classes
 90
     1025
 91
        1
280
     0
281
     0
  0
CLASS
  1
RASTERVARIABLES
  2
AcDbRasterVariables
  3
ISM
 90
        0
 91
        1
280
     0
281
     0
  0
CLASS
  1
DICTIONARYVAR
  2
AcDbDictionaryVar
  3
ObjectDBX Classes
 90
        0
 91
        5
280
     0
281
     0
  0
CLASS
  1
CELLSTYLEMAP
  2
AcDbCellStyleMap
  3
ObjectDBX Classes
 90
     1152
 91
        2
280
     0
281
     0
  0
CLASS
  1
SORTENTSTABLE
  2
AcDbSortentsTable
  3
ObjectDBX Classes
 90
        0
 91
        1
280
     0
281
     0
  0
ENDSEC
  0
SECTION
  2
TABLES
  0
TABLE
  2
VPORT
  5
8
330
0
100
AcDbSymbolTable
 70
     1
  0
VPORT
  5
57
330
8
100
AcDbSymbolTableRecord
100
AcDbViewportTableRecord
  2
*Active
 70
     0
 10
0.0
 20
0.0
 11
1.0
 21
1.0
 12
889.390380698142
 22
1904.404789411664
 13
0.0
 23
0.0
 14
1.0
 24
1.0
 15
0.0
 25
0.0
 16
0.0
 26
0.0
 36
1.0
 17
0.0
 27
0.0
 37
0.0
 40
268.3178213832221
 41
1.593065806461697
 42
50.0
 43
0.0
 44
0.0
 50
0.0
 51
0.0
 71
     0
 72
  1000
 73
     1
 74
     1
 75
     0
 76
     0
 77
     0
 78
     0
281
     0
 65
     1
110
0.0
120
0.0
130
0.0
111
1.0
121
0.0
131
0.0
112
0.0
122
1.0
132
0.0
 79
     0
146
0.0
 60
     3
 61
     5
292
     1
282
     1
141
0.0
142
0.0
 63
   250
421
  3355443
  0
ENDTAB
  0
TABLE
  2
LTYPE
  5
5
330
0
100
AcDbSymbolTable
 70
     3
  0
LTYPE
  5
5B
330
5
100
AcDbSymbolTableRecord
100
AcDbLinetypeTableRecord
  2
ByBlock
 70
     0
  3

 72
    65
 73
     0
 40
0.0
  0
LTYPE
  5
5C
330
5
100
AcDbSymbolTableRecord
100
AcDbLinetypeTableRecord
  2
ByLayer
 70
     0
  3

 72
    65
 73
     0
 40
0.0
  0
LTYPE
  5
5D
330
5
100
AcDbSymbolTableRecord
100
AcDbLinetypeTableRecord
  2
Continuous
 70
     0
  3
Solid line
 72
    65
 73
     0
 40
0.0
  0
LTYPE
  5
69
330
5
100
AcDbSymbolTableRecord
100
AcDbLinetypeTableRecord
  2
PHANTOM2
 70
     0
  3
___ _ _ ___ _ _ ___ _ _ ___ _ _
 72
    65
 73
     6
 40
1.25
 49
0.625
 74
     0
 49
-0.125
 74
     0
 49
0.125
 74
     0
 49
-0.125
 74
     0
 49
0.125
 74
     0
 49
-0.125
 74
     0
  0
LTYPE
  5
86
330
5
100
AcDbSymbolTableRecord
100
AcDbLinetypeTableRecord
  2
Nascosto 1_5 mm
 70
     0
  3

 72
    65
 73
     2
 40
2.2
 49
1.5
 74
     0
 49
-0.7000000000000001
 74
     0
  0
ENDTAB
  0
TABLE
  2
LAYER
  5
2
330
0
100
AcDbSymbolTable
 70
     4
  0
LAYER
  5
54
330
2
100
AcDbSymbolTableRecord
100
AcDbLayerTableRecord
  2
0
 70
     0
 62
     7
  6
Continuous
370
    -3
390
F
347
21
348
0
  0
LAYER
  5
85
330
2
100
AcDbSymbolTableRecord
100
AcDbLayerTableRecord
  2
P-SANR-FIXT
 70
     0
 62
     6
  6
Continuous
370
    18
390
F
347
21
348
0
  0
LAYER
  5
88
330
2
100
AcDbSymbolTableRecord
100
AcDbLayerTableRecord
  2
M-PIPE
 70
     0
 62
     3
  6
Continuous
370
    18
390
F
347
21
348
0
  0
ENDTAB
  0
TABLE
  2
STYLE
  5
3
330
0
100
AcDbSymbolTable
 70
     2
  0
STYLE
  5
55
330
3
100
AcDbSymbolTableRecord
100
AcDbTextStyleTableRecord
  2
Standard
 70
     0
 40
0.0
 41
1.0
 50
0.0
 71
     0
 42
0.2
  3
txt
  4

  0
STYLE
  5
5A
330
3
100
AcDbSymbolTableRecord
100
AcDbTextStyleTableRecord
  2
Annotative
 70
     0
 40
0.0
 41
1.0
 50
0.0
 71
     0
 42
0.2
  3
txt
  4

1001
AcadAnnotative
1000
AnnotativeData
1002
{
1070
     1
1070
     1
1002
}
  0
ENDTAB
  0
TABLE
  2
VIEW
  5
6
330
0
100
AcDbSymbolTable
 70
     0
  0
ENDTAB
  0
TABLE
  2
UCS
  5
7
330
0
100
AcDbSymbolTable
 70
     0
  0
ENDTAB
  0
TABLE
  2
APPID
  5
9
330
0
100
AcDbSymbolTable
 70
     3
  0
APPID
  5
56
330
9
100
AcDbSymbolTableRecord
100
AcDbRegAppTableRecord
  2
ACAD
 70
     0
  0
APPID
  5
5E
330
9
100
AcDbSymbolTableRecord
100
AcDbRegAppTableRecord
  2
AcadAnnotative
 70
     0
  0
APPID
  5
79
330
9
100
AcDbSymbolTableRecord
100
AcDbRegAppTableRecord
  2
REVIT
 70
     0
  0
ENDTAB
  0
TABLE
  2
DIMSTYLE
  5
A
330
0
100
AcDbSymbolTable
 70
     2
100
AcDbDimStyleTable
 71
     0
  0
DIMSTYLE
105
58
330
A
100
AcDbSymbolTableRecord
100
AcDbDimStyleTableRecord
  2
Standard
 70
     0
340
55
  0
DIMSTYLE
105
59
330
A
100
AcDbSymbolTableRecord
100
AcDbDimStyleTableRecord
  2
Annotative
 70
     0
340
55
1001
AcadAnnotative
1000
AnnotativeData
1002
{
1070
     1
1070
     1
1002
}
  0
ENDTAB
  0
TABLE
  2
BLOCK_RECORD
  5
1
330
0
100
AcDbSymbolTable
 70
     4
  0
BLOCK_RECORD
  5
71
102
{ACAD_XDICTIONARY
360
2D3
102
}
330
1
100
AcDbSymbolTableRecord
100
AcDbBlockTableRecord
  2
*Model_Space
340
74
 70
     0
280
     1
281
     0
  0
BLOCK_RECORD
  5
6D
330
1
100
AcDbSymbolTableRecord
100
AcDbBlockTableRecord
  2
*Paper_Space
340
70
 70
     0
280
     1
281
     0
  0
BLOCK_RECORD
  5
75
330
1
100
AcDbSymbolTableRecord
100
AcDbBlockTableRecord
  2
*Paper_Space0
340
78
 70
     0
280
     1
281
     0
  0
BLOCK_RECORD
  5
87
330
1
100
AcDbSymbolTableRecord
100
AcDbBlockTableRecord
  2
Automatic flow rate regulator valve_Caleffi_121 DN15 - 1_2__-859151-Est - Idraulica
340
0
102
{BLKREFS
331
172
102
}
 70
     0
280
     1
281
     0
  0
BLOCK_RECORD
  5
173
330
1
100
AcDbSymbolTableRecord
100
AcDbBlockTableRecord
  2
Automatic flow rate regulator valve_Caleffi_121 DN15 - 1_2__-V1-Est - Idraulica
340
0
102
{BLKREFS
331
22E
102
}
 70
     0
280
     1
281
     0
  0
BLOCK_RECORD
  5
22F
330
1
100
AcDbSymbolTableRecord
100
AcDbBlockTableRecord
  2
Automatic flow rate regulator valve_Caleffi_121 DN15 - 1_2__-V2-Est - Idraulica
340
0
102
{BLKREFS
331
2CC
102
}
 70
     0
280
     1
281
     0
  0
ENDTAB
  0
ENDSEC
  0
SECTION
  2
BLOCKS
  0
BLOCK
  5
72
330
71
100
AcDbEntity
  8
0
100
AcDbBlockBegin
  2
*Model_Space
 70
     0
 10
0.0
 20
0.0
 30
0.0
  3
*Model_Space
  1

  0
ENDBLK
  5
73
330
71
100
AcDbEntity
  8
0
100
AcDbBlockEnd
  0
BLOCK
  5
6E
330
6D
100
AcDbEntity
 67
     1
  8
0
100
AcDbBlockBegin
  2
*Paper_Space
 70
     0
 10
0.0
 20
0.0
 30
0.0
  3
*Paper_Space
  1

  0
ENDBLK
  5
6F
330
6D
100
AcDbEntity
 67
     1
  8
0
100
AcDbBlockEnd
  0
BLOCK
  5
76
330
75
100
AcDbEntity
 67
     1
  8
0
100
AcDbBlockBegin
  2
*Paper_Space0
 70
     0
 10
0.0
 20
0.0
 30
0.0
  3
*Paper_Space0
  1

  0
ENDBLK
  5
77
330
75
100
AcDbEntity
 67
     1
  8
0
100
AcDbBlockEnd
  0
BLOCK
  5
170
330
87
100
AcDbEntity
  8
0
100
AcDbBlockBegin
  2
Automatic flow rate regulator valve_Caleffi_121 DN15 - 1_2__-859151-Est - Idraulica
 70
     0
 10
0.0
 20
0.0
 30
0.0
  3
Automatic flow rate regulator valve_Caleffi_121 DN15 - 1_2__-859151-Est - Idraulica
  1

  0
LINE
  5
89
330
87
100
AcDbEntity
  8
M-PIPE
100
AcDbLine
 10
719.2763096123293
 20
1904.800822437017
 30
0.0
 11
721.1914207201267
 21
1906.407791461234
 31
0.0
1001
REVIT
1002
{
1070
     3
1000
790271
1002
}
  0
LINE
  5
8A
330
87
100
AcDbEntity
  8
M-PIPE
100
AcDbLine
 10
705.1217304779709
 20
1925.558902539199
 30
0.0
 11
703.2066193701734
 21
1923.951933514983
 31
0.0
1001
REVIT
1002
{
1070
     3
1000
790271
1002
}
  0
LINE
  5
8B
330
87
100
AcDbEntity
  8
M-PIPE
100
AcDbLine
 10
718.5718935859265
 20
1904.862450853734
 30
0.0
 11
719.2763096123292
 21
1904.800822437017
 31
0.0
1001
REVIT
1002
{
1070
     3
1000
790271
1002
}
  0
LINE
  5
8C
330
87
100
AcDbEntity
  8
M-PIPE
100
AcDbLine
 10
703.2066193701734
 20
1923.951933514983
 30
0.0
 11
703.1449909534569
 21
1923.24751748858
 31
0.0
1001
REVIT
1002
{
1070
     3
1000
790271
1002
}
  0
LINE
  5
8D
330
87
100
AcDbEntity
  8
M-PIPE
100
AcDbLine
 10
718.5718746791267
 20
1904.862473385978
 30
0.0
 11
710.8755207058282
 21
1914.034630883533
 31
0.0
1001
REVIT
1002
{
1070
     3
1000
790271
1002
}
  0
LINE
  5
8E
330
87
100
AcDbEntity
  8
M-PIPE
100
AcDbLine
 10
710.8755207058282
 20
1914.034630883534
 30
0.0
 11
703.1449909534557
 21
1923.247517488579
 31
0.0
1001
REVIT
1002
{
1070
     3
1000
790271
1002
}
  0
LINE
  5
8F
330
87
100
AcDbEntity
  8
M-PIPE
100
AcDbLine
 10
711.2592545288934
 20
1914.355176634726
 30
0.0
 11
719.2762899177463
 21
1904.800845908105
 31
0.0
1001
REVIT
1002
{
1070
     3
1000
790271
1002
}
  0
LINE
  5
90
330
87
100
AcDbEntity
  8
M-PIPE
100
AcDbLine
 10
703.2066193701719
 20
1923.951933514982
 30
0.0
 11
711.2592545288933
 21
1914.355176634726
 31
0.0
1001
REVIT
1002
{
1070
     3
1000
790271
1002
}
  0
LINE
  5
91
330
87
100
AcDbEntity
  8
M-PIPE
100
AcDbLine
 10
713.3495396514328
 20
1904.396597461412
 30
0.0
 11
710.4680810874582
 21
1907.83058605694
 31
0.0
1001
REVIT
1002
{
1070
     3
1000
790271
1002
}
  0
LINE
  5
92
330
87
100
AcDbEntity
  8
M-PIPE
100
AcDbLine
 10
710.4680810874582
 20
1907.83058605694
 30
0.0
 11
707.5772599913571
 21
1911.275732483766
 31
0.0
1001
REVIT
1002
{
1070
     3
1000
790271
1002
}
  0
LINE
  5
93
330
87
100
AcDbEntity
  8
M-PIPE
100
AcDbLine
 10
707.577259991357
 20
1911.275732483766
 30
0.0
 11
704.683006780378
 21
1914.724969145828
 31
0.0
1001
REVIT
1002
{
1070
     3
1000
790271
1002
}
  0
LINE
  5
94
330
87
100
AcDbEntity
  8
M-PIPE
100
AcDbLine
 10
704.683006780378
 20
1914.724969145828
 30
0.0
 11
701.7793768571739
 21
1918.18538053837
 31
0.0
1001
REVIT
1002
{
1070
     3
1000
790271
1002
}
  0
SPLINE
  5
95
330
87
100
AcDbEntity
  8
M-PIPE
100
AcDbSpline
210
0.0
220
0.0
230
1.0
 70
     8
 71
     3
 72
     8
 73
     4
 74
     0
 42
0.000000001
 43
0.0000000001
 40
0.9963349319807759
 40
0.9963349319807759
 40
0.9963349319807759
 40
0.9963349319807759
 40
1.0
 40
1.0
 40
1.0
 40
1.0
 10
701.7795002137545
 20
1918.185539488879
 30
0.0
 10
701.7794565120262
 20
1918.185484338588
 30
0.0
 10
701.7794153931622
 20
1918.185431355089
 30
0.0
 10
701.7793768571631
 20
1918.185380538383
 30
0.0
1001
REVIT
1002
{
1070
     3
1000
790271
1002
}
  0
SPLINE
  5
96
330
87
100
AcDbEntity
  8
M-PIPE
100
AcDbSpline
210
0.0
220
0.0
230
1.0
 70
     8
 71
     3
 72
     9
 73
     5
 74
     0
 42
0.000000001
 43
0.0000000001
 40
0.0
 40
0.0
 40
0.0
 40
0.0
 40
0.5
 40
1.0
 40
1.0
 40
1.0
 40
1.0
 10
701.7793768571631
 20
1918.185380538383
 30
0.0
 10
701.7871170125832
 20
1918.189354042044
 30
0.0
 10
701.8987201929165
 20
1918.277975884155
 30
0.0
 10
702.2025691122364
 20
1918.527947395842
 30
0.0
 10
702.402555006643
 20
1918.693270569081
 30
0.0
1001
REVIT
1002
{
1070
     3
1000
790271
1002
}
  0
LINE
  5
97
330
87
100
AcDbEntity
  8
M-PIPE
100
AcDbLine
 10
702.402555006643
 20
1918.693270569081
 30
0.0
 11
705.0807631423991
 21
1920.94055402801
 31
0.0
1001
REVIT
1002
{
1070
     3
1000
790271
1002
}
  0
SPLINE
  5
98
330
87
100
AcDbEntity
  8
M-PIPE
100
AcDbSpline
210
0.0
220
0.0
230
1.0
 70
     8
 71
     3
 72
     9
 73
     5
 74
     0
 42
0.000000001
 43
0.0000000001
 40
0.0
 40
0.0
 40
0.0
 40
0.0
 40
0.5
 40
1.0
 40
1.0
 40
1.0
 40
1.0
 10
702.402555006643
 20
1918.693270569081
 30
0.0
 10
702.6829944206339
 20
1917.955398808579
 30
0.0
 10
703.3435091302473
 20
1916.556143477534
 30
0.0
 10
704.2032956031244
 20
1915.309864526409
 30
0.0
 10
704.6830067803788
 20
1914.724969145827
 30
0.0
1001
REVIT
1002
{
1070
     3
1000
790271
1002
}
  0
SPLINE
  5
99
330
87
100
AcDbEntity
  8
M-PIPE
100
AcDbSpline
210
0.0
220
0.0
230
1.0
 70
     8
 71
     3
 72
     9
 73
     5
 74
     0
 42
0.000000001
 43
0.0000000001
 40
0.0
 40
0.0
 40
0.0
 40
0.0
 40
0.5
 40
1.0
 40
1.0
 40
1.0
 40
1.0
 10
704.6830067803788
 20
1914.724969145827
 30
0.0
 10
705.1757153141386
 20
1914.1509798423
 30
0.0
 10
706.2537601334181
 20
1913.087841389154
 30
0.0
 10
707.5170604562175
 20
1912.194383243821
 30
0.0
 10
708.195024493497
 20
1911.790074248108
 30
0.0
1001
REVIT
1002
{
1070
     3
1000
790271
1002
}
  0
LINE
  5
9A
330
87
100
AcDbEntity
  8
M-PIPE
100
AcDbLine
 10
708.1950244934927
 20
1911.790074248113
 30
0.0
 11
710.8732326292554
 21
1914.037357707057
 31
0.0
1001
REVIT
1002
{
1070
     3
1000
790271
1002
}
  0
SPLINE
  5
9B
330
87
100
AcDbEntity
  8
M-PIPE
100
AcDbSpline
210
0.0
220
0.0
230
1.0
 70
     8
 71
     3
 72
     9
 73
     5
 74
     0
 42
0.000000001
 43
0.0000000001
 40
0.0
 40
0.0
 40
0.0
 40
0.0
 40
0.5
 40
1.0
 40
1.0
 40
1.0
 40
1.0
 10
708.1950244934927
 20
1911.790074248113
 30
0.0
 10
708.4742403247183
 20
1911.053660696768
 30
0.0
 10
709.1322989216038
 20
1909.657332446894
 30
0.0
 10
709.9896113873578
 20
1908.414001902657
 30
0.0
 10
710.4680810874519
 20
1907.830586056948
 30
0.0
1001
REVIT
1002
{
1070
     3
1000
790271
1002
}
  0
SPLINE
  5
9C
330
87
100
AcDbEntity
  8
M-PIPE
100
AcDbSpline
210
0.0
220
0.0
230
1.0
 70
     8
 71
     3
 72
     9
 73
     5
 74
     0
 42
0.000000001
 43
0.0000000001
 40
0.0
 40
0.0
 40
0.0
 40
0.0
 40
0.5
 40
1.0
 40
1.0
 40
1.0
 40
1.0
 10
710.4680810874519
 20
1907.830586056948
 30
0.0
 10
710.9595481440456
 20
1907.258076288285
 30
0.0
 10
712.0351189561954
 20
1906.197886242014
 30
0.0
 10
713.2959631662711
 20
1905.307355177851
 30
0.0
 10
713.9727036207903
 20
1904.904504391296
 30
0.0
1001
REVIT
1002
{
1070
     3
1000
790271
1002
}
  0
LINE
  5
9D
330
87
100
AcDbEntity
  8
M-PIPE
100
AcDbLine
 10
713.9727036207903
 20
1904.904504391296
 30
0.0
 11
716.6509117565595
 21
1907.151787850236
 31
0.0
1001
REVIT
1002
{
1070
     3
1000
790271
1002
}
  0
SPLINE
  5
9E
330
87
100
AcDbEntity
  8
M-PIPE
100
AcDbSpline
210
0.0
220
0.0
230
1.0
 70
     8
 71
     3
 72
     9
 73
     5
 74
     0
 42
0.000000001
 43
0.0000000001
 40
0.0
 40
0.0
 40
0.0
 40
0.0
 40
0.5
 40
1.0
 40
1.0
 40
1.0
 40
1.0
 10
713.9727036207903
 20
1904.904504391296
 30
0.0
 10
713.7727177263807
 20
1904.739181218055
 30
0.0
 10
713.4688688070601
 20
1904.489209706366
 30
0.0
 10
713.3572656267361
 20
1904.400587864264
 30
0.0
 10
713.3495254713231
 20
1904.396614360609
 30
0.0
1001
REVIT
1002
{
1070
     3
1000
790271
1002
}
  0
SPLINE
  5
9F
330
87
100
AcDbEntity
  8
M-PIPE
100
AcDbSpline
210
0.0
220
0.0
230
1.0
 70
     8
 71
     3
 72
     8
 73
     4
 74
     0
 42
0.000000001
 43
0.0000000001
 40
0.9931401926510286
 40
0.9931401926510286
 40
0.9931401926510286
 40
0.9931401926510286
 40
1.0
 40
1.0
 40
1.0
 40
1.0
 10
710.4662010145361
 20
1907.833424970799
 30
0.0
 10
710.4594238081739
 20
1907.841283913606
 30
0.0
 10
710.4526553193721
 20
1907.849150841053
 30
0.0
 10
710.4458955481306
 20
1907.857025753138
 30
0.0
1001
REVIT
1002
{
1070
     3
1000
790271
1002
}
  0
SPLINE
  5
A0
330
87
100
AcDbEntity
  8
M-PIPE
100
AcDbSpline
210
0.0
220
0.0
230
1.0
 70
     8
 71
     3
 72
     8
 73
     4
 74
     0
 42
0.000000001
 43
0.0000000001
 40
0.993124413851204
 40
0.993124413851204
 40
0.993124413851204
 40
0.993124413851204
 40
1.0
 40
1.0
 40
1.0
 40
1.0
 10
704.6811222612342
 20
1914.727814861836
 30
0.0
 10
704.6743464959477
 20
1914.735671501497
 30
0.0
 10
704.6675794892175
 20
1914.743536161562
 30
0.0
 10
704.6608212410436
 20
1914.751408842033
 30
0.0
1001
REVIT
1002
{
1070
     3
1000
790271
1002
}
  0
LINE
  5
A1
330
87
100
AcDbEntity
  8
P-SANR-FIXT
100
AcDbLine
 10
694.7796560972411
 20
1962.499999999995
 30
0.0
 11
694.8140417514561
 21
1962.559557700147
 31
0.0
  0
LINE
  5
A2
330
87
100
AcDbEntity
  8
P-SANR-FIXT
100
AcDbLine
 10
694.8191907948752
 20
1962.568476104959
 30
0.0
 11
697.6664074431892
 21
1967.499999999995
 31
0.0
  0
LINE
  5
A3
330
87
100
AcDbEntity
  8
P-SANR-FIXT
100
AcDbLine
 10
697.6664074431892
 20
2032.499999999997
 30
0.0
 11
694.8191907948751
 21
2037.431523895032
 31
0.0
  0
LINE
  5
A4
330
87
100
AcDbEntity
  8
P-SANR-FIXT
100
AcDbLine
 10
694.8140417514558
 20
2037.440442299844
 30
0.0
 11
694.7796560972411
 21
2037.499999999996
 31
0.0
  0
LINE
  5
A5
330
87
100
AcDbEntity
  8
P-SANR-FIXT
100
AcDbLine
 10
697.6664074431892
 20
1967.499999999995
 30
0.0
 11
701.6664074431892
 21
1967.499999999995
 31
0.0
  0
LINE
  5
A6
330
87
100
AcDbEntity
  8
P-SANR-FIXT
100
AcDbLine
 10
701.6664074431892
 20
2032.499999999997
 30
0.0
 11
697.6664074431892
 21
2032.499999999997
 31
0.0
  0
LINE
  5
A7
330
87
100
AcDbEntity
  8
P-SANR-FIXT
100
AcDbLine
 10
701.6664074431892
 20
1967.499999999995
 30
0.0
 11
703.6664074431893
 21
1969.999999999996
 31
0.0
  0
LINE
  5
A8
330
87
100
AcDbEntity
  8
P-SANR-FIXT
100
AcDbLine
 10
703.6664074431893
 20
2029.999999999996
 30
0.0
 11
701.6664074431892
 21
2032.499999999997
 31
0.0
  0
LINE
  5
A9
330
87
100
AcDbEntity
  8
P-SANR-FIXT
100
AcDbLine
 10
703.6664074431893
 20
1969.999999999995
 30
0.0
 11
721.5739672358248
 21
1969.999999999995
 31
0.0
  0
LINE
  5
AA
330
87
100
AcDbEntity
  8
P-SANR-FIXT
100
AcDbLine
 10
738.3664074431891
 20
2029.999999999997
 30
0.0
 11
736.0765784876143
 21
2029.999999999997
 31
0.0
  0
LINE
  5
AB
330
87
100
AcDbEntity
  8
P-SANR-FIXT
100
AcDbLine
 10
715.2562363987641
 20
2029.999999999997
 30
0.0
 11
703.6664074431893
 21
2029.999999999997
 31
0.0
  0
LINE
  5
AC
330
87
100
AcDbEntity
  8
P-SANR-FIXT
100
AcDbLine
 10
739.5037600690263
 20
2016.999999999996
 30
0.0
 11
738.3987213620026
 21
2029.630650217851
 31
0.0
  0
LINE
  5
AD
330
87
100
AcDbEntity
  8
P-SANR-FIXT
100
AcDbLine
 10
738.3934160431585
 20
2029.691290289724
 30
0.0
 11
738.3664074431891
 21
2029.999999999997
 31
0.0
  0
LINE
  5
AE
330
87
100
AcDbEntity
  8
P-SANR-FIXT
100
AcDbLine
 10
677.3984582507581
 20
2037.499999999997
 30
0.0
 11
677.3640721892302
 21
2037.440441594358
 31
0.0
  0
LINE
  5
AF
330
87
100
AcDbEntity
  8
P-SANR-FIXT
100
AcDbLine
 10
677.358923553124
 20
2037.431523895032
 30
0.0
 11
675.6664074431892
 21
2034.499999999996
 31
0.0
  0
LINE
  5
B0
330
87
100
AcDbEntity
  8
P-SANR-FIXT
100
AcDbLine
 10
675.6664074431892
 20
1965.499999999995
 30
0.0
 11
677.3589235531237
 21
1962.568476104959
 31
0.0
  0
LINE
  5
B1
330
87
100
AcDbEntity
  8
P-SANR-FIXT
100
AcDbLine
 10
677.36407218923
 20
1962.559558405634
 30
0.0
 11
677.398458250758
 21
1962.499999999995
 31
0.0
  0
LINE
  5
B2
330
87
100
AcDbEntity
  8
P-SANR-FIXT
100
AcDbLine
 10
694.7796560972411
 20
2037.499999999997
 30
0.0
 11
677.398458250758
 21
2037.499999999997
 31
0.0
  0
LINE
  5
B3
330
87
100
AcDbEntity
  8
P-SANR-FIXT
100
AcDbLine
 10
677.3984582507581
 20
1962.499999999995
 30
0.0
 11
694.7796560972411
 21
1962.499999999995
 31
0.0
  0
LINE
  5
B4
330
87
100
AcDbEntity
  8
P-SANR-FIXT
100
AcDbLine
 10
694.7796560972396
 20
2037.499999999996
 30
0.0
 11
694.7796560972396
 21
2037.226345658908
 31
0.0
  0
SPLINE
  5
B5
330
87
100
AcDbEntity
  8
P-SANR-FIXT
100
AcDbSpline
210
0.0
220
0.0
230
1.0
 70
     8
 71
     3
 72
     9
 73
     5
 74
     0
 42
0.000000001
 43
0.0000000001
 40
-1.0
 40
-1.0
 40
-1.0
 40
-1.0
 40
-0.5
 40
0.0
 40
0.0
 40
0.0
 40
0.0
 10
694.7796560972395
 20
2037.226345658908
 30
0.0
 10
695.9343554332722
 20
2034.78174969261
 30
0.0
 10
697.0890547693048
 20
2029.887663983528
 30
0.0
 10
695.9343554332722
 20
2024.983790721476
 30
0.0
 10
694.7796560972395
 20
2022.529407202208
 30
0.0
  0
LINE
  5
B6
330
87
100
AcDbEntity
  8
P-SANR-FIXT
100
AcDbLine
 10
694.7796560972395
 20
2022.529407202208
 30
0.0
 11
694.7796560972395
 21
2014.696938456696
 31
0.0
  0
SPLINE
  5
B7
330
87
100
AcDbEntity
  8
P-SANR-FIXT
100
AcDbSpline
210
0.0
220
0.0
230
1.0
 70
     8
 71
     3
 72
     9
 73
     5
 74
     0
 42
0.000000001
 43
0.0000000001
 40
-1.0
 40
-1.0
 40
-1.0
 40
-1.0
 40
-0.5
 40
0.0
 40
0.0
 40
0.0
 40
0.0
 10
694.7796560972395
 20
2014.696938456696
 30
0.0
 10
695.9343554332722
 20
2009.807746524099
 30
0.0
 10
697.0890547693048
 20
2000.019575105935
 30
0.0
 10
695.9343554332722
 20
1990.211828581831
 30
0.0
 10
694.7796560972395
 20
1985.303061543294
 30
0.0
  0
LINE
  5
B8
330
87
100
AcDbEntity
  8
P-SANR-FIXT
100
AcDbLine
 10
694.7796560972395
 20
1985.303061543294
 30
0.0
 11
694.7796560972395
 21
1977.470592797782
 31
0.0
  0
SPLINE
  5
B9
330
87
100
AcDbEntity
  8
P-SANR-FIXT
100
AcDbSpline
210
0.0
220
0.0
230
1.0
 70
     8
 71
     3
 72
     9
 73
     5
 74
     0
 42
0.000000001
 43
0.0000000001
 40
-1.0
 40
-1.0
 40
-1.0
 40
-1.0
 40
-0.5
 40
0.0
 40
0.0
 40
0.0
 40
0.0
 10
694.7796560972395
 20
1977.470592797782
 30
0.0
 10
695.9343554332722
 20
1975.025996831483
 30
0.0
 10
697.0890547693048
 20
1970.131911122402
 30
0.0
 10
695.9343554332722
 20
1965.22803786035
 30
0.0
 10
694.7796560972395
 20
1962.773654341081
 30
0.0
  0
LINE
  5
BA
330
87
100
AcDbEntity
  8
P-SANR-FIXT
100
AcDbLine
 10
694.7796560972395
 20
1962.773654341081
 30
0.0
 11
694.7796560972395
 21
1962.499999999994
 31
0.0
  0
LINE
  5
BB
330
87
100
AcDbEntity
  8
P-SANR-FIXT
100
AcDbLine
 10
697.6664074431878
 20
1967.499999999995
 30
0.0
 11
697.6664074431878
 21
2032.499999999996
 31
0.0
  0
LINE
  5
BC
330
87
100
AcDbEntity
  8
P-SANR-FIXT
100
AcDbLine
 10
701.6664074431878
 20
1967.499999999995
 30
0.0
 11
701.6664074431878
 21
2032.499999999996
 31
0.0
  0
LINE
  5
BD
330
87
100
AcDbEntity
  8
P-SANR-FIXT
100
AcDbLine
 10
703.6664074431878
 20
1969.999999999994
 30
0.0
 11
703.6664074431878
 21
2029.999999999995
 31
0.0
  0
LINE
  5
BE
330
87
100
AcDbEntity
  8
P-SANR-FIXT
100
AcDbLine
 10
738.3664074431877
 20
1976.906350392252
 30
0.0
 11
738.3664074431877
 21
2029.999999999995
 31
0.0
  0
LINE
  5
BF
330
87
100
AcDbEntity
  8
P-SANR-FIXT
100
AcDbLine
 10
675.6664074431879
 20
2001.567560923008
 30
0.0
 11
675.6664074431879
 21
1998.43245824655
 31
0.0
  0
LINE
  5
C0
330
87
100
AcDbEntity
  8
P-SANR-FIXT
100
AcDbLine
 10
675.6664074431879
 20
1998.43245824655
 30
0.0
 11
675.6664074431879
 21
2001.567560923008
 31
0.0
  0
LINE
  5
C1
330
87
100
AcDbEntity
  8
P-SANR-FIXT
100
AcDbLine
 10
675.6664074431879
 20
2029.877876430559
 30
0.0
 11
675.6664074431879
 21
2034.499999999995
 31
0.0
  0
SPLINE
  5
C2
330
87
100
AcDbEntity
  8
P-SANR-FIXT
100
AcDbSpline
210
0.0
220
0.0
230
1.0
 70
     8
 71
     3
 72
     9
 73
     5
 74
     0
 42
0.000000001
 43
0.0000000001
 40
-1.0
 40
-1.0
 40
-1.0
 40
-1.0
 40
-0.5
 40
0.0
 40
0.0
 40
0.0
 40
0.0
 10
675.6664074431879
 20
2029.877876430559
 30
0.0
 10
675.6794266768824
 20
2031.118408282496
 30
0.0
 10
675.9811210451716
 20
2033.583685005826
 30
0.0
 10
676.8341272152618
 20
2036.017387768063
 30
0.0
 10
677.3984582507568
 20
2037.226345658908
 30
0.0
  0
SPLINE
  5
C3
330
87
100
AcDbEntity
  8
P-SANR-FIXT
100
AcDbSpline
210
0.0
220
0.0
230
1.0
 70
     8
 71
     3
 72
     9
 73
     5
 74
     0
 42
0.000000001
 43
0.0000000001
 40
-1.0
 40
-1.0
 40
-1.0
 40
-1.0
 40
-0.5
 40
0.0
 40
0.0
 40
0.0
 40
0.0
 10
677.3984582507568
 20
1962.773654341081
 30
0.0
 10
676.8341272152615
 20
1963.982612231927
 30
0.0
 10
675.9811210451714
 20
1966.416314994164
 30
0.0
 10
675.6794266768822
 20
1968.881591717494
 30
0.0
 10
675.6664074431879
 20
1970.122123569433
 30
0.0
  0
LINE
  5
C4
330
87
100
AcDbEntity
  8
P-SANR-FIXT
100
AcDbLine
 10
675.6664074431879
 20
1965.499999999995
 30
0.0
 11
675.6664074431879
 21
1970.122123569432
 31
0.0
  0
LINE
  5
C5
330
87
100
AcDbEntity
  8
P-SANR-FIXT
100
AcDbLine
 10
675.6664074431879
 20
1999.999999999996
 30
0.0
 11
675.6664074431879
 21
2029.877876430559
 31
0.0
  0
SPLINE
  5
C6
330
87
100
AcDbEntity
  8
P-SANR-FIXT
100
AcDbSpline
210
0.0
220
0.0
230
1.0
 70
     8
 71
     3
 72
     9
 73
     5
 74
     0
 42
0.000000001
 43
0.0000000001
 40
-1.0
 40
-1.0
 40
-1.0
 40
-1.0
 40
-0.5
 40
0.0
 40
0.0
 40
0.0
 40
0.0
 10
675.6664074431879
 20
1999.999999999996
 30
0.0
 10
675.6794266768824
 20
2002.481063703872
 30
0.0
 10
675.9811210451716
 20
2007.411617150531
 30
0.0
 10
676.8341272152617
 20
2012.279022675005
 30
0.0
 10
677.3984582507568
 20
2014.696938456696
 30
0.0
  0
SPLINE
  5
C7
330
87
100
AcDbEntity
  8
P-SANR-FIXT
100
AcDbSpline
210
0.0
220
0.0
230
1.0
 70
     8
 71
     3
 72
     9
 73
     5
 74
     0
 42
0.000000001
 43
0.0000000001
 40
-1.0
 40
-1.0
 40
-1.0
 40
-1.0
 40
-0.5
 40
0.0
 40
0.0
 40
0.0
 40
0.0
 10
677.3984582507568
 20
2022.529407202208
 30
0.0
 10
676.8341272152615
 20
2023.738365093053
 30
0.0
 10
675.9811210451714
 20
2026.172067855291
 30
0.0
 10
675.6794266768822
 20
2028.637344578621
 30
0.0
 10
675.6664074431879
 20
2029.877876430559
 30
0.0
  0
LINE
  5
C8
330
87
100
AcDbEntity
  8
P-SANR-FIXT
100
AcDbLine
 10
675.6664074431879
 20
1970.122123569432
 30
0.0
 11
675.6664074431879
 21
1999.999999999996
 31
0.0
  0
SPLINE
  5
C9
330
87
100
AcDbEntity
  8
P-SANR-FIXT
100
AcDbSpline
210
0.0
220
0.0
230
1.0
 70
     8
 71
     3
 72
     9
 73
     5
 74
     0
 42
0.000000001
 43
0.0000000001
 40
-1.0
 40
-1.0
 40
-1.0
 40
-1.0
 40
-0.5
 40
0.0
 40
0.0
 40
0.0
 40
0.0
 10
675.6664074431879
 20
1970.122123569433
 30
0.0
 10
675.6794266768824
 20
1971.36265542137
 30
0.0
 10
675.9811210451716
 20
1973.827932144699
 30
0.0
 10
676.8341272152617
 20
1976.261634906937
 30
0.0
 10
677.3984582507568
 20
1977.470592797782
 30
0.0
  0
SPLINE
  5
CA
330
87
100
AcDbEntity
  8
P-SANR-FIXT
100
AcDbSpline
210
0.0
220
0.0
230
1.0
 70
     8
 71
     3
 72
     9
 73
     5
 74
     0
 42
0.000000001
 43
0.0000000001
 40
-1.0
 40
-1.0
 40
-1.0
 40
-1.0
 40
-0.5
 40
0.0
 40
0.0
 40
0.0
 40
0.0
 10
677.3984582507568
 20
1985.303061543294
 30
0.0
 10
676.8341272152615
 20
1987.720977324985
 30
0.0
 10
675.9811210451714
 20
1992.58838284946
 30
0.0
 10
675.6794266768822
 20
1997.51893629612
 30
0.0
 10
675.6664074431879
 20
1999.999999999996
 30
0.0
  0
LINE
  5
CB
330
87
100
AcDbEntity
  8
P-SANR-FIXT
100
AcDbLine
 10
675.6664074431879
 20
2030.647879452662
 30
0.0
 11
675.6664074431879
 21
2029.877876430558
 31
0.0
  0
LINE
  5
CC
330
87
100
AcDbEntity
  8
P-SANR-FIXT
100
AcDbLine
 10
675.6664074431879
 20
1970.122123569431
 30
0.0
 11
675.6664074431879
 21
1969.34886448431
 31
0.0
  0
LINE
  5
CD
330
87
100
AcDbEntity
  8
P-SANR-FIXT
100
AcDbLine
 10
675.6664074431879
 20
1970.870219457254
 30
0.0
 11
675.6664074431879
 21
1970.122123569431
 31
0.0
  0
LINE
  5
CE
330
87
100
AcDbEntity
  8
P-SANR-FIXT
100
AcDbLine
 10
675.6664074431879
 20
2029.877876430558
 30
0.0
 11
675.6664074431879
 21
2029.125933691317
 31
0.0
  0
LINE
  5
CF
330
87
100
AcDbEntity
  8
P-SANR-FIXT
100
AcDbLine
 10
677.3984582507568
 20
2014.696938456695
 30
0.0
 11
677.3984582507568
 21
2022.529407202207
 31
0.0
  0
LINE
  5
D0
330
87
100
AcDbEntity
  8
P-SANR-FIXT
100
AcDbLine
 10
677.3984582507568
 20
2014.696938456696
 30
0.0
 11
694.7796560972395
 21
2014.696938456696
 31
0.0
  0
LINE
  5
D1
330
87
100
AcDbEntity
  8
P-SANR-FIXT
100
AcDbLine
 10
694.7796560972395
 20
2022.529407202208
 30
0.0
 11
677.3984582507568
 21
2022.529407202208
 31
0.0
  0
LINE
  5
D2
330
87
100
AcDbEntity
  8
P-SANR-FIXT
100
AcDbLine
 10
677.3984582507568
 20
1977.470592797781
 30
0.0
 11
677.3984582507568
 21
1985.303061543294
 31
0.0
  0
LINE
  5
D3
330
87
100
AcDbEntity
  8
P-SANR-FIXT
100
AcDbLine
 10
677.3984582507568
 20
1977.470592797782
 30
0.0
 11
694.7796560972395
 21
1977.470592797782
 31
0.0
  0
LINE
  5
D4
330
87
100
AcDbEntity
  8
P-SANR-FIXT
100
AcDbLine
 10
694.7796560972395
 20
1985.303061543294
 30
0.0
 11
677.3984582507568
 21
1985.303061543294
 31
0.0
  0
LINE
  5
D5
330
87
100
AcDbEntity
  8
P-SANR-FIXT
100
AcDbLine
 10
677.3984582507567
 20
2037.226345658908
 30
0.0
 11
677.3984582507567
 21
2037.499999999996
 31
0.0
  0
LINE
  5
D6
330
87
100
AcDbEntity
  8
P-SANR-FIXT
100
AcDbLine
 10
677.3984582507568
 20
2037.226345658908
 30
0.0
 11
694.7796560972395
 21
2037.226345658908
 31
0.0
  0
LINE
  5
D7
330
87
100
AcDbEntity
  8
P-SANR-FIXT
100
AcDbLine
 10
694.7796560972395
 20
1962.773654341081
 30
0.0
 11
677.3984582507568
 21
1962.773654341081
 31
0.0
  0
LINE
  5
D8
330
87
100
AcDbEntity
  8
P-SANR-FIXT
100
AcDbLine
 10
677.3984582507568
 20
1962.499999999994
 30
0.0
 11
677.3984582507568
 21
1962.773654341081
 31
0.0
  0
LINE
  5
D9
330
87
100
AcDbEntity
  8
P-SANR-FIXT
100
AcDbLine
 10
733.2371216574435
 20
2038.500000000002
 30
0.0
 11
733.6664074432067
 21
2038.500000000002
 31
0.0
  0
LINE
  5
DA
330
87
100
AcDbEntity
  8
P-SANR-FIXT
100
AcDbLine
 10
717.6664074431678
 20
2038.500000000002
 30
0.0
 11
718.0956932289328
 21
2038.500000000002
 31
0.0
  0
LINE
  5
DB
330
87
100
AcDbEntity
  8
P-SANR-FIXT
100
AcDbLine
 10
718.0956932289328
 20
2038.500000000002
 30
0.0
 11
725.2371216574232
 21
2038.500000000002
 31
0.0
  0
LINE
  5
DC
330
87
100
AcDbEntity
  8
P-SANR-FIXT
100
AcDbLine
 10
725.2371216574232
 20
2038.500000000002
 30
0.0
 11
726.095693228951
 21
2038.500000000002
 31
0.0
  0
LINE
  5
DD
330
87
100
AcDbEntity
  8
P-SANR-FIXT
100
AcDbLine
 10
726.095693228951
 20
2038.500000000002
 30
0.0
 11
733.2371216574435
 21
2038.500000000002
 31
0.0
  0
LINE
  5
DE
330
87
100
AcDbEntity
  8
P-SANR-FIXT
100
AcDbLine
 10
726.095693228951
 20
2034.999999999994
 30
0.0
 11
725.2371216574233
 21
2034.999999999994
 31
0.0
  0
LINE
  5
DF
330
87
100
AcDbEntity
  8
P-SANR-FIXT
100
AcDbLine
 10
718.095693228933
 20
2034.999999999994
 30
0.0
 11
717.6664074431678
 21
2034.999999999994
 31
0.0
  0
LINE
  5
E0
330
87
100
AcDbEntity
  8
P-SANR-FIXT
100
AcDbLine
 10
733.6664074432067
 20
2034.999999999994
 30
0.0
 11
733.2371216574435
 21
2034.999999999994
 31
0.0
  0
LINE
  5
E1
330
87
100
AcDbEntity
  8
P-SANR-FIXT
100
AcDbLine
 10
733.2371216574435
 20
2038.500000000002
 30
0.0
 11
733.2371216574435
 21
2034.999999999994
 31
0.0
  0
LINE
  5
E2
330
87
100
AcDbEntity
  8
P-SANR-FIXT
100
AcDbLine
 10
733.6664074432067
 20
2034.999999999994
 30
0.0
 11
733.6664074432067
 21
2038.500000000002
 31
0.0
  0
LINE
  5
E3
330
87
100
AcDbEntity
  8
P-SANR-FIXT
100
AcDbLine
 10
717.6664074431678
 20
2034.999999999994
 30
0.0
 11
717.6664074431678
 21
2038.500000000002
 31
0.0
  0
LINE
  5
E4
330
87
100
AcDbEntity
  8
P-SANR-FIXT
100
AcDbLine
 10
718.0956932289328
 20
2034.999999999994
 30
0.0
 11
718.0956932289328
 21
2038.500000000002
 31
0.0
  0
LINE
  5
E5
330
87
100
AcDbEntity
  8
P-SANR-FIXT
100
AcDbLine
 10
725.2371216574232
 20
2034.999999999994
 30
0.0
 11
725.2371216574232
 21
2038.500000000002
 31
0.0
  0
LINE
  5
E6
330
87
100
AcDbEntity
  8
P-SANR-FIXT
100
AcDbLine
 10
726.095693228951
 20
2034.999999999994
 30
0.0
 11
726.095693228951
 21
2038.500000000002
 31
0.0
  0
LINE
  5
E7
330
87
100
AcDbEntity
  8
P-SANR-FIXT
100
AcDbLine
 10
715.1664074431891
 20
2032.999999999996
 30
0.0
 11
715.1664074431891
 21
2029.971012867723
 31
0.0
  0
LINE
  5
E8
330
87
100
AcDbEntity
  8
P-SANR-FIXT
100
AcDbLine
 10
736.1664074431894
 20
2029.971012867723
 30
0.0
 11
736.1664074431894
 21
2032.999999999996
 31
0.0
  0
LINE
  5
E9
330
87
100
AcDbEntity
  8
P-SANR-FIXT
100
AcDbLine
 10
715.1664074431878
 20
2032.999999999995
 30
0.0
 11
736.1664074431878
 21
2032.999999999995
 31
0.0
  0
LINE
  5
EA
330
87
100
AcDbEntity
  8
P-SANR-FIXT
100
AcDbLine
 10
784.7405767182318
 20
2016.999999999995
 30
0.0
 11
739.4711311132701
 21
2016.999999999995
 31
0.0
  0
LINE
  5
EB
330
87
100
AcDbEntity
  8
P-SANR-FIXT
100
AcDbLine
 10
746.3639737821479
 20
1898.188444490838
 30
0.0
 11
747.772805835024
 21
1898.065187657399
 31
0.0
  0
LINE
  5
EC
330
87
100
AcDbEntity
  8
P-SANR-FIXT
100
AcDbLine
 10
701.4920979375929
 20
1953.220387561966
 30
0.0
 11
701.3688411041543
 21
1951.81155550909
 31
0.0
  0
LINE
  5
ED
330
87
100
AcDbEntity
  8
P-SANR-FIXT
100
AcDbLine
 10
747.7728058350237
 20
1898.065187657399
 30
0.0
 11
783.5910211115733
 21
1928.120238885381
 31
0.0
  0
LINE
  5
EE
330
87
100
AcDbEntity
  8
P-SANR-FIXT
100
AcDbLine
 10
721.5532272109043
 20
1970.053673736201
 30
0.0
 11
701.492097937593
 21
1953.220387561965
 31
0.0
  0
LWPOLYLINE
  5
EF
330
87
100
AcDbEntity
  8
P-SANR-FIXT
100
AcDbPolyline
 90
       21
 70
   128
 43
0.0
 10
784.651242376789
 20
1930.156904986495
 10
784.6383959279099
 20
1930.037602644298
 10
784.6207889335884
 20
1929.918909452188
 10
784.5984495612591
 20
1929.801015293951
 10
784.5714135491527
 20
1929.684108775091
 10
784.5397241491212
 20
1929.568376921101
 10
784.5034320574441
 20
1929.454004878258
 10
784.4625953337266
 20
1929.341175617433
 10
784.4172793080156
 20
1929.230069641373
 10
784.3675564762845
 20
1929.12086469594
 10
784.3135063844578
 20
1929.01373548575
 10
784.255215501152
 20
1928.908853394687
 10
784.1927770793457
 20
1928.806386211722
 10
784.1262910071945
 20
1928.70649786249
 10
784.0558636482307
 20
1928.609348147041
 10
783.9816076712049
 20
1928.515092484196
 10
783.9036418698401
 20
1928.423881662909
 10
783.8220909727866
 20
1928.335861601036
 10
783.737085444083
 20
1928.251173111899
 10
783.6487612744418
 20
1928.169951679016
 10
783.5910211115734
 20
1928.120238885381
  0
LINE
  5
F0
330
87
100
AcDbEntity
  8
P-SANR-FIXT
100
AcDbLine
 10
784.651242376789
 20
1930.156904986495
 30
0.0
 11
785.0975948551806
 21
1935.258737159978
 31
0.0
  0
LINE
  5
F1
330
87
100
AcDbEntity
  8
P-SANR-FIXT
100
AcDbLine
 10
785.0975948551811
 20
1935.258737159978
 30
0.0
 11
788.927817070776
 21
1938.47267520841
 31
0.0
  0
LINE
  5
F2
330
87
100
AcDbEntity
  8
P-SANR-FIXT
100
AcDbLine
 10
788.9278170707756
 20
1938.472675208411
 30
0.0
 11
791.0410651499839
 21
1938.287789958262
 31
0.0
  0
LINE
  5
F3
330
87
100
AcDbEntity
  8
P-SANR-FIXT
100
AcDbLine
 10
791.0410651499828
 20
1938.287789958263
 30
0.0
 11
822.4488873178611
 21
1964.642081955412
 31
0.0
  0
LINE
  5
F4
330
87
100
AcDbEntity
  8
P-SANR-FIXT
100
AcDbLine
 10
822.4488873178614
 20
1964.642081955411
 30
0.0
 11
822.6337725680108
 21
1966.755330034618
 31
0.0
  0
LINE
  5
F5
330
87
100
AcDbEntity
  8
P-SANR-FIXT
100
AcDbLine
 10
822.6337725680108
 20
1966.755330034618
 30
0.0
 11
825.6910317870653
 21
1969.32067511774
 31
0.0
  0
LINE
  5
F6
330
87
100
AcDbEntity
  8
P-SANR-FIXT
100
AcDbLine
 10
786.7344198164722
 20
2018.872855609234
 30
0.0
 11
784.502437415753
 21
2016.999999999996
 31
0.0
  0
LINE
  5
F7
330
87
100
AcDbEntity
  8
P-SANR-FIXT
100
AcDbLine
 10
787.5004642595915
 20
2019.51564321892
 30
0.0
 11
786.7344198164723
 21
2018.872855609234
 31
0.0
  0
LWPOLYLINE
  5
F8
330
87
100
AcDbEntity
  8
P-SANR-FIXT
100
AcDbPolyline
 90
       57
 70
   128
 43
0.0
 10
821.4514508591566
 20
1985.277328274212
 10
820.8784307803291
 20
1985.960227011783
 10
820.2893072823268
 20
1986.662317057009
 10
819.6850228370742
 20
1987.382475215588
 10
819.0665441707755
 20
1988.119549388092
 10
818.4348607173625
 20
1988.87236041308
 10
817.7909830356082
 20
1989.639703953502
 10
817.1359411924505
 20
1990.420352423384
 10
816.4707831151034
 20
1991.213056951705
 10
815.7965729145983
 20
1992.016549380322
 10
815.1143891834315
 20
1992.829544292749
 10
814.4253232700485
 20
1993.650741070557
 10
813.7304775329177
 20
1994.478825974082
 10
813.0309635769929
 20
1995.312474244125
 10
812.3279004753815
 20
1996.150352221291
 10
811.6224129790676
 20
1996.991119479553
 10
810.9156297175491
 20
1997.833430970653
 10
810.2086813932723
 20
1998.675939175888
 10
809.5026989727482
 20
1999.517296261856
 10
808.7988118772482
 20
2000.356156236699
 10
808.0981461759709
 20
2001.191177103404
 10
807.40182278457
 20
2002.021023006713
 10
806.7109556719316
 20
2002.844366370205
 10
806.0266500780583
 20
2003.659890020136
 10
805.3500007459231
 20
2004.466289292635
 10
804.6820901701133
 20
2005.262274120888
 10
804.0239868650699
 20
2006.046571098971
 10
803.3767436556935
 20
2006.817925519028
 10
802.7413959930475
 20
2007.575103378533
 10
802.1189602978591
 20
2008.316893354432
 10
801.5104323344607
 20
2009.042108741006
 10
800.9167856177816
 20
2009.74958934834
 10
800.3389698559312
 20
2010.438203358384
 10
799.7779094308667
 20
2011.106849135616
 10
799.2345019195823
 20
2011.754456989432
 10
798.7096166581753
 20
2012.379990885413
 10
798.2040933510942
 20
2012.982450102768
 10
797.7187407277912
 20
2013.560870835264
 10
797.2543352489273
 20
2014.114327733121
 10
796.8116198642006
 20
2014.641935383366
 10
796.3913028237858
 20
2015.142849726308
 10
795.9940565452849
 20
2015.616269405856
 10
795.6205165380018
 20
2016.061437051513
 10
795.2712803862641
 20
2016.477640490011
 10
794.9469067934151
 20
2016.864213884631
 10
794.6479146880069
 20
2017.220538800409
 10
794.3747823936266
 20
2017.54604519349
 10
794.1279468636803
 20
2017.840212323083
 10
793.9078029823605
 20
2018.102569584534
 10
793.7147029329158
 20
2018.33269726219
 10
793.5489556342324
 20
2018.530227200858
 10
793.4108262466313
 20
2018.694843394775
 10
793.3005357476662
 20
2018.826282493145
 10
793.218260578608
 20
2018.924334221452
 10
793.1641323621764
 20
2018.988841717845
 10
793.1382376919709
 20
2019.019701784091
 10
793.1357924708132
 20
2019.022615885191
  0
LWPOLYLINE
  5
F9
330
87
100
AcDbEntity
  8
P-SANR-FIXT
100
AcDbPolyline
 90
       41
 70
   128
 43
0.0
 10
787.5004642595911
 20
2019.51564321892
 10
787.6250553346515
 20
2019.61601079767
 10
787.753560382789
 20
2019.711315778924
 10
787.8857738233395
 20
2019.801405695045
 10
788.021484143002
 20
2019.886136421383
 10
788.1604742342154
 20
2019.965372406852
 10
788.3025217424829
 20
2020.038986890777
 10
788.4473994220935
 20
2020.10686210569
 10
788.5948754996653
 20
2020.168889465723
 10
788.7447140449341
 20
2020.224969740334
 10
788.8966753481915
 20
2020.275013213046
 10
789.0505163037683
 20
2020.318939824978
 10
789.2059907989541
 20
2020.356679302921
 10
789.3628501077223
 20
2020.388171271763
 10
789.5208432886404
 20
2020.413365351069
 10
789.6797175863224
 20
2020.432221235688
 10
789.8392188357832
 20
2020.444708760227
 10
789.9990918690491
 20
2020.450807947311
 10
790.159080923371
 20
2020.45050903954
 10
790.3189300503916
 20
2020.443812515105
 10
790.4783835256065
 20
2020.430729087015
 10
790.6371862574705
 20
2020.411279685964
 10
790.7950841954886
 20
2020.385495426845
 10
790.9518247366435
 20
2020.353417558974
 10
791.1071571295051
 20
2020.315097400093
 10
791.2608328753807
 20
2020.270596254285
 10
791.4126061258594
 20
2020.219985313888
 10
791.5622340761169
 20
2020.163345545611
 10
791.709477353352
 20
2020.100767561002
 10
791.854100399731
 20
2020.032351471485
 10
791.9958718492312
 20
2019.95820672821
 10
792.1345648977761
 20
2019.878451946949
 10
792.2699576660747
 20
2019.793214718338
 10
792.4018335545795
 20
2019.702631403761
 10
792.5299815900013
 20
2019.606846917198
 10
792.65419676282
 20
2019.506014493393
 10
792.774280355257
 20
2019.400295442716
 10
792.8900402591808
 20
2019.289858893094
 10
793.0012912834394
 20
2019.17488151945
 10
793.1078554501262
 20
2019.055547261054
 10
793.1357924708132
 20
2019.022615885191
  0
LWPOLYLINE
  5
FA
330
87
100
AcDbEntity
  8
P-SANR-FIXT
100
AcDbPolyline
 90
        4
 70
   128
 43
0.0
 10
793.1357924708132
 20
2019.022615885191
 10
793.1499319128164
 20
2019.005765154386
 10
793.1923276187356
 20
2018.955239919547
 10
793.2165240831307
 20
2018.926403696176
  0
LINE
  5
FB
330
87
100
AcDbEntity
  8
P-SANR-FIXT
100
AcDbLine
 10
825.6910317870653
 20
1969.32067511774
 30
0.0
 11
827.5117069048107
 21
1967.499999999995
 31
0.0
  0
LINE
  5
FC
330
87
100
AcDbEntity
  8
P-SANR-FIXT
100
AcDbLine
 10
827.5117069048107
 20
2032.499999999997
 30
0.0
 11
823.4393950187005
 21
2028.427688113886
 31
0.0
  0
LINE
  5
FD
330
87
100
AcDbEntity
  8
P-SANR-FIXT
100
AcDbLine
 10
827.5117069048107
 20
1967.499999999995
 30
0.0
 11
831.511706904811
 21
1967.499999999995
 31
0.0
  0
LINE
  5
FE
330
87
100
AcDbEntity
  8
P-SANR-FIXT
100
AcDbLine
 10
831.511706904811
 20
2032.499999999997
 30
0.0
 11
827.5117069048107
 21
2032.499999999997
 31
0.0
  0
LINE
  5
FF
330
87
100
AcDbEntity
  8
P-SANR-FIXT
100
AcDbLine
 10
831.511706904811
 20
1967.499999999995
 30
0.0
 11
834.3589235531238
 21
1962.56847610496
 31
0.0
  0
LINE
  5
100
330
87
100
AcDbEntity
  8
P-SANR-FIXT
100
AcDbLine
 10
834.364072596543
 20
1962.559557700148
 30
0.0
 11
834.3984582507582
 21
1962.499999999996
 31
0.0
  0
LINE
  5
101
330
87
100
AcDbEntity
  8
P-SANR-FIXT
100
AcDbLine
 10
834.3984582507582
 20
2037.499999999996
 30
0.0
 11
834.364072596543
 21
2037.440442299844
 31
0.0
  0
LINE
  5
102
330
87
100
AcDbEntity
  8
P-SANR-FIXT
100
AcDbLine
 10
834.3589235531238
 20
2037.431523895032
 30
0.0
 11
831.511706904811
 21
2032.499999999997
 31
0.0
  0
LINE
  5
103
330
87
100
AcDbEntity
  8
P-SANR-FIXT
100
AcDbLine
 10
799.1706546082818
 20
2022.128355544948
 30
0.0
 11
794.0999738853433
 21
2017.873549220512
 31
0.0
  0
LWPOLYLINE
  5
104
330
87
100
AcDbEntity
  8
P-SANR-FIXT
100
AcDbPolyline
 90
       19
 70
   128
 43
0.0
 10
799.1706546082818
 20
2022.128355544948
 10
799.4198367584028
 20
2022.329090702446
 10
799.6768468546775
 20
2022.519700664955
 10
799.9412737357784
 20
2022.699880497195
 10
800.2126943751036
 20
2022.869341949872
 10
800.4906745575302
 20
2023.02781392081
 10
800.7747695740656
 20
2023.175042888661
 10
801.0645249332867
 20
2023.310793318485
 10
801.3594770884305
 20
2023.434848038552
 10
801.6591541789679
 20
2023.547008587774
 10
801.9630767854824
 20
2023.647095533198
 10
802.2707586966367
 20
2023.734948757061
 10
802.581707687008
 20
2023.810427712949
 10
802.8954263045445
 20
2023.873411650631
 10
803.2114126663804
 20
2023.923799809244
 10
803.5291612617443
 20
2023.961511578483
 10
803.8481637606661
 20
2023.986486627561
 10
804.1679098271981
 20
2023.998685001727
 10
804.3129554857742
 20
2023.999999999996
  0
LINE
  5
105
330
87
100
AcDbEntity
  8
P-SANR-FIXT
100
AcDbLine
 10
807.8934198676781
 20
2023.999999999996
 30
0.0
 11
804.3129554857742
 21
2023.999999999996
 31
0.0
  0
LINE
  5
106
330
87
100
AcDbEntity
  8
P-SANR-FIXT
100
AcDbLine
 10
807.8934198676781
 20
2033.063700103276
 30
0.0
 11
807.8934198676781
 21
2023.999999999996
 31
0.0
  0
LINE
  5
107
330
87
100
AcDbEntity
  8
P-SANR-FIXT
100
AcDbLine
 10
823.4393950187005
 20
2028.427688113886
 30
0.0
 11
823.4393950187005
 21
2033.063700103276
 31
0.0
  0
LINE
  5
108
330
87
100
AcDbEntity
  8
P-SANR-FIXT
100
AcDbLine
 10
852.9343566356203
 20
2037.499999999996
 30
0.0
 11
834.3984582507582
 21
2037.499999999996
 31
0.0
  0
LINE
  5
109
330
87
100
AcDbEntity
  8
P-SANR-FIXT
100
AcDbLine
 10
834.3984582507582
 20
1962.499999999996
 30
0.0
 11
852.9343566356203
 21
1962.499999999996
 31
0.0
  0
LINE
  5
10A
330
87
100
AcDbEntity
  8
P-SANR-FIXT
100
AcDbLine
 10
854.6664074431891
 20
2034.499999999996
 30
0.0
 11
852.9738913332547
 21
2037.431523895032
 31
0.0
  0
LINE
  5
10B
330
87
100
AcDbEntity
  8
P-SANR-FIXT
100
AcDbLine
 10
852.9687426971484
 20
2037.440441594357
 30
0.0
 11
852.9343566356203
 21
2037.499999999996
 31
0.0
  0
LINE
  5
10C
330
87
100
AcDbEntity
  8
P-SANR-FIXT
100
AcDbLine
 10
852.9343566356203
 20
1962.499999999996
 30
0.0
 11
852.9687426971484
 21
1962.559558405635
 31
0.0
  0
LINE
  5
10D
330
87
100
AcDbEntity
  8
P-SANR-FIXT
100
AcDbLine
 10
852.9738913332547
 20
1962.56847610496
 30
0.0
 11
854.6664074431895
 21
1965.499999999996
 31
0.0
  0
LINE
  5
10E
330
87
100
AcDbEntity
  8
P-SANR-FIXT
100
AcDbLine
 10
806.6664074431864
 20
2035.063700103267
 30
0.0
 11
806.6664074431864
 21
2033.063700103276
 31
0.0
  0
LINE
  5
10F
330
87
100
AcDbEntity
  8
P-SANR-FIXT
100
AcDbLine
 10
824.6664074431921
 20
2033.063700103276
 30
0.0
 11
824.6664074431921
 21
2035.063700103267
 31
0.0
  0
LINE
  5
110
330
87
100
AcDbEntity
  8
P-SANR-FIXT
100
AcDbLine
 10
716.6664074431849
 20
2034.999999999994
 30
0.0
 11
716.6664074431849
 21
2033.000000000003
 31
0.0
  0
LINE
  5
111
330
87
100
AcDbEntity
  8
P-SANR-FIXT
100
AcDbLine
 10
734.6664074431921
 20
2033.000000000003
 30
0.0
 11
734.6664074431921
 21
2034.999999999994
 31
0.0
  0
LINE
  5
112
330
87
100
AcDbEntity
  8
P-SANR-FIXT
100
AcDbLine
 10
729.2197607767689
 20
1911.044532921079
 30
0.0
 11
743.4015332706543
 21
1896.862760427193
 31
0.0
  0
LINE
  5
113
330
87
100
AcDbEntity
  8
P-SANR-FIXT
100
AcDbLine
 10
743.4527987749943
 20
1896.811494922854
 30
0.0
 11
743.7392902706928
 21
1896.525003427155
 31
0.0
  0
LINE
  5
114
330
87
100
AcDbEntity
  8
P-SANR-FIXT
100
AcDbLine
 10
699.2748999392432
 20
1949.51560034717
 30
0.0
 11
699.5072902592337
 21
1949.18371257489
 31
0.0
  0
LINE
  5
115
330
87
100
AcDbEntity
  8
P-SANR-FIXT
100
AcDbLine
 10
699.5567496609245
 20
1949.113077228951
 30
0.0
 11
711.0525553177478
 21
1932.695365294264
 31
0.0
  0
LWPOLYLINE
  5
116
330
87
100
AcDbEntity
  8
P-SANR-FIXT
100
AcDbPolyline
 90
       39
 70
   128
 43
0.0
 10
699.2748999392435
 20
1949.51560034717
 10
699.2526182337126
 20
1949.54881649199
 10
699.231682642685
 20
1949.582897098006
 10
699.2121266586403
 20
1949.617787643517
 10
699.1939815669817
 20
1949.653432311095
 10
699.1772763959846
 20
1949.689774076875
 10
699.1620378703595
 20
1949.726754801784
 10
699.1482903684962
 20
1949.764315324551
 10
699.1360558834652
 20
1949.802395556353
 10
699.1253539878329
 20
1949.840934576942
 10
699.1162018023488
 20
1949.879870732105
 10
699.108613968558
 20
1949.919141732301
 10
699.1026026253755
 20
1949.958684752307
 10
699.0981773896682
 20
1949.998436531726
 10
699.0953453408691
 20
1950.038333476191
 10
699.0941110096522
 20
1950.078311759102
 10
699.0944763706843
 20
1950.118307423734
 10
699.0964408394652
 20
1950.158256485556
 10
699.1000012732645
 20
1950.198095034591
 10
699.1051519761474
 20
1950.237759337659
 10
699.111884708088
 20
1950.277185940336
 10
699.1201886981514
 20
1950.316311768469
 10
699.1300506617249
 20
1950.355074229078
 10
699.1414548217709
 20
1950.393411310497
 10
699.1543829340656
 20
1950.431261681572
 10
699.1688143163876
 20
1950.468564789785
 10
699.1847258816033
 20
1950.505260958119
 10
699.2020921746029
 20
1950.541291480534
 10
699.2208854130223
 20
1950.57659871588
 10
699.241075531689
 20
1950.611126180112
 10
699.2626302307199
 20
1950.644818636652
 10
699.2855150271948
 20
1950.677622184758
 10
699.3096933103212
 20
1950.70948434575
 10
699.3351264000038
 20
1950.740354146969
 10
699.3617736087244
 20
1950.770182203316
 10
699.389592306634
 20
1950.798920796264
 10
699.4185379897494
 20
1950.826523950197
 10
699.4485643511533
 20
1950.852947505955
 10
699.4512643738459
 20
1950.85522122664
  0
LWPOLYLINE
  5
117
330
87
100
AcDbEntity
  8
P-SANR-FIXT
100
AcDbPolyline
 90
       39
 70
   128
 43
0.0
 10
745.089184661566
 20
1896.466065765222
 10
745.0580368928009
 20
1896.440973870535
 10
745.0259106307665
 20
1896.417147625222
 10
744.992857270629
 20
1896.394625146192
 10
744.9589296907133
 20
1896.373442464607
 10
744.9241821679101
 20
1896.35363346824
 10
744.8886702908431
 20
1896.335229847258
 10
744.8524508709405
 20
1896.31826104353
 10
744.8155818515475
 20
1896.302754203522
 10
744.7781222152302
 20
1896.28873413487
 10
744.740131889416
 20
1896.276223266692
 10
744.7016716505215
 20
1896.265241613708
 10
744.6628030267252
 20
1896.255806744223
 10
744.6235881995331
 20
1896.247933752012
 10
744.5840899043036
 20
1896.241635232185
 10
744.5443713298832
 20
1896.236921261031
 10
744.504496017518
 20
1896.233799379896
 10
744.4645277592016
 20
1896.232274583125
 10
744.424530495621
 20
1896.232349310068
 10
744.3845682138658
 20
1896.234023441177
 10
744.3447048450621
 20
1896.2372942982
 10
744.3050041620962
 20
1896.242156648462
 10
744.2655296775916
 20
1896.248602713242
 10
744.2263445423028
 20
1896.256622180209
 10
744.1875114440875
 20
1896.26620221993
 10
744.1490925076188
 20
1896.277327506382
 10
744.1111491949989
 20
1896.289980241481
 10
744.0737422074345
 20
1896.30414018355
 10
744.0369313881257
 20
1896.319784679702
 10
744.0007756265309
 20
1896.336888702082
 10
743.965332764156
 20
1896.3554248879
 10
743.9306595020198
 20
1896.375363583216
 10
743.8968113099451
 20
1896.396672890368
 10
743.8638423378189
 20
1896.419318719012
 10
743.8318053289635
 20
1896.443264840653
 10
743.8007515357587
 20
1896.468472946605
 10
743.7707306376496
 20
1896.494902709274
 10
743.7417906616685
 20
1896.522511846679
 10
743.7392902706928
 20
1896.525003427155
  0
LINE
  5
118
330
87
100
AcDbEntity
  8
P-SANR-FIXT
100
AcDbLine
 10
745.089184661566
 20
1896.466065765222
 30
0.0
 11
746.685367587011
 21
1897.805422269255
 31
0.0
  0
LINE
  5
119
330
87
100
AcDbEntity
  8
P-SANR-FIXT
100
AcDbLine
 10
701.0474472992909
 20
1952.194577730673
 30
0.0
 11
699.4512643738459
 21
1950.85522122664
 31
0.0
  0
LINE
  5
11A
330
87
100
AcDbEntity
  8
P-SANR-FIXT
100
AcDbLine
 10
747.7728058350224
 20
1898.065187657399
 30
0.0
 11
701.4920979375916
 21
1953.220387561964
 31
0.0
  0
LINE
  5
11B
330
87
100
AcDbEntity
  8
P-SANR-FIXT
100
AcDbLine
 10
785.0975948551798
 20
1935.258737159977
 30
0.0
 11
744.6941225589049
 21
1983.409720422343
 31
0.0
  0
LINE
  5
11C
330
87
100
AcDbEntity
  8
P-SANR-FIXT
100
AcDbLine
 10
788.9278170707743
 20
1938.47267520841
 30
0.0
 11
748.5243447745002
 21
1986.623658470775
 31
0.0
  0
LINE
  5
11D
330
87
100
AcDbEntity
  8
P-SANR-FIXT
100
AcDbLine
 10
791.0410651499814
 20
1938.287789958263
 30
0.0
 11
748.7049535328432
 21
1988.742003074456
 31
0.0
  0
LINE
  5
11E
330
87
100
AcDbEntity
  8
P-SANR-FIXT
100
AcDbLine
 10
822.44888731786
 20
1964.64208195541
 30
0.0
 11
780.1127757007209
 21
2015.096295071606
 31
0.0
  0
LINE
  5
11F
330
87
100
AcDbEntity
  8
P-SANR-FIXT
100
AcDbLine
 10
822.6337725680096
 20
1966.755330034618
 30
0.0
 11
782.230300271735
 21
2014.906313296983
 31
0.0
  0
SPLINE
  5
120
330
87
100
AcDbEntity
  8
P-SANR-FIXT
100
AcDbSpline
210
0.0
220
0.0
230
1.0
 70
     8
 71
     3
 72
    24
 73
    20
 74
     0
 42
0.000000001
 43
0.0000000001
 40
-1.0
 40
-1.0
 40
-1.0
 40
-1.0
 40
-0.9
 40
-0.85
 40
-0.8
 40
-0.75
 40
-0.7
 40
-0.65
 40
-0.6
 40
-0.575
 40
-0.55
 40
-0.5
 40
-0.45
 40
-0.4
 40
-0.35
 40
-0.3
 40
-0.2
 40
-0.1
 40
0.0
 40
0.0
 40
0.0
 40
0.0
 10
823.4393950186989
 20
2028.427688113886
 30
0.0
 10
823.4393950186989
 20
2028.414269388687
 30
0.0
 10
823.3984416926315
 20
2028.357038647648
 30
0.0
 10
823.2729082754476
 20
2028.205251129088
 30
0.0
 10
823.1462460623546
 20
2028.056219672971
 30
0.0
 10
822.9897696140378
 20
2027.861800940758
 30
0.0
 10
822.8063093529765
 20
2027.624058848093
 30
0.0
 10
822.5992095952463
 20
2027.356991793048
 30
0.0
 10
822.4096154536491
 20
2027.121905197296
 30
0.0
 10
822.2497506568517
 20
2026.926914891916
 30
0.0
 10
822.0851061183548
 20
2026.72119696759
 30
0.0
 10
821.8706098462092
 20
2026.449844774111
 30
0.0
 10
821.6006252392917
 20
2026.107243583517
 30
0.0
 10
821.3175595273719
 20
2025.758151811043
 30
0.0
 10
821.0244700091747
 20
2025.400314227598
 30
0.0
 10
820.6250691147738
 20
2024.903511995673
 30
0.0
 10
820.1054413478626
 20
2024.264717219694
 30
0.0
 10
819.4505541556479
 20
2023.485340428093
 30
0.0
 10
819.0045344537479
 20
2022.948483770409
 30
0.0
 10
818.7802819061365
 20
2022.676464360995
 30
0.0
  0
SPLINE
  5
121
330
87
100
AcDbEntity
  8
P-SANR-FIXT
100
AcDbSpline
210
0.0
220
0.0
230
1.0
 70
     8
 71
     3
 72
    11
 73
     7
 74
     0
 42
0.000000001
 43
0.0000000001
 40
0.0
 40
0.0
 40
0.0
 40
0.0
 40
0.25
 40
0.375
 40
0.5
 40
1.0
 40
1.0
 40
1.0
 40
1.0
 10
818.7802819061365
 20
2022.676464360995
 30
0.0
 10
818.6392181038648
 20
2021.922623703432
 30
0.0
 10
818.5045983147418
 20
2020.495545041917
 30
0.0
 10
818.432504742296
 20
2017.992014095828
 30
0.0
 10
818.5039200040636
 20
2013.75871100319
 30
0.0
 10
819.0490386005654
 20
2009.437055514568
 30
0.0
 10
819.7751653155558
 20
2005.572855885906
 30
0.0
  0
SPLINE
  5
122
330
87
100
AcDbEntity
  8
P-SANR-FIXT
100
AcDbSpline
210
0.0
220
0.0
230
1.0
 70
     8
 71
     3
 72
    10
 73
     6
 74
     0
 42
0.000000001
 43
0.0000000001
 40
0.0
 40
0.0
 40
0.0
 40
0.0
 40
0.3333333333333333
 40
0.6666666666666666
 40
1.0
 40
1.0
 40
1.0
 40
1.0
 10
819.7751653155558
 20
2005.572855885906
 30
0.0
 10
819.9440695817475
 20
2004.685171343441
 30
0.0
 10
820.2068081985732
 20
2002.827572111724
 30
0.0
 10
820.3964300197164
 20
1999.89558581439
 30
0.0
 10
820.3450732125915
 20
1997.934561420662
 30
0.0
 10
820.2784059108203
 20
1996.97311709856
 30
0.0
  0
SPLINE
  5
123
330
87
100
AcDbEntity
  8
P-SANR-FIXT
100
AcDbSpline
210
0.0
220
0.0
230
1.0
 70
     8
 71
     3
 72
     9
 73
     5
 74
     0
 42
0.000000001
 43
0.0000000001
 40
-1.0
 40
-1.0
 40
-1.0
 40
-1.0
 40
-0.5
 40
0.0
 40
0.0
 40
0.0
 40
0.0
 10
820.2784059108203
 20
1996.97311709856
 30
0.0
 10
820.1479623503729
 20
1995.186675285822
 30
0.0
 10
820.0364566801919
 20
1991.661362792174
 30
0.0
 10
820.1562174421569
 20
1988.311631721934
 30
0.0
 10
820.2516655230292
 20
1986.707176758881
 30
0.0
  0
SPLINE
  5
124
330
87
100
AcDbEntity
  8
P-SANR-FIXT
100
AcDbSpline
210
0.0
220
0.0
230
1.0
 70
     8
 71
     3
 72
    24
 73
    20
 74
     0
 42
0.000000001
 43
0.0000000001
 40
-1.0
 40
-1.0
 40
-1.0
 40
-1.0
 40
-0.8333333333333332
 40
-0.6666666666666666
 40
-0.5833333333333333
 40
-0.5416666666666666
 40
-0.5
 40
-0.4583333333333333
 40
-0.4166666666666666
 40
-0.375
 40
-0.3333333333333333
 40
-0.3125
 40
-0.2916666666666666
 40
-0.25
 40
-0.2083333333333333
 40
-0.1666666666666666
 40
-0.125
 40
-0.0833333333333333
 40
0.0
 40
0.0
 40
0.0
 40
0.0
 10
825.076323793659
 20
1974.734477624377
 30
0.0
 10
825.0364145942084
 20
1975.168019826738
 30
0.0
 10
824.9144546905974
 20
1976.1106999996
 30
0.0
 10
824.6666315755847
 20
1977.452244063731
 30
0.0
 10
824.4273651175525
 20
1978.470085435078
 30
0.0
 10
824.2717847985693
 20
1979.071340274152
 30
0.0
 10
824.1421985512022
 20
1979.531493804991
 30
0.0
 10
824.001771799489
 20
1980.000789325586
 30
0.0
 10
823.8513726672662
 20
1980.478363556501
 30
0.0
 10
823.6879314871179
 20
1980.962515596266
 30
0.0
 10
823.5382611265483
 20
1981.368961011219
 30
0.0
 10
823.4109545795318
 20
1981.696735589875
 30
0.0
 10
823.2803078087261
 20
1982.027778086698
 30
0.0
 10
823.1084199164554
 20
1982.444410595388
 30
0.0
 10
822.8852085011633
 20
1982.942822051598
 30
0.0
 10
822.6402831959804
 20
1983.431021777656
 30
0.0
 10
822.3730849970346
 20
1983.906881842196
 30
0.0
 10
821.9913844559041
 20
1984.530540269435
 30
0.0
 10
821.6752948571302
 20
1984.983010013368
 30
0.0
 10
821.4514508591552
 20
1985.277328274212
 30
0.0
  0
SPLINE
  5
125
330
87
100
AcDbEntity
  8
P-SANR-FIXT
100
AcDbSpline
210
0.0
220
0.0
230
1.0
 70
     8
 71
     3
 72
     9
 73
     5
 74
     0
 42
0.000000001
 43
0.0000000001
 40
0.0
 40
0.0
 40
0.0
 40
0.0
 40
0.5
 40
1.0
 40
1.0
 40
1.0
 40
1.0
 10
825.2588357617284
 20
1972.961244503879
 30
0.0
 10
825.229689549495
 20
1973.230984705329
 30
0.0
 10
825.1695892993394
 20
1973.796901797155
 30
0.0
 10
825.1074773062194
 20
1974.413780803219
 30
0.0
 10
825.076323793659
 20
1974.734477624377
 30
0.0
  0
SPLINE
  5
126
330
87
100
AcDbEntity
  8
P-SANR-FIXT
100
AcDbSpline
210
0.0
220
0.0
230
1.0
 70
     8
 71
     3
 72
     9
 73
     5
 74
     0
 42
0.000000001
 43
0.0000000001
 40
0.0
 40
0.0
 40
0.0
 40
0.0
 40
0.5
 40
1.0
 40
1.0
 40
1.0
 40
1.0
 10
825.6910317870639
 20
1969.320675117739
 30
0.0
 10
825.6957405598852
 20
1969.324626247277
 30
0.0
 10
825.6066714132764
 20
1969.961253919242
 30
0.0
 10
825.3825051312011
 20
1971.7815911749
 30
0.0
 10
825.2588357617288
 20
1972.961244503878
 30
0.0
  0
LINE
  5
127
330
87
100
AcDbEntity
  8
P-SANR-FIXT
100
AcDbLine
 10
827.5117069048093
 20
1967.499999999994
 30
0.0
 11
827.5117069048093
 21
2032.499999999996
 31
0.0
  0
LINE
  5
128
330
87
100
AcDbEntity
  8
P-SANR-FIXT
100
AcDbLine
 10
831.5117069048094
 20
1967.499999999994
 30
0.0
 11
831.5117069048094
 21
2032.499999999996
 31
0.0
  0
SPLINE
  5
129
330
87
100
AcDbEntity
  8
P-SANR-FIXT
100
AcDbSpline
210
0.0
220
0.0
230
1.0
 70
     8
 71
     3
 72
     9
 73
     5
 74
     0
 42
0.000000001
 43
0.0000000001
 40
-1.0
 40
-1.0
 40
-1.0
 40
-1.0
 40
-0.5
 40
0.0
 40
0.0
 40
0.0
 40
0.0
 10
834.3984582507568
 20
1962.773654341082
 30
0.0
 10
833.2437589147245
 20
1965.21825030738
 30
0.0
 10
832.0890595786922
 20
1970.112336016461
 30
0.0
 10
833.2437589147245
 20
1975.016209278513
 30
0.0
 10
834.3984582507568
 20
1977.470592797781
 30
0.0
  0
SPLINE
  5
12A
330
87
100
AcDbEntity
  8
P-SANR-FIXT
100
AcDbSpline
210
0.0
220
0.0
230
1.0
 70
     8
 71
     3
 72
     9
 73
     5
 74
     0
 42
0.000000001
 43
0.0000000001
 40
-1.0
 40
-1.0
 40
-1.0
 40
-1.0
 40
-0.5
 40
0.0
 40
0.0
 40
0.0
 40
0.0
 10
834.3984582507568
 20
1985.303061543296
 30
0.0
 10
833.2437589147245
 20
1990.192253475892
 30
0.0
 10
832.0890595786922
 20
1999.980424894054
 30
0.0
 10
833.2437589147245
 20
2009.788171418157
 30
0.0
 10
834.3984582507568
 20
2014.696938456693
 30
0.0
  0
SPLINE
  5
12B
330
87
100
AcDbEntity
  8
P-SANR-FIXT
100
AcDbSpline
210
0.0
220
0.0
230
1.0
 70
     8
 71
     3
 72
     9
 73
     5
 74
     0
 42
0.000000001
 43
0.0000000001
 40
-1.0
 40
-1.0
 40
-1.0
 40
-1.0
 40
-0.5
 40
0.0
 40
0.0
 40
0.0
 40
0.0
 10
834.3984582507568
 20
2022.529407202209
 30
0.0
 10
833.2437589147245
 20
2024.974003168507
 30
0.0
 10
832.0890595786922
 20
2029.868088877588
 30
0.0
 10
833.2437589147245
 20
2034.771962139639
 30
0.0
 10
834.3984582507568
 20
2037.226345658908
 30
0.0
  0
SPLINE
  5
12C
330
87
100
AcDbEntity
  8
P-SANR-FIXT
100
AcDbSpline
210
0.0
220
0.0
230
1.0
 70
     8
 71
     3
 72
    19
 73
    15
 74
     0
 42
0.000000001
 43
0.0000000001
 40
-1.0
 40
-1.0
 40
-1.0
 40
-1.0
 40
-0.875
 40
-0.75
 40
-0.6875
 40
-0.625
 40
-0.5625
 40
-0.5
 40
-0.4375
 40
-0.375
 40
-0.3125
 40
-0.25
 40
-0.125
 40
0.0
 40
0.0
 40
0.0
 40
0.0
 10
818.7802819061365
 20
2022.676464360995
 30
0.0
 10
818.1891880674175
 20
2022.614803860676
 30
0.0
 10
816.942910487254
 20
2022.54839444566
 30
0.0
 10
815.3146987856091
 20
2022.61925608721
 30
0.0
 10
814.0410077034662
 20
2022.747399443377
 30
0.0
 10
813.1125646806353
 20
2022.870248308476
 30
0.0
 10
812.2266227328223
 20
2023.013319501688
 30
0.0
 10
811.3939418206168
 20
2023.168390050881
 30
0.0
 10
810.6265790878765
 20
2023.326614218171
 30
0.0
 10
809.9351040259488
 20
2023.482410975097
 30
0.0
 10
809.3290376808464
 20
2023.626456365865
 30
0.0
 10
808.6480518319053
 20
2023.79795799755
 30
0.0
 10
808.0555703973704
 20
2023.956188974469
 30
0.0
 10
807.8934198676767
 20
2023.998128524615
 30
0.0
 10
807.8934198676767
 20
2023.999999999995
 30
0.0
  0
LINE
  5
12D
330
87
100
AcDbEntity
  8
P-SANR-FIXT
100
AcDbLine
 10
834.3984582507566
 20
2037.226345658908
 30
0.0
 11
834.3984582507566
 21
2037.499999999995
 31
0.0
  0
LINE
  5
12E
330
87
100
AcDbEntity
  8
P-SANR-FIXT
100
AcDbLine
 10
834.3984582507568
 20
2037.226345658908
 30
0.0
 11
852.9343566356189
 21
2037.226345658908
 31
0.0
  0
LINE
  5
12F
330
87
100
AcDbEntity
  8
P-SANR-FIXT
100
AcDbLine
 10
852.9343566356189
 20
1962.773654341082
 30
0.0
 11
834.3984582507568
 21
1962.773654341082
 31
0.0
  0
LINE
  5
130
330
87
100
AcDbEntity
  8
P-SANR-FIXT
100
AcDbLine
 10
834.3984582507568
 20
1962.499999999995
 30
0.0
 11
834.3984582507568
 21
1962.773654341082
 31
0.0
  0
LINE
  5
131
330
87
100
AcDbEntity
  8
P-SANR-FIXT
100
AcDbLine
 10
834.3984582507568
 20
2014.696938456693
 30
0.0
 11
834.3984582507568
 21
2022.529407202208
 31
0.0
  0
LINE
  5
132
330
87
100
AcDbEntity
  8
P-SANR-FIXT
100
AcDbLine
 10
834.3984582507568
 20
2014.696938456693
 30
0.0
 11
852.9343566356189
 21
2014.696938456693
 31
0.0
  0
LINE
  5
133
330
87
100
AcDbEntity
  8
P-SANR-FIXT
100
AcDbLine
 10
852.9343566356189
 20
2022.529407202209
 30
0.0
 11
834.3984582507568
 21
2022.529407202209
 31
0.0
  0
LINE
  5
134
330
87
100
AcDbEntity
  8
P-SANR-FIXT
100
AcDbLine
 10
834.3984582507568
 20
1977.470592797781
 30
0.0
 11
834.3984582507568
 21
1985.303061543296
 31
0.0
  0
LINE
  5
135
330
87
100
AcDbEntity
  8
P-SANR-FIXT
100
AcDbLine
 10
834.3984582507568
 20
1977.470592797781
 30
0.0
 11
852.9343566356189
 21
1977.470592797781
 31
0.0
  0
LINE
  5
136
330
87
100
AcDbEntity
  8
P-SANR-FIXT
100
AcDbLine
 10
852.9343566356189
 20
1985.303061543296
 30
0.0
 11
834.3984582507568
 21
1985.303061543296
 31
0.0
  0
LINE
  5
137
330
87
100
AcDbEntity
  8
P-SANR-FIXT
100
AcDbLine
 10
852.9343566356189
 20
2014.696938456693
 30
0.0
 11
852.9343566356189
 21
2022.529407202208
 31
0.0
  0
SPLINE
  5
138
330
87
100
AcDbEntity
  8
P-SANR-FIXT
100
AcDbSpline
210
0.0
220
0.0
230
1.0
 70
     8
 71
     3
 72
     9
 73
     5
 74
     0
 42
0.000000001
 43
0.0000000001
 40
-1.0
 40
-1.0
 40
-1.0
 40
-1.0
 40
-0.5
 40
0.0
 40
0.0
 40
0.0
 40
0.0
 10
852.9343566356189
 20
2014.696938456693
 30
0.0
 10
853.498687671114
 20
2012.279022675003
 30
0.0
 10
854.3516938412038
 20
2007.411617150529
 30
0.0
 10
854.6533882094932
 20
2002.48106370387
 30
0.0
 10
854.6664074431879
 20
1999.999999999994
 30
0.0
  0
SPLINE
  5
139
330
87
100
AcDbEntity
  8
P-SANR-FIXT
100
AcDbSpline
210
0.0
220
0.0
230
1.0
 70
     8
 71
     3
 72
     9
 73
     5
 74
     0
 42
0.000000001
 43
0.0000000001
 40
-1.0
 40
-1.0
 40
-1.0
 40
-1.0
 40
-0.5
 40
0.0
 40
0.0
 40
0.0
 40
0.0
 10
854.6664074431879
 20
2029.877876430558
 30
0.0
 10
854.6533882094932
 20
2028.63734457862
 30
0.0
 10
854.3516938412038
 20
2026.172067855291
 30
0.0
 10
853.498687671114
 20
2023.738365093054
 30
0.0
 10
852.9343566356189
 20
2022.529407202209
 30
0.0
  0
LINE
  5
13A
330
87
100
AcDbEntity
  8
P-SANR-FIXT
100
AcDbLine
 10
852.9343566356189
 20
1977.470592797781
 30
0.0
 11
852.9343566356189
 21
1985.303061543296
 31
0.0
  0
SPLINE
  5
13B
330
87
100
AcDbEntity
  8
P-SANR-FIXT
100
AcDbSpline
210
0.0
220
0.0
230
1.0
 70
     8
 71
     3
 72
     9
 73
     5
 74
     0
 42
0.000000001
 43
0.0000000001
 40
-1.0
 40
-1.0
 40
-1.0
 40
-1.0
 40
-0.5
 40
0.0
 40
0.0
 40
0.0
 40
0.0
 10
852.9343566356189
 20
1977.470592797781
 30
0.0
 10
853.498687671114
 20
1976.261634906936
 30
0.0
 10
854.3516938412038
 20
1973.827932144699
 30
0.0
 10
854.6533882094932
 20
1971.362655421369
 30
0.0
 10
854.6664074431879
 20
1970.122123569432
 30
0.0
  0
SPLINE
  5
13C
330
87
100
AcDbEntity
  8
P-SANR-FIXT
100
AcDbSpline
210
0.0
220
0.0
230
1.0
 70
     8
 71
     3
 72
     9
 73
     5
 74
     0
 42
0.000000001
 43
0.0000000001
 40
-1.0
 40
-1.0
 40
-1.0
 40
-1.0
 40
-0.5
 40
0.0
 40
0.0
 40
0.0
 40
0.0
 10
854.6664074431879
 20
1999.999999999994
 30
0.0
 10
854.6533882094932
 20
1997.518936296119
 30
0.0
 10
854.3516938412038
 20
1992.58838284946
 30
0.0
 10
853.498687671114
 20
1987.720977324987
 30
0.0
 10
852.9343566356189
 20
1985.303061543296
 30
0.0
  0
LINE
  5
13D
330
87
100
AcDbEntity
  8
P-SANR-FIXT
100
AcDbLine
 10
852.9343566356189
 20
2037.226345658908
 30
0.0
 11
852.9343566356189
 21
2037.499999999995
 31
0.0
  0
SPLINE
  5
13E
330
87
100
AcDbEntity
  8
P-SANR-FIXT
100
AcDbSpline
210
0.0
220
0.0
230
1.0
 70
     8
 71
     3
 72
     9
 73
     5
 74
     0
 42
0.000000001
 43
0.0000000001
 40
-1.0
 40
-1.0
 40
-1.0
 40
-1.0
 40
-0.5
 40
0.0
 40
0.0
 40
0.0
 40
0.0
 10
852.9343566356189
 20
2037.226345658908
 30
0.0
 10
853.498687671114
 20
2036.017387768062
 30
0.0
 10
854.3516938412038
 20
2033.583685005825
 30
0.0
 10
854.6533882094932
 20
2031.118408282496
 30
0.0
 10
854.6664074431879
 20
2029.877876430558
 30
0.0
  0
SPLINE
  5
13F
330
87
100
AcDbEntity
  8
P-SANR-FIXT
100
AcDbSpline
210
0.0
220
0.0
230
1.0
 70
     8
 71
     3
 72
     9
 73
     5
 74
     0
 42
0.000000001
 43
0.0000000001
 40
-1.0
 40
-1.0
 40
-1.0
 40
-1.0
 40
-0.5
 40
0.0
 40
0.0
 40
0.0
 40
0.0
 10
854.6664074431879
 20
1970.122123569432
 30
0.0
 10
854.6533882094932
 20
1968.881591717494
 30
0.0
 10
854.3516938412038
 20
1966.416314994164
 30
0.0
 10
853.4986876711139
 20
1963.982612231928
 30
0.0
 10
852.9343566356189
 20
1962.773654341082
 30
0.0
  0
LINE
  5
140
330
87
100
AcDbEntity
  8
P-SANR-FIXT
100
AcDbLine
 10
852.9343566356189
 20
1962.499999999995
 30
0.0
 11
852.9343566356189
 21
1962.773654341082
 31
0.0
  0
LINE
  5
141
330
87
100
AcDbEntity
  8
P-SANR-FIXT
100
AcDbLine
 10
854.6664074431877
 20
2029.877876430558
 30
0.0
 11
854.6664074431877
 21
2034.499999999995
 31
0.0
  0
LINE
  5
142
330
87
100
AcDbEntity
  8
P-SANR-FIXT
100
AcDbLine
 10
854.6664074431877
 20
1999.999999999994
 30
0.0
 11
854.6664074431877
 21
2029.877876430558
 31
0.0
  0
LINE
  5
143
330
87
100
AcDbEntity
  8
P-SANR-FIXT
100
AcDbLine
 10
854.6664074431877
 20
1970.122123569432
 30
0.0
 11
854.6664074431877
 21
1999.999999999994
 31
0.0
  0
LINE
  5
144
330
87
100
AcDbEntity
  8
P-SANR-FIXT
100
AcDbLine
 10
854.6664074431879
 20
1965.499999999995
 30
0.0
 11
854.6664074431879
 21
1970.122123569432
 31
0.0
  0
LINE
  5
145
330
87
100
AcDbEntity
  8
P-SANR-FIXT
100
AcDbLine
 10
854.6664074431879
 20
1998.430791942922
 30
0.0
 11
854.6664074431879
 21
2001.567509465161
 31
0.0
  0
LINE
  5
146
330
87
100
AcDbEntity
  8
P-SANR-FIXT
100
AcDbLine
 10
854.6664074431877
 20
1970.122123569432
 30
0.0
 11
854.6664074431877
 21
1969.348543905775
 31
0.0
  0
LINE
  5
147
330
87
100
AcDbEntity
  8
P-SANR-FIXT
100
AcDbLine
 10
854.6664074431877
 20
1970.8702230281
 30
0.0
 11
854.6664074431877
 21
1970.122123569432
 31
0.0
  0
LINE
  5
148
330
87
100
AcDbEntity
  8
P-SANR-FIXT
100
AcDbLine
 10
854.6664074431877
 20
2029.877876430558
 30
0.0
 11
854.6664074431877
 21
2029.125919628855
 31
0.0
  0
LINE
  5
149
330
87
100
AcDbEntity
  8
P-SANR-FIXT
100
AcDbLine
 10
854.6664074431879
 20
2030.647878670075
 30
0.0
 11
854.6664074431879
 21
2029.877876430558
 31
0.0
  0
LINE
  5
14A
330
87
100
AcDbEntity
  8
P-SANR-FIXT
100
AcDbLine
 10
854.6664074431879
 20
2001.567509465161
 30
0.0
 11
854.6664074431879
 21
1998.430791942923
 31
0.0
  0
LINE
  5
14B
330
87
100
AcDbEntity
  8
P-SANR-FIXT
100
AcDbLine
 10
824.6664074431906
 20
2033.063700103275
 30
0.0
 11
806.666407443185
 21
2033.063700103275
 31
0.0
  0
LINE
  5
14C
330
87
100
AcDbEntity
  8
P-SANR-FIXT
100
AcDbLine
 10
823.6664074432072
 20
2035.063700103266
 30
0.0
 11
824.6664074431906
 21
2035.063700103266
 31
0.0
  0
LINE
  5
14D
330
87
100
AcDbEntity
  8
P-SANR-FIXT
100
AcDbLine
 10
816.0956932289538
 20
2035.063700103266
 30
0.0
 11
823.2371216574414
 21
2035.063700103266
 31
0.0
  0
LINE
  5
14E
330
87
100
AcDbEntity
  8
P-SANR-FIXT
100
AcDbLine
 10
808.0956932289341
 20
2035.063700103266
 30
0.0
 11
815.2371216574215
 21
2035.063700103266
 31
0.0
  0
LINE
  5
14F
330
87
100
AcDbEntity
  8
P-SANR-FIXT
100
AcDbLine
 10
806.666407443185
 20
2035.063700103266
 30
0.0
 11
807.6664074431684
 21
2035.063700103266
 31
0.0
  0
LINE
  5
150
330
87
100
AcDbEntity
  8
P-SANR-FIXT
100
AcDbLine
 10
823.237121657443
 20
2038.563700103275
 30
0.0
 11
823.6664074432072
 21
2038.563700103275
 31
0.0
  0
LINE
  5
151
330
87
100
AcDbEntity
  8
P-SANR-FIXT
100
AcDbLine
 10
807.6664074431684
 20
2038.563700103275
 30
0.0
 11
808.0956932289327
 21
2038.563700103275
 31
0.0
  0
LINE
  5
152
330
87
100
AcDbEntity
  8
P-SANR-FIXT
100
AcDbLine
 10
808.0956932289327
 20
2038.563700103275
 30
0.0
 11
815.2371216574234
 21
2038.563700103275
 31
0.0
  0
LINE
  5
153
330
87
100
AcDbEntity
  8
P-SANR-FIXT
100
AcDbLine
 10
815.2371216574234
 20
2038.563700103275
 30
0.0
 11
816.0956932289519
 21
2038.563700103275
 31
0.0
  0
LINE
  5
154
330
87
100
AcDbEntity
  8
P-SANR-FIXT
100
AcDbLine
 10
816.0956932289519
 20
2038.563700103275
 30
0.0
 11
823.237121657443
 21
2038.563700103275
 31
0.0
  0
LINE
  5
155
330
87
100
AcDbEntity
  8
P-SANR-FIXT
100
AcDbLine
 10
823.237121657443
 20
2038.563700103275
 30
0.0
 11
823.237121657443
 21
2035.063700103266
 31
0.0
  0
LINE
  5
156
330
87
100
AcDbEntity
  8
P-SANR-FIXT
100
AcDbLine
 10
823.6664074432072
 20
2035.063700103266
 30
0.0
 11
823.6664074432072
 21
2038.563700103275
 31
0.0
  0
LINE
  5
157
330
87
100
AcDbEntity
  8
P-SANR-FIXT
100
AcDbLine
 10
807.6664074431684
 20
2035.063700103266
 30
0.0
 11
807.6664074431684
 21
2038.563700103275
 31
0.0
  0
LINE
  5
158
330
87
100
AcDbEntity
  8
P-SANR-FIXT
100
AcDbLine
 10
808.0956932289327
 20
2035.063700103266
 30
0.0
 11
808.0956932289327
 21
2038.563700103275
 31
0.0
  0
LINE
  5
159
330
87
100
AcDbEntity
  8
P-SANR-FIXT
100
AcDbLine
 10
815.2371216574234
 20
2035.063700103266
 30
0.0
 11
815.2371216574234
 21
2038.563700103275
 31
0.0
  0
LINE
  5
15A
330
87
100
AcDbEntity
  8
P-SANR-FIXT
100
AcDbLine
 10
816.0956932289519
 20
2035.063700103266
 30
0.0
 11
816.0956932289519
 21
2038.563700103275
 31
0.0
  0
LINE
  5
15B
330
87
100
AcDbEntity
  8
P-SANR-FIXT
100
AcDbLine
 10
716.6664074431835
 20
2034.999999999993
 30
0.0
 11
717.64992188261
 21
2034.999999999993
 31
0.0
  0
LINE
  5
15C
330
87
100
AcDbEntity
  8
P-SANR-FIXT
100
AcDbLine
 10
717.8721788091242
 20
2034.999999999993
 30
0.0
 11
718.0812102368235
 21
2034.999999999993
 31
0.0
  0
LINE
  5
15D
330
87
100
AcDbEntity
  8
P-SANR-FIXT
100
AcDbLine
 10
718.115288791118
 20
2034.999999999993
 30
0.0
 11
725.2010405346792
 21
2034.999999999993
 31
0.0
  0
LINE
  5
15E
330
87
100
AcDbEntity
  8
P-SANR-FIXT
100
AcDbLine
 10
725.2360574163672
 20
2034.999999999993
 30
0.0
 11
726.0967574700071
 21
2034.999999999993
 31
0.0
  0
LINE
  5
15F
330
87
100
AcDbEntity
  8
P-SANR-FIXT
100
AcDbLine
 10
726.1317743516955
 20
2034.999999999993
 30
0.0
 11
733.2175260952558
 21
2034.999999999993
 31
0.0
  0
LINE
  5
160
330
87
100
AcDbEntity
  8
P-SANR-FIXT
100
AcDbLine
 10
733.2516046495528
 20
2034.999999999993
 30
0.0
 11
733.4606360772502
 21
2034.999999999993
 31
0.0
  0
LINE
  5
161
330
87
100
AcDbEntity
  8
P-SANR-FIXT
100
AcDbLine
 10
733.6828930037643
 20
2034.999999999993
 30
0.0
 11
734.6664074431908
 21
2034.999999999993
 31
0.0
  0
LINE
  5
162
330
87
100
AcDbEntity
  8
P-SANR-FIXT
100
AcDbLine
 10
721.3373272629922
 20
1906.233906814588
 30
0.0
 11
713.1417852394888
 21
1916.000973464355
 31
0.0
  0
LINE
  5
163
330
87
100
AcDbEntity
  8
P-SANR-FIXT
100
AcDbLine
 10
713.1417852394888
 20
1916.000973464355
 30
0.0
 11
704.9462432159855
 21
1925.768040114122
 31
0.0
  0
LINE
  5
164
330
87
100
AcDbEntity
  8
P-SANR-FIXT
100
AcDbLine
 10
711.9406160237538
 20
1931.637015757437
 30
0.0
 11
712.6459399664386
 21
1930.7964434148
 31
0.0
  0
LINE
  5
165
330
87
100
AcDbEntity
  8
P-SANR-FIXT
100
AcDbLine
 10
719.4308341045708
 20
1922.71052145031
 30
0.0
 11
720.1361580472571
 21
1921.86994910767
 31
0.0
  0
LINE
  5
166
330
87
100
AcDbEntity
  8
P-SANR-FIXT
100
AcDbLine
 10
720.1361580472571
 20
1921.86994910767
 30
0.0
 11
720.8414819899436
 21
1921.029376765031
 31
0.0
  0
LINE
  5
167
330
87
100
AcDbEntity
  8
P-SANR-FIXT
100
AcDbLine
 10
727.6263761280723
 20
1912.943454800545
 30
0.0
 11
728.3317000707604
 21
1912.102882457903
 31
0.0
  0
LINE
  5
168
330
87
100
AcDbEntity
  8
P-SANR-FIXT
100
AcDbLine
 10
728.3317000707604
 20
1912.102882457903
 30
0.0
 11
721.3373272629922
 21
1906.233906814588
 31
0.0
  0
LINE
  5
169
330
87
100
AcDbEntity
  8
P-SANR-FIXT
100
AcDbLine
 10
720.1361580472571
 20
1921.86994910767
 30
0.0
 11
713.1417852394888
 21
1916.000973464355
 31
0.0
  0
LINE
  5
16A
330
87
100
AcDbEntity
  8
P-SANR-FIXT
100
AcDbLine
 10
711.9406160237538
 20
1931.637015757437
 30
0.0
 11
704.9462432159854
 21
1925.768040114122
 31
0.0
  0
LINE
  5
16B
330
87
100
AcDbEntity
  8
P-SANR-FIXT
100
AcDbLine
 10
701.0474472992894
 20
1952.194577730672
 30
0.0
 11
746.6853675870096
 21
1897.805422269254
 31
0.0
  0
LINE
  5
16C
330
87
100
AcDbEntity
  8
P-SANR-FIXT
100
AcDbLine
 10
711.9406160237538
 20
1931.637015757437
 30
0.0
 11
711.0525553177466
 21
1932.695365294263
 31
0.0
  0
LINE
  5
16D
330
87
100
AcDbEntity
  8
P-SANR-FIXT
100
AcDbLine
 10
719.4308341045708
 20
1922.71052145031
 30
0.0
 11
712.6459399664387
 21
1930.7964434148
 31
0.0
  0
LINE
  5
16E
330
87
100
AcDbEntity
  8
P-SANR-FIXT
100
AcDbLine
 10
727.6263761280729
 20
1912.943454800544
 30
0.0
 11
720.8414819899436
 21
1921.029376765031
 31
0.0
  0
LINE
  5
16F
330
87
100
AcDbEntity
  8
P-SANR-FIXT
100
AcDbLine
 10
729.2197607767658
 20
1911.04453292108
 30
0.0
 11
728.3317000707604
 21
1912.102882457903
 31
0.0
  0
ENDBLK
  5
171
330
87
100
AcDbEntity
  8
0
100
AcDbBlockEnd
  0
BLOCK
  5
22C
330
173
100
AcDbEntity
  8
0
100
AcDbBlockBegin
  2
Automatic flow rate regulator valve_Caleffi_121 DN15 - 1_2__-V1-Est - Idraulica
 70
     0
 10
0.0
 20
0.0
 30
0.0
  3
Automatic flow rate regulator valve_Caleffi_121 DN15 - 1_2__-V1-Est - Idraulica
  1

  0
LINE
  5
174
330
173
100
AcDbEntity
  8
P-SANR-FIXT
100
AcDbLine
 10
696.5117031672995
 20
1771.745872256495
 30
0.0
 11
697.6664074431892
 21
1773.745878730053
 31
0.0
  0
LINE
  5
175
330
173
100
AcDbEntity
  8
P-SANR-FIXT
100
AcDbLine
 10
697.6664074431892
 20
1838.745878730054
 30
0.0
 11
696.5117031672996
 21
1840.745885203611
 31
0.0
  0
LINE
  5
176
330
173
100
AcDbEntity
  8
P-SANR-FIXT
100
AcDbLine
 10
697.6664074431892
 20
1773.745878730052
 30
0.0
 11
701.6664074431892
 21
1773.745878730052
 31
0.0
  0
LINE
  5
177
330
173
100
AcDbEntity
  8
P-SANR-FIXT
100
AcDbLine
 10
701.6664074431892
 20
1838.745878730054
 30
0.0
 11
697.6664074431892
 21
1838.745878730054
 31
0.0
  0
LINE
  5
178
330
173
100
AcDbEntity
  8
P-SANR-FIXT
100
AcDbLine
 10
701.6664074431892
 20
1773.745878730053
 30
0.0
 11
703.6664074431893
 21
1776.245878730053
 31
0.0
  0
LINE
  5
179
330
173
100
AcDbEntity
  8
P-SANR-FIXT
100
AcDbLine
 10
703.6664074431893
 20
1836.245878730053
 30
0.0
 11
701.6664074431892
 21
1838.745878730054
 31
0.0
  0
LINE
  5
17A
330
173
100
AcDbEntity
  8
P-SANR-FIXT
100
AcDbLine
 10
703.6664074431893
 20
1776.245878730053
 30
0.0
 11
738.3664074431891
 21
1776.245878730053
 31
0.0
  0
LINE
  5
17B
330
173
100
AcDbEntity
  8
P-SANR-FIXT
100
AcDbLine
 10
738.3664074431891
 20
1836.245878730053
 30
0.0
 11
703.6664074431893
 21
1836.245878730053
 31
0.0
  0
LINE
  5
17C
330
173
100
AcDbEntity
  8
P-SANR-FIXT
100
AcDbLine
 10
738.3664074431891
 20
1776.245878730053
 30
0.0
 11
738.3934160431585
 21
1776.554588440325
 31
0.0
  0
LINE
  5
17D
330
173
100
AcDbEntity
  8
P-SANR-FIXT
100
AcDbLine
 10
738.3987213620026
 20
1776.615228512198
 30
0.0
 11
740.7286013583891
 21
1803.245878730052
 31
0.0
  0
LINE
  5
17E
330
173
100
AcDbEntity
  8
P-SANR-FIXT
100
AcDbLine
 10
740.7286013583894
 20
1809.245878730052
 30
0.0
 11
738.3987213620026
 21
1835.876528947908
 31
0.0
  0
LINE
  5
17F
330
173
100
AcDbEntity
  8
P-SANR-FIXT
100
AcDbLine
 10
738.3934160431585
 20
1835.937169019781
 30
0.0
 11
738.3664074431891
 21
1836.245878730053
 31
0.0
  0
LINE
  5
180
330
173
100
AcDbEntity
  8
P-SANR-FIXT
100
AcDbLine
 10
694.7796560972396
 20
1806.245878730052
 30
0.0
 11
694.7796560972396
 21
1801.723800791411
 31
0.0
  0
SPLINE
  5
181
330
173
100
AcDbEntity
  8
P-SANR-FIXT
100
AcDbSpline
210
0.0
220
0.0
230
1.0
 70
     8
 71
     3
 72
     9
 73
     5
 74
     0
 42
0.000000001
 43
0.0000000001
 40
-1.0
 40
-1.0
 40
-1.0
 40
-1.0
 40
-0.5
 40
0.0
 40
0.0
 40
0.0
 40
0.0
 10
694.7796560972395
 20
1801.723800791411
 30
0.0
 10
695.9343554332722
 20
1797.489636373804
 30
0.0
 10
697.0890547693048
 20
1789.012831269078
 30
0.0
 10
695.9343554332722
 20
1780.519073625325
 30
0.0
 10
694.7796560972395
 20
1776.267956668693
 30
0.0
  0
LINE
  5
182
330
173
100
AcDbEntity
  8
P-SANR-FIXT
100
AcDbLine
 10
694.7796560972395
 20
1776.267956668693
 30
0.0
 11
694.7796560972395
 21
1771.745878730052
 31
0.0
  0
SPLINE
  5
183
330
173
100
AcDbEntity
  8
P-SANR-FIXT
100
AcDbSpline
210
0.0
220
0.0
230
1.0
 70
    24
 71
     3
 72
     8
 73
     4
 74
     0
 42
0.000000001
 43
0.0000000001
 40
-1.0
 40
-1.0
 40
-1.0
 40
-1.0
 40
-0.5
 40
-0.5
 40
-0.5
 40
-0.5
 10
694.7796560972395
 20
1771.745878730052
 30
0.0
 10
695.9343554332722
 20
1771.745878730052
 30
0.0
 10
696.5117051012884
 20
1771.745878730052
 30
0.0
 10
696.5117051012886
 20
1771.745878730052
 30
0.0
  0
SPLINE
  5
184
330
173
100
AcDbEntity
  8
P-SANR-FIXT
100
AcDbSpline
210
0.0
220
0.0
230
1.0
 70
    24
 71
     3
 72
     8
 73
     4
 74
     0
 42
0.000000001
 43
0.0000000001
 40
-0.4994716556643359
 40
-0.4994716556643359
 40
-0.4994716556643359
 40
-0.4994716556643359
 40
0.0
 40
0.0
 40
0.0
 40
0.0
 10
696.5117031672983
 20
1840.745878730052
 30
0.0
 10
696.5104842989179
 20
1840.745878730052
 30
0.0
 10
695.9331352755651
 20
1840.745878730052
 30
0.0
 10
694.7796560972395
 20
1840.745878730052
 30
0.0
  0
LINE
  5
185
330
173
100
AcDbEntity
  8
P-SANR-FIXT
100
AcDbLine
 10
694.7796560972395
 20
1840.745878730052
 30
0.0
 11
694.7796560972395
 21
1836.223800791411
 31
0.0
  0
SPLINE
  5
186
330
173
100
AcDbEntity
  8
P-SANR-FIXT
100
AcDbSpline
210
0.0
220
0.0
230
1.0
 70
     8
 71
     3
 72
     9
 73
     5
 74
     0
 42
0.000000001
 43
0.0000000001
 40
-1.0
 40
-1.0
 40
-1.0
 40
-1.0
 40
-0.5
 40
0.0
 40
0.0
 40
0.0
 40
0.0
 10
694.7796560972395
 20
1836.223800791411
 30
0.0
 10
695.9343554332722
 20
1831.989636373804
 30
0.0
 10
697.0890547693048
 20
1823.512831269078
 30
0.0
 10
695.9343554332722
 20
1815.019073625325
 30
0.0
 10
694.7796560972395
 20
1810.767956668692
 30
0.0
  0
LINE
  5
187
330
173
100
AcDbEntity
  8
P-SANR-FIXT
100
AcDbLine
 10
694.7796560972395
 20
1810.767956668692
 30
0.0
 11
694.7796560972395
 21
1806.245878730053
 31
0.0
  0
LINE
  5
188
330
173
100
AcDbEntity
  8
P-SANR-FIXT
100
AcDbLine
 10
697.6664074431878
 20
1773.745878730052
 30
0.0
 11
697.6664074431878
 21
1806.245878730052
 31
0.0
  0
LINE
  5
189
330
173
100
AcDbEntity
  8
P-SANR-FIXT
100
AcDbLine
 10
697.6664074431878
 20
1806.245878730052
 30
0.0
 11
697.6664074431878
 21
1838.745878730053
 31
0.0
  0
LINE
  5
18A
330
173
100
AcDbEntity
  8
P-SANR-FIXT
100
AcDbLine
 10
701.6664074431878
 20
1773.745878730052
 30
0.0
 11
701.6664074431878
 21
1806.245878730052
 31
0.0
  0
LINE
  5
18B
330
173
100
AcDbEntity
  8
P-SANR-FIXT
100
AcDbLine
 10
701.6664074431878
 20
1806.245878730052
 30
0.0
 11
701.6664074431878
 21
1838.745878730053
 31
0.0
  0
LINE
  5
18C
330
173
100
AcDbEntity
  8
P-SANR-FIXT
100
AcDbLine
 10
703.6664074431878
 20
1776.245878730051
 30
0.0
 11
703.6664074431878
 21
1806.245878730052
 31
0.0
  0
LINE
  5
18D
330
173
100
AcDbEntity
  8
P-SANR-FIXT
100
AcDbLine
 10
703.6664074431878
 20
1806.245878730052
 30
0.0
 11
703.6664074431878
 21
1836.245878730053
 31
0.0
  0
LINE
  5
18E
330
173
100
AcDbEntity
  8
P-SANR-FIXT
100
AcDbLine
 10
738.3664074431877
 20
1776.245878730051
 30
0.0
 11
738.3664074431877
 21
1806.245878730052
 31
0.0
  0
LINE
  5
18F
330
173
100
AcDbEntity
  8
P-SANR-FIXT
100
AcDbLine
 10
738.3664074431877
 20
1806.245878730052
 30
0.0
 11
738.3664074431877
 21
1836.245878730053
 31
0.0
  0
LINE
  5
190
330
173
100
AcDbEntity
  8
P-SANR-FIXT
100
AcDbLine
 10
675.6664074431879
 20
1790.342928158143
 30
0.0
 11
675.6664074431879
 21
1787.656599828107
 31
0.0
  0
LINE
  5
191
330
173
100
AcDbEntity
  8
P-SANR-FIXT
100
AcDbLine
 10
675.6664074431879
 20
1787.656599828107
 30
0.0
 11
675.6664074431879
 21
1790.342928158143
 31
0.0
  0
LINE
  5
192
330
173
100
AcDbEntity
  8
P-SANR-FIXT
100
AcDbLine
 10
675.6664074431879
 20
1822.148829302399
 30
0.0
 11
675.6664074431879
 21
1824.835335185345
 31
0.0
  0
LINE
  5
193
330
173
100
AcDbEntity
  8
P-SANR-FIXT
100
AcDbLine
 10
675.6664074431879
 20
1824.835335185345
 30
0.0
 11
675.6664074431879
 21
1822.148829302399
 31
0.0
  0
LINE
  5
194
330
173
100
AcDbEntity
  8
P-SANR-FIXT
100
AcDbLine
 10
675.6664074431879
 20
1788.995878730053
 30
0.0
 11
675.6664074431879
 21
1806.245878730052
 31
0.0
  0
SPLINE
  5
195
330
173
100
AcDbEntity
  8
P-SANR-FIXT
100
AcDbSpline
210
0.0
220
0.0
230
1.0
 70
     8
 71
     3
 72
     9
 73
     5
 74
     0
 42
0.000000001
 43
0.0000000001
 40
-1.0
 40
-1.0
 40
-1.0
 40
-1.0
 40
-0.5
 40
0.0
 40
0.0
 40
0.0
 40
0.0
 10
675.6664074431879
 20
1788.995878730053
 30
0.0
 10
675.6794266768824
 20
1791.144542926017
 30
0.0
 10
675.9811210451716
 20
1795.41452746554
 30
0.0
 10
676.8341272152618
 20
1799.629824300255
 30
0.0
 10
677.3984582507568
 20
1801.723800791411
 30
0.0
  0
LINE
  5
196
330
173
100
AcDbEntity
  8
P-SANR-FIXT
100
AcDbLine
 10
675.6664074431879
 20
1771.745878730052
 30
0.0
 11
675.6664074431879
 21
1788.995878730053
 31
0.0
  0
SPLINE
  5
197
330
173
100
AcDbEntity
  8
P-SANR-FIXT
100
AcDbSpline
210
0.0
220
0.0
230
1.0
 70
    24
 71
     3
 72
     9
 73
     5
 74
     0
 42
0.000000001
 43
0.0000000001
 40
-1.0
 40
-1.0
 40
-1.0
 40
-1.0
 40
-0.5
 40
0.0
 40
0.0
 40
0.0
 40
0.0
 10
675.6664074431879
 20
1771.745878730052
 30
0.0
 10
675.6794266768824
 20
1771.745878730052
 30
0.0
 10
675.9811210451716
 20
1771.745878730052
 30
0.0
 10
676.8341272152617
 20
1771.745878730052
 30
0.0
 10
677.3984582507568
 20
1771.745878730052
 30
0.0
  0
SPLINE
  5
198
330
173
100
AcDbEntity
  8
P-SANR-FIXT
100
AcDbSpline
210
0.0
220
0.0
230
1.0
 70
     8
 71
     3
 72
     9
 73
     5
 74
     0
 42
0.000000001
 43
0.0000000001
 40
-1.0
 40
-1.0
 40
-1.0
 40
-1.0
 40
-0.5
 40
0.0
 40
0.0
 40
0.0
 40
0.0
 10
677.3984582507568
 20
1776.267956668693
 30
0.0
 10
676.8341272152615
 20
1778.361933159849
 30
0.0
 10
675.9811210451714
 20
1782.577229994565
 30
0.0
 10
675.6794266768822
 20
1786.847214534089
 30
0.0
 10
675.6664074431879
 20
1788.995878730053
 30
0.0
  0
SPLINE
  5
199
330
173
100
AcDbEntity
  8
P-SANR-FIXT
100
AcDbSpline
210
0.0
220
0.0
230
1.0
 70
     8
 71
     3
 72
     9
 73
     5
 74
     0
 42
0.000000001
 43
0.0000000001
 40
-1.0
 40
-1.0
 40
-1.0
 40
-1.0
 40
-0.5
 40
0.0
 40
0.0
 40
0.0
 40
0.0
 10
677.3984582507568
 20
1810.767956668692
 30
0.0
 10
676.8341272152615
 20
1812.861933159849
 30
0.0
 10
675.9811210451714
 20
1817.077229994565
 30
0.0
 10
675.6794266768822
 20
1821.347214534089
 30
0.0
 10
675.6664074431879
 20
1823.495878730054
 30
0.0
  0
LINE
  5
19A
330
173
100
AcDbEntity
  8
P-SANR-FIXT
100
AcDbLine
 10
675.6664074431879
 20
1806.245878730052
 30
0.0
 11
675.6664074431879
 21
1823.495878730054
 31
0.0
  0
LINE
  5
19B
330
173
100
AcDbEntity
  8
P-SANR-FIXT
100
AcDbLine
 10
675.6664074431879
 20
1823.495878730054
 30
0.0
 11
675.6664074431879
 21
1840.745878730053
 31
0.0
  0
SPLINE
  5
19C
330
173
100
AcDbEntity
  8
P-SANR-FIXT
100
AcDbSpline
210
0.0
220
0.0
230
1.0
 70
     8
 71
     3
 72
     9
 73
     5
 74
     0
 42
0.000000001
 43
0.0000000001
 40
-1.0
 40
-1.0
 40
-1.0
 40
-1.0
 40
-0.5
 40
0.0
 40
0.0
 40
0.0
 40
0.0
 10
675.6664074431879
 20
1823.495878730054
 30
0.0
 10
675.6794266768824
 20
1825.644542926017
 30
0.0
 10
675.9811210451716
 20
1829.914527465541
 30
0.0
 10
676.8341272152617
 20
1834.129824300256
 30
0.0
 10
677.3984582507568
 20
1836.223800791411
 30
0.0
  0
SPLINE
  5
19D
330
173
100
AcDbEntity
  8
P-SANR-FIXT
100
AcDbSpline
210
0.0
220
0.0
230
1.0
 70
    24
 71
     3
 72
     9
 73
     5
 74
     0
 42
0.000000001
 43
0.0000000001
 40
-1.0
 40
-1.0
 40
-1.0
 40
-1.0
 40
-0.5
 40
0.0
 40
0.0
 40
0.0
 40
0.0
 10
677.3984582507568
 20
1840.745878730052
 30
0.0
 10
676.8341272152615
 20
1840.745878730052
 30
0.0
 10
675.9811210451714
 20
1840.745878730052
 30
0.0
 10
675.6794266768822
 20
1840.745878730052
 30
0.0
 10
675.6664074431879
 20
1840.745878730052
 30
0.0
  0
LINE
  5
19E
330
173
100
AcDbEntity
  8
P-SANR-FIXT
100
AcDbLine
 10
677.3984582507568
 20
1771.745878730052
 30
0.0
 11
677.3984582507568
 21
1776.267956668692
 31
0.0
  0
LINE
  5
19F
330
173
100
AcDbEntity
  8
P-SANR-FIXT
100
AcDbLine
 10
677.3984582507568
 20
1771.745878730052
 30
0.0
 11
694.7796560972395
 21
1771.745878730052
 31
0.0
  0
LINE
  5
1A0
330
173
100
AcDbEntity
  8
P-SANR-FIXT
100
AcDbLine
 10
694.7796560972395
 20
1776.267956668693
 30
0.0
 11
677.3984582507568
 21
1776.267956668693
 31
0.0
  0
LINE
  5
1A1
330
173
100
AcDbEntity
  8
P-SANR-FIXT
100
AcDbLine
 10
677.3984582507567
 20
1801.723800791411
 30
0.0
 11
677.3984582507567
 21
1806.245878730052
 31
0.0
  0
LINE
  5
1A2
330
173
100
AcDbEntity
  8
P-SANR-FIXT
100
AcDbLine
 10
677.3984582507568
 20
1801.723800791411
 30
0.0
 11
694.7796560972395
 21
1801.723800791411
 31
0.0
  0
LINE
  5
1A3
330
173
100
AcDbEntity
  8
P-SANR-FIXT
100
AcDbLine
 10
677.3984582507568
 20
1836.223800791411
 30
0.0
 11
677.3984582507568
 21
1840.745878730052
 31
0.0
  0
LINE
  5
1A4
330
173
100
AcDbEntity
  8
P-SANR-FIXT
100
AcDbLine
 10
677.3984582507568
 20
1836.223800791411
 30
0.0
 11
694.7796560972395
 21
1836.223800791411
 31
0.0
  0
LINE
  5
1A5
330
173
100
AcDbEntity
  8
P-SANR-FIXT
100
AcDbLine
 10
694.7796560972395
 20
1840.745878730052
 30
0.0
 11
677.3984582507568
 21
1840.745878730052
 31
0.0
  0
LINE
  5
1A6
330
173
100
AcDbEntity
  8
P-SANR-FIXT
100
AcDbLine
 10
694.7796560972395
 20
1810.767956668693
 30
0.0
 11
677.3984582507568
 21
1810.767956668693
 31
0.0
  0
LINE
  5
1A7
330
173
100
AcDbEntity
  8
P-SANR-FIXT
100
AcDbLine
 10
677.3984582507568
 20
1806.245878730052
 30
0.0
 11
677.3984582507568
 21
1810.767956668692
 31
0.0
  0
ARC
  5
1A8
330
173
100
AcDbEntity
  8
P-SANR-FIXT
100
AcDbCircle
 10
725.6664074431879
 20
1806.245878730052
 30
0.0
 40
9.000000000003394
100
AcDbArc
 50
327.2660444505116
 51
332.7339555494856
  0
LINE
  5
1A9
330
173
100
AcDbEntity
  8
P-SANR-FIXT
100
AcDbLine
 10
733.6664074432067
 20
1802.122773104463
 30
0.0
 11
733.6664074432068
 21
1810.36898435564
 31
0.0
  0
ARC
  5
1AA
330
173
100
AcDbEntity
  8
P-SANR-FIXT
100
AcDbCircle
 10
725.6664074431879
 20
1806.245878730052
 30
0.0
 40
9.000000000003334
100
AcDbArc
 50
27.26604445051075
 51
32.73395554949444
  0
LINE
  5
1AB
330
173
100
AcDbEntity
  8
P-SANR-FIXT
100
AcDbLine
 10
733.2371216574427
 20
1811.11252914755
 30
0.0
 11
726.0956932289527
 21
1815.235634773138
 31
0.0
  0
ARC
  5
1AC
330
173
100
AcDbEntity
  8
P-SANR-FIXT
100
AcDbCircle
 10
725.6664074431879
 20
1806.245878730052
 30
0.0
 40
9.000000000003504
100
AcDbArc
 50
87.26604445050289
 51
92.73395554950361
  0
LINE
  5
1AD
330
173
100
AcDbEntity
  8
P-SANR-FIXT
100
AcDbLine
 10
725.237121657422
 20
1815.235634773138
 30
0.0
 11
718.0956932289338
 21
1811.112529147552
 31
0.0
  0
ARC
  5
1AE
330
173
100
AcDbEntity
  8
P-SANR-FIXT
100
AcDbCircle
 10
725.6664074431879
 20
1806.245878730052
 30
0.0
 40
9.000000000003538
100
AcDbArc
 50
147.2660444504955
 51
152.7339555495031
  0
LINE
  5
1AF
330
173
100
AcDbEntity
  8
P-SANR-FIXT
100
AcDbLine
 10
717.6664074431678
 20
1810.368984355638
 30
0.0
 11
717.6664074431678
 21
1802.122773104466
 31
0.0
  0
ARC
  5
1B0
330
173
100
AcDbEntity
  8
P-SANR-FIXT
100
AcDbCircle
 10
725.6664074431879
 20
1806.245878730052
 30
0.0
 40
9.000000000003405
100
AcDbArc
 50
207.2660444504947
 51
212.7339555494943
  0
LINE
  5
1B1
330
173
100
AcDbEntity
  8
P-SANR-FIXT
100
AcDbLine
 10
718.0956932289328
 20
1801.379228312553
 30
0.0
 11
725.2371216574232
 21
1797.256122686966
 31
0.0
  0
ARC
  5
1B2
330
173
100
AcDbEntity
  8
P-SANR-FIXT
100
AcDbCircle
 10
725.6664074431879
 20
1806.245878730052
 30
0.0
 40
9.000000000003385
100
AcDbArc
 50
267.2660444505032
 51
272.7339555494859
  0
LINE
  5
1B3
330
173
100
AcDbEntity
  8
P-SANR-FIXT
100
AcDbLine
 10
726.095693228951
 20
1797.256122686966
 30
0.0
 11
733.2371216574435
 21
1801.379228312555
 31
0.0
  0
ARC
  5
1B4
330
173
100
AcDbEntity
  8
P-SANR-FIXT
100
AcDbCircle
 10
725.6664074431878
 20
1806.245878730052
 30
0.0
 40
10.5
100
AcDbArc
 50
180.0
 51
0.0
  0
ARC
  5
1B5
330
173
100
AcDbEntity
  8
P-SANR-FIXT
100
AcDbCircle
 10
725.6664074431878
 20
1806.245878730052
 30
0.0
 40
10.5
100
AcDbArc
 50
0.0
 51
180.0
  0
LINE
  5
1B6
330
173
100
AcDbEntity
  8
P-SANR-FIXT
100
AcDbLine
 10
739.4808350378714
 20
1809.245878730051
 30
0.0
 11
784.7193855420694
 21
1809.245878730051
 31
0.0
  0
LINE
  5
1B7
330
173
100
AcDbEntity
  8
P-SANR-FIXT
100
AcDbLine
 10
784.7193855420695
 20
1803.245878730051
 30
0.0
 11
739.4834499753256
 21
1803.245878730051
 31
0.0
  0
LINE
  5
1B8
330
173
100
AcDbEntity
  8
P-SANR-FIXT
100
AcDbLine
 10
724.6324518863084
 20
1770.245878730053
 30
0.0
 11
760.450667162858
 21
1770.245878730053
 31
0.0
  0
LINE
  5
1B9
330
173
100
AcDbEntity
  8
P-SANR-FIXT
100
AcDbLine
 10
760.4506671628581
 20
1842.245878730053
 30
0.0
 11
724.6324518863087
 21
1842.245878730053
 31
0.0
  0
LWPOLYLINE
  5
1BA
330
173
100
AcDbEntity
  8
P-SANR-FIXT
100
AcDbPolyline
 90
       11
 70
   128
 43
0.0
 10
760.4506671628581
 20
1770.245878730053
 10
761.4853460569536
 20
1770.278073223773
 10
762.5171124249931
 20
1770.374487813436
 10
763.543118127075
 20
1770.534624274852
 10
764.5606380385599
 20
1770.75767932596
 10
765.5671181012551
 20
1771.042581721981
 10
766.5602096151619
 20
1771.388037842748
 10
767.5377885469505
 20
1771.792580928527
 10
768.4979604958664
 20
1772.25461940294
 10
769.4390534070354
 20
1772.772480612615
 10
770.2009602213601
 20
1773.245878730055
  0
LWPOLYLINE
  5
1BB
330
173
100
AcDbEntity
  8
P-SANR-FIXT
100
AcDbPolyline
 90
       11
 70
   128
 43
0.0
 10
760.4506671628581
 20
1842.245878730053
 10
761.4853460569536
 20
1842.213684236333
 10
762.5171124249931
 20
1842.117269646669
 10
763.5431181270752
 20
1841.957133185254
 10
764.5606380385601
 20
1841.734078134146
 10
765.5671181012551
 20
1841.449175738125
 10
766.5602096151619
 20
1841.103719617358
 10
767.5377885469505
 20
1840.699176531579
 10
768.4979604958664
 20
1840.237138057166
 10
769.4390534070354
 20
1839.719276847491
 10
770.2009602213601
 20
1839.245878730051
  0
LINE
  5
1BC
330
173
100
AcDbEntity
  8
P-SANR-FIXT
100
AcDbLine
 10
751.6900777099303
 20
1789.110579128391
 30
0.0
 11
752.0301001052887
 21
1788.294612480693
 31
0.0
  0
LINE
  5
1BD
330
173
100
AcDbEntity
  8
P-SANR-FIXT
100
AcDbLine
 10
752.0301001052887
 20
1824.197144979413
 30
0.0
 11
751.6900777099303
 21
1823.381178331715
 31
0.0
  0
LINE
  5
1BE
330
173
100
AcDbEntity
  8
P-SANR-FIXT
100
AcDbLine
 10
769.8290740303282
 20
1773.245878730055
 30
0.0
 11
801.2368961982062
 21
1773.245878730055
 31
0.0
  0
LINE
  5
1BF
330
173
100
AcDbEntity
  8
P-SANR-FIXT
100
AcDbLine
 10
801.2368961982062
 20
1839.245878730051
 30
0.0
 11
769.8290740303282
 21
1839.245878730051
 31
0.0
  0
LINE
  5
1C0
330
173
100
AcDbEntity
  8
P-SANR-FIXT
100
AcDbLine
 10
802.3859628628848
 20
1774.745878730052
 30
0.0
 11
806.9822295215985
 21
1774.745878730052
 31
0.0
  0
LINE
  5
1C1
330
173
100
AcDbEntity
  8
P-SANR-FIXT
100
AcDbLine
 10
806.9822295215985
 20
1837.745878730054
 30
0.0
 11
802.3859628628848
 21
1837.745878730054
 31
0.0
  0
LINE
  5
1C2
330
173
100
AcDbEntity
  8
P-SANR-FIXT
100
AcDbLine
 10
806.9822295215985
 20
1774.745878730053
 30
0.0
 11
807.7482739647177
 21
1774.745878730053
 31
0.0
  0
LINE
  5
1C3
330
173
100
AcDbEntity
  8
P-SANR-FIXT
100
AcDbLine
 10
807.7482739647177
 20
1837.745878730053
 30
0.0
 11
806.9822295215985
 21
1837.745878730053
 31
0.0
  0
LWPOLYLINE
  5
1C4
330
173
100
AcDbEntity
  8
P-SANR-FIXT
100
AcDbPolyline
 90
       16
 70
   128
 43
0.0
 10
807.748273964718
 20
1774.745878730052
 10
808.7037191226881
 20
1774.775606481586
 10
809.655959424829
 20
1774.86458566189
 10
810.6018747780437
 20
1775.012215281373
 10
811.53850694037
 20
1775.217529700293
 10
812.4631225089609
 20
1775.479247920338
 10
813.3732575673441
 20
1775.795834132038
 10
814.2667423619036
 20
1776.165563060145
 10
815.1417068635643
 20
1776.586584025595
 10
815.9965700029969
 20
1777.056978830822
 10
816.8300165243307
 20
1777.574810198919
 10
817.6409657746791
 20
1778.138159180216
 10
818.428536482958
 20
1778.745151396523
 10
819.1920109049418
 20
1779.393973065918
 10
819.9308008475398
 20
1780.082878401873
 10
820.5469494256917
 20
1780.71085189944
  0
LWPOLYLINE
  5
1C5
330
173
100
AcDbEntity
  8
P-SANR-FIXT
100
AcDbPolyline
 90
       16
 70
   128
 43
0.0
 10
807.748273964718
 20
1837.745878730054
 10
808.7037191226881
 20
1837.71615097852
 10
809.6559594248292
 20
1837.627171798215
 10
810.601874778044
 20
1837.479542178733
 10
811.5385069403702
 20
1837.274227759813
 10
812.4631225089613
 20
1837.012509539768
 10
813.3732575673443
 20
1836.695923328068
 10
814.2667423619036
 20
1836.32619439996
 10
815.1417068635643
 20
1835.905173434511
 10
815.9965700029973
 20
1835.434778629284
 10
816.8300165243307
 20
1834.916947261187
 10
817.6409657746791
 20
1834.353598279889
 10
818.4285364829582
 20
1833.746606063583
 10
819.1920109049421
 20
1833.097784394188
 10
819.9308008475398
 20
1832.408879058234
 10
820.5469494256917
 20
1831.780905560666
  0
LINE
  5
1C6
330
173
100
AcDbEntity
  8
P-SANR-FIXT
100
AcDbLine
 10
820.3498930551889
 20
1780.907692579674
 30
0.0
 11
827.5117069048107
 21
1773.745878730052
 31
0.0
  0
LINE
  5
1C7
330
173
100
AcDbEntity
  8
P-SANR-FIXT
100
AcDbLine
 10
827.5117069048107
 20
1838.745878730054
 30
0.0
 11
820.3498930551889
 21
1831.584064880432
 31
0.0
  0
LINE
  5
1C8
330
173
100
AcDbEntity
  8
P-SANR-FIXT
100
AcDbLine
 10
827.5117069048107
 20
1773.745878730052
 30
0.0
 11
831.511706904811
 21
1773.745878730052
 31
0.0
  0
LINE
  5
1C9
330
173
100
AcDbEntity
  8
P-SANR-FIXT
100
AcDbLine
 10
831.511706904811
 20
1838.745878730054
 30
0.0
 11
827.5117069048107
 21
1838.745878730054
 31
0.0
  0
LINE
  5
1CA
330
173
100
AcDbEntity
  8
P-SANR-FIXT
100
AcDbLine
 10
831.511706904811
 20
1773.745878730052
 30
0.0
 11
832.6664111807
 21
1771.745872256495
 31
0.0
  0
LINE
  5
1CB
330
173
100
AcDbEntity
  8
P-SANR-FIXT
100
AcDbLine
 10
832.6664111807
 20
1840.745885203611
 30
0.0
 11
831.511706904811
 21
1838.745878730054
 31
0.0
  0
LINE
  5
1CC
330
173
100
AcDbEntity
  8
P-SANR-FIXT
100
AcDbLine
 10
810.8124517371933
 20
1780.245878730053
 30
0.0
 11
815.8831324601322
 21
1780.245878730053
 31
0.0
  0
LINE
  5
1CD
330
173
100
AcDbEntity
  8
P-SANR-FIXT
100
AcDbLine
 10
815.8831324601322
 20
1832.245878730053
 30
0.0
 11
810.8124517371933
 21
1832.245878730053
 31
0.0
  0
LWPOLYLINE
  5
1CE
330
173
100
AcDbEntity
  8
P-SANR-FIXT
100
AcDbPolyline
 90
        6
 70
   128
 43
0.0
 10
815.8831324601322
 20
1780.245878730053
 10
816.8429507802851
 20
1780.275738179575
 10
817.7978809010889
 20
1780.364955726926
 10
818.7432017145624
 20
1780.512471359288
 10
819.6745109506986
 20
1780.716590155432
 10
820.3562848162286
 20
1780.903971051004
  0
LWPOLYLINE
  5
1CF
330
173
100
AcDbEntity
  8
P-SANR-FIXT
100
AcDbPolyline
 90
        6
 70
   128
 43
0.0
 10
815.8831324601322
 20
1832.245878730053
 10
816.8429507802853
 20
1832.21601928053
 10
817.7978809010889
 20
1832.12680173318
 10
818.7432017145624
 20
1831.979286100818
 10
819.6745109506988
 20
1831.775167304675
 10
820.3562848162286
 20
1831.587786409102
  0
LWPOLYLINE
  5
1D0
330
173
100
AcDbEntity
  8
P-SANR-FIXT
100
AcDbPolyline
 90
       14
 70
   128
 43
0.0
 10
720.6141715925461
 20
1770.841487816974
 10
720.3742573151197
 20
1770.863908326421
 10
719.4310937256569
 20
1771.011124302439
 10
718.493651649393
 20
1771.21663776938
 10
717.563739541471
 20
1771.479881814778
 10
716.6430912450941
 20
1771.80015602528
 10
715.7333580340601
 20
1772.17664332926
 10
714.8361054484418
 20
1772.608426629429
 10
713.9528142291664
 20
1773.09450400116
 10
713.0848843680614
 20
1773.633801637958
 10
712.2336411968175
 20
1774.22518414616
 10
711.4003425042389
 20
1774.867462154909
 10
710.5861858402472
 20
1775.559397475441
 10
709.8500373036581
 20
1776.245878730053
  0
LWPOLYLINE
  5
1D1
330
173
100
AcDbEntity
  8
P-SANR-FIXT
100
AcDbPolyline
 90
       14
 70
   128
 43
0.0
 10
720.6141715925463
 20
1841.650269643132
 10
720.3742573151197
 20
1841.627849133684
 10
719.4310937256569
 20
1841.480633157667
 10
718.493651649393
 20
1841.275119690726
 10
717.5637395414712
 20
1841.011875645327
 10
716.6430912450941
 20
1840.691601434825
 10
715.7333580340603
 20
1840.315114130847
 10
714.8361054484419
 20
1839.883330830677
 10
713.9528142291664
 20
1839.397253458946
 10
713.0848843680616
 20
1838.857955822149
 10
712.2336411968175
 20
1838.266573313946
 10
711.4003425042389
 20
1837.624295305196
 10
710.5861858402472
 20
1836.932359984665
 10
709.8500373036582
 20
1836.245878730053
  0
ARC
  5
1D2
330
173
100
AcDbEntity
  8
P-SANR-FIXT
100
AcDbCircle
 10
725.6664074431872
 20
1806.245878730052
 30
0.0
 40
9.000000000003637
100
AcDbArc
 50
0.0
 51
27.32281082138257
  0
ARC
  5
1D3
330
173
100
AcDbEntity
  8
P-SANR-FIXT
100
AcDbCircle
 10
725.6664074431872
 20
1806.245878730052
 30
0.0
 40
9.000000000003575
100
AcDbArc
 50
32.8092865031761
 51
87.25926154191888
  0
ARC
  5
1D4
330
173
100
AcDbEntity
  8
P-SANR-FIXT
100
AcDbCircle
 10
725.6664074431872
 20
1806.245878730052
 30
0.0
 40
9.000000000003662
100
AcDbArc
 50
92.74073845807892
 51
147.1907134968133
  0
ARC
  5
1D5
330
173
100
AcDbEntity
  8
P-SANR-FIXT
100
AcDbCircle
 10
725.6664074431872
 20
1806.245878730052
 30
0.0
 40
9.000000000003584
100
AcDbArc
 50
152.6771891786318
 51
180.0
  0
ELLIPSE
  5
1D6
330
173
100
AcDbEntity
  8
P-SANR-FIXT
100
AcDbEllipse
 10
724.6324518863071
 20
1806.245878730052
 30
0.0
 11
0.00000000000025
 21
35.99999999999955
 31
0.0
210
0.0
220
0.0
230
1.0
 40
0.6427876096865476
 41
2.557129425901106
 42
3.141592653589797
  0
ELLIPSE
  5
1D7
330
173
100
AcDbEntity
  8
P-SANR-FIXT
100
AcDbEllipse
 10
724.6324518863071
 20
1806.245878730052
 30
0.0
 11
0.0
 21
35.99999999999963
 31
0.0
210
0.0
220
0.0
230
1.0
 40
0.6427876096865447
 41
0.0000000000000064
 42
0.5844632276887073
  0
ELLIPSE
  5
1D8
330
173
100
AcDbEntity
  8
P-SANR-FIXT
100
AcDbEllipse
 10
764.8497851500533
 20
1806.245878730052
 30
0.0
 11
0.0
 21
31.50000000000062
 31
0.0
210
0.0
220
0.0
230
0.9999999999999998
 40
0.642787609686542
 41
1.666236602235026
 42
3.069505856040017
  0
ELLIPSE
  5
1D9
330
173
100
AcDbEntity
  8
P-SANR-FIXT
100
AcDbEllipse
 10
764.8497851500533
 20
1806.245878730052
 30
0.0
 11
0.0
 21
31.50000000000075
 31
0.0
210
0.0
220
0.0
230
0.9999999999999998
 40
0.6427876096865413
 41
0.0720867975497883
 42
1.475356051354821
  0
ELLIPSE
  5
1DA
330
173
100
AcDbEntity
  8
P-SANR-FIXT
100
AcDbEllipse
 10
768.6800073656481
 20
1806.245878730052
 30
0.0
 11
0.0
 21
31.49999999999991
 31
0.0
210
0.0
220
0.0
230
1.0
 40
0.6427876096865452
 41
2.199114857512864
 42
2.215805846687815
  0
ELLIPSE
  5
1DB
330
173
100
AcDbEntity
  8
P-SANR-FIXT
100
AcDbEllipse
 10
768.6800073656481
 20
1806.245878730052
 30
0.0
 11
0.0
 21
31.50000000000001
 31
0.0
210
0.0
220
0.0
230
1.0
 40
0.6427876096865428
 41
1.666236602235028
 42
2.042035224833361
  0
ELLIPSE
  5
1DC
330
173
100
AcDbEntity
  8
P-SANR-FIXT
100
AcDbEllipse
 10
768.6800073656481
 20
1806.245878730052
 30
0.0
 11
0.0
 21
31.50000000000007
 31
0.0
210
0.0
220
0.0
230
0.9999999999999998
 40
0.6427876096865372
 41
1.099557428756425
 42
1.475356051354819
  0
ELLIPSE
  5
1DD
330
173
100
AcDbEntity
  8
P-SANR-FIXT
100
AcDbEllipse
 10
768.6800073656481
 20
1806.245878730052
 30
0.0
 11
0.0
 21
31.50000000000023
 31
0.0
210
0.0
220
0.0
230
1.0
 40
0.6427876096865349
 41
0.9257868069019885
 42
0.942477796076927
  0
ELLIPSE
  5
1DE
330
173
100
AcDbEntity
  8
P-SANR-FIXT
100
AcDbEllipse
 10
769.8290740303267
 20
1806.245878730052
 30
0.0
 11
0.0000000000000533
 21
32.99999999999841
 31
0.0
210
0.0
220
0.0
230
1.0
 40
0.6427876096865414
 41
2.094395102393231
 42
3.141592653589794
  0
ELLIPSE
  5
1DF
330
173
100
AcDbEntity
  8
P-SANR-FIXT
100
AcDbEllipse
 10
769.8290740303267
 20
1806.245878730052
 30
0.0
 11
0.0
 21
32.99999999999842
 31
0.0
210
0.0
220
0.0
230
1.0
 40
0.642787609686542
 41
1.66184972656734
 42
2.092983882645675
  0
ELLIPSE
  5
1E0
330
173
100
AcDbEntity
  8
P-SANR-FIXT
100
AcDbEllipse
 10
769.8290740303267
 20
1806.245878730052
 30
0.0
 11
0.0
 21
32.99999999999825
 31
0.0
210
0.0
220
0.0
230
1.0
 40
0.6427876096865447
 41
1.048608770944121
 42
1.479742927022504
  0
ELLIPSE
  5
1E1
330
173
100
AcDbEntity
  8
P-SANR-FIXT
100
AcDbEllipse
 10
769.8290740303267
 20
1806.245878730052
 30
0.0
 11
0.0
 21
32.9999999999985
 31
0.0
210
0.0
220
0.0
230
1.0
 40
0.6427876096865379
 41
0.0000000000000016
 42
1.047197551196566
  0
ELLIPSE
  5
1E2
330
173
100
AcDbEntity
  8
P-SANR-FIXT
100
AcDbEllipse
 10
801.2368961982046
 20
1806.245878730052
 30
0.0
 11
0.0
 21
32.99999999999908
 31
0.0
210
0.0
220
0.0
230
1.0
 40
0.6427876096865396
 41
1.661849726567338
 42
3.441815604506645
  0
ELLIPSE
  5
1E3
330
173
100
AcDbEntity
  8
P-SANR-FIXT
100
AcDbEllipse
 10
801.2368961982046
 20
1806.245878730052
 30
0.0
 11
0.0
 21
32.99999999999916
 31
0.0
210
0.0
220
0.0
230
1.0
 40
0.6427876096865376
 41
5.982962356262733
 42
7.762928234202092
  0
ELLIPSE
  5
1E4
330
173
100
AcDbEntity
  8
P-SANR-FIXT
100
AcDbEllipse
 10
802.3859628628832
 20
1806.245878730052
 30
0.0
 11
0.0000000000002467
 21
31.50000000000046
 31
0.0
210
0.0
220
0.0
230
1.0
 40
0.6427876096865441
 41
1.666236602235037
 42
3.141592653589798
  0
ELLIPSE
  5
1E5
330
173
100
AcDbEntity
  8
P-SANR-FIXT
100
AcDbEllipse
 10
802.3859628628832
 20
1806.245878730052
 30
0.0
 11
0.0
 21
31.50000000000075
 31
0.0
210
0.0
220
0.0
230
0.9999999999999998
 40
0.6427876096865374
 41
0.0000000000000129
 42
1.475356051354821
  0
SPLINE
  5
1E6
330
173
100
AcDbEntity
  8
P-SANR-FIXT
100
AcDbSpline
210
0.0
220
0.0
230
1.0
 70
     8
 71
     3
 72
    11
 73
     7
 74
     0
 42
0.000000001
 43
0.0000000001
 40
0.0582978623502457
 40
0.0582978623502457
 40
0.0582978623502457
 40
0.0582978623502457
 40
0.25
 40
0.375
 40
0.5
 40
1.0
 40
1.0
 40
1.0
 40
1.0
 10
818.6897721502548
 20
1797.78994664234
 30
0.0
 10
818.599308590867
 20
1796.345630339967
 30
0.0
 10
818.4961925124165
 20
1794.058381539943
 30
0.0
 10
818.432504742296
 20
1791.144992710099
 30
0.0
 10
818.5039200040636
 20
1786.628803837245
 30
0.0
 10
819.0490386005654
 20
1783.755385121033
 30
0.0
 10
819.7751653155558
 20
1782.117634912159
 30
0.0
  0
SPLINE
  5
1E7
330
173
100
AcDbEntity
  8
P-SANR-FIXT
100
AcDbSpline
210
0.0
220
0.0
230
1.0
 70
     8
 71
     3
 72
     9
 73
     5
 74
     0
 42
0.000000001
 43
0.0000000001
 40
0.0
 40
0.0
 40
0.0
 40
0.0
 40
0.3333333333333333
 40
0.6666666666666666
 40
0.6666666666666666
 40
0.6666666666666666
 40
0.6666666666666666
 10
819.7751653155558
 20
1782.117634912159
 30
0.0
 10
819.9440695817475
 20
1781.739257112786
 30
0.0
 10
820.2068081985732
 20
1781.153126529035
 30
0.0
 10
820.333222746002
 20
1780.920533619195
 30
0.0
 10
820.351987181078
 20
1780.905820181801
 30
0.0
  0
SPLINE
  5
1E8
330
173
100
AcDbEntity
  8
P-SANR-FIXT
100
AcDbSpline
210
0.0
220
0.0
230
1.0
 70
     8
 71
     3
 72
     9
 73
     5
 74
     0
 42
0.000000001
 43
0.0000000001
 40
0.3333333333333333
 40
0.3333333333333333
 40
0.3333333333333333
 40
0.3333333333333333
 40
0.6666666666666666
 40
1.0
 40
1.0
 40
1.0
 40
1.0
 10
820.351987181078
 20
1831.585937278304
 30
0.0
 10
820.333222746002
 20
1831.57122384091
 30
0.0
 10
820.2068081985732
 20
1831.338630931069
 30
0.0
 10
819.9440695817475
 20
1830.752500347318
 30
0.0
 10
819.7751653155558
 20
1830.374122547945
 30
0.0
  0
SPLINE
  5
1E9
330
173
100
AcDbEntity
  8
P-SANR-FIXT
100
AcDbSpline
210
0.0
220
0.0
230
1.0
 70
     8
 71
     3
 72
    11
 73
     7
 74
     0
 42
0.000000001
 43
0.0000000001
 40
0.0
 40
0.0
 40
0.0
 40
0.0
 40
0.5
 40
0.625
 40
0.75
 40
0.9416948062650627
 40
0.9416948062650627
 40
0.9416948062650627
 40
0.9416948062650627
 10
819.7751653155558
 20
1830.374122547945
 30
0.0
 10
819.0490386005654
 20
1828.736372339071
 30
0.0
 10
818.5039200040636
 20
1825.862953622859
 30
0.0
 10
818.432504742296
 20
1821.346764750005
 30
0.0
 10
818.496191455325
 20
1818.433424276673
 30
0.0
 10
818.5993038167989
 20
1816.146233015754
 30
0.0
 10
818.6897617714144
 20
1814.701976525176
 30
0.0
  0
LINE
  5
1EA
330
173
100
AcDbEntity
  8
P-SANR-FIXT
100
AcDbLine
 10
827.5117069048093
 20
1773.745878730051
 30
0.0
 11
827.5117069048093
 21
1806.245878730052
 31
0.0
  0
LINE
  5
1EB
330
173
100
AcDbEntity
  8
P-SANR-FIXT
100
AcDbLine
 10
827.5117069048093
 20
1806.245878730052
 30
0.0
 11
827.5117069048093
 21
1838.745878730053
 31
0.0
  0
LINE
  5
1EC
330
173
100
AcDbEntity
  8
P-SANR-FIXT
100
AcDbLine
 10
831.5117069048094
 20
1773.745878730051
 30
0.0
 11
831.5117069048094
 21
1806.245878730052
 31
0.0
  0
SPLINE
  5
1ED
330
173
100
AcDbEntity
  8
P-SANR-FIXT
100
AcDbSpline
210
0.0
220
0.0
230
1.0
 70
    24
 71
     3
 72
     8
 73
     4
 74
     0
 42
0.000000001
 43
0.0000000001
 40
-0.4994716556483096
 40
-0.4994716556483096
 40
-0.4994716556483096
 40
-0.4994716556483096
 40
0.0
 40
0.0
 40
0.0
 40
0.0
 10
832.6664111806987
 20
1771.745878730052
 30
0.0
 10
832.6676300491159
 20
1771.745878730052
 30
0.0
 10
833.2449790724686
 20
1771.745878730052
 30
0.0
 10
834.3984582507568
 20
1771.745878730052
 30
0.0
  0
SPLINE
  5
1EE
330
173
100
AcDbEntity
  8
P-SANR-FIXT
100
AcDbSpline
210
0.0
220
0.0
230
1.0
 70
     8
 71
     3
 72
     9
 73
     5
 74
     0
 42
0.000000001
 43
0.0000000001
 40
-1.0
 40
-1.0
 40
-1.0
 40
-1.0
 40
-0.5
 40
0.0
 40
0.0
 40
0.0
 40
0.0
 10
834.3984582507568
 20
1776.267956668695
 30
0.0
 10
833.2437589147245
 20
1780.502121086301
 30
0.0
 10
832.0890595786922
 20
1788.978926191026
 30
0.0
 10
833.2437589147245
 20
1797.472683834777
 30
0.0
 10
834.3984582507568
 20
1801.723800791409
 30
0.0
  0
LINE
  5
1EF
330
173
100
AcDbEntity
  8
P-SANR-FIXT
100
AcDbLine
 10
831.5117069048094
 20
1806.245878730052
 30
0.0
 11
831.5117069048094
 21
1838.745878730053
 31
0.0
  0
SPLINE
  5
1F0
330
173
100
AcDbEntity
  8
P-SANR-FIXT
100
AcDbSpline
210
0.0
220
0.0
230
1.0
 70
     8
 71
     3
 72
     9
 73
     5
 74
     0
 42
0.000000001
 43
0.0000000001
 40
-1.0
 40
-1.0
 40
-1.0
 40
-1.0
 40
-0.5
 40
0.0
 40
0.0
 40
0.0
 40
0.0
 10
834.3984582507568
 20
1810.767956668694
 30
0.0
 10
833.2437589147245
 20
1815.0021210863
 30
0.0
 10
832.0890595786922
 20
1823.478926191025
 30
0.0
 10
833.2437589147245
 20
1831.972683834777
 30
0.0
 10
834.3984582507568
 20
1836.22380079141
 30
0.0
  0
SPLINE
  5
1F1
330
173
100
AcDbEntity
  8
P-SANR-FIXT
100
AcDbSpline
210
0.0
220
0.0
230
1.0
 70
    24
 71
     3
 72
     8
 73
     4
 74
     0
 42
0.000000001
 43
0.0000000001
 40
-1.0
 40
-1.0
 40
-1.0
 40
-1.0
 40
-0.5
 40
-0.5
 40
-0.5
 40
-0.5
 10
834.3984582507568
 20
1840.745878730052
 30
0.0
 10
833.2437589147245
 20
1840.745878730052
 30
0.0
 10
832.6664092467083
 20
1840.745878730052
 30
0.0
 10
832.6664092467083
 20
1840.745878730052
 30
0.0
  0
ELLIPSE
  5
1F2
330
173
100
AcDbEntity
  8
P-SANR-FIXT
100
AcDbEllipse
 10
810.8124517371919
 20
1806.245878730052
 30
0.0
 11
0.0000000000000536
 21
26.0
 31
0.0
210
0.0
220
0.0
230
1.0
 40
0.6427876096865405
 41
1.570796326794906
 42
3.141592653589796
  0
ELLIPSE
  5
1F3
330
173
100
AcDbEntity
  8
P-SANR-FIXT
100
AcDbEllipse
 10
810.8124517371919
 20
1806.245878730052
 30
0.0
 11
0.0
 21
26.00000000000023
 31
0.0
210
0.0
220
0.0
230
1.0
 40
0.6427876096865349
 41
0.0000000000000016
 42
1.570796326794898
  0
LINE
  5
1F4
330
173
100
AcDbEntity
  8
P-SANR-FIXT
100
AcDbLine
 10
834.3984582507566
 20
1801.723800791409
 30
0.0
 11
834.3984582507566
 21
1806.245878730052
 31
0.0
  0
LINE
  5
1F5
330
173
100
AcDbEntity
  8
P-SANR-FIXT
100
AcDbLine
 10
834.3984582507568
 20
1801.723800791409
 30
0.0
 11
852.9343566356189
 21
1801.723800791409
 31
0.0
  0
LINE
  5
1F6
330
173
100
AcDbEntity
  8
P-SANR-FIXT
100
AcDbLine
 10
834.3984582507568
 20
1771.745878730052
 30
0.0
 11
834.3984582507568
 21
1776.267956668694
 31
0.0
  0
LINE
  5
1F7
330
173
100
AcDbEntity
  8
P-SANR-FIXT
100
AcDbLine
 10
834.3984582507568
 20
1771.745878730052
 30
0.0
 11
852.9343566356189
 21
1771.745878730052
 31
0.0
  0
LINE
  5
1F8
330
173
100
AcDbEntity
  8
P-SANR-FIXT
100
AcDbLine
 10
852.9343566356189
 20
1776.267956668695
 30
0.0
 11
834.3984582507568
 21
1776.267956668695
 31
0.0
  0
LINE
  5
1F9
330
173
100
AcDbEntity
  8
P-SANR-FIXT
100
AcDbLine
 10
852.9343566356189
 20
1810.767956668694
 30
0.0
 11
834.3984582507568
 21
1810.767956668694
 31
0.0
  0
LINE
  5
1FA
330
173
100
AcDbEntity
  8
P-SANR-FIXT
100
AcDbLine
 10
834.3984582507568
 20
1806.245878730052
 30
0.0
 11
834.3984582507568
 21
1810.767956668694
 31
0.0
  0
LINE
  5
1FB
330
173
100
AcDbEntity
  8
P-SANR-FIXT
100
AcDbLine
 10
834.3984582507568
 20
1836.22380079141
 30
0.0
 11
834.3984582507568
 21
1840.745878730052
 31
0.0
  0
LINE
  5
1FC
330
173
100
AcDbEntity
  8
P-SANR-FIXT
100
AcDbLine
 10
834.3984582507568
 20
1836.22380079141
 30
0.0
 11
852.9343566356189
 21
1836.22380079141
 31
0.0
  0
LINE
  5
1FD
330
173
100
AcDbEntity
  8
P-SANR-FIXT
100
AcDbLine
 10
852.9343566356189
 20
1840.745878730052
 30
0.0
 11
834.3984582507568
 21
1840.745878730052
 31
0.0
  0
LINE
  5
1FE
330
173
100
AcDbEntity
  8
P-SANR-FIXT
100
AcDbLine
 10
852.9343566356189
 20
1771.745878730052
 30
0.0
 11
852.9343566356189
 21
1776.267956668694
 31
0.0
  0
SPLINE
  5
1FF
330
173
100
AcDbEntity
  8
P-SANR-FIXT
100
AcDbSpline
210
0.0
220
0.0
230
1.0
 70
    24
 71
     3
 72
     9
 73
     5
 74
     0
 42
0.000000001
 43
0.0000000001
 40
-1.0
 40
-1.0
 40
-1.0
 40
-1.0
 40
-0.5
 40
0.0
 40
0.0
 40
0.0
 40
0.0
 10
852.9343566356189
 20
1771.745878730052
 30
0.0
 10
853.498687671114
 20
1771.745878730052
 30
0.0
 10
854.3516938412038
 20
1771.745878730052
 30
0.0
 10
854.6533882094932
 20
1771.745878730052
 30
0.0
 10
854.6664074431879
 20
1771.745878730052
 30
0.0
  0
SPLINE
  5
200
330
173
100
AcDbEntity
  8
P-SANR-FIXT
100
AcDbSpline
210
0.0
220
0.0
230
1.0
 70
     8
 71
     3
 72
     9
 73
     5
 74
     0
 42
0.000000001
 43
0.0000000001
 40
-1.0
 40
-1.0
 40
-1.0
 40
-1.0
 40
-0.5
 40
0.0
 40
0.0
 40
0.0
 40
0.0
 10
854.6664074431879
 20
1788.995878730052
 30
0.0
 10
854.6533882094932
 20
1786.847214534088
 30
0.0
 10
854.3516938412038
 20
1782.577229994565
 30
0.0
 10
853.498687671114
 20
1778.36193315985
 30
0.0
 10
852.9343566356189
 20
1776.267956668695
 30
0.0
  0
LINE
  5
201
330
173
100
AcDbEntity
  8
P-SANR-FIXT
100
AcDbLine
 10
852.9343566356189
 20
1801.723800791409
 30
0.0
 11
852.9343566356189
 21
1806.245878730052
 31
0.0
  0
SPLINE
  5
202
330
173
100
AcDbEntity
  8
P-SANR-FIXT
100
AcDbSpline
210
0.0
220
0.0
230
1.0
 70
     8
 71
     3
 72
     9
 73
     5
 74
     0
 42
0.000000001
 43
0.0000000001
 40
-1.0
 40
-1.0
 40
-1.0
 40
-1.0
 40
-0.5
 40
0.0
 40
0.0
 40
0.0
 40
0.0
 10
852.9343566356189
 20
1801.723800791409
 30
0.0
 10
853.498687671114
 20
1799.629824300254
 30
0.0
 10
854.3516938412038
 20
1795.414527465539
 30
0.0
 10
854.6533882094932
 20
1791.144542926016
 30
0.0
 10
854.6664074431879
 20
1788.995878730052
 30
0.0
  0
LINE
  5
203
330
173
100
AcDbEntity
  8
P-SANR-FIXT
100
AcDbLine
 10
852.9343566356189
 20
1836.22380079141
 30
0.0
 11
852.9343566356189
 21
1840.745878730052
 31
0.0
  0
SPLINE
  5
204
330
173
100
AcDbEntity
  8
P-SANR-FIXT
100
AcDbSpline
210
0.0
220
0.0
230
1.0
 70
     8
 71
     3
 72
     9
 73
     5
 74
     0
 42
0.000000001
 43
0.0000000001
 40
-1.0
 40
-1.0
 40
-1.0
 40
-1.0
 40
-0.5
 40
0.0
 40
0.0
 40
0.0
 40
0.0
 10
852.9343566356189
 20
1836.22380079141
 30
0.0
 10
853.4986876711139
 20
1834.129824300254
 30
0.0
 10
854.3516938412038
 20
1829.914527465539
 30
0.0
 10
854.6533882094932
 20
1825.644542926016
 30
0.0
 10
854.6664074431879
 20
1823.495878730052
 30
0.0
  0
SPLINE
  5
205
330
173
100
AcDbEntity
  8
P-SANR-FIXT
100
AcDbSpline
210
0.0
220
0.0
230
1.0
 70
    24
 71
     3
 72
     9
 73
     5
 74
     0
 42
0.000000001
 43
0.0000000001
 40
-1.0
 40
-1.0
 40
-1.0
 40
-1.0
 40
-0.5
 40
0.0
 40
0.0
 40
0.0
 40
0.0
 10
854.6664074431879
 20
1840.745878730052
 30
0.0
 10
854.6533882094932
 20
1840.745878730052
 30
0.0
 10
854.3516938412038
 20
1840.745878730052
 30
0.0
 10
853.498687671114
 20
1840.745878730052
 30
0.0
 10
852.9343566356189
 20
1840.745878730052
 30
0.0
  0
SPLINE
  5
206
330
173
100
AcDbEntity
  8
P-SANR-FIXT
100
AcDbSpline
210
0.0
220
0.0
230
1.0
 70
     8
 71
     3
 72
     9
 73
     5
 74
     0
 42
0.000000001
 43
0.0000000001
 40
-1.0
 40
-1.0
 40
-1.0
 40
-1.0
 40
-0.5
 40
0.0
 40
0.0
 40
0.0
 40
0.0
 10
854.6664074431879
 20
1823.495878730052
 30
0.0
 10
854.6533882094932
 20
1821.347214534088
 30
0.0
 10
854.3516938412038
 20
1817.077229994565
 30
0.0
 10
853.498687671114
 20
1812.86193315985
 30
0.0
 10
852.9343566356189
 20
1810.767956668694
 30
0.0
  0
LINE
  5
207
330
173
100
AcDbEntity
  8
P-SANR-FIXT
100
AcDbLine
 10
852.9343566356189
 20
1806.245878730052
 30
0.0
 11
852.9343566356189
 21
1810.767956668694
 31
0.0
  0
LINE
  5
208
330
173
100
AcDbEntity
  8
P-SANR-FIXT
100
AcDbLine
 10
854.6664074431877
 20
1788.995878730052
 30
0.0
 11
854.6664074431877
 21
1806.245878730052
 31
0.0
  0
LINE
  5
209
330
173
100
AcDbEntity
  8
P-SANR-FIXT
100
AcDbLine
 10
854.6664074431877
 20
1771.745878730052
 30
0.0
 11
854.6664074431877
 21
1788.995878730052
 31
0.0
  0
LINE
  5
20A
330
173
100
AcDbEntity
  8
P-SANR-FIXT
100
AcDbLine
 10
854.6664074431879
 20
1790.342928158142
 30
0.0
 11
854.6664074431879
 21
1787.620295638139
 31
0.0
  0
LINE
  5
20B
330
173
100
AcDbEntity
  8
P-SANR-FIXT
100
AcDbLine
 10
854.6664074431879
 20
1787.620295638139
 30
0.0
 11
854.6664074431879
 21
1790.342928158142
 31
0.0
  0
LINE
  5
20C
330
173
100
AcDbEntity
  8
P-SANR-FIXT
100
AcDbLine
 10
854.6664074431877
 20
1823.495878730052
 30
0.0
 11
854.6664074431877
 21
1840.745878730052
 31
0.0
  0
LINE
  5
20D
330
173
100
AcDbEntity
  8
P-SANR-FIXT
100
AcDbLine
 10
854.6664074431879
 20
1806.245878730052
 30
0.0
 11
854.6664074431879
 21
1823.495878730052
 31
0.0
  0
LINE
  5
20E
330
173
100
AcDbEntity
  8
P-SANR-FIXT
100
AcDbLine
 10
854.6664074431879
 20
1822.148829302397
 30
0.0
 11
854.6664074431879
 21
1824.835335831126
 31
0.0
  0
LINE
  5
20F
330
173
100
AcDbEntity
  8
P-SANR-FIXT
100
AcDbLine
 10
854.6664074431879
 20
1824.835335831127
 30
0.0
 11
854.6664074431879
 21
1822.148829302397
 31
0.0
  0
ARC
  5
210
330
173
100
AcDbEntity
  8
P-SANR-FIXT
100
AcDbCircle
 10
815.6664074431878
 20
1806.245878730052
 30
0.0
 40
9.000000000002854
100
AcDbArc
 50
332.7339555495006
 51
0.0
  0
ARC
  5
211
330
173
100
AcDbEntity
  8
P-SANR-FIXT
100
AcDbCircle
 10
815.6664074431878
 20
1806.245878730052
 30
0.0
 40
9.000000000002877
100
AcDbArc
 50
272.7339555495042
 51
327.2660444504932
  0
ARC
  5
212
330
173
100
AcDbEntity
  8
P-SANR-FIXT
100
AcDbCircle
 10
815.6664074431878
 20
1806.245878730052
 30
0.0
 40
9.000000000002909
100
AcDbArc
 50
212.7339555495033
 51
267.2660444504923
  0
ARC
  5
213
330
173
100
AcDbEntity
  8
P-SANR-FIXT
100
AcDbCircle
 10
815.6664074431878
 20
1806.245878730052
 30
0.0
 40
9.000000000002842
100
AcDbArc
 50
180.0
 51
207.2660444504971
  0
ARC
  5
214
330
173
100
AcDbEntity
  8
P-SANR-FIXT
100
AcDbCircle
 10
815.6664074431878
 20
1806.245878730052
 30
0.0
 40
9.000000000002854
100
AcDbArc
 50
152.7339555495
 51
180.0
  0
ARC
  5
215
330
173
100
AcDbEntity
  8
P-SANR-FIXT
100
AcDbCircle
 10
815.6664074431878
 20
1806.245878730052
 30
0.0
 40
9.00000000000292
100
AcDbArc
 50
92.73395554949511
 51
147.266044450502
  0
ARC
  5
216
330
173
100
AcDbEntity
  8
P-SANR-FIXT
100
AcDbCircle
 10
815.6664074431878
 20
1806.245878730052
 30
0.0
 40
9.000000000002902
100
AcDbArc
 50
32.73395554949523
 51
87.26604445050263
  0
ARC
  5
217
330
173
100
AcDbEntity
  8
P-SANR-FIXT
100
AcDbCircle
 10
815.6664074431878
 20
1806.245878730052
 30
0.0
 40
9.000000000002842
100
AcDbArc
 50
0.0
 51
27.26604445049824
  0
ARC
  5
218
330
173
100
AcDbEntity
  8
P-SANR-FIXT
100
AcDbCircle
 10
815.6664074431878
 20
1806.245878730052
 30
0.0
 40
9.000000000003538
100
AcDbArc
 50
327.2660444505052
 51
332.7339555494909
  0
LINE
  5
219
330
173
100
AcDbEntity
  8
P-SANR-FIXT
100
AcDbLine
 10
823.6664074432072
 20
1802.122773104464
 30
0.0
 11
823.6664074432072
 21
1810.368984355639
 31
0.0
  0
ARC
  5
21A
330
173
100
AcDbEntity
  8
P-SANR-FIXT
100
AcDbCircle
 10
815.6664074431878
 20
1806.245878730052
 30
0.0
 40
9.000000000003575
100
AcDbArc
 50
27.26604445050631
 51
32.73395554949218
  0
LINE
  5
21B
330
173
100
AcDbEntity
  8
P-SANR-FIXT
100
AcDbLine
 10
823.2371216574431
 20
1811.11252914755
 30
0.0
 11
816.0956932289522
 21
1815.235634773138
 31
0.0
  0
ARC
  5
21C
330
173
100
AcDbEntity
  8
P-SANR-FIXT
100
AcDbCircle
 10
815.6664074431878
 20
1806.245878730052
 30
0.0
 40
9.000000000003597
100
AcDbArc
 50
87.26604445050581
 51
92.73395554949129
  0
LINE
  5
21D
330
173
100
AcDbEntity
  8
P-SANR-FIXT
100
AcDbLine
 10
815.2371216574236
 20
1815.235634773138
 30
0.0
 11
808.0956932289327
 21
1811.11252914755
 31
0.0
  0
ARC
  5
21E
330
173
100
AcDbEntity
  8
P-SANR-FIXT
100
AcDbCircle
 10
815.6664074431878
 20
1806.245878730052
 30
0.0
 40
9.000000000003502
100
AcDbArc
 50
147.2660444505066
 51
152.7339555494925
  0
LINE
  5
21F
330
173
100
AcDbEntity
  8
P-SANR-FIXT
100
AcDbLine
 10
807.6664074431684
 20
1810.36898435564
 30
0.0
 11
807.6664074431684
 21
1802.122773104464
 31
0.0
  0
ARC
  5
220
330
173
100
AcDbEntity
  8
P-SANR-FIXT
100
AcDbCircle
 10
815.6664074431878
 20
1806.245878730052
 30
0.0
 40
9.000000000003527
100
AcDbArc
 50
207.2660444505056
 51
212.7339555494927
  0
LINE
  5
221
330
173
100
AcDbEntity
  8
P-SANR-FIXT
100
AcDbLine
 10
808.0956932289327
 20
1801.379228312553
 30
0.0
 11
815.2371216574234
 21
1797.256122686966
 31
0.0
  0
ARC
  5
222
330
173
100
AcDbEntity
  8
P-SANR-FIXT
100
AcDbCircle
 10
815.6664074431878
 20
1806.245878730052
 30
0.0
 40
9.000000000003597
100
AcDbArc
 50
267.2660444505055
 51
272.7339555494916
  0
LINE
  5
223
330
173
100
AcDbEntity
  8
P-SANR-FIXT
100
AcDbLine
 10
816.0956932289519
 20
1797.256122686966
 30
0.0
 11
823.237121657443
 21
1801.379228312553
 31
0.0
  0
ARC
  5
224
330
173
100
AcDbEntity
  8
P-SANR-FIXT
100
AcDbCircle
 10
725.6664074431872
 20
1806.245878730052
 30
0.0
 40
9.000000000003637
100
AcDbArc
 50
180.0
 51
207.32281082137
  0
ARC
  5
225
330
173
100
AcDbEntity
  8
P-SANR-FIXT
100
AcDbCircle
 10
725.6664074431872
 20
1806.245878730052
 30
0.0
 40
9.000000000003659
100
AcDbArc
 50
212.8092865031786
 51
267.2592615419279
  0
ARC
  5
226
330
173
100
AcDbEntity
  8
P-SANR-FIXT
100
AcDbCircle
 10
725.6664074431872
 20
1806.245878730052
 30
0.0
 40
9.000000000003607
100
AcDbArc
 50
272.7407384580713
 51
327.1907134968259
  0
ARC
  5
227
330
173
100
AcDbEntity
  8
P-SANR-FIXT
100
AcDbCircle
 10
725.6664074431872
 20
1806.245878730052
 30
0.0
 40
9.000000000003579
100
AcDbArc
 50
332.6771891786099
 51
0.0
  0
ELLIPSE
  5
228
330
173
100
AcDbEntity
  8
P-SANR-FIXT
100
AcDbEllipse
 10
723.8664074431495
 20
1806.245878730052
 30
0.0
 11
0.0
 21
35.49999999998084
 31
0.0
210
0.0
220
0.0
230
1.0
 40
0.6427876096865468
 41
2.578980948107496
 42
2.647910862963152
  0
ELLIPSE
  5
229
330
173
100
AcDbEntity
  8
P-SANR-FIXT
100
AcDbEllipse
 10
723.8664074431495
 20
1806.245878730052
 30
0.0
 11
0.0
 21
35.4999999999808
 31
0.0
210
0.0
220
0.0
230
1.0
 40
0.6427876096865493
 41
2.705260340591206
 42
2.735163502571526
  0
ELLIPSE
  5
22A
330
173
100
AcDbEntity
  8
P-SANR-FIXT
100
AcDbEllipse
 10
723.8664074431495
 20
1806.245878730052
 30
0.0
 11
0.0
 21
35.49999999998069
 31
0.0
210
0.0
220
0.0
230
1.0
 40
0.6427876096865534
 41
0.4064291510182519
 42
0.4363323129985706
  0
ELLIPSE
  5
22B
330
173
100
AcDbEntity
  8
P-SANR-FIXT
100
AcDbEllipse
 10
723.8664074431495
 20
1806.245878730052
 30
0.0
 11
0.0
 21
35.49999999998103
 31
0.0
210
0.0
220
0.0
230
1.0
 40
0.6427876096865434
 41
0.4936817906266321
 42
0.5626117054822853
  0
ENDBLK
  5
22D
330
173
100
AcDbEntity
  8
0
100
AcDbBlockEnd
  0
BLOCK
  5
2CA
330
22F
100
AcDbEntity
  8
0
100
AcDbBlockBegin
  2
Automatic flow rate regulator valve_Caleffi_121 DN15 - 1_2__-V2-Est - Idraulica
 70
     0
 10
0.0
 20
0.0
 30
0.0
  3
Automatic flow rate regulator valve_Caleffi_121 DN15 - 1_2__-V2-Est - Idraulica
  1

  0
LINE
  5
230
330
22F
100
AcDbEntity
  8
M-PIPE
100
AcDbLine
 10
1054.813081611821
 20
1915.965905850232
 30
0.0
 11
1054.813081611821
 21
1914.358936826016
 31
0.0
1001
REVIT
1002
{
1070
     3
1000
790271
1002
}
  0
LINE
  5
231
330
22F
100
AcDbEntity
  8
M-PIPE
100
AcDbLine
 10
1079.813081611809
 20
1914.358936826016
 30
0.0
 11
1079.813081611809
 21
1914.987615393784
 31
0.0
1001
REVIT
1002
{
1070
     3
1000
790271
1002
}
  0
LINE
  5
232
330
22F
100
AcDbEntity
  8
M-PIPE
100
AcDbLine
 10
1079.813081611809
 20
1915.172378771828
 30
0.0
 11
1079.813081611809
 21
1915.965905850232
 31
0.0
1001
REVIT
1002
{
1070
     3
1000
790271
1002
}
  0
ELLIPSE
  5
233
330
22F
100
AcDbEntity
  8
M-PIPE
100
AcDbEllipse
 10
1067.313081611814
 20
1915.965905850232
 30
0.0
 11
12.49999999999409
 21
0.0
 31
0.0
210
0.0
220
0.0
230
1.0
 40
0.7660444431189701
 41
3.139378540945357
 42
3.141592653589793
1001
REVIT
1002
{
1070
     3
1000
790271
1002
}
  0
ELLIPSE
  5
234
330
22F
100
AcDbEntity
  8
M-PIPE
100
AcDbEllipse
 10
1067.313081611814
 20
1915.965905850232
 30
0.0
 11
12.49999999999395
 21
0.0
 31
0.0
210
0.0
220
0.0
230
1.0
 40
0.7660444431189753
 41
6.28097119453512
 42
9.422563848124944
1001
REVIT
1002
{
1070
     3
1000
790271
1002
}
  0
ELLIPSE
  5
235
330
22F
100
AcDbEntity
  8
M-PIPE
100
AcDbEllipse
 10
1067.313081611814
 20
1914.037543021172
 30
0.0
 11
11.99999999999419
 21
0.0
 31
0.0
210
0.0
220
0.0
230
1.0
 40
0.7660444431189497
 41
3.139378540945362
 42
4.128292442480447
1001
REVIT
1002
{
1070
     3
1000
790271
1002
}
  0
ELLIPSE
  5
236
330
22F
100
AcDbEntity
  8
M-PIPE
100
AcDbEllipse
 10
1067.313081611814
 20
1914.037543021172
 30
0.0
 11
11.99999999999431
 21
0.0
 31
0.0
210
0.0
220
0.0
230
0.9999999999999998
 40
0.7660444431189602
 41
5.29456779516644
 42
6.280971194535124
1001
REVIT
1002
{
1070
     3
1000
790271
1002
}
  0
ELLIPSE
  5
237
330
22F
100
AcDbEntity
  8
M-PIPE
100
AcDbEllipse
 10
1067.313081611814
 20
1914.037543021172
 30
0.0
 11
11.99999999999419
 21
0.0
 31
0.0
210
0.0
220
0.0
230
1.0
 40
0.7660444431189685
 41
6.280971194535173
 42
9.422563848124948
1001
REVIT
1002
{
1070
     3
1000
790271
1002
}
  0
LINE
  5
238
330
22F
100
AcDbEntity
  8
M-PIPE
100
AcDbLine
 10
1056.920802239444
 20
1914.05516948531
 30
0.0
 11
1062.136868923144
 21
1920.940739342138
 31
0.0
1001
REVIT
1002
{
1070
     3
1000
790271
1002
}
  0
LINE
  5
239
330
22F
100
AcDbEntity
  8
M-PIPE
100
AcDbLine
 10
1062.136868923144
 20
1920.940739342138
 30
0.0
 11
1072.529148295497
 21
1920.923112878005
 31
0.0
1001
REVIT
1002
{
1070
     3
1000
790271
1002
}
  0
LINE
  5
23A
330
22F
100
AcDbEntity
  8
M-PIPE
100
AcDbLine
 10
1072.529148295497
 20
1920.923112878005
 30
0.0
 11
1077.705360984164
 21
1914.01991655704
 31
0.0
1001
REVIT
1002
{
1070
     3
1000
790271
1002
}
  0
ELLIPSE
  5
23B
330
22F
100
AcDbEntity
  8
M-PIPE
100
AcDbEllipse
 10
1067.313081611814
 20
1914.358936826015
 30
0.0
 11
12.49999999999418
 21
0.0
 31
0.0
210
0.0
220
0.0
230
0.9999999999999998
 40
0.7660444431189796
 41
5.257412330825522
 42
6.280971194535144
1001
REVIT
1002
{
1070
     3
1000
790271
1002
}
  0
ELLIPSE
  5
23C
330
22F
100
AcDbEntity
  8
M-PIPE
100
AcDbEllipse
 10
1067.313081611814
 20
1914.358936826015
 30
0.0
 11
12.49999999999407
 21
0.0
 31
0.0
210
0.0
220
0.0
230
1.0
 40
0.7660444431189842
 41
3.139378540945381
 42
4.164581947863835
1001
REVIT
1002
{
1070
     3
1000
790271
1002
}
  0
ELLIPSE
  5
23D
330
22F
100
AcDbEntity
  8
M-PIPE
100
AcDbEllipse
 10
1067.313081611814
 20
1914.358936826015
 30
0.0
 11
12.49999999999395
 21
0.0
 31
0.0
210
0.0
220
0.0
230
1.0
 40
0.7660444431189753
 41
6.280971194535144
 42
9.422563848124944
1001
REVIT
1002
{
1070
     3
1000
790271
1002
}
  0
ELLIPSE
  5
23E
330
22F
100
AcDbEntity
  8
M-PIPE
100
AcDbEllipse
 10
1067.313081611814
 20
1911.273556299499
 30
0.0
 11
8.999999999999964
 21
0.0
 31
0.0
210
0.0
220
0.0
230
1.0
 40
0.7660444431189485
 41
3.139378540945338
 42
3.526982286076495
1001
REVIT
1002
{
1070
     3
1000
790271
1002
}
  0
ELLIPSE
  5
23F
330
22F
100
AcDbEntity
  8
M-PIPE
100
AcDbEllipse
 10
1067.313081611814
 20
1911.273556299499
 30
0.0
 11
8.999999999999921
 21
0.0
 31
0.0
210
0.0
220
0.0
230
1.0
 40
0.7660444431189861
 41
3.532077622644062
 42
3.662977316543609
1001
REVIT
1002
{
1070
     3
1000
790271
1002
}
  0
ELLIPSE
  5
240
330
22F
100
AcDbEntity
  8
M-PIPE
100
AcDbEllipse
 10
1067.313081611814
 20
1911.273556299499
 30
0.0
 11
8.999999999999962
 21
0.0
 31
0.0
210
0.0
220
0.0
230
1.0
 40
0.7660444431189572
 41
3.662977316543625
 42
4.710174867740231
1001
REVIT
1002
{
1070
     3
1000
790271
1002
}
  0
ELLIPSE
  5
241
330
22F
100
AcDbEntity
  8
M-PIPE
100
AcDbEllipse
 10
1067.313081611814
 20
1911.273556299499
 30
0.0
 11
8.999999999999964
 21
0.0
 31
0.0
210
0.0
220
0.0
230
1.0
 40
0.7660444431189485
 41
4.710174867740231
 42
5.757372418936823
1001
REVIT
1002
{
1070
     3
1000
790271
1002
}
  0
ELLIPSE
  5
242
330
22F
100
AcDbEntity
  8
M-PIPE
100
AcDbEllipse
 10
1067.313081611814
 20
1911.273556299499
 30
0.0
 11
9.000000000000035
 21
0.0
 31
0.0
210
0.0
220
0.0
230
1.0
 40
0.7660444431189752
 41
5.757372418936838
 42
5.888272112836415
1001
REVIT
1002
{
1070
     3
1000
790271
1002
}
  0
ELLIPSE
  5
243
330
22F
100
AcDbEntity
  8
M-PIPE
100
AcDbEllipse
 10
1067.313081611814
 20
1911.273556299499
 30
0.0
 11
9.000000000000035
 21
0.0
 31
0.0
210
0.0
220
0.0
230
1.0
 40
0.7660444431189485
 41
5.893340139125673
 42
6.280971194535158
1001
REVIT
1002
{
1070
     3
1000
790271
1002
}
  0
ELLIPSE
  5
244
330
22F
100
AcDbEntity
  8
M-PIPE
100
AcDbEllipse
 10
1067.313081611814
 20
1911.273556299499
 30
0.0
 11
8.999999999999964
 21
0.0
 31
0.0
210
0.0
220
0.0
230
1.0
 40
0.7660444431189736
 41
6.280971194535158
 42
6.804569970133444
1001
REVIT
1002
{
1070
     3
1000
790271
1002
}
  0
ELLIPSE
  5
245
330
22F
100
AcDbEntity
  8
M-PIPE
100
AcDbEllipse
 10
1067.313081611814
 20
1911.273556299499
 30
0.0
 11
8.999999999999849
 21
0.0
 31
0.0
210
0.0
220
0.0
230
1.0
 40
0.7660444431190012
 41
0.5213846629538426
 42
1.568582214150444
1001
REVIT
1002
{
1070
     3
1000
790271
1002
}
  0
ELLIPSE
  5
246
330
22F
100
AcDbEntity
  8
M-PIPE
100
AcDbEllipse
 10
1067.313081611814
 20
1911.273556299499
 30
0.0
 11
8.999999999999964
 21
0.0
 31
0.0
210
0.0
220
0.0
230
1.0
 40
0.7660444431189736
 41
1.568582214150444
 42
2.61577976534705
1001
REVIT
1002
{
1070
     3
1000
790271
1002
}
  0
ELLIPSE
  5
247
330
22F
100
AcDbEntity
  8
M-PIPE
100
AcDbEllipse
 10
1067.313081611814
 20
1911.273556299499
 30
0.0
 11
8.999999999999921
 21
0.0
 31
0.0
210
0.0
220
0.0
230
1.0
 40
0.766044443118985
 41
2.615779765347057
 42
3.139378540945338
1001
REVIT
1002
{
1070
     3
1000
790271
1002
}
  0
LINE
  5
248
330
22F
100
AcDbEntity
  8
M-PIPE
100
AcDbLine
 10
1062.136868923144
 20
1920.940739342157
 30
0.0
 11
1062.136868923144
 21
1918.693455883233
 31
0.0
1001
REVIT
1002
{
1070
     3
1000
790271
1002
}
  0
SPLINE
  5
249
330
22F
100
AcDbEntity
  8
M-PIPE
100
AcDbSpline
210
0.0
220
0.0
230
1.0
 70
     8
 71
     3
 72
     9
 73
     5
 74
     0
 42
0.000000001
 43
0.0000000001
 40
0.0
 40
0.0
 40
0.0
 40
0.0
 40
0.5
 40
1.0
 40
1.0
 40
1.0
 40
1.0
 10
1062.136868923144
 20
1918.693455883233
 30
0.0
 10
1062.996605555308
 20
1918.525216291686
 30
0.0
 10
1064.722365468503
 20
1918.269390617666
 30
0.0
 10
1066.460698679434
 20
1918.174871961796
 30
0.0
 10
1067.333008609332
 20
1918.167939388399
 30
0.0
1001
REVIT
1002
{
1070
     3
1000
790271
1002
}
  0
SPLINE
  5
24A
330
22F
100
AcDbEntity
  8
M-PIPE
100
AcDbSpline
210
0.0
220
0.0
230
1.0
 70
     8
 71
     3
 72
     9
 73
     5
 74
     0
 42
0.000000001
 43
0.0000000001
 40
0.0
 40
0.0
 40
0.0
 40
0.0
 40
0.5
 40
1.0
 40
1.0
 40
1.0
 40
1.0
 10
1067.333008609332
 20
1918.167939388399
 30
0.0
 10
1068.205318539227
 20
1918.171912892059
 30
0.0
 10
1069.943651750149
 20
1918.26053473417
 30
0.0
 10
1071.669411663336
 20
1918.510506245858
 30
0.0
 10
1072.529148295497
 20
1918.675829419096
 30
0.0
1001
REVIT
1002
{
1070
     3
1000
790271
1002
}
  0
LINE
  5
24B
330
22F
100
AcDbEntity
  8
M-PIPE
100
AcDbLine
 10
1072.529148295497
 20
1918.675829419096
 30
0.0
 11
1072.529148295497
 21
1920.923112878026
 31
0.0
1001
REVIT
1002
{
1070
     3
1000
790271
1002
}
  0
SPLINE
  5
24C
330
22F
100
AcDbEntity
  8
M-PIPE
100
AcDbSpline
210
0.0
220
0.0
230
1.0
 70
     8
 71
     3
 72
     9
 73
     5
 74
     0
 42
0.000000001
 43
0.0000000001
 40
0.0
 40
0.0
 40
0.0
 40
0.0
 40
0.5
 40
1.0
 40
1.0
 40
1.0
 40
1.0
 10
1072.529148295497
 20
1918.675829419096
 30
0.0
 10
1072.957368082982
 20
1917.937957658594
 30
0.0
 10
1073.816938927856
 20
1916.53870232755
 30
0.0
 10
1074.682772312541
 20
1915.292423376425
 30
0.0
 10
1075.117254639836
 20
1914.707527995842
 30
0.0
1001
REVIT
1002
{
1070
     3
1000
790271
1002
}
  0
SPLINE
  5
24D
330
22F
100
AcDbEntity
  8
M-PIPE
100
AcDbSpline
210
0.0
220
0.0
230
1.0
 70
     8
 71
     3
 72
     9
 73
     5
 74
     0
 42
0.000000001
 43
0.0000000001
 40
0.0
 40
0.0
 40
0.0
 40
0.0
 40
0.5
 40
1.0
 40
1.0
 40
1.0
 40
1.0
 10
1075.117254639836
 20
1914.707527995842
 30
0.0
 10
1075.551736967128
 20
1914.133538692316
 30
0.0
 10
1076.417570351807
 20
1913.070400239169
 30
0.0
 10
1077.277141196678
 20
1912.176942093837
 30
0.0
 10
1077.705360984162
 20
1911.772633098124
 30
0.0
1001
REVIT
1002
{
1070
     3
1000
790271
1002
}
  0
LINE
  5
24E
330
22F
100
AcDbEntity
  8
M-PIPE
100
AcDbLine
 10
1077.70536098415
 20
1911.772633098129
 30
0.0
 11
1077.705360984154
 21
1914.019916557072
 31
0.0
1001
REVIT
1002
{
1070
     3
1000
790271
1002
}
  0
SPLINE
  5
24F
330
22F
100
AcDbEntity
  8
M-PIPE
100
AcDbSpline
210
0.0
220
0.0
230
1.0
 70
     8
 71
     3
 72
     9
 73
     5
 74
     0
 42
0.000000001
 43
0.0000000001
 40
0.0
 40
0.0
 40
0.0
 40
0.0
 40
0.5
 40
0.7365506625925228
 40
0.7365506625925228
 40
0.7365506625925228
 40
0.7365506625925228
 10
1077.70536098415
 20
1911.772633098129
 30
0.0
 10
1077.273844139472
 20
1911.036219546783
 30
0.0
 10
1076.635852007272
 20
1910.007753049142
 30
0.0
 10
1075.994436245486
 20
1909.062288859214
 30
0.0
 10
1075.788085988194
 20
1908.767204686151
 30
0.0
1001
REVIT
1002
{
1070
     3
1000
790271
1002
}
  0
SPLINE
  5
250
330
22F
100
AcDbEntity
  8
M-PIPE
100
AcDbSpline
210
0.0
220
0.0
230
1.0
 70
     8
 71
     3
 72
     8
 73
     4
 74
     0
 42
0.000000001
 43
0.0000000001
 40
0.9870842738366015
 40
0.9870842738366015
 40
0.9870842738366015
 40
0.9870842738366015
 40
1.0
 40
1.0
 40
1.0
 40
1.0
 10
1075.131253652629
 20
1907.858432910166
 30
0.0
 10
1075.119946035255
 20
1907.843311386636
 30
0.0
 10
1075.108637365147
 20
1907.828215385569
 30
0.0
 10
1075.097327642303
 20
1907.813144906963
 30
0.0
1001
REVIT
1002
{
1070
     3
1000
790271
1002
}
  0
SPLINE
  5
251
330
22F
100
AcDbEntity
  8
M-PIPE
100
AcDbSpline
210
0.0
220
0.0
230
1.0
 70
     8
 71
     3
 72
     9
 73
     5
 74
     0
 42
0.000000001
 43
0.0000000001
 40
0.3006192112748863
 40
0.3006192112748863
 40
0.3006192112748863
 40
0.3006192112748863
 40
0.5
 40
1.0
 40
1.0
 40
1.0
 40
1.0
 10
1074.309322256633
 20
1906.826497515229
 30
0.0
 10
1074.135489935741
 20
1906.618540553571
 30
0.0
 10
1073.526607138921
 20
1905.912734345905
 30
0.0
 10
1072.920811145136
 20
1905.289914027866
 30
0.0
 10
1072.489294300459
 20
1904.887063241312
 30
0.0
1001
REVIT
1002
{
1070
     3
1000
790271
1002
}
  0
SPLINE
  5
252
330
22F
100
AcDbEntity
  8
M-PIPE
100
AcDbSpline
210
0.0
220
0.0
230
1.0
 70
     8
 71
     3
 72
     9
 73
     5
 74
     0
 42
0.000000001
 43
0.0000000001
 40
0.0
 40
0.0
 40
0.0
 40
0.0
 40
0.5
 40
0.6993807886544213
 40
0.6993807886544213
 40
0.6993807886544213
 40
0.6993807886544213
 10
1072.489294300459
 20
1904.887063241312
 30
0.0
 10
1071.6295576683
 20
1904.721740068071
 30
0.0
 10
1070.422594339187
 20
1904.546914795085
 30
0.0
 10
1069.209480989103
 20
1904.451011048697
 30
0.0
 10
1068.863144534537
 20
1904.430084713401
 30
0.0
1001
REVIT
1002
{
1070
     3
1000
790271
1002
}
  0
SPLINE
  5
253
330
22F
100
AcDbEntity
  8
M-PIPE
100
AcDbSpline
210
0.0
220
0.0
230
1.0
 70
     8
 71
     3
 72
     9
 73
     5
 74
     0
 42
0.000000001
 43
0.0000000001
 40
0.3006192114746811
 40
0.3006192114746811
 40
0.3006192114746811
 40
0.3006192114746811
 40
0.5
 40
1.0
 40
1.0
 40
1.0
 40
1.0
 10
1065.723164693373
 20
1904.435410469234
 30
0.0
 10
1065.37682823903
 20
1904.457511654983
 30
0.0
 10
1064.163714889165
 20
1904.557530552277
 30
0.0
 10
1062.956751560269
 20
1904.736450113898
 30
0.0
 10
1062.097014928106
 20
1904.904689705448
 30
0.0
1001
REVIT
1002
{
1070
     3
1000
790271
1002
}
  0
SPLINE
  5
254
330
22F
100
AcDbEntity
  8
M-PIPE
100
AcDbSpline
210
0.0
220
0.0
230
1.0
 70
     8
 71
     3
 72
     9
 73
     5
 74
     0
 42
0.000000001
 43
0.0000000001
 40
0.0
 40
0.0
 40
0.0
 40
0.0
 40
0.5
 40
0.6993807884354192
 40
0.6993807884354192
 40
0.6993807884354192
 40
0.6993807884354192
 10
1062.097014928106
 20
1904.904689705448
 30
0.0
 10
1061.668795140624
 20
1905.308998701158
 30
0.0
 10
1061.067627805424
 20
1905.933866163272
 30
0.0
 10
1060.463397252288
 20
1906.641729946061
 30
0.0
 10
1060.290893118743
 20
1906.850274332624
 30
0.0
1001
REVIT
1002
{
1070
     3
1000
790271
1002
}
  0
SPLINE
  5
255
330
22F
100
AcDbEntity
  8
M-PIPE
100
AcDbSpline
210
0.0
220
0.0
230
1.0
 70
     8
 71
     3
 72
     9
 73
     5
 74
     0
 42
0.000000001
 43
0.0000000001
 40
0.255754440614894
 40
0.255754440614894
 40
0.255754440614894
 40
0.255754440614894
 40
0.5
 40
1.0
 40
1.0
 40
1.0
 40
1.0
 10
1058.843412780804
 20
1908.767140856691
 30
0.0
 10
1058.631954425385
 20
1909.071968971812
 30
0.0
 10
1057.988753811214
 20
1910.028624699325
 30
0.0
 10
1057.349022026941
 20
1911.070014265899
 30
0.0
 10
1056.920802239457
 20
1911.8078860264
 30
0.0
1001
REVIT
1002
{
1070
     3
1000
790271
1002
}
  0
LINE
  5
256
330
22F
100
AcDbEntity
  8
M-PIPE
100
AcDbLine
 10
1056.920802239445
 20
1911.807886026405
 30
0.0
 11
1056.920802239449
 21
1914.055169485336
 31
0.0
1001
REVIT
1002
{
1070
     3
1000
790271
1002
}
  0
SPLINE
  5
257
330
22F
100
AcDbEntity
  8
M-PIPE
100
AcDbSpline
210
0.0
220
0.0
230
1.0
 70
     8
 71
     3
 72
     9
 73
     5
 74
     0
 42
0.000000001
 43
0.0000000001
 40
0.0
 40
0.0
 40
0.0
 40
0.0
 40
0.5
 40
1.0
 40
1.0
 40
1.0
 40
1.0
 10
1056.920802239445
 20
1911.807886026405
 30
0.0
 10
1057.352319084123
 20
1912.210736812964
 30
0.0
 10
1058.218508152443
 20
1913.10126787713
 30
0.0
 10
1059.091007978688
 20
1914.161457923393
 30
0.0
 10
1059.528835581292
 20
1914.733967692049
 30
0.0
1001
REVIT
1002
{
1070
     3
1000
790271
1002
}
  0
SPLINE
  5
258
330
22F
100
AcDbEntity
  8
M-PIPE
100
AcDbSpline
210
0.0
220
0.0
230
1.0
 70
     8
 71
     3
 72
     9
 73
     5
 74
     0
 42
0.000000001
 43
0.0000000001
 40
0.0
 40
0.0
 40
0.0
 40
0.0
 40
0.5
 40
1.0
 40
1.0
 40
1.0
 40
1.0
 10
1059.528835581292
 20
1914.733967692049
 30
0.0
 10
1059.966663183897
 20
1915.317383537765
 30
0.0
 10
1060.839163010144
 20
1916.560714082012
 30
0.0
 10
1061.705352078465
 20
1917.957042331888
 30
0.0
 10
1062.136868923144
 20
1918.693455883233
 30
0.0
1001
REVIT
1002
{
1070
     3
1000
790271
1002
}
  0
LINE
  5
259
330
22F
100
AcDbEntity
  8
P-SANR-FIXT
100
AcDbLine
 10
1058.114353943095
 20
2038.482558850019
 30
0.0
 11
1058.114353943095
 21
2034.982558850011
 31
0.0
  0
LINE
  5
25A
330
22F
100
AcDbEntity
  8
P-SANR-FIXT
100
AcDbLine
 10
1076.114353943102
 20
2034.982558850011
 30
0.0
 11
1076.114353943102
 21
2038.482558850019
 31
0.0
  0
ARC
  5
25B
330
22F
100
AcDbEntity
  8
P-SANR-FIXT
100
AcDbCircle
 10
1067.114353943096
 20
1999.982558850011
 30
0.0
 40
25.40000000000123
100
AcDbArc
 50
270.0000000000002
 51
90.0
  0
ARC
  5
25C
330
22F
100
AcDbEntity
  8
P-SANR-FIXT
100
AcDbCircle
 10
1067.114353943096
 20
1999.982558850011
 30
0.0
 40
25.40000000000098
100
AcDbArc
 50
90.00000000000024
 51
269.9999999999999
  0
ARC
  5
25D
330
22F
100
AcDbEntity
  8
P-SANR-FIXT
100
AcDbCircle
 10
1067.114353943096
 20
1999.982558850011
 30
0.0
 40
34.50000000000013
100
AcDbArc
 50
60.00000000000143
 51
89.99999999999962
  0
SPLINE
  5
25E
330
22F
100
AcDbEntity
  8
P-SANR-FIXT
100
AcDbSpline
210
0.0
220
0.0
230
1.0
 70
    24
 71
     3
 72
     9
 73
     5
 74
     0
 42
0.000000001
 43
0.0000000001
 40
-1.0
 40
-1.0
 40
-1.0
 40
-1.0
 40
-0.5
 40
0.0
 40
0.0
 40
0.0
 40
0.0
 10
1084.364353943095
 20
2029.860435280574
 30
0.0
 10
1082.215689747132
 20
2031.100967132512
 30
0.0
 10
1077.945705207608
 20
2033.566243855842
 30
0.0
 10
1073.730408372893
 20
2035.999946618079
 30
0.0
 10
1071.636431881738
 20
2037.208904508924
 30
0.0
  0
SPLINE
  5
25F
330
22F
100
AcDbEntity
  8
P-SANR-FIXT
100
AcDbSpline
210
0.0
220
0.0
230
1.0
 70
    24
 71
     3
 72
     9
 73
     5
 74
     0
 42
0.000000001
 43
0.0000000001
 40
-1.0
 40
-1.0
 40
-1.0
 40
-1.0
 40
-0.5
 40
0.0
 40
0.0
 40
0.0
 40
0.0
 10
1071.636431881737
 20
1962.756213191097
 30
0.0
 10
1073.730408372893
 20
1963.965171081943
 30
0.0
 10
1077.945705207609
 20
1966.39887384418
 30
0.0
 10
1082.215689747133
 20
1968.86415056751
 30
0.0
 10
1084.364353943097
 20
1970.104682419448
 30
0.0
  0
ARC
  5
260
330
22F
100
AcDbEntity
  8
P-SANR-FIXT
100
AcDbCircle
 10
1067.114353943096
 20
1999.982558850011
 30
0.0
 40
34.50000000000009
100
AcDbArc
 50
269.9999999999993
 51
300.0000000000015
  0
ARC
  5
261
330
22F
100
AcDbEntity
  8
P-SANR-FIXT
100
AcDbCircle
 10
1067.114353943096
 20
1999.982558850011
 30
0.0
 40
34.50000000000012
100
AcDbArc
 50
0.0000000000016984
 51
60.00000000000135
  0
SPLINE
  5
262
330
22F
100
AcDbEntity
  8
P-SANR-FIXT
100
AcDbSpline
210
0.0
220
0.0
230
1.0
 70
    24
 71
     3
 72
     9
 73
     5
 74
     0
 42
0.000000001
 43
0.0000000001
 40
-1.0
 40
-1.0
 40
-1.0
 40
-1.0
 40
-0.5
 40
0.0
 40
0.0
 40
0.0
 40
0.0
 10
1101.614353943096
 20
1999.982558850012
 30
0.0
 10
1101.614353943096
 20
2002.463622553888
 30
0.0
 10
1101.614353943096
 20
2007.394176000547
 30
0.0
 10
1101.614353943096
 20
2012.26158152502
 30
0.0
 10
1101.614353943096
 20
2014.679497306711
 30
0.0
  0
SPLINE
  5
263
330
22F
100
AcDbEntity
  8
P-SANR-FIXT
100
AcDbSpline
210
0.0
220
0.0
230
1.0
 70
    24
 71
     3
 72
     9
 73
     5
 74
     0
 42
0.000000001
 43
0.0000000001
 40
-1.0
 40
-1.0
 40
-1.0
 40
-1.0
 40
-0.5
 40
0.0
 40
0.0
 40
0.0
 40
0.0
 10
1097.092276004456
 20
2022.511966052223
 30
0.0
 10
1094.9982995133
 20
2023.720923943069
 30
0.0
 10
1090.783002678584
 20
2026.154626705306
 30
0.0
 10
1086.513018139059
 20
2028.619903428636
 30
0.0
 10
1084.364353943095
 20
2029.860435280574
 30
0.0
  0
ARC
  5
264
330
22F
100
AcDbEntity
  8
P-SANR-FIXT
100
AcDbCircle
 10
1067.114353943096
 20
1999.982558850011
 30
0.0
 40
34.50000000000045
100
AcDbArc
 50
300.0000000000014
 51
0.0000000000015104
  0
SPLINE
  5
265
330
22F
100
AcDbEntity
  8
P-SANR-FIXT
100
AcDbSpline
210
0.0
220
0.0
230
1.0
 70
    24
 71
     3
 72
     9
 73
     5
 74
     0
 42
0.000000001
 43
0.0000000001
 40
-1.0
 40
-1.0
 40
-1.0
 40
-1.0
 40
-0.5
 40
0.0
 40
0.0
 40
0.0
 40
0.0
 10
1084.364353943097
 20
1970.104682419448
 30
0.0
 10
1086.513018139061
 20
1971.345214271386
 30
0.0
 10
1090.783002678585
 20
1973.810490994715
 30
0.0
 10
1094.9982995133
 20
1976.244193756952
 30
0.0
 10
1097.092276004455
 20
1977.453151647797
 30
0.0
  0
SPLINE
  5
266
330
22F
100
AcDbEntity
  8
P-SANR-FIXT
100
AcDbSpline
210
0.0
220
0.0
230
1.0
 70
    24
 71
     3
 72
     9
 73
     5
 74
     0
 42
0.000000001
 43
0.0000000001
 40
-1.0
 40
-1.0
 40
-1.0
 40
-1.0
 40
-0.5
 40
0.0
 40
0.0
 40
0.0
 40
0.0
 10
1101.614353943096
 20
1985.28562039331
 30
0.0
 10
1101.614353943096
 20
1987.703536175001
 30
0.0
 10
1101.614353943096
 20
1992.570941699476
 30
0.0
 10
1101.614353943096
 20
1997.501495146136
 30
0.0
 10
1101.614353943096
 20
1999.982558850012
 30
0.0
  0
SPLINE
  5
267
330
22F
100
AcDbEntity
  8
P-SANR-FIXT
100
AcDbSpline
210
0.0
220
0.0
230
1.0
 70
    24
 71
     3
 72
     9
 73
     5
 74
     0
 42
0.000000001
 43
0.0000000001
 40
-1.0
 40
-1.0
 40
-1.0
 40
-1.0
 40
-0.5
 40
0.0
 40
0.0
 40
0.0
 40
0.0
 10
1062.592276004456
 20
2037.208904508924
 30
0.0
 10
1060.4982995133
 20
2035.999946618078
 30
0.0
 10
1056.283002678584
 20
2033.566243855841
 30
0.0
 10
1052.013018139059
 20
2031.100967132511
 30
0.0
 10
1049.864353943095
 20
2029.860435280573
 30
0.0
  0
ARC
  5
268
330
22F
100
AcDbEntity
  8
P-SANR-FIXT
100
AcDbCircle
 10
1067.114353943096
 20
1999.982558850011
 30
0.0
 40
34.50000000000023
100
AcDbArc
 50
90.0
 51
120.0000000000019
  0
ARC
  5
269
330
22F
100
AcDbEntity
  8
P-SANR-FIXT
100
AcDbCircle
 10
1067.114353943096
 20
1999.982558850011
 30
0.0
 40
34.50000000000041
100
AcDbArc
 50
240.0000000000016
 51
269.9999999999997
  0
SPLINE
  5
26A
330
22F
100
AcDbEntity
  8
P-SANR-FIXT
100
AcDbSpline
210
0.0
220
0.0
230
1.0
 70
    24
 71
     3
 72
     9
 73
     5
 74
     0
 42
0.000000001
 43
0.0000000001
 40
-1.0
 40
-1.0
 40
-1.0
 40
-1.0
 40
-0.5
 40
0.0
 40
0.0
 40
0.0
 40
0.0
 10
1049.864353943097
 20
1970.104682419447
 30
0.0
 10
1052.013018139061
 20
1968.864150567509
 30
0.0
 10
1056.283002678585
 20
1966.398873844179
 30
0.0
 10
1060.4982995133
 20
1963.965171081942
 30
0.0
 10
1062.592276004455
 20
1962.756213191097
 30
0.0
  0
ARC
  5
26B
330
22F
100
AcDbEntity
  8
P-SANR-FIXT
100
AcDbCircle
 10
1067.114353943096
 20
1999.982558850011
 30
0.0
 40
34.50000000000023
100
AcDbArc
 50
180.0000000000019
 51
240.0000000000016
  0
SPLINE
  5
26C
330
22F
100
AcDbEntity
  8
P-SANR-FIXT
100
AcDbSpline
210
0.0
220
0.0
230
1.0
 70
    24
 71
     3
 72
     9
 73
     5
 74
     0
 42
0.000000001
 43
0.0000000001
 40
-1.0
 40
-1.0
 40
-1.0
 40
-1.0
 40
-0.5
 40
0.0
 40
0.0
 40
0.0
 40
0.0
 10
1032.614353943096
 20
1999.982558850009
 30
0.0
 10
1032.614353943096
 20
1997.501495146133
 30
0.0
 10
1032.614353943096
 20
1992.570941699475
 30
0.0
 10
1032.614353943096
 20
1987.703536175001
 30
0.0
 10
1032.614353943096
 20
1985.28562039331
 30
0.0
  0
SPLINE
  5
26D
330
22F
100
AcDbEntity
  8
P-SANR-FIXT
100
AcDbSpline
210
0.0
220
0.0
230
1.0
 70
    24
 71
     3
 72
     9
 73
     5
 74
     0
 42
0.000000001
 43
0.0000000001
 40
-1.0
 40
-1.0
 40
-1.0
 40
-1.0
 40
-0.5
 40
0.0
 40
0.0
 40
0.0
 40
0.0
 10
1037.136431881737
 20
1977.453151647798
 30
0.0
 10
1039.230408372893
 20
1976.244193756952
 30
0.0
 10
1043.445705207609
 20
1973.810490994715
 30
0.0
 10
1047.715689747133
 20
1971.345214271385
 30
0.0
 10
1049.864353943097
 20
1970.104682419447
 30
0.0
  0
ARC
  5
26E
330
22F
100
AcDbEntity
  8
P-SANR-FIXT
100
AcDbCircle
 10
1067.114353943096
 20
1999.982558850011
 30
0.0
 40
34.50000000000025
100
AcDbArc
 50
120.000000000002
 51
180.0000000000019
  0
SPLINE
  5
26F
330
22F
100
AcDbEntity
  8
P-SANR-FIXT
100
AcDbSpline
210
0.0
220
0.0
230
1.0
 70
    24
 71
     3
 72
     9
 73
     5
 74
     0
 42
0.000000001
 43
0.0000000001
 40
-1.0
 40
-1.0
 40
-1.0
 40
-1.0
 40
-0.5
 40
0.0
 40
0.0
 40
0.0
 40
0.0
 10
1049.864353943095
 20
2029.860435280573
 30
0.0
 10
1047.715689747131
 20
2028.619903428635
 30
0.0
 10
1043.445705207608
 20
2026.154626705306
 30
0.0
 10
1039.230408372893
 20
2023.72092394307
 30
0.0
 10
1037.136431881737
 20
2022.511966052224
 30
0.0
  0
SPLINE
  5
270
330
22F
100
AcDbEntity
  8
P-SANR-FIXT
100
AcDbSpline
210
0.0
220
0.0
230
1.0
 70
    24
 71
     3
 72
     9
 73
     5
 74
     0
 42
0.000000001
 43
0.0000000001
 40
-1.0
 40
-1.0
 40
-1.0
 40
-1.0
 40
-0.5
 40
0.0
 40
0.0
 40
0.0
 40
0.0
 10
1032.614353943096
 20
2014.679497306712
 30
0.0
 10
1032.614353943096
 20
2012.26158152502
 30
0.0
 10
1032.614353943096
 20
2007.394176000545
 30
0.0
 10
1032.614353943096
 20
2002.463622553886
 30
0.0
 10
1032.614353943096
 20
1999.982558850009
 30
0.0
  0
ARC
  5
271
330
22F
100
AcDbEntity
  8
P-SANR-FIXT
100
AcDbCircle
 10
1067.114353943096
 20
1999.982558850011
 30
0.0
 40
37.50000000000052
100
AcDbArc
 50
23.07391806563194
 51
36.92608193436585
  0
ARC
  5
272
330
22F
100
AcDbEntity
  8
P-SANR-FIXT
100
AcDbCircle
 10
1067.114353943096
 20
1999.982558850011
 30
0.0
 40
37.5000000000007
100
AcDbArc
 50
323.0739180656318
 51
336.9260819343655
  0
ARC
  5
273
330
22F
100
AcDbEntity
  8
P-SANR-FIXT
100
AcDbCircle
 10
1067.114353943096
 20
1999.982558850011
 30
0.0
 40
37.50000000000052
100
AcDbArc
 50
83.07391806563193
 51
89.99999999999966
  0
ARC
  5
274
330
22F
100
AcDbEntity
  8
P-SANR-FIXT
100
AcDbCircle
 10
1067.114353943096
 20
1999.982558850011
 30
0.0
 40
37.50000000000046
100
AcDbArc
 50
269.9999999999993
 51
276.9260819343652
  0
ARC
  5
275
330
22F
100
AcDbEntity
  8
P-SANR-FIXT
100
AcDbCircle
 10
1067.114353943096
 20
1999.982558850011
 30
0.0
 40
37.5000000000006
100
AcDbArc
 50
203.0739180656318
 51
216.9260819343656
  0
ARC
  5
276
330
22F
100
AcDbEntity
  8
P-SANR-FIXT
100
AcDbCircle
 10
1067.114353943096
 20
1999.982558850011
 30
0.0
 40
37.50000000000051
100
AcDbArc
 50
143.0739180656321
 51
156.9260819343658
  0
ARC
  5
277
330
22F
100
AcDbEntity
  8
P-SANR-FIXT
100
AcDbCircle
 10
1067.114353943096
 20
1999.982558850011
 30
0.0
 40
37.50000000000046
100
AcDbArc
 50
90.0
 51
96.92608193436599
  0
ARC
  5
278
330
22F
100
AcDbEntity
  8
P-SANR-FIXT
100
AcDbCircle
 10
1067.114353943096
 20
1999.982558850011
 30
0.0
 40
37.50000000000072
100
AcDbArc
 50
263.0739180656319
 51
269.9999999999997
  0
LINE
  5
279
330
22F
100
AcDbEntity
  8
P-SANR-FIXT
100
AcDbLine
 10
1058.114353943093
 20
2038.482558850017
 30
0.0
 11
1058.124597900011
 21
2038.482558850017
 31
0.0
  0
LINE
  5
27A
330
22F
100
AcDbEntity
  8
P-SANR-FIXT
100
AcDbLine
 10
1058.124597900011
 20
2038.482558850017
 30
0.0
 11
1062.247703525597
 21
2038.482558850017
 31
0.0
  0
LINE
  5
27B
330
22F
100
AcDbEntity
  8
P-SANR-FIXT
100
AcDbLine
 10
1062.247703525597
 20
2038.482558850017
 30
0.0
 11
1062.991248317511
 21
2038.482558850017
 31
0.0
  0
LINE
  5
27C
330
22F
100
AcDbEntity
  8
P-SANR-FIXT
100
AcDbLine
 10
1062.991248317511
 20
2038.482558850017
 30
0.0
 11
1071.237459568683
 21
2038.482558850017
 31
0.0
  0
LINE
  5
27D
330
22F
100
AcDbEntity
  8
P-SANR-FIXT
100
AcDbLine
 10
1071.237459568683
 20
2038.482558850017
 30
0.0
 11
1071.981004360595
 21
2038.482558850017
 31
0.0
  0
LINE
  5
27E
330
22F
100
AcDbEntity
  8
P-SANR-FIXT
100
AcDbLine
 10
1071.981004360595
 20
2038.482558850017
 30
0.0
 11
1076.104109986183
 21
2038.482558850017
 31
0.0
  0
LINE
  5
27F
330
22F
100
AcDbEntity
  8
P-SANR-FIXT
100
AcDbLine
 10
1076.104109986183
 20
2038.482558850017
 30
0.0
 11
1076.1143539431
 21
2038.482558850017
 31
0.0
  0
LINE
  5
280
330
22F
100
AcDbEntity
  8
P-SANR-FIXT
100
AcDbLine
 10
1076.1143539431
 20
2034.982558850009
 30
0.0
 11
1076.104109986183
 21
2034.982558850009
 31
0.0
  0
LINE
  5
281
330
22F
100
AcDbEntity
  8
P-SANR-FIXT
100
AcDbLine
 10
1076.104109986183
 20
2034.982558850009
 30
0.0
 11
1076.083925646973
 21
2034.982558850009
 31
0.0
  0
LINE
  5
282
330
22F
100
AcDbEntity
  8
P-SANR-FIXT
100
AcDbLine
 10
1058.14478223922
 20
2034.982558850009
 30
0.0
 11
1058.124597900011
 21
2034.982558850009
 31
0.0
  0
LINE
  5
283
330
22F
100
AcDbEntity
  8
P-SANR-FIXT
100
AcDbLine
 10
1058.124597900011
 20
2034.982558850009
 30
0.0
 11
1058.114353943093
 21
2034.982558850009
 31
0.0
  0
LINE
  5
284
330
22F
100
AcDbEntity
  8
P-SANR-FIXT
100
AcDbLine
 10
1058.124597900011
 20
2034.982558850009
 30
0.0
 11
1058.124597900011
 21
2038.482558850017
 31
0.0
  0
LINE
  5
285
330
22F
100
AcDbEntity
  8
P-SANR-FIXT
100
AcDbLine
 10
1062.247703525597
 20
2037.009965495499
 30
0.0
 11
1062.247703525597
 21
2038.482558850017
 31
0.0
  0
LINE
  5
286
330
22F
100
AcDbEntity
  8
P-SANR-FIXT
100
AcDbLine
 10
1062.991248317511
 20
2037.245175649777
 30
0.0
 11
1062.991248317511
 21
2038.482558850017
 31
0.0
  0
LINE
  5
287
330
22F
100
AcDbEntity
  8
P-SANR-FIXT
100
AcDbLine
 10
1071.237459568683
 20
2037.245175649777
 30
0.0
 11
1071.237459568683
 21
2038.482558850017
 31
0.0
  0
LINE
  5
288
330
22F
100
AcDbEntity
  8
P-SANR-FIXT
100
AcDbLine
 10
1071.981004360595
 20
2037.0099654955
 30
0.0
 11
1071.981004360595
 21
2038.482558850017
 31
0.0
  0
LINE
  5
289
330
22F
100
AcDbEntity
  8
P-SANR-FIXT
100
AcDbLine
 10
1076.104109986183
 20
2034.982558850009
 30
0.0
 11
1076.104109986183
 21
2038.482558850017
 31
0.0
  0
LINE
  5
28A
330
22F
100
AcDbEntity
  8
P-SANR-FIXT
100
AcDbLine
 10
1058.114353943094
 20
2034.98255885001
 30
0.0
 11
1058.114353943094
 21
2034.623575001387
 31
0.0
  0
LINE
  5
28B
330
22F
100
AcDbEntity
  8
P-SANR-FIXT
100
AcDbLine
 10
1103.114353943098
 20
1925.625346459698
 30
0.0
 11
1103.114353943098
 21
1955.68039768768
 31
0.0
  0
LINE
  5
28C
330
22F
100
AcDbEntity
  8
P-SANR-FIXT
100
AcDbLine
 10
1031.114353943098
 20
1955.68039768768
 30
0.0
 11
1031.114353943098
 21
1925.625346459698
 31
0.0
  0
LWPOLYLINE
  5
28D
330
22F
100
AcDbEntity
  8
P-SANR-FIXT
100
AcDbPolyline
 90
       20
 70
   128
 43
0.0
 10
1103.114353943098
 20
1955.68039768768
 10
1103.083871646957
 20
1956.847825740799
 10
1102.992514691812
 20
1958.012860932847
 10
1102.840551002567
 20
1959.173130486463
 10
1102.628421004901
 20
1960.326300848872
 10
1102.356728904136
 20
1961.470095036341
 10
1102.026231325214
 20
1962.602307494022
 10
1101.637824043502
 20
1963.720816000966
 10
1101.19252759663
 20
1964.823590391469
 10
1100.691472551654
 20
1965.908698099235
 10
1100.135885121278
 20
1966.974306735286
 10
1099.527073695942
 20
1968.018684067134
 10
1098.866416706417
 20
1969.040195867479
 10
1098.155352074251
 20
1970.037302146285
 10
1097.395368361243
 20
1971.008552277307
 10
1096.58799760547
 20
1971.952579490198
 10
1095.734809736103
 20
1972.868095134385
 10
1094.837408393653
 20
1973.753883042975
 10
1093.897427944322
 20
1974.60879424379
 10
1093.19150903618
 20
1975.201042788618
  0
LWPOLYLINE
  5
28E
330
22F
100
AcDbEntity
  8
P-SANR-FIXT
100
AcDbPolyline
 90
       21
 70
   128
 43
0.0
 10
1041.038261697228
 20
1975.200429153494
 10
1040.592070525263
 20
1974.83410782804
 10
1039.640881481524
 20
1973.987719214803
 10
1038.731825431174
 20
1973.110154659755
 10
1037.866544652731
 20
1972.202545840929
 10
1037.046651329517
 20
1971.266090286803
 10
1036.273724847678
 20
1970.30205653937
 10
1035.549307960557
 20
1969.311789717556
 10
1034.874901601976
 20
1968.296717255291
 10
1034.251958162275
 20
1967.258354507918
 10
1033.68187309874
 20
1966.198309840958
 10
1033.165974839306
 20
1965.118288745701
 10
1032.705513054786
 20
1964.02009647814
 10
1032.301645515831
 20
1962.905638703839
 10
1031.955423906576
 20
1961.776919662881
 10
1031.667779122289
 20
1960.636037454603
 10
1031.43950671421
 20
1959.485176183686
 10
1031.271253239836
 20
1958.326594902049
 10
1031.163504311737
 20
1957.1626135101
 10
1031.116575098776
 20
1955.99559602346
 10
1031.114353943098
 20
1955.68039768768
  0
LINE
  5
28F
330
22F
100
AcDbEntity
  8
P-SANR-FIXT
100
AcDbLine
 10
1100.114353943097
 20
1966.963253520736
 30
0.0
 11
1100.114353943097
 21
1982.207104416463
 31
0.0
  0
LINE
  5
290
330
22F
100
AcDbEntity
  8
P-SANR-FIXT
100
AcDbLine
 10
1034.1143539431
 20
1982.207104416462
 30
0.0
 11
1034.1143539431
 21
1966.966901185328
 31
0.0
  0
LINE
  5
291
330
22F
100
AcDbEntity
  8
P-SANR-FIXT
100
AcDbLine
 10
1058.114353943095
 20
2038.546258953292
 30
0.0
 11
1058.114353943095
 21
2038.482558850019
 31
0.0
  0
LINE
  5
292
330
22F
100
AcDbEntity
  8
P-SANR-FIXT
100
AcDbLine
 10
1076.114353943102
 20
2038.482558850019
 30
0.0
 11
1076.114353943102
 21
2038.546258953292
 31
0.0
  0
LINE
  5
293
330
22F
100
AcDbEntity
  8
P-SANR-FIXT
100
AcDbLine
 10
1076.114353943101
 20
2034.623575001387
 30
0.0
 11
1076.114353943101
 21
2034.98255885001
 31
0.0
  0
LWPOLYLINE
  5
294
330
22F
100
AcDbEntity
  8
P-SANR-FIXT
100
AcDbPolyline
 90
       41
 70
   128
 43
0.0
 10
1067.114353943098
 20
1896.214669058357
 10
1068.524629705047
 20
1896.236278695541
 10
1069.932710020383
 20
1896.301075830053
 10
1071.336402680214
 20
1896.408965187439
 10
1072.733521939672
 20
1896.559788165303
 10
1074.121891721375
 20
1896.753323113957
 10
1075.499348784651
 20
1896.989285725525
 10
1076.863745849174
 20
1897.267329527529
 10
1078.212954661776
 20
1897.5870464757
 10
1079.544868995362
 20
1897.947967639291
 10
1080.857407569217
 20
1898.349563970563
 10
1082.148516880477
 20
1898.79124714831
 10
1083.416173937346
 20
1899.272370483356
 10
1084.6583888858
 20
1899.792229871771
 10
1085.873207523078
 20
1900.350064779306
 10
1087.058713693535
 20
1900.945059238155
 10
1088.213031565278
 20
1901.576342834841
 10
1089.334327789858
 20
1902.242991665838
 10
1090.420813551992
 20
1902.944029235805
 10
1091.470746522217
 20
1903.678427272246
 10
1092.482432732341
 20
1904.445106430449
 10
1093.454228401678
 20
1905.242936864151
 10
1094.384541751067
 20
1906.070738641071
 10
1095.271834851246
 20
1906.927281988899
 10
1096.114625561611
 20
1907.811287367017
 10
1096.911489623928
 20
1908.721425372737
 10
1097.661062981774
 20
1909.656316508444
 10
1098.362044399058
 20
1910.61453085756
 10
1099.013198447936
 20
1911.594587742116
 10
1099.613358926158
 20
1912.594955461517
 10
1100.161432744763
 20
1913.614051238601
 10
1100.656404298075
 20
1914.650241522204
 10
1101.097340289314
 20
1915.701842811369
 10
1101.483394938281
 20
1916.767123170962
 10
1101.813815445817
 20
1917.844304597861
 10
1102.087947538078
 20
1918.931566368351
 10
1102.305240868546
 20
1920.02704945003
 10
1102.465254024134
 20
1921.128861997193
 10
1102.567658870292
 20
1922.235085872305
 10
1102.612243983257
 20
1923.343784055247
 10
1102.614353943079
 20
1923.643202345947
  0
LWPOLYLINE
  5
295
330
22F
100
AcDbEntity
  8
P-SANR-FIXT
100
AcDbPolyline
 90
       41
 70
   128
 43
0.0
 10
1031.614353943117
 20
1923.643202345947
 10
1031.643312201965
 20
1922.534169891489
 10
1031.730126928768
 20
1921.427086727451
 10
1031.874618647395
 20
1920.323893607259
 10
1032.076490429856
 20
1919.226514527569
 10
1032.335331043502
 20
1918.136849113197
 10
1032.650619073389
 20
1917.056765839071
 10
1033.021727776012
 20
1915.988096248872
 10
1033.447930400335
 20
1914.932630249539
 10
1033.928405717166
 20
1913.892112482356
 10
1034.462243524655
 20
1912.868239703158
 10
1035.048449939832
 20
1911.862659051976
 10
1035.685952336696
 20
1910.876967058788
 10
1036.373603843639
 20
1909.912709216872
 10
1037.110187361584
 20
1908.971379956044
 10
1037.894419105279
 20
1908.054422861425
 10
1038.724951701831
 20
1907.163231004897
 10
1039.600376902281
 20
1906.299147282373
 10
1040.51922797456
 20
1905.463464676976
 10
1041.47998185096
 20
1904.657426393766
 10
1042.481061102045
 20
1903.88222583421
 10
1043.520835803521
 20
1903.139006397265
 10
1044.597625354528
 20
1902.428861108513
 10
1045.70970029655
 20
1901.752832089538
 10
1046.855284172454
 20
1901.111909886914
 10
1048.032555456033
 20
1900.507032684621
 10
1049.239649573988
 20
1899.939085425765
 10
1050.474661035022
 20
1899.408898869912
 10
1051.735645674514
 20
1898.917248611521
 10
1053.020623018201
 20
1898.464854083396
 10
1054.327578764254
 20
1898.052377566963
 10
1055.65446738
 20
1897.680423228901
 10
1056.999214807146
 20
1897.349536201276
 10
1058.35972126762
 20
1897.060201720004
 10
1059.733864160881
 20
1896.812844334309
 10
1061.119501042653
 20
1896.607827197798
 10
1062.514472674492
 20
1896.445451449962
 10
1063.916606133184
 20
1896.32595569522
 10
1065.323717968785
 20
1896.249515585184
 10
1066.73361739996
 20
1896.216243508408
 10
1067.114353943098
 20
1896.214669058357
  0
LINE
  5
296
330
22F
100
AcDbEntity
  8
P-SANR-FIXT
100
AcDbLine
 10
1102.614353943079
 20
1923.643202345947
 30
0.0
 11
1102.614353943079
 21
1924.982558849979
 31
0.0
  0
LINE
  5
297
330
22F
100
AcDbEntity
  8
P-SANR-FIXT
100
AcDbLine
 10
1031.614353943117
 20
1924.98255884998
 30
0.0
 11
1031.614353943117
 21
1923.643202345947
 31
0.0
  0
LINE
  5
298
330
22F
100
AcDbEntity
  8
P-SANR-FIXT
100
AcDbLine
 10
1058.126393460288
 20
2034.982558850009
 30
0.0
 11
1058.726016290267
 21
2034.982558850009
 31
0.0
  0
ELLIPSE
  5
299
330
22F
100
AcDbEntity
  8
P-SANR-FIXT
100
AcDbEllipse
 10
1067.114353943096
 20
1925.625346459697
 30
0.0
 11
35.99999999999962
 21
0.0
 31
0.0
210
0.0
220
0.0
230
1.0
 40
0.7660444431189787
 41
6.057072229222544
 42
7.853981633974482
  0
ELLIPSE
  5
29A
330
22F
100
AcDbEntity
  8
P-SANR-FIXT
100
AcDbEllipse
 10
1067.114353943096
 20
1925.625346459697
 30
0.0
 11
-35.99999999999977
 21
0.0000000000004179
 31
0.0
210
0.0
220
0.0
230
1.0
 40
0.7660444431189766
 41
4.7123889803847
 42
6.50929838513662
  0
ELLIPSE
  5
29B
330
22F
100
AcDbEntity
  8
P-SANR-FIXT
100
AcDbEllipse
 10
1067.114353943096
 20
1962.585634016673
 30
0.0
 11
31.5000000000003
 21
0.0
 31
0.0
210
0.0
220
0.0
230
1.0
 40
0.7660444431189654
 41
0.4545238067867991
 42
0.564971959531164
  0
ELLIPSE
  5
29C
330
22F
100
AcDbEntity
  8
P-SANR-FIXT
100
AcDbEllipse
 10
1067.114353943096
 20
1962.585634016673
 30
0.0
 11
31.4999999999998
 21
0.0
 31
0.0
210
0.0
220
0.0
230
1.0
 40
0.7660444431189864
 41
2.576620694058617
 42
2.687368831262942
  0
ELLIPSE
  5
29D
330
22F
100
AcDbEntity
  8
P-SANR-FIXT
100
AcDbEllipse
 10
1067.114353943096
 20
1963.549815431203
 30
0.0
 11
32.99999999999843
 21
0.0
 31
0.0
210
0.0
220
0.0
230
1.0
 40
0.7660444431189687
 41
0.1662239939765929
 42
0.5380481897933944
  0
ELLIPSE
  5
29E
330
22F
100
AcDbEntity
  8
P-SANR-FIXT
100
AcDbEllipse
 10
1067.114353943096
 20
1963.549815431203
 30
0.0
 11
32.99999999999819
 21
0.0
 31
0.0
210
0.0
220
0.0
230
1.0
 40
0.7660444431189776
 41
2.603544463796389
 42
2.974449692363476
  0
LINE
  5
29F
330
22F
100
AcDbEntity
  8
P-SANR-FIXT
100
AcDbLine
 10
1058.114353943093
 20
2038.546258953291
 30
0.0
 11
1058.124597900011
 21
2038.546258953291
 31
0.0
  0
LINE
  5
2A0
330
22F
100
AcDbEntity
  8
P-SANR-FIXT
100
AcDbLine
 10
1058.124597900011
 20
2038.546258953291
 30
0.0
 11
1062.247703525598
 21
2038.546258953291
 31
0.0
  0
LINE
  5
2A1
330
22F
100
AcDbEntity
  8
P-SANR-FIXT
100
AcDbLine
 10
1062.247703525598
 20
2038.546258953291
 30
0.0
 11
1062.991248317509
 21
2038.546258953291
 31
0.0
  0
LINE
  5
2A2
330
22F
100
AcDbEntity
  8
P-SANR-FIXT
100
AcDbLine
 10
1062.991248317509
 20
2038.546258953291
 30
0.0
 11
1071.237459568685
 21
2038.546258953291
 31
0.0
  0
LINE
  5
2A3
330
22F
100
AcDbEntity
  8
P-SANR-FIXT
100
AcDbLine
 10
1071.237459568685
 20
2038.546258953291
 30
0.0
 11
1071.981004360595
 21
2038.546258953291
 31
0.0
  0
LINE
  5
2A4
330
22F
100
AcDbEntity
  8
P-SANR-FIXT
100
AcDbLine
 10
1071.981004360595
 20
2038.546258953291
 30
0.0
 11
1076.104109986183
 21
2038.546258953291
 31
0.0
  0
LINE
  5
2A5
330
22F
100
AcDbEntity
  8
P-SANR-FIXT
100
AcDbLine
 10
1076.104109986183
 20
2038.546258953291
 30
0.0
 11
1076.114353943101
 21
2038.546258953291
 31
0.0
  0
LINE
  5
2A6
330
22F
100
AcDbEntity
  8
P-SANR-FIXT
100
AcDbLine
 10
1058.124597900011
 20
2038.482558850017
 30
0.0
 11
1058.124597900011
 21
2038.546258953291
 31
0.0
  0
LINE
  5
2A7
330
22F
100
AcDbEntity
  8
P-SANR-FIXT
100
AcDbLine
 10
1062.247703525598
 20
2038.482558850017
 30
0.0
 11
1062.247703525598
 21
2038.546258953291
 31
0.0
  0
LINE
  5
2A8
330
22F
100
AcDbEntity
  8
P-SANR-FIXT
100
AcDbLine
 10
1062.991248317509
 20
2038.482558850017
 30
0.0
 11
1062.991248317509
 21
2038.546258953291
 31
0.0
  0
LINE
  5
2A9
330
22F
100
AcDbEntity
  8
P-SANR-FIXT
100
AcDbLine
 10
1071.237459568685
 20
2038.482558850017
 30
0.0
 11
1071.237459568685
 21
2038.546258953291
 31
0.0
  0
LINE
  5
2AA
330
22F
100
AcDbEntity
  8
P-SANR-FIXT
100
AcDbLine
 10
1071.981004360595
 20
2038.482558850017
 30
0.0
 11
1071.981004360595
 21
2038.546258953291
 31
0.0
  0
LINE
  5
2AB
330
22F
100
AcDbEntity
  8
P-SANR-FIXT
100
AcDbLine
 10
1076.104109986183
 20
2038.482558850017
 30
0.0
 11
1076.104109986183
 21
2038.546258953291
 31
0.0
  0
LINE
  5
2AC
330
22F
100
AcDbEntity
  8
P-SANR-FIXT
100
AcDbLine
 10
1075.502691595926
 20
2034.982558850009
 30
0.0
 11
1076.102314425905
 21
2034.982558850009
 31
0.0
  0
LINE
  5
2AD
330
22F
100
AcDbEntity
  8
P-SANR-FIXT
100
AcDbLine
 10
1052.391922078761
 20
1915.983532314371
 30
0.0
 11
1055.086703689944
 21
1912.408020898115
 31
0.0
  0
LINE
  5
2AE
330
22F
100
AcDbEntity
  8
P-SANR-FIXT
100
AcDbLine
 10
1058.995536908185
 20
1907.221671942021
 30
0.0
 11
1059.753138010929
 21
1906.216465664604
 31
0.0
  0
LINE
  5
2AF
330
22F
100
AcDbEntity
  8
P-SANR-FIXT
100
AcDbLine
 10
1059.753138010929
 20
1906.216465664604
 30
0.0
 11
1060.75450617087
 21
1906.216465664604
 31
0.0
  0
LINE
  5
2B0
330
22F
100
AcDbEntity
  8
P-SANR-FIXT
100
AcDbLine
 10
1073.870171354305
 20
1906.216465664604
 30
0.0
 11
1074.475569875264
 21
1906.216465664604
 31
0.0
  0
LINE
  5
2B1
330
22F
100
AcDbEntity
  8
P-SANR-FIXT
100
AcDbLine
 10
1074.475569875264
 20
1906.216465664604
 30
0.0
 11
1074.874035524196
 21
1906.74516100334
 31
0.0
  0
LINE
  5
2B2
330
22F
100
AcDbEntity
  8
P-SANR-FIXT
100
AcDbLine
 10
1079.701355593466
 20
1913.150183935798
 30
0.0
 11
1081.836785807432
 21
1915.983532314371
 31
0.0
  0
LINE
  5
2B3
330
22F
100
AcDbEntity
  8
P-SANR-FIXT
100
AcDbLine
 10
1081.836785807432
 20
1915.983532314371
 30
0.0
 11
1074.475569875264
 21
1925.750598964138
 31
0.0
  0
LINE
  5
2B4
330
22F
100
AcDbEntity
  8
P-SANR-FIXT
100
AcDbLine
 10
1074.475569875264
 20
1925.750598964138
 30
0.0
 11
1059.753138010929
 21
1925.750598964138
 31
0.0
  0
LINE
  5
2B5
330
22F
100
AcDbEntity
  8
P-SANR-FIXT
100
AcDbLine
 10
1059.753138010929
 20
1925.750598964138
 30
0.0
 11
1052.391922078761
 21
1915.983532314372
 31
0.0
  0
LINE
  5
2B6
330
22F
100
AcDbEntity
  8
P-SANR-FIXT
100
AcDbLine
 10
1059.11961775939
 20
1930.779002264816
 30
0.0
 11
1059.753138010929
 21
1931.619574607453
 31
0.0
  0
LINE
  5
2B7
330
22F
100
AcDbEntity
  8
P-SANR-FIXT
100
AcDbLine
 10
1059.753138010929
 20
1931.619574607453
 30
0.0
 11
1061.020178514007
 21
1931.619574607453
 31
0.0
  0
LINE
  5
2B8
330
22F
100
AcDbEntity
  8
P-SANR-FIXT
100
AcDbLine
 10
1052.391922078761
 20
1921.852507957686
 30
0.0
 11
1053.025442330301
 21
1922.693080300325
 31
0.0
  0
LINE
  5
2B9
330
22F
100
AcDbEntity
  8
P-SANR-FIXT
100
AcDbLine
 10
1073.208529372186
 20
1931.619574607453
 30
0.0
 11
1074.475569875264
 21
1931.619574607453
 31
0.0
  0
LINE
  5
2BA
330
22F
100
AcDbEntity
  8
P-SANR-FIXT
100
AcDbLine
 10
1074.475569875264
 20
1931.619574607453
 30
0.0
 11
1075.109090126803
 21
1930.779002264815
 31
0.0
  0
LINE
  5
2BB
330
22F
100
AcDbEntity
  8
P-SANR-FIXT
100
AcDbLine
 10
1081.203265555891
 20
1922.693080300325
 30
0.0
 11
1081.836785807432
 21
1921.852507957686
 31
0.0
  0
LINE
  5
2BC
330
22F
100
AcDbEntity
  8
P-SANR-FIXT
100
AcDbLine
 10
1052.391922078761
 20
1915.983532314372
 30
0.0
 11
1052.391922078761
 21
1921.852507957686
 31
0.0
  0
LINE
  5
2BD
330
22F
100
AcDbEntity
  8
P-SANR-FIXT
100
AcDbLine
 10
1081.836785807432
 20
1921.852507957686
 30
0.0
 11
1081.836785807432
 21
1915.983532314371
 31
0.0
  0
LINE
  5
2BE
330
22F
100
AcDbEntity
  8
P-SANR-FIXT
100
AcDbLine
 10
1081.203265555891
 20
1922.693080300325
 30
0.0
 11
1075.109090126803
 21
1930.779002264815
 31
0.0
  0
LINE
  5
2BF
330
22F
100
AcDbEntity
  8
P-SANR-FIXT
100
AcDbLine
 10
1074.475569875264
 20
1931.619574607453
 30
0.0
 11
1074.475569875264
 21
1925.750598964138
 31
0.0
  0
LINE
  5
2C0
330
22F
100
AcDbEntity
  8
P-SANR-FIXT
100
AcDbLine
 10
1073.208529372186
 20
1931.619574607453
 30
0.0
 11
1067.114353943096
 21
1931.619574607453
 31
0.0
  0
LINE
  5
2C1
330
22F
100
AcDbEntity
  8
P-SANR-FIXT
100
AcDbLine
 10
1067.114353943096
 20
1931.619574607453
 30
0.0
 11
1061.020178514007
 21
1931.619574607453
 31
0.0
  0
LINE
  5
2C2
330
22F
100
AcDbEntity
  8
P-SANR-FIXT
100
AcDbLine
 10
1059.753138010929
 20
1931.619574607453
 30
0.0
 11
1059.753138010929
 21
1925.750598964138
 31
0.0
  0
LINE
  5
2C3
330
22F
100
AcDbEntity
  8
P-SANR-FIXT
100
AcDbLine
 10
1059.11961775939
 20
1930.779002264816
 30
0.0
 11
1053.025442330301
 21
1922.693080300325
 31
0.0
  0
ELLIPSE
  5
2C4
330
22F
100
AcDbEntity
  8
P-SANR-FIXT
100
AcDbEllipse
 10
1067.114353943096
 20
1924.982558849979
 30
0.0
 11
-35.4999999999809
 21
0.00000000000042
 31
0.0
210
0.0
220
0.0
230
1.0
 40
0.7660444431189739
 41
3.141592653589803
 42
4.7123889803847
  0
ELLIPSE
  5
2C5
330
22F
100
AcDbEntity
  8
P-SANR-FIXT
100
AcDbEllipse
 10
1067.114353943096
 20
1924.982558849979
 30
0.0
 11
-35.4999999999809
 21
0.00000000000042
 31
0.0
210
0.0
220
0.0
230
1.0
 40
0.7660444431189739
 41
4.712388980384707
 42
6.283185307179603
  0
ELLIPSE
  5
2C6
330
22F
100
AcDbEntity
  8
P-SANR-FIXT
100
AcDbEllipse
 10
1067.114353943096
 20
1921.852507957686
 30
0.0
 11
14.13157720003352
 21
0.0
 31
0.0
210
0.0
220
0.0
230
0.9999999999999998
 40
0.7660444431189677
 41
1.124923829221253
 42
1.570796326794896
  0
ELLIPSE
  5
2C7
330
22F
100
AcDbEntity
  8
P-SANR-FIXT
100
AcDbEllipse
 10
1067.114353943096
 20
1921.852507957686
 30
0.0
 11
14.13157720003352
 21
0.0
 31
0.0
210
0.0
220
0.0
230
1.0
 40
0.7660444431189877
 41
0.0777262780248411
 42
0.9694712731719073
  0
ELLIPSE
  5
2C8
330
22F
100
AcDbEntity
  8
P-SANR-FIXT
100
AcDbEllipse
 10
1067.114353943096
 20
1921.852507957686
 30
0.0
 11
14.13157720003284
 21
0.0
 31
0.0
210
0.0
220
0.0
230
1.0
 40
0.766044443118966
 41
2.172121380417844
 42
3.063866375565008
  0
ELLIPSE
  5
2C9
330
22F
100
AcDbEntity
  8
P-SANR-FIXT
100
AcDbEllipse
 10
1067.114353943096
 20
1921.852507957686
 30
0.0
 11
-14.13157720003369
 21
0.0000000000004213
 31
0.0
210
0.0
220
0.0
230
1.0
 40
0.7660444431189846
 41
4.712388980384723
 42
5.158261477958373
  0
ENDBLK
  5
2CB
330
22F
100
AcDbEntity
  8
0
100
AcDbBlockEnd
  0
ENDSEC
  0
SECTION
  2
ENTITIES
  0
INSERT
  5
172
330
71
100
AcDbEntity
  8
P-SANR-FIXT
100
AcDbBlockReference
  2
Automatic flow rate regulator valve_Caleffi_121 DN15 - 1_2__-859151-Est - Idraulica
 10
0.0
 20
0.0
 30
0.0
1001
REVIT
1002
{
1070
     1
1000
863131
1002
}
1002
{
1070
     5
1000
859151
1002
}
1002
{
1070
     2
1000
-2001160
1002
}
  0
INSERT
  5
22E
330
71
100
AcDbEntity
  8
P-SANR-FIXT
100
AcDbBlockReference
  2
Automatic flow rate regulator valve_Caleffi_121 DN15 - 1_2__-V1-Est - Idraulica
 10
0.0
 20
0.0
 30
0.0
1001
REVIT
1002
{
1070
     1
1000
863152
1002
}
1002
{
1070
     5
1000
859151
1002
}
1002
{
1070
     2
1000
-2001160
1002
}
  0
INSERT
  5
2CC
330
71
100
AcDbEntity
  8
P-SANR-FIXT
100
AcDbBlockReference
  2
Automatic flow rate regulator valve_Caleffi_121 DN15 - 1_2__-V2-Est - Idraulica
 10
0.0
 20
0.0
 30
0.0
1001
REVIT
1002
{
1070
     1
1000
863172
1002
}
1002
{
1070
     5
1000
859151
1002
}
1002
{
1070
     2
1000
-2001160
1002
}
  0
ENDSEC
  0
SECTION
  2
OBJECTS
  0
DICTIONARY
  5
C
330
0
100
AcDbDictionary
281
     1
  3
ACAD_CIP_PREVIOUS_PRODUCT_INFO
350
7A
  3
ACAD_COLOR
350
63
  3
ACAD_DETAILVIEWSTYLE
350
6B
  3
ACAD_GROUP
350
D
  3
ACAD_IMAGE_VARS
350
7B
  3
ACAD_LAYOUT
350
62
  3
ACAD_MATERIAL
350
10
  3
ACAD_MLEADERSTYLE
350
66
  3
ACAD_MLINESTYLE
350
5F
  3
ACAD_PLOTSETTINGS
350
61
  3
ACAD_PLOTSTYLENAME
350
E
  3
ACAD_SCALELIST
350
42
  3
ACAD_SECTIONVIEWSTYLE
350
68
  3
ACAD_TABLESTYLE
350
64
  3
ACAD_VISUALSTYLE
350
29
  3
ACDB_RECOMPOSE_DATA
350
2D7
  3
AcDbVariableDictionary
350
7C
  3
REVIT_DICTIONARY
350
2CE
  0
DICTIONARY
  5
2D3
330
71
100
AcDbDictionary
280
     1
281
     1
  3
ACAD_SORTENTS
360
2D4
  0
XRECORD
  5
7A
102
{ACAD_REACTORS
330
C
102
}
330
C
100
AcDbXrecord
280
     1
300
RVT
300
2013
300
RVT2013
  0
DICTIONARY
  5
63
102
{ACAD_REACTORS
330
C
102
}
330
C
100
AcDbDictionary
281
     1
  0
DICTIONARY
  5
6B
102
{ACAD_REACTORS
330
C
102
}
330
C
100
AcDbDictionary
281
     1
  3
Imperial24
350
6C
  0
DICTIONARY
  5
D
102
{ACAD_REACTORS
330
C
102
}
330
C
100
AcDbDictionary
281
     1
  0
RASTERVARIABLES
  5
7B
102
{ACAD_REACTORS
330
C
102
}
330
C
100
AcDbRasterVariables
 90
        0
 70
     0
 71
     1
 72
     1
  0
DICTIONARY
  5
62
102
{ACAD_REACTORS
330
C
102
}
330
C
100
AcDbDictionary
281
     1
  3
Layout1
350
70
  3
Layout2
350
78
  3
Model
350
74
  0
DICTIONARY
  5
10
102
{ACAD_REACTORS
330
C
102
}
330
C
100
AcDbDictionary
281
     1
  3
ByBlock
350
19
  3
ByLayer
350
11
  3
Global
350
21
  0
DICTIONARY
  5
66
102
{ACAD_REACTORS
330
C
102
}
330
C
100
AcDbDictionary
281
     1
  3
Standard
350
67
  0
DICTIONARY
  5
5F
102
{ACAD_REACTORS
330
C
102
}
330
C
100
AcDbDictionary
281
     1
  3
Standard
350
60
  0
DICTIONARY
  5
61
102
{ACAD_REACTORS
330
C
102
}
330
C
100
AcDbDictionary
281
     1
  0
ACDBDICTIONARYWDFLT
  5
E
102
{ACAD_REACTORS
330
C
102
}
330
C
100
AcDbDictionary
281
     1
  3
Normal
350
F
100
AcDbDictionaryWithDefault
340
F
  0
DICTIONARY
  5
42
102
{ACAD_REACTORS
330
C
102
}
330
C
100
AcDbDictionary
281
     1
  3
A0
350
43
  3
A1
350
44
  3
A2
350
45
  3
A3
350
46
  3
A4
350
47
  3
A5
350
48
  3
A6
350
49
  3
A7
350
4A
  3
A8
350
4B
  3
A9
350
4C
  3
B0
350
4D
  3
B1
350
4E
  3
B2
350
4F
  3
B3
350
50
  3
B4
350
51
  3
B5
350
52
  3
B6
350
53
  0
DICTIONARY
  5
68
102
{ACAD_REACTORS
330
C
102
}
330
C
100
AcDbDictionary
281
     1
  3
Imperial24
350
6A
  0
DICTIONARY
  5
64
102
{ACAD_REACTORS
330
C
102
}
330
C
100
AcDbDictionary
281
     1
  3
Standard
350
65
  0
DICTIONARY
  5
29
102
{ACAD_REACTORS
330
C
102
}
330
C
100
AcDbDictionary
281
     1
  3
2dWireframe
350
2F
  3
Basic
350
2E
  3
Brighten
350
35
  3
ColorChange
350
39
  3
Conceptual
350
32
  3
Dim
350
34
  3
EdgeColorOff
350
41
  3
Facepattern
350
38
  3
Flat
350
2A
  3
FlatWithEdges
350
2B
  3
Gouraud
350
2C
  3
GouraudWithEdges
350
2D
  3
Hidden
350
31
  3
JitterOff
350
3F
  3
Linepattern
350
37
  3
OverhangOff
350
40
  3
Realistic
350
33
  3
Shaded
350
3E
  3
Shaded with edges
350
3D
  3
Shades of Gray
350
3A
  3
Sketchy
350
3B
  3
Thicken
350
36
  3
Wireframe
350
30
  3
X-Ray
350
3C
  0
XRECORD
  5
2D7
102
{ACAD_REACTORS
330
C
102
}
330
C
100
AcDbXrecord
280
     1
 90
        1
330
65
  0
DICTIONARY
  5
7C
102
{ACAD_REACTORS
330
C
102
}
330
C
100
AcDbDictionary
281
     1
  3
CANNOSCALE
350
81
  3
CMLEADERSTYLE
350
7E
  3
CTABLESTYLE
350
7D
  3
CVIEWDETAILSTYLE
350
7F
  3
CVIEWSECTIONSTYLE
350
80
  0
DICTIONARY
  5
2CE
102
{ACAD_REACTORS
330
C
102
}
330
C
100
AcDbDictionary
281
     1
  3
DRAWING_TOOL
350
2D2
  3
REVIT_CATEGORY_MAPPING
350
2D0
  3
REVIT_SUB_CATEGORY_MAPPING
350
2D1
  3
REVIT_TYPE_MAPPING
350
2CF
  0
SORTENTSTABLE
  5
2D4
102
{ACAD_REACTORS
330
2D3
102
}
330
2D3
100
AcDbSortentsTable
330
71
  0
ACDBDETAILVIEWSTYLE
  5
6C
102
{ACAD_REACTORS
330
6B
102
}
330
6B
100
AcDbModelDocViewStyle
 70
     0
  3
Imperial24
290
     1
100
AcDbDetailViewStyle
 70
     0
 71
     0
 90
        3
 71
     1
340
55
 62
   256
 40
0.24
340
0
 62
   256
 40
0.24
300

 40
0.36
280
     3
 71
     2
340
5D
 90
       25
 62
   256
 71
     3
340
55
 62
   256
 40
0.24
 90
        1
 40
0.75
 90
        1
300
%<\AcVar ViewType \f "%tc1">% %<\AcVar ViewDetailId>%\PSCALA %<\AcVar ViewScale \f "%sn">%
 71
     4
340
5D
 90
       25
 62
   256
340
5D
 90
       25
 62
   256
280
     0
  0
LAYOUT
  5
70
102
{ACAD_REACTORS
330
62
102
}
330
62
100
AcDbPlotSettings
  1

  2

  4

  6

 40
0.0
 41
0.0
 42
0.0
 43
0.0
 44
0.0
 45
0.0
 46
0.0
 47
0.0
 48
0.0
 49
0.0
140
0.0
141
0.0
142
1.0
143
1.0
 70
   688
 72
     0
 73
     0
 74
     5
  7

 75
    16
147
1.0
 76
     0
 77
     2
 78
   300
148
0.0
149
0.0
100
AcDbLayout
  1
Layout1
 70
     1
 71
     1
 10
0.0
 20
0.0
 11
12.0
 21
9.0
 12
0.0
 22
0.0
 32
0.0
 14
0.0
 24
0.0
 34
0.0
 15
0.0
 25
0.0
 35
0.0
146
0.0
 13
0.0
 23
0.0
 33
0.0
 16
1.0
 26
0.0
 36
0.0
 17
0.0
 27
1.0
 37
0.0
 76
     0
330
6D
  0
LAYOUT
  5
78
102
{ACAD_REACTORS
330
62
102
}
330
62
100
AcDbPlotSettings
  1

  2

  4

  6

 40
0.0
 41
0.0
 42
0.0
 43
0.0
 44
0.0
 45
0.0
 46
0.0
 47
0.0
 48
0.0
 49
0.0
140
0.0
141
0.0
142
1.0
143
1.0
 70
   688
 72
     0
 73
     0
 74
     5
  7

 75
    16
147
1.0
 76
     0
 77
     2
 78
   300
148
0.0
149
0.0
100
AcDbLayout
  1
Layout2
 70
     1
 71
     2
 10
0.0
 20
0.0
 11
12.0
 21
9.0
 12
0.0
 22
0.0
 32
0.0
 14
0.0
 24
0.0
 34
0.0
 15
0.0
 25
0.0
 35
0.0
146
0.0
 13
0.0
 23
0.0
 33
0.0
 16
1.0
 26
0.0
 36
0.0
 17
0.0
 27
1.0
 37
0.0
 76
     0
330
75
  0
LAYOUT
  5
74
102
{ACAD_REACTORS
330
62
102
}
330
62
100
AcDbPlotSettings
  1

  2

  4

  6

 40
0.0
 41
0.0
 42
0.0
 43
0.0
 44
0.0
 45
0.0
 46
0.0
 47
0.0
 48
0.0
 49
0.0
140
0.0
141
0.0
142
1.0
143
1.0
 70
  1712
 72
     0
 73
     0
 74
     0
  7

 75
     0
147
1.0
 76
     0
 77
     2
 78
   300
148
0.0
149
0.0
100
AcDbLayout
  1
Model
 70
     1
 71
     0
 10
0.0
 20
0.0
 11
12.0
 21
9.0
 12
0.0
 22
0.0
 32
0.0
 14
0.0
 24
0.0
 34
0.0
 15
0.0
 25
0.0
 35
0.0
146
0.0
 13
0.0
 23
0.0
 33
0.0
 16
1.0
 26
0.0
 36
0.0
 17
0.0
 27
1.0
 37
0.0
 76
     0
330
71
  0
MATERIAL
  5
19
102
{ACAD_XDICTIONARY
360
1A
102
}
102
{ACAD_REACTORS
330
10
102
}
330
10
100
AcDbMaterial
  1
ByBlock
 72
     0
 43
0.0208333333333333
 43
0.0
 43
0.0
 43
0.0
 43
0.0
 43
0.0208333333333333
 43
0.0
 43
0.0
 43
0.0
 43
0.0
 43
1.0
 43
0.0
 43
0.0
 43
0.0
 43
0.0
 43
1.0
 77
     0
 47
0.0208333333333333
 47
0.0
 47
0.0
 47
0.0
 47
0.0
 47
0.0208333333333333
 47
0.0
 47
0.0
 47
0.0
 47
0.0
 47
1.0
 47
0.0
 47
0.0
 47
0.0
 47
0.0
 47
1.0
171
     0
 49
0.0208333333333333
 49
0.0
 49
0.0
 49
0.0
 49
0.0
 49
0.0208333333333333
 49
0.0
 49
0.0
 49
0.0
 49
0.0
 49
1.0
 49
0.0
 49
0.0
 49
0.0
 49
0.0
 49
1.0
175
     0
142
0.0208333333333333
142
0.0
142
0.0
142
0.0
142
0.0
142
0.0208333333333333
142
0.0
142
0.0
142
0.0
142
0.0
142
1.0
142
0.0
142
0.0
142
0.0
142
0.0
142
1.0
179
     0
144
0.0208333333333333
144
0.0
144
0.0
144
0.0
144
0.0
144
0.0208333333333333
144
0.0
144
0.0
144
0.0
144
0.0
144
1.0
144
0.0
144
0.0
144
0.0
144
0.0
144
1.0
147
0.0208333333333333
147
0.0
147
0.0
147
0.0
147
0.0
147
0.0208333333333333
147
0.0
147
0.0
147
0.0
147
0.0
147
1.0
147
0.0
147
0.0
147
0.0
147
0.0
147
1.0
  0
MATERIAL
  5
11
102
{ACAD_XDICTIONARY
360
12
102
}
102
{ACAD_REACTORS
330
10
102
}
330
10
100
AcDbMaterial
  1
ByLayer
 72
     0
 43
0.0208333333333333
 43
0.0
 43
0.0
 43
0.0
 43
0.0
 43
0.0208333333333333
 43
0.0
 43
0.0
 43
0.0
 43
0.0
 43
1.0
 43
0.0
 43
0.0
 43
0.0
 43
0.0
 43
1.0
 77
     0
 47
0.0208333333333333
 47
0.0
 47
0.0
 47
0.0
 47
0.0
 47
0.0208333333333333
 47
0.0
 47
0.0
 47
0.0
 47
0.0
 47
1.0
 47
0.0
 47
0.0
 47
0.0
 47
0.0
 47
1.0
171
     0
 49
0.0208333333333333
 49
0.0
 49
0.0
 49
0.0
 49
0.0
 49
0.0208333333333333
 49
0.0
 49
0.0
 49
0.0
 49
0.0
 49
1.0
 49
0.0
 49
0.0
 49
0.0
 49
0.0
 49
1.0
175
     0
142
0.0208333333333333
142
0.0
142
0.0
142
0.0
142
0.0
142
0.0208333333333333
142
0.0
142
0.0
142
0.0
142
0.0
142
1.0
142
0.0
142
0.0
142
0.0
142
0.0
142
1.0
179
     0
144
0.0208333333333333
144
0.0
144
0.0
144
0.0
144
0.0
144
0.0208333333333333
144
0.0
144
0.0
144
0.0
144
0.0
144
1.0
144
0.0
144
0.0
144
0.0
144
0.0
144
1.0
147
0.0208333333333333
147
0.0
147
0.0
147
0.0
147
0.0
147
0.0208333333333333
147
0.0
147
0.0
147
0.0
147
0.0
147
1.0
147
0.0
147
0.0
147
0.0
147
0.0
147
1.0
  0
MATERIAL
  5
21
102
{ACAD_XDICTIONARY
360
22
102
}
102
{ACAD_REACTORS
330
10
102
}
330
10
100
AcDbMaterial
  1
Global
 72
     0
 43
0.0208333333333333
 43
0.0
 43
0.0
 43
0.0
 43
0.0
 43
0.0208333333333333
 43
0.0
 43
0.0
 43
0.0
 43
0.0
 43
1.0
 43
0.0
 43
0.0
 43
0.0
 43
0.0
 43
1.0
 77
     0
 47
0.0208333333333333
 47
0.0
 47
0.0
 47
0.0
 47
0.0
 47
0.0208333333333333
 47
0.0
 47
0.0
 47
0.0
 47
0.0
 47
1.0
 47
0.0
 47
0.0
 47
0.0
 47
0.0
 47
1.0
171
     0
 49
0.0208333333333333
 49
0.0
 49
0.0
 49
0.0
 49
0.0
 49
0.0208333333333333
 49
0.0
 49
0.0
 49
0.0
 49
0.0
 49
1.0
 49
0.0
 49
0.0
 49
0.0
 49
0.0
 49
1.0
175
     0
142
0.0208333333333333
142
0.0
142
0.0
142
0.0
142
0.0
142
0.0208333333333333
142
0.0
142
0.0
142
0.0
142
0.0
142
1.0
142
0.0
142
0.0
142
0.0
142
0.0
142
1.0
179
     0
144
0.0208333333333333
144
0.0
144
0.0
144
0.0
144
0.0
144
0.0208333333333333
144
0.0
144
0.0
144
0.0
144
0.0
144
1.0
144
0.0
144
0.0
144
0.0
144
0.0
144
1.0
147
0.0208333333333333
147
0.0
147
0.0
147
0.0
147
0.0
147
0.0208333333333333
147
0.0
147
0.0
147
0.0
147
0.0
147
1.0
147
0.0
147
0.0
147
0.0
147
0.0
147
1.0
  0
MLEADERSTYLE
  5
67
102
{ACAD_REACTORS
330
66
102
}
330
66
100
AcDbMLeaderStyle
179
     2
170
     2
171
     1
172
     0
 90
        2
 40
0.0
 41
0.0
173
     1
 91
-1056964608
340
5B
 92
       -2
290
     1
 42
0.09
291
     1
 43
0.36
  3
Standard
 44
0.18
300

342
55
174
     1
178
     6
175
     1
176
     0
 93
-1056964608
 45
0.18
292
     0
297
     0
 46
0.18
 94
-1056964608
 47
1.0
 49
1.0
140
1.0
293
     1
141
0.0
294
     1
177
     0
142
1.0
295
     1
296
     0
143
0.125
271
     0
272
     9
273
     9
298
     1
  0
MLINESTYLE
  5
60
102
{ACAD_REACTORS
330
5F
102
}
330
5F
100
AcDbMlineStyle
  2
STANDARD
 70
     0
  3

 62
   256
 51
90.0
 52
90.0
 71
     2
 49
0.5
 62
   256
  6
BYLAYER
 49
-0.5
 62
   256
  6
BYLAYER
  0
ACDBPLACEHOLDER
  5
F
102
{ACAD_REACTORS
330
E
102
}
330
E
  0
SCALE
  5
43
102
{ACAD_REACTORS
330
42
102
}
330
42
100
AcDbScale
 70
     0
300
1:1
140
1.0
141
1.0
290
     1
  0
SCALE
  5
44
102
{ACAD_REACTORS
330
42
102
}
330
42
100
AcDbScale
 70
     0
300
1/128" = 1'-0"
140
0.0078125
141
12.0
290
     0
  0
SCALE
  5
45
102
{ACAD_REACTORS
330
42
102
}
330
42
100
AcDbScale
 70
     0
300
1/64" = 1'-0"
140
0.015625
141
12.0
290
     0
  0
SCALE
  5
46
102
{ACAD_REACTORS
330
42
102
}
330
42
100
AcDbScale
 70
     0
300
1/32" = 1'-0"
140
0.03125
141
12.0
290
     0
  0
SCALE
  5
47
102
{ACAD_REACTORS
330
42
102
}
330
42
100
AcDbScale
 70
     0
300
1/16" = 1'-0"
140
0.0625
141
12.0
290
     0
  0
SCALE
  5
48
102
{ACAD_REACTORS
330
42
102
}
330
42
100
AcDbScale
 70
     0
300
3/32" = 1'-0"
140
0.09375
141
12.0
290
     0
  0
SCALE
  5
49
102
{ACAD_REACTORS
330
42
102
}
330
42
100
AcDbScale
 70
     0
300
1/8" = 1'-0"
140
0.125
141
12.0
290
     0
  0
SCALE
  5
4A
102
{ACAD_REACTORS
330
42
102
}
330
42
100
AcDbScale
 70
     0
300
3/16" = 1'-0"
140
0.1875
141
12.0
290
     0
  0
SCALE
  5
4B
102
{ACAD_REACTORS
330
42
102
}
330
42
100
AcDbScale
 70
     0
300
1/4" = 1'-0"
140
0.25
141
12.0
290
     0
  0
SCALE
  5
4C
102
{ACAD_REACTORS
330
42
102
}
330
42
100
AcDbScale
 70
     0
300
3/8" = 1'-0"
140
0.375
141
12.0
290
     0
  0
SCALE
  5
4D
102
{ACAD_REACTORS
330
42
102
}
330
42
100
AcDbScale
 70
     0
300
1/2" = 1'-0"
140
0.5
141
12.0
290
     0
  0
SCALE
  5
4E
102
{ACAD_REACTORS
330
42
102
}
330
42
100
AcDbScale
 70
     0
300
3/4" = 1'-0"
140
0.75
141
12.0
290
     0
  0
SCALE
  5
4F
102
{ACAD_REACTORS
330
42
102
}
330
42
100
AcDbScale
 70
     0
300
1" = 1'-0"
140
1.0
141
12.0
290
     0
  0
SCALE
  5
50
102
{ACAD_REACTORS
330
42
102
}
330
42
100
AcDbScale
 70
     0
300
1-1/2" = 1'-0"
140
1.5
141
12.0
290
     0
  0
SCALE
  5
51
102
{ACAD_REACTORS
330
42
102
}
330
42
100
AcDbScale
 70
     0
300
3" = 1'-0"
140
3.0
141
12.0
290
     0
  0
SCALE
  5
52
102
{ACAD_REACTORS
330
42
102
}
330
42
100
AcDbScale
 70
     0
300
6" = 1'-0"
140
6.0
141
12.0
290
     0
  0
SCALE
  5
53
102
{ACAD_REACTORS
330
42
102
}
330
42
100
AcDbScale
 70
     0
300
1'-0" = 1'-0"
140
12.0
141
12.0
290
     0
  0
ACDBSECTIONVIEWSTYLE
  5
6A
102
{ACAD_REACTORS
330
68
102
}
330
68
100
AcDbModelDocViewStyle
 70
     0
  3
Imperial24
290
     1
100
AcDbSectionViewStyle
 70
     0
 71
     0
 90
       78
 71
     1
340
55
 62
   256
 40
0.24
340
0
340
0
 62
   256
 40
0.24
300
I, O, Q, S, X, Z
 40
0.48
 90
        3
 40
0.18
 90
        1
 71
     2
340
69
 90
       25
 62
   256
340
5D
 90
       50
 62
   256
 40
0.24
 40
0.0
 40
0.24
 71
     3
340
55
 62
   256
 40
0.24
 90
        1
 40
0.75
 90
        1
300
%<\AcVar ViewType \f "%tc1">% %<\AcVar ViewSectionStartId>%-%<\AcVar ViewSectionEndId>%\PSCALA %<\AcVar ViewScale \f "%sn">%
 71
     4
 62
   256
 62
   257
300
ANSI31
 40
1.0
 90
        0
290
     0
290
     0
 90
        6
 40
0.0
 40
1.570796326794896
 40
0.2617993877991494
 40
1.308996938995747
 40
-0.2617993877991494
 40
1.832595714594046
  0
TABLESTYLE
  5
65
102
{ACAD_XDICTIONARY
360
2D5
102
}
102
{ACAD_REACTORS
330
64
102
}
330
64
100
AcDbTableStyle
280
     0
  3
Standard
 70
     0
 71
     0
 40
0.06
 41
0.06
280
     0
281
     0
  7
Standard
140
0.18
170
     2
 62
     0
 63
     7
283
     0
 90
      512
 91
        0
  1

274
    -2
284
     1
 64
     0
275
    -2
285
     1
 65
     0
276
    -2
286
     1
 66
     0
277
    -2
287
     1
 67
     0
278
    -2
288
     1
 68
     0
279
    -2
289
     1
 69
     0
  7
Standard
140
0.25
170
     5
 62
     0
 63
     7
283
     0
 90
      512
 91
        0
  1

274
    -2
284
     1
 64
     0
275
    -2
285
     1
 65
     0
276
    -2
286
     1
 66
     0
277
    -2
287
     1
 67
     0
278
    -2
288
     1
 68
     0
279
    -2
289
     1
 69
     0
  7
Standard
140
0.18
170
     5
 62
     0
 63
     7
283
     0
 90
      512
 91
        0
  1

274
    -2
284
     1
 64
     0
275
    -2
285
     1
 65
     0
276
    -2
286
     1
 66
     0
277
    -2
287
     1
 67
     0
278
    -2
288
     1
 68
     0
279
    -2
289
     1
 69
     0
  0
VISUALSTYLE
  5
2F
102
{ACAD_REACTORS
330
29
102
}
330
29
100
AcDbVisualStyle
  2
2dWireframe
 70
     4
177
     3
291
     0
 70
    58
 90
        0
176
     1
 90
        2
176
     1
 90
        0
176
     1
 90
        0
176
     1
 40
0.6
176
     1
 40
30.0
176
     1
 62
     7
420
 16777215
176
     1
 90
        1
176
     1
 90
        4
176
     1
 62
     7
176
     1
 62
   257
176
     1
 90
        1
176
     1
 90
        1
176
     1
 40
1.0
176
     1
 90
        0
176
     1
 62
   257
176
     1
 40
1.0
176
     1
 90
        1
176
     1
 90
        6
176
     1
 90
        2
176
     1
 62
     7
176
     1
 90
        5
176
     1
 90
        0
176
     1
 90
        0
176
     1
290
     0
176
     1
 90
        1
176
     1
 40
0.0
176
     1
 90
        0
176
     1
290
     1
176
     1
290
     1
176
     1
290
     0
176
     1
290
     0
176
     1
290
     0
176
     1
290
     0
176
     1
290
     0
176
     1
290
     0
176
     1
290
     0
176
     1
 90
       50
176
     1
 40
0.0
176
     1
 40
1.0
176
     1
 90
        0
176
     1
 62
    18
420
        0
176
     1
 90
       50
176
     1
 90
        3
176
     1
 62
     5
420
      255
176
     1
290
     0
176
     1
 90
       50
176
     1
 90
       50
176
     1
 90
       50
176
     1
290
     0
176
     1
 90
       50
176
     1
 62
   256
176
     0
 40
1.0
176
     0
 90
        2
176
     1
  1
strokes_ogs.tif
176
     1
290
     0
176
     1
 40
1.0
176
     1
 40
1.0
176
     1
  0
VISUALSTYLE
  5
2E
102
{ACAD_REACTORS
330
29
102
}
330
29
100
AcDbVisualStyle
  2
Basic
 70
     7
177
     3
291
     1
 70
    58
 90
        1
176
     1
 90
        0
176
     1
 90
        1
176
     1
 90
        0
176
     1
 40
0.6
176
     1
 40
30.0
176
     1
 62
     7
420
 16777215
176
     1
 90
        0
176
     1
 90
        4
176
     1
 62
     7
176
     1
 62
   257
176
     1
 90
        1
176
     1
 90
        1
176
     1
 40
1.0
176
     1
 90
        8
176
     1
 62
     7
176
     1
 40
1.0
176
     1
 90
        1
176
     1
 90
        6
176
     1
 90
        2
176
     1
 62
     7
176
     1
 90
        5
176
     1
 90
        0
176
     1
 90
        0
176
     1
290
     0
176
     1
 90
        1
176
     1
 40
0.0
176
     1
 90
        0
176
     1
290
     0
176
     1
290
     1
176
     1
290
     1
176
     1
290
     0
176
     1
290
     0
176
     1
290
     0
176
     1
290
     0
176
     1
290
     0
176
     1
290
     0
176
     1
 90
       50
176
     1
 40
0.0
176
     1
 40
1.0
176
     1
 90
        0
176
     1
 62
    18
420
        0
176
     1
 90
       50
176
     1
 90
        3
176
     1
 62
     5
420
      255
176
     1
290
     0
176
     1
 90
       50
176
     1
 90
       50
176
     1
 90
       50
176
     1
290
     0
176
     1
 90
       50
176
     1
 62
   256
176
     0
 40
1.0
176
     0
 90
        2
176
     1
  1
strokes_ogs.tif
176
     1
290
     0
176
     1
 40
1.0
176
     1
 40
1.0
176
     1
  0
VISUALSTYLE
  5
35
102
{ACAD_REACTORS
330
29
102
}
330
29
100
AcDbVisualStyle
  2
Brighten
 70
    12
177
     3
291
     1
 70
    58
 90
        2
176
     1
 90
        2
176
     1
 90
        0
176
     1
 90
        0
176
     1
 40
0.6
176
     1
 40
30.0
176
     1
 62
     7
420
 16777215
176
     1
 90
        1
176
     1
 90
        4
176
     1
 62
     7
176
     1
 62
   257
176
     1
 90
        1
176
     1
 90
        1
176
     1
 40
1.0
176
     1
 90
        8
176
     1
 62
     7
176
     1
 40
1.0
176
     1
 90
        1
176
     1
 90
        6
176
     1
 90
        2
176
     1
 62
     7
176
     1
 90
        5
176
     1
 90
        0
176
     1
 90
        0
176
     1
290
     0
176
     1
 90
        1
176
     1
 40
50.0
176
     1
 90
        0
176
     1
290
     0
176
     1
290
     1
176
     1
290
     1
176
     1
290
     0
176
     1
290
     0
176
     1
290
     0
176
     1
290
     0
176
     1
290
     0
176
     1
290
     0
176
     1
 90
       50
176
     1
 40
0.0
176
     1
 40
1.0
176
     1
 90
        0
176
     1
 62
    18
420
        0
176
     1
 90
       50
176
     1
 90
        3
176
     1
 62
     5
420
      255
176
     1
290
     0
176
     1
 90
       50
176
     1
 90
       50
176
     1
 90
       50
176
     1
290
     0
176
     1
 90
       50
176
     1
 62
   256
176
     0
 40
1.0
176
     0
 90
        2
176
     1
  1
strokes_ogs.tif
176
     1
290
     0
176
     1
 40
1.0
176
     1
 40
1.0
176
     1
  0
VISUALSTYLE
  5
39
102
{ACAD_REACTORS
330
29
102
}
330
29
100
AcDbVisualStyle
  2
ColorChange
 70
    16
177
     3
291
     1
 70
    58
 90
        2
176
     1
 90
        2
176
     1
 90
        3
176
     1
 90
        0
176
     1
 40
0.6
176
     1
 40
30.0
176
     1
 62
     8
420
  8421504
176
     1
 90
        1
176
     1
 90
        4
176
     1
 62
     7
176
     1
 62
   257
176
     1
 90
        1
176
     1
 90
        1
176
     1
 40
1.0
176
     1
 90
        8
176
     1
 62
     8
420
  8421504
176
     1
 40
1.0
176
     1
 90
        1
176
     1
 90
        6
176
     1
 90
        2
176
     1
 62
     7
176
     1
 90
        5
176
     1
 90
        0
176
     1
 90
        0
176
     1
290
     0
176
     1
 90
        1
176
     1
 40
0.0
176
     1
 90
        0
176
     1
290
     0
176
     1
290
     1
176
     1
290
     1
176
     1
290
     0
176
     1
290
     0
176
     1
290
     0
176
     1
290
     0
176
     1
290
     0
176
     1
290
     0
176
     1
 90
       50
176
     1
 40
0.0
176
     1
 40
1.0
176
     1
 90
        0
176
     1
 62
    18
420
        0
176
     1
 90
       50
176
     1
 90
        3
176
     1
 62
     5
420
      255
176
     1
290
     0
176
     1
 90
       50
176
     1
 90
       50
176
     1
 90
       50
176
     1
290
     0
176
     1
 90
       50
176
     1
 62
   256
176
     0
 40
1.0
176
     0
 90
        2
176
     1
  1
strokes_ogs.tif
176
     1
290
     0
176
     1
 40
1.0
176
     1
 40
1.0
176
     1
  0
VISUALSTYLE
  5
32
102
{ACAD_REACTORS
330
29
102
}
330
29
100
AcDbVisualStyle
  2
Conceptual
 70
     9
177
     3
291
     0
 70
    58
 90
        3
176
     1
 90
        2
176
     1
 90
        0
176
     1
 90
        0
176
     1
 40
0.6
176
     1
 40
30.0
176
     1
 62
     7
420
 16777215
176
     1
 90
        2
176
     1
 90
        2
176
     1
 62
     7
176
     1
 62
   257
176
     1
 90
        1
176
     1
 90
        1
176
     1
 40
179.0
176
     1
 90
        8
176
     1
 62
     7
176
     1
 40
1.0
176
     1
 90
        1
176
     1
 90
        6
176
     1
 90
        2
176
     1
 62
     7
176
     1
 90
        3
176
     1
 90
        0
176
     1
 90
        0
176
     1
290
     0
176
     1
 90
        1
176
     1
 40
0.0
176
     1
 90
        0
176
     1
290
     0
176
     1
290
     1
176
     1
290
     1
176
     1
290
     0
176
     1
290
     0
176
     1
290
     0
176
     1
290
     0
176
     1
290
     0
176
     1
290
     0
176
     1
 90
       50
176
     1
 40
0.0
176
     1
 40
1.0
176
     1
 90
        0
176
     1
 62
    18
420
        0
176
     1
 90
       50
176
     1
 90
        3
176
     1
 62
     5
420
      255
176
     1
290
     0
176
     1
 90
       50
176
     1
 90
       50
176
     1
 90
       50
176
     1
290
     0
176
     1
 90
       50
176
     1
 62
   256
176
     0
 40
1.0
176
     0
 90
        2
176
     1
  1
strokes_ogs.tif
176
     1
290
     0
176
     1
 40
1.0
176
     1
 40
1.0
176
     1
  0
VISUALSTYLE
  5
34
102
{ACAD_REACTORS
330
29
102
}
330
29
100
AcDbVisualStyle
  2
Dim
 70
    11
177
     3
291
     1
 70
    58
 90
        2
176
     1
 90
        2
176
     1
 90
        0
176
     1
 90
        0
176
     1
 40
0.6
176
     1
 40
30.0
176
     1
 62
     7
420
 16777215
176
     1
 90
        1
176
     1
 90
        4
176
     1
 62
     7
176
     1
 62
   257
176
     1
 90
        1
176
     1
 90
        1
176
     1
 40
1.0
176
     1
 90
        8
176
     1
 62
     7
176
     1
 40
1.0
176
     1
 90
        1
176
     1
 90
        6
176
     1
 90
        2
176
     1
 62
     7
176
     1
 90
        5
176
     1
 90
        0
176
     1
 90
        0
176
     1
290
     0
176
     1
 90
        1
176
     1
 40
-50.0
176
     1
 90
        0
176
     1
290
     0
176
     1
290
     1
176
     1
290
     1
176
     1
290
     0
176
     1
290
     0
176
     1
290
     0
176
     1
290
     0
176
     1
290
     0
176
     1
290
     0
176
     1
 90
       50
176
     1
 40
0.0
176
     1
 40
1.0
176
     1
 90
        0
176
     1
 62
    18
420
        0
176
     1
 90
       50
176
     1
 90
        3
176
     1
 62
     5
420
      255
176
     1
290
     0
176
     1
 90
       50
176
     1
 90
       50
176
     1
 90
       50
176
     1
290
     0
176
     1
 90
       50
176
     1
 62
   256
176
     0
 40
1.0
176
     0
 90
        2
176
     1
  1
strokes_ogs.tif
176
     1
290
     0
176
     1
 40
1.0
176
     1
 40
1.0
176
     1
  0
VISUALSTYLE
  5
41
102
{ACAD_REACTORS
330
29
102
}
330
29
100
AcDbVisualStyle
  2
EdgeColorOff
 70
    22
177
     3
291
     1
 70
    58
 90
        2
176
     0
 90
        2
176
     0
 90
        0
176
     0
 90
        0
176
     0
 40
0.6
176
     0
 40
30.0
176
     0
 62
     7
420
 16777215
176
     0
 90
        1
176
     0
 90
        4
176
     0
 62
     7
176
     0
 62
   257
176
     0
 90
        1
176
     0
 90
        1
176
     0
 40
1.0
176
     0
 90
        8
176
     2
 62
     7
176
     0
 40
1.0
176
     0
 90
        1
176
     0
 90
        6
176
     0
 90
        2
176
     0
 62
     7
176
     0
 90
        5
176
     0
 90
        0
176
     0
 90
        0
176
     0
290
     0
176
     0
 90
        1
176
     0
 40
0.0
176
     0
 90
        0
176
     0
290
     0
176
     0
290
     1
176
     0
290
     1
176
     0
290
     0
176
     0
290
     0
176
     0
290
     0
176
     0
290
     0
176
     0
290
     0
176
     0
290
     0
176
     0
 90
       50
176
     0
 40
0.0
176
     0
 40
1.0
176
     0
 90
        0
176
     0
 62
    18
420
        0
176
     0
 90
       50
176
     0
 90
        3
176
     0
 62
     5
420
      255
176
     0
290
     0
176
     0
 90
       50
176
     0
 90
       50
176
     0
 90
       50
176
     0
290
     0
176
     0
 90
       50
176
     0
 62
   256
176
     0
 40
1.0
176
     0
 90
        2
176
     0
  1
strokes_ogs.tif
176
     0
290
     0
176
     0
 40
1.0
176
     0
 40
1.0
176
     0
  0
VISUALSTYLE
  5
38
102
{ACAD_REACTORS
330
29
102
}
330
29
100
AcDbVisualStyle
  2
Facepattern
 70
    15
177
     3
291
     1
 70
    58
 90
        2
176
     1
 90
        2
176
     1
 90
        0
176
     1
 90
        0
176
     1
 40
0.6
176
     1
 40
30.0
176
     1
 62
     7
420
 16777215
176
     1
 90
        1
176
     1
 90
        4
176
     1
 62
     7
176
     1
 62
   257
176
     1
 90
        1
176
     1
 90
        1
176
     1
 40
1.0
176
     1
 90
        8
176
     1
 62
     7
176
     1
 40
1.0
176
     1
 90
        1
176
     1
 90
        6
176
     1
 90
        2
176
     1
 62
     7
176
     1
 90
        5
176
     1
 90
        0
176
     1
 90
        0
176
     1
290
     0
176
     1
 90
        1
176
     1
 40
0.0
176
     1
 90
        0
176
     1
290
     0
176
     1
290
     1
176
     1
290
     1
176
     1
290
     0
176
     1
290
     0
176
     1
290
     0
176
     1
290
     0
176
     1
290
     0
176
     1
290
     0
176
     1
 90
       50
176
     1
 40
0.0
176
     1
 40
1.0
176
     1
 90
        0
176
     1
 62
    18
420
        0
176
     1
 90
       50
176
     1
 90
        3
176
     1
 62
     5
420
      255
176
     1
290
     0
176
     1
 90
       50
176
     1
 90
       50
176
     1
 90
       50
176
     1
290
     0
176
     1
 90
       50
176
     1
 62
   256
176
     0
 40
1.0
176
     0
 90
        2
176
     1
  1
strokes_ogs.tif
176
     1
290
     0
176
     1
 40
1.0
176
     1
 40
1.0
176
     1
  0
VISUALSTYLE
  5
2A
102
{ACAD_REACTORS
330
29
102
}
330
29
100
AcDbVisualStyle
  2
Flat
 70
     0
177
     3
291
     1
 70
    58
 90
        2
176
     1
 90
        1
176
     1
 90
        1
176
     1
 90
        2
176
     1
 40
0.6
176
     1
 40
30.0
176
     1
 62
     7
420
 16777215
176
     1
 90
        0
176
     1
 90
        0
176
     1
 62
     7
176
     1
 62
   257
176
     1
 90
        1
176
     1
 90
        1
176
     1
 40
1.0
176
     1
 90
        8
176
     1
 62
     7
176
     1
 40
1.0
176
     1
 90
        1
176
     1
 90
        6
176
     1
 90
        2
176
     1
 62
     7
176
     1
 90
        5
176
     1
 90
        0
176
     1
 90
        0
176
     1
290
     0
176
     1
 90
       13
176
     1
 40
0.0
176
     1
 90
        0
176
     1
290
     0
176
     1
290
     1
176
     1
290
     1
176
     1
290
     0
176
     1
290
     0
176
     1
290
     0
176
     1
290
     0
176
     1
290
     0
176
     1
290
     0
176
     1
 90
       50
176
     1
 40
0.0
176
     1
 40
1.0
176
     1
 90
        0
176
     1
 62
    18
420
        0
176
     1
 90
       50
176
     1
 90
        3
176
     1
 62
     5
420
      255
176
     1
290
     0
176
     1
 90
       50
176
     1
 90
       50
176
     1
 90
       50
176
     1
290
     0
176
     1
 90
       50
176
     1
 62
   256
176
     0
 40
1.0
176
     0
 90
        2
176
     1
  1
strokes_ogs.tif
176
     1
290
     0
176
     1
 40
1.0
176
     1
 40
1.0
176
     1
  0
VISUALSTYLE
  5
2B
102
{ACAD_REACTORS
330
29
102
}
330
29
100
AcDbVisualStyle
  2
FlatWithEdges
 70
     1
177
     3
291
     1
 70
    58
 90
        2
176
     1
 90
        1
176
     1
 90
        1
176
     1
 90
        2
176
     1
 40
0.6
176
     1
 40
30.0
176
     1
 62
     7
420
 16777215
176
     1
 90
        1
176
     1
 90
        0
176
     1
 62
     7
176
     1
 62
   257
176
     1
 90
        1
176
     1
 90
        1
176
     1
 40
1.0
176
     1
 90
        0
176
     1
 62
   257
176
     1
 40
1.0
176
     1
 90
        1
176
     1
 90
        6
176
     1
 90
        2
176
     1
 62
     7
176
     1
 90
        5
176
     1
 90
        0
176
     1
 90
        0
176
     1
290
     0
176
     1
 90
       13
176
     1
 40
0.0
176
     1
 90
        0
176
     1
290
     0
176
     1
290
     1
176
     1
290
     1
176
     1
290
     0
176
     1
290
     0
176
     1
290
     0
176
     1
290
     0
176
     1
290
     0
176
     1
290
     0
176
     1
 90
       50
176
     1
 40
0.0
176
     1
 40
1.0
176
     1
 90
        0
176
     1
 62
    18
420
        0
176
     1
 90
       50
176
     1
 90
        3
176
     1
 62
     5
420
      255
176
     1
290
     0
176
     1
 90
       50
176
     1
 90
       50
176
     1
 90
       50
176
     1
290
     0
176
     1
 90
       50
176
     1
 62
   256
176
     0
 40
1.0
176
     0
 90
        2
176
     1
  1
strokes_ogs.tif
176
     1
290
     0
176
     1
 40
1.0
176
     1
 40
1.0
176
     1
  0
VISUALSTYLE
  5
2C
102
{ACAD_REACTORS
330
29
102
}
330
29
100
AcDbVisualStyle
  2
Gouraud
 70
     2
177
     3
291
     1
 70
    58
 90
        2
176
     1
 90
        2
176
     1
 90
        1
176
     1
 90
        2
176
     1
 40
0.6
176
     1
 40
30.0
176
     1
 62
     7
420
 16777215
176
     1
 90
        0
176
     1
 90
        0
176
     1
 62
     7
176
     1
 62
   257
176
     1
 90
        1
176
     1
 90
        1
176
     1
 40
1.0
176
     1
 90
        0
176
     1
 62
     7
176
     1
 40
1.0
176
     1
 90
        1
176
     1
 90
        6
176
     1
 90
        2
176
     1
 62
     7
176
     1
 90
        5
176
     1
 90
        0
176
     1
 90
        0
176
     1
290
     0
176
     1
 90
       13
176
     1
 40
0.0
176
     1
 90
        0
176
     1
290
     0
176
     1
290
     1
176
     1
290
     1
176
     1
290
     0
176
     1
290
     0
176
     1
290
     0
176
     1
290
     0
176
     1
290
     0
176
     1
290
     0
176
     1
 90
       50
176
     1
 40
0.0
176
     1
 40
1.0
176
     1
 90
        0
176
     1
 62
    18
420
        0
176
     1
 90
       50
176
     1
 90
        3
176
     1
 62
     5
420
      255
176
     1
290
     0
176
     1
 90
       50
176
     1
 90
       50
176
     1
 90
       50
176
     1
290
     0
176
     1
 90
       50
176
     1
 62
   256
176
     0
 40
1.0
176
     0
 90
        2
176
     1
  1
strokes_ogs.tif
176
     1
290
     0
176
     1
 40
1.0
176
     1
 40
1.0
176
     1
  0
VISUALSTYLE
  5
2D
102
{ACAD_REACTORS
330
29
102
}
330
29
100
AcDbVisualStyle
  2
GouraudWithEdges
 70
     3
177
     3
291
     1
 70
    58
 90
        2
176
     1
 90
        2
176
     1
 90
        1
176
     1
 90
        2
176
     1
 40
0.6
176
     1
 40
30.0
176
     1
 62
     7
420
 16777215
176
     1
 90
        1
176
     1
 90
        0
176
     1
 62
     7
176
     1
 62
   257
176
     1
 90
        1
176
     1
 90
        1
176
     1
 40
1.0
176
     1
 90
        0
176
     1
 62
   257
176
     1
 40
1.0
176
     1
 90
        1
176
     1
 90
        6
176
     1
 90
        2
176
     1
 62
     7
176
     1
 90
        5
176
     1
 90
        0
176
     1
 90
        0
176
     1
290
     0
176
     1
 90
       13
176
     1
 40
0.0
176
     1
 90
        0
176
     1
290
     0
176
     1
290
     1
176
     1
290
     1
176
     1
290
     0
176
     1
290
     0
176
     1
290
     0
176
     1
290
     0
176
     1
290
     0
176
     1
290
     0
176
     1
 90
       50
176
     1
 40
0.0
176
     1
 40
1.0
176
     1
 90
        0
176
     1
 62
    18
420
        0
176
     1
 90
       50
176
     1
 90
        3
176
     1
 62
     5
420
      255
176
     1
290
     0
176
     1
 90
       50
176
     1
 90
       50
176
     1
 90
       50
176
     1
290
     0
176
     1
 90
       50
176
     1
 62
   256
176
     0
 40
1.0
176
     0
 90
        2
176
     1
  1
strokes_ogs.tif
176
     1
290
     0
176
     1
 40
1.0
176
     1
 40
1.0
176
     1
  0
VISUALSTYLE
  5
31
102
{ACAD_REACTORS
330
29
102
}
330
29
100
AcDbVisualStyle
  2
Hidden
 70
     6
177
     3
291
     0
 70
    58
 90
        1
176
     1
 90
        2
176
     1
 90
        2
176
     1
 90
        0
176
     1
 40
0.6
176
     1
 40
30.0
176
     1
 62
     7
420
 16777215
176
     1
 90
        2
176
     1
 90
        2
176
     1
 62
     7
176
     1
 62
   257
176
     1
 90
        2
176
     1
 90
        1
176
     1
 40
40.0
176
     1
 90
        0
176
     1
 62
   257
176
     1
 40
1.0
176
     1
 90
        1
176
     1
 90
        6
176
     1
 90
        2
176
     1
 62
     7
176
     1
 90
        3
176
     1
 90
        0
176
     1
 90
        0
176
     1
290
     0
176
     1
 90
        1
176
     1
 40
0.0
176
     1
 90
        0
176
     1
290
     0
176
     1
290
     1
176
     1
290
     1
176
     1
290
     0
176
     1
290
     0
176
     1
290
     0
176
     1
290
     0
176
     1
290
     0
176
     1
290
     0
176
     1
 90
       50
176
     1
 40
0.0
176
     1
 40
1.0
176
     1
 90
        0
176
     1
 62
    18
420
        0
176
     1
 90
       50
176
     1
 90
        3
176
     1
 62
     5
420
      255
176
     1
290
     0
176
     1
 90
       50
176
     1
 90
       50
176
     1
 90
       50
176
     1
290
     0
176
     1
 90
       50
176
     1
 62
   256
176
     0
 40
1.0
176
     0
 90
        2
176
     1
  1
strokes_ogs.tif
176
     1
290
     0
176
     1
 40
1.0
176
     1
 40
1.0
176
     1
  0
VISUALSTYLE
  5
3F
102
{ACAD_REACTORS
330
29
102
}
330
29
100
AcDbVisualStyle
  2
JitterOff
 70
    20
177
     3
291
     1
 70
    58
 90
        2
176
     0
 90
        2
176
     0
 90
        0
176
     0
 90
        0
176
     0
 40
0.6
176
     0
 40
30.0
176
     0
 62
     7
420
 16777215
176
     0
 90
        1
176
     0
 90
        4
176
     0
 62
     7
176
     0
 62
   257
176
     0
 90
        1
176
     0
 90
        1
176
     0
 40
1.0
176
     0
 90
       10
176
     2
 62
     7
176
     0
 40
1.0
176
     0
 90
        1
176
     0
 90
        6
176
     0
 90
        2
176
     0
 62
     7
176
     0
 90
        5
176
     0
 90
        0
176
     0
 90
        0
176
     0
290
     0
176
     0
 90
        1
176
     0
 40
0.0
176
     0
 90
        0
176
     0
290
     0
176
     0
290
     1
176
     0
290
     1
176
     0
290
     0
176
     0
290
     0
176
     0
290
     0
176
     0
290
     0
176
     0
290
     0
176
     0
290
     0
176
     0
 90
       50
176
     0
 40
0.0
176
     0
 40
1.0
176
     0
 90
        0
176
     0
 62
    18
420
        0
176
     0
 90
       50
176
     0
 90
        3
176
     0
 62
     5
420
      255
176
     0
290
     0
176
     0
 90
       50
176
     0
 90
       50
176
     0
 90
       50
176
     0
290
     0
176
     0
 90
       50
176
     0
 62
   256
176
     0
 40
1.0
176
     0
 90
        2
176
     0
  1
strokes_ogs.tif
176
     0
290
     0
176
     0
 40
1.0
176
     0
 40
1.0
176
     0
  0
VISUALSTYLE
  5
37
102
{ACAD_REACTORS
330
29
102
}
330
29
100
AcDbVisualStyle
  2
Linepattern
 70
    14
177
     3
291
     1
 70
    58
 90
        2
176
     1
 90
        2
176
     1
 90
        0
176
     1
 90
        0
176
     1
 40
0.6
176
     1
 40
30.0
176
     1
 62
     7
420
 16777215
176
     1
 90
        1
176
     1
 90
        4
176
     1
 62
     7
176
     1
 62
   257
176
     1
 90
        7
176
     1
 90
        7
176
     1
 40
1.0
176
     1
 90
        8
176
     1
 62
     7
176
     1
 40
1.0
176
     1
 90
        1
176
     1
 90
        6
176
     1
 90
        2
176
     1
 62
     7
176
     1
 90
        5
176
     1
 90
        0
176
     1
 90
        0
176
     1
290
     0
176
     1
 90
        1
176
     1
 40
0.0
176
     1
 90
        0
176
     1
290
     0
176
     1
290
     1
176
     1
290
     1
176
     1
290
     0
176
     1
290
     0
176
     1
290
     0
176
     1
290
     0
176
     1
290
     0
176
     1
290
     0
176
     1
 90
       50
176
     1
 40
0.0
176
     1
 40
1.0
176
     1
 90
        0
176
     1
 62
    18
420
        0
176
     1
 90
       50
176
     1
 90
        3
176
     1
 62
     5
420
      255
176
     1
290
     0
176
     1
 90
       50
176
     1
 90
       50
176
     1
 90
       50
176
     1
290
     0
176
     1
 90
       50
176
     1
 62
   256
176
     0
 40
1.0
176
     0
 90
        2
176
     1
  1
strokes_ogs.tif
176
     1
290
     0
176
     1
 40
1.0
176
     1
 40
1.0
176
     1
  0
VISUALSTYLE
  5
40
102
{ACAD_REACTORS
330
29
102
}
330
29
100
AcDbVisualStyle
  2
OverhangOff
 70
    21
177
     3
291
     1
 70
    58
 90
        2
176
     0
 90
        2
176
     0
 90
        0
176
     0
 90
        0
176
     0
 40
0.6
176
     0
 40
30.0
176
     0
 62
     7
420
 16777215
176
     0
 90
        1
176
     0
 90
        4
176
     0
 62
     7
176
     0
 62
   257
176
     0
 90
        1
176
     0
 90
        1
176
     0
 40
1.0
176
     0
 90
        9
176
     2
 62
     7
176
     0
 40
1.0
176
     0
 90
        1
176
     0
 90
        6
176
     0
 90
        2
176
     0
 62
     7
176
     0
 90
        5
176
     0
 90
        0
176
     0
 90
        0
176
     0
290
     0
176
     0
 90
        1
176
     0
 40
0.0
176
     0
 90
        0
176
     0
290
     0
176
     0
290
     1
176
     0
290
     1
176
     0
290
     0
176
     0
290
     0
176
     0
290
     0
176
     0
290
     0
176
     0
290
     0
176
     0
290
     0
176
     0
 90
       50
176
     0
 40
0.0
176
     0
 40
1.0
176
     0
 90
        0
176
     0
 62
    18
420
        0
176
     0
 90
       50
176
     0
 90
        3
176
     0
 62
     5
420
      255
176
     0
290
     0
176
     0
 90
       50
176
     0
 90
       50
176
     0
 90
       50
176
     0
290
     0
176
     0
 90
       50
176
     0
 62
   256
176
     0
 40
1.0
176
     0
 90
        2
176
     0
  1
strokes_ogs.tif
176
     0
290
     0
176
     0
 40
1.0
176
     0
 40
1.0
176
     0
  0
VISUALSTYLE
  5
33
102
{ACAD_REACTORS
330
29
102
}
330
29
100
AcDbVisualStyle
  2
Realistic
 70
     8
177
     3
291
     0
 70
    58
 90
        2
176
     1
 90
        3
176
     1
 90
        0
176
     1
 90
        2
176
     1
 40
0.6
176
     1
 40
30.0
176
     1
 62
     7
420
 16777215
176
     1
 90
        0
176
     1
 90
        0
176
     1
 62
     7
176
     1
 62
   257
176
     1
 90
        1
176
     1
 90
        1
176
     1
 40
1.0
176
     1
 90
        8
176
     1
 62
   257
176
     1
 40
1.0
176
     1
 90
        1
176
     1
 90
        6
176
     1
 90
        2
176
     1
 62
     7
176
     1
 90
        3
176
     1
 90
        0
176
     1
 90
        0
176
     1
290
     0
176
     1
 90
       13
176
     1
 40
0.0
176
     1
 90
        0
176
     1
290
     0
176
     1
290
     1
176
     1
290
     1
176
     1
290
     0
176
     1
290
     0
176
     1
290
     0
176
     1
290
     0
176
     1
290
     0
176
     1
290
     0
176
     1
 90
       50
176
     1
 40
0.0
176
     1
 40
1.0
176
     1
 90
        0
176
     1
 62
    18
420
        0
176
     1
 90
       50
176
     1
 90
        3
176
     1
 62
     5
420
      255
176
     1
290
     0
176
     1
 90
       50
176
     1
 90
       50
176
     1
 90
       50
176
     1
290
     0
176
     1
 90
       50
176
     1
 62
   256
176
     0
 40
1.0
176
     0
 90
        2
176
     1
  1
strokes_ogs.tif
176
     1
290
     0
176
     1
 40
1.0
176
     1
 40
1.0
176
     1
  0
VISUALSTYLE
  5
3E
102
{ACAD_REACTORS
330
29
102
}
330
29
100
AcDbVisualStyle
  2
Shaded
 70
    27
177
     3
291
     0
 70
    58
 90
        2
176
     1
 90
        2
176
     1
 90
        1
176
     1
 90
        2
176
     1
 40
0.6
176
     1
 40
30.0
176
     1
 62
     7
420
 16777215
176
     1
 90
        0
176
     1
 90
        4
176
     1
 62
     7
176
     1
 62
   257
176
     1
 90
        1
176
     1
 90
        1
176
     1
 40
1.0
176
     1
 90
        8
176
     1
 62
   257
176
     1
 40
1.0
176
     1
 90
        1
176
     1
 90
        6
176
     1
 90
        2
176
     1
 62
     8
420
  7895160
176
     1
 90
        3
176
     1
 90
        0
176
     1
 90
        0
176
     1
290
     0
176
     1
 90
        5
176
     1
 40
0.0
176
     1
 90
        0
176
     1
290
     0
176
     1
290
     1
176
     1
290
     1
176
     1
290
     0
176
     1
290
     0
176
     1
290
     0
176
     1
290
     0
176
     1
290
     0
176
     1
290
     0
176
     1
 90
       50
176
     1
 40
0.0
176
     1
 40
1.0
176
     1
 90
        0
176
     1
 62
    18
420
        0
176
     1
 90
       50
176
     1
 90
        3
176
     1
 62
     5
420
      255
176
     1
290
     0
176
     1
 90
       50
176
     1
 90
       50
176
     1
 90
       50
176
     1
290
     0
176
     1
 90
       50
176
     1
 62
   256
176
     0
 40
1.0
176
     0
 90
        2
176
     1
  1
strokes_ogs.tif
176
     1
290
     0
176
     1
 40
1.0
176
     1
 40
1.0
176
     1
  0
VISUALSTYLE
  5
3D
102
{ACAD_REACTORS
330
29
102
}
330
29
100
AcDbVisualStyle
  2
Shaded with edges
 70
    26
177
     3
291
     0
 70
    58
 90
        2
176
     1
 90
        2
176
     1
 90
        1
176
     1
 90
        2
176
     1
 40
0.6
176
     1
 40
30.0
176
     1
 62
     7
420
 16777215
176
     1
 90
        1
176
     1
 90
       10
176
     1
 62
     7
176
     1
 62
   257
176
     1
 90
        2
176
     1
 90
        1
176
     1
 40
1.0
176
     1
 90
        8
176
     1
 62
   257
176
     1
 40
1.0
176
     1
 90
        1
176
     1
 90
        6
176
     1
 90
        2
176
     1
 62
     7
176
     1
 90
        3
176
     1
 90
        0
176
     1
 90
        0
176
     1
290
     0
176
     1
 90
        5
176
     1
 40
0.0
176
     1
 90
        0
176
     1
290
     0
176
     1
290
     1
176
     1
290
     1
176
     1
290
     0
176
     1
290
     0
176
     1
290
     0
176
     1
290
     0
176
     1
290
     0
176
     1
290
     0
176
     1
 90
       50
176
     1
 40
0.0
176
     1
 40
1.0
176
     1
 90
        0
176
     1
 62
    18
420
        0
176
     1
 90
       50
176
     1
 90
        3
176
     1
 62
     5
420
      255
176
     1
290
     0
176
     1
 90
       50
176
     1
 90
       50
176
     1
 90
       50
176
     1
290
     0
176
     1
 90
       50
176
     1
 62
   256
176
     0
 40
1.0
176
     0
 90
        2
176
     1
  1
strokes_ogs.tif
176
     1
290
     0
176
     1
 40
1.0
176
     1
 40
1.0
176
     1
  0
VISUALSTYLE
  5
3A
102
{ACAD_REACTORS
330
29
102
}
330
29
100
AcDbVisualStyle
  2
Shades of Gray
 70
    23
177
     3
291
     0
 70
    58
 90
        2
176
     1
 90
        2
176
     1
 90
        3
176
     1
 90
        0
176
     1
 40
0.6
176
     1
 40
30.0
176
     1
 62
     7
420
 16777215
176
     1
 90
        2
176
     1
 90
        2
176
     1
 62
     7
176
     1
 62
     7
176
     1
 90
        1
176
     1
 90
        1
176
     1
 40
40.0
176
     1
 90
        8
176
     1
 62
     7
176
     1
 40
1.0
176
     1
 90
        1
176
     1
 90
        6
176
     1
 90
        2
176
     1
 62
     7
176
     1
 90
        3
176
     1
 90
        0
176
     1
 90
        0
176
     1
290
     0
176
     1
 90
        1
176
     1
 40
0.0
176
     1
 90
        0
176
     1
290
     0
176
     1
290
     1
176
     1
290
     1
176
     1
290
     0
176
     1
290
     0
176
     1
290
     0
176
     1
290
     0
176
     1
290
     0
176
     1
290
     0
176
     1
 90
       50
176
     1
 40
0.0
176
     1
 40
1.0
176
     1
 90
        0
176
     1
 62
    18
420
        0
176
     1
 90
       50
176
     1
 90
        3
176
     1
 62
     5
420
      255
176
     1
290
     0
176
     1
 90
       50
176
     1
 90
       50
176
     1
 90
       50
176
     1
290
     0
176
     1
 90
       50
176
     1
 62
   256
176
     0
 40
1.0
176
     0
 90
        2
176
     1
  1
strokes_ogs.tif
176
     1
290
     0
176
     1
 40
1.0
176
     1
 40
1.0
176
     1
  0
VISUALSTYLE
  5
3B
102
{ACAD_REACTORS
330
29
102
}
330
29
100
AcDbVisualStyle
  2
Sketchy
 70
    24
177
     3
291
     0
 70
    58
 90
        1
176
     1
 90
        2
176
     1
 90
        2
176
     1
 90
        0
176
     1
 40
0.6
176
     1
 40
30.0
176
     1
 62
     7
420
 16777215
176
     1
 90
        2
176
     1
 90
        2
176
     1
 62
     7
176
     1
 62
     7
176
     1
 90
        1
176
     1
 90
        1
176
     1
 40
40.0
176
     1
 90
       11
176
     1
 62
     7
176
     1
 40
1.0
176
     1
 90
        1
176
     1
 90
        6
176
     1
 90
        2
176
     1
 62
     7
176
     1
 90
        6
176
     1
 90
        0
176
     1
 90
        0
176
     1
290
     0
176
     1
 90
        1
176
     1
 40
0.0
176
     1
 90
        0
176
     1
290
     0
176
     1
290
     1
176
     1
290
     1
176
     1
290
     0
176
     1
290
     0
176
     1
290
     0
176
     1
290
     0
176
     1
290
     0
176
     1
290
     0
176
     1
 90
       50
176
     1
 40
0.0
176
     1
 40
1.0
176
     1
 90
        0
176
     1
 62
    18
420
        0
176
     1
 90
       50
176
     1
 90
        3
176
     1
 62
     5
420
      255
176
     1
290
     0
176
     1
 90
       50
176
     1
 90
       50
176
     1
 90
       50
176
     1
290
     0
176
     1
 90
       50
176
     1
 62
   256
176
     0
 40
1.0
176
     0
 90
        2
176
     1
  1
strokes_ogs.tif
176
     1
290
     0
176
     1
 40
1.0
176
     1
 40
1.0
176
     1
  0
VISUALSTYLE
  5
36
102
{ACAD_REACTORS
330
29
102
}
330
29
100
AcDbVisualStyle
  2
Thicken
 70
    13
177
     3
291
     1
 70
    58
 90
        2
176
     1
 90
        2
176
     1
 90
        0
176
     1
 90
        0
176
     1
 40
0.6
176
     1
 40
30.0
176
     1
 62
     7
420
 16777215
176
     1
 90
        1
176
     1
 90
        4
176
     1
 62
     7
176
     1
 62
   257
176
     1
 90
        1
176
     1
 90
        1
176
     1
 40
1.0
176
     1
 90
       12
176
     1
 62
     7
176
     1
 40
1.0
176
     1
 90
        1
176
     1
 90
        6
176
     1
 90
        2
176
     1
 62
     7
176
     1
 90
        5
176
     1
 90
        0
176
     1
 90
        0
176
     1
290
     0
176
     1
 90
        1
176
     1
 40
0.0
176
     1
 90
        0
176
     1
290
     0
176
     1
290
     1
176
     1
290
     1
176
     1
290
     0
176
     1
290
     0
176
     1
290
     0
176
     1
290
     0
176
     1
290
     0
176
     1
290
     0
176
     1
 90
       50
176
     1
 40
0.0
176
     1
 40
1.0
176
     1
 90
        0
176
     1
 62
    18
420
        0
176
     1
 90
       50
176
     1
 90
        3
176
     1
 62
     5
420
      255
176
     1
290
     0
176
     1
 90
       50
176
     1
 90
       50
176
     1
 90
       50
176
     1
290
     0
176
     1
 90
       50
176
     1
 62
   256
176
     0
 40
1.0
176
     0
 90
        2
176
     1
  1
strokes_ogs.tif
176
     1
290
     0
176
     1
 40
1.0
176
     1
 40
1.0
176
     1
  0
VISUALSTYLE
  5
30
102
{ACAD_REACTORS
330
29
102
}
330
29
100
AcDbVisualStyle
  2
Wireframe
 70
     5
177
     3
291
     0
 70
    58
 90
        0
176
     1
 90
        2
176
     1
 90
        0
176
     1
 90
        0
176
     1
 40
0.6
176
     1
 40
30.0
176
     1
 62
     7
420
 16777215
176
     1
 90
        1
176
     1
 90
        4
176
     1
 62
     7
176
     1
 62
   257
176
     1
 90
        1
176
     1
 90
        1
176
     1
 40
1.0
176
     1
 90
        0
176
     1
 62
   257
176
     1
 40
1.0
176
     1
 90
        1
176
     1
 90
        6
176
     1
 90
        2
176
     1
 62
     7
176
     1
 90
        3
176
     1
 90
        0
176
     1
 90
        0
176
     1
290
     0
176
     1
 90
        1
176
     1
 40
0.0
176
     1
 90
        0
176
     1
290
     0
176
     1
290
     1
176
     1
290
     1
176
     1
290
     0
176
     1
290
     0
176
     1
290
     0
176
     1
290
     0
176
     1
290
     0
176
     1
290
     0
176
     1
 90
       50
176
     1
 40
0.0
176
     1
 40
1.0
176
     1
 90
        0
176
     1
 62
    18
420
        0
176
     1
 90
       50
176
     1
 90
        3
176
     1
 62
     5
420
      255
176
     1
290
     0
176
     1
 90
       50
176
     1
 90
       50
176
     1
 90
       50
176
     1
290
     0
176
     1
 90
       50
176
     1
 62
   256
176
     0
 40
1.0
176
     0
 90
        2
176
     1
  1
strokes_ogs.tif
176
     1
290
     0
176
     1
 40
1.0
176
     1
 40
1.0
176
     1
  0
VISUALSTYLE
  5
3C
102
{ACAD_REACTORS
330
29
102
}
330
29
100
AcDbVisualStyle
  2
X-Ray
 70
    25
177
     3
291
     0
 70
    58
 90
        2
176
     1
 90
        2
176
     1
 90
        1
176
     1
 90
        1
176
     1
 40
0.5
176
     1
 40
30.0
176
     1
 62
     7
420
 16777215
176
     1
 90
        1
176
     1
 90
        0
176
     1
 62
     7
176
     1
 62
   257
176
     1
 90
        1
176
     1
 90
        1
176
     1
 40
1.0
176
     1
 90
        8
176
     1
 62
     7
176
     1
 40
1.0
176
     1
 90
        1
176
     1
 90
        6
176
     1
 90
        2
176
     1
 62
     7
176
     1
 90
        3
176
     1
 90
        0
176
     1
 90
        0
176
     1
290
     0
176
     1
 90
       13
176
     1
 40
0.0
176
     1
 90
        0
176
     1
290
     0
176
     1
290
     1
176
     1
290
     1
176
     1
290
     0
176
     1
290
     0
176
     1
290
     0
176
     1
290
     0
176
     1
290
     0
176
     1
290
     0
176
     1
 90
       50
176
     1
 40
0.0
176
     1
 40
1.0
176
     1
 90
        0
176
     1
 62
    18
420
        0
176
     1
 90
       50
176
     1
 90
        3
176
     1
 62
     5
420
      255
176
     1
290
     0
176
     1
 90
       50
176
     1
 90
       50
176
     1
 90
       50
176
     1
290
     0
176
     1
 90
       50
176
     1
 62
   256
176
     0
 40
1.0
176
     0
 90
        2
176
     1
  1
strokes_ogs.tif
176
     1
290
     0
176
     1
 40
1.0
176
     1
 40
1.0
176
     1
  0
DICTIONARYVAR
  5
81
102
{ACAD_REACTORS
330
7C
102
}
330
7C
100
DictionaryVariables
280
     0
  1
1:1
  0
DICTIONARYVAR
  5
7E
102
{ACAD_REACTORS
330
7C
102
}
330
7C
100
DictionaryVariables
280
     0
  1
STANDARD
  0
DICTIONARYVAR
  5
7D
102
{ACAD_REACTORS
330
7C
102
}
330
7C
100
DictionaryVariables
280
     0
  1
STANDARD
  0
DICTIONARYVAR
  5
7F
102
{ACAD_REACTORS
330
7C
102
}
330
7C
100
DictionaryVariables
280
     0
  1
Imperial24
  0
DICTIONARYVAR
  5
80
102
{ACAD_REACTORS
330
7C
102
}
330
7C
100
DictionaryVariables
280
     0
  1
Imperial24
  0
XRECORD
  5
2D2
102
{ACAD_REACTORS
330
2CE
102
}
330
2CE
100
AcDbXrecord
280
     1
  1
BUILDING_ID
  1
Progetto per test valvole
  1
FLOOR_ID
  1
694395
  0
XRECORD
  5
2D0
102
{ACAD_REACTORS
330
2CE
102
}
330
2CE
100
AcDbXrecord
280
     1
  1
-2001160
  1
Apparecchi idraulici
  0
XRECORD
  5
2D1
102
{ACAD_REACTORS
330
2CE
102
}
330
2CE
100
AcDbXrecord
280
     1
  1
790271
  1
Body
  0
XRECORD
  5
2CF
102
{ACAD_REACTORS
330
2CE
102
}
330
2CE
100
AcDbXrecord
280
     1
  1
859151
  1
Automatic flow rate regulator valve_Caleffi_121 DN15 : 1/2''
  0
DICTIONARY
  5
1A
330
19
100
AcDbDictionary
280
     1
281
     1
  3
BUMPTILE
360
1C
  3
DIFFUSETILE
360
1B
  3
OPACITYTILE
360
1F
  3
REFLECTIONTILE
360
1E
  3
REFRACTIONTILE
360
20
  3
SPECULARTILE
360
1D
  0
DICTIONARY
  5
12
330
11
100
AcDbDictionary
280
     1
281
     1
  3
BUMPTILE
360
14
  3
DIFFUSETILE
360
13
  3
OPACITYTILE
360
17
  3
REFLECTIONTILE
360
16
  3
REFRACTIONTILE
360
18
  3
SPECULARTILE
360
15
  0
DICTIONARY
  5
22
330
21
100
AcDbDictionary
280
     1
281
     1
  3
BUMPTILE
360
24
  3
DIFFUSETILE
360
23
  3
OPACITYTILE
360
27
  3
REFLECTIONTILE
360
26
  3
REFRACTIONTILE
360
28
  3
SPECULARTILE
360
25
  0
DICTIONARY
  5
2D5
330
65
100
AcDbDictionary
280
     1
281
     1
  3
ACAD_ROUNDTRIP_2008_TABLESTYLE_CELLSTYLEMAP
360
2D6
  0
XRECORD
  5
1C
102
{ACAD_REACTORS
330
1A
102
}
330
1A
100
AcDbXrecord
280
     1
270
     1
271
     1
  0
XRECORD
  5
1B
102
{ACAD_REACTORS
330
1A
102
}
330
1A
100
AcDbXrecord
280
     1
270
     1
271
     1
  0
XRECORD
  5
1F
102
{ACAD_REACTORS
330
1A
102
}
330
1A
100
AcDbXrecord
280
     1
270
     1
271
     1
  0
XRECORD
  5
1E
102
{ACAD_REACTORS
330
1A
102
}
330
1A
100
AcDbXrecord
280
     1
270
     1
271
     1
  0
XRECORD
  5
20
102
{ACAD_REACTORS
330
1A
102
}
330
1A
100
AcDbXrecord
280
     1
270
     1
271
     1
  0
XRECORD
  5
1D
102
{ACAD_REACTORS
330
1A
102
}
330
1A
100
AcDbXrecord
280
     1
270
     1
271
     1
  0
XRECORD
  5
14
102
{ACAD_REACTORS
330
12
102
}
330
12
100
AcDbXrecord
280
     1
270
     1
271
     1
  0
XRECORD
  5
13
102
{ACAD_REACTORS
330
12
102
}
330
12
100
AcDbXrecord
280
     1
270
     1
271
     1
  0
XRECORD
  5
17
102
{ACAD_REACTORS
330
12
102
}
330
12
100
AcDbXrecord
280
     1
270
     1
271
     1
  0
XRECORD
  5
16
102
{ACAD_REACTORS
330
12
102
}
330
12
100
AcDbXrecord
280
     1
270
     1
271
     1
  0
XRECORD
  5
18
102
{ACAD_REACTORS
330
12
102
}
330
12
100
AcDbXrecord
280
     1
270
     1
271
     1
  0
XRECORD
  5
15
102
{ACAD_REACTORS
330
12
102
}
330
12
100
AcDbXrecord
280
     1
270
     1
271
     1
  0
XRECORD
  5
24
102
{ACAD_REACTORS
330
22
102
}
330
22
100
AcDbXrecord
280
     1
270
     1
271
     1
  0
XRECORD
  5
23
102
{ACAD_REACTORS
330
22
102
}
330
22
100
AcDbXrecord
280
     1
270
     1
271
     1
  0
XRECORD
  5
27
102
{ACAD_REACTORS
330
22
102
}
330
22
100
AcDbXrecord
280
     1
270
     1
271
     1
  0
XRECORD
  5
26
102
{ACAD_REACTORS
330
22
102
}
330
22
100
AcDbXrecord
280
     1
270
     1
271
     1
  0
XRECORD
  5
28
102
{ACAD_REACTORS
330
22
102
}
330
22
100
AcDbXrecord
280
     1
270
     1
271
     1
  0
XRECORD
  5
25
102
{ACAD_REACTORS
330
22
102
}
330
22
100
AcDbXrecord
280
     1
270
     1
271
     1
  0
CELLSTYLEMAP
  5
2D6
102
{ACAD_REACTORS
330
2D5
102
}
330
2D5
100
AcDbCellStyleMap
 90
        3
300
CELLSTYLE
  1
TABLEFORMAT_BEGIN
 90
        5
170
     1
 91
        0
 92
    32768
 62
   257
 93
        1
300
CONTENTFORMAT
  1
CONTENTFORMAT_BEGIN
 90
        0
 91
        0
 92
      512
 93
        0
300

 40
0.0
140
1.0
 94
        5
 62
     0
340
55
144
0.25
309
CONTENTFORMAT_END
171
     0
 94
        0
309
TABLEFORMAT_END
  1
CELLSTYLE_BEGIN
 90
        1
 91
        1
300
_TITLE
309
CELLSTYLE_END
300
CELLSTYLE
  1
TABLEFORMAT_BEGIN
 90
        5
170
     1
 91
        0
 92
        0
 62
   257
 93
        1
300
CONTENTFORMAT
  1
CONTENTFORMAT_BEGIN
 90
        0
 91
        0
 92
      512
 93
        0
300

 40
0.0
140
1.0
 94
        5
 62
     0
340
55
144
0.18
309
CONTENTFORMAT_END
171
     0
 94
        0
309
TABLEFORMAT_END
  1
CELLSTYLE_BEGIN
 90
        2
 91
        1
300
_HEADER
309
CELLSTYLE_END
300
CELLSTYLE
  1
TABLEFORMAT_BEGIN
 90
        5
170
     1
 91
        0
 92
        0
 62
   257
 93
        1
300
CONTENTFORMAT
  1
CONTENTFORMAT_BEGIN
 90
        0
 91
        0
 92
      512
 93
        0
300

 40
0.0
140
1.0
 94
        2
 62
     0
340
55
144
0.18
309
CONTENTFORMAT_END
171
     0
 94
        0
309
TABLEFORMAT_END
  1
CELLSTYLE_BEGIN
 90
        3
 91
        2
300
_DATA
309
CELLSTYLE_END
  0
ENDSEC
  0
EOF
