  0
SECTION
  2
HEADER
  9
$ACADVER
  1
AC1027
  9
$ACADMAINTVER
 70
    20
  9
$DWGCODEPAGE
  3
ANSI_1252
  9
$REQUIREDVERSIONS
160
                 0
  9
$INSBASE
 10
0.0
 20
0.0
 30
0.0
  9
$EXTMIN
 10
675.6664074431879
 20
1770.245878720053
 30
-0.00000001
  9
$EXTMAX
 10
1103.114353953096
 20
2038.563700103275
 30
0.00000001
  9
$LIMMIN
 10
0.0
 20
0.0
  9
$LIMMAX
 10
12.0
 20
9.0
  9
$ORTHOMODE
 70
     0
  9
$REGENMODE
 70
     1
  9
$FILLMODE
 70
     1
  9
$QTEXTMODE
 70
     0
  9
$MIRRTEXT
 70
     0
  9
$LTSCALE
 40
1.0
  9
$ATTMODE
 70
     1
  9
$TEXTSIZE
 40
0.2
  9
$TRACEWID
 40
0.05
  9
$TEXTSTYLE
  7
Standard
  9
$CLAYER
  8
0
  9
$CELTYPE
  6
ByLayer
  9
$CECOLOR
 62
   256
  9
$CELTSCALE
 40
1.0
  9
$DISPSILH
 70
     0
  9
$DIMSCALE
 40
1.0
  9
$DIMASZ
 40
0.18
  9
$DIMEXO
 40
0.0625
  9
$DIMDLI
 40
0.38
  9
$DIMRND
 40
0.0
  9
$DIMDLE
 40
0.0
  9
$DIMEXE
 40
0.18
  9
$DIMTP
 40
0.0
  9
$DIMTM
 40
0.0
  9
$DIMTXT
 40
0.18
  9
$DIMCEN
 40
0.09
  9
$DIMTSZ
 40
0.0
  9
$DIMTOL
 70
     0
  9
$DIMLIM
 70
     0
  9
$DIMTIH
 70
     1
  9
$DIMTOH
 70
     1
  9
$DIMSE1
 70
     0
  9
$DIMSE2
 70
     0
  9
$DIMTAD
 70
     0
  9
$DIMZIN
 70
     0
  9
$DIMBLK
  1

  9
$DIMASO
 70
     1
  9
$DIMSHO
 70
     1
  9
$DIMPOST
  1

  9
$DIMAPOST
  1

  9
$DIMALT
 70
     0
  9
$DIMALTD
 70
     2
  9
$DIMALTF
 40
25.4
  9
$DIMLFAC
 40
1.0
  9
$DIMTOFL
 70
     0
  9
$DIMTVP
 40
0.0
  9
$DIMTIX
 70
     0
  9
$DIMSOXD
 70
     0
  9
$DIMSAH
 70
     0
  9
$DIMBLK1
  1

  9
$DIMBLK2
  1

  9
$DIMSTYLE
  2
Standard
  9
$DIMCLRD
 70
     0
  9
$DIMCLRE
 70
     0
  9
$DIMCLRT
 70
     0
  9
$DIMTFAC
 40
1.0
  9
$DIMGAP
 40
0.09
  9
$DIMJUST
 70
     0
  9
$DIMSD1
 70
     0
  9
$DIMSD2
 70
     0
  9
$DIMTOLJ
 70
     1
  9
$DIMTZIN
 70
     0
  9
$DIMALTZ
 70
     0
  9
$DIMALTTZ
 70
     0
  9
$DIMUPT
 70
     0
  9
$DIMDEC
 70
     4
  9
$DIMTDEC
 70
     4
  9
$DIMALTU
 70
     2
  9
$DIMALTTD
 70
     2
  9
$DIMTXSTY
  7
Standard
  9
$DIMAUNIT
 70
     0
  9
$DIMADEC
 70
     0
  9
$DIMALTRND
 40
0.0
  9
$DIMAZIN
 70
     0
  9
$DIMDSEP
 70
    46
  9
$DIMATFIT
 70
     3
  9
$DIMFRAC
 70
     0
  9
$DIMLDRBLK
  1

  9
$DIMLUNIT
 70
     2
  9
$DIMLWD
 70
    -2
  9
$DIMLWE
 70
    -2
  9
$DIMTMOVE
 70
     0
  9
$DIMFXL
 40
1.0
  9
$DIMFXLON
 70
     0
  9
$DIMJOGANG
 40
0.7853981633974483
  9
$DIMTFILL
 70
     0
  9
$DIMTFILLCLR
 70
     0
  9
$DIMARCSYM
 70
     0
  9
$DIMLTYPE
  6

  9
$DIMLTEX1
  6

  9
$DIMLTEX2
  6

  9
$DIMTXTDIRECTION
 70
     0
  9
$LUNITS
 70
     2
  9
$LUPREC
 70
     4
  9
$SKETCHINC
 40
0.1
  9
$FILLETRAD
 40
0.0
  9
$AUNITS
 70
     0
  9
$AUPREC
 70
     0
  9
$MENU
  1
.
  9
$ELEVATION
 40
0.0
  9
$PELEVATION
 40
0.0
  9
$THICKNESS
 40
0.0
  9
$LIMCHECK
 70
     0
  9
$CHAMFERA
 40
0.0
  9
$CHAMFERB
 40
0.0
  9
$CHAMFERC
 40
0.0
  9
$CHAMFERD
 40
0.0
  9
$SKPOLY
 70
     0
  9
$TDCREATE
 40
2457540.425233843
  9
$TDUCREATE
 40
2457540.341900509
  9
$TDUPDATE
 40
2457540.425233843
  9
$TDUUPDATE
 40
2457540.341900509
  9
$TDINDWG
 40
0.0000128588
  9
$TDUSRTIMER
 40
0.0000128588
  9
$USRTIMER
 70
     1
  9
$ANGBASE
 50
0.0
  9
$ANGDIR
 70
     0
  9
$PDMODE
 70
     0
  9
$PDSIZE
 40
0.0
  9
$PLINEWID
 40
0.0
  9
$SPLFRAME
 70
     0
  9
$SPLINETYPE
 70
     6
  9
$SPLINESEGS
 70
     8
  9
$HANDSEED
  5
2AD
  9
$SURFTAB1
 70
     6
  9
$SURFTAB2
 70
     6
  9
$SURFTYPE
 70
     6
  9
$SURFU
 70
     6
  9
$SURFV
 70
     6
  9
$UCSBASE
  2

  9
$UCSNAME
  2

  9
$UCSORG
 10
0.0
 20
0.0
 30
0.0
  9
$UCSXDIR
 10
1.0
 20
0.0
 30
0.0
  9
$UCSYDIR
 10
0.0
 20
1.0
 30
0.0
  9
$UCSORTHOREF
  2

  9
$UCSORTHOVIEW
 70
     0
  9
$UCSORGTOP
 10
0.0
 20
0.0
 30
0.0
  9
$UCSORGBOTTOM
 10
0.0
 20
0.0
 30
0.0
  9
$UCSORGLEFT
 10
0.0
 20
0.0
 30
0.0
  9
$UCSORGRIGHT
 10
0.0
 20
0.0
 30
0.0
  9
$UCSORGFRONT
 10
0.0
 20
0.0
 30
0.0
  9
$UCSORGBACK
 10
0.0
 20
0.0
 30
0.0
  9
$PUCSBASE
  2

  9
$PUCSNAME
  2

  9
$PUCSORG
 10
0.0
 20
0.0
 30
0.0
  9
$PUCSXDIR
 10
1.0
 20
0.0
 30
0.0
  9
$PUCSYDIR
 10
0.0
 20
1.0
 30
0.0
  9
$PUCSORTHOREF
  2

  9
$PUCSORTHOVIEW
 70
     0
  9
$PUCSORGTOP
 10
0.0
 20
0.0
 30
0.0
  9
$PUCSORGBOTTOM
 10
0.0
 20
0.0
 30
0.0
  9
$PUCSORGLEFT
 10
0.0
 20
0.0
 30
0.0
  9
$PUCSORGRIGHT
 10
0.0
 20
0.0
 30
0.0
  9
$PUCSORGFRONT
 10
0.0
 20
0.0
 30
0.0
  9
$PUCSORGBACK
 10
0.0
 20
0.0
 30
0.0
  9
$USERI1
 70
     0
  9
$USERI2
 70
     0
  9
$USERI3
 70
     0
  9
$USERI4
 70
     0
  9
$USERI5
 70
     0
  9
$USERR1
 40
0.0
  9
$USERR2
 40
0.0
  9
$USERR3
 40
0.0
  9
$USERR4
 40
0.0
  9
$USERR5
 40
0.0
  9
$WORLDVIEW
 70
     1
  9
$SHADEDGE
 70
     3
  9
$SHADEDIF
 70
    70
  9
$TILEMODE
 70
     1
  9
$MAXACTVP
 70
    64
  9
$PINSBASE
 10
0.0
 20
0.0
 30
0.0
  9
$PLIMCHECK
 70
     0
  9
$PEXTMIN
 10
1.000000000000000E+20
 20
1.000000000000000E+20
 30
1.000000000000000E+20
  9
$PEXTMAX
 10
-1.000000000000000E+20
 20
-1.000000000000000E+20
 30
-1.000000000000000E+20
  9
$PLIMMIN
 10
0.0
 20
0.0
  9
$PLIMMAX
 10
12.0
 20
9.0
  9
$UNITMODE
 70
     0
  9
$VISRETAIN
 70
     1
  9
$PLINEGEN
 70
     0
  9
$PSLTSCALE
 70
     1
  9
$TREEDEPTH
 70
  3020
  9
$CMLSTYLE
  2
Standard
  9
$CMLJUST
 70
     0
  9
$CMLSCALE
 40
1.0
  9
$PROXYGRAPHICS
 70
     1
  9
$MEASUREMENT
 70
     1
  9
$CELWEIGHT
370
    -1
  9
$ENDCAPS
280
     0
  9
$JOINSTYLE
280
     0
  9
$LWDISPLAY
290
     0
  9
$INSUNITS
 70
     4
  9
$HYPERLINKBASE
  1

  9
$STYLESHEET
  1

  9
$XEDIT
290
     1
  9
$CEPSNTYPE
380
     0
  9
$PSTYLEMODE
290
     1
  9
$FINGERPRINTGUID
  2
{043AC1D5-F502-48DC-AF61-1BF52DDBA92A}
  9
$VERSIONGUID
  2
{36522BA5-CF6C-4F79-A75F-632A58834AB9}
  9
$EXTNAMES
290
     1
  9
$PSVPSCALE
 40
0.0
  9
$OLESTARTUP
290
     0
  9
$SORTENTS
280
   127
  9
$INDEXCTL
280
     0
  9
$HIDETEXT
280
     1
  9
$XCLIPFRAME
280
     2
  9
$HALOGAP
280
     0
  9
$OBSCOLOR
 70
   257
  9
$OBSLTYPE
280
     0
  9
$INTERSECTIONDISPLAY
280
     0
  9
$INTERSECTIONCOLOR
 70
   257
  9
$DIMASSOC
280
     2
  9
$PROJECTNAME
  1

  9
$CAMERADISPLAY
290
     0
  9
$LENSLENGTH
 40
50.0
  9
$CAMERAHEIGHT
 40
0.0
  9
$STEPSPERSEC
 40
2.0
  9
$STEPSIZE
 40
6.0
  9
$3DDWFPREC
 40
2.0
  9
$PSOLWIDTH
 40
0.25
  9
$PSOLHEIGHT
 40
4.0
  9
$LOFTANG1
 40
1.570796326794896
  9
$LOFTANG2
 40
1.570796326794896
  9
$LOFTMAG1
 40
0.0
  9
$LOFTMAG2
 40
0.0
  9
$LOFTPARAM
 70
     7
  9
$LOFTNORMALS
280
     1
  9
$LATITUDE
 40
37.795
  9
$LONGITUDE
 40
-122.394
  9
$NORTHDIRECTION
 40
0.0
  9
$TIMEZONE
 70
 -8000
  9
$LIGHTGLYPHDISPLAY
280
     1
  9
$TILEMODELIGHTSYNCH
280
     1
  9
$CMATERIAL
347
11
  9
$SOLIDHIST
280
     0
  9
$SHOWHIST
280
     1
  9
$DWFFRAME
280
     2
  9
$DGNFRAME
280
     0
  9
$REALWORLDSCALE
290
     1
  9
$INTERFERECOLOR
 62
     1
  9
$INTERFEREOBJVS
345
33
  9
$INTERFEREVPVS
346
30
  9
$CSHADOW
280
     0
  9
$SHADOWPLANELOCATION
 40
0.0
  0
ENDSEC
  0
SECTION
  2
CLASSES
  0
CLASS
  1
ACDBDICTIONARYWDFLT
  2
AcDbDictionaryWithDefault
  3
ObjectDBX Classes
 90
        0
 91
        1
280
     0
281
     0
  0
CLASS
  1
MATERIAL
  2
AcDbMaterial
  3
ObjectDBX Classes
 90
     1153
 91
        3
280
     0
281
     0
  0
CLASS
  1
VISUALSTYLE
  2
AcDbVisualStyle
  3
ObjectDBX Classes
 90
     4095
 91
       24
280
     0
281
     0
  0
CLASS
  1
SCALE
  2
AcDbScale
  3
ObjectDBX Classes
 90
     1153
 91
       17
280
     0
281
     0
  0
CLASS
  1
TABLESTYLE
  2
AcDbTableStyle
  3
ObjectDBX Classes
 90
     4095
 91
        1
280
     0
281
     0
  0
CLASS
  1
MLEADERSTYLE
  2
AcDbMLeaderStyle
  3
ACDB_MLEADERSTYLE_CLASS
 90
     4095
 91
        1
280
     0
281
     0
  0
CLASS
  1
ACDBSECTIONVIEWSTYLE
  2
AcDbSectionViewStyle
  3
ObjectDBX Classes
 90
     1025
 91
        1
280
     0
281
     0
  0
CLASS
  1
ACDBDETAILVIEWSTYLE
  2
AcDbDetailViewStyle
  3
ObjectDBX Classes
 90
     1025
 91
        1
280
     0
281
     0
  0
CLASS
  1
RASTERVARIABLES
  2
AcDbRasterVariables
  3
ISM
 90
        0
 91
        1
280
     0
281
     0
  0
CLASS
  1
DICTIONARYVAR
  2
AcDbDictionaryVar
  3
ObjectDBX Classes
 90
        0
 91
        5
280
     0
281
     0
  0
CLASS
  1
CELLSTYLEMAP
  2
AcDbCellStyleMap
  3
ObjectDBX Classes
 90
     1152
 91
        2
280
     0
281
     0
  0
CLASS
  1
SORTENTSTABLE
  2
AcDbSortentsTable
  3
ObjectDBX Classes
 90
        0
 91
        1
280
     0
281
     0
  0
ENDSEC
  0
SECTION
  2
TABLES
  0
TABLE
  2
VPORT
  5
8
330
0
100
AcDbSymbolTable
 70
     1
  0
VPORT
  5
57
330
8
100
AcDbSymbolTableRecord
100
AcDbViewportTableRecord
  2
*Active
 70
     0
 10
0.0
 20
0.0
 11
1.0
 21
1.0
 12
889.3903806981423
 22
1904.404789411664
 13
0.0
 23
0.0
 14
1.0
 24
1.0
 15
0.0
 25
0.0
 16
0.0
 26
0.0
 36
1.0
 17
0.0
 27
0.0
 37
0.0
 40
268.3178213832221
 41
1.593065806461698
 42
50.0
 43
0.0
 44
0.0
 50
0.0
 51
0.0
 71
     0
 72
  1000
 73
     1
 74
     1
 75
     0
 76
     0
 77
     0
 78
     0
281
     0
 65
     1
110
0.0
120
0.0
130
0.0
111
1.0
121
0.0
131
0.0
112
0.0
122
1.0
132
0.0
 79
     0
146
0.0
 60
     3
 61
     5
292
     1
282
     1
141
0.0
142
0.0
 63
   250
421
  3355443
  0
ENDTAB
  0
TABLE
  2
LTYPE
  5
5
330
0
100
AcDbSymbolTable
 70
     3
  0
LTYPE
  5
5B
330
5
100
AcDbSymbolTableRecord
100
AcDbLinetypeTableRecord
  2
ByBlock
 70
     0
  3

 72
    65
 73
     0
 40
0.0
  0
LTYPE
  5
5C
330
5
100
AcDbSymbolTableRecord
100
AcDbLinetypeTableRecord
  2
ByLayer
 70
     0
  3

 72
    65
 73
     0
 40
0.0
  0
LTYPE
  5
5D
330
5
100
AcDbSymbolTableRecord
100
AcDbLinetypeTableRecord
  2
Continuous
 70
     0
  3
Solid line
 72
    65
 73
     0
 40
0.0
  0
LTYPE
  5
69
330
5
100
AcDbSymbolTableRecord
100
AcDbLinetypeTableRecord
  2
PHANTOM2
 70
     0
  3
___ _ _ ___ _ _ ___ _ _ ___ _ _
 72
    65
 73
     6
 40
1.25
 49
0.625
 74
     0
 49
-0.125
 74
     0
 49
0.125
 74
     0
 49
-0.125
 74
     0
 49
0.125
 74
     0
 49
-0.125
 74
     0
  0
LTYPE
  5
86
330
5
100
AcDbSymbolTableRecord
100
AcDbLinetypeTableRecord
  2
Nascosto 1_5 mm
 70
     0
  3

 72
    65
 73
     2
 40
2.2
 49
1.5
 74
     0
 49
-0.7000000000000001
 74
     0
  0
ENDTAB
  0
TABLE
  2
LAYER
  5
2
330
0
100
AcDbSymbolTable
 70
     4
  0
LAYER
  5
54
330
2
100
AcDbSymbolTableRecord
100
AcDbLayerTableRecord
  2
0
 70
     0
 62
     7
  6
Continuous
370
    -3
390
F
347
21
348
0
  0
LAYER
  5
85
330
2
100
AcDbSymbolTableRecord
100
AcDbLayerTableRecord
  2
P-SANR-FIXT
 70
     0
 62
     6
  6
Continuous
370
    18
390
F
347
21
348
0
  0
LAYER
  5
88
330
2
100
AcDbSymbolTableRecord
100
AcDbLayerTableRecord
  2
M-PIPE
 70
     0
 62
     3
  6
Continuous
370
    18
390
F
347
21
348
0
  0
ENDTAB
  0
TABLE
  2
STYLE
  5
3
330
0
100
AcDbSymbolTable
 70
     2
  0
STYLE
  5
55
330
3
100
AcDbSymbolTableRecord
100
AcDbTextStyleTableRecord
  2
Standard
 70
     0
 40
0.0
 41
1.0
 50
0.0
 71
     0
 42
0.2
  3
txt
  4

  0
STYLE
  5
5A
330
3
100
AcDbSymbolTableRecord
100
AcDbTextStyleTableRecord
  2
Annotative
 70
     0
 40
0.0
 41
1.0
 50
0.0
 71
     0
 42
0.2
  3
txt
  4

1001
AcadAnnotative
1000
AnnotativeData
1002
{
1070
     1
1070
     1
1002
}
  0
ENDTAB
  0
TABLE
  2
VIEW
  5
6
330
0
100
AcDbSymbolTable
 70
     0
  0
ENDTAB
  0
TABLE
  2
UCS
  5
7
330
0
100
AcDbSymbolTable
 70
     0
  0
ENDTAB
  0
TABLE
  2
APPID
  5
9
330
0
100
AcDbSymbolTable
 70
     3
  0
APPID
  5
56
330
9
100
AcDbSymbolTableRecord
100
AcDbRegAppTableRecord
  2
ACAD
 70
     0
  0
APPID
  5
5E
330
9
100
AcDbSymbolTableRecord
100
AcDbRegAppTableRecord
  2
AcadAnnotative
 70
     0
  0
APPID
  5
79
330
9
100
AcDbSymbolTableRecord
100
AcDbRegAppTableRecord
  2
REVIT
 70
     0
  0
ENDTAB
  0
TABLE
  2
DIMSTYLE
  5
A
330
0
100
AcDbSymbolTable
 70
     2
100
AcDbDimStyleTable
 71
     0
  0
DIMSTYLE
105
58
330
A
100
AcDbSymbolTableRecord
100
AcDbDimStyleTableRecord
  2
Standard
 70
     0
340
55
  0
DIMSTYLE
105
59
330
A
100
AcDbSymbolTableRecord
100
AcDbDimStyleTableRecord
  2
Annotative
 70
     0
340
55
1001
AcadAnnotative
1000
AnnotativeData
1002
{
1070
     1
1070
     1
1002
}
  0
ENDTAB
  0
TABLE
  2
BLOCK_RECORD
  5
1
330
0
100
AcDbSymbolTable
 70
     4
  0
BLOCK_RECORD
  5
71
102
{ACAD_XDICTIONARY
360
2A8
102
}
330
1
100
AcDbSymbolTableRecord
100
AcDbBlockTableRecord
  2
*Model_Space
340
74
 70
     0
280
     1
281
     0
  0
BLOCK_RECORD
  5
6D
330
1
100
AcDbSymbolTableRecord
100
AcDbBlockTableRecord
  2
*Paper_Space
340
70
 70
     0
280
     1
281
     0
  0
BLOCK_RECORD
  5
75
330
1
100
AcDbSymbolTableRecord
100
AcDbBlockTableRecord
  2
*Paper_Space0
340
78
 70
     0
280
     1
281
     0
  0
BLOCK_RECORD
  5
87
330
1
100
AcDbSymbolTableRecord
100
AcDbBlockTableRecord
  2
Automatic flow rate regulator valve_Caleffi_121 DN15 - 1_2__-859151-Est - Idraulica
340
0
102
{BLKREFS
331
12F
102
}
 70
     0
280
     1
281
     0
  0
BLOCK_RECORD
  5
130
330
1
100
AcDbSymbolTableRecord
100
AcDbBlockTableRecord
  2
Automatic flow rate regulator valve_Caleffi_121 DN15 - 1_2__-V1-Est - Idraulica
340
0
102
{BLKREFS
331
210
102
}
 70
     0
280
     1
281
     0
  0
BLOCK_RECORD
  5
211
330
1
100
AcDbSymbolTableRecord
100
AcDbBlockTableRecord
  2
Automatic flow rate regulator valve_Caleffi_121 DN15 - 1_2__-V2-Est - Idraulica
340
0
102
{BLKREFS
331
2A1
102
}
 70
     0
280
     1
281
     0
  0
ENDTAB
  0
ENDSEC
  0
SECTION
  2
BLOCKS
  0
BLOCK
  5
72
330
71
100
AcDbEntity
  8
0
100
AcDbBlockBegin
  2
*Model_Space
 70
     0
 10
0.0
 20
0.0
 30
0.0
  3
*Model_Space
  1

  0
ENDBLK
  5
73
330
71
100
AcDbEntity
  8
0
100
AcDbBlockEnd
  0
BLOCK
  5
6E
330
6D
100
AcDbEntity
 67
     1
  8
0
100
AcDbBlockBegin
  2
*Paper_Space
 70
     0
 10
0.0
 20
0.0
 30
0.0
  3
*Paper_Space
  1

  0
ENDBLK
  5
6F
330
6D
100
AcDbEntity
 67
     1
  8
0
100
AcDbBlockEnd
  0
BLOCK
  5
76
330
75
100
AcDbEntity
 67
     1
  8
0
100
AcDbBlockBegin
  2
*Paper_Space0
 70
     0
 10
0.0
 20
0.0
 30
0.0
  3
*Paper_Space0
  1

  0
ENDBLK
  5
77
330
75
100
AcDbEntity
 67
     1
  8
0
100
AcDbBlockEnd
  0
BLOCK
  5
12D
330
87
100
AcDbEntity
  8
0
100
AcDbBlockBegin
  2
Automatic flow rate regulator valve_Caleffi_121 DN15 - 1_2__-859151-Est - Idraulica
 70
     0
 10
0.0
 20
0.0
 30
0.0
  3
Automatic flow rate regulator valve_Caleffi_121 DN15 - 1_2__-859151-Est - Idraulica
  1

  0
LINE
  5
89
330
87
100
AcDbEntity
  8
M-PIPE
100
AcDbLine
 10
705.1069401184057
 20
1925.576529003346
 30
0.0
 11
703.2224040220801
 21
1923.995215459979
 31
0.0
1001
REVIT
1002
{
1070
     3
1000
790271
1002
}
  0
LINE
  5
8A
330
87
100
AcDbEntity
  8
M-PIPE
100
AcDbLine
 10
703.218752383095
 20
1923.992151371054
 30
0.0
 11
703.1918290106084
 21
1923.96955997913
 31
0.0
1001
REVIT
1002
{
1070
     3
1000
790271
1002
}
  0
LINE
  5
8B
330
87
100
AcDbEntity
  8
M-PIPE
100
AcDbLine
 10
719.2615192527648
 20
1904.818448901165
 30
0.0
 11
721.1766303605619
 21
1906.425417925381
 31
0.0
1001
REVIT
1002
{
1070
     3
1000
790271
1002
}
  0
LINE
  5
8C
330
87
100
AcDbEntity
  8
M-PIPE
100
AcDbLine
 10
703.1918290106082
 20
1923.96955997913
 30
0.0
 11
703.130200593892
 21
1923.265143952727
 31
0.0
1001
REVIT
1002
{
1070
     3
1000
790271
1002
}
  0
LINE
  5
8D
330
87
100
AcDbEntity
  8
M-PIPE
100
AcDbLine
 10
718.557103226362
 20
1904.880077317881
 30
0.0
 11
719.2615192527649
 21
1904.818448901165
 31
0.0
1001
REVIT
1002
{
1070
     3
1000
790271
1002
}
  0
LINE
  5
8E
330
87
100
AcDbEntity
  8
M-PIPE
100
AcDbLine
 10
710.8436519101257
 20
1914.072610635303
 30
0.0
 11
703.1302005938905
 21
1923.265143952726
 31
0.0
1001
REVIT
1002
{
1070
     3
1000
790271
1002
}
  0
LINE
  5
8F
330
87
100
AcDbEntity
  8
M-PIPE
100
AcDbLine
 10
718.5571032263606
 20
1904.88007731788
 30
0.0
 11
710.8436519101257
 21
1914.072610635303
 31
0.0
1001
REVIT
1002
{
1070
     3
1000
790271
1002
}
  0
LINE
  5
90
330
87
100
AcDbEntity
  8
M-PIPE
100
AcDbLine
 10
703.1918290106069
 20
1923.969559979129
 30
0.0
 11
711.2266741316851
 21
1914.394004440147
 31
0.0
1001
REVIT
1002
{
1070
     3
1000
790271
1002
}
  0
LINE
  5
91
330
87
100
AcDbEntity
  8
M-PIPE
100
AcDbLine
 10
711.2266741316851
 20
1914.394004440147
 30
0.0
 11
719.2615192527633
 21
1904.818448901164
 31
0.0
1001
REVIT
1002
{
1070
     3
1000
790271
1002
}
  0
LINE
  5
92
330
87
100
AcDbEntity
  8
M-PIPE
100
AcDbLine
 10
707.5496608046893
 20
1911.30862391363
 30
0.0
 11
704.6571165610999
 21
1914.755823907665
 31
0.0
1001
REVIT
1002
{
1070
     3
1000
790271
1002
}
  0
LINE
  5
93
330
87
100
AcDbEntity
  8
M-PIPE
100
AcDbLine
 10
704.6571165610999
 20
1914.755823907665
 30
0.0
 11
701.7645723175101
 21
1918.203023901701
 31
0.0
1001
REVIT
1002
{
1070
     3
1000
790271
1002
}
  0
LINE
  5
94
330
87
100
AcDbEntity
  8
M-PIPE
100
AcDbLine
 10
713.3347492918682
 20
1904.41422392556
 30
0.0
 11
710.4422050482789
 21
1907.861423919595
 31
0.0
1001
REVIT
1002
{
1070
     3
1000
790271
1002
}
  0
LINE
  5
95
330
87
100
AcDbEntity
  8
M-PIPE
100
AcDbLine
 10
710.4422050482789
 20
1907.861423919595
 30
0.0
 11
707.5496608046893
 21
1911.30862391363
 31
0.0
1001
REVIT
1002
{
1070
     3
1000
790271
1002
}
  0
LINE
  5
96
330
87
100
AcDbEntity
  8
M-PIPE
100
AcDbLine
 10
716.628740397339
 20
1907.178210647239
 30
0.0
 11
713.9505322615885
 21
1904.930927188315
 31
0.0
1001
REVIT
1002
{
1070
     3
1000
790271
1002
}
  0
SPLINE
  5
97
330
87
100
AcDbEntity
  8
M-PIPE
100
AcDbSpline
210
0.0
220
0.0
230
1.0
 70
    24
 71
     3
 72
     9
 73
     5
 74
     0
 42
0.000000001
 43
0.0000000001
 40
0.0
 40
0.0
 40
0.0
 40
0.0
 40
0.5
 40
1.0
 40
1.0
 40
1.0
 40
1.0
 10
713.9505322615885
 20
1904.930927188315
 30
0.0
 10
713.7517699499433
 20
1904.764145805922
 30
0.0
 10
713.4503771433465
 20
1904.511247213067
 30
0.0
 10
713.3412479701369
 20
1904.419676964076
 30
0.0
 10
713.3347492918789
 20
1904.414223925547
 30
0.0
1001
REVIT
1002
{
1070
     3
1000
790271
1002
}
  0
SPLINE
  5
98
330
87
100
AcDbEntity
  8
M-PIPE
100
AcDbSpline
210
0.0
220
0.0
230
1.0
 70
    24
 71
     3
 72
     9
 73
     5
 74
     0
 42
0.000000001
 43
0.0000000001
 40
0.0
 40
0.0
 40
0.0
 40
0.0
 40
0.5
 40
1.0
 40
1.0
 40
1.0
 40
1.0
 10
701.7645723175209
 20
1918.203023901688
 30
0.0
 10
701.7710709957716
 20
1918.208476940211
 30
0.0
 10
701.8802001689717
 20
1918.300047189194
 30
0.0
 10
702.1815929755693
 20
1918.55294578205
 30
0.0
 10
702.3803552872175
 20
1918.719727164446
 30
0.0
1001
REVIT
1002
{
1070
     3
1000
790271
1002
}
  0
LINE
  5
99
330
87
100
AcDbEntity
  8
M-PIPE
100
AcDbLine
 10
702.3803552872175
 20
1918.719727164446
 30
0.0
 11
705.058563422981
 21
1920.967010623381
 31
0.0
1001
REVIT
1002
{
1070
     3
1000
790271
1002
}
  0
SPLINE
  5
9A
330
87
100
AcDbEntity
  8
M-PIPE
100
AcDbSpline
210
0.0
220
0.0
230
1.0
 70
     8
 71
     3
 72
     9
 73
     5
 74
     0
 42
0.000000001
 43
0.0000000001
 40
0.0
 40
0.0
 40
0.0
 40
0.0
 40
0.5
 40
1.0
 40
1.0
 40
1.0
 40
1.0
 10
702.3803552872175
 20
1918.719727164446
 30
0.0
 10
702.6601840829235
 20
1917.982583110485
 30
0.0
 10
703.3194730909429
 20
1916.584788513728
 30
0.0
 10
704.1780249321777
 20
1915.339980939299
 30
0.0
 10
704.6571165610989
 20
1914.755823907666
 30
0.0
1001
REVIT
1002
{
1070
     3
1000
790271
1002
}
  0
SPLINE
  5
9B
330
87
100
AcDbEntity
  8
M-PIPE
100
AcDbSpline
210
0.0
220
0.0
230
1.0
 70
     8
 71
     3
 72
     9
 73
     5
 74
     0
 42
0.000000001
 43
0.0000000001
 40
0.0
 40
0.0
 40
0.0
 40
0.0
 40
0.5
 40
1.0
 40
1.0
 40
1.0
 40
1.0
 10
704.6571165610989
 20
1914.755823907666
 30
0.0
 10
705.1492055465318
 20
1914.182572953084
 30
0.0
 10
706.2260157341811
 20
1913.120905876622
 30
0.0
 10
707.4880903553982
 20
1912.228908465569
 30
0.0
 10
708.1654437743988
 20
1911.825327176395
 30
0.0
1001
REVIT
1002
{
1070
     3
1000
790271
1002
}
  0
LINE
  5
9C
330
87
100
AcDbEntity
  8
M-PIPE
100
AcDbLine
 10
708.1654437744031
 20
1911.825327176389
 30
0.0
 11
710.8436519101601
 21
1914.07261063531
 31
0.0
1001
REVIT
1002
{
1070
     3
1000
790271
1002
}
  0
SPLINE
  5
9D
330
87
100
AcDbEntity
  8
M-PIPE
100
AcDbSpline
210
0.0
220
0.0
230
1.0
 70
     8
 71
     3
 72
     9
 73
     5
 74
     0
 42
0.000000001
 43
0.0000000001
 40
0.0
 40
0.0
 40
0.0
 40
0.0
 40
0.5
 40
1.0
 40
1.0
 40
1.0
 40
1.0
 10
708.1654437744031
 20
1911.825327176389
 30
0.0
 10
708.4452725701112
 20
1911.088183122427
 30
0.0
 10
709.1045615781329
 20
1909.690388525663
 30
0.0
 10
709.9631134193657
 20
1908.445580951225
 30
0.0
 10
710.4422050482849
 20
1907.861423919587
 30
0.0
1001
REVIT
1002
{
1070
     3
1000
790271
1002
}
  0
SPLINE
  5
9E
330
87
100
AcDbEntity
  8
M-PIPE
100
AcDbSpline
210
0.0
220
0.0
230
1.0
 70
     8
 71
     3
 72
     9
 73
     5
 74
     0
 42
0.000000001
 43
0.0000000001
 40
0.0
 40
0.0
 40
0.0
 40
0.0
 40
0.5
 40
1.0
 40
1.0
 40
1.0
 40
1.0
 10
710.4422050482849
 20
1907.861423919587
 30
0.0
 10
710.9342940337218
 20
1907.288172965009
 30
0.0
 10
712.0111042213758
 20
1906.226505888551
 30
0.0
 10
713.2731788425909
 20
1905.334508477494
 30
0.0
 10
713.9505322615883
 20
1904.930927188315
 30
0.0
1001
REVIT
1002
{
1070
     3
1000
790271
1002
}
  0
LINE
  5
9F
330
87
100
AcDbEntity
  8
P-SANR-FIXT
100
AcDbLine
 10
697.7636245251856
 20
1967.668384925376
 30
0.0
 11
701.130509058327
 21
1973.499999999996
 31
0.0
  0
LINE
  5
A0
330
87
100
AcDbEntity
  8
P-SANR-FIXT
100
AcDbLine
 10
701.130509058327
 20
2026.499999999996
 30
0.0
 11
697.7636245251857
 21
2032.331615074615
 31
0.0
  0
LINE
  5
A1
330
87
100
AcDbEntity
  8
P-SANR-FIXT
100
AcDbLine
 10
701.130509058327
 20
1973.499999999995
 30
0.0
 11
706.466407443189
 21
1973.499999999995
 31
0.0
  0
LINE
  5
A2
330
87
100
AcDbEntity
  8
P-SANR-FIXT
100
AcDbLine
 10
706.466407443189
 20
2026.499999999996
 30
0.0
 11
701.130509058327
 21
2026.499999999996
 31
0.0
  0
LINE
  5
A3
330
87
100
AcDbEntity
  8
P-SANR-FIXT
100
AcDbLine
 10
706.466407443189
 20
1973.499999999996
 30
0.0
 11
708.4664074431891
 21
1975.999999999996
 31
0.0
  0
LINE
  5
A4
330
87
100
AcDbEntity
  8
P-SANR-FIXT
100
AcDbLine
 10
708.4664074431891
 20
2023.999999999996
 30
0.0
 11
706.466407443189
 21
2026.499999999996
 31
0.0
  0
LINE
  5
A5
330
87
100
AcDbEntity
  8
P-SANR-FIXT
100
AcDbLine
 10
708.4664074431891
 20
1975.999999999996
 30
0.0
 11
728.7155461544678
 21
1975.999999999996
 31
0.0
  0
LINE
  5
A6
330
87
100
AcDbEntity
  8
P-SANR-FIXT
100
AcDbLine
 10
738.8913394243449
 20
2023.999999999997
 30
0.0
 11
736.1664074431894
 21
2023.999999999997
 31
0.0
  0
LINE
  5
A7
330
87
100
AcDbEntity
  8
P-SANR-FIXT
100
AcDbLine
 10
715.1664074431894
 20
2023.999999999997
 30
0.0
 11
708.4664074431891
 21
2023.999999999997
 31
0.0
  0
LINE
  5
A8
330
87
100
AcDbEntity
  8
P-SANR-FIXT
100
AcDbLine
 10
739.5037600690264
 20
2016.999999999996
 30
0.0
 11
738.9332728167206
 21
2023.52069913191
 31
0.0
  0
LINE
  5
A9
330
87
100
AcDbEntity
  8
P-SANR-FIXT
100
AcDbLine
 10
738.917166126296
 20
2023.704799445888
 30
0.0
 11
738.8913394243449
 21
2023.999999999996
 31
0.0
  0
LINE
  5
AA
330
87
100
AcDbEntity
  8
P-SANR-FIXT
100
AcDbLine
 10
715.1664074431894
 20
2032.999999999996
 30
0.0
 11
715.1664074431894
 21
2029.852082282869
 31
0.0
  0
LINE
  5
AB
330
87
100
AcDbEntity
  8
P-SANR-FIXT
100
AcDbLine
 10
736.1664074431894
 20
2029.852082282869
 30
0.0
 11
736.1664074431894
 21
2032.999999999996
 31
0.0
  0
LINE
  5
AC
330
87
100
AcDbEntity
  8
P-SANR-FIXT
100
AcDbLine
 10
715.1664074431894
 20
2029.852082282869
 30
0.0
 11
715.1664074431894
 21
2023.999999999997
 31
0.0
  0
LINE
  5
AD
330
87
100
AcDbEntity
  8
P-SANR-FIXT
100
AcDbLine
 10
736.1664074431894
 20
2023.999999999997
 30
0.0
 11
736.1664074431894
 21
2029.852082282869
 31
0.0
  0
LINE
  5
AE
330
87
100
AcDbEntity
  8
P-SANR-FIXT
100
AcDbLine
 10
734.6664074431921
 20
2032.999999999996
 30
0.0
 11
734.6664074431921
 21
2034.999999999994
 31
0.0
  0
LINE
  5
AF
330
87
100
AcDbEntity
  8
P-SANR-FIXT
100
AcDbLine
 10
716.6664074431849
 20
2034.999999999994
 30
0.0
 11
716.6664074431849
 21
2032.999999999996
 31
0.0
  0
SPLINE
  5
B0
330
87
100
AcDbEntity
  8
P-SANR-FIXT
100
AcDbSpline
210
0.0
220
0.0
230
1.0
 70
     8
 71
     3
 72
    10
 73
     6
 74
     0
 42
0.000000001
 43
0.0000000001
 40
-1.0
 40
-1.0
 40
-1.0
 40
-1.0
 40
-0.6666666666666666
 40
-0.3333333333333333
 40
0.0
 40
0.0
 40
0.0
 40
0.0
 10
697.7636245251844
 20
2032.331615074614
 30
0.0
 10
698.871052087254
 20
2030.51783744384
 30
0.0
 10
700.3473691351396
 20
2026.902240392148
 30
0.0
 10
700.3257346534202
 20
2021.534187604528
 30
0.0
 10
698.8615632794822
 20
2017.953444618688
 30
0.0
 10
697.7636245251842
 20
2016.165807537305
 30
0.0
  0
SPLINE
  5
B1
330
87
100
AcDbEntity
  8
P-SANR-FIXT
100
AcDbSpline
210
0.0
220
0.0
230
1.0
 70
     8
 71
     3
 72
    10
 73
     6
 74
     0
 42
0.000000001
 43
0.0000000001
 40
-1.0
 40
-1.0
 40
-1.0
 40
-1.0
 40
-0.6666666666666666
 40
-0.3333333333333333
 40
0.0
 40
0.0
 40
0.0
 40
0.0
 10
697.7636245251842
 20
2016.165807537305
 30
0.0
 10
698.8710520872539
 20
2012.538252275756
 30
0.0
 10
700.3473691351396
 20
2005.307058172371
 30
0.0
 10
700.3257346534202
 20
1994.570952597132
 30
0.0
 10
698.8615632794823
 20
1987.409466625453
 30
0.0
 10
697.7636245251842
 20
1983.834192462685
 30
0.0
  0
SPLINE
  5
B2
330
87
100
AcDbEntity
  8
P-SANR-FIXT
100
AcDbSpline
210
0.0
220
0.0
230
1.0
 70
     8
 71
     3
 72
    10
 73
     6
 74
     0
 42
0.000000001
 43
0.0000000001
 40
-1.0
 40
-1.0
 40
-1.0
 40
-1.0
 40
-0.6666666666666666
 40
-0.3333333333333333
 40
0.0
 40
0.0
 40
0.0
 40
0.0
 10
697.7636245251842
 20
1983.834192462685
 30
0.0
 10
698.8615632794823
 20
1982.046555381301
 30
0.0
 10
700.3257346534202
 20
1978.465812395462
 30
0.0
 10
700.3473691351397
 20
1973.097759607842
 30
0.0
 10
698.8710520872539
 20
1969.48216255615
 30
0.0
 10
697.7636245251841
 20
1967.668384925376
 30
0.0
  0
LINE
  5
B3
330
87
100
AcDbEntity
  8
P-SANR-FIXT
100
AcDbLine
 10
701.1305090583256
 20
1973.499999999994
 30
0.0
 11
701.1305090583256
 21
2026.499999999995
 31
0.0
  0
LINE
  5
B4
330
87
100
AcDbEntity
  8
P-SANR-FIXT
100
AcDbLine
 10
706.4664074431878
 20
1973.499999999994
 30
0.0
 11
706.4664074431878
 21
2026.499999999995
 31
0.0
  0
LINE
  5
B5
330
87
100
AcDbEntity
  8
P-SANR-FIXT
100
AcDbLine
 10
708.4664074431876
 20
1975.999999999994
 30
0.0
 11
708.4664074431876
 21
2023.999999999996
 31
0.0
  0
LINE
  5
B6
330
87
100
AcDbEntity
  8
P-SANR-FIXT
100
AcDbLine
 10
738.8913394243433
 20
1980.70498786575
 30
0.0
 11
738.8913394243433
 21
2023.999999999996
 31
0.0
  0
SPLINE
  5
B7
330
87
100
AcDbEntity
  8
P-SANR-FIXT
100
AcDbSpline
210
0.0
220
0.0
230
1.0
 70
     8
 71
     3
 72
     9
 73
     5
 74
     0
 42
0.000000001
 43
0.0000000001
 40
-0.8750000000002964
 40
-0.8750000000002964
 40
-0.8750000000002964
 40
-0.8750000000002964
 40
-0.5
 40
0.0
 40
0.0
 40
0.0
 40
0.0
 10
739.6449621045664
 20
1982.10347956553
 30
0.0
 10
740.2391987677515
 20
1987.185107252785
 30
0.0
 10
741.0080595684348
 20
1998.945828040713
 30
0.0
 10
740.3356404044833
 20
2010.481591036539
 30
0.0
 10
739.4807788529574
 20
2016.999999999995
 30
0.0
  0
LINE
  5
B8
330
87
100
AcDbEntity
  8
P-SANR-FIXT
100
AcDbLine
 10
675.6664074431879
 20
2016.165807537305
 30
0.0
 11
675.6664074431879
 21
2032.331615074614
 31
0.0
  0
LINE
  5
B9
330
87
100
AcDbEntity
  8
P-SANR-FIXT
100
AcDbLine
 10
675.6664074431879
 20
1967.668384925376
 30
0.0
 11
675.6664074431879
 21
1983.834192462685
 31
0.0
  0
LINE
  5
BA
330
87
100
AcDbEntity
  8
P-SANR-FIXT
100
AcDbLine
 10
675.6664074431879
 20
1983.834192462685
 30
0.0
 11
675.6664074431879
 21
2016.165807537305
 31
0.0
  0
LINE
  5
BB
330
87
100
AcDbEntity
  8
P-SANR-FIXT
100
AcDbLine
 10
784.7508252767806
 20
2016.999999999995
 30
0.0
 11
739.4807788529574
 21
2016.999999999995
 31
0.0
  0
LINE
  5
BC
330
87
100
AcDbEntity
  8
P-SANR-FIXT
100
AcDbLine
 10
697.7636245251841
 20
1967.668384925376
 30
0.0
 11
675.6664074431879
 21
1967.668384925376
 31
0.0
  0
LINE
  5
BD
330
87
100
AcDbEntity
  8
P-SANR-FIXT
100
AcDbLine
 10
675.6664074431879
 20
2032.331615074614
 30
0.0
 11
697.7636245251844
 21
2032.331615074614
 31
0.0
  0
LINE
  5
BE
330
87
100
AcDbEntity
  8
P-SANR-FIXT
100
AcDbLine
 10
675.6664074431879
 20
2016.165807537305
 30
0.0
 11
697.7636245251842
 21
2016.165807537305
 31
0.0
  0
LINE
  5
BF
330
87
100
AcDbEntity
  8
P-SANR-FIXT
100
AcDbLine
 10
675.6664074431879
 20
1983.834192462685
 30
0.0
 11
697.7636245251842
 21
1983.834192462685
 31
0.0
  0
LINE
  5
C0
330
87
100
AcDbEntity
  8
P-SANR-FIXT
100
AcDbLine
 10
715.1664074431878
 20
2032.999999999995
 30
0.0
 11
736.1664074431878
 21
2032.999999999995
 31
0.0
  0
SPLINE
  5
C1
330
87
100
AcDbEntity
  8
P-SANR-FIXT
100
AcDbSpline
210
0.0
220
0.0
230
1.0
 70
     8
 71
     3
 72
    49
 73
    45
 74
     0
 42
0.000000001
 43
0.0000000001
 40
-1.0
 40
-1.0
 40
-1.0
 40
-1.0
 40
-0.9444444444444444
 40
-0.9166666666666666
 40
-0.8888888888888889
 40
-0.861111111111111
 40
-0.8333333333333332
 40
-0.8055555555555555
 40
-0.7916666666666668
 40
-0.7777777777777778
 40
-0.7638888888888889
 40
-0.75
 40
-0.7222222222222223
 40
-0.6944444444444445
 40
-0.6805555555555556
 40
-0.6666666666666666
 40
-0.6527777777777777
 40
-0.6388888888888889
 40
-0.6111111111111112
 40
-0.5833333333333334
 40
-0.5555555555555556
 40
-0.5277777777777778
 40
-0.5
 40
-0.4722222222222223
 40
-0.4444444444444445
 40
-0.4166666666666666
 40
-0.3888888888888888
 40
-0.3611111111111111
 40
-0.3472222222222222
 40
-0.3333333333333333
 40
-0.3194444444444444
 40
-0.3055555555555556
 40
-0.2777777777777778
 40
-0.25
 40
-0.2361111111111111
 40
-0.2222222222222222
 40
-0.2083333333333333
 40
-0.1944444444444444
 40
-0.1666666666666666
 40
-0.1388888888888889
 40
-0.1111111111111111
 40
-0.0833333333333333
 40
-0.0555555555555556
 40
0.0
 40
0.0
 40
0.0
 40
0.0
 10
736.1664074431878
 20
2023.999999999996
 30
0.0
 10
736.1664074431878
 20
2023.989299181333
 30
0.0
 10
736.0834896373364
 20
2023.947122087742
 30
0.0
 10
735.8133584088237
 20
2023.837119456197
 30
0.0
 10
735.5334219887402
 20
2023.73076378028
 30
0.0
 10
735.1794541534832
 20
2023.588436197624
 30
0.0
 10
734.7551130597011
 20
2023.412255980872
 30
0.0
 10
734.3455384133757
 20
2023.252297309579
 30
0.0
 10
733.9861157959021
 20
2023.122544745391
 30
0.0
 10
733.7009447442158
 20
2023.027860553114
 30
0.0
 10
733.4012895543336
 20
2022.93091508568
 30
0.0
 10
732.9838463282487
 20
2022.792640679808
 30
0.0
 10
732.4289601072004
 20
2022.612318791322
 30
0.0
 10
731.8320276195805
 20
2022.435662908932
 30
0.0
 10
731.3302474274292
 20
2022.304728187852
 30
0.0
 10
730.9418792767929
 20
2022.215475578765
 30
0.0
 10
730.5422241590957
 20
2022.130733720408
 30
0.0
 10
729.9960422806308
 20
2022.017270913881
 30
0.0
 10
729.2900931164626
 20
2021.883227311074
 30
0.0
 10
728.4124553140352
 20
2021.746776468865
 30
0.0
 10
727.5125164700514
 20
2021.65242082116
 30
0.0
 10
726.5943242089761
 20
2021.602334589203
 30
0.0
 10
725.6647969506643
 20
2021.58435068923
 30
0.0
 10
724.7353578517129
 20
2021.60249108255
 30
0.0
 10
723.817333145165
 20
2021.652686214315
 30
0.0
 10
722.9179136320969
 20
2021.74704354924
 30
0.0
 10
722.0410628078643
 20
2021.883440414743
 30
0.0
 10
721.3356498240927
 20
2022.017445866083
 30
0.0
 10
720.7896863747143
 20
2022.13091368011
 30
0.0
 10
720.3900682134884
 20
2022.215682252596
 30
0.0
 10
720.0015445597666
 20
2022.305002713224
 30
0.0
 10
719.4993474204188
 20
2022.436078159881
 30
0.0
 10
718.9017063811313
 20
2022.612962891883
 30
0.0
 10
718.3462732345243
 20
2022.793492949659
 30
0.0
 10
717.9286721257995
 20
2022.931865497386
 30
0.0
 10
717.6290728046628
 20
2023.028836304999
 30
0.0
 10
717.3441360261016
 20
2023.123484341827
 30
0.0
 10
716.9851644736387
 20
2023.253125454775
 30
0.0
 10
716.57629122576
 20
2023.412861115621
 30
0.0
 10
716.1526917203777
 20
2023.588741048928
 30
0.0
 10
715.7991347647794
 20
2023.730868637824
 30
0.0
 10
715.5193620122576
 20
2023.837141201449
 30
0.0
 10
715.2493460771844
 20
2023.947067461041
 30
0.0
 10
715.1664074431879
 20
2023.989260168712
 30
0.0
 10
715.1664074431879
 20
2023.999999999996
 30
0.0
  0
LINE
  5
C2
330
87
100
AcDbEntity
  8
P-SANR-FIXT
100
AcDbLine
 10
733.6664074432061
 20
2034.999999999993
 30
0.0
 11
734.6664074431908
 21
2034.999999999993
 31
0.0
  0
LINE
  5
C3
330
87
100
AcDbEntity
  8
P-SANR-FIXT
100
AcDbLine
 10
726.0956932289509
 20
2034.999999999993
 30
0.0
 11
733.2371216574424
 21
2034.999999999993
 31
0.0
  0
LINE
  5
C4
330
87
100
AcDbEntity
  8
P-SANR-FIXT
100
AcDbLine
 10
718.095693228932
 20
2034.999999999993
 30
0.0
 11
725.2371216574224
 21
2034.999999999993
 31
0.0
  0
LINE
  5
C5
330
87
100
AcDbEntity
  8
P-SANR-FIXT
100
AcDbLine
 10
716.6664074431835
 20
2034.999999999993
 30
0.0
 11
717.6664074431673
 21
2034.999999999993
 31
0.0
  0
LINE
  5
C6
330
87
100
AcDbEntity
  8
P-SANR-FIXT
100
AcDbLine
 10
733.2371216574427
 20
2038.500000000002
 30
0.0
 11
733.6664074432063
 21
2038.500000000002
 31
0.0
  0
LINE
  5
C7
330
87
100
AcDbEntity
  8
P-SANR-FIXT
100
AcDbLine
 10
717.6664074431673
 20
2038.500000000002
 30
0.0
 11
718.0956932289323
 21
2038.500000000002
 31
0.0
  0
LINE
  5
C8
330
87
100
AcDbEntity
  8
P-SANR-FIXT
100
AcDbLine
 10
718.0956932289323
 20
2038.500000000002
 30
0.0
 11
725.2371216574227
 21
2038.500000000002
 31
0.0
  0
LINE
  5
C9
330
87
100
AcDbEntity
  8
P-SANR-FIXT
100
AcDbLine
 10
725.2371216574227
 20
2038.500000000002
 30
0.0
 11
726.0956932289507
 21
2038.500000000002
 31
0.0
  0
LINE
  5
CA
330
87
100
AcDbEntity
  8
P-SANR-FIXT
100
AcDbLine
 10
726.0956932289507
 20
2038.500000000002
 30
0.0
 11
733.2371216574427
 21
2038.500000000002
 31
0.0
  0
LINE
  5
CB
330
87
100
AcDbEntity
  8
P-SANR-FIXT
100
AcDbLine
 10
733.2371216574427
 20
2038.500000000002
 30
0.0
 11
733.2371216574427
 21
2034.999999999994
 31
0.0
  0
LINE
  5
CC
330
87
100
AcDbEntity
  8
P-SANR-FIXT
100
AcDbLine
 10
733.6664074432063
 20
2034.999999999994
 30
0.0
 11
733.6664074432063
 21
2038.500000000002
 31
0.0
  0
LINE
  5
CD
330
87
100
AcDbEntity
  8
P-SANR-FIXT
100
AcDbLine
 10
717.6664074431673
 20
2034.999999999994
 30
0.0
 11
717.6664074431673
 21
2038.500000000002
 31
0.0
  0
LINE
  5
CE
330
87
100
AcDbEntity
  8
P-SANR-FIXT
100
AcDbLine
 10
718.0956932289323
 20
2034.999999999994
 30
0.0
 11
718.0956932289323
 21
2038.500000000002
 31
0.0
  0
LINE
  5
CF
330
87
100
AcDbEntity
  8
P-SANR-FIXT
100
AcDbLine
 10
725.2371216574227
 20
2034.999999999994
 30
0.0
 11
725.2371216574227
 21
2038.500000000002
 31
0.0
  0
LINE
  5
D0
330
87
100
AcDbEntity
  8
P-SANR-FIXT
100
AcDbLine
 10
726.0956932289507
 20
2034.999999999994
 30
0.0
 11
726.0956932289507
 21
2038.500000000002
 31
0.0
  0
LINE
  5
D1
330
87
100
AcDbEntity
  8
P-SANR-FIXT
100
AcDbLine
 10
746.3639737821489
 20
1898.188444490838
 30
0.0
 11
747.7728058350241
 21
1898.065187657399
 31
0.0
  0
LINE
  5
D2
330
87
100
AcDbEntity
  8
P-SANR-FIXT
100
AcDbLine
 10
701.4920979375929
 20
1953.220387561966
 30
0.0
 11
701.3688411041546
 21
1951.811555509091
 31
0.0
  0
LINE
  5
D3
330
87
100
AcDbEntity
  8
P-SANR-FIXT
100
AcDbLine
 10
747.7728058350237
 20
1898.065187657399
 30
0.0
 11
783.5910211115735
 21
1928.120238885381
 31
0.0
  0
LINE
  5
D4
330
87
100
AcDbEntity
  8
P-SANR-FIXT
100
AcDbLine
 10
728.7037487664697
 20
1976.053673736201
 30
0.0
 11
701.4920979375931
 21
1953.220387561966
 31
0.0
  0
LWPOLYLINE
  5
D5
330
87
100
AcDbEntity
  8
P-SANR-FIXT
100
AcDbPolyline
 90
       21
 70
   128
 43
0.0
 10
784.6512423767891
 20
1930.156904986495
 10
784.63839592791
 20
1930.037602644298
 10
784.6207889335884
 20
1929.918909452188
 10
784.5984495612594
 20
1929.801015293951
 10
784.5714135491528
 20
1929.684108775092
 10
784.5397241491212
 20
1929.568376921102
 10
784.5034320574444
 20
1929.454004878258
 10
784.462595333727
 20
1929.341175617433
 10
784.4172793080157
 20
1929.230069641374
 10
784.3675564762848
 20
1929.12086469594
 10
784.3135063844579
 20
1929.013735485751
 10
784.255215501152
 20
1928.908853394687
 10
784.1927770793459
 20
1928.806386211722
 10
784.1262910071946
 20
1928.70649786249
 10
784.0558636482308
 20
1928.609348147041
 10
783.981607671205
 20
1928.515092484197
 10
783.9036418698403
 20
1928.423881662909
 10
783.8220909727868
 20
1928.335861601036
 10
783.7370854440831
 20
1928.251173111899
 10
783.648761274442
 20
1928.169951679016
 10
783.5910211115735
 20
1928.120238885381
  0
LINE
  5
D6
330
87
100
AcDbEntity
  8
P-SANR-FIXT
100
AcDbLine
 10
784.6512423767893
 20
1930.156904986495
 30
0.0
 11
785.0975948551808
 21
1935.258737159978
 31
0.0
  0
LINE
  5
D7
330
87
100
AcDbEntity
  8
P-SANR-FIXT
100
AcDbLine
 10
785.0975948551814
 20
1935.258737159978
 30
0.0
 11
788.927817070776
 21
1938.47267520841
 31
0.0
  0
LINE
  5
D8
330
87
100
AcDbEntity
  8
P-SANR-FIXT
100
AcDbLine
 10
788.9278170707757
 20
1938.472675208411
 30
0.0
 11
791.0410651499842
 21
1938.287789958262
 31
0.0
  0
LINE
  5
D9
330
87
100
AcDbEntity
  8
P-SANR-FIXT
100
AcDbLine
 10
791.0410651499829
 20
1938.287789958264
 30
0.0
 11
822.4488873178611
 21
1964.642081955412
 31
0.0
  0
LINE
  5
DA
330
87
100
AcDbEntity
  8
P-SANR-FIXT
100
AcDbLine
 10
822.4488873178614
 20
1964.642081955411
 30
0.0
 11
822.633772568011
 21
1966.755330034619
 31
0.0
  0
LINE
  5
DB
330
87
100
AcDbEntity
  8
P-SANR-FIXT
100
AcDbLine
 10
822.633772568011
 20
1966.755330034619
 30
0.0
 11
827.2300392267249
 21
1970.612055692738
 31
0.0
  0
LINE
  5
DC
330
87
100
AcDbEntity
  8
P-SANR-FIXT
100
AcDbLine
 10
786.7344198164722
 20
2018.872855609234
 30
0.0
 11
784.5024374157531
 21
2016.999999999997
 31
0.0
  0
LINE
  5
DD
330
87
100
AcDbEntity
  8
P-SANR-FIXT
100
AcDbLine
 10
827.2300392267247
 20
1970.612055692738
 30
0.0
 11
827.9960836698437
 21
1971.254843302424
 31
0.0
  0
LINE
  5
DE
330
87
100
AcDbEntity
  8
P-SANR-FIXT
100
AcDbLine
 10
787.5004642595917
 20
2019.51564321892
 30
0.0
 11
786.7344198164724
 21
2018.872855609234
 31
0.0
  0
LWPOLYLINE
  5
DF
330
87
100
AcDbEntity
  8
P-SANR-FIXT
100
AcDbPolyline
 90
       43
 70
   128
 43
0.0
 10
812.4853171389631
 20
1995.962750346933
 10
811.7802737637003
 20
1996.802988322338
 10
811.0736820796525
 20
1997.645071500298
 10
810.366672482783
 20
1998.487652727366
 10
809.6603760376261
 20
1999.329384053319
 10
808.9559226678256
 20
2000.168918887593
 10
808.2544393484974
 20
2001.004914153547
 10
807.5570483033111
 20
2001.836032437092
 10
806.8648652091699
 20
2002.660944126267
 10
806.1789974113667
 20
2003.478329538344
 10
805.5005421520672
 20
2004.286881031029
 10
804.8305848149571
 20
2005.085305094414
 10
804.170197188859
 20
2005.872324420321
 10
803.5204357530995
 20
2006.646679945717
 10
802.8823399873674
 20
2007.407132866948
 10
802.256930708768
 20
2008.15246662156
 10
801.6452084387337
 20
2008.881488834544
 10
801.0481518024027
 20
2009.593033225873
 10
800.4667159630278
 20
2010.285961476311
 10
799.9018310939188
 20
2010.959165048474
 10
799.3544008903643
 20
2011.611566960255
 10
798.8253011239107
 20
2012.242123507766
 10
798.3153782413161
 20
2012.849825935044
 10
797.8254480104149
 20
2013.433702047842
 10
797.3562942150632
 20
2013.992817768931
 10
796.9086674012532
 20
2014.52627863243
 10
796.4832836763982
 20
2015.033231214758
 10
796.0808235637143
 20
2015.512864499925
 10
795.7019309135285
 20
2015.964411176991
 10
795.3472118732544
 20
2016.387148867599
 10
795.0172339176876
 20
2016.780401281623
 10
794.712524941165
 20
2017.143539299089
 10
794.4335724130483
 20
2017.475981976636
 10
794.1808225978755
 20
2017.777197476895
 10
793.9546798414343
 20
2018.046703919324
 10
793.7555059238932
 20
2018.284070151104
 10
793.5836194810324
 20
2018.488916436901
 10
793.4392954944931
 20
2018.660915066357
 10
793.3227648518668
 20
2018.799790878355
 10
793.2342139773226
 20
2018.90532170122
 10
793.17378453337
 20
2018.977338708149
 10
793.1415731942287
 20
2019.015726687293
 10
793.1357924708132
 20
2019.022615885191
  0
LWPOLYLINE
  5
E0
330
87
100
AcDbEntity
  8
P-SANR-FIXT
100
AcDbPolyline
 90
       41
 70
   128
 43
0.0
 10
787.5004642595912
 20
2019.515643218921
 10
787.6250553346516
 20
2019.61601079767
 10
787.753560382789
 20
2019.711315778925
 10
787.8857738233396
 20
2019.801405695045
 10
788.0214841430021
 20
2019.886136421383
 10
788.1604742342155
 20
2019.965372406852
 10
788.302521742483
 20
2020.038986890778
 10
788.4473994220936
 20
2020.10686210569
 10
788.5948754996655
 20
2020.168889465723
 10
788.7447140449343
 20
2020.224969740334
 10
788.8966753481915
 20
2020.275013213046
 10
789.0505163037686
 20
2020.318939824978
 10
789.2059907989542
 20
2020.356679302921
 10
789.3628501077224
 20
2020.388171271763
 10
789.5208432886406
 20
2020.413365351069
 10
789.6797175863225
 20
2020.432221235688
 10
789.8392188357834
 20
2020.444708760227
 10
789.9990918690491
 20
2020.450807947311
 10
790.1590809233713
 20
2020.450509039541
 10
790.3189300503918
 20
2020.443812515105
 10
790.4783835256067
 20
2020.430729087015
 10
790.6371862574707
 20
2020.411279685964
 10
790.7950841954889
 20
2020.385495426845
 10
790.9518247366436
 20
2020.353417558974
 10
791.1071571295051
 20
2020.315097400093
 10
791.2608328753807
 20
2020.270596254285
 10
791.4126061258595
 20
2020.219985313888
 10
791.5622340761171
 20
2020.163345545611
 10
791.7094773533521
 20
2020.100767561002
 10
791.8541003997311
 20
2020.032351471485
 10
791.9958718492313
 20
2019.95820672821
 10
792.1345648977762
 20
2019.878451946949
 10
792.2699576660747
 20
2019.793214718339
 10
792.4018335545796
 20
2019.702631403761
 10
792.5299815900013
 20
2019.606846917198
 10
792.65419676282
 20
2019.506014493393
 10
792.774280355257
 20
2019.400295442716
 10
792.890040259181
 20
2019.289858893094
 10
793.0012912834396
 20
2019.17488151945
 10
793.1078554501263
 20
2019.055547261054
 10
793.1357924708132
 20
2019.022615885191
  0
LWPOLYLINE
  5
E1
330
87
100
AcDbEntity
  8
P-SANR-FIXT
100
AcDbPolyline
 90
        9
 70
   128
 43
0.0
 10
828.8074417045036
 20
1972.183924724068
 10
828.7193549770123
 20
1972.050368311685
 10
828.6259978775003
 20
1971.92044125977
 10
828.5275197574112
 20
1971.794351423888
 10
828.42407816073
 20
1971.672300520882
 10
828.3158385719447
 20
1971.554483806158
 10
828.2029741513079
 20
1971.441089761328
 10
828.0856654578155
 20
1971.332299792674
 10
827.9960836698442
 20
1971.254843302424
  0
LWPOLYLINE
  5
E2
330
87
100
AcDbEntity
  8
P-SANR-FIXT
100
AcDbPolyline
 90
        5
 70
   128
 43
0.0
 10
793.1357924708132
 20
2019.022615885191
 10
793.1499319128167
 20
2019.005765154386
 10
793.1923276187356
 20
2018.955239919547
 10
793.262911764485
 20
2018.87112101027
 10
793.3026039938498
 20
2018.823817653327
  0
LINE
  5
E3
330
87
100
AcDbEntity
  8
P-SANR-FIXT
100
AcDbLine
 10
828.0476052896725
 20
2026.499999999996
 30
0.0
 11
823.4393950187005
 21
2026.499999999996
 31
0.0
  0
LINE
  5
E4
330
87
100
AcDbEntity
  8
P-SANR-FIXT
100
AcDbLine
 10
831.4144898228141
 20
2032.331615074615
 30
0.0
 11
828.0476052896725
 21
2026.499999999996
 31
0.0
  0
LINE
  5
E5
330
87
100
AcDbEntity
  8
P-SANR-FIXT
100
AcDbLine
 10
828.8074417045036
 20
1972.183924724068
 30
0.0
 11
831.4144898228143
 21
1967.668384925376
 31
0.0
  0
LINE
  5
E6
330
87
100
AcDbEntity
  8
P-SANR-FIXT
100
AcDbLine
 10
799.170654608282
 20
2022.128355544948
 30
0.0
 11
794.0999738853435
 21
2017.873549220512
 31
0.0
  0
LWPOLYLINE
  5
E7
330
87
100
AcDbEntity
  8
P-SANR-FIXT
100
AcDbPolyline
 90
       19
 70
   128
 43
0.0
 10
799.170654608282
 20
2022.128355544948
 10
799.4198367584028
 20
2022.329090702447
 10
799.6768468546776
 20
2022.519700664955
 10
799.9412737357786
 20
2022.699880497195
 10
800.2126943751038
 20
2022.869341949872
 10
800.4906745575304
 20
2023.02781392081
 10
800.7747695740656
 20
2023.175042888661
 10
801.0645249332869
 20
2023.310793318485
 10
801.3594770884306
 20
2023.434848038553
 10
801.6591541789679
 20
2023.547008587774
 10
801.9630767854826
 20
2023.647095533198
 10
802.2707586966369
 20
2023.734948757062
 10
802.5817076870081
 20
2023.810427712949
 10
802.8954263045445
 20
2023.873411650631
 10
803.2114126663808
 20
2023.923799809244
 10
803.5291612617445
 20
2023.961511578483
 10
803.8481637606661
 20
2023.986486627561
 10
804.1679098271981
 20
2023.998685001728
 10
804.3129554857744
 20
2023.999999999996
  0
LINE
  5
E8
330
87
100
AcDbEntity
  8
P-SANR-FIXT
100
AcDbLine
 10
807.8934198676783
 20
2023.999999999996
 30
0.0
 11
804.3129554857744
 21
2023.999999999996
 31
0.0
  0
LINE
  5
E9
330
87
100
AcDbEntity
  8
P-SANR-FIXT
100
AcDbLine
 10
807.8934198676783
 20
2033.063700103276
 30
0.0
 11
807.8934198676783
 21
2023.999999999996
 31
0.0
  0
LINE
  5
EA
330
87
100
AcDbEntity
  8
P-SANR-FIXT
100
AcDbLine
 10
823.4393950187005
 20
2026.499999999996
 30
0.0
 11
823.4393950187005
 21
2033.063700103276
 31
0.0
  0
LINE
  5
EB
330
87
100
AcDbEntity
  8
P-SANR-FIXT
100
AcDbLine
 10
806.6664074431864
 20
2035.063700103267
 30
0.0
 11
806.6664074431864
 21
2033.063700103276
 31
0.0
  0
LINE
  5
EC
330
87
100
AcDbEntity
  8
P-SANR-FIXT
100
AcDbLine
 10
824.6664074431922
 20
2033.063700103276
 30
0.0
 11
824.6664074431922
 21
2035.063700103267
 31
0.0
  0
LINE
  5
ED
330
87
100
AcDbEntity
  8
P-SANR-FIXT
100
AcDbLine
 10
729.2197607767693
 20
1911.044532921079
 30
0.0
 11
743.4015332706547
 21
1896.862760427193
 31
0.0
  0
LINE
  5
EE
330
87
100
AcDbEntity
  8
P-SANR-FIXT
100
AcDbLine
 10
743.4442545082884
 20
1896.82003918956
 30
0.0
 11
743.739290270693
 21
1896.525003427155
 31
0.0
  0
LINE
  5
EF
330
87
100
AcDbEntity
  8
P-SANR-FIXT
100
AcDbLine
 10
699.2748999392436
 20
1949.51560034717
 30
0.0
 11
699.5142210229905
 21
1949.173814418446
 31
0.0
  0
LINE
  5
F0
330
87
100
AcDbEntity
  8
P-SANR-FIXT
100
AcDbLine
 10
699.5567496609247
 20
1949.113077228951
 30
0.0
 11
711.0525553177482
 21
1932.695365294264
 31
0.0
  0
LWPOLYLINE
  5
F1
330
87
100
AcDbEntity
  8
P-SANR-FIXT
100
AcDbPolyline
 90
       39
 70
   128
 43
0.0
 10
699.2748999392436
 20
1949.51560034717
 10
699.2526182337127
 20
1949.54881649199
 10
699.2316826426851
 20
1949.582897098006
 10
699.2121266586405
 20
1949.617787643517
 10
699.193981566982
 20
1949.653432311095
 10
699.177276395985
 20
1949.689774076875
 10
699.1620378703596
 20
1949.726754801784
 10
699.1482903684964
 20
1949.764315324551
 10
699.1360558834655
 20
1949.802395556353
 10
699.1253539878329
 20
1949.840934576942
 10
699.1162018023491
 20
1949.879870732106
 10
699.1086139685583
 20
1949.919141732302
 10
699.1026026253758
 20
1949.958684752308
 10
699.0981773896685
 20
1949.998436531726
 10
699.0953453408694
 20
1950.038333476191
 10
699.0941110096525
 20
1950.078311759102
 10
699.0944763706843
 20
1950.118307423734
 10
699.0964408394654
 20
1950.158256485556
 10
699.1000012732647
 20
1950.198095034591
 10
699.1051519761476
 20
1950.237759337659
 10
699.1118847080882
 20
1950.277185940336
 10
699.1201886981514
 20
1950.316311768469
 10
699.1300506617252
 20
1950.355074229079
 10
699.1414548217711
 20
1950.393411310497
 10
699.1543829340659
 20
1950.431261681572
 10
699.1688143163876
 20
1950.468564789785
 10
699.1847258816035
 20
1950.505260958119
 10
699.2020921746032
 20
1950.541291480534
 10
699.2208854130226
 20
1950.57659871588
 10
699.241075531689
 20
1950.611126180112
 10
699.2626302307201
 20
1950.644818636652
 10
699.2855150271948
 20
1950.677622184758
 10
699.3096933103213
 20
1950.709484345751
 10
699.3351264000039
 20
1950.740354146969
 10
699.3617736087245
 20
1950.770182203316
 10
699.389592306634
 20
1950.798920796265
 10
699.4185379897498
 20
1950.826523950197
 10
699.4485643511534
 20
1950.852947505955
 10
699.451264373846
 20
1950.85522122664
  0
LWPOLYLINE
  5
F2
330
87
100
AcDbEntity
  8
P-SANR-FIXT
100
AcDbPolyline
 90
       39
 70
   128
 43
0.0
 10
745.0891846615661
 20
1896.466065765223
 10
745.0580368928013
 20
1896.440973870535
 10
745.0259106307667
 20
1896.417147625222
 10
744.9928572706292
 20
1896.394625146192
 10
744.9589296907135
 20
1896.373442464607
 10
744.9241821679101
 20
1896.35363346824
 10
744.8886702908431
 20
1896.335229847258
 10
744.8524508709406
 20
1896.31826104353
 10
744.8155818515476
 20
1896.302754203522
 10
744.7781222152303
 20
1896.28873413487
 10
744.740131889416
 20
1896.276223266692
 10
744.7016716505219
 20
1896.265241613708
 10
744.6628030267254
 20
1896.255806744223
 10
744.6235881995335
 20
1896.247933752012
 10
744.5840899043039
 20
1896.241635232186
 10
744.5443713298832
 20
1896.236921261031
 10
744.504496017518
 20
1896.233799379896
 10
744.4645277592017
 20
1896.232274583125
 10
744.4245304956212
 20
1896.232349310068
 10
744.384568213866
 20
1896.234023441177
 10
744.3447048450622
 20
1896.2372942982
 10
744.3050041620963
 20
1896.242156648462
 10
744.2655296775918
 20
1896.248602713242
 10
744.226344542303
 20
1896.25662218021
 10
744.1875114440876
 20
1896.26620221993
 10
744.1490925076188
 20
1896.277327506382
 10
744.1111491949991
 20
1896.289980241481
 10
744.0737422074349
 20
1896.30414018355
 10
744.036931388126
 20
1896.319784679702
 10
744.0007756265313
 20
1896.336888702082
 10
743.9653327641561
 20
1896.3554248879
 10
743.93065950202
 20
1896.375363583216
 10
743.8968113099453
 20
1896.396672890368
 10
743.863842337819
 20
1896.419318719013
 10
743.8318053289638
 20
1896.443264840654
 10
743.8007515357591
 20
1896.468472946605
 10
743.7707306376498
 20
1896.494902709274
 10
743.7417906616688
 20
1896.522511846679
 10
743.739290270693
 20
1896.525003427155
  0
LINE
  5
F3
330
87
100
AcDbEntity
  8
P-SANR-FIXT
100
AcDbLine
 10
745.0891846615661
 20
1896.466065765222
 30
0.0
 11
746.6853675870118
 21
1897.805422269256
 31
0.0
  0
LINE
  5
F4
330
87
100
AcDbEntity
  8
P-SANR-FIXT
100
AcDbLine
 10
701.0474472992914
 20
1952.194577730674
 30
0.0
 11
699.4512643738459
 21
1950.85522122664
 31
0.0
  0
LINE
  5
F5
330
87
100
AcDbEntity
  8
P-SANR-FIXT
100
AcDbLine
 10
747.7728058350224
 20
1898.065187657399
 30
0.0
 11
701.4920979375916
 21
1953.220387561964
 31
0.0
  0
LINE
  5
F6
330
87
100
AcDbEntity
  8
P-SANR-FIXT
100
AcDbLine
 10
785.0975948551798
 20
1935.258737159977
 30
0.0
 11
744.6941225589049
 21
1983.409720422343
 31
0.0
  0
LINE
  5
F7
330
87
100
AcDbEntity
  8
P-SANR-FIXT
100
AcDbLine
 10
788.9278170707743
 20
1938.47267520841
 30
0.0
 11
748.5243447745002
 21
1986.623658470775
 31
0.0
  0
LINE
  5
F8
330
87
100
AcDbEntity
  8
P-SANR-FIXT
100
AcDbLine
 10
791.0410651499814
 20
1938.287789958263
 30
0.0
 11
748.7049535328432
 21
1988.742003074456
 31
0.0
  0
LINE
  5
F9
330
87
100
AcDbEntity
  8
P-SANR-FIXT
100
AcDbLine
 10
822.44888731786
 20
1964.64208195541
 30
0.0
 11
780.1127757007209
 21
2015.096295071606
 31
0.0
  0
LINE
  5
FA
330
87
100
AcDbEntity
  8
P-SANR-FIXT
100
AcDbLine
 10
822.6337725680096
 20
1966.755330034618
 30
0.0
 11
782.230300271735
 21
2014.906313296983
 31
0.0
  0
SPLINE
  5
FB
330
87
100
AcDbEntity
  8
P-SANR-FIXT
100
AcDbSpline
210
0.0
220
0.0
230
1.0
 70
     8
 71
     3
 72
     9
 73
     5
 74
     0
 42
0.000000001
 43
0.0000000001
 40
-1.0
 40
-1.0
 40
-1.0
 40
-1.0
 40
-0.5
 40
0.0
 40
0.0
 40
0.0
 40
0.0
 10
821.5117069048083
 20
2025.99996519126
 30
0.0
 10
821.1117019284008
 20
2025.484506821233
 30
0.0
 10
820.2303854177324
 20
2024.415131646162
 30
0.0
 10
819.2662618640465
 20
2023.268839601056
 30
0.0
 10
818.7802819061365
 20
2022.676464360995
 30
0.0
  0
SPLINE
  5
FC
330
87
100
AcDbEntity
  8
P-SANR-FIXT
100
AcDbSpline
210
0.0
220
0.0
230
1.0
 70
     8
 71
     3
 72
    11
 73
     7
 74
     0
 42
0.000000001
 43
0.0000000001
 40
0.0
 40
0.0
 40
0.0
 40
0.0
 40
0.25
 40
0.375
 40
0.5
 40
1.0
 40
1.0
 40
1.0
 40
1.0
 10
818.7802819061365
 20
2022.676464360995
 30
0.0
 10
818.6392181038648
 20
2021.922623703432
 30
0.0
 10
818.5045983147418
 20
2020.495545041917
 30
0.0
 10
818.432504742296
 20
2017.992014095828
 30
0.0
 10
818.5039200040636
 20
2013.75871100319
 30
0.0
 10
819.0490386005654
 20
2009.437055514568
 30
0.0
 10
819.7751653155558
 20
2005.572855885906
 30
0.0
  0
SPLINE
  5
FD
330
87
100
AcDbEntity
  8
P-SANR-FIXT
100
AcDbSpline
210
0.0
220
0.0
230
1.0
 70
     8
 71
     3
 72
    10
 73
     6
 74
     0
 42
0.000000001
 43
0.0000000001
 40
0.0
 40
0.0
 40
0.0
 40
0.0
 40
0.3333333333333333
 40
0.6666666666666666
 40
1.0
 40
1.0
 40
1.0
 40
1.0
 10
819.7751653155558
 20
2005.572855885906
 30
0.0
 10
819.9440695817475
 20
2004.685171343441
 30
0.0
 10
820.2068081985732
 20
2002.827572111724
 30
0.0
 10
820.3964300197164
 20
1999.89558581439
 30
0.0
 10
820.3450732125915
 20
1997.934561420662
 30
0.0
 10
820.2784059108203
 20
1996.97311709856
 30
0.0
  0
SPLINE
  5
FE
330
87
100
AcDbEntity
  8
P-SANR-FIXT
100
AcDbSpline
210
0.0
220
0.0
230
1.0
 70
     8
 71
     3
 72
     9
 73
     5
 74
     0
 42
0.000000001
 43
0.0000000001
 40
-1.0
 40
-1.0
 40
-1.0
 40
-1.0
 40
-0.5
 40
0.0
 40
0.0
 40
0.0
 40
0.0
 10
820.2784059108203
 20
1996.97311709856
 30
0.0
 10
820.1479623503729
 20
1995.186675285822
 30
0.0
 10
820.0364566801919
 20
1991.661362792174
 30
0.0
 10
820.1562174421569
 20
1988.311631721934
 30
0.0
 10
820.2516655230292
 20
1986.707176758881
 30
0.0
  0
SPLINE
  5
FF
330
87
100
AcDbEntity
  8
P-SANR-FIXT
100
AcDbSpline
210
0.0
220
0.0
230
1.0
 70
     8
 71
     3
 72
    10
 73
     6
 74
     0
 42
0.000000001
 43
0.0000000001
 40
0.0
 40
0.0
 40
0.0
 40
0.0
 40
0.3333333333333333
 40
0.6666666666666666
 40
1.0
 40
1.0
 40
1.0
 40
1.0
 10
823.4393950186989
 20
2026.499999999995
 30
0.0
 10
823.4366411097825
 20
2026.499999999995
 30
0.0
 10
823.2898488434397
 20
2026.455158954526
 30
0.0
 10
822.6191843709514
 20
2026.266853875942
 30
0.0
 10
821.9250027955322
 20
2026.093265082491
 30
0.0
 10
821.5117069048083
 20
2025.99996519126
 30
0.0
  0
LINE
  5
100
330
87
100
AcDbEntity
  8
P-SANR-FIXT
100
AcDbLine
 10
821.5117069048083
 20
1985.204398948946
 30
0.0
 11
821.5117069048083
 21
2025.999965191259
 31
0.0
  0
SPLINE
  5
101
330
87
100
AcDbEntity
  8
P-SANR-FIXT
100
AcDbSpline
210
0.0
220
0.0
230
1.0
 70
     8
 71
     3
 72
    10
 73
     6
 74
     0
 42
0.000000001
 43
0.0000000001
 40
-1.0
 40
-1.0
 40
-1.0
 40
-1.0
 40
-0.6666666666666666
 40
-0.3333333333333333
 40
0.0
 40
0.0
 40
0.0
 40
0.0
 10
828.0476052896709
 20
1975.959049151032
 30
0.0
 10
827.6380664935949
 20
1976.688415356599
 30
0.0
 10
826.6073151148077
 20
1978.417791529513
 30
0.0
 10
824.3808852903523
 20
1981.635241385309
 30
0.0
 10
822.5336263626045
 20
1983.998491455736
 30
0.0
 10
821.5117069048083
 20
1985.204398948947
 30
0.0
  0
LINE
  5
102
330
87
100
AcDbEntity
  8
P-SANR-FIXT
100
AcDbLine
 10
828.0476052896709
 20
1975.959049151032
 30
0.0
 11
828.0476052896709
 21
2026.499999999995
 31
0.0
  0
SPLINE
  5
103
330
87
100
AcDbEntity
  8
P-SANR-FIXT
100
AcDbSpline
210
0.0
220
0.0
230
1.0
 70
     8
 71
     3
 72
    17
 73
    13
 74
     0
 42
0.000000001
 43
0.0000000001
 40
-1.0
 40
-1.0
 40
-1.0
 40
-1.0
 40
-0.75
 40
-0.625
 40
-0.5
 40
-0.4375
 40
-0.375
 40
-0.3125
 40
-0.25
 40
-0.1875
 40
-0.125
 40
0.0
 40
0.0
 40
0.0
 40
0.0
 10
828.8074417045018
 20
1972.183924724067
 30
0.0
 10
828.8093471493294
 20
1972.180624396814
 30
0.0
 10
828.792337714602
 20
1972.292134020563
 30
0.0
 10
828.7424205423711
 20
1972.651053951613
 30
0.0
 10
828.6912659722645
 20
1972.976042695878
 30
0.0
 10
828.6370269266408
 20
1973.297433419988
 30
0.0
 10
828.5924571906297
 20
1973.564316961268
 30
0.0
 10
828.537788645978
 20
1973.866211643036
 30
0.0
 10
828.4680134164068
 20
1974.209674762066
 30
0.0
 10
828.3822973031842
 20
1974.594526963042
 30
0.0
 10
828.251864411025
 20
1975.153480565484
 30
0.0
 10
828.134439785153
 20
1975.62437028043
 30
0.0
 10
828.0476052896709
 20
1975.959049151032
 30
0.0
  0
SPLINE
  5
104
330
87
100
AcDbEntity
  8
P-SANR-FIXT
100
AcDbSpline
210
0.0
220
0.0
230
1.0
 70
     8
 71
     3
 72
    10
 73
     6
 74
     0
 42
0.000000001
 43
0.0000000001
 40
-1.0
 40
-1.0
 40
-1.0
 40
-1.0
 40
-0.6666666666666666
 40
-0.3333333333333333
 40
0.0
 40
0.0
 40
0.0
 40
0.0
 10
831.4144898228127
 20
1967.668384925376
 30
0.0
 10
830.3070622607428
 20
1969.48216255615
 30
0.0
 10
828.8307452128572
 20
1973.097759607842
 30
0.0
 10
828.8523796945767
 20
1978.465812395462
 30
0.0
 10
830.3165510685145
 20
1982.046555381301
 30
0.0
 10
831.4144898228125
 20
1983.834192462685
 30
0.0
  0
SPLINE
  5
105
330
87
100
AcDbEntity
  8
P-SANR-FIXT
100
AcDbSpline
210
0.0
220
0.0
230
1.0
 70
     8
 71
     3
 72
    10
 73
     6
 74
     0
 42
0.000000001
 43
0.0000000001
 40
-1.0
 40
-1.0
 40
-1.0
 40
-1.0
 40
-0.6666666666666666
 40
-0.3333333333333333
 40
0.0
 40
0.0
 40
0.0
 40
0.0
 10
831.4144898228125
 20
1983.834192462685
 30
0.0
 10
830.3165510685145
 20
1987.409466625453
 30
0.0
 10
828.8523796945767
 20
1994.570952597132
 30
0.0
 10
828.8307452128572
 20
2005.307058172371
 30
0.0
 10
830.3070622607428
 20
2012.538252275756
 30
0.0
 10
831.4144898228125
 20
2016.165807537305
 30
0.0
  0
SPLINE
  5
106
330
87
100
AcDbEntity
  8
P-SANR-FIXT
100
AcDbSpline
210
0.0
220
0.0
230
1.0
 70
     8
 71
     3
 72
    10
 73
     6
 74
     0
 42
0.000000001
 43
0.0000000001
 40
-1.0
 40
-1.0
 40
-1.0
 40
-1.0
 40
-0.6666666666666666
 40
-0.3333333333333333
 40
0.0
 40
0.0
 40
0.0
 40
0.0
 10
831.4144898228125
 20
2016.165807537305
 30
0.0
 10
830.3165510685145
 20
2017.953444618688
 30
0.0
 10
828.8523796945767
 20
2021.534187604528
 30
0.0
 10
828.8307452128572
 20
2026.902240392148
 30
0.0
 10
830.3070622607428
 20
2030.51783744384
 30
0.0
 10
831.4144898228125
 20
2032.331615074614
 30
0.0
  0
SPLINE
  5
107
330
87
100
AcDbEntity
  8
P-SANR-FIXT
100
AcDbSpline
210
0.0
220
0.0
230
1.0
 70
     8
 71
     3
 72
    19
 73
    15
 74
     0
 42
0.000000001
 43
0.0000000001
 40
-1.0
 40
-1.0
 40
-1.0
 40
-1.0
 40
-0.875
 40
-0.75
 40
-0.6875
 40
-0.625
 40
-0.5625
 40
-0.5
 40
-0.4375
 40
-0.375
 40
-0.3125
 40
-0.25
 40
-0.125
 40
0.0
 40
0.0
 40
0.0
 40
0.0
 10
818.7802819061365
 20
2022.676464360995
 30
0.0
 10
818.1891880674175
 20
2022.614803860676
 30
0.0
 10
816.942910487254
 20
2022.54839444566
 30
0.0
 10
815.3146987856091
 20
2022.61925608721
 30
0.0
 10
814.0410077034662
 20
2022.747399443377
 30
0.0
 10
813.1125646806353
 20
2022.870248308476
 30
0.0
 10
812.2266227328223
 20
2023.013319501688
 30
0.0
 10
811.3939418206168
 20
2023.168390050881
 30
0.0
 10
810.6265790878765
 20
2023.326614218171
 30
0.0
 10
809.9351040259488
 20
2023.482410975097
 30
0.0
 10
809.3290376808464
 20
2023.626456365865
 30
0.0
 10
808.6480518319053
 20
2023.79795799755
 30
0.0
 10
808.0555703973704
 20
2023.956188974469
 30
0.0
 10
807.8934198676767
 20
2023.998128524615
 30
0.0
 10
807.8934198676767
 20
2023.999999999995
 30
0.0
  0
LINE
  5
108
330
87
100
AcDbEntity
  8
P-SANR-FIXT
100
AcDbLine
 10
852.6678755817293
 20
2032.331615074614
 30
0.0
 11
852.6678755817293
 21
2016.165807537305
 31
0.0
  0
LINE
  5
109
330
87
100
AcDbEntity
  8
P-SANR-FIXT
100
AcDbLine
 10
852.6678755817293
 20
2016.165807537305
 30
0.0
 11
852.6678755817293
 21
1983.834192462685
 31
0.0
  0
LINE
  5
10A
330
87
100
AcDbEntity
  8
P-SANR-FIXT
100
AcDbLine
 10
852.6678755817293
 20
1983.834192462685
 30
0.0
 11
852.6678755817293
 21
1967.668384925376
 31
0.0
  0
LINE
  5
10B
330
87
100
AcDbEntity
  8
P-SANR-FIXT
100
AcDbLine
 10
852.6678755817293
 20
1967.668384925376
 30
0.0
 11
831.4144898228127
 21
1967.668384925376
 31
0.0
  0
LINE
  5
10C
330
87
100
AcDbEntity
  8
P-SANR-FIXT
100
AcDbLine
 10
831.4144898228125
 20
2032.331615074614
 30
0.0
 11
852.6678755817293
 21
2032.331615074614
 31
0.0
  0
LINE
  5
10D
330
87
100
AcDbEntity
  8
P-SANR-FIXT
100
AcDbLine
 10
831.4144898228125
 20
2016.165807537305
 30
0.0
 11
852.6678755817293
 21
2016.165807537305
 31
0.0
  0
LINE
  5
10E
330
87
100
AcDbEntity
  8
P-SANR-FIXT
100
AcDbLine
 10
831.4144898228125
 20
1983.834192462685
 30
0.0
 11
852.6678755817293
 21
1983.834192462685
 31
0.0
  0
LINE
  5
10F
330
87
100
AcDbEntity
  8
P-SANR-FIXT
100
AcDbLine
 10
824.6664074431908
 20
2033.063700103275
 30
0.0
 11
806.666407443185
 21
2033.063700103275
 31
0.0
  0
LINE
  5
110
330
87
100
AcDbEntity
  8
P-SANR-FIXT
100
AcDbLine
 10
823.6664074432066
 20
2035.063700103266
 30
0.0
 11
824.6664074431908
 21
2035.063700103266
 31
0.0
  0
LINE
  5
111
330
87
100
AcDbEntity
  8
P-SANR-FIXT
100
AcDbLine
 10
816.0956932289526
 20
2035.063700103266
 30
0.0
 11
823.2371216574419
 21
2035.063700103266
 31
0.0
  0
LINE
  5
112
330
87
100
AcDbEntity
  8
P-SANR-FIXT
100
AcDbLine
 10
808.0956932289343
 20
2035.063700103266
 30
0.0
 11
815.2371216574215
 21
2035.063700103266
 31
0.0
  0
LINE
  5
113
330
87
100
AcDbEntity
  8
P-SANR-FIXT
100
AcDbLine
 10
806.666407443185
 20
2035.063700103266
 30
0.0
 11
807.6664074431677
 21
2035.063700103266
 31
0.0
  0
LINE
  5
114
330
87
100
AcDbEntity
  8
P-SANR-FIXT
100
AcDbLine
 10
823.2371216574431
 20
2038.563700103275
 30
0.0
 11
823.6664074432066
 21
2038.563700103275
 31
0.0
  0
LINE
  5
115
330
87
100
AcDbEntity
  8
P-SANR-FIXT
100
AcDbLine
 10
807.6664074431677
 20
2038.563700103275
 30
0.0
 11
808.0956932289328
 21
2038.563700103275
 31
0.0
  0
LINE
  5
116
330
87
100
AcDbEntity
  8
P-SANR-FIXT
100
AcDbLine
 10
808.0956932289328
 20
2038.563700103275
 30
0.0
 11
815.2371216574232
 21
2038.563700103275
 31
0.0
  0
LINE
  5
117
330
87
100
AcDbEntity
  8
P-SANR-FIXT
100
AcDbLine
 10
815.2371216574232
 20
2038.563700103275
 30
0.0
 11
816.095693228951
 21
2038.563700103275
 31
0.0
  0
LINE
  5
118
330
87
100
AcDbEntity
  8
P-SANR-FIXT
100
AcDbLine
 10
816.095693228951
 20
2038.563700103275
 30
0.0
 11
823.2371216574431
 21
2038.563700103275
 31
0.0
  0
LINE
  5
119
330
87
100
AcDbEntity
  8
P-SANR-FIXT
100
AcDbLine
 10
823.2371216574431
 20
2038.563700103275
 30
0.0
 11
823.2371216574431
 21
2035.063700103266
 31
0.0
  0
LINE
  5
11A
330
87
100
AcDbEntity
  8
P-SANR-FIXT
100
AcDbLine
 10
823.6664074432066
 20
2035.063700103266
 30
0.0
 11
823.6664074432066
 21
2038.563700103275
 31
0.0
  0
LINE
  5
11B
330
87
100
AcDbEntity
  8
P-SANR-FIXT
100
AcDbLine
 10
807.6664074431677
 20
2035.063700103266
 30
0.0
 11
807.6664074431677
 21
2038.563700103275
 31
0.0
  0
LINE
  5
11C
330
87
100
AcDbEntity
  8
P-SANR-FIXT
100
AcDbLine
 10
808.0956932289328
 20
2035.063700103266
 30
0.0
 11
808.0956932289328
 21
2038.563700103275
 31
0.0
  0
LINE
  5
11D
330
87
100
AcDbEntity
  8
P-SANR-FIXT
100
AcDbLine
 10
815.2371216574232
 20
2035.063700103266
 30
0.0
 11
815.2371216574232
 21
2038.563700103275
 31
0.0
  0
LINE
  5
11E
330
87
100
AcDbEntity
  8
P-SANR-FIXT
100
AcDbLine
 10
816.095693228951
 20
2035.063700103266
 30
0.0
 11
816.095693228951
 21
2038.563700103275
 31
0.0
  0
LINE
  5
11F
330
87
100
AcDbEntity
  8
P-SANR-FIXT
100
AcDbLine
 10
701.0474472992901
 20
1952.194577730673
 30
0.0
 11
746.6853675870102
 21
1897.805422269254
 31
0.0
  0
LINE
  5
120
330
87
100
AcDbEntity
  8
P-SANR-FIXT
100
AcDbLine
 10
711.9406160237535
 20
1931.637015757437
 30
0.0
 11
711.0525553177463
 21
1932.695365294263
 31
0.0
  0
LINE
  5
121
330
87
100
AcDbEntity
  8
P-SANR-FIXT
100
AcDbLine
 10
719.430834104572
 20
1922.710521450308
 30
0.0
 11
712.645939966439
 21
1930.7964434148
 31
0.0
  0
LINE
  5
122
330
87
100
AcDbEntity
  8
P-SANR-FIXT
100
AcDbLine
 10
727.6263761280751
 20
1912.943454800542
 30
0.0
 11
720.8414819899426
 21
1921.029376765032
 31
0.0
  0
LINE
  5
123
330
87
100
AcDbEntity
  8
P-SANR-FIXT
100
AcDbLine
 10
729.2197607767674
 20
1911.044532921078
 30
0.0
 11
728.3317000707606
 21
1912.102882457904
 31
0.0
  0
LINE
  5
124
330
87
100
AcDbEntity
  8
P-SANR-FIXT
100
AcDbLine
 10
721.3373272629922
 20
1906.233906814588
 30
0.0
 11
713.1417852394888
 21
1916.000973464355
 31
0.0
  0
LINE
  5
125
330
87
100
AcDbEntity
  8
P-SANR-FIXT
100
AcDbLine
 10
713.1417852394888
 20
1916.000973464355
 30
0.0
 11
704.9462432159855
 21
1925.768040114122
 31
0.0
  0
LINE
  5
126
330
87
100
AcDbEntity
  8
P-SANR-FIXT
100
AcDbLine
 10
727.6263761280747
 20
1912.943454800542
 30
0.0
 11
728.3317000707604
 21
1912.102882457903
 31
0.0
  0
LINE
  5
127
330
87
100
AcDbEntity
  8
P-SANR-FIXT
100
AcDbLine
 10
720.1361580472571
 20
1921.86994910767
 30
0.0
 11
720.8414819899423
 21
1921.029376765032
 31
0.0
  0
LINE
  5
128
330
87
100
AcDbEntity
  8
P-SANR-FIXT
100
AcDbLine
 10
719.430834104572
 20
1922.710521450308
 30
0.0
 11
720.1361580472571
 21
1921.86994910767
 31
0.0
  0
LINE
  5
129
330
87
100
AcDbEntity
  8
P-SANR-FIXT
100
AcDbLine
 10
711.9406160237538
 20
1931.637015757437
 30
0.0
 11
712.6459399664388
 21
1930.7964434148
 31
0.0
  0
LINE
  5
12A
330
87
100
AcDbEntity
  8
P-SANR-FIXT
100
AcDbLine
 10
728.3317000707604
 20
1912.102882457903
 30
0.0
 11
721.3373272629922
 21
1906.233906814588
 31
0.0
  0
LINE
  5
12B
330
87
100
AcDbEntity
  8
P-SANR-FIXT
100
AcDbLine
 10
720.1361580472571
 20
1921.86994910767
 30
0.0
 11
713.1417852394888
 21
1916.000973464355
 31
0.0
  0
LINE
  5
12C
330
87
100
AcDbEntity
  8
P-SANR-FIXT
100
AcDbLine
 10
711.9406160237538
 20
1931.637015757437
 30
0.0
 11
704.9462432159855
 21
1925.768040114122
 31
0.0
  0
ENDBLK
  5
12E
330
87
100
AcDbEntity
  8
0
100
AcDbBlockEnd
  0
BLOCK
  5
20E
330
130
100
AcDbEntity
  8
0
100
AcDbBlockBegin
  2
Automatic flow rate regulator valve_Caleffi_121 DN15 - 1_2__-V1-Est - Idraulica
 70
     0
 10
0.0
 20
0.0
 30
0.0
  3
Automatic flow rate regulator valve_Caleffi_121 DN15 - 1_2__-V1-Est - Idraulica
  1

  0
LINE
  5
131
330
130
100
AcDbEntity
  8
P-SANR-FIXT
100
AcDbLine
 10
700.2447131512971
 20
1778.21163521394
 30
0.0
 11
701.130509058327
 21
1779.745878730053
 31
0.0
  0
LINE
  5
132
330
130
100
AcDbEntity
  8
P-SANR-FIXT
100
AcDbLine
 10
701.130509058327
 20
1832.745878730053
 30
0.0
 11
700.2447131512971
 21
1834.280122246166
 31
0.0
  0
LINE
  5
133
330
130
100
AcDbEntity
  8
P-SANR-FIXT
100
AcDbLine
 10
701.130509058327
 20
1779.745878730053
 30
0.0
 11
706.466407443189
 21
1779.745878730053
 31
0.0
  0
LINE
  5
134
330
130
100
AcDbEntity
  8
P-SANR-FIXT
100
AcDbLine
 10
706.466407443189
 20
1832.745878730054
 30
0.0
 11
701.130509058327
 21
1832.745878730054
 31
0.0
  0
LINE
  5
135
330
130
100
AcDbEntity
  8
P-SANR-FIXT
100
AcDbLine
 10
706.466407443189
 20
1779.745878730053
 30
0.0
 11
708.4664074431891
 21
1782.245878730053
 31
0.0
  0
LINE
  5
136
330
130
100
AcDbEntity
  8
P-SANR-FIXT
100
AcDbLine
 10
708.4664074431891
 20
1830.245878730053
 30
0.0
 11
706.466407443189
 21
1832.745878730053
 31
0.0
  0
LINE
  5
137
330
130
100
AcDbEntity
  8
P-SANR-FIXT
100
AcDbLine
 10
708.4664074431891
 20
1782.245878730052
 30
0.0
 11
738.8913394243449
 21
1782.245878730052
 31
0.0
  0
LINE
  5
138
330
130
100
AcDbEntity
  8
P-SANR-FIXT
100
AcDbLine
 10
738.8913394243449
 20
1830.245878730053
 30
0.0
 11
708.4664074431891
 21
1830.245878730053
 31
0.0
  0
LINE
  5
139
330
130
100
AcDbEntity
  8
P-SANR-FIXT
100
AcDbLine
 10
738.8913394243449
 20
1782.245878730052
 30
0.0
 11
738.9170643964335
 21
1782.539916506512
 31
0.0
  0
LINE
  5
13A
330
130
100
AcDbEntity
  8
P-SANR-FIXT
100
AcDbLine
 10
738.9171905593957
 20
1782.541358555769
 30
0.0
 11
740.4826187480046
 21
1800.434284627786
 31
0.0
  0
LINE
  5
13B
330
130
100
AcDbEntity
  8
P-SANR-FIXT
100
AcDbLine
 10
740.4826187480046
 20
1812.05747283232
 30
0.0
 11
738.9171905593957
 21
1829.950398904337
 31
0.0
  0
LINE
  5
13C
330
130
100
AcDbEntity
  8
P-SANR-FIXT
100
AcDbLine
 10
738.9170643964335
 20
1829.951840953594
 30
0.0
 11
738.8913394243449
 21
1830.245878730053
 31
0.0
  0
LINE
  5
13D
330
130
100
AcDbEntity
  8
P-SANR-FIXT
100
AcDbLine
 10
739.4807788529574
 20
1809.245878730051
 30
0.0
 11
784.7508252767804
 21
1809.245878730051
 31
0.0
  0
SPLINE
  5
13E
330
130
100
AcDbEntity
  8
P-SANR-FIXT
100
AcDbSpline
210
0.0
220
0.0
230
1.0
 70
     8
 71
     3
 72
    10
 73
     6
 74
     0
 42
0.000000001
 43
0.0000000001
 40
-1.0
 40
-1.0
 40
-1.0
 40
-1.0
 40
-0.6666666666666666
 40
-0.3333333333333333
 40
0.0
 40
0.0
 40
0.0
 40
0.0
 10
697.7636245251844
 20
1806.245878730052
 30
0.0
 10
698.871052087254
 20
1803.104323719919
 30
0.0
 10
700.3473691351396
 20
1796.841925926692
 30
0.0
 10
700.3257346534202
 20
1787.544185760823
 30
0.0
 10
698.8615632794822
 20
1781.342156980503
 30
0.0
 10
697.7636245251842
 20
1778.245878730052
 30
0.0
  0
SPLINE
  5
13F
330
130
100
AcDbEntity
  8
P-SANR-FIXT
100
AcDbSpline
210
0.0
220
0.0
230
1.0
 70
    24
 71
     3
 72
     9
 73
     5
 74
     0
 42
0.000000001
 43
0.0000000001
 40
-1.0
 40
-1.0
 40
-1.0
 40
-1.0
 40
-0.6666666666666666
 40
-0.4444444444444445
 40
-0.4444444444444445
 40
-0.4444444444444445
 40
-0.4444444444444445
 10
697.7636245251842
 20
1778.245878730052
 30
0.0
 10
698.8710520872539
 20
1778.245878730052
 30
0.0
 10
700.1013162938254
 20
1778.245878730052
 30
0.0
 10
700.2963443644948
 20
1778.245878730052
 30
0.0
 10
700.2117542295053
 20
1778.245878730052
 30
0.0
  0
SPLINE
  5
140
330
130
100
AcDbEntity
  8
P-SANR-FIXT
100
AcDbSpline
210
0.0
220
0.0
230
1.0
 70
    24
 71
     3
 72
     9
 73
     5
 74
     0
 42
0.000000001
 43
0.0000000001
 40
-0.5555555555555556
 40
-0.5555555555555556
 40
-0.5555555555555556
 40
-0.5555555555555556
 40
-0.3333333333333333
 40
0.0
 40
0.0
 40
0.0
 40
0.0
 10
700.2163088572358
 20
1834.245878730052
 30
0.0
 10
700.2950791901253
 20
1834.245878730052
 30
0.0
 10
700.0817060910971
 20
1834.245878730052
 30
0.0
 10
698.8615632794823
 20
1834.245878730052
 30
0.0
 10
697.7636245251842
 20
1834.245878730052
 30
0.0
  0
SPLINE
  5
141
330
130
100
AcDbEntity
  8
P-SANR-FIXT
100
AcDbSpline
210
0.0
220
0.0
230
1.0
 70
     8
 71
     3
 72
    10
 73
     6
 74
     0
 42
0.000000001
 43
0.0000000001
 40
-1.0
 40
-1.0
 40
-1.0
 40
-1.0
 40
-0.6666666666666666
 40
-0.3333333333333333
 40
0.0
 40
0.0
 40
0.0
 40
0.0
 10
697.7636245251842
 20
1834.245878730052
 30
0.0
 10
698.8615632794822
 20
1831.149600479601
 30
0.0
 10
700.32573465342
 20
1824.947571699282
 30
0.0
 10
700.3473691351397
 20
1815.649831533413
 30
0.0
 10
698.871052087254
 20
1809.387433740185
 30
0.0
 10
697.7636245251844
 20
1806.245878730052
 30
0.0
  0
LINE
  5
142
330
130
100
AcDbEntity
  8
P-SANR-FIXT
100
AcDbLine
 10
701.1305090583256
 20
1779.745878730051
 30
0.0
 11
701.1305090583256
 21
1806.245878730052
 31
0.0
  0
LINE
  5
143
330
130
100
AcDbEntity
  8
P-SANR-FIXT
100
AcDbLine
 10
701.1305090583256
 20
1806.245878730052
 30
0.0
 11
701.1305090583256
 21
1832.745878730053
 31
0.0
  0
LINE
  5
144
330
130
100
AcDbEntity
  8
P-SANR-FIXT
100
AcDbLine
 10
706.4664074431878
 20
1779.745878730051
 30
0.0
 11
706.4664074431878
 21
1806.245878730052
 31
0.0
  0
LINE
  5
145
330
130
100
AcDbEntity
  8
P-SANR-FIXT
100
AcDbLine
 10
706.4664074431878
 20
1806.245878730052
 30
0.0
 11
706.4664074431878
 21
1832.745878730053
 31
0.0
  0
LINE
  5
146
330
130
100
AcDbEntity
  8
P-SANR-FIXT
100
AcDbLine
 10
708.4664074431876
 20
1782.245878730052
 30
0.0
 11
708.4664074431876
 21
1806.245878730052
 31
0.0
  0
LINE
  5
147
330
130
100
AcDbEntity
  8
P-SANR-FIXT
100
AcDbLine
 10
708.4664074431876
 20
1806.245878730052
 30
0.0
 11
708.4664074431876
 21
1830.245878730053
 31
0.0
  0
LINE
  5
148
330
130
100
AcDbEntity
  8
P-SANR-FIXT
100
AcDbLine
 10
738.8913394243433
 20
1782.245878730052
 30
0.0
 11
738.8913394243433
 21
1806.245878730052
 31
0.0
  0
SPLINE
  5
149
330
130
100
AcDbEntity
  8
P-SANR-FIXT
100
AcDbSpline
210
0.0
220
0.0
230
1.0
 70
    24
 71
     3
 72
     8
 73
     4
 74
     0
 42
0.000000001
 43
0.0000000001
 40
-0.5
 40
-0.5
 40
-0.5
 40
-0.5
 40
-0.25
 40
-0.25
 40
-0.25
 40
-0.25
 10
740.6334974197307
 20
1803.245878730051
 30
0.0
 10
740.676688673236
 20
1803.245878730051
 30
0.0
 10
740.4845689121071
 20
1803.245878730051
 30
0.0
 10
740.2336213973198
 20
1803.245878730051
 30
0.0
  0
ARC
  5
14A
330
130
100
AcDbEntity
  8
P-SANR-FIXT
100
AcDbCircle
 10
542.5346568681288
 20
1806.254653880429
 30
0.0
 40
196.9691033963665
100
AcDbArc
 50
359.124751955957
 51
359.9974474215865
  0
LINE
  5
14B
330
130
100
AcDbEntity
  8
P-SANR-FIXT
100
AcDbLine
 10
738.8913394243433
 20
1806.245878730052
 30
0.0
 11
738.8913394243433
 21
1830.245878730053
 31
0.0
  0
ARC
  5
14C
330
130
100
AcDbEntity
  8
P-SANR-FIXT
100
AcDbCircle
 10
542.5346568677713
 20
1806.237103579673
 30
0.0
 40
196.969103396724
100
AcDbArc
 50
0.0025525784132793
 51
0.8752480440407421
  0
SPLINE
  5
14D
330
130
100
AcDbEntity
  8
P-SANR-FIXT
100
AcDbSpline
210
0.0
220
0.0
230
1.0
 70
    24
 71
     3
 72
     8
 73
     4
 74
     0
 42
0.000000001
 43
0.0000000001
 40
0.5
 40
0.5
 40
0.5
 40
0.5
 40
0.7499999999999995
 40
0.7499999999999995
 40
0.7499999999999995
 40
0.7499999999999995
 10
740.633497419731
 20
1809.245878730051
 30
0.0
 10
740.6766886732362
 20
1809.245878730051
 30
0.0
 10
740.4845689121072
 20
1809.245878730051
 30
0.0
 10
740.2336213973198
 20
1809.245878730051
 30
0.0
  0
LINE
  5
14E
330
130
100
AcDbEntity
  8
P-SANR-FIXT
100
AcDbLine
 10
675.6664074431879
 20
1778.245878730052
 30
0.0
 11
675.6664074431879
 21
1806.245878730052
 31
0.0
  0
LINE
  5
14F
330
130
100
AcDbEntity
  8
P-SANR-FIXT
100
AcDbLine
 10
675.6664074431879
 20
1806.245878730053
 30
0.0
 11
675.6664074431879
 21
1834.245878730052
 31
0.0
  0
LINE
  5
150
330
130
100
AcDbEntity
  8
P-SANR-FIXT
100
AcDbLine
 10
784.7508252767807
 20
1803.245878730051
 30
0.0
 11
739.4807788529574
 21
1803.245878730051
 31
0.0
  0
LINE
  5
151
330
130
100
AcDbEntity
  8
P-SANR-FIXT
100
AcDbLine
 10
675.6664074431879
 20
1834.245878730052
 30
0.0
 11
697.7636245251842
 21
1834.245878730052
 31
0.0
  0
LINE
  5
152
330
130
100
AcDbEntity
  8
P-SANR-FIXT
100
AcDbLine
 10
675.6664074431879
 20
1806.245878730052
 30
0.0
 11
697.7636245251844
 21
1806.245878730052
 31
0.0
  0
LINE
  5
153
330
130
100
AcDbEntity
  8
P-SANR-FIXT
100
AcDbLine
 10
675.6664074431879
 20
1778.245878730052
 30
0.0
 11
697.7636245251842
 21
1778.245878730052
 31
0.0
  0
ARC
  5
154
330
130
100
AcDbEntity
  8
P-SANR-FIXT
100
AcDbCircle
 10
725.6664074431872
 20
1806.245878730052
 30
0.0
 40
9.000000000003593
100
AcDbArc
 50
352.4999999999994
 51
352.9161788483951
  0
ARC
  5
155
330
130
100
AcDbEntity
  8
P-SANR-FIXT
100
AcDbCircle
 10
725.6664074431872
 20
1806.245878730052
 30
0.0
 40
9.000000000003684
100
AcDbArc
 50
345.0000000000009
 51
346.0011654348669
  0
ARC
  5
156
330
130
100
AcDbEntity
  8
P-SANR-FIXT
100
AcDbCircle
 10
725.6664074431872
 20
1806.245878730052
 30
0.0
 40
9.00000000000359
100
AcDbArc
 50
337.5000000000004
 51
339.2541034358789
  0
ARC
  5
157
330
130
100
AcDbEntity
  8
P-SANR-FIXT
100
AcDbCircle
 10
725.6664074431872
 20
1806.245878730052
 30
0.0
 40
9.000000000003648
100
AcDbArc
 50
320.355082092537
 51
322.5
  0
ARC
  5
158
330
130
100
AcDbEntity
  8
P-SANR-FIXT
100
AcDbCircle
 10
725.6664074431872
 20
1806.245878730052
 30
0.0
 40
9.000000000003609
100
AcDbArc
 50
313.6823170857381
 51
314.9999999999997
  0
ARC
  5
159
330
130
100
AcDbEntity
  8
P-SANR-FIXT
100
AcDbCircle
 10
725.6664074431872
 20
1806.245878730052
 30
0.0
 40
9.000000000003627
100
AcDbArc
 50
306.8245351280656
 51
307.4999999999999
  0
ARC
  5
15A
330
130
100
AcDbEntity
  8
P-SANR-FIXT
100
AcDbCircle
 10
725.6664074431872
 20
1806.245878730052
 30
0.0
 40
9.000000000003637
100
AcDbArc
 50
292.4999999999998
 51
293.1816634898951
  0
ARC
  5
15B
330
130
100
AcDbEntity
  8
P-SANR-FIXT
100
AcDbCircle
 10
725.6664074431872
 20
1806.245878730052
 30
0.0
 40
9.000000000003517
100
AcDbArc
 50
285.0
 51
286.3740753085615
  0
ARC
  5
15C
330
130
100
AcDbEntity
  8
P-SANR-FIXT
100
AcDbCircle
 10
725.6664074431872
 20
1806.245878730052
 30
0.0
 40
9.000000000003545
100
AcDbArc
 50
277.4999999999999
 51
279.5592212383407
  0
ARC
  5
15D
330
130
100
AcDbEntity
  8
P-SANR-FIXT
100
AcDbCircle
 10
725.6664074431872
 20
1806.245878730052
 30
0.0
 40
9.000000000003616
100
AcDbArc
 50
260.5560081308975
 51
262.5000000000002
  0
ARC
  5
15E
330
130
100
AcDbEntity
  8
P-SANR-FIXT
100
AcDbCircle
 10
725.6664074431872
 20
1806.245878730052
 30
0.0
 40
9.000000000003664
100
AcDbArc
 50
253.8250687660546
 51
254.9999999999994
  0
ARC
  5
15F
330
130
100
AcDbEntity
  8
P-SANR-FIXT
100
AcDbCircle
 10
725.6664074431872
 20
1806.245878730052
 30
0.0
 40
9.000000000003662
100
AcDbArc
 50
247.0702621793735
 51
247.5000000000001
  0
ARC
  5
160
330
130
100
AcDbEntity
  8
P-SANR-FIXT
100
AcDbCircle
 10
725.6664074431872
 20
1806.245878730052
 30
0.0
 40
9.00000000000363
100
AcDbArc
 50
239.9999999999994
 51
240.2745373860172
  0
ARC
  5
161
330
130
100
AcDbEntity
  8
P-SANR-FIXT
100
AcDbCircle
 10
725.6664074431872
 20
1806.245878730052
 30
0.0
 40
9.00000000000359
100
AcDbArc
 50
232.5000000000001
 51
233.4123099427108
  0
ARC
  5
162
330
130
100
AcDbEntity
  8
P-SANR-FIXT
100
AcDbCircle
 10
725.6664074431872
 20
1806.245878730052
 30
0.0
 40
9.000000000003581
100
AcDbArc
 50
224.9999999999994
 51
226.5071358431709
  0
ARC
  5
163
330
130
100
AcDbEntity
  8
P-SANR-FIXT
100
AcDbCircle
 10
725.6664074431872
 20
1806.245878730052
 30
0.0
 40
9.000000000003623
100
AcDbArc
 50
217.4999999999995
 51
219.7623156285688
  0
ARC
  5
164
330
130
100
AcDbEntity
  8
P-SANR-FIXT
100
AcDbCircle
 10
725.6664074431872
 20
1806.245878730052
 30
0.0
 40
9.000000000003453
100
AcDbArc
 50
200.7060447906896
 51
202.4999999999991
  0
ARC
  5
165
330
130
100
AcDbEntity
  8
P-SANR-FIXT
100
AcDbCircle
 10
725.6664074431872
 20
1806.245878730052
 30
0.0
 40
9.000000000003664
100
AcDbArc
 50
193.9456142934401
 51
194.9999999999983
  0
ARC
  5
166
330
130
100
AcDbEntity
  8
P-SANR-FIXT
100
AcDbCircle
 10
725.6664074431872
 20
1806.245878730052
 30
0.0
 40
9.000000000003616
100
AcDbArc
 50
187.0437015966099
 51
187.4999999999997
  0
ARC
  5
167
330
130
100
AcDbEntity
  8
P-SANR-FIXT
100
AcDbCircle
 10
725.6664074431872
 20
1806.245878730052
 30
0.0
 40
9.000000000003538
100
AcDbArc
 50
172.5000000000013
 51
172.9506386771175
  0
ARC
  5
168
330
130
100
AcDbEntity
  8
P-SANR-FIXT
100
AcDbCircle
 10
725.6664074431872
 20
1806.245878730052
 30
0.0
 40
9.000000000003623
100
AcDbArc
 50
164.9999999999998
 51
166.0468773716739
  0
ARC
  5
169
330
130
100
AcDbEntity
  8
P-SANR-FIXT
100
AcDbCircle
 10
725.6664074431872
 20
1806.245878730052
 30
0.0
 40
9.000000000003534
100
AcDbArc
 50
157.4999999999998
 51
159.2883328281297
  0
ARC
  5
16A
330
130
100
AcDbEntity
  8
P-SANR-FIXT
100
AcDbCircle
 10
725.6664074431872
 20
1806.245878730052
 30
0.0
 40
9.000000000003648
100
AcDbArc
 50
140.5804674936567
 51
142.4999999999996
  0
ARC
  5
16B
330
130
100
AcDbEntity
  8
P-SANR-FIXT
100
AcDbCircle
 10
725.6664074431872
 20
1806.245878730052
 30
0.0
 40
9.000000000003609
100
AcDbArc
 50
134.0434385808301
 51
135.0
  0
ARC
  5
16C
330
130
100
AcDbEntity
  8
P-SANR-FIXT
100
AcDbCircle
 10
725.6664074431872
 20
1806.245878730052
 30
0.0
 40
9.000000000003627
100
AcDbArc
 50
127.276031093124
 51
127.5000000000007
  0
ARC
  5
16D
330
130
100
AcDbEntity
  8
P-SANR-FIXT
100
AcDbCircle
 10
725.6664074431872
 20
1806.245878730052
 30
0.0
 40
9.000000000003545
100
AcDbArc
 50
120.0000000000002
 51
120.4983086117701
  0
ARC
  5
16E
330
130
100
AcDbEntity
  8
P-SANR-FIXT
100
AcDbCircle
 10
725.6664074431872
 20
1806.245878730052
 30
0.0
 40
9.00000000000362
100
AcDbArc
 50
112.4999999999993
 51
113.6628692568694
  0
ARC
  5
16F
330
130
100
AcDbEntity
  8
P-SANR-FIXT
100
AcDbCircle
 10
725.6664074431872
 20
1806.245878730052
 30
0.0
 40
9.000000000003671
100
AcDbArc
 50
105.0000000000003
 51
106.7549226758743
  0
ARC
  5
170
330
130
100
AcDbEntity
  8
P-SANR-FIXT
100
AcDbCircle
 10
725.6664074431872
 20
1806.245878730052
 30
0.0
 40
9.000000000003629
100
AcDbArc
 50
97.50000000000083
 51
99.77980421456344
  0
ARC
  5
171
330
130
100
AcDbEntity
  8
P-SANR-FIXT
100
AcDbCircle
 10
725.6664074431872
 20
1806.245878730052
 30
0.0
 40
9.00000000000363
100
AcDbArc
 50
80.50638591397534
 51
82.49999999999984
  0
ARC
  5
172
330
130
100
AcDbEntity
  8
P-SANR-FIXT
100
AcDbCircle
 10
725.6664074431872
 20
1806.245878730052
 30
0.0
 40
9.000000000003664
100
AcDbArc
 50
73.73929340885581
 51
74.9999999999999
  0
ARC
  5
173
330
130
100
AcDbEntity
  8
P-SANR-FIXT
100
AcDbCircle
 10
725.6664074431872
 20
1806.245878730052
 30
0.0
 40
9.000000000003662
100
AcDbArc
 50
66.96172732833358
 51
67.5000000000007
  0
ARC
  5
174
330
130
100
AcDbEntity
  8
P-SANR-FIXT
100
AcDbCircle
 10
725.6664074431872
 20
1806.245878730052
 30
0.0
 40
9.000000000003657
100
AcDbArc
 50
60.00000000000029
 51
60.16539396895346
  0
ARC
  5
175
330
130
100
AcDbEntity
  8
P-SANR-FIXT
100
AcDbCircle
 10
725.6664074431872
 20
1806.245878730052
 30
0.0
 40
9.00000000000363
100
AcDbArc
 50
52.50000000000051
 51
53.31023242254233
  0
ARC
  5
176
330
130
100
AcDbEntity
  8
P-SANR-FIXT
100
AcDbCircle
 10
725.6664074431872
 20
1806.245878730052
 30
0.0
 40
9.000000000003616
100
AcDbArc
 50
45.00000000000178
 51
46.42548229846021
  0
ARC
  5
177
330
130
100
AcDbEntity
  8
P-SANR-FIXT
100
AcDbCircle
 10
725.6664074431872
 20
1806.245878730052
 30
0.0
 40
9.000000000003611
100
AcDbArc
 50
37.50000000000155
 51
39.71178824773129
  0
ARC
  5
178
330
130
100
AcDbEntity
  8
P-SANR-FIXT
100
AcDbCircle
 10
725.6664074431872
 20
1806.245878730052
 30
0.0
 40
9.00000000000354
100
AcDbArc
 50
20.74589656411906
 51
22.50000000000234
  0
ARC
  5
179
330
130
100
AcDbEntity
  8
P-SANR-FIXT
100
AcDbCircle
 10
725.6664074431872
 20
1806.245878730052
 30
0.0
 40
9.000000000003694
100
AcDbArc
 50
13.99883456513157
 51
15.00000000000043
  0
ARC
  5
17A
330
130
100
AcDbEntity
  8
P-SANR-FIXT
100
AcDbCircle
 10
725.6664074431872
 20
1806.245878730052
 30
0.0
 40
9.000000000003645
100
AcDbArc
 50
7.083821151604583
 51
7.500000000001698
  0
ARC
  5
17B
330
130
100
AcDbEntity
  8
P-SANR-FIXT
100
AcDbCircle
 10
725.6664074431878
 20
1806.245878730052
 30
0.0
 40
10.5
100
AcDbArc
 50
180.0
 51
0.0
  0
ARC
  5
17C
330
130
100
AcDbEntity
  8
P-SANR-FIXT
100
AcDbCircle
 10
725.6664074431878
 20
1806.245878730052
 30
0.0
 40
10.5
100
AcDbArc
 50
0.0
 51
180.0
  0
SPLINE
  5
17D
330
130
100
AcDbEntity
  8
P-SANR-FIXT
100
AcDbSpline
210
0.0
220
0.0
230
1.0
 70
     8
 71
     3
 72
     8
 73
     4
 74
     0
 42
0.000000001
 43
0.0000000001
 40
-0.9629629629629629
 40
-0.9629629629629629
 40
-0.9629629629629629
 40
-0.9629629629629629
 40
-0.9588938613308938
 40
-0.9588938613308938
 40
-0.9588938613308938
 40
-0.9588938613308938
 10
736.0933211424468
 20
1805.00942793336
 30
0.0
 10
736.0879906694678
 20
1804.96446320539
 30
0.0
 10
736.0823711105856
 20
1804.919544630867
 30
0.0
 10
736.0764632859013
 20
1804.87467596209
 30
0.0
  0
SPLINE
  5
17E
330
130
100
AcDbEntity
  8
P-SANR-FIXT
100
AcDbSpline
210
0.0
220
0.0
230
1.0
 70
     8
 71
     3
 72
     8
 73
     4
 74
     0
 42
0.000000001
 43
0.0000000001
 40
-0.9259259259259259
 40
-0.9259259259259259
 40
-0.9259259259259259
 40
-0.9259259259259259
 40
-0.9177255981428993
 40
-0.9177255981428993
 40
-0.9177255981428993
 40
-0.9177255981428993
 10
735.8765795427011
 20
1803.795886652716
 30
0.0
 10
735.8553880560882
 20
1803.707575992942
 30
0.0
 10
735.8330613773326
 20
1803.619585119272
 30
0.0
 10
735.8096100079637
 20
1803.531941924423
 30
0.0
  0
SPLINE
  5
17F
330
130
100
AcDbEntity
  8
P-SANR-FIXT
100
AcDbSpline
210
0.0
220
0.0
230
1.0
 70
     8
 71
     3
 72
     8
 73
     4
 74
     0
 42
0.000000001
 43
0.0000000001
 40
-0.8888888888888889
 40
-0.8888888888888889
 40
-0.8888888888888889
 40
-0.8888888888888889
 40
-0.8758459073073284
 40
-0.8758459073073284
 40
-0.8758459073073284
 40
-0.8758459073073284
 10
735.5210834195446
 20
1802.621604816422
 30
0.0
 10
735.4714754103834
 20
1802.486713672404
 30
0.0
 10
735.4191470588602
 20
1802.352983726026
 30
0.0
 10
735.3641614823888
 20
1802.220515952497
 30
0.0
  0
SPLINE
  5
180
330
130
100
AcDbEntity
  8
P-SANR-FIXT
100
AcDbSpline
210
0.0
220
0.0
230
1.0
 70
     8
 71
     3
 72
    11
 73
     7
 74
     0
 42
0.000000001
 43
0.0000000001
 40
-0.8518518518518519
 40
-0.8518518518518519
 40
-0.8518518518518519
 40
-0.8518518518518519
 40
-0.8333333333333332
 40
-0.8055555555555555
 40
-0.7916666666666668
 40
-0.7777777777777778
 40
-0.7777777777777778
 40
-0.7777777777777778
 40
-0.7777777777777778
 10
735.034117402778
 20
1801.50288089103
 30
0.0
 10
734.9424656109781
 20
1801.321862460178
 30
0.0
 10
734.7005031068577
 20
1800.876522180992
 30
0.0
 10
734.3455384133756
 20
1800.322753843434
 30
0.0
 10
733.9861157959021
 20
1799.83484841154
 30
0.0
 10
733.7960017614445
 20
1799.598879980065
 30
0.0
 10
733.6985307211831
 20
1799.483113345456
 30
0.0
  0
SPLINE
  5
181
330
130
100
AcDbEntity
  8
P-SANR-FIXT
100
AcDbSpline
210
0.0
220
0.0
230
1.0
 70
     8
 71
     3
 72
     8
 73
     4
 74
     0
 42
0.000000001
 43
0.0000000001
 40
-0.7497909667734254
 40
-0.7497909667734254
 40
-0.7497909667734254
 40
-0.7497909667734254
 40
-0.7407407407407407
 40
-0.7407407407407407
 40
-0.7407407407407407
 40
-0.7407407407407407
 10
733.0811885637747
 20
1798.81143046092
 30
0.0
 10
733.0117049866709
 20
1798.742130539362
 30
0.0
 10
732.9412852844122
 20
1798.673838842942
 30
0.0
 10
732.8699437289036
 20
1798.606566326353
 30
0.0
  0
SPLINE
  5
182
330
130
100
AcDbEntity
  8
P-SANR-FIXT
100
AcDbSpline
210
0.0
220
0.0
230
1.0
 70
     8
 71
     3
 72
     8
 73
     4
 74
     0
 42
0.000000001
 43
0.0000000001
 40
-0.7081415291190187
 40
-0.7081415291190187
 40
-0.7081415291190187
 40
-0.7081415291190187
 40
-0.7037037037037038
 40
-0.7037037037037038
 40
-0.7037037037037038
 40
-0.7037037037037038
 10
732.0637940876338
 20
1797.919805794554
 30
0.0
 10
732.0256423467557
 20
1797.890491666667
 30
0.0
 10
731.9872802546626
 20
1797.861433126701
 30
0.0
 10
731.9487091618404
 20
1797.832631794066
 30
0.0
  0
SPLINE
  5
183
330
130
100
AcDbEntity
  8
P-SANR-FIXT
100
AcDbSpline
210
0.0
220
0.0
230
1.0
 70
     8
 71
     3
 72
     8
 73
     4
 74
     0
 42
0.000000001
 43
0.0000000001
 40
-0.6666666666666666
 40
-0.6666666666666666
 40
-0.6666666666666666
 40
-0.6666666666666666
 40
-0.6658620997747078
 40
-0.6658620997747078
 40
-0.6658620997747078
 40
-0.6658620997747078
 10
730.9399981156162
 20
1797.166272933561
 30
0.0
 10
730.9323899064346
 20
1797.161853987013
 30
0.0
 10
730.9247753845506
 20
1797.157444170842
 30
0.0
 10
730.9171545922671
 20
1797.153043514006
 30
0.0
  0
SPLINE
  5
184
330
130
100
AcDbEntity
  8
P-SANR-FIXT
100
AcDbSpline
210
0.0
220
0.0
230
1.0
 70
     8
 71
     3
 72
     8
 73
     4
 74
     0
 42
0.000000001
 43
0.0000000001
 40
-0.6296296296296297
 40
-0.6296296296296297
 40
-0.6296296296296297
 40
-0.6296296296296297
 40
-0.6241731457761435
 40
-0.6241731457761435
 40
-0.6241731457761435
 40
-0.6241731457761435
 10
729.8528293734062
 20
1796.616557195667
 30
0.0
 10
729.7977902531898
 20
1796.592628675712
 30
0.0
 10
729.7425264577226
 20
1796.569163325004
 30
0.0
 10
729.687046395431
 20
1796.546165921049
 30
0.0
  0
SPLINE
  5
185
330
130
100
AcDbEntity
  8
P-SANR-FIXT
100
AcDbSpline
210
0.0
220
0.0
230
1.0
 70
     8
 71
     3
 72
     9
 73
     5
 74
     0
 42
0.000000001
 43
0.0000000001
 40
-0.5925925925925926
 40
-0.5925925925925926
 40
-0.5925925925925926
 40
-0.5925925925925926
 40
-0.5833333333333334
 40
-0.5826747125485507
 40
-0.5826747125485507
 40
-0.5826747125485507
 40
-0.5826747125485507
 10
728.703711697944
 20
1796.194776780423
 30
0.0
 10
728.6058340077926
 20
1796.165198303091
 30
0.0
 10
728.5004976142134
 20
1796.135035481711
 30
0.0
 10
728.3946873971299
 20
1796.106522312591
 30
0.0
 10
728.3876587334957
 20
1796.104636105064
 30
0.0
  0
SPLINE
  5
186
330
130
100
AcDbEntity
  8
P-SANR-FIXT
100
AcDbSpline
210
0.0
220
0.0
230
1.0
 70
     8
 71
     3
 72
    11
 73
     7
 74
     0
 42
0.000000001
 43
0.0000000001
 40
-0.5555555555555556
 40
-0.5555555555555556
 40
-0.5555555555555556
 40
-0.5555555555555556
 40
-0.5277777777777778
 40
-0.5
 40
-0.4722222222222223
 40
-0.4444444444444445
 40
-0.4444444444444445
 40
-0.4444444444444445
 40
-0.4444444444444445
 10
727.5094742338695
 20
1795.908901183153
 30
0.0
 10
727.2064523830264
 20
1795.85487709251
 30
0.0
 10
726.5943242089761
 20
1795.773231555747
 30
0.0
 10
725.664796950664
 20
1795.732132324502
 30
0.0
 10
724.7353578517141
 20
1795.773512254152
 30
0.0
 10
724.1233413806789
 20
1795.85532881658
 30
0.0
 10
723.8204340107451
 20
1795.909419854464
 30
0.0
  0
SPLINE
  5
187
330
130
100
AcDbEntity
  8
P-SANR-FIXT
100
AcDbSpline
210
0.0
220
0.0
230
1.0
 70
     8
 71
     3
 72
     9
 73
     5
 74
     0
 42
0.000000001
 43
0.0000000001
 40
-0.4173985380055681
 40
-0.4173985380055681
 40
-0.4173985380055681
 40
-0.4173985380055681
 40
-0.4166666666666666
 40
-0.4074074074074075
 40
-0.4074074074074075
 40
-0.4074074074074075
 40
-0.4074074074074075
 10
722.9450829258637
 20
1796.104655722747
 30
0.0
 10
722.9372777075727
 20
1796.106750378439
 30
0.0
 10
722.8307603681777
 20
1796.135467933179
 30
0.0
 10
722.7247296481042
 20
1796.165855411513
 30
0.0
 10
722.6269319052131
 20
1796.195432667216
 30
0.0
  0
SPLINE
  5
188
330
130
100
AcDbEntity
  8
P-SANR-FIXT
100
AcDbSpline
210
0.0
220
0.0
230
1.0
 70
     8
 71
     3
 72
     8
 73
     4
 74
     0
 42
0.000000001
 43
0.0000000001
 40
-0.3758713092408925
 40
-0.3758713092408925
 40
-0.3758713092408925
 40
-0.3758713092408925
 40
-0.3703703703703705
 40
-0.3703703703703705
 40
-0.3703703703703705
 40
-0.3703703703703705
 10
721.6457563062244
 20
1796.546170612099
 30
0.0
 10
721.5898614439136
 20
1796.56934001068
 30
0.0
 10
721.5341845288312
 20
1796.592985063443
 30
0.0
 10
721.4787338174375
 20
1796.617101135182
 30
0.0
  0
SPLINE
  5
189
330
130
100
AcDbEntity
  8
P-SANR-FIXT
100
AcDbSpline
210
0.0
220
0.0
230
1.0
 70
     8
 71
     3
 72
     8
 73
     4
 74
     0
 42
0.000000001
 43
0.0000000001
 40
-0.3341688424081697
 40
-0.3341688424081697
 40
-0.3341688424081697
 40
-0.3341688424081697
 40
-0.3333333333333333
 40
-0.3333333333333333
 40
-0.3333333333333333
 40
-0.3333333333333333
 10
720.4156433145994
 20
1797.153053302874
 30
0.0
 10
720.4077279809097
 20
1797.157624070482
 30
0.0
 10
720.3998192937393
 20
1797.162204786998
 30
0.0
 10
720.3919172980725
 20
1797.166795422301
 30
0.0
  0
SPLINE
  5
18A
330
130
100
AcDbEntity
  8
P-SANR-FIXT
100
AcDbSpline
210
0.0
220
0.0
230
1.0
 70
     8
 71
     3
 72
     8
 73
     4
 74
     0
 42
0.000000001
 43
0.0000000001
 40
-0.2962962962962965
 40
-0.2962962962962965
 40
-0.2962962962962965
 40
-0.2962962962962965
 40
-0.2919271648334921
 40
-0.2919271648334921
 40
-0.2919271648334921
 40
-0.2919271648334921
 10
719.3825105606966
 20
1797.833823835044
 30
0.0
 10
719.3444959961266
 20
1797.862220911462
 30
0.0
 10
719.306683452506
 20
1797.890868638444
 30
0.0
 10
719.2690745402225
 20
1797.91976527684
 30
0.0
  0
SPLINE
  5
18B
330
130
100
AcDbEntity
  8
P-SANR-FIXT
100
AcDbSpline
210
0.0
220
0.0
230
1.0
 70
     8
 71
     3
 72
     8
 73
     4
 74
     0
 42
0.000000001
 43
0.0000000001
 40
-0.2592592592592595
 40
-0.2592592592592595
 40
-0.2592592592592595
 40
-0.2592592592592595
 40
-0.2503199659816562
 40
-0.2503199659816562
 40
-0.2503199659816562
 40
-0.2503199659816562
 10
718.4603140367357
 20
1798.608979159354
 30
0.0
 10
718.3897887209943
 20
1798.675526439443
 30
0.0
 10
718.3201703920905
 20
1798.743065002199
 30
0.0
 10
718.2514747108833
 20
1798.811581693535
 30
0.0
  0
SPLINE
  5
18C
330
130
100
AcDbEntity
  8
P-SANR-FIXT
100
AcDbSpline
210
0.0
220
0.0
230
1.0
 70
     8
 71
     3
 72
    11
 73
     7
 74
     0
 42
0.000000001
 43
0.0000000001
 40
-0.2222222222222222
 40
-0.2222222222222222
 40
-0.2222222222222222
 40
-0.2222222222222222
 40
-0.2083333333333333
 40
-0.1944444444444444
 40
-0.1666666666666666
 40
-0.1481481481481486
 40
-0.1481481481481486
 40
-0.1481481481481486
 40
-0.1481481481481486
 10
717.6315165617587
 20
1799.486401788489
 30
0.0
 10
717.5340938784756
 20
1799.60220700234
 30
0.0
 10
717.3441302832928
 20
1799.838180050172
 30
0.0
 10
716.9851931876836
 20
1800.325881514939
 30
0.0
 10
716.6306124033046
 20
1800.879047527666
 30
0.0
 10
716.3895369659264
 20
1801.323988955604
 30
0.0
 10
716.2980067999735
 20
1801.504792554603
 30
0.0
  0
SPLINE
  5
18D
330
130
100
AcDbEntity
  8
P-SANR-FIXT
100
AcDbSpline
210
0.0
220
0.0
230
1.0
 70
     8
 71
     3
 72
     8
 73
     4
 74
     0
 42
0.000000001
 43
0.0000000001
 40
-0.1241931853167001
 40
-0.1241931853167001
 40
-0.1241931853167001
 40
-0.1241931853167001
 40
-0.1111111111111111
 40
-0.1111111111111111
 40
-0.1111111111111111
 40
-0.1111111111111111
 10
715.9686843894645
 20
1802.220440909529
 30
0.0
 10
715.9135828619834
 20
1802.35318482286
 30
0.0
 10
715.8607654851711
 20
1802.487126452582
 30
0.0
 10
715.8114321319589
 20
1802.622418834446
 30
0.0
  0
SPLINE
  5
18E
330
130
100
AcDbEntity
  8
P-SANR-FIXT
100
AcDbSpline
210
0.0
220
0.0
230
1.0
 70
     8
 71
     3
 72
     8
 73
     4
 74
     0
 42
0.000000001
 43
0.0000000001
 40
-0.0822870596122556
 40
-0.0822870596122556
 40
-0.0822870596122556
 40
-0.0822870596122556
 40
-0.0740740740740746
 40
-0.0740740740740746
 40
-0.0740740740740746
 40
-0.0740740740740746
 10
715.5232108073014
 20
1803.53191943542
 30
0.0
 10
715.4997318018537
 20
1803.619664233427
 30
0.0
 10
715.4763211315022
 20
1803.707588256614
 30
0.0
 10
715.453965188597
 20
1803.795821127438
 30
0.0
  0
SPLINE
  5
18F
330
130
100
AcDbEntity
  8
P-SANR-FIXT
100
AcDbSpline
210
0.0
220
0.0
230
1.0
 70
     8
 71
     3
 72
     8
 73
     4
 74
     0
 42
0.000000001
 43
0.0000000001
 40
-0.0411071449083657
 40
-0.0411071449083657
 40
-0.0411071449083657
 40
-0.0411071449083657
 40
-0.0370370370370377
 40
-0.0370370370370377
 40
-0.0370370370370377
 40
-0.0370370370370377
 10
715.2563538460584
 20
1804.874662860939
 30
0.0
 10
715.250445382162
 20
1804.919536117531
 30
0.0
 10
715.2453530044761
 20
1804.964513339148
 30
0.0
 10
715.2409207677753
 20
1805.009574891806
 30
0.0
  0
SPLINE
  5
190
330
130
100
AcDbEntity
  8
P-SANR-FIXT
100
AcDbSpline
210
0.0
220
0.0
230
1.0
 70
     8
 71
     3
 72
     8
 73
     4
 74
     0
 42
0.000000001
 43
0.0000000001
 40
-0.9629629629629629
 40
-0.9629629629629629
 40
-0.9629629629629629
 40
-0.9629629629629629
 40
-0.9588928550916335
 40
-0.9588928550916335
 40
-0.9588928550916335
 40
-0.9588928550916335
 10
715.2394940138268
 20
1807.48232703841
 30
0.0
 10
715.2448251564444
 20
1807.527297569741
 30
0.0
 10
715.250445382162
 20
1807.572221342573
 30
0.0
 10
715.2563538460584
 20
1807.617094599165
 30
0.0
  0
SPLINE
  5
191
330
130
100
AcDbEntity
  8
P-SANR-FIXT
100
AcDbSpline
210
0.0
220
0.0
230
1.0
 70
     8
 71
     3
 72
     8
 73
     4
 74
     0
 42
0.000000001
 43
0.0000000001
 40
-0.9259259259259259
 40
-0.9259259259259259
 40
-0.9259259259259259
 40
-0.9259259259259259
 40
-0.9174976558240045
 40
-0.9174976558240045
 40
-0.9174976558240045
 40
-0.9174976558240045
 10
715.4561654479623
 20
1808.695581873499
 30
0.0
 10
715.4779359100293
 20
1808.786316292238
 30
0.0
 10
715.5009043950991
 20
1808.876711399553
 30
0.0
 10
715.5250594749743
 20
1808.966737388591
 30
0.0
  0
SPLINE
  5
192
330
130
100
AcDbEntity
  8
P-SANR-FIXT
100
AcDbSpline
210
0.0
220
0.0
230
1.0
 70
     8
 71
     3
 72
     8
 73
     4
 74
     0
 42
0.000000001
 43
0.0000000001
 40
-0.8888888888888889
 40
-0.8888888888888889
 40
-0.8888888888888889
 40
-0.8888888888888889
 40
-0.8758068146832998
 40
-0.8758068146832998
 40
-0.8758068146832998
 40
-0.8758068146832998
 10
715.8114321319588
 20
1809.869338625658
 30
0.0
 10
715.8611437293882
 20
1810.004546774766
 30
0.0
 10
715.9135828619833
 20
1810.138572637245
 30
0.0
 10
715.9686843894645
 20
1810.271316550575
 30
0.0
  0
SPLINE
  5
193
330
130
100
AcDbEntity
  8
P-SANR-FIXT
100
AcDbSpline
210
0.0
220
0.0
230
1.0
 70
     8
 71
     3
 72
    11
 73
     7
 74
     0
 42
0.000000001
 43
0.0000000001
 40
-0.8518518518518519
 40
-0.8518518518518519
 40
-0.8518518518518519
 40
-0.8518518518518519
 40
-0.8333333333333332
 40
-0.8055555555555555
 40
-0.7916666666666668
 40
-0.7777777777777778
 40
-0.7777777777777778
 40
-0.7777777777777778
 40
-0.7777777777777778
 10
716.2977643258158
 20
1810.987034479855
 30
0.0
 10
716.3892664158136
 20
1811.167846134832
 30
0.0
 10
716.6308076588104
 20
1811.612653906775
 30
0.0
 10
716.9851644736386
 20
1812.165884184233
 30
0.0
 10
717.3441360261016
 20
1812.653575762118
 30
0.0
 10
717.5340938784756
 20
1812.889550457765
 30
0.0
 10
717.6315165617587
 20
1813.005355671615
 30
0.0
  0
SPLINE
  5
194
330
130
100
AcDbEntity
  8
P-SANR-FIXT
100
AcDbSpline
210
0.0
220
0.0
230
1.0
 70
     8
 71
     3
 72
     8
 73
     4
 74
     0
 42
0.000000001
 43
0.0000000001
 40
-0.7496800340183409
 40
-0.7496800340183409
 40
-0.7496800340183409
 40
-0.7496800340183409
 40
-0.7407407407407407
 40
-0.7407407407407407
 40
-0.7407407407407407
 40
-0.7407407407407407
 10
718.2514747065112
 20
1813.680175768571
 30
0.0
 10
718.320170349915
 20
1813.748692477207
 30
0.0
 10
718.3897887209943
 20
1813.816231020662
 30
0.0
 10
718.4603140367357
 20
1813.882778300751
 30
0.0
  0
SPLINE
  5
195
330
130
100
AcDbEntity
  8
P-SANR-FIXT
100
AcDbSpline
210
0.0
220
0.0
230
1.0
 70
     8
 71
     3
 72
     8
 73
     4
 74
     0
 42
0.000000001
 43
0.0000000001
 40
-0.7080728351665081
 40
-0.7080728351665081
 40
-0.7080728351665081
 40
-0.7080728351665081
 40
-0.7037037037037038
 40
-0.7037037037037038
 40
-0.7037037037037038
 40
-0.7037037037037038
 10
719.2690745448731
 20
1814.571992180797
 30
0.0
 10
719.3066834545349
 20
1814.600888820583
 30
0.0
 10
719.3444959961265
 20
1814.629536548642
 30
0.0
 10
719.3825105606966
 20
1814.65793362506
 30
0.0
  0
SPLINE
  5
196
330
130
100
AcDbEntity
  8
P-SANR-FIXT
100
AcDbSpline
210
0.0
220
0.0
230
1.0
 70
     8
 71
     3
 72
     8
 73
     4
 74
     0
 42
0.000000001
 43
0.0000000001
 40
-0.6666666666666666
 40
-0.6666666666666666
 40
-0.6666666666666666
 40
-0.6666666666666666
 40
-0.6658311575918306
 40
-0.6658311575918306
 40
-0.6658311575918306
 40
-0.6658311575918306
 10
720.3919172980723
 20
1815.324962037803
 30
0.0
 10
720.3998192937362
 20
1815.329552673108
 30
0.0
 10
720.4077279809096
 20
1815.334133389623
 30
0.0
 10
720.4156433145993
 20
1815.33870415723
 30
0.0
  0
SPLINE
  5
197
330
130
100
AcDbEntity
  8
P-SANR-FIXT
100
AcDbSpline
210
0.0
220
0.0
230
1.0
 70
     8
 71
     3
 72
     8
 73
     4
 74
     0
 42
0.000000001
 43
0.0000000001
 40
-0.6296296296296297
 40
-0.6296296296296297
 40
-0.6296296296296297
 40
-0.6296296296296297
 40
-0.6241286907591068
 40
-0.6241286907591068
 40
-0.6241286907591068
 40
-0.6241286907591068
 10
721.4787338174268
 20
1815.87465632493
 30
0.0
 10
721.5341845288254
 20
1815.898772396665
 30
0.0
 10
721.5898614439136
 20
1815.922417449425
 30
0.0
 10
721.6457563062244
 20
1815.945586848006
 30
0.0
  0
SPLINE
  5
198
330
130
100
AcDbEntity
  8
P-SANR-FIXT
100
AcDbSpline
210
0.0
220
0.0
230
1.0
 70
     8
 71
     3
 72
     9
 73
     5
 74
     0
 42
0.000000001
 43
0.0000000001
 40
-0.5925925925925926
 40
-0.5925925925925926
 40
-0.5925925925925926
 40
-0.5925925925925926
 40
-0.5833333333333334
 40
-0.582601461994432
 40
-0.582601461994432
 40
-0.582601461994432
 40
-0.582601461994432
 10
722.6269319052192
 20
1816.296324792884
 30
0.0
 10
722.7247296481071
 20
1816.325902048589
 30
0.0
 10
722.8307603681776
 20
1816.356289526926
 30
0.0
 10
722.9372777075727
 20
1816.385007081665
 30
0.0
 10
722.9450829258635
 20
1816.387101737358
 30
0.0
  0
SPLINE
  5
199
330
130
100
AcDbEntity
  8
P-SANR-FIXT
100
AcDbSpline
210
0.0
220
0.0
230
1.0
 70
     8
 71
     3
 72
    11
 73
     7
 74
     0
 42
0.000000001
 43
0.0000000001
 40
-0.5555555555555556
 40
-0.5555555555555556
 40
-0.5555555555555556
 40
-0.5555555555555556
 40
-0.5277777777777778
 40
-0.5
 40
-0.4722222222222223
 40
-0.4444444444444445
 40
-0.4444444444444445
 40
-0.4444444444444445
 40
-0.4444444444444445
 10
723.8204340107451
 20
1816.58233760564
 30
0.0
 10
724.1233413806811
 20
1816.636428643522
 30
0.0
 10
724.7353578517127
 20
1816.718245205954
 30
0.0
 10
725.6647969506644
 20
1816.759625135603
 30
0.0
 10
726.594324208975
 20
1816.718525904357
 30
0.0
 10
727.2064523830286
 20
1816.636880367596
 30
0.0
 10
727.5094742338695
 20
1816.582856276951
 30
0.0
  0
SPLINE
  5
19A
330
130
100
AcDbEntity
  8
P-SANR-FIXT
100
AcDbSpline
210
0.0
220
0.0
230
1.0
 70
     8
 71
     3
 72
     9
 73
     5
 74
     0
 42
0.000000001
 43
0.0000000001
 40
-0.4173252874514494
 40
-0.4173252874514494
 40
-0.4173252874514494
 40
-0.4173252874514494
 40
-0.4166666666666666
 40
-0.4074074074074075
 40
-0.4074074074074075
 40
-0.4074074074074075
 40
-0.4074074074074075
 10
728.3876587334955
 20
1816.387121355041
 30
0.0
 10
728.3946873971298
 20
1816.385235147513
 30
0.0
 10
728.5004976142134
 20
1816.356721978393
 30
0.0
 10
728.6058340077945
 20
1816.326559157017
 30
0.0
 10
728.7037116979502
 20
1816.296980679686
 30
0.0
  0
SPLINE
  5
19B
330
130
100
AcDbEntity
  8
P-SANR-FIXT
100
AcDbSpline
210
0.0
220
0.0
230
1.0
 70
     8
 71
     3
 72
     8
 73
     4
 74
     0
 42
0.000000001
 43
0.0000000001
 40
-0.3758268542238566
 40
-0.3758268542238566
 40
-0.3758268542238566
 40
-0.3758268542238566
 40
-0.3703703703703705
 40
-0.3703703703703705
 40
-0.3703703703703705
 40
-0.3703703703703705
 10
729.6870463954308
 20
1815.945591539055
 30
0.0
 10
729.7425264577224
 20
1815.9225941351
 30
0.0
 10
729.7977902531841
 20
1815.899128784388
 30
0.0
 10
729.8528293733957
 20
1815.87520026443
 30
0.0
  0
SPLINE
  5
19C
330
130
100
AcDbEntity
  8
P-SANR-FIXT
100
AcDbSpline
210
0.0
220
0.0
230
1.0
 70
     8
 71
     3
 72
     8
 73
     4
 74
     0
 42
0.000000001
 43
0.0000000001
 40
-0.3341379002252923
 40
-0.3341379002252923
 40
-0.3341379002252923
 40
-0.3341379002252923
 40
-0.3333333333333333
 40
-0.3333333333333333
 40
-0.3333333333333333
 40
-0.3333333333333333
 10
730.9171545922671
 20
1815.338713946098
 30
0.0
 10
730.9247753845506
 20
1815.334313289262
 30
0.0
 10
730.9323899064318
 20
1815.329903473089
 30
0.0
 10
730.939998115616
 20
1815.325484526544
 30
0.0
  0
SPLINE
  5
19D
330
130
100
AcDbEntity
  8
P-SANR-FIXT
100
AcDbSpline
210
0.0
220
0.0
230
1.0
 70
     8
 71
     3
 72
     8
 73
     4
 74
     0
 42
0.000000001
 43
0.0000000001
 40
-0.2962962962962965
 40
-0.2962962962962965
 40
-0.2962962962962965
 40
-0.2962962962962965
 40
-0.2918584708809884
 40
-0.2918584708809884
 40
-0.2918584708809884
 40
-0.2918584708809884
 10
731.9487091618404
 20
1814.659125666038
 30
0.0
 10
731.9872802546625
 20
1814.630324333404
 30
0.0
 10
732.0256423488461
 20
1814.60126579455
 30
0.0
 10
732.0637940924024
 20
1814.571951668088
 30
0.0
  0
SPLINE
  5
19E
330
130
100
AcDbEntity
  8
P-SANR-FIXT
100
AcDbSpline
210
0.0
220
0.0
230
1.0
 70
     8
 71
     3
 72
     8
 73
     4
 74
     0
 42
0.000000001
 43
0.0000000001
 40
-0.2592592592592595
 40
-0.2592592592592595
 40
-0.2592592592592595
 40
-0.2592592592592595
 40
-0.2502090332265767
 40
-0.2502090332265767
 40
-0.2502090332265767
 40
-0.2502090332265767
 10
732.8699437289036
 20
1813.885191133751
 30
0.0
 10
732.9412852844122
 20
1813.817918617163
 30
0.0
 10
733.0117049434822
 20
1813.749626900924
 30
0.0
 10
733.0811885608497
 20
1813.680326997842
 30
0.0
  0
SPLINE
  5
19F
330
130
100
AcDbEntity
  8
P-SANR-FIXT
100
AcDbSpline
210
0.0
220
0.0
230
1.0
 70
     8
 71
     3
 72
    11
 73
     7
 74
     0
 42
0.000000001
 43
0.0000000001
 40
-0.2222222222222222
 40
-0.2222222222222222
 40
-0.2222222222222222
 40
-0.2222222222222222
 40
-0.2083333333333333
 40
-0.1944444444444444
 40
-0.1666666666666666
 40
-0.1481481481481486
 40
-0.1481481481481486
 40
-0.1481481481481486
 40
-0.1481481481481486
 10
733.698530721183
 20
1813.008644114648
 30
0.0
 10
733.7960017614445
 20
1812.892877480039
 30
0.0
 10
733.9861215481065
 20
1812.656910681955
 30
0.0
 10
734.345509652353
 20
1812.168995449715
 30
0.0
 10
734.700698681811
 20
1811.61529081441
 30
0.0
 10
734.9421946182326
 20
1811.169818049057
 30
0.0
 10
735.0338745319211
 20
1810.988807603672
 30
0.0
  0
SPLINE
  5
1A0
330
130
100
AcDbEntity
  8
P-SANR-FIXT
100
AcDbSpline
210
0.0
220
0.0
230
1.0
 70
     8
 71
     3
 72
     8
 73
     4
 74
     0
 42
0.000000001
 43
0.0000000001
 40
-0.1241540926926734
 40
-0.1241540926926734
 40
-0.1241540926926734
 40
-0.1241540926926734
 40
-0.1111111111111111
 40
-0.1111111111111111
 40
-0.1111111111111111
 40
-0.1111111111111111
 10
735.3641614823888
 20
1810.271241507607
 30
0.0
 10
735.4191470588602
 20
1810.138773734079
 30
0.0
 10
735.4718520639153
 20
1810.005126806277
 30
0.0
 10
735.5210834195446
 20
1809.870152643682
 30
0.0
  0
SPLINE
  5
1A1
330
130
100
AcDbEntity
  8
P-SANR-FIXT
100
AcDbSpline
210
0.0
220
0.0
230
1.0
 70
     8
 71
     3
 72
     8
 73
     4
 74
     0
 42
0.000000001
 43
0.0000000001
 40
-0.0824895890347599
 40
-0.0824895890347599
 40
-0.0824895890347599
 40
-0.0824895890347599
 40
-0.0740740740740746
 40
-0.0740740740740746
 40
-0.0740740740740746
 40
-0.0740740740740746
 10
735.8077615022116
 20
1808.966714428357
 30
0.0
 10
735.8318888339391
 20
1808.876790108654
 30
0.0
 10
735.8559412985179
 20
1808.786675370497
 30
0.0
 10
735.8788677141817
 20
1808.696234902134
 30
0.0
  0
SPLINE
  5
1A2
330
130
100
AcDbEntity
  8
P-SANR-FIXT
100
AcDbSpline
210
0.0
220
0.0
230
1.0
 70
     8
 71
     3
 72
     8
 73
     4
 74
     0
 42
0.000000001
 43
0.0000000001
 40
-0.0411061386691067
 40
-0.0411061386691067
 40
-0.0411061386691067
 40
-0.0411061386691067
 40
-0.0370370370370377
 40
-0.0370370370370377
 40
-0.0370370370370377
 40
-0.0370370370370377
 10
736.0764632859013
 20
1807.617081498014
 30
0.0
 10
736.0823711105856
 20
1807.572212829237
 30
0.0
 10
736.0874630053037
 20
1807.527241857921
 30
0.0
 10
736.0918948505725
 20
1807.48218789666
 30
0.0
  0
ARC
  5
1A3
330
130
100
AcDbEntity
  8
P-SANR-FIXT
100
AcDbCircle
 10
725.6664074431872
 20
1806.245878730052
 30
0.0
 40
9.00000000000354
100
AcDbArc
 50
332.7339555494872
 51
0.0
  0
ARC
  5
1A4
330
130
100
AcDbEntity
  8
P-SANR-FIXT
100
AcDbCircle
 10
725.6664074431872
 20
1806.245878730052
 30
0.0
 40
9.00000000000357
100
AcDbArc
 50
272.7339555494902
 51
327.2660444505063
  0
ARC
  5
1A5
330
130
100
AcDbEntity
  8
P-SANR-FIXT
100
AcDbCircle
 10
725.6664074431872
 20
1806.245878730052
 30
0.0
 40
9.000000000003565
100
AcDbArc
 50
212.7339555494946
 51
267.2660444505033
  0
ARC
  5
1A6
330
130
100
AcDbEntity
  8
P-SANR-FIXT
100
AcDbCircle
 10
725.6664074431872
 20
1806.245878730052
 30
0.0
 40
9.000000000003637
100
AcDbArc
 50
180.0
 51
207.266044450501
  0
ARC
  5
1A7
330
130
100
AcDbEntity
  8
P-SANR-FIXT
100
AcDbCircle
 10
725.6664074431872
 20
1806.245878730052
 30
0.0
 40
9.00000000000352
100
AcDbArc
 50
152.7339555494962
 51
180.0
  0
ARC
  5
1A8
330
130
100
AcDbEntity
  8
P-SANR-FIXT
100
AcDbCircle
 10
725.6664074431872
 20
1806.245878730052
 30
0.0
 40
9.000000000003597
100
AcDbArc
 50
92.73395554949418
 51
147.2660444505025
  0
ARC
  5
1A9
330
130
100
AcDbEntity
  8
P-SANR-FIXT
100
AcDbCircle
 10
725.6664074431872
 20
1806.245878730052
 30
0.0
 40
9.000000000003673
100
AcDbArc
 50
32.73395554948907
 51
87.26604445050728
  0
ARC
  5
1AA
330
130
100
AcDbEntity
  8
P-SANR-FIXT
100
AcDbCircle
 10
725.6664074431872
 20
1806.245878730052
 30
0.0
 40
9.000000000003637
100
AcDbArc
 50
0.0
 51
27.26604445051044
  0
ARC
  5
1AB
330
130
100
AcDbEntity
  8
P-SANR-FIXT
100
AcDbCircle
 10
725.6664074431873
 20
1806.245878730052
 30
0.0
 40
9.000000000003298
100
AcDbArc
 50
327.2660444505107
 51
332.7339555494881
  0
LINE
  5
1AC
330
130
100
AcDbEntity
  8
P-SANR-FIXT
100
AcDbLine
 10
733.6664074432063
 20
1802.122773104463
 30
0.0
 11
733.6664074432063
 21
1810.36898435564
 31
0.0
  0
ARC
  5
1AD
330
130
100
AcDbEntity
  8
P-SANR-FIXT
100
AcDbCircle
 10
725.6664074431873
 20
1806.245878730052
 30
0.0
 40
9.00000000000338
100
AcDbArc
 50
27.26604445050968
 51
32.73395554949559
  0
LINE
  5
1AE
330
130
100
AcDbEntity
  8
P-SANR-FIXT
100
AcDbLine
 10
733.2371216574421
 20
1811.11252914755
 30
0.0
 11
726.0956932289523
 21
1815.235634773138
 31
0.0
  0
ARC
  5
1AF
330
130
100
AcDbEntity
  8
P-SANR-FIXT
100
AcDbCircle
 10
725.6664074431873
 20
1806.245878730052
 30
0.0
 40
9.000000000003401
100
AcDbArc
 50
87.2660444505014
 51
92.73395554950372
  0
LINE
  5
1B0
330
130
100
AcDbEntity
  8
P-SANR-FIXT
100
AcDbLine
 10
725.2371216574214
 20
1815.235634773138
 30
0.0
 11
718.0956932289333
 21
1811.112529147552
 31
0.0
  0
ARC
  5
1B1
330
130
100
AcDbEntity
  8
P-SANR-FIXT
100
AcDbCircle
 10
725.6664074431873
 20
1806.245878730052
 30
0.0
 40
9.000000000003346
100
AcDbArc
 50
147.2660444504947
 51
152.7339555495024
  0
LINE
  5
1B2
330
130
100
AcDbEntity
  8
P-SANR-FIXT
100
AcDbLine
 10
717.6664074431674
 20
1810.368984355638
 30
0.0
 11
717.6664074431673
 21
1802.122773104466
 31
0.0
  0
ARC
  5
1B3
330
130
100
AcDbEntity
  8
P-SANR-FIXT
100
AcDbCircle
 10
725.6664074431873
 20
1806.245878730052
 30
0.0
 40
9.000000000003304
100
AcDbArc
 50
207.2660444504952
 51
212.7339555494946
  0
LINE
  5
1B4
330
130
100
AcDbEntity
  8
P-SANR-FIXT
100
AcDbLine
 10
718.0956932289323
 20
1801.379228312553
 30
0.0
 11
725.2371216574227
 21
1797.256122686966
 31
0.0
  0
ARC
  5
1B5
330
130
100
AcDbEntity
  8
P-SANR-FIXT
100
AcDbCircle
 10
725.6664074431873
 20
1806.245878730052
 30
0.0
 40
9.000000000003385
100
AcDbArc
 50
267.2660444505032
 51
272.7339555494873
  0
LINE
  5
1B6
330
130
100
AcDbEntity
  8
P-SANR-FIXT
100
AcDbLine
 10
726.0956932289507
 20
1797.256122686966
 30
0.0
 11
733.2371216574427
 21
1801.379228312554
 31
0.0
  0
LINE
  5
1B7
330
130
100
AcDbEntity
  8
P-SANR-FIXT
100
AcDbLine
 10
724.6324518863087
 20
1770.245878730053
 30
0.0
 11
760.4506671628581
 21
1770.245878730053
 31
0.0
  0
LINE
  5
1B8
330
130
100
AcDbEntity
  8
P-SANR-FIXT
100
AcDbLine
 10
760.4506671628581
 20
1842.245878730053
 30
0.0
 11
724.6324518863087
 21
1842.245878730053
 31
0.0
  0
LWPOLYLINE
  5
1B9
330
130
100
AcDbEntity
  8
P-SANR-FIXT
100
AcDbPolyline
 90
       11
 70
   128
 43
0.0
 10
760.4506671628581
 20
1770.245878730053
 10
761.4853460569536
 20
1770.278073223774
 10
762.5171124249931
 20
1770.374487813436
 10
763.543118127075
 20
1770.534624274852
 10
764.5606380385602
 20
1770.75767932596
 10
765.5671181012553
 20
1771.042581721982
 10
766.5602096151619
 20
1771.388037842748
 10
767.5377885469507
 20
1771.792580928527
 10
768.4979604958665
 20
1772.25461940294
 10
769.4390534070355
 20
1772.772480612616
 10
770.2009602213601
 20
1773.245878730055
  0
LWPOLYLINE
  5
1BA
330
130
100
AcDbEntity
  8
P-SANR-FIXT
100
AcDbPolyline
 90
       11
 70
   128
 43
0.0
 10
760.4506671628584
 20
1842.245878730053
 10
761.4853460569539
 20
1842.213684236333
 10
762.5171124249931
 20
1842.117269646669
 10
763.5431181270753
 20
1841.957133185254
 10
764.5606380385602
 20
1841.734078134146
 10
765.5671181012555
 20
1841.449175738125
 10
766.5602096151619
 20
1841.103719617358
 10
767.5377885469507
 20
1840.699176531579
 10
768.4979604958665
 20
1840.237138057167
 10
769.4390534070355
 20
1839.719276847491
 10
770.2009602213601
 20
1839.245878730051
  0
LINE
  5
1BB
330
130
100
AcDbEntity
  8
P-SANR-FIXT
100
AcDbLine
 10
751.6900777099303
 20
1789.110579128391
 30
0.0
 11
752.030100105289
 21
1788.294612480693
 31
0.0
  0
LINE
  5
1BC
330
130
100
AcDbEntity
  8
P-SANR-FIXT
100
AcDbLine
 10
752.0301001052891
 20
1824.197144979413
 30
0.0
 11
751.6900777099303
 21
1823.381178331715
 31
0.0
  0
LINE
  5
1BD
330
130
100
AcDbEntity
  8
P-SANR-FIXT
100
AcDbLine
 10
769.8290740303282
 20
1773.245878730055
 30
0.0
 11
801.2368961982062
 21
1773.245878730055
 31
0.0
  0
LINE
  5
1BE
330
130
100
AcDbEntity
  8
P-SANR-FIXT
100
AcDbLine
 10
801.2368961982064
 20
1839.245878730051
 30
0.0
 11
769.8290740303283
 21
1839.245878730051
 31
0.0
  0
LINE
  5
1BF
330
130
100
AcDbEntity
  8
P-SANR-FIXT
100
AcDbLine
 10
802.3859628628848
 20
1774.745878730052
 30
0.0
 11
806.9822295215987
 21
1774.745878730052
 31
0.0
  0
LINE
  5
1C0
330
130
100
AcDbEntity
  8
P-SANR-FIXT
100
AcDbLine
 10
806.9822295215987
 20
1837.745878730054
 30
0.0
 11
802.3859628628848
 21
1837.745878730054
 31
0.0
  0
LINE
  5
1C1
330
130
100
AcDbEntity
  8
P-SANR-FIXT
100
AcDbLine
 10
806.9822295215987
 20
1774.745878730053
 30
0.0
 11
807.7482739647178
 21
1774.745878730053
 31
0.0
  0
LINE
  5
1C2
330
130
100
AcDbEntity
  8
P-SANR-FIXT
100
AcDbLine
 10
807.7482739647178
 20
1837.745878730053
 30
0.0
 11
806.9822295215987
 21
1837.745878730053
 31
0.0
  0
LWPOLYLINE
  5
1C3
330
130
100
AcDbEntity
  8
P-SANR-FIXT
100
AcDbPolyline
 90
       16
 70
   128
 43
0.0
 10
807.748273964718
 20
1774.745878730052
 10
808.7037191226883
 20
1774.775606481586
 10
809.6559594248292
 20
1774.864585661891
 10
810.6018747780439
 20
1775.012215281373
 10
811.5385069403702
 20
1775.217529700293
 10
812.4631225089611
 20
1775.479247920338
 10
813.3732575673443
 20
1775.795834132038
 10
814.2667423619037
 20
1776.165563060145
 10
815.1417068635645
 20
1776.586584025595
 10
815.9965700029971
 20
1777.056978830822
 10
816.8300165243309
 20
1777.574810198919
 10
817.6409657746791
 20
1778.138159180216
 10
818.4285364829582
 20
1778.745151396523
 10
819.1920109049418
 20
1779.393973065918
 10
819.9308008475398
 20
1780.082878401873
 10
820.5472996825289
 20
1780.71120887829
  0
LWPOLYLINE
  5
1C4
330
130
100
AcDbEntity
  8
P-SANR-FIXT
100
AcDbPolyline
 90
       16
 70
   128
 43
0.0
 10
807.7482739647182
 20
1837.745878730054
 10
808.7037191226883
 20
1837.71615097852
 10
809.6559594248294
 20
1837.627171798215
 10
810.601874778044
 20
1837.479542178733
 10
811.5385069403703
 20
1837.274227759813
 10
812.4631225089613
 20
1837.012509539768
 10
813.3732575673443
 20
1836.695923328068
 10
814.2667423619037
 20
1836.32619439996
 10
815.1417068635645
 20
1835.905173434511
 10
815.9965700029973
 20
1835.434778629284
 10
816.8300165243309
 20
1834.916947261187
 10
817.6409657746793
 20
1834.353598279889
 10
818.4285364829582
 20
1833.746606063583
 10
819.1920109049421
 20
1833.097784394188
 10
819.93080084754
 20
1832.408879058234
 10
820.5472996825289
 20
1831.780548581816
  0
LINE
  5
1C5
330
130
100
AcDbEntity
  8
P-SANR-FIXT
100
AcDbLine
 10
820.3498930551889
 20
1780.907692579674
 30
0.0
 11
821.4577379035224
 21
1779.799847731341
 31
0.0
  0
LINE
  5
1C6
330
130
100
AcDbEntity
  8
P-SANR-FIXT
100
AcDbLine
 10
821.4643923933856
 20
1779.793193241477
 30
0.0
 11
821.5117069048099
 21
1779.745878730053
 31
0.0
  0
LINE
  5
1C7
330
130
100
AcDbEntity
  8
P-SANR-FIXT
100
AcDbLine
 10
821.5117069048098
 20
1832.745878730053
 30
0.0
 11
821.464392393385
 21
1832.698564218628
 31
0.0
  0
LINE
  5
1C8
330
130
100
AcDbEntity
  8
P-SANR-FIXT
100
AcDbLine
 10
821.4577379035223
 20
1832.691909728765
 30
0.0
 11
820.3498930551889
 21
1831.584064880432
 31
0.0
  0
LINE
  5
1C9
330
130
100
AcDbEntity
  8
P-SANR-FIXT
100
AcDbLine
 10
821.5117069048098
 20
1779.745878730053
 30
0.0
 11
828.0476052896725
 21
1779.745878730053
 31
0.0
  0
LINE
  5
1CA
330
130
100
AcDbEntity
  8
P-SANR-FIXT
100
AcDbLine
 10
828.0476052896725
 20
1832.745878730053
 30
0.0
 11
821.5117069048099
 21
1832.745878730053
 31
0.0
  0
LINE
  5
1CB
330
130
100
AcDbEntity
  8
P-SANR-FIXT
100
AcDbLine
 10
828.0476052896725
 20
1779.745878730053
 30
0.0
 11
828.9334011967028
 21
1778.21163521394
 31
0.0
  0
LINE
  5
1CC
330
130
100
AcDbEntity
  8
P-SANR-FIXT
100
AcDbLine
 10
828.9334011967028
 20
1834.280122246166
 30
0.0
 11
828.0476052896725
 21
1832.745878730053
 31
0.0
  0
LINE
  5
1CD
330
130
100
AcDbEntity
  8
P-SANR-FIXT
100
AcDbLine
 10
810.8124517371935
 20
1780.245878730053
 30
0.0
 11
815.8831324601324
 21
1780.245878730053
 31
0.0
  0
LINE
  5
1CE
330
130
100
AcDbEntity
  8
P-SANR-FIXT
100
AcDbLine
 10
815.8831324601324
 20
1832.245878730053
 30
0.0
 11
810.8124517371935
 21
1832.245878730053
 31
0.0
  0
LWPOLYLINE
  5
1CF
330
130
100
AcDbEntity
  8
P-SANR-FIXT
100
AcDbPolyline
 90
        6
 70
   128
 43
0.0
 10
815.8831324601324
 20
1780.245878730053
 10
816.8429507802853
 20
1780.275738179575
 10
817.7978809010889
 20
1780.364955726926
 10
818.7432017145626
 20
1780.512471359288
 10
819.6745109506988
 20
1780.716590155432
 10
820.3562848162286
 20
1780.903971051004
  0
LWPOLYLINE
  5
1D0
330
130
100
AcDbEntity
  8
P-SANR-FIXT
100
AcDbPolyline
 90
        6
 70
   128
 43
0.0
 10
815.8831324601324
 20
1832.245878730053
 10
816.8429507802855
 20
1832.21601928053
 10
817.7978809010889
 20
1832.12680173318
 10
818.7432017145626
 20
1831.979286100818
 10
819.6745109506988
 20
1831.775167304675
 10
820.3562848162288
 20
1831.587786409102
  0
LWPOLYLINE
  5
1D1
330
130
100
AcDbEntity
  8
P-SANR-FIXT
100
AcDbPolyline
 90
       19
 70
   128
 43
0.0
 10
720.6141715925463
 20
1770.841487816974
 10
720.3742573151197
 20
1770.863908326422
 10
719.4310937256569
 20
1771.011124302439
 10
718.493651649393
 20
1771.21663776938
 10
717.5637395414712
 20
1771.479881814778
 10
716.6430912450941
 20
1771.800156025281
 10
715.7333580340601
 20
1772.17664332926
 10
714.8361054484421
 20
1772.608426629429
 10
713.9528142291664
 20
1773.09450400116
 10
713.0848843680616
 20
1773.633801637958
 10
712.2336411968175
 20
1774.22518414616
 10
711.4003425042389
 20
1774.86746215491
 10
710.5861858402472
 20
1775.559397475441
 10
709.7923153810484
 20
1776.299706206279
 10
709.0198279476768
 20
1777.087060249949
 10
708.2697779607144
 20
1777.920087705042
 10
707.543181263266
 20
1778.797372550176
 10
706.841017849736
 20
1779.717453965755
 10
706.6550272527614
 20
1779.981653492018
  0
LWPOLYLINE
  5
1D2
330
130
100
AcDbEntity
  8
P-SANR-FIXT
100
AcDbPolyline
 90
       19
 70
   128
 43
0.0
 10
720.6141715925464
 20
1841.650269643132
 10
720.3742573151199
 20
1841.627849133685
 10
719.4310937256569
 20
1841.480633157667
 10
718.493651649393
 20
1841.275119690726
 10
717.5637395414712
 20
1841.011875645327
 10
716.6430912450941
 20
1840.691601434826
 10
715.7333580340603
 20
1840.315114130847
 10
714.8361054484421
 20
1839.883330830677
 10
713.9528142291664
 20
1839.397253458946
 10
713.0848843680616
 20
1838.857955822149
 10
712.2336411968176
 20
1838.266573313946
 10
711.4003425042389
 20
1837.624295305197
 10
710.5861858402475
 20
1836.932359984665
 10
709.7923153810484
 20
1836.192051253828
 10
709.0198279476769
 20
1835.404697210157
 10
708.2697779607145
 20
1834.571669755064
 10
707.5431812632662
 20
1833.694384909931
 10
706.8410178497361
 20
1832.774303494351
 10
706.6550272527614
 20
1832.510103968088
  0
ELLIPSE
  5
1D3
330
130
100
AcDbEntity
  8
P-SANR-FIXT
100
AcDbEllipse
 10
724.6324518863071
 20
1806.245878730052
 30
0.0
 11
0.00000000000025
 21
35.99999999999955
 31
0.0
210
0.0
220
0.0
230
1.0
 40
0.6427876096865476
 41
2.329929098382139
 42
3.141592653589797
  0
ELLIPSE
  5
1D4
330
130
100
AcDbEntity
  8
P-SANR-FIXT
100
AcDbEllipse
 10
724.6324518863071
 20
1806.245878730052
 30
0.0
 11
0.0
 21
35.99999999999964
 31
0.0
210
0.0
220
0.0
230
0.9999999999999998
 40
0.6427876096865443
 41
0.0000000000000064
 42
0.8116635552076687
  0
ELLIPSE
  5
1D5
330
130
100
AcDbEntity
  8
P-SANR-FIXT
100
AcDbEllipse
 10
764.8497851500533
 20
1806.245878730052
 30
0.0
 11
0.0
 21
31.50000000000063
 31
0.0
210
0.0
220
0.0
230
0.9999999999999998
 40
0.6427876096865425
 41
1.666236602235026
 42
3.069505856040001
  0
ELLIPSE
  5
1D6
330
130
100
AcDbEntity
  8
P-SANR-FIXT
100
AcDbEllipse
 10
764.8497851500533
 20
1806.245878730052
 30
0.0
 11
0.0
 21
31.50000000000075
 31
0.0
210
0.0
220
0.0
230
0.9999999999999998
 40
0.6427876096865413
 41
0.0720867975497994
 42
1.475356051354821
  0
ELLIPSE
  5
1D7
330
130
100
AcDbEntity
  8
P-SANR-FIXT
100
AcDbEllipse
 10
768.6800073656481
 20
1806.245878730052
 30
0.0
 11
0.0
 21
31.49999999999995
 31
0.0
210
0.0
220
0.0
230
1.0
 40
0.6427876096865499
 41
2.199114857512867
 42
2.215805846687806
  0
ELLIPSE
  5
1D8
330
130
100
AcDbEntity
  8
P-SANR-FIXT
100
AcDbEllipse
 10
768.6800073656481
 20
1806.245878730052
 30
0.0
 11
0.0
 21
31.50000000000001
 31
0.0
210
0.0
220
0.0
230
1.0
 40
0.6427876096865428
 41
1.666236602235028
 42
2.042035224833361
  0
ELLIPSE
  5
1D9
330
130
100
AcDbEntity
  8
P-SANR-FIXT
100
AcDbEllipse
 10
768.6800073656481
 20
1806.245878730052
 30
0.0
 11
0.0
 21
31.50000000000007
 31
0.0
210
0.0
220
0.0
230
0.9999999999999998
 40
0.6427876096865372
 41
1.099557428756425
 42
1.475356051354819
  0
ELLIPSE
  5
1DA
330
130
100
AcDbEntity
  8
P-SANR-FIXT
100
AcDbEllipse
 10
768.6800073656481
 20
1806.245878730052
 30
0.0
 11
0.0
 21
31.50000000000023
 31
0.0
210
0.0
220
0.0
230
1.0
 40
0.6427876096865349
 41
0.9257868069019885
 42
0.942477796076927
  0
ELLIPSE
  5
1DB
330
130
100
AcDbEntity
  8
P-SANR-FIXT
100
AcDbEllipse
 10
769.8290740303267
 20
1806.245878730052
 30
0.0
 11
0.0000000000000533
 21
32.99999999999841
 31
0.0
210
0.0
220
0.0
230
1.0
 40
0.6427876096865414
 41
2.094395102393231
 42
3.141592653589794
  0
ELLIPSE
  5
1DC
330
130
100
AcDbEntity
  8
P-SANR-FIXT
100
AcDbEllipse
 10
769.8290740303267
 20
1806.245878730052
 30
0.0
 11
0.0
 21
32.99999999999842
 31
0.0
210
0.0
220
0.0
230
1.0
 40
0.642787609686542
 41
1.66184972656734
 42
2.092983882645675
  0
ELLIPSE
  5
1DD
330
130
100
AcDbEntity
  8
P-SANR-FIXT
100
AcDbEllipse
 10
769.8290740303267
 20
1806.245878730052
 30
0.0
 11
0.0
 21
32.99999999999825
 31
0.0
210
0.0
220
0.0
230
1.0
 40
0.6427876096865447
 41
1.048608770944121
 42
1.479742927022504
  0
ELLIPSE
  5
1DE
330
130
100
AcDbEntity
  8
P-SANR-FIXT
100
AcDbEllipse
 10
769.8290740303267
 20
1806.245878730052
 30
0.0
 11
0.0
 21
32.9999999999985
 31
0.0
210
0.0
220
0.0
230
1.0
 40
0.6427876096865379
 41
0.0000000000000016
 42
1.047197551196566
  0
ELLIPSE
  5
1DF
330
130
100
AcDbEntity
  8
P-SANR-FIXT
100
AcDbEllipse
 10
801.2368961982046
 20
1806.245878730052
 30
0.0
 11
0.0
 21
32.99999999999903
 31
0.0
210
0.0
220
0.0
230
1.0
 40
0.6427876096865387
 41
1.661849726567338
 42
3.441249587429704
  0
ELLIPSE
  5
1E0
330
130
100
AcDbEntity
  8
P-SANR-FIXT
100
AcDbEllipse
 10
801.2368961982046
 20
1806.245878730052
 30
0.0
 11
0.0
 21
32.99999999999916
 31
0.0
210
0.0
220
0.0
230
1.0
 40
0.6427876096865376
 41
5.983528373339686
 42
7.762928234202092
  0
ELLIPSE
  5
1E1
330
130
100
AcDbEntity
  8
P-SANR-FIXT
100
AcDbEllipse
 10
802.3859628628832
 20
1806.245878730052
 30
0.0
 11
0.0000000000002467
 21
31.50000000000046
 31
0.0
210
0.0
220
0.0
230
1.0
 40
0.6427876096865441
 41
1.666236602235037
 42
3.141592653589798
  0
ELLIPSE
  5
1E2
330
130
100
AcDbEntity
  8
P-SANR-FIXT
100
AcDbEllipse
 10
802.3859628628832
 20
1806.245878730052
 30
0.0
 11
0.0
 21
31.50000000000075
 31
0.0
210
0.0
220
0.0
230
0.9999999999999998
 40
0.6427876096865374
 41
0.0000000000000129
 42
1.475356051354821
  0
SPLINE
  5
1E3
330
130
100
AcDbEntity
  8
P-SANR-FIXT
100
AcDbSpline
210
0.0
220
0.0
230
1.0
 70
     8
 71
     3
 72
    11
 73
     7
 74
     0
 42
0.000000001
 43
0.0000000001
 40
0.0582978623502457
 40
0.0582978623502457
 40
0.0582978623502457
 40
0.0582978623502457
 40
0.25
 40
0.375
 40
0.5
 40
1.0
 40
1.0
 40
1.0
 40
1.0
 10
818.6897721502548
 20
1797.78994664234
 30
0.0
 10
818.599308590867
 20
1796.345630339967
 30
0.0
 10
818.4961925124165
 20
1794.058381539943
 30
0.0
 10
818.432504742296
 20
1791.144992710099
 30
0.0
 10
818.5039200040636
 20
1786.628803837245
 30
0.0
 10
819.0490386005654
 20
1783.755385121033
 30
0.0
 10
819.7751653155558
 20
1782.117634912159
 30
0.0
  0
SPLINE
  5
1E4
330
130
100
AcDbEntity
  8
P-SANR-FIXT
100
AcDbSpline
210
0.0
220
0.0
230
1.0
 70
     8
 71
     3
 72
     9
 73
     5
 74
     0
 42
0.000000001
 43
0.0000000001
 40
0.0
 40
0.0
 40
0.0
 40
0.0
 40
0.3333333333333333
 40
0.6666666666666666
 40
0.6666666666666666
 40
0.6666666666666666
 40
0.6666666666666666
 10
819.7751653155558
 20
1782.117634912159
 30
0.0
 10
819.9440695817475
 20
1781.739257112786
 30
0.0
 10
820.2068081985732
 20
1781.153126529035
 30
0.0
 10
820.333222746002
 20
1780.920533619195
 30
0.0
 10
820.351987181078
 20
1780.905820181801
 30
0.0
  0
SPLINE
  5
1E5
330
130
100
AcDbEntity
  8
P-SANR-FIXT
100
AcDbSpline
210
0.0
220
0.0
230
1.0
 70
     8
 71
     3
 72
     9
 73
     5
 74
     0
 42
0.000000001
 43
0.0000000001
 40
0.3333333333333333
 40
0.3333333333333333
 40
0.3333333333333333
 40
0.3333333333333333
 40
0.6666666666666666
 40
1.0
 40
1.0
 40
1.0
 40
1.0
 10
820.351987181078
 20
1831.585937278304
 30
0.0
 10
820.333222746002
 20
1831.57122384091
 30
0.0
 10
820.2068081985732
 20
1831.338630931069
 30
0.0
 10
819.9440695817475
 20
1830.752500347318
 30
0.0
 10
819.7751653155558
 20
1830.374122547945
 30
0.0
  0
SPLINE
  5
1E6
330
130
100
AcDbEntity
  8
P-SANR-FIXT
100
AcDbSpline
210
0.0
220
0.0
230
1.0
 70
     8
 71
     3
 72
    11
 73
     7
 74
     0
 42
0.000000001
 43
0.0000000001
 40
0.0
 40
0.0
 40
0.0
 40
0.0
 40
0.5
 40
0.625
 40
0.75
 40
0.9416948062650611
 40
0.9416948062650611
 40
0.9416948062650611
 40
0.9416948062650611
 10
819.7751653155558
 20
1830.374122547945
 30
0.0
 10
819.0490386005654
 20
1828.736372339071
 30
0.0
 10
818.5039200040636
 20
1825.862953622859
 30
0.0
 10
818.432504742296
 20
1821.346764750006
 30
0.0
 10
818.496191455325
 20
1818.433424276673
 30
0.0
 10
818.5993038167989
 20
1816.146233015754
 30
0.0
 10
818.6897617714144
 20
1814.701976525176
 30
0.0
  0
LINE
  5
1E7
330
130
100
AcDbEntity
  8
P-SANR-FIXT
100
AcDbLine
 10
821.5117069048083
 20
1779.750264006602
 30
0.0
 11
821.5117069048083
 21
1799.419773631981
 31
0.0
  0
LINE
  5
1E8
330
130
100
AcDbEntity
  8
P-SANR-FIXT
100
AcDbLine
 10
821.5117069048083
 20
1813.072012677311
 30
0.0
 11
821.5117069048083
 21
1832.741493453503
 31
0.0
  0
LINE
  5
1E9
330
130
100
AcDbEntity
  8
P-SANR-FIXT
100
AcDbLine
 10
828.0476052896709
 20
1779.754152553103
 30
0.0
 11
828.0476052896709
 21
1806.245878730052
 31
0.0
  0
SPLINE
  5
1EA
330
130
100
AcDbEntity
  8
P-SANR-FIXT
100
AcDbSpline
210
0.0
220
0.0
230
1.0
 70
    24
 71
     3
 72
     9
 73
     5
 74
     0
 42
0.000000001
 43
0.0000000001
 40
-0.5555555555555556
 40
-0.5555555555555556
 40
-0.5555555555555556
 40
-0.5555555555555556
 40
-0.3333333333333333
 40
0.0
 40
0.0
 40
0.0
 40
0.0
 10
828.9663601184914
 20
1778.245878730052
 30
0.0
 10
828.881769983502
 20
1778.245878730052
 30
0.0
 10
829.0767980541714
 20
1778.245878730052
 30
0.0
 10
830.3070622607428
 20
1778.245878730052
 30
0.0
 10
831.4144898228125
 20
1778.245878730052
 30
0.0
  0
SPLINE
  5
1EB
330
130
100
AcDbEntity
  8
P-SANR-FIXT
100
AcDbSpline
210
0.0
220
0.0
230
1.0
 70
     8
 71
     3
 72
    10
 73
     6
 74
     0
 42
0.000000001
 43
0.0000000001
 40
-1.0
 40
-1.0
 40
-1.0
 40
-1.0
 40
-0.6666666666666666
 40
-0.3333333333333333
 40
0.0
 40
0.0
 40
0.0
 40
0.0
 10
831.4144898228125
 20
1778.245878730052
 30
0.0
 10
830.3165510685145
 20
1781.342156980503
 30
0.0
 10
828.8523796945767
 20
1787.544185760823
 30
0.0
 10
828.8307452128572
 20
1796.841925926692
 30
0.0
 10
830.3070622607428
 20
1803.104323719919
 30
0.0
 10
831.4144898228125
 20
1806.245878730052
 30
0.0
  0
LINE
  5
1EC
330
130
100
AcDbEntity
  8
P-SANR-FIXT
100
AcDbLine
 10
828.0476052896709
 20
1806.245878730052
 30
0.0
 11
828.0476052896709
 21
1832.737604907002
 31
0.0
  0
SPLINE
  5
1ED
330
130
100
AcDbEntity
  8
P-SANR-FIXT
100
AcDbSpline
210
0.0
220
0.0
230
1.0
 70
     8
 71
     3
 72
    10
 73
     6
 74
     0
 42
0.000000001
 43
0.0000000001
 40
-1.0
 40
-1.0
 40
-1.0
 40
-1.0
 40
-0.6666666666666666
 40
-0.3333333333333333
 40
0.0
 40
0.0
 40
0.0
 40
0.0
 10
831.4144898228125
 20
1806.245878730052
 30
0.0
 10
830.3070622607428
 20
1809.387433740185
 30
0.0
 10
828.8307452128572
 20
1815.649831533413
 30
0.0
 10
828.8523796945767
 20
1824.947571699282
 30
0.0
 10
830.3165510685145
 20
1831.149600479601
 30
0.0
 10
831.4144898228125
 20
1834.245878730052
 30
0.0
  0
SPLINE
  5
1EE
330
130
100
AcDbEntity
  8
P-SANR-FIXT
100
AcDbSpline
210
0.0
220
0.0
230
1.0
 70
    24
 71
     3
 72
     9
 73
     5
 74
     0
 42
0.000000001
 43
0.0000000001
 40
-1.0
 40
-1.0
 40
-1.0
 40
-1.0
 40
-0.6666666666666666
 40
-0.4444444444444445
 40
-0.4444444444444445
 40
-0.4444444444444445
 40
-0.4444444444444445
 10
831.4144898228125
 20
1834.245878730052
 30
0.0
 10
830.3165510685145
 20
1834.245878730052
 30
0.0
 10
829.0964082568995
 20
1834.245878730052
 30
0.0
 10
828.8830351578715
 20
1834.245878730052
 30
0.0
 10
828.9618054907611
 20
1834.245878730052
 30
0.0
  0
ELLIPSE
  5
1EF
330
130
100
AcDbEntity
  8
P-SANR-FIXT
100
AcDbEllipse
 10
810.8124517371919
 20
1806.245878730052
 30
0.0
 11
0.0000000000000536
 21
26.0
 31
0.0
210
0.0
220
0.0
230
1.0
 40
0.6427876096865405
 41
1.570796326794906
 42
3.141592653589796
  0
ELLIPSE
  5
1F0
330
130
100
AcDbEntity
  8
P-SANR-FIXT
100
AcDbEllipse
 10
810.8124517371919
 20
1806.245878730052
 30
0.0
 11
0.0
 21
26.00000000000023
 31
0.0
210
0.0
220
0.0
230
1.0
 40
0.6427876096865349
 41
0.0000000000000016
 42
1.570796326794898
  0
LINE
  5
1F1
330
130
100
AcDbEntity
  8
P-SANR-FIXT
100
AcDbLine
 10
852.6678755817293
 20
1806.245878730052
 30
0.0
 11
852.6678755817293
 21
1778.245878730052
 31
0.0
  0
LINE
  5
1F2
330
130
100
AcDbEntity
  8
P-SANR-FIXT
100
AcDbLine
 10
852.6678755817293
 20
1834.245878730052
 30
0.0
 11
852.6678755817293
 21
1806.245878730053
 31
0.0
  0
LINE
  5
1F3
330
130
100
AcDbEntity
  8
P-SANR-FIXT
100
AcDbLine
 10
831.4144898228125
 20
1834.245878730052
 30
0.0
 11
852.6678755817293
 21
1834.245878730052
 31
0.0
  0
LINE
  5
1F4
330
130
100
AcDbEntity
  8
P-SANR-FIXT
100
AcDbLine
 10
831.4144898228125
 20
1806.245878730052
 30
0.0
 11
852.6678755817293
 21
1806.245878730052
 31
0.0
  0
LINE
  5
1F5
330
130
100
AcDbEntity
  8
P-SANR-FIXT
100
AcDbLine
 10
831.4144898228125
 20
1778.245878730052
 30
0.0
 11
852.6678755817293
 21
1778.245878730052
 31
0.0
  0
ARC
  5
1F6
330
130
100
AcDbEntity
  8
P-SANR-FIXT
100
AcDbCircle
 10
815.6664074431878
 20
1806.245878730052
 30
0.0
 40
9.000000000002865
100
AcDbArc
 50
332.7339555494942
 51
0.0
  0
ARC
  5
1F7
330
130
100
AcDbEntity
  8
P-SANR-FIXT
100
AcDbCircle
 10
815.6664074431878
 20
1806.245878730052
 30
0.0
 40
9.000000000002936
100
AcDbArc
 50
272.7339555494969
 51
327.2660444505
  0
ARC
  5
1F8
330
130
100
AcDbEntity
  8
P-SANR-FIXT
100
AcDbCircle
 10
815.6664074431878
 20
1806.245878730052
 30
0.0
 40
9.000000000002813
100
AcDbArc
 50
212.7339555495034
 51
267.2660444504922
  0
ARC
  5
1F9
330
130
100
AcDbEntity
  8
P-SANR-FIXT
100
AcDbCircle
 10
815.6664074431878
 20
1806.245878730052
 30
0.0
 40
9.000000000002842
100
AcDbArc
 50
180.0
 51
207.2660444504887
  0
ARC
  5
1FA
330
130
100
AcDbEntity
  8
P-SANR-FIXT
100
AcDbCircle
 10
815.6664074431878
 20
1806.245878730052
 30
0.0
 40
9.000000000002939
100
AcDbArc
 50
152.7339555495079
 51
180.0
  0
ARC
  5
1FB
330
130
100
AcDbEntity
  8
P-SANR-FIXT
100
AcDbCircle
 10
815.6664074431878
 20
1806.245878730052
 30
0.0
 40
9.000000000002877
100
AcDbArc
 50
92.73395554950454
 51
147.2660444504934
  0
ARC
  5
1FC
330
130
100
AcDbEntity
  8
P-SANR-FIXT
100
AcDbCircle
 10
815.6664074431878
 20
1806.245878730052
 30
0.0
 40
9.000000000002835
100
AcDbArc
 50
32.73395554949725
 51
87.26604445050048
  0
ARC
  5
1FD
330
130
100
AcDbEntity
  8
P-SANR-FIXT
100
AcDbCircle
 10
815.6664074431878
 20
1806.245878730052
 30
0.0
 40
9.000000000002955
100
AcDbArc
 50
0.0
 51
27.26604445050371
  0
ARC
  5
1FE
330
130
100
AcDbEntity
  8
P-SANR-FIXT
100
AcDbCircle
 10
815.6664074431878
 20
1806.245878730052
 30
0.0
 40
9.00000000000336
100
AcDbArc
 50
327.2660444505104
 51
332.7339555494877
  0
LINE
  5
1FF
330
130
100
AcDbEntity
  8
P-SANR-FIXT
100
AcDbLine
 10
823.6664074432066
 20
1802.122773104463
 30
0.0
 11
823.6664074432068
 21
1810.36898435564
 31
0.0
  0
ARC
  5
200
330
130
100
AcDbEntity
  8
P-SANR-FIXT
100
AcDbCircle
 10
815.6664074431878
 20
1806.245878730052
 30
0.0
 40
9.000000000003332
100
AcDbArc
 50
27.26604445050989
 51
32.73395554949585
  0
LINE
  5
201
330
130
100
AcDbEntity
  8
P-SANR-FIXT
100
AcDbLine
 10
823.2371216574426
 20
1811.11252914755
 30
0.0
 11
816.0956932289529
 21
1815.235634773138
 31
0.0
  0
ARC
  5
202
330
130
100
AcDbEntity
  8
P-SANR-FIXT
100
AcDbCircle
 10
815.6664074431878
 20
1806.245878730052
 30
0.0
 40
9.000000000003401
100
AcDbArc
 50
87.2660444505014
 51
92.73395554950372
  0
LINE
  5
203
330
130
100
AcDbEntity
  8
P-SANR-FIXT
100
AcDbLine
 10
815.237121657422
 20
1815.235634773138
 30
0.0
 11
808.0956932289337
 21
1811.112529147552
 31
0.0
  0
ARC
  5
204
330
130
100
AcDbEntity
  8
P-SANR-FIXT
100
AcDbCircle
 10
815.6664074431878
 20
1806.245878730052
 30
0.0
 40
9.000000000003442
100
AcDbArc
 50
147.2660444504948
 51
152.7339555495025
  0
LINE
  5
205
330
130
100
AcDbEntity
  8
P-SANR-FIXT
100
AcDbLine
 10
807.6664074431677
 20
1810.368984355638
 30
0.0
 11
807.6664074431677
 21
1802.122773104466
 31
0.0
  0
ARC
  5
206
330
130
100
AcDbEntity
  8
P-SANR-FIXT
100
AcDbCircle
 10
815.6664074431878
 20
1806.245878730052
 30
0.0
 40
9.000000000003456
100
AcDbArc
 50
207.2660444504953
 51
212.7339555494954
  0
LINE
  5
207
330
130
100
AcDbEntity
  8
P-SANR-FIXT
100
AcDbLine
 10
808.0956932289328
 20
1801.379228312553
 30
0.0
 11
815.2371216574232
 21
1797.256122686966
 31
0.0
  0
ARC
  5
208
330
130
100
AcDbEntity
  8
P-SANR-FIXT
100
AcDbCircle
 10
815.6664074431878
 20
1806.245878730052
 30
0.0
 40
9.000000000003266
100
AcDbArc
 50
267.2660444505039
 51
272.7339555494867
  0
LINE
  5
209
330
130
100
AcDbEntity
  8
P-SANR-FIXT
100
AcDbLine
 10
816.095693228951
 20
1797.256122686966
 30
0.0
 11
823.2371216574431
 21
1801.379228312554
 31
0.0
  0
ELLIPSE
  5
20A
330
130
100
AcDbEntity
  8
P-SANR-FIXT
100
AcDbEllipse
 10
723.86640744315
 20
1806.245878730052
 30
0.0
 11
0.0
 21
35.49999999998104
 31
0.0
210
0.0
220
0.0
230
1.0
 40
0.6427876096865406
 41
2.352166493437329
 42
2.647910862963116
  0
ELLIPSE
  5
20B
330
130
100
AcDbEntity
  8
P-SANR-FIXT
100
AcDbEllipse
 10
723.86640744315
 20
1806.245878730052
 30
0.0
 11
0.0
 21
35.4999999999808
 31
0.0
210
0.0
220
0.0
230
1.0
 40
0.6427876096865478
 41
2.70526034059121
 42
2.7351635025715
  0
ELLIPSE
  5
20C
330
130
100
AcDbEntity
  8
P-SANR-FIXT
100
AcDbEllipse
 10
723.86640744315
 20
1806.245878730052
 30
0.0
 11
0.0
 21
35.49999999998094
 31
0.0
210
0.0
220
0.0
230
1.0
 40
0.6427876096865417
 41
0.4064291510182886
 42
0.4363323129985732
  0
ELLIPSE
  5
20D
330
130
100
AcDbEntity
  8
P-SANR-FIXT
100
AcDbEllipse
 10
723.86640744315
 20
1806.245878730052
 30
0.0
 11
0.0
 21
35.49999999998087
 31
0.0
210
0.0
220
0.0
230
1.0
 40
0.6427876096865398
 41
0.4936817906266653
 42
0.7894261601524562
  0
ENDBLK
  5
20F
330
130
100
AcDbEntity
  8
0
100
AcDbBlockEnd
  0
BLOCK
  5
29F
330
211
100
AcDbEntity
  8
0
100
AcDbBlockBegin
  2
Automatic flow rate regulator valve_Caleffi_121 DN15 - 1_2__-V2-Est - Idraulica
 70
     0
 10
0.0
 20
0.0
 30
0.0
  3
Automatic flow rate regulator valve_Caleffi_121 DN15 - 1_2__-V2-Est - Idraulica
  1

  0
LINE
  5
212
330
211
100
AcDbEntity
  8
M-PIPE
100
AcDbLine
 10
1079.614353943044
 20
1914.376563290163
 30
0.0
 11
1079.614353943044
 21
1915.015801332388
 31
0.0
1001
REVIT
1002
{
1070
     3
1000
790271
1002
}
  0
LINE
  5
213
330
211
100
AcDbEntity
  8
M-PIPE
100
AcDbLine
 10
1079.614353943044
 20
1915.211127945385
 30
0.0
 11
1079.614353943043
 21
1915.98353231438
 31
0.0
1001
REVIT
1002
{
1070
     3
1000
790271
1002
}
  0
LINE
  5
214
330
211
100
AcDbEntity
  8
M-PIPE
100
AcDbLine
 10
1054.614353943056
 20
1915.983532314379
 30
0.0
 11
1054.614353943056
 21
1915.211127945384
 31
0.0
1001
REVIT
1002
{
1070
     3
1000
790271
1002
}
  0
LINE
  5
215
330
211
100
AcDbEntity
  8
M-PIPE
100
AcDbLine
 10
1054.614353943056
 20
1915.015801332387
 30
0.0
 11
1054.614353943056
 21
1914.376563290163
 31
0.0
1001
REVIT
1002
{
1070
     3
1000
790271
1002
}
  0
ELLIPSE
  5
216
330
211
100
AcDbEntity
  8
M-PIPE
100
AcDbEllipse
 10
1067.114353943048
 20
1915.983532314379
 30
0.0
 11
12.49999999999409
 21
0.0
 31
0.0
210
0.0
220
0.0
230
1.0
 40
0.7660444431189521
 41
0.0000000000000237
 42
3.14159265358981
1001
REVIT
1002
{
1070
     3
1000
790271
1002
}
  0
ELLIPSE
  5
217
330
211
100
AcDbEntity
  8
M-PIPE
100
AcDbEllipse
 10
1067.114353943048
 20
1914.055169485319
 30
0.0
 11
11.99999999999409
 21
0.0
 31
0.0
210
0.0
220
0.0
230
1.0
 40
0.7660444431189512
 41
0.0
 42
3.141592653589793
1001
REVIT
1002
{
1070
     3
1000
790271
1002
}
  0
LINE
  5
218
330
211
100
AcDbEntity
  8
M-PIPE
100
AcDbLine
 10
1056.722049097652
 20
1914.055169485313
 30
0.0
 11
1061.918201520354
 21
1920.949569473377
 31
0.0
1001
REVIT
1002
{
1070
     3
1000
790271
1002
}
  0
LINE
  5
219
330
211
100
AcDbEntity
  8
M-PIPE
100
AcDbLine
 10
1061.918201520354
 20
1920.949569473377
 30
0.0
 11
1072.310506365767
 21
1920.949569473377
 31
0.0
1001
REVIT
1002
{
1070
     3
1000
790271
1002
}
  0
LINE
  5
21A
330
211
100
AcDbEntity
  8
M-PIPE
100
AcDbLine
 10
1072.310506365767
 20
1920.949569473377
 30
0.0
 11
1077.506658788464
 21
1914.055169485319
 31
0.0
1001
REVIT
1002
{
1070
     3
1000
790271
1002
}
  0
ELLIPSE
  5
21B
330
211
100
AcDbEntity
  8
M-PIPE
100
AcDbEllipse
 10
1067.114353943048
 20
1914.055169485319
 30
0.0
 11
11.99999999999431
 21
0.0
 31
0.0
210
0.0
220
0.0
230
1.0
 40
0.7660444431189556
 41
3.141592653589811
 42
4.129250686864905
1001
REVIT
1002
{
1070
     3
1000
790271
1002
}
  0
ELLIPSE
  5
21C
330
211
100
AcDbEntity
  8
M-PIPE
100
AcDbEllipse
 10
1067.114353943048
 20
1914.055169485319
 30
0.0
 11
11.99999999999403
 21
0.0
 31
0.0
210
0.0
220
0.0
230
1.0
 40
0.7660444431189655
 41
5.295527273907406
 42
6.283185307179586
1001
REVIT
1002
{
1070
     3
1000
790271
1002
}
  0
ELLIPSE
  5
21D
330
211
100
AcDbEntity
  8
M-PIPE
100
AcDbEllipse
 10
1067.114353943048
 20
1914.376563290162
 30
0.0
 11
12.49999999999431
 21
0.0
 31
0.0
210
0.0
220
0.0
230
0.9999999999999998
 40
0.7660444431189381
 41
0.0000000000000237
 42
3.14159265358981
1001
REVIT
1002
{
1070
     3
1000
790271
1002
}
  0
ELLIPSE
  5
21E
330
211
100
AcDbEntity
  8
M-PIPE
100
AcDbEllipse
 10
1067.114353943048
 20
1914.376563290162
 30
0.0
 11
12.49999999999409
 21
0.0
 31
0.0
210
0.0
220
0.0
230
1.0
 40
0.7660444431189521
 41
5.258805331720557
 42
6.28318530717961
1001
REVIT
1002
{
1070
     3
1000
790271
1002
}
  0
ELLIPSE
  5
21F
330
211
100
AcDbEntity
  8
M-PIPE
100
AcDbEllipse
 10
1067.114353943048
 20
1914.376563290162
 30
0.0
 11
12.49999999999414
 21
0.0
 31
0.0
210
0.0
220
0.0
230
1.0
 40
0.7660444431189692
 41
3.14159265358981
 42
4.165972629050946
1001
REVIT
1002
{
1070
     3
1000
790271
1002
}
  0
ELLIPSE
  5
220
330
211
100
AcDbEntity
  8
M-PIPE
100
AcDbEllipse
 10
1067.114353943048
 20
1911.291182763646
 30
0.0
 11
9.0
 21
0.0
 31
0.0
210
0.0
220
0.0
230
1.0
 40
0.7660444431189212
 41
0.0
 42
0.5235987755983306
1001
REVIT
1002
{
1070
     3
1000
790271
1002
}
  0
ELLIPSE
  5
221
330
211
100
AcDbEntity
  8
M-PIPE
100
AcDbEllipse
 10
1067.114353943048
 20
1911.291182763646
 30
0.0
 11
8.999999999999836
 21
0.0
 31
0.0
210
0.0
220
0.0
230
1.0
 40
0.766044443118965
 41
0.5235987755983058
 42
1.570796326794896
1001
REVIT
1002
{
1070
     3
1000
790271
1002
}
  0
ELLIPSE
  5
222
330
211
100
AcDbEntity
  8
M-PIPE
100
AcDbEllipse
 10
1067.114353943048
 20
1911.291182763646
 30
0.0
 11
9.0
 21
0.0
 31
0.0
210
0.0
220
0.0
230
1.0
 40
0.7660444431189212
 41
1.570796326794896
 42
2.617993877991462
1001
REVIT
1002
{
1070
     3
1000
790271
1002
}
  0
ELLIPSE
  5
223
330
211
100
AcDbEntity
  8
M-PIPE
100
AcDbEllipse
 10
1067.114353943048
 20
1911.291182763646
 30
0.0
 11
9.000000000000063
 21
0.0
 31
0.0
210
0.0
220
0.0
230
1.0
 40
0.7660444431189548
 41
2.61799387799151
 42
3.141592653589819
1001
REVIT
1002
{
1070
     3
1000
790271
1002
}
  0
ELLIPSE
  5
224
330
211
100
AcDbEntity
  8
M-PIPE
100
AcDbEllipse
 10
1067.114353943048
 20
1911.291182763646
 30
0.0
 11
9.0
 21
0.0
 31
0.0
210
0.0
220
0.0
230
1.0
 40
0.7660444431189717
 41
3.141592653589819
 42
3.52921006730157
1001
REVIT
1002
{
1070
     3
1000
790271
1002
}
  0
ELLIPSE
  5
225
330
211
100
AcDbEntity
  8
M-PIPE
100
AcDbEllipse
 10
1067.114353943048
 20
1911.291182763646
 30
0.0
 11
8.999999999999989
 21
0.0
 31
0.0
210
0.0
220
0.0
230
1.0
 40
0.7660444431189574
 41
3.534291735288522
 42
3.665191429188096
1001
REVIT
1002
{
1070
     3
1000
790271
1002
}
  0
ELLIPSE
  5
226
330
211
100
AcDbEntity
  8
M-PIPE
100
AcDbEllipse
 10
1067.114353943048
 20
1911.291182763646
 30
0.0
 11
8.999999999999836
 21
0.0
 31
0.0
210
0.0
220
0.0
230
1.0
 40
0.766044443118965
 41
3.665191429188092
 42
4.712388980384683
1001
REVIT
1002
{
1070
     3
1000
790271
1002
}
  0
ELLIPSE
  5
227
330
211
100
AcDbEntity
  8
M-PIPE
100
AcDbEllipse
 10
1067.114353943048
 20
1911.291182763646
 30
0.0
 11
9.0
 21
0.0
 31
0.0
210
0.0
220
0.0
230
1.0
 40
0.7660444431189717
 41
4.712388980384683
 42
5.759586531581278
1001
REVIT
1002
{
1070
     3
1000
790271
1002
}
  0
ELLIPSE
  5
228
330
211
100
AcDbEntity
  8
M-PIPE
100
AcDbEllipse
 10
1067.114353943048
 20
1911.291182763646
 30
0.0
 11
8.99999999999995
 21
0.0
 31
0.0
210
0.0
220
0.0
230
1.0
 40
0.7660444431189552
 41
5.759586531581268
 42
5.890486225480842
1001
REVIT
1002
{
1070
     3
1000
790271
1002
}
  0
ELLIPSE
  5
229
330
211
100
AcDbEntity
  8
M-PIPE
100
AcDbEllipse
 10
1067.114353943048
 20
1911.291182763646
 30
0.0
 11
8.999999999999864
 21
0.0
 31
0.0
210
0.0
220
0.0
230
1.0
 40
0.7660444431189707
 41
5.895567893441461
 42
6.283185307179586
1001
REVIT
1002
{
1070
     3
1000
790271
1002
}
  0
SPLINE
  5
22A
330
211
100
AcDbEntity
  8
M-PIPE
100
AcDbSpline
210
0.0
220
0.0
230
1.0
 70
     8
 71
     3
 72
     9
 73
     5
 74
     0
 42
0.000000001
 43
0.0000000001
 40
0.0
 40
0.0
 40
0.0
 40
0.0
 40
0.5
 40
0.699380789608415
 40
0.699380789608415
 40
0.699380789608415
 40
0.699380789608415
 10
1072.310506365767
 20
1904.913486038331
 30
0.0
 10
1071.450767626257
 20
1904.746704655937
 30
0.0
 10
1070.243801337041
 20
1904.569832238376
 30
0.0
 10
1069.030685011763
 20
1904.471870916503
 30
0.0
 10
1068.684347706609
 20
1904.450357155934
 30
0.0
1001
REVIT
1002
{
1070
     3
1000
790271
1002
}
  0
SPLINE
  5
22B
330
211
100
AcDbEntity
  8
M-PIPE
100
AcDbSpline
210
0.0
220
0.0
230
1.0
 70
     8
 71
     3
 72
     9
 73
     5
 74
     0
 42
0.000000001
 43
0.0000000001
 40
0.3006192104033667
 40
0.3006192104033667
 40
0.3006192104033667
 40
0.3006192104033667
 40
0.5
 40
1.0
 40
1.0
 40
1.0
 40
1.0
 10
1065.544360179433
 20
1904.450357155937
 30
0.0
 10
1065.198022874302
 20
1904.471870916505
 30
0.0
 10
1063.98490654905
 20
1904.569832238377
 30
0.0
 10
1062.777940259859
 20
1904.746704655934
 30
0.0
 10
1061.918201520354
 20
1904.913486038326
 30
0.0
1001
REVIT
1002
{
1070
     3
1000
790271
1002
}
  0
SPLINE
  5
22C
330
211
100
AcDbEntity
  8
M-PIPE
100
AcDbSpline
210
0.0
220
0.0
230
1.0
 70
     8
 71
     3
 72
     9
 73
     5
 74
     0
 42
0.000000001
 43
0.0000000001
 40
0.0
 40
0.0
 40
0.0
 40
0.0
 40
0.5
 40
0.6993807895738261
 40
0.6993807895738261
 40
0.6993807895738261
 40
0.6993807895738261
 10
1061.918201520354
 20
1904.913486038326
 30
0.0
 10
1061.488332150599
 20
1905.317067327503
 30
0.0
 10
1060.884849006019
 20
1905.940913181146
 30
0.0
 10
1060.278290843409
 20
1906.647750150179
 30
0.0
 10
1060.105122190862
 20
1906.856001388583
 30
0.0
1001
REVIT
1002
{
1070
     3
1000
790271
1002
}
  0
SPLINE
  5
22D
330
211
100
AcDbEntity
  8
M-PIPE
100
AcDbSpline
210
0.0
220
0.0
230
1.0
 70
     8
 71
     3
 72
     8
 73
     4
 74
     0
 42
0.000000001
 43
0.0000000001
 40
0.0
 40
0.0
 40
0.0
 40
0.0
 40
0.0626264846580773
 40
0.0626264846580773
 40
0.0626264846580773
 40
0.0626264846580773
 10
1059.32012530899
 20
1907.843982769611
 30
0.0
 10
1059.265495470643
 20
1907.917150172371
 30
0.0
 10
1059.210890289074
 20
1907.990917601947
 30
0.0
 10
1059.156309764284
 20
1908.065285058341
 30
0.0
1001
REVIT
1002
{
1070
     3
1000
790271
1002
}
  0
SPLINE
  5
22E
330
211
100
AcDbEntity
  8
M-PIPE
100
AcDbSpline
210
0.0
220
0.0
230
1.0
 70
     8
 71
     3
 72
     9
 73
     5
 74
     0
 42
0.000000001
 43
0.0000000001
 40
0.2548790086317227
 40
0.2548790086317227
 40
0.2548790086317227
 40
0.2548790086317227
 40
0.5
 40
1.0
 40
1.0
 40
1.0
 40
1.0
 10
1058.654348411159
 20
1908.767134589892
 30
0.0
 10
1058.441311945983
 20
1909.072628985472
 30
0.0
 10
1057.794870012051
 20
1910.02921587677
 30
0.0
 10
1057.151918467392
 20
1911.070741972436
 30
0.0
 10
1056.722049097639
 20
1911.807886026398
 30
0.0
1001
REVIT
1002
{
1070
     3
1000
790271
1002
}
  0
LINE
  5
22F
330
211
100
AcDbEntity
  8
M-PIPE
100
AcDbLine
 10
1056.722049097651
 20
1911.807886026393
 30
0.0
 11
1056.722049097647
 21
1914.055169485326
 31
0.0
1001
REVIT
1002
{
1070
     3
1000
790271
1002
}
  0
SPLINE
  5
230
330
211
100
AcDbEntity
  8
M-PIPE
100
AcDbSpline
210
0.0
220
0.0
230
1.0
 70
     8
 71
     3
 72
     9
 73
     5
 74
     0
 42
0.000000001
 43
0.0000000001
 40
0.0
 40
0.0
 40
0.0
 40
0.0
 40
0.5
 40
1.0
 40
1.0
 40
1.0
 40
1.0
 10
1056.722049097651
 20
1911.807886026393
 30
0.0
 10
1057.151918467404
 20
1912.211467315567
 30
0.0
 10
1058.01480053905
 20
1913.103464726622
 30
0.0
 10
1058.883969274973
 20
1914.165131803088
 30
0.0
 10
1059.320125309004
 20
1914.738382757673
 30
0.0
1001
REVIT
1002
{
1070
     3
1000
790271
1002
}
  0
SPLINE
  5
231
330
211
100
AcDbEntity
  8
M-PIPE
100
AcDbSpline
210
0.0
220
0.0
230
1.0
 70
     8
 71
     3
 72
     9
 73
     5
 74
     0
 42
0.000000001
 43
0.0000000001
 40
0.0
 40
0.0
 40
0.0
 40
0.0
 40
0.5
 40
1.0
 40
1.0
 40
1.0
 40
1.0
 10
1059.320125309004
 20
1914.738382757673
 30
0.0
 10
1059.756281343035
 20
1915.322539789304
 30
0.0
 10
1060.625450078957
 20
1916.567347363732
 30
0.0
 10
1061.488332150601
 20
1917.965141960493
 30
0.0
 10
1061.918201520354
 20
1918.702286014456
 30
0.0
1001
REVIT
1002
{
1070
     3
1000
790271
1002
}
  0
LINE
  5
232
330
211
100
AcDbEntity
  8
M-PIPE
100
AcDbLine
 10
1061.918201520354
 20
1918.702286014456
 30
0.0
 11
1061.918201520354
 21
1920.949569473396
 31
0.0
1001
REVIT
1002
{
1070
     3
1000
790271
1002
}
  0
SPLINE
  5
233
330
211
100
AcDbEntity
  8
M-PIPE
100
AcDbSpline
210
0.0
220
0.0
230
1.0
 70
     8
 71
     3
 72
     9
 73
     5
 74
     0
 42
0.000000001
 43
0.0000000001
 40
0.0
 40
0.0
 40
0.0
 40
0.0
 40
0.5
 40
1.0
 40
1.0
 40
1.0
 40
1.0
 10
1061.918201520354
 20
1918.702286014456
 30
0.0
 10
1062.777940259858
 20
1918.535504632062
 30
0.0
 10
1064.503704403146
 20
1918.282606039209
 30
0.0
 10
1066.242041874988
 20
1918.191035790227
 30
0.0
 10
1067.114353943048
 20
1918.185582751704
 30
0.0
1001
REVIT
1002
{
1070
     3
1000
790271
1002
}
  0
SPLINE
  5
234
330
211
100
AcDbEntity
  8
M-PIPE
100
AcDbSpline
210
0.0
220
0.0
230
1.0
 70
     8
 71
     3
 72
     9
 73
     5
 74
     0
 42
0.000000001
 43
0.0000000001
 40
0.0
 40
0.0
 40
0.0
 40
0.0
 40
0.5
 40
1.0
 40
1.0
 40
1.0
 40
1.0
 10
1067.114353943048
 20
1918.185582751704
 30
0.0
 10
1067.986666011113
 20
1918.191035790227
 30
0.0
 10
1069.725003482964
 20
1918.28260603921
 30
0.0
 10
1071.450767626258
 20
1918.535504632065
 30
0.0
 10
1072.310506365767
 20
1918.702286014461
 30
0.0
1001
REVIT
1002
{
1070
     3
1000
790271
1002
}
  0
LINE
  5
235
330
211
100
AcDbEntity
  8
M-PIPE
100
AcDbLine
 10
1072.310506365767
 20
1918.702286014461
 30
0.0
 11
1072.310506365767
 21
1920.949569473396
 31
0.0
1001
REVIT
1002
{
1070
     3
1000
790271
1002
}
  0
SPLINE
  5
236
330
211
100
AcDbEntity
  8
M-PIPE
100
AcDbSpline
210
0.0
220
0.0
230
1.0
 70
     8
 71
     3
 72
     9
 73
     5
 74
     0
 42
0.000000001
 43
0.0000000001
 40
0.0
 40
0.0
 40
0.0
 40
0.0
 40
0.5
 40
1.0
 40
1.0
 40
1.0
 40
1.0
 10
1072.310506365767
 20
1918.702286014461
 30
0.0
 10
1072.740375735519
 20
1917.965141960501
 30
0.0
 10
1073.603257807161
 20
1916.567347363743
 30
0.0
 10
1074.472426543081
 20
1915.322539789314
 30
0.0
 10
1074.90858257711
 20
1914.738382757682
 30
0.0
1001
REVIT
1002
{
1070
     3
1000
790271
1002
}
  0
SPLINE
  5
237
330
211
100
AcDbEntity
  8
M-PIPE
100
AcDbSpline
210
0.0
220
0.0
230
1.0
 70
     8
 71
     3
 72
     9
 73
     5
 74
     0
 42
0.000000001
 43
0.0000000001
 40
0.0
 40
0.0
 40
0.0
 40
0.0
 40
0.5
 40
1.0
 40
1.0
 40
1.0
 40
1.0
 10
1074.90858257711
 20
1914.738382757682
 30
0.0
 10
1075.344738611141
 20
1914.165131803099
 30
0.0
 10
1076.213907347066
 20
1913.103464726637
 30
0.0
 10
1077.076789418712
 20
1912.211467315585
 30
0.0
 10
1077.506658788466
 20
1911.80788602641
 30
0.0
1001
REVIT
1002
{
1070
     3
1000
790271
1002
}
  0
LINE
  5
238
330
211
100
AcDbEntity
  8
M-PIPE
100
AcDbLine
 10
1077.506658788477
 20
1911.807886026405
 30
0.0
 11
1077.506658788474
 21
1914.055169485326
 31
0.0
1001
REVIT
1002
{
1070
     3
1000
790271
1002
}
  0
SPLINE
  5
239
330
211
100
AcDbEntity
  8
M-PIPE
100
AcDbSpline
210
0.0
220
0.0
230
1.0
 70
     8
 71
     3
 72
     9
 73
     5
 74
     0
 42
0.000000001
 43
0.0000000001
 40
0.0
 40
0.0
 40
0.0
 40
0.0
 40
0.5
 40
0.7451209913674174
 40
0.7451209913674174
 40
0.7451209913674174
 40
0.7451209913674174
 10
1077.506658788477
 20
1911.807886026405
 30
0.0
 10
1077.076789418724
 20
1911.070741972442
 30
0.0
 10
1076.433837874066
 20
1910.029215876773
 30
0.0
 10
1075.787395940134
 20
1909.072628985474
 30
0.0
 10
1075.574359474958
 20
1908.767134589893
 30
0.0
1001
REVIT
1002
{
1070
     3
1000
790271
1002
}
  0
SPLINE
  5
23A
330
211
100
AcDbEntity
  8
M-PIPE
100
AcDbSpline
210
0.0
220
0.0
230
1.0
 70
     8
 71
     3
 72
     8
 73
     4
 74
     0
 42
0.000000001
 43
0.0000000001
 40
0.9146494949789465
 40
0.9146494949789465
 40
0.9146494949789465
 40
0.9146494949789465
 40
1.0
 40
1.0
 40
1.0
 40
1.0
 10
1075.131802014205
 20
1908.146474753255
 30
0.0
 10
1075.057441331696
 20
1908.044529626144
 30
0.0
 10
1074.983034852669
 20
1907.943698964927
 30
0.0
 10
1074.908582577124
 20
1907.843982769603
 30
0.0
1001
REVIT
1002
{
1070
     3
1000
790271
1002
}
  0
SPLINE
  5
23B
330
211
100
AcDbEntity
  8
M-PIPE
100
AcDbSpline
210
0.0
220
0.0
230
1.0
 70
     8
 71
     3
 72
     9
 73
     5
 74
     0
 42
0.000000001
 43
0.0000000001
 40
0.3006192103769287
 40
0.3006192103769287
 40
0.3006192103769287
 40
0.3006192103769287
 40
0.5
 40
1.0
 40
1.0
 40
1.0
 40
1.0
 10
1074.123585695383
 20
1906.856001388738
 30
0.0
 10
1073.950417042793
 20
1906.64775015028
 30
0.0
 10
1073.343858880142
 20
1905.940913181196
 30
0.0
 10
1072.740375735522
 20
1905.317067327509
 30
0.0
 10
1072.310506365767
 20
1904.913486038331
 30
0.0
1001
REVIT
1002
{
1070
     3
1000
790271
1002
}
  0
LINE
  5
23C
330
211
100
AcDbEntity
  8
P-SANR-FIXT
100
AcDbLine
 10
1077.614353943098
 20
2029.834641132885
 30
0.0
 11
1077.614353943098
 21
2032.982558850012
 31
0.0
  0
LINE
  5
23D
330
211
100
AcDbEntity
  8
P-SANR-FIXT
100
AcDbLine
 10
1056.614353943098
 20
2032.982558850012
 30
0.0
 11
1056.614353943098
 21
2029.834641132885
 31
0.0
  0
LINE
  5
23E
330
211
100
AcDbEntity
  8
P-SANR-FIXT
100
AcDbLine
 10
1077.614353943098
 20
2026.25199609814
 30
0.0
 11
1077.614353943098
 21
2029.834641132885
 31
0.0
  0
LINE
  5
23F
330
211
100
AcDbEntity
  8
P-SANR-FIXT
100
AcDbLine
 10
1056.614353943098
 20
2029.834641132885
 30
0.0
 11
1056.614353943098
 21
2026.25199609814
 31
0.0
  0
LINE
  5
240
330
211
100
AcDbEntity
  8
P-SANR-FIXT
100
AcDbLine
 10
1076.114353943101
 20
2032.982558850012
 30
0.0
 11
1076.114353943101
 21
2034.98255885001
 31
0.0
  0
LINE
  5
241
330
211
100
AcDbEntity
  8
P-SANR-FIXT
100
AcDbLine
 10
1058.114353943094
 20
2034.98255885001
 30
0.0
 11
1058.114353943094
 21
2032.982558850012
 31
0.0
  0
LINE
  5
242
330
211
100
AcDbEntity
  8
P-SANR-FIXT
100
AcDbLine
 10
1058.114353943095
 20
2038.482558850019
 30
0.0
 11
1058.114353943095
 21
2034.98255885001
 31
0.0
  0
LINE
  5
243
330
211
100
AcDbEntity
  8
P-SANR-FIXT
100
AcDbLine
 10
1076.114353943101
 20
2034.98255885001
 30
0.0
 11
1076.114353943101
 21
2038.482558850019
 31
0.0
  0
LINE
  5
244
330
211
100
AcDbEntity
  8
P-SANR-FIXT
100
AcDbLine
 10
1095.114353943096
 20
2016.14836638732
 30
0.0
 11
1067.114353943096
 21
2032.31417392463
 31
0.0
  0
ARC
  5
245
330
211
100
AcDbEntity
  8
P-SANR-FIXT
100
AcDbCircle
 10
1067.114353943096
 20
1999.982558850011
 30
0.0
 40
19.04999999999995
100
AcDbArc
 50
269.9999999999997
 51
90.0
  0
LINE
  5
246
330
211
100
AcDbEntity
  8
P-SANR-FIXT
100
AcDbLine
 10
1067.114353943096
 20
1967.650943775392
 30
0.0
 11
1095.114353943096
 21
1983.816751312701
 31
0.0
  0
LINE
  5
247
330
211
100
AcDbEntity
  8
P-SANR-FIXT
100
AcDbLine
 10
1095.114353943096
 20
1983.816751312701
 30
0.0
 11
1095.114353943096
 21
2016.14836638732
 31
0.0
  0
LINE
  5
248
330
211
100
AcDbEntity
  8
P-SANR-FIXT
100
AcDbLine
 10
1039.114353943096
 20
1983.816751312701
 30
0.0
 11
1067.114353943096
 21
1967.650943775391
 31
0.0
  0
ARC
  5
249
330
211
100
AcDbEntity
  8
P-SANR-FIXT
100
AcDbCircle
 10
1067.114353943096
 20
1999.982558850011
 30
0.0
 40
19.04999999999972
100
AcDbArc
 50
90.00000000000067
 51
269.9999999999997
  0
LINE
  5
24A
330
211
100
AcDbEntity
  8
P-SANR-FIXT
100
AcDbLine
 10
1067.114353943096
 20
2032.31417392463
 30
0.0
 11
1039.114353943096
 21
2016.14836638732
 31
0.0
  0
LINE
  5
24B
330
211
100
AcDbEntity
  8
P-SANR-FIXT
100
AcDbLine
 10
1039.114353943096
 20
2016.14836638732
 30
0.0
 11
1039.114353943096
 21
1983.816751312701
 31
0.0
  0
LINE
  5
24C
330
211
100
AcDbEntity
  8
P-SANR-FIXT
100
AcDbLine
 10
1067.114353943096
 20
2032.982558850011
 30
0.0
 11
1077.614353943096
 21
2032.982558850011
 31
0.0
  0
LINE
  5
24D
330
211
100
AcDbEntity
  8
P-SANR-FIXT
100
AcDbLine
 10
1056.614353943096
 20
2032.982558850011
 30
0.0
 11
1067.114353943096
 21
2032.982558850011
 31
0.0
  0
LINE
  5
24E
330
211
100
AcDbEntity
  8
P-SANR-FIXT
100
AcDbLine
 10
1071.981004360595
 20
2034.982558850009
 30
0.0
 11
1076.104109986182
 21
2034.982558850009
 31
0.0
  0
LINE
  5
24F
330
211
100
AcDbEntity
  8
P-SANR-FIXT
100
AcDbLine
 10
1067.114353943096
 20
2034.982558850009
 30
0.0
 11
1071.237459568683
 21
2034.982558850009
 31
0.0
  0
LINE
  5
250
330
211
100
AcDbEntity
  8
P-SANR-FIXT
100
AcDbLine
 10
1062.991248317509
 20
2034.982558850009
 30
0.0
 11
1067.114353943096
 21
2034.982558850009
 31
0.0
  0
LINE
  5
251
330
211
100
AcDbEntity
  8
P-SANR-FIXT
100
AcDbLine
 10
1058.12459790001
 20
2034.982558850009
 30
0.0
 11
1062.247703525597
 21
2034.982558850009
 31
0.0
  0
LINE
  5
252
330
211
100
AcDbEntity
  8
P-SANR-FIXT
100
AcDbLine
 10
1058.114353943093
 20
2038.482558850017
 30
0.0
 11
1058.124597900011
 21
2038.482558850017
 31
0.0
  0
LINE
  5
253
330
211
100
AcDbEntity
  8
P-SANR-FIXT
100
AcDbLine
 10
1058.124597900011
 20
2038.482558850017
 30
0.0
 11
1062.247703525597
 21
2038.482558850017
 31
0.0
  0
LINE
  5
254
330
211
100
AcDbEntity
  8
P-SANR-FIXT
100
AcDbLine
 10
1062.247703525597
 20
2038.482558850017
 30
0.0
 11
1062.99124831751
 21
2038.482558850017
 31
0.0
  0
LINE
  5
255
330
211
100
AcDbEntity
  8
P-SANR-FIXT
100
AcDbLine
 10
1062.991248317511
 20
2038.482558850017
 30
0.0
 11
1071.237459568683
 21
2038.482558850017
 31
0.0
  0
LINE
  5
256
330
211
100
AcDbEntity
  8
P-SANR-FIXT
100
AcDbLine
 10
1071.237459568683
 20
2038.482558850017
 30
0.0
 11
1071.981004360595
 21
2038.482558850017
 31
0.0
  0
LINE
  5
257
330
211
100
AcDbEntity
  8
P-SANR-FIXT
100
AcDbLine
 10
1071.981004360595
 20
2038.482558850017
 30
0.0
 11
1076.104109986183
 21
2038.482558850017
 31
0.0
  0
LINE
  5
258
330
211
100
AcDbEntity
  8
P-SANR-FIXT
100
AcDbLine
 10
1076.104109986183
 20
2038.482558850017
 30
0.0
 11
1076.1143539431
 21
2038.482558850017
 31
0.0
  0
LINE
  5
259
330
211
100
AcDbEntity
  8
P-SANR-FIXT
100
AcDbLine
 10
1058.124597900011
 20
2034.982558850009
 30
0.0
 11
1058.124597900011
 21
2038.482558850017
 31
0.0
  0
LINE
  5
25A
330
211
100
AcDbEntity
  8
P-SANR-FIXT
100
AcDbLine
 10
1062.247703525597
 20
2034.982558850009
 30
0.0
 11
1062.247703525597
 21
2038.482558850017
 31
0.0
  0
LINE
  5
25B
330
211
100
AcDbEntity
  8
P-SANR-FIXT
100
AcDbLine
 10
1062.991248317511
 20
2034.982558850009
 30
0.0
 11
1062.991248317511
 21
2038.482558850017
 31
0.0
  0
LINE
  5
25C
330
211
100
AcDbEntity
  8
P-SANR-FIXT
100
AcDbLine
 10
1071.237459568683
 20
2034.982558850009
 30
0.0
 11
1071.237459568683
 21
2038.482558850017
 31
0.0
  0
LINE
  5
25D
330
211
100
AcDbEntity
  8
P-SANR-FIXT
100
AcDbLine
 10
1071.981004360595
 20
2034.982558850009
 30
0.0
 11
1071.981004360595
 21
2038.482558850017
 31
0.0
  0
LINE
  5
25E
330
211
100
AcDbEntity
  8
P-SANR-FIXT
100
AcDbLine
 10
1076.104109986183
 20
2034.982558850009
 30
0.0
 11
1076.104109986183
 21
2038.482558850017
 31
0.0
  0
LINE
  5
25F
330
211
100
AcDbEntity
  8
P-SANR-FIXT
100
AcDbLine
 10
1103.114353943098
 20
1925.625346459698
 30
0.0
 11
1103.114353943098
 21
1955.68039768768
 31
0.0
  0
LINE
  5
260
330
211
100
AcDbEntity
  8
P-SANR-FIXT
100
AcDbLine
 10
1031.114353943098
 20
1955.68039768768
 30
0.0
 11
1031.114353943098
 21
1925.625346459698
 31
0.0
  0
LWPOLYLINE
  5
261
330
211
100
AcDbEntity
  8
P-SANR-FIXT
100
AcDbPolyline
 90
       26
 70
   128
 43
0.0
 10
1103.114353943098
 20
1955.68039768768
 10
1103.083871646957
 20
1956.847825740799
 10
1102.992514691812
 20
1958.012860932847
 10
1102.840551002567
 20
1959.173130486463
 10
1102.628421004901
 20
1960.326300848872
 10
1102.356728904136
 20
1961.470095036341
 10
1102.026231325214
 20
1962.602307494023
 10
1101.637824043502
 20
1963.720816000966
 10
1101.19252759663
 20
1964.823590391469
 10
1100.691472551654
 20
1965.908698099235
 10
1100.135885121278
 20
1966.974306735286
 10
1099.527073695942
 20
1968.018684067134
 10
1098.866416706417
 20
1969.040195867479
 10
1098.155352074251
 20
1970.037302146285
 10
1097.395368361243
 20
1971.008552277307
 10
1096.58799760547
 20
1971.952579490198
 10
1095.734809736103
 20
1972.868095134385
 10
1094.837408393653
 20
1973.753883042975
 10
1093.897427944322
 20
1974.60879424379
 10
1092.916531462321
 20
1975.431742187798
 10
1091.896409457321
 20
1976.221698597358
 10
1090.838779140057
 20
1976.977689980449
 10
1089.745384042844
 20
1977.698794813036
 10
1088.617993839412
 20
1978.384141359387
 10
1087.458404236954
 20
1979.032906078159
 10
1087.12510434351
 20
1979.204155905757
  0
LWPOLYLINE
  5
262
330
211
100
AcDbEntity
  8
P-SANR-FIXT
100
AcDbPolyline
 90
       26
 70
   128
 43
0.0
 10
1047.088569066107
 20
1979.201641824655
 10
1045.920599692573
 20
1978.562885849584
 10
1044.784340596085
 20
1977.887333875475
 10
1043.681594490368
 20
1977.175796639645
 10
1042.614138085996
 20
1976.429132735674
 10
1041.583721983745
 20
1975.648250060077
 10
1040.592070525263
 20
1974.83410782804
 10
1039.640881481524
 20
1973.987719214803
 10
1038.731825431174
 20
1973.110154659755
 10
1037.866544652731
 20
1972.202545840929
 10
1037.046651329517
 20
1971.266090286803
 10
1036.273724847678
 20
1970.30205653937
 10
1035.549307960557
 20
1969.311789717556
 10
1034.874901601976
 20
1968.296717255291
 10
1034.251958162275
 20
1967.258354507918
 10
1033.68187309874
 20
1966.198309840958
 10
1033.165974839306
 20
1965.118288745701
 10
1032.705513054786
 20
1964.02009647814
 10
1032.301645515831
 20
1962.905638703839
 10
1031.955423906576
 20
1961.776919662881
 10
1031.667779122289
 20
1960.636037454603
 10
1031.43950671421
 20
1959.485176183686
 10
1031.271253239836
 20
1958.32659490205
 10
1031.163504311737
 20
1957.1626135101
 10
1031.116575098776
 20
1955.99559602346
 10
1031.114353943098
 20
1955.68039768768
  0
LINE
  5
263
330
211
100
AcDbEntity
  8
P-SANR-FIXT
100
AcDbLine
 10
1100.114353943097
 20
1966.963253520736
 30
0.0
 11
1100.114353943097
 21
1989.904107428352
 31
0.0
  0
LINE
  5
264
330
211
100
AcDbEntity
  8
P-SANR-FIXT
100
AcDbLine
 10
1034.1143539431
 20
1989.904107428353
 30
0.0
 11
1034.1143539431
 21
1966.966901185329
 31
0.0
  0
LWPOLYLINE
  5
265
330
211
100
AcDbEntity
  8
P-SANR-FIXT
100
AcDbPolyline
 90
       11
 70
   128
 43
0.0
 10
1098.474288629355
 20
1997.699650330818
 10
1098.367940864134
 20
1998.511648801475
 10
1098.177193183137
 20
1999.54860001568
 10
1097.933088690102
 20
2000.576271217155
 10
1097.636447200861
 20
2001.592517380339
 10
1097.288232678176
 20
2002.595298164772
 10
1096.889534416114
 20
2003.582688280851
 10
1096.441547830487
 20
2004.552883631665
 10
1095.945555779624
 20
2005.504203514124
 10
1095.402911170427
 20
2006.435089371366
 10
1095.114353943098
 20
2006.881264503364
  0
LWPOLYLINE
  5
266
330
211
100
AcDbEntity
  8
P-SANR-FIXT
100
AcDbPolyline
 90
       12
 70
   128
 43
0.0
 10
1039.114353943098
 20
2006.88476262105
 10
1038.980074784181
 20
2006.682651604747
 10
1038.425077530068
 20
2005.757532718586
 10
1037.916357735746
 20
2004.811579601801
 10
1037.455284462293
 20
2003.846318438857
 10
1037.04316112012
 20
2002.863396711882
 10
1036.68120852536
 20
2001.864585275563
 10
1036.370546501251
 20
2000.85177714231
 10
1036.112174726828
 20
1999.826982441949
 10
1035.90695371641
 20
1998.792319209422
 10
1035.755586940287
 20
1997.749999911035
 10
1035.749912663722
 20
1997.688701190706
  0
LINE
  5
267
330
211
100
AcDbEntity
  8
P-SANR-FIXT
100
AcDbLine
 10
1058.114353943095
 20
2038.546258953292
 30
0.0
 11
1058.114353943095
 21
2038.482558850019
 31
0.0
  0
LINE
  5
268
330
211
100
AcDbEntity
  8
P-SANR-FIXT
100
AcDbLine
 10
1076.114353943102
 20
2038.482558850019
 30
0.0
 11
1076.114353943102
 21
2038.546258953292
 31
0.0
  0
LWPOLYLINE
  5
269
330
211
100
AcDbEntity
  8
P-SANR-FIXT
100
AcDbPolyline
 90
       41
 70
   128
 43
0.0
 10
1067.114353943098
 20
1896.214669058357
 10
1068.524629705047
 20
1896.236278695541
 10
1069.932710020383
 20
1896.301075830053
 10
1071.336402680214
 20
1896.408965187439
 10
1072.733521939672
 20
1896.559788165303
 10
1074.121891721375
 20
1896.753323113957
 10
1075.499348784651
 20
1896.989285725526
 10
1076.863745849174
 20
1897.267329527529
 10
1078.212954661776
 20
1897.5870464757
 10
1079.544868995362
 20
1897.947967639291
 10
1080.857407569217
 20
1898.349563970563
 10
1082.148516880477
 20
1898.79124714831
 10
1083.416173937346
 20
1899.272370483356
 10
1084.6583888858
 20
1899.792229871771
 10
1085.873207523078
 20
1900.350064779306
 10
1087.058713693535
 20
1900.945059238155
 10
1088.213031565278
 20
1901.576342834841
 10
1089.334327789858
 20
1902.242991665839
 10
1090.420813551992
 20
1902.944029235805
 10
1091.470746522217
 20
1903.678427272246
 10
1092.482432732341
 20
1904.44510643045
 10
1093.454228401678
 20
1905.242936864151
 10
1094.384541751067
 20
1906.070738641071
 10
1095.271834851246
 20
1906.927281988899
 10
1096.114625561611
 20
1907.811287367017
 10
1096.911489623928
 20
1908.721425372737
 10
1097.661062981774
 20
1909.656316508444
 10
1098.362044399058
 20
1910.61453085756
 10
1099.013198447936
 20
1911.594587742116
 10
1099.613358926158
 20
1912.594955461517
 10
1100.161432744763
 20
1913.614051238602
 10
1100.656404298075
 20
1914.650241522205
 10
1101.097340289314
 20
1915.701842811369
 10
1101.483394938281
 20
1916.767123170962
 10
1101.813815445817
 20
1917.844304597861
 10
1102.087947538078
 20
1918.931566368351
 10
1102.305240868546
 20
1920.02704945003
 10
1102.465254024134
 20
1921.128861997193
 10
1102.567658870292
 20
1922.235085872305
 10
1102.612243983257
 20
1923.343784055247
 10
1102.614353943079
 20
1923.643202345947
  0
LWPOLYLINE
  5
26A
330
211
100
AcDbEntity
  8
P-SANR-FIXT
100
AcDbPolyline
 90
       41
 70
   128
 43
0.0
 10
1031.614353943117
 20
1923.643202345947
 10
1031.643312201965
 20
1922.534169891489
 10
1031.730126928768
 20
1921.427086727451
 10
1031.874618647395
 20
1920.323893607259
 10
1032.076490429856
 20
1919.226514527569
 10
1032.335331043502
 20
1918.136849113197
 10
1032.650619073389
 20
1917.056765839071
 10
1033.021727776012
 20
1915.988096248872
 10
1033.447930400335
 20
1914.932630249539
 10
1033.928405717166
 20
1913.892112482356
 10
1034.462243524655
 20
1912.868239703158
 10
1035.048449939832
 20
1911.862659051976
 10
1035.685952336695
 20
1910.876967058788
 10
1036.373603843639
 20
1909.912709216872
 10
1037.110187361584
 20
1908.971379956044
 10
1037.894419105279
 20
1908.054422861425
 10
1038.724951701831
 20
1907.163231004897
 10
1039.600376902281
 20
1906.299147282373
 10
1040.51922797456
 20
1905.463464676977
 10
1041.47998185096
 20
1904.657426393766
 10
1042.481061102045
 20
1903.88222583421
 10
1043.520835803521
 20
1903.139006397265
 10
1044.597625354528
 20
1902.428861108514
 10
1045.70970029655
 20
1901.752832089538
 10
1046.855284172454
 20
1901.111909886914
 10
1048.032555456033
 20
1900.507032684621
 10
1049.239649573988
 20
1899.939085425765
 10
1050.474661035022
 20
1899.408898869912
 10
1051.735645674514
 20
1898.917248611521
 10
1053.020623018201
 20
1898.464854083396
 10
1054.327578764254
 20
1898.052377566963
 10
1055.654467380001
 20
1897.680423228902
 10
1056.999214807146
 20
1897.349536201276
 10
1058.35972126762
 20
1897.060201720004
 10
1059.733864160881
 20
1896.812844334309
 10
1061.119501042653
 20
1896.607827197798
 10
1062.514472674492
 20
1896.445451449962
 10
1063.916606133184
 20
1896.32595569522
 10
1065.323717968785
 20
1896.249515585184
 10
1066.73361739996
 20
1896.216243508408
 10
1067.114353943098
 20
1896.214669058357
  0
LINE
  5
26B
330
211
100
AcDbEntity
  8
P-SANR-FIXT
100
AcDbLine
 10
1102.614353943079
 20
1923.643202345947
 30
0.0
 11
1102.614353943079
 21
1924.98255884998
 31
0.0
  0
LINE
  5
26C
330
211
100
AcDbEntity
  8
P-SANR-FIXT
100
AcDbLine
 10
1031.614353943117
 20
1924.98255884998
 30
0.0
 11
1031.614353943117
 21
1923.643202345947
 31
0.0
  0
ELLIPSE
  5
26D
330
211
100
AcDbEntity
  8
P-SANR-FIXT
100
AcDbEllipse
 10
1067.114353943096
 20
1925.625346459697
 30
0.0
 11
35.99999999999976
 21
0.0
 31
0.0
210
0.0
220
0.0
230
1.0
 40
0.7660444431189808
 41
6.057072229222588
 42
7.853981633974482
  0
ELLIPSE
  5
26E
330
211
100
AcDbEntity
  8
P-SANR-FIXT
100
AcDbEllipse
 10
1067.114353943096
 20
1925.625346459697
 30
0.0
 11
-35.99999999999977
 21
0.0000000000004179
 31
0.0
210
0.0
220
0.0
230
1.0
 40
0.7660444431189766
 41
4.7123889803847
 42
6.50929838513662
  0
ELLIPSE
  5
26F
330
211
100
AcDbEntity
  8
P-SANR-FIXT
100
AcDbEllipse
 10
1067.114353943096
 20
1962.585634016673
 30
0.0
 11
31.50000000000009
 21
0.0
 31
0.0
210
0.0
220
0.0
230
0.9999999999999998
 40
0.7660444431189766
 41
0.4545238067868134
 42
0.8144076551553183
  0
ELLIPSE
  5
270
330
211
100
AcDbEntity
  8
P-SANR-FIXT
100
AcDbEllipse
 10
1067.114353943096
 20
1962.585634016673
 30
0.0
 11
31.49999999999999
 21
0.0
 31
0.0
210
0.0
220
0.0
230
1.0
 40
0.7660444431189709
 41
2.327184998434471
 42
2.687368831262934
  0
ELLIPSE
  5
271
330
211
100
AcDbEntity
  8
P-SANR-FIXT
100
AcDbEllipse
 10
1067.114353943096
 20
1963.549815431203
 30
0.0
 11
32.99999999999836
 21
0.0
 31
0.0
210
0.0
220
0.0
230
1.0
 40
0.7660444431189668
 41
0.1662239939765667
 42
0.7758120302307021
  0
ELLIPSE
  5
272
330
211
100
AcDbEntity
  8
P-SANR-FIXT
100
AcDbEllipse
 10
1067.114353943096
 20
1963.549815431203
 30
0.0
 11
32.99999999999832
 21
0.0
 31
0.0
210
0.0
220
0.0
230
1.0
 40
0.766044443118974
 41
2.365780623359095
 42
2.974449692363476
  0
ELLIPSE
  5
273
330
211
100
AcDbEntity
  8
P-SANR-FIXT
100
AcDbEllipse
 10
1067.114353943097
 20
1989.904107428351
 30
0.0
 11
32.99999999999909
 21
0.0
 31
0.0
210
0.0
220
0.0
230
1.0
 40
0.766044443118979
 41
0.0
 42
0.5562548990233035
  0
ELLIPSE
  5
274
330
211
100
AcDbEntity
  8
P-SANR-FIXT
100
AcDbEllipse
 10
1067.114353943097
 20
1989.904107428351
 30
0.0
 11
32.99999999999924
 21
0.0
 31
0.0
210
0.0
220
0.0
230
1.0
 40
0.7660444431189683
 41
2.585337754566509
 42
3.141592653589784
  0
LINE
  5
275
330
211
100
AcDbEntity
  8
P-SANR-FIXT
100
AcDbLine
 10
1058.114353943094
 20
2038.546258953291
 30
0.0
 11
1058.124597900011
 21
2038.546258953291
 31
0.0
  0
LINE
  5
276
330
211
100
AcDbEntity
  8
P-SANR-FIXT
100
AcDbLine
 10
1058.124597900011
 20
2038.546258953291
 30
0.0
 11
1062.247703525597
 21
2038.546258953291
 31
0.0
  0
LINE
  5
277
330
211
100
AcDbEntity
  8
P-SANR-FIXT
100
AcDbLine
 10
1062.247703525597
 20
2038.546258953291
 30
0.0
 11
1062.991248317511
 21
2038.546258953291
 31
0.0
  0
LINE
  5
278
330
211
100
AcDbEntity
  8
P-SANR-FIXT
100
AcDbLine
 10
1062.991248317511
 20
2038.546258953291
 30
0.0
 11
1071.237459568683
 21
2038.546258953291
 31
0.0
  0
LINE
  5
279
330
211
100
AcDbEntity
  8
P-SANR-FIXT
100
AcDbLine
 10
1071.237459568683
 20
2038.546258953291
 30
0.0
 11
1071.981004360596
 21
2038.546258953291
 31
0.0
  0
LINE
  5
27A
330
211
100
AcDbEntity
  8
P-SANR-FIXT
100
AcDbLine
 10
1071.981004360596
 20
2038.546258953291
 30
0.0
 11
1076.104109986183
 21
2038.546258953291
 31
0.0
  0
LINE
  5
27B
330
211
100
AcDbEntity
  8
P-SANR-FIXT
100
AcDbLine
 10
1076.104109986183
 20
2038.546258953291
 30
0.0
 11
1076.114353943101
 21
2038.546258953291
 31
0.0
  0
LINE
  5
27C
330
211
100
AcDbEntity
  8
P-SANR-FIXT
100
AcDbLine
 10
1058.124597900011
 20
2038.482558850017
 30
0.0
 11
1058.124597900011
 21
2038.546258953291
 31
0.0
  0
LINE
  5
27D
330
211
100
AcDbEntity
  8
P-SANR-FIXT
100
AcDbLine
 10
1062.247703525597
 20
2038.482558850017
 30
0.0
 11
1062.247703525597
 21
2038.546258953291
 31
0.0
  0
LINE
  5
27E
330
211
100
AcDbEntity
  8
P-SANR-FIXT
100
AcDbLine
 10
1062.991248317511
 20
2038.482558850017
 30
0.0
 11
1062.991248317511
 21
2038.546258953291
 31
0.0
  0
LINE
  5
27F
330
211
100
AcDbEntity
  8
P-SANR-FIXT
100
AcDbLine
 10
1071.237459568683
 20
2038.482558850017
 30
0.0
 11
1071.237459568683
 21
2038.546258953291
 31
0.0
  0
LINE
  5
280
330
211
100
AcDbEntity
  8
P-SANR-FIXT
100
AcDbLine
 10
1071.981004360596
 20
2038.482558850017
 30
0.0
 11
1071.981004360596
 21
2038.546258953291
 31
0.0
  0
LINE
  5
281
330
211
100
AcDbEntity
  8
P-SANR-FIXT
100
AcDbLine
 10
1076.104109986183
 20
2038.482558850017
 30
0.0
 11
1076.104109986183
 21
2038.546258953291
 31
0.0
  0
ELLIPSE
  5
282
330
211
100
AcDbEntity
  8
P-SANR-FIXT
100
AcDbEllipse
 10
1067.114353943096
 20
1924.982558849979
 30
0.0
 11
-35.4999999999809
 21
0.00000000000042
 31
0.0
210
0.0
220
0.0
230
1.0
 40
0.7660444431189675
 41
3.141592653589803
 42
4.7123889803847
  0
ELLIPSE
  5
283
330
211
100
AcDbEntity
  8
P-SANR-FIXT
100
AcDbEllipse
 10
1067.114353943096
 20
1924.982558849979
 30
0.0
 11
-35.4999999999809
 21
0.00000000000042
 31
0.0
210
0.0
220
0.0
230
1.0
 40
0.7660444431189675
 41
4.712388980384707
 42
6.283185307179603
  0
LINE
  5
284
330
211
100
AcDbEntity
  8
P-SANR-FIXT
100
AcDbLine
 10
1067.114353943096
 20
1931.619574607453
 30
0.0
 11
1073.208529372185
 21
1931.619574607453
 31
0.0
  0
LINE
  5
285
330
211
100
AcDbEntity
  8
P-SANR-FIXT
100
AcDbLine
 10
1075.109090126804
 20
1930.779002264815
 30
0.0
 11
1081.203265555892
 21
1922.693080300324
 31
0.0
  0
LINE
  5
286
330
211
100
AcDbEntity
  8
P-SANR-FIXT
100
AcDbLine
 10
1061.020178514008
 20
1931.619574607453
 30
0.0
 11
1067.114353943096
 21
1931.619574607453
 31
0.0
  0
LINE
  5
287
330
211
100
AcDbEntity
  8
P-SANR-FIXT
100
AcDbLine
 10
1053.025442330301
 20
1922.693080300324
 30
0.0
 11
1059.119617759389
 21
1930.779002264815
 31
0.0
  0
ELLIPSE
  5
288
330
211
100
AcDbEntity
  8
P-SANR-FIXT
100
AcDbEllipse
 10
1067.114353943096
 20
1921.852507957686
 30
0.0
 11
14.13157720003404
 21
0.0
 31
0.0
210
0.0
220
0.0
230
1.0
 40
0.7660444431189833
 41
1.124923829221287
 42
1.570796326794896
  0
ELLIPSE
  5
289
330
211
100
AcDbEntity
  8
P-SANR-FIXT
100
AcDbEllipse
 10
1067.114353943096
 20
1921.852507957686
 30
0.0
 11
14.13157720003338
 21
0.0
 31
0.0
210
0.0
220
0.0
230
0.9999999999999998
 40
0.7660444431189865
 41
0.0777262780246947
 42
0.9694712731718961
  0
ELLIPSE
  5
28A
330
211
100
AcDbEntity
  8
P-SANR-FIXT
100
AcDbEllipse
 10
1067.114353943096
 20
1921.852507957686
 30
0.0
 11
14.13157720003317
 21
0.0
 31
0.0
210
0.0
220
0.0
230
1.0
 40
0.7660444431189623
 41
2.172121380417907
 42
3.063866375565031
  0
ELLIPSE
  5
28B
330
211
100
AcDbEntity
  8
P-SANR-FIXT
100
AcDbEllipse
 10
1067.114353943096
 20
1921.852507957686
 30
0.0
 11
-14.13157720003346
 21
0.0000000000004213
 31
0.0
210
0.0
220
0.0
230
1.0
 40
0.7660444431189648
 41
4.712388980384723
 42
5.158261477958291
  0
LINE
  5
28C
330
211
100
AcDbEntity
  8
P-SANR-FIXT
100
AcDbLine
 10
1052.391922078761
 20
1915.983532314371
 30
0.0
 11
1054.856255850102
 21
1912.713785520669
 31
0.0
  0
LINE
  5
28D
330
211
100
AcDbEntity
  8
P-SANR-FIXT
100
AcDbLine
 10
1059.13150764167
 20
1907.041262179747
 30
0.0
 11
1059.753138010929
 21
1906.216465664604
 31
0.0
  0
LINE
  5
28E
330
211
100
AcDbEntity
  8
P-SANR-FIXT
100
AcDbLine
 10
1059.753138010929
 20
1906.216465664604
 30
0.0
 11
1060.592693757541
 21
1906.216465664604
 31
0.0
  0
LINE
  5
28F
330
211
100
AcDbEntity
  8
P-SANR-FIXT
100
AcDbLine
 10
1073.636014128555
 20
1906.216465664604
 30
0.0
 11
1074.475569875264
 21
1906.216465664604
 31
0.0
  0
LINE
  5
290
330
211
100
AcDbEntity
  8
P-SANR-FIXT
100
AcDbLine
 10
1074.475569875264
 20
1906.216465664604
 30
0.0
 11
1075.097200244523
 21
1907.041262179747
 31
0.0
  0
LINE
  5
291
330
211
100
AcDbEntity
  8
P-SANR-FIXT
100
AcDbLine
 10
1079.372452036092
 20
1912.71378552067
 30
0.0
 11
1081.836785807432
 21
1915.983532314371
 31
0.0
  0
LINE
  5
292
330
211
100
AcDbEntity
  8
P-SANR-FIXT
100
AcDbLine
 10
1081.836785807432
 20
1915.983532314371
 30
0.0
 11
1074.475569875264
 21
1925.750598964138
 31
0.0
  0
LINE
  5
293
330
211
100
AcDbEntity
  8
P-SANR-FIXT
100
AcDbLine
 10
1074.475569875264
 20
1925.750598964138
 30
0.0
 11
1059.753138010929
 21
1925.750598964138
 31
0.0
  0
LINE
  5
294
330
211
100
AcDbEntity
  8
P-SANR-FIXT
100
AcDbLine
 10
1059.753138010929
 20
1925.750598964138
 30
0.0
 11
1052.391922078761
 21
1915.983532314371
 31
0.0
  0
LINE
  5
295
330
211
100
AcDbEntity
  8
P-SANR-FIXT
100
AcDbLine
 10
1081.203265555892
 20
1922.693080300324
 30
0.0
 11
1081.836785807432
 21
1921.852507957686
 31
0.0
  0
LINE
  5
296
330
211
100
AcDbEntity
  8
P-SANR-FIXT
100
AcDbLine
 10
1074.475569875264
 20
1931.619574607453
 30
0.0
 11
1075.109090126804
 21
1930.779002264815
 31
0.0
  0
LINE
  5
297
330
211
100
AcDbEntity
  8
P-SANR-FIXT
100
AcDbLine
 10
1073.208529372185
 20
1931.619574607453
 30
0.0
 11
1074.475569875264
 21
1931.619574607453
 31
0.0
  0
LINE
  5
298
330
211
100
AcDbEntity
  8
P-SANR-FIXT
100
AcDbLine
 10
1052.391922078761
 20
1921.852507957686
 30
0.0
 11
1053.025442330301
 21
1922.693080300324
 31
0.0
  0
LINE
  5
299
330
211
100
AcDbEntity
  8
P-SANR-FIXT
100
AcDbLine
 10
1059.753138010929
 20
1931.619574607453
 30
0.0
 11
1061.020178514008
 21
1931.619574607453
 31
0.0
  0
LINE
  5
29A
330
211
100
AcDbEntity
  8
P-SANR-FIXT
100
AcDbLine
 10
1059.119617759389
 20
1930.779002264815
 30
0.0
 11
1059.753138010929
 21
1931.619574607453
 31
0.0
  0
LINE
  5
29B
330
211
100
AcDbEntity
  8
P-SANR-FIXT
100
AcDbLine
 10
1052.391922078761
 20
1915.983532314371
 30
0.0
 11
1052.391922078761
 21
1921.852507957686
 31
0.0
  0
LINE
  5
29C
330
211
100
AcDbEntity
  8
P-SANR-FIXT
100
AcDbLine
 10
1081.836785807432
 20
1921.852507957686
 30
0.0
 11
1081.836785807432
 21
1915.983532314371
 31
0.0
  0
LINE
  5
29D
330
211
100
AcDbEntity
  8
P-SANR-FIXT
100
AcDbLine
 10
1074.475569875264
 20
1931.619574607453
 30
0.0
 11
1074.475569875264
 21
1925.750598964138
 31
0.0
  0
LINE
  5
29E
330
211
100
AcDbEntity
  8
P-SANR-FIXT
100
AcDbLine
 10
1059.753138010929
 20
1931.619574607453
 30
0.0
 11
1059.753138010929
 21
1925.750598964138
 31
0.0
  0
ENDBLK
  5
2A0
330
211
100
AcDbEntity
  8
0
100
AcDbBlockEnd
  0
ENDSEC
  0
SECTION
  2
ENTITIES
  0
INSERT
  5
12F
330
71
100
AcDbEntity
  8
P-SANR-FIXT
100
AcDbBlockReference
  2
Automatic flow rate regulator valve_Caleffi_121 DN15 - 1_2__-859151-Est - Idraulica
 10
0.0
 20
0.0
 30
0.0
1001
REVIT
1002
{
1070
     1
1000
863131
1002
}
1002
{
1070
     5
1000
859151
1002
}
1002
{
1070
     2
1000
-2001160
1002
}
  0
INSERT
  5
210
330
71
100
AcDbEntity
  8
P-SANR-FIXT
100
AcDbBlockReference
  2
Automatic flow rate regulator valve_Caleffi_121 DN15 - 1_2__-V1-Est - Idraulica
 10
0.0
 20
0.0
 30
0.0
1001
REVIT
1002
{
1070
     1
1000
863152
1002
}
1002
{
1070
     5
1000
859151
1002
}
1002
{
1070
     2
1000
-2001160
1002
}
  0
INSERT
  5
2A1
330
71
100
AcDbEntity
  8
P-SANR-FIXT
100
AcDbBlockReference
  2
Automatic flow rate regulator valve_Caleffi_121 DN15 - 1_2__-V2-Est - Idraulica
 10
0.0
 20
0.0
 30
0.0
1001
REVIT
1002
{
1070
     1
1000
863172
1002
}
1002
{
1070
     5
1000
859151
1002
}
1002
{
1070
     2
1000
-2001160
1002
}
  0
ENDSEC
  0
SECTION
  2
OBJECTS
  0
DICTIONARY
  5
C
330
0
100
AcDbDictionary
281
     1
  3
ACAD_CIP_PREVIOUS_PRODUCT_INFO
350
7A
  3
ACAD_COLOR
350
63
  3
ACAD_DETAILVIEWSTYLE
350
6B
  3
ACAD_GROUP
350
D
  3
ACAD_IMAGE_VARS
350
7B
  3
ACAD_LAYOUT
350
62
  3
ACAD_MATERIAL
350
10
  3
ACAD_MLEADERSTYLE
350
66
  3
ACAD_MLINESTYLE
350
5F
  3
ACAD_PLOTSETTINGS
350
61
  3
ACAD_PLOTSTYLENAME
350
E
  3
ACAD_SCALELIST
350
42
  3
ACAD_SECTIONVIEWSTYLE
350
68
  3
ACAD_TABLESTYLE
350
64
  3
ACAD_VISUALSTYLE
350
29
  3
ACDB_RECOMPOSE_DATA
350
2AC
  3
AcDbVariableDictionary
350
7C
  3
REVIT_DICTIONARY
350
2A3
  0
DICTIONARY
  5
2A8
330
71
100
AcDbDictionary
280
     1
281
     1
  3
ACAD_SORTENTS
360
2A9
  0
XRECORD
  5
7A
102
{ACAD_REACTORS
330
C
102
}
330
C
100
AcDbXrecord
280
     1
300
RVT
300
2013
300
RVT2013
  0
DICTIONARY
  5
63
102
{ACAD_REACTORS
330
C
102
}
330
C
100
AcDbDictionary
281
     1
  0
DICTIONARY
  5
6B
102
{ACAD_REACTORS
330
C
102
}
330
C
100
AcDbDictionary
281
     1
  3
Imperial24
350
6C
  0
DICTIONARY
  5
D
102
{ACAD_REACTORS
330
C
102
}
330
C
100
AcDbDictionary
281
     1
  0
RASTERVARIABLES
  5
7B
102
{ACAD_REACTORS
330
C
102
}
330
C
100
AcDbRasterVariables
 90
        0
 70
     0
 71
     1
 72
     1
  0
DICTIONARY
  5
62
102
{ACAD_REACTORS
330
C
102
}
330
C
100
AcDbDictionary
281
     1
  3
Layout1
350
70
  3
Layout2
350
78
  3
Model
350
74
  0
DICTIONARY
  5
10
102
{ACAD_REACTORS
330
C
102
}
330
C
100
AcDbDictionary
281
     1
  3
ByBlock
350
19
  3
ByLayer
350
11
  3
Global
350
21
  0
DICTIONARY
  5
66
102
{ACAD_REACTORS
330
C
102
}
330
C
100
AcDbDictionary
281
     1
  3
Standard
350
67
  0
DICTIONARY
  5
5F
102
{ACAD_REACTORS
330
C
102
}
330
C
100
AcDbDictionary
281
     1
  3
Standard
350
60
  0
DICTIONARY
  5
61
102
{ACAD_REACTORS
330
C
102
}
330
C
100
AcDbDictionary
281
     1
  0
ACDBDICTIONARYWDFLT
  5
E
102
{ACAD_REACTORS
330
C
102
}
330
C
100
AcDbDictionary
281
     1
  3
Normal
350
F
100
AcDbDictionaryWithDefault
340
F
  0
DICTIONARY
  5
42
102
{ACAD_REACTORS
330
C
102
}
330
C
100
AcDbDictionary
281
     1
  3
A0
350
43
  3
A1
350
44
  3
A2
350
45
  3
A3
350
46
  3
A4
350
47
  3
A5
350
48
  3
A6
350
49
  3
A7
350
4A
  3
A8
350
4B
  3
A9
350
4C
  3
B0
350
4D
  3
B1
350
4E
  3
B2
350
4F
  3
B3
350
50
  3
B4
350
51
  3
B5
350
52
  3
B6
350
53
  0
DICTIONARY
  5
68
102
{ACAD_REACTORS
330
C
102
}
330
C
100
AcDbDictionary
281
     1
  3
Imperial24
350
6A
  0
DICTIONARY
  5
64
102
{ACAD_REACTORS
330
C
102
}
330
C
100
AcDbDictionary
281
     1
  3
Standard
350
65
  0
DICTIONARY
  5
29
102
{ACAD_REACTORS
330
C
102
}
330
C
100
AcDbDictionary
281
     1
  3
2dWireframe
350
2F
  3
Basic
350
2E
  3
Brighten
350
35
  3
ColorChange
350
39
  3
Conceptual
350
32
  3
Dim
350
34
  3
EdgeColorOff
350
41
  3
Facepattern
350
38
  3
Flat
350
2A
  3
FlatWithEdges
350
2B
  3
Gouraud
350
2C
  3
GouraudWithEdges
350
2D
  3
Hidden
350
31
  3
JitterOff
350
3F
  3
Linepattern
350
37
  3
OverhangOff
350
40
  3
Realistic
350
33
  3
Shaded
350
3E
  3
Shaded with edges
350
3D
  3
Shades of Gray
350
3A
  3
Sketchy
350
3B
  3
Thicken
350
36
  3
Wireframe
350
30
  3
X-Ray
350
3C
  0
XRECORD
  5
2AC
102
{ACAD_REACTORS
330
C
102
}
330
C
100
AcDbXrecord
280
     1
 90
        1
330
65
  0
DICTIONARY
  5
7C
102
{ACAD_REACTORS
330
C
102
}
330
C
100
AcDbDictionary
281
     1
  3
CANNOSCALE
350
81
  3
CMLEADERSTYLE
350
7E
  3
CTABLESTYLE
350
7D
  3
CVIEWDETAILSTYLE
350
7F
  3
CVIEWSECTIONSTYLE
350
80
  0
DICTIONARY
  5
2A3
102
{ACAD_REACTORS
330
C
102
}
330
C
100
AcDbDictionary
281
     1
  3
DRAWING_TOOL
350
2A7
  3
REVIT_CATEGORY_MAPPING
350
2A5
  3
REVIT_SUB_CATEGORY_MAPPING
350
2A6
  3
REVIT_TYPE_MAPPING
350
2A4
  0
SORTENTSTABLE
  5
2A9
102
{ACAD_REACTORS
330
2A8
102
}
330
2A8
100
AcDbSortentsTable
330
71
  0
ACDBDETAILVIEWSTYLE
  5
6C
102
{ACAD_REACTORS
330
6B
102
}
330
6B
100
AcDbModelDocViewStyle
 70
     0
  3
Imperial24
290
     1
100
AcDbDetailViewStyle
 70
     0
 71
     0
 90
        3
 71
     1
340
55
 62
   256
 40
0.24
340
0
 62
   256
 40
0.24
300

 40
0.36
280
     3
 71
     2
340
5D
 90
       25
 62
   256
 71
     3
340
55
 62
   256
 40
0.24
 90
        1
 40
0.75
 90
        1
300
%<\AcVar ViewType \f "%tc1">% %<\AcVar ViewDetailId>%\PSCALA %<\AcVar ViewScale \f "%sn">%
 71
     4
340
5D
 90
       25
 62
   256
340
5D
 90
       25
 62
   256
280
     0
  0
LAYOUT
  5
70
102
{ACAD_REACTORS
330
62
102
}
330
62
100
AcDbPlotSettings
  1

  2

  4

  6

 40
0.0
 41
0.0
 42
0.0
 43
0.0
 44
0.0
 45
0.0
 46
0.0
 47
0.0
 48
0.0
 49
0.0
140
0.0
141
0.0
142
1.0
143
1.0
 70
   688
 72
     0
 73
     0
 74
     5
  7

 75
    16
147
1.0
 76
     0
 77
     2
 78
   300
148
0.0
149
0.0
100
AcDbLayout
  1
Layout1
 70
     1
 71
     1
 10
0.0
 20
0.0
 11
12.0
 21
9.0
 12
0.0
 22
0.0
 32
0.0
 14
0.0
 24
0.0
 34
0.0
 15
0.0
 25
0.0
 35
0.0
146
0.0
 13
0.0
 23
0.0
 33
0.0
 16
1.0
 26
0.0
 36
0.0
 17
0.0
 27
1.0
 37
0.0
 76
     0
330
6D
  0
LAYOUT
  5
78
102
{ACAD_REACTORS
330
62
102
}
330
62
100
AcDbPlotSettings
  1

  2

  4

  6

 40
0.0
 41
0.0
 42
0.0
 43
0.0
 44
0.0
 45
0.0
 46
0.0
 47
0.0
 48
0.0
 49
0.0
140
0.0
141
0.0
142
1.0
143
1.0
 70
   688
 72
     0
 73
     0
 74
     5
  7

 75
    16
147
1.0
 76
     0
 77
     2
 78
   300
148
0.0
149
0.0
100
AcDbLayout
  1
Layout2
 70
     1
 71
     2
 10
0.0
 20
0.0
 11
12.0
 21
9.0
 12
0.0
 22
0.0
 32
0.0
 14
0.0
 24
0.0
 34
0.0
 15
0.0
 25
0.0
 35
0.0
146
0.0
 13
0.0
 23
0.0
 33
0.0
 16
1.0
 26
0.0
 36
0.0
 17
0.0
 27
1.0
 37
0.0
 76
     0
330
75
  0
LAYOUT
  5
74
102
{ACAD_REACTORS
330
62
102
}
330
62
100
AcDbPlotSettings
  1

  2

  4

  6

 40
0.0
 41
0.0
 42
0.0
 43
0.0
 44
0.0
 45
0.0
 46
0.0
 47
0.0
 48
0.0
 49
0.0
140
0.0
141
0.0
142
1.0
143
1.0
 70
  1712
 72
     0
 73
     0
 74
     0
  7

 75
     0
147
1.0
 76
     0
 77
     2
 78
   300
148
0.0
149
0.0
100
AcDbLayout
  1
Model
 70
     1
 71
     0
 10
0.0
 20
0.0
 11
12.0
 21
9.0
 12
0.0
 22
0.0
 32
0.0
 14
0.0
 24
0.0
 34
0.0
 15
0.0
 25
0.0
 35
0.0
146
0.0
 13
0.0
 23
0.0
 33
0.0
 16
1.0
 26
0.0
 36
0.0
 17
0.0
 27
1.0
 37
0.0
 76
     0
330
71
  0
MATERIAL
  5
19
102
{ACAD_XDICTIONARY
360
1A
102
}
102
{ACAD_REACTORS
330
10
102
}
330
10
100
AcDbMaterial
  1
ByBlock
 72
     0
 43
0.0208333333333333
 43
0.0
 43
0.0
 43
0.0
 43
0.0
 43
0.0208333333333333
 43
0.0
 43
0.0
 43
0.0
 43
0.0
 43
1.0
 43
0.0
 43
0.0
 43
0.0
 43
0.0
 43
1.0
 77
     0
 47
0.0208333333333333
 47
0.0
 47
0.0
 47
0.0
 47
0.0
 47
0.0208333333333333
 47
0.0
 47
0.0
 47
0.0
 47
0.0
 47
1.0
 47
0.0
 47
0.0
 47
0.0
 47
0.0
 47
1.0
171
     0
 49
0.0208333333333333
 49
0.0
 49
0.0
 49
0.0
 49
0.0
 49
0.0208333333333333
 49
0.0
 49
0.0
 49
0.0
 49
0.0
 49
1.0
 49
0.0
 49
0.0
 49
0.0
 49
0.0
 49
1.0
175
     0
142
0.0208333333333333
142
0.0
142
0.0
142
0.0
142
0.0
142
0.0208333333333333
142
0.0
142
0.0
142
0.0
142
0.0
142
1.0
142
0.0
142
0.0
142
0.0
142
0.0
142
1.0
179
     0
144
0.0208333333333333
144
0.0
144
0.0
144
0.0
144
0.0
144
0.0208333333333333
144
0.0
144
0.0
144
0.0
144
0.0
144
1.0
144
0.0
144
0.0
144
0.0
144
0.0
144
1.0
147
0.0208333333333333
147
0.0
147
0.0
147
0.0
147
0.0
147
0.0208333333333333
147
0.0
147
0.0
147
0.0
147
0.0
147
1.0
147
0.0
147
0.0
147
0.0
147
0.0
147
1.0
  0
MATERIAL
  5
11
102
{ACAD_XDICTIONARY
360
12
102
}
102
{ACAD_REACTORS
330
10
102
}
330
10
100
AcDbMaterial
  1
ByLayer
 72
     0
 43
0.0208333333333333
 43
0.0
 43
0.0
 43
0.0
 43
0.0
 43
0.0208333333333333
 43
0.0
 43
0.0
 43
0.0
 43
0.0
 43
1.0
 43
0.0
 43
0.0
 43
0.0
 43
0.0
 43
1.0
 77
     0
 47
0.0208333333333333
 47
0.0
 47
0.0
 47
0.0
 47
0.0
 47
0.0208333333333333
 47
0.0
 47
0.0
 47
0.0
 47
0.0
 47
1.0
 47
0.0
 47
0.0
 47
0.0
 47
0.0
 47
1.0
171
     0
 49
0.0208333333333333
 49
0.0
 49
0.0
 49
0.0
 49
0.0
 49
0.0208333333333333
 49
0.0
 49
0.0
 49
0.0
 49
0.0
 49
1.0
 49
0.0
 49
0.0
 49
0.0
 49
0.0
 49
1.0
175
     0
142
0.0208333333333333
142
0.0
142
0.0
142
0.0
142
0.0
142
0.0208333333333333
142
0.0
142
0.0
142
0.0
142
0.0
142
1.0
142
0.0
142
0.0
142
0.0
142
0.0
142
1.0
179
     0
144
0.0208333333333333
144
0.0
144
0.0
144
0.0
144
0.0
144
0.0208333333333333
144
0.0
144
0.0
144
0.0
144
0.0
144
1.0
144
0.0
144
0.0
144
0.0
144
0.0
144
1.0
147
0.0208333333333333
147
0.0
147
0.0
147
0.0
147
0.0
147
0.0208333333333333
147
0.0
147
0.0
147
0.0
147
0.0
147
1.0
147
0.0
147
0.0
147
0.0
147
0.0
147
1.0
  0
MATERIAL
  5
21
102
{ACAD_XDICTIONARY
360
22
102
}
102
{ACAD_REACTORS
330
10
102
}
330
10
100
AcDbMaterial
  1
Global
 72
     0
 43
0.0208333333333333
 43
0.0
 43
0.0
 43
0.0
 43
0.0
 43
0.0208333333333333
 43
0.0
 43
0.0
 43
0.0
 43
0.0
 43
1.0
 43
0.0
 43
0.0
 43
0.0
 43
0.0
 43
1.0
 77
     0
 47
0.0208333333333333
 47
0.0
 47
0.0
 47
0.0
 47
0.0
 47
0.0208333333333333
 47
0.0
 47
0.0
 47
0.0
 47
0.0
 47
1.0
 47
0.0
 47
0.0
 47
0.0
 47
0.0
 47
1.0
171
     0
 49
0.0208333333333333
 49
0.0
 49
0.0
 49
0.0
 49
0.0
 49
0.0208333333333333
 49
0.0
 49
0.0
 49
0.0
 49
0.0
 49
1.0
 49
0.0
 49
0.0
 49
0.0
 49
0.0
 49
1.0
175
     0
142
0.0208333333333333
142
0.0
142
0.0
142
0.0
142
0.0
142
0.0208333333333333
142
0.0
142
0.0
142
0.0
142
0.0
142
1.0
142
0.0
142
0.0
142
0.0
142
0.0
142
1.0
179
     0
144
0.0208333333333333
144
0.0
144
0.0
144
0.0
144
0.0
144
0.0208333333333333
144
0.0
144
0.0
144
0.0
144
0.0
144
1.0
144
0.0
144
0.0
144
0.0
144
0.0
144
1.0
147
0.0208333333333333
147
0.0
147
0.0
147
0.0
147
0.0
147
0.0208333333333333
147
0.0
147
0.0
147
0.0
147
0.0
147
1.0
147
0.0
147
0.0
147
0.0
147
0.0
147
1.0
  0
MLEADERSTYLE
  5
67
102
{ACAD_REACTORS
330
66
102
}
330
66
100
AcDbMLeaderStyle
179
     2
170
     2
171
     1
172
     0
 90
        2
 40
0.0
 41
0.0
173
     1
 91
-1056964608
340
5B
 92
       -2
290
     1
 42
0.09
291
     1
 43
0.36
  3
Standard
 44
0.18
300

342
55
174
     1
178
     6
175
     1
176
     0
 93
-1056964608
 45
0.18
292
     0
297
     0
 46
0.18
 94
-1056964608
 47
1.0
 49
1.0
140
1.0
293
     1
141
0.0
294
     1
177
     0
142
1.0
295
     1
296
     0
143
0.125
271
     0
272
     9
273
     9
298
     1
  0
MLINESTYLE
  5
60
102
{ACAD_REACTORS
330
5F
102
}
330
5F
100
AcDbMlineStyle
  2
STANDARD
 70
     0
  3

 62
   256
 51
90.0
 52
90.0
 71
     2
 49
0.5
 62
   256
  6
BYLAYER
 49
-0.5
 62
   256
  6
BYLAYER
  0
ACDBPLACEHOLDER
  5
F
102
{ACAD_REACTORS
330
E
102
}
330
E
  0
SCALE
  5
43
102
{ACAD_REACTORS
330
42
102
}
330
42
100
AcDbScale
 70
     0
300
1:1
140
1.0
141
1.0
290
     1
  0
SCALE
  5
44
102
{ACAD_REACTORS
330
42
102
}
330
42
100
AcDbScale
 70
     0
300
1/128" = 1'-0"
140
0.0078125
141
12.0
290
     0
  0
SCALE
  5
45
102
{ACAD_REACTORS
330
42
102
}
330
42
100
AcDbScale
 70
     0
300
1/64" = 1'-0"
140
0.015625
141
12.0
290
     0
  0
SCALE
  5
46
102
{ACAD_REACTORS
330
42
102
}
330
42
100
AcDbScale
 70
     0
300
1/32" = 1'-0"
140
0.03125
141
12.0
290
     0
  0
SCALE
  5
47
102
{ACAD_REACTORS
330
42
102
}
330
42
100
AcDbScale
 70
     0
300
1/16" = 1'-0"
140
0.0625
141
12.0
290
     0
  0
SCALE
  5
48
102
{ACAD_REACTORS
330
42
102
}
330
42
100
AcDbScale
 70
     0
300
3/32" = 1'-0"
140
0.09375
141
12.0
290
     0
  0
SCALE
  5
49
102
{ACAD_REACTORS
330
42
102
}
330
42
100
AcDbScale
 70
     0
300
1/8" = 1'-0"
140
0.125
141
12.0
290
     0
  0
SCALE
  5
4A
102
{ACAD_REACTORS
330
42
102
}
330
42
100
AcDbScale
 70
     0
300
3/16" = 1'-0"
140
0.1875
141
12.0
290
     0
  0
SCALE
  5
4B
102
{ACAD_REACTORS
330
42
102
}
330
42
100
AcDbScale
 70
     0
300
1/4" = 1'-0"
140
0.25
141
12.0
290
     0
  0
SCALE
  5
4C
102
{ACAD_REACTORS
330
42
102
}
330
42
100
AcDbScale
 70
     0
300
3/8" = 1'-0"
140
0.375
141
12.0
290
     0
  0
SCALE
  5
4D
102
{ACAD_REACTORS
330
42
102
}
330
42
100
AcDbScale
 70
     0
300
1/2" = 1'-0"
140
0.5
141
12.0
290
     0
  0
SCALE
  5
4E
102
{ACAD_REACTORS
330
42
102
}
330
42
100
AcDbScale
 70
     0
300
3/4" = 1'-0"
140
0.75
141
12.0
290
     0
  0
SCALE
  5
4F
102
{ACAD_REACTORS
330
42
102
}
330
42
100
AcDbScale
 70
     0
300
1" = 1'-0"
140
1.0
141
12.0
290
     0
  0
SCALE
  5
50
102
{ACAD_REACTORS
330
42
102
}
330
42
100
AcDbScale
 70
     0
300
1-1/2" = 1'-0"
140
1.5
141
12.0
290
     0
  0
SCALE
  5
51
102
{ACAD_REACTORS
330
42
102
}
330
42
100
AcDbScale
 70
     0
300
3" = 1'-0"
140
3.0
141
12.0
290
     0
  0
SCALE
  5
52
102
{ACAD_REACTORS
330
42
102
}
330
42
100
AcDbScale
 70
     0
300
6" = 1'-0"
140
6.0
141
12.0
290
     0
  0
SCALE
  5
53
102
{ACAD_REACTORS
330
42
102
}
330
42
100
AcDbScale
 70
     0
300
1'-0" = 1'-0"
140
12.0
141
12.0
290
     0
  0
ACDBSECTIONVIEWSTYLE
  5
6A
102
{ACAD_REACTORS
330
68
102
}
330
68
100
AcDbModelDocViewStyle
 70
     0
  3
Imperial24
290
     1
100
AcDbSectionViewStyle
 70
     0
 71
     0
 90
       78
 71
     1
340
55
 62
   256
 40
0.24
340
0
340
0
 62
   256
 40
0.24
300
I, O, Q, S, X, Z
 40
0.48
 90
        3
 40
0.18
 90
        1
 71
     2
340
69
 90
       25
 62
   256
340
5D
 90
       50
 62
   256
 40
0.24
 40
0.0
 40
0.24
 71
     3
340
55
 62
   256
 40
0.24
 90
        1
 40
0.75
 90
        1
300
%<\AcVar ViewType \f "%tc1">% %<\AcVar ViewSectionStartId>%-%<\AcVar ViewSectionEndId>%\PSCALA %<\AcVar ViewScale \f "%sn">%
 71
     4
 62
   256
 62
   257
300
ANSI31
 40
1.0
 90
        0
290
     0
290
     0
 90
        6
 40
0.0
 40
1.570796326794896
 40
0.2617993877991494
 40
1.308996938995747
 40
-0.2617993877991494
 40
1.832595714594046
  0
TABLESTYLE
  5
65
102
{ACAD_XDICTIONARY
360
2AA
102
}
102
{ACAD_REACTORS
330
64
102
}
330
64
100
AcDbTableStyle
280
     0
  3
Standard
 70
     0
 71
     0
 40
0.06
 41
0.06
280
     0
281
     0
  7
Standard
140
0.18
170
     2
 62
     0
 63
     7
283
     0
 90
      512
 91
        0
  1

274
    -2
284
     1
 64
     0
275
    -2
285
     1
 65
     0
276
    -2
286
     1
 66
     0
277
    -2
287
     1
 67
     0
278
    -2
288
     1
 68
     0
279
    -2
289
     1
 69
     0
  7
Standard
140
0.25
170
     5
 62
     0
 63
     7
283
     0
 90
      512
 91
        0
  1

274
    -2
284
     1
 64
     0
275
    -2
285
     1
 65
     0
276
    -2
286
     1
 66
     0
277
    -2
287
     1
 67
     0
278
    -2
288
     1
 68
     0
279
    -2
289
     1
 69
     0
  7
Standard
140
0.18
170
     5
 62
     0
 63
     7
283
     0
 90
      512
 91
        0
  1

274
    -2
284
     1
 64
     0
275
    -2
285
     1
 65
     0
276
    -2
286
     1
 66
     0
277
    -2
287
     1
 67
     0
278
    -2
288
     1
 68
     0
279
    -2
289
     1
 69
     0
  0
VISUALSTYLE
  5
2F
102
{ACAD_REACTORS
330
29
102
}
330
29
100
AcDbVisualStyle
  2
2dWireframe
 70
     4
177
     3
291
     0
 70
    58
 90
        0
176
     1
 90
        2
176
     1
 90
        0
176
     1
 90
        0
176
     1
 40
0.6
176
     1
 40
30.0
176
     1
 62
     7
420
 16777215
176
     1
 90
        1
176
     1
 90
        4
176
     1
 62
     7
176
     1
 62
   257
176
     1
 90
        1
176
     1
 90
        1
176
     1
 40
1.0
176
     1
 90
        0
176
     1
 62
   257
176
     1
 40
1.0
176
     1
 90
        1
176
     1
 90
        6
176
     1
 90
        2
176
     1
 62
     7
176
     1
 90
        5
176
     1
 90
        0
176
     1
 90
        0
176
     1
290
     0
176
     1
 90
        1
176
     1
 40
0.0
176
     1
 90
        0
176
     1
290
     1
176
     1
290
     1
176
     1
290
     0
176
     1
290
     0
176
     1
290
     0
176
     1
290
     0
176
     1
290
     0
176
     1
290
     0
176
     1
290
     0
176
     1
 90
       50
176
     1
 40
0.0
176
     1
 40
1.0
176
     1
 90
        0
176
     1
 62
    18
420
        0
176
     1
 90
       50
176
     1
 90
        3
176
     1
 62
     5
420
      255
176
     1
290
     0
176
     1
 90
       50
176
     1
 90
       50
176
     1
 90
       50
176
     1
290
     0
176
     1
 90
       50
176
     1
 62
   256
176
     0
 40
1.0
176
     0
 90
        2
176
     1
  1
strokes_ogs.tif
176
     1
290
     0
176
     1
 40
1.0
176
     1
 40
1.0
176
     1
  0
VISUALSTYLE
  5
2E
102
{ACAD_REACTORS
330
29
102
}
330
29
100
AcDbVisualStyle
  2
Basic
 70
     7
177
     3
291
     1
 70
    58
 90
        1
176
     1
 90
        0
176
     1
 90
        1
176
     1
 90
        0
176
     1
 40
0.6
176
     1
 40
30.0
176
     1
 62
     7
420
 16777215
176
     1
 90
        0
176
     1
 90
        4
176
     1
 62
     7
176
     1
 62
   257
176
     1
 90
        1
176
     1
 90
        1
176
     1
 40
1.0
176
     1
 90
        8
176
     1
 62
     7
176
     1
 40
1.0
176
     1
 90
        1
176
     1
 90
        6
176
     1
 90
        2
176
     1
 62
     7
176
     1
 90
        5
176
     1
 90
        0
176
     1
 90
        0
176
     1
290
     0
176
     1
 90
        1
176
     1
 40
0.0
176
     1
 90
        0
176
     1
290
     0
176
     1
290
     1
176
     1
290
     1
176
     1
290
     0
176
     1
290
     0
176
     1
290
     0
176
     1
290
     0
176
     1
290
     0
176
     1
290
     0
176
     1
 90
       50
176
     1
 40
0.0
176
     1
 40
1.0
176
     1
 90
        0
176
     1
 62
    18
420
        0
176
     1
 90
       50
176
     1
 90
        3
176
     1
 62
     5
420
      255
176
     1
290
     0
176
     1
 90
       50
176
     1
 90
       50
176
     1
 90
       50
176
     1
290
     0
176
     1
 90
       50
176
     1
 62
   256
176
     0
 40
1.0
176
     0
 90
        2
176
     1
  1
strokes_ogs.tif
176
     1
290
     0
176
     1
 40
1.0
176
     1
 40
1.0
176
     1
  0
VISUALSTYLE
  5
35
102
{ACAD_REACTORS
330
29
102
}
330
29
100
AcDbVisualStyle
  2
Brighten
 70
    12
177
     3
291
     1
 70
    58
 90
        2
176
     1
 90
        2
176
     1
 90
        0
176
     1
 90
        0
176
     1
 40
0.6
176
     1
 40
30.0
176
     1
 62
     7
420
 16777215
176
     1
 90
        1
176
     1
 90
        4
176
     1
 62
     7
176
     1
 62
   257
176
     1
 90
        1
176
     1
 90
        1
176
     1
 40
1.0
176
     1
 90
        8
176
     1
 62
     7
176
     1
 40
1.0
176
     1
 90
        1
176
     1
 90
        6
176
     1
 90
        2
176
     1
 62
     7
176
     1
 90
        5
176
     1
 90
        0
176
     1
 90
        0
176
     1
290
     0
176
     1
 90
        1
176
     1
 40
50.0
176
     1
 90
        0
176
     1
290
     0
176
     1
290
     1
176
     1
290
     1
176
     1
290
     0
176
     1
290
     0
176
     1
290
     0
176
     1
290
     0
176
     1
290
     0
176
     1
290
     0
176
     1
 90
       50
176
     1
 40
0.0
176
     1
 40
1.0
176
     1
 90
        0
176
     1
 62
    18
420
        0
176
     1
 90
       50
176
     1
 90
        3
176
     1
 62
     5
420
      255
176
     1
290
     0
176
     1
 90
       50
176
     1
 90
       50
176
     1
 90
       50
176
     1
290
     0
176
     1
 90
       50
176
     1
 62
   256
176
     0
 40
1.0
176
     0
 90
        2
176
     1
  1
strokes_ogs.tif
176
     1
290
     0
176
     1
 40
1.0
176
     1
 40
1.0
176
     1
  0
VISUALSTYLE
  5
39
102
{ACAD_REACTORS
330
29
102
}
330
29
100
AcDbVisualStyle
  2
ColorChange
 70
    16
177
     3
291
     1
 70
    58
 90
        2
176
     1
 90
        2
176
     1
 90
        3
176
     1
 90
        0
176
     1
 40
0.6
176
     1
 40
30.0
176
     1
 62
     8
420
  8421504
176
     1
 90
        1
176
     1
 90
        4
176
     1
 62
     7
176
     1
 62
   257
176
     1
 90
        1
176
     1
 90
        1
176
     1
 40
1.0
176
     1
 90
        8
176
     1
 62
     8
420
  8421504
176
     1
 40
1.0
176
     1
 90
        1
176
     1
 90
        6
176
     1
 90
        2
176
     1
 62
     7
176
     1
 90
        5
176
     1
 90
        0
176
     1
 90
        0
176
     1
290
     0
176
     1
 90
        1
176
     1
 40
0.0
176
     1
 90
        0
176
     1
290
     0
176
     1
290
     1
176
     1
290
     1
176
     1
290
     0
176
     1
290
     0
176
     1
290
     0
176
     1
290
     0
176
     1
290
     0
176
     1
290
     0
176
     1
 90
       50
176
     1
 40
0.0
176
     1
 40
1.0
176
     1
 90
        0
176
     1
 62
    18
420
        0
176
     1
 90
       50
176
     1
 90
        3
176
     1
 62
     5
420
      255
176
     1
290
     0
176
     1
 90
       50
176
     1
 90
       50
176
     1
 90
       50
176
     1
290
     0
176
     1
 90
       50
176
     1
 62
   256
176
     0
 40
1.0
176
     0
 90
        2
176
     1
  1
strokes_ogs.tif
176
     1
290
     0
176
     1
 40
1.0
176
     1
 40
1.0
176
     1
  0
VISUALSTYLE
  5
32
102
{ACAD_REACTORS
330
29
102
}
330
29
100
AcDbVisualStyle
  2
Conceptual
 70
     9
177
     3
291
     0
 70
    58
 90
        3
176
     1
 90
        2
176
     1
 90
        0
176
     1
 90
        0
176
     1
 40
0.6
176
     1
 40
30.0
176
     1
 62
     7
420
 16777215
176
     1
 90
        2
176
     1
 90
        2
176
     1
 62
     7
176
     1
 62
   257
176
     1
 90
        1
176
     1
 90
        1
176
     1
 40
179.0
176
     1
 90
        8
176
     1
 62
     7
176
     1
 40
1.0
176
     1
 90
        1
176
     1
 90
        6
176
     1
 90
        2
176
     1
 62
     7
176
     1
 90
        3
176
     1
 90
        0
176
     1
 90
        0
176
     1
290
     0
176
     1
 90
        1
176
     1
 40
0.0
176
     1
 90
        0
176
     1
290
     0
176
     1
290
     1
176
     1
290
     1
176
     1
290
     0
176
     1
290
     0
176
     1
290
     0
176
     1
290
     0
176
     1
290
     0
176
     1
290
     0
176
     1
 90
       50
176
     1
 40
0.0
176
     1
 40
1.0
176
     1
 90
        0
176
     1
 62
    18
420
        0
176
     1
 90
       50
176
     1
 90
        3
176
     1
 62
     5
420
      255
176
     1
290
     0
176
     1
 90
       50
176
     1
 90
       50
176
     1
 90
       50
176
     1
290
     0
176
     1
 90
       50
176
     1
 62
   256
176
     0
 40
1.0
176
     0
 90
        2
176
     1
  1
strokes_ogs.tif
176
     1
290
     0
176
     1
 40
1.0
176
     1
 40
1.0
176
     1
  0
VISUALSTYLE
  5
34
102
{ACAD_REACTORS
330
29
102
}
330
29
100
AcDbVisualStyle
  2
Dim
 70
    11
177
     3
291
     1
 70
    58
 90
        2
176
     1
 90
        2
176
     1
 90
        0
176
     1
 90
        0
176
     1
 40
0.6
176
     1
 40
30.0
176
     1
 62
     7
420
 16777215
176
     1
 90
        1
176
     1
 90
        4
176
     1
 62
     7
176
     1
 62
   257
176
     1
 90
        1
176
     1
 90
        1
176
     1
 40
1.0
176
     1
 90
        8
176
     1
 62
     7
176
     1
 40
1.0
176
     1
 90
        1
176
     1
 90
        6
176
     1
 90
        2
176
     1
 62
     7
176
     1
 90
        5
176
     1
 90
        0
176
     1
 90
        0
176
     1
290
     0
176
     1
 90
        1
176
     1
 40
-50.0
176
     1
 90
        0
176
     1
290
     0
176
     1
290
     1
176
     1
290
     1
176
     1
290
     0
176
     1
290
     0
176
     1
290
     0
176
     1
290
     0
176
     1
290
     0
176
     1
290
     0
176
     1
 90
       50
176
     1
 40
0.0
176
     1
 40
1.0
176
     1
 90
        0
176
     1
 62
    18
420
        0
176
     1
 90
       50
176
     1
 90
        3
176
     1
 62
     5
420
      255
176
     1
290
     0
176
     1
 90
       50
176
     1
 90
       50
176
     1
 90
       50
176
     1
290
     0
176
     1
 90
       50
176
     1
 62
   256
176
     0
 40
1.0
176
     0
 90
        2
176
     1
  1
strokes_ogs.tif
176
     1
290
     0
176
     1
 40
1.0
176
     1
 40
1.0
176
     1
  0
VISUALSTYLE
  5
41
102
{ACAD_REACTORS
330
29
102
}
330
29
100
AcDbVisualStyle
  2
EdgeColorOff
 70
    22
177
     3
291
     1
 70
    58
 90
        2
176
     0
 90
        2
176
     0
 90
        0
176
     0
 90
        0
176
     0
 40
0.6
176
     0
 40
30.0
176
     0
 62
     7
420
 16777215
176
     0
 90
        1
176
     0
 90
        4
176
     0
 62
     7
176
     0
 62
   257
176
     0
 90
        1
176
     0
 90
        1
176
     0
 40
1.0
176
     0
 90
        8
176
     2
 62
     7
176
     0
 40
1.0
176
     0
 90
        1
176
     0
 90
        6
176
     0
 90
        2
176
     0
 62
     7
176
     0
 90
        5
176
     0
 90
        0
176
     0
 90
        0
176
     0
290
     0
176
     0
 90
        1
176
     0
 40
0.0
176
     0
 90
        0
176
     0
290
     0
176
     0
290
     1
176
     0
290
     1
176
     0
290
     0
176
     0
290
     0
176
     0
290
     0
176
     0
290
     0
176
     0
290
     0
176
     0
290
     0
176
     0
 90
       50
176
     0
 40
0.0
176
     0
 40
1.0
176
     0
 90
        0
176
     0
 62
    18
420
        0
176
     0
 90
       50
176
     0
 90
        3
176
     0
 62
     5
420
      255
176
     0
290
     0
176
     0
 90
       50
176
     0
 90
       50
176
     0
 90
       50
176
     0
290
     0
176
     0
 90
       50
176
     0
 62
   256
176
     0
 40
1.0
176
     0
 90
        2
176
     0
  1
strokes_ogs.tif
176
     0
290
     0
176
     0
 40
1.0
176
     0
 40
1.0
176
     0
  0
VISUALSTYLE
  5
38
102
{ACAD_REACTORS
330
29
102
}
330
29
100
AcDbVisualStyle
  2
Facepattern
 70
    15
177
     3
291
     1
 70
    58
 90
        2
176
     1
 90
        2
176
     1
 90
        0
176
     1
 90
        0
176
     1
 40
0.6
176
     1
 40
30.0
176
     1
 62
     7
420
 16777215
176
     1
 90
        1
176
     1
 90
        4
176
     1
 62
     7
176
     1
 62
   257
176
     1
 90
        1
176
     1
 90
        1
176
     1
 40
1.0
176
     1
 90
        8
176
     1
 62
     7
176
     1
 40
1.0
176
     1
 90
        1
176
     1
 90
        6
176
     1
 90
        2
176
     1
 62
     7
176
     1
 90
        5
176
     1
 90
        0
176
     1
 90
        0
176
     1
290
     0
176
     1
 90
        1
176
     1
 40
0.0
176
     1
 90
        0
176
     1
290
     0
176
     1
290
     1
176
     1
290
     1
176
     1
290
     0
176
     1
290
     0
176
     1
290
     0
176
     1
290
     0
176
     1
290
     0
176
     1
290
     0
176
     1
 90
       50
176
     1
 40
0.0
176
     1
 40
1.0
176
     1
 90
        0
176
     1
 62
    18
420
        0
176
     1
 90
       50
176
     1
 90
        3
176
     1
 62
     5
420
      255
176
     1
290
     0
176
     1
 90
       50
176
     1
 90
       50
176
     1
 90
       50
176
     1
290
     0
176
     1
 90
       50
176
     1
 62
   256
176
     0
 40
1.0
176
     0
 90
        2
176
     1
  1
strokes_ogs.tif
176
     1
290
     0
176
     1
 40
1.0
176
     1
 40
1.0
176
     1
  0
VISUALSTYLE
  5
2A
102
{ACAD_REACTORS
330
29
102
}
330
29
100
AcDbVisualStyle
  2
Flat
 70
     0
177
     3
291
     1
 70
    58
 90
        2
176
     1
 90
        1
176
     1
 90
        1
176
     1
 90
        2
176
     1
 40
0.6
176
     1
 40
30.0
176
     1
 62
     7
420
 16777215
176
     1
 90
        0
176
     1
 90
        0
176
     1
 62
     7
176
     1
 62
   257
176
     1
 90
        1
176
     1
 90
        1
176
     1
 40
1.0
176
     1
 90
        8
176
     1
 62
     7
176
     1
 40
1.0
176
     1
 90
        1
176
     1
 90
        6
176
     1
 90
        2
176
     1
 62
     7
176
     1
 90
        5
176
     1
 90
        0
176
     1
 90
        0
176
     1
290
     0
176
     1
 90
       13
176
     1
 40
0.0
176
     1
 90
        0
176
     1
290
     0
176
     1
290
     1
176
     1
290
     1
176
     1
290
     0
176
     1
290
     0
176
     1
290
     0
176
     1
290
     0
176
     1
290
     0
176
     1
290
     0
176
     1
 90
       50
176
     1
 40
0.0
176
     1
 40
1.0
176
     1
 90
        0
176
     1
 62
    18
420
        0
176
     1
 90
       50
176
     1
 90
        3
176
     1
 62
     5
420
      255
176
     1
290
     0
176
     1
 90
       50
176
     1
 90
       50
176
     1
 90
       50
176
     1
290
     0
176
     1
 90
       50
176
     1
 62
   256
176
     0
 40
1.0
176
     0
 90
        2
176
     1
  1
strokes_ogs.tif
176
     1
290
     0
176
     1
 40
1.0
176
     1
 40
1.0
176
     1
  0
VISUALSTYLE
  5
2B
102
{ACAD_REACTORS
330
29
102
}
330
29
100
AcDbVisualStyle
  2
FlatWithEdges
 70
     1
177
     3
291
     1
 70
    58
 90
        2
176
     1
 90
        1
176
     1
 90
        1
176
     1
 90
        2
176
     1
 40
0.6
176
     1
 40
30.0
176
     1
 62
     7
420
 16777215
176
     1
 90
        1
176
     1
 90
        0
176
     1
 62
     7
176
     1
 62
   257
176
     1
 90
        1
176
     1
 90
        1
176
     1
 40
1.0
176
     1
 90
        0
176
     1
 62
   257
176
     1
 40
1.0
176
     1
 90
        1
176
     1
 90
        6
176
     1
 90
        2
176
     1
 62
     7
176
     1
 90
        5
176
     1
 90
        0
176
     1
 90
        0
176
     1
290
     0
176
     1
 90
       13
176
     1
 40
0.0
176
     1
 90
        0
176
     1
290
     0
176
     1
290
     1
176
     1
290
     1
176
     1
290
     0
176
     1
290
     0
176
     1
290
     0
176
     1
290
     0
176
     1
290
     0
176
     1
290
     0
176
     1
 90
       50
176
     1
 40
0.0
176
     1
 40
1.0
176
     1
 90
        0
176
     1
 62
    18
420
        0
176
     1
 90
       50
176
     1
 90
        3
176
     1
 62
     5
420
      255
176
     1
290
     0
176
     1
 90
       50
176
     1
 90
       50
176
     1
 90
       50
176
     1
290
     0
176
     1
 90
       50
176
     1
 62
   256
176
     0
 40
1.0
176
     0
 90
        2
176
     1
  1
strokes_ogs.tif
176
     1
290
     0
176
     1
 40
1.0
176
     1
 40
1.0
176
     1
  0
VISUALSTYLE
  5
2C
102
{ACAD_REACTORS
330
29
102
}
330
29
100
AcDbVisualStyle
  2
Gouraud
 70
     2
177
     3
291
     1
 70
    58
 90
        2
176
     1
 90
        2
176
     1
 90
        1
176
     1
 90
        2
176
     1
 40
0.6
176
     1
 40
30.0
176
     1
 62
     7
420
 16777215
176
     1
 90
        0
176
     1
 90
        0
176
     1
 62
     7
176
     1
 62
   257
176
     1
 90
        1
176
     1
 90
        1
176
     1
 40
1.0
176
     1
 90
        0
176
     1
 62
     7
176
     1
 40
1.0
176
     1
 90
        1
176
     1
 90
        6
176
     1
 90
        2
176
     1
 62
     7
176
     1
 90
        5
176
     1
 90
        0
176
     1
 90
        0
176
     1
290
     0
176
     1
 90
       13
176
     1
 40
0.0
176
     1
 90
        0
176
     1
290
     0
176
     1
290
     1
176
     1
290
     1
176
     1
290
     0
176
     1
290
     0
176
     1
290
     0
176
     1
290
     0
176
     1
290
     0
176
     1
290
     0
176
     1
 90
       50
176
     1
 40
0.0
176
     1
 40
1.0
176
     1
 90
        0
176
     1
 62
    18
420
        0
176
     1
 90
       50
176
     1
 90
        3
176
     1
 62
     5
420
      255
176
     1
290
     0
176
     1
 90
       50
176
     1
 90
       50
176
     1
 90
       50
176
     1
290
     0
176
     1
 90
       50
176
     1
 62
   256
176
     0
 40
1.0
176
     0
 90
        2
176
     1
  1
strokes_ogs.tif
176
     1
290
     0
176
     1
 40
1.0
176
     1
 40
1.0
176
     1
  0
VISUALSTYLE
  5
2D
102
{ACAD_REACTORS
330
29
102
}
330
29
100
AcDbVisualStyle
  2
GouraudWithEdges
 70
     3
177
     3
291
     1
 70
    58
 90
        2
176
     1
 90
        2
176
     1
 90
        1
176
     1
 90
        2
176
     1
 40
0.6
176
     1
 40
30.0
176
     1
 62
     7
420
 16777215
176
     1
 90
        1
176
     1
 90
        0
176
     1
 62
     7
176
     1
 62
   257
176
     1
 90
        1
176
     1
 90
        1
176
     1
 40
1.0
176
     1
 90
        0
176
     1
 62
   257
176
     1
 40
1.0
176
     1
 90
        1
176
     1
 90
        6
176
     1
 90
        2
176
     1
 62
     7
176
     1
 90
        5
176
     1
 90
        0
176
     1
 90
        0
176
     1
290
     0
176
     1
 90
       13
176
     1
 40
0.0
176
     1
 90
        0
176
     1
290
     0
176
     1
290
     1
176
     1
290
     1
176
     1
290
     0
176
     1
290
     0
176
     1
290
     0
176
     1
290
     0
176
     1
290
     0
176
     1
290
     0
176
     1
 90
       50
176
     1
 40
0.0
176
     1
 40
1.0
176
     1
 90
        0
176
     1
 62
    18
420
        0
176
     1
 90
       50
176
     1
 90
        3
176
     1
 62
     5
420
      255
176
     1
290
     0
176
     1
 90
       50
176
     1
 90
       50
176
     1
 90
       50
176
     1
290
     0
176
     1
 90
       50
176
     1
 62
   256
176
     0
 40
1.0
176
     0
 90
        2
176
     1
  1
strokes_ogs.tif
176
     1
290
     0
176
     1
 40
1.0
176
     1
 40
1.0
176
     1
  0
VISUALSTYLE
  5
31
102
{ACAD_REACTORS
330
29
102
}
330
29
100
AcDbVisualStyle
  2
Hidden
 70
     6
177
     3
291
     0
 70
    58
 90
        1
176
     1
 90
        2
176
     1
 90
        2
176
     1
 90
        0
176
     1
 40
0.6
176
     1
 40
30.0
176
     1
 62
     7
420
 16777215
176
     1
 90
        2
176
     1
 90
        2
176
     1
 62
     7
176
     1
 62
   257
176
     1
 90
        2
176
     1
 90
        1
176
     1
 40
40.0
176
     1
 90
        0
176
     1
 62
   257
176
     1
 40
1.0
176
     1
 90
        1
176
     1
 90
        6
176
     1
 90
        2
176
     1
 62
     7
176
     1
 90
        3
176
     1
 90
        0
176
     1
 90
        0
176
     1
290
     0
176
     1
 90
        1
176
     1
 40
0.0
176
     1
 90
        0
176
     1
290
     0
176
     1
290
     1
176
     1
290
     1
176
     1
290
     0
176
     1
290
     0
176
     1
290
     0
176
     1
290
     0
176
     1
290
     0
176
     1
290
     0
176
     1
 90
       50
176
     1
 40
0.0
176
     1
 40
1.0
176
     1
 90
        0
176
     1
 62
    18
420
        0
176
     1
 90
       50
176
     1
 90
        3
176
     1
 62
     5
420
      255
176
     1
290
     0
176
     1
 90
       50
176
     1
 90
       50
176
     1
 90
       50
176
     1
290
     0
176
     1
 90
       50
176
     1
 62
   256
176
     0
 40
1.0
176
     0
 90
        2
176
     1
  1
strokes_ogs.tif
176
     1
290
     0
176
     1
 40
1.0
176
     1
 40
1.0
176
     1
  0
VISUALSTYLE
  5
3F
102
{ACAD_REACTORS
330
29
102
}
330
29
100
AcDbVisualStyle
  2
JitterOff
 70
    20
177
     3
291
     1
 70
    58
 90
        2
176
     0
 90
        2
176
     0
 90
        0
176
     0
 90
        0
176
     0
 40
0.6
176
     0
 40
30.0
176
     0
 62
     7
420
 16777215
176
     0
 90
        1
176
     0
 90
        4
176
     0
 62
     7
176
     0
 62
   257
176
     0
 90
        1
176
     0
 90
        1
176
     0
 40
1.0
176
     0
 90
       10
176
     2
 62
     7
176
     0
 40
1.0
176
     0
 90
        1
176
     0
 90
        6
176
     0
 90
        2
176
     0
 62
     7
176
     0
 90
        5
176
     0
 90
        0
176
     0
 90
        0
176
     0
290
     0
176
     0
 90
        1
176
     0
 40
0.0
176
     0
 90
        0
176
     0
290
     0
176
     0
290
     1
176
     0
290
     1
176
     0
290
     0
176
     0
290
     0
176
     0
290
     0
176
     0
290
     0
176
     0
290
     0
176
     0
290
     0
176
     0
 90
       50
176
     0
 40
0.0
176
     0
 40
1.0
176
     0
 90
        0
176
     0
 62
    18
420
        0
176
     0
 90
       50
176
     0
 90
        3
176
     0
 62
     5
420
      255
176
     0
290
     0
176
     0
 90
       50
176
     0
 90
       50
176
     0
 90
       50
176
     0
290
     0
176
     0
 90
       50
176
     0
 62
   256
176
     0
 40
1.0
176
     0
 90
        2
176
     0
  1
strokes_ogs.tif
176
     0
290
     0
176
     0
 40
1.0
176
     0
 40
1.0
176
     0
  0
VISUALSTYLE
  5
37
102
{ACAD_REACTORS
330
29
102
}
330
29
100
AcDbVisualStyle
  2
Linepattern
 70
    14
177
     3
291
     1
 70
    58
 90
        2
176
     1
 90
        2
176
     1
 90
        0
176
     1
 90
        0
176
     1
 40
0.6
176
     1
 40
30.0
176
     1
 62
     7
420
 16777215
176
     1
 90
        1
176
     1
 90
        4
176
     1
 62
     7
176
     1
 62
   257
176
     1
 90
        7
176
     1
 90
        7
176
     1
 40
1.0
176
     1
 90
        8
176
     1
 62
     7
176
     1
 40
1.0
176
     1
 90
        1
176
     1
 90
        6
176
     1
 90
        2
176
     1
 62
     7
176
     1
 90
        5
176
     1
 90
        0
176
     1
 90
        0
176
     1
290
     0
176
     1
 90
        1
176
     1
 40
0.0
176
     1
 90
        0
176
     1
290
     0
176
     1
290
     1
176
     1
290
     1
176
     1
290
     0
176
     1
290
     0
176
     1
290
     0
176
     1
290
     0
176
     1
290
     0
176
     1
290
     0
176
     1
 90
       50
176
     1
 40
0.0
176
     1
 40
1.0
176
     1
 90
        0
176
     1
 62
    18
420
        0
176
     1
 90
       50
176
     1
 90
        3
176
     1
 62
     5
420
      255
176
     1
290
     0
176
     1
 90
       50
176
     1
 90
       50
176
     1
 90
       50
176
     1
290
     0
176
     1
 90
       50
176
     1
 62
   256
176
     0
 40
1.0
176
     0
 90
        2
176
     1
  1
strokes_ogs.tif
176
     1
290
     0
176
     1
 40
1.0
176
     1
 40
1.0
176
     1
  0
VISUALSTYLE
  5
40
102
{ACAD_REACTORS
330
29
102
}
330
29
100
AcDbVisualStyle
  2
OverhangOff
 70
    21
177
     3
291
     1
 70
    58
 90
        2
176
     0
 90
        2
176
     0
 90
        0
176
     0
 90
        0
176
     0
 40
0.6
176
     0
 40
30.0
176
     0
 62
     7
420
 16777215
176
     0
 90
        1
176
     0
 90
        4
176
     0
 62
     7
176
     0
 62
   257
176
     0
 90
        1
176
     0
 90
        1
176
     0
 40
1.0
176
     0
 90
        9
176
     2
 62
     7
176
     0
 40
1.0
176
     0
 90
        1
176
     0
 90
        6
176
     0
 90
        2
176
     0
 62
     7
176
     0
 90
        5
176
     0
 90
        0
176
     0
 90
        0
176
     0
290
     0
176
     0
 90
        1
176
     0
 40
0.0
176
     0
 90
        0
176
     0
290
     0
176
     0
290
     1
176
     0
290
     1
176
     0
290
     0
176
     0
290
     0
176
     0
290
     0
176
     0
290
     0
176
     0
290
     0
176
     0
290
     0
176
     0
 90
       50
176
     0
 40
0.0
176
     0
 40
1.0
176
     0
 90
        0
176
     0
 62
    18
420
        0
176
     0
 90
       50
176
     0
 90
        3
176
     0
 62
     5
420
      255
176
     0
290
     0
176
     0
 90
       50
176
     0
 90
       50
176
     0
 90
       50
176
     0
290
     0
176
     0
 90
       50
176
     0
 62
   256
176
     0
 40
1.0
176
     0
 90
        2
176
     0
  1
strokes_ogs.tif
176
     0
290
     0
176
     0
 40
1.0
176
     0
 40
1.0
176
     0
  0
VISUALSTYLE
  5
33
102
{ACAD_REACTORS
330
29
102
}
330
29
100
AcDbVisualStyle
  2
Realistic
 70
     8
177
     3
291
     0
 70
    58
 90
        2
176
     1
 90
        3
176
     1
 90
        0
176
     1
 90
        2
176
     1
 40
0.6
176
     1
 40
30.0
176
     1
 62
     7
420
 16777215
176
     1
 90
        0
176
     1
 90
        0
176
     1
 62
     7
176
     1
 62
   257
176
     1
 90
        1
176
     1
 90
        1
176
     1
 40
1.0
176
     1
 90
        8
176
     1
 62
   257
176
     1
 40
1.0
176
     1
 90
        1
176
     1
 90
        6
176
     1
 90
        2
176
     1
 62
     7
176
     1
 90
        3
176
     1
 90
        0
176
     1
 90
        0
176
     1
290
     0
176
     1
 90
       13
176
     1
 40
0.0
176
     1
 90
        0
176
     1
290
     0
176
     1
290
     1
176
     1
290
     1
176
     1
290
     0
176
     1
290
     0
176
     1
290
     0
176
     1
290
     0
176
     1
290
     0
176
     1
290
     0
176
     1
 90
       50
176
     1
 40
0.0
176
     1
 40
1.0
176
     1
 90
        0
176
     1
 62
    18
420
        0
176
     1
 90
       50
176
     1
 90
        3
176
     1
 62
     5
420
      255
176
     1
290
     0
176
     1
 90
       50
176
     1
 90
       50
176
     1
 90
       50
176
     1
290
     0
176
     1
 90
       50
176
     1
 62
   256
176
     0
 40
1.0
176
     0
 90
        2
176
     1
  1
strokes_ogs.tif
176
     1
290
     0
176
     1
 40
1.0
176
     1
 40
1.0
176
     1
  0
VISUALSTYLE
  5
3E
102
{ACAD_REACTORS
330
29
102
}
330
29
100
AcDbVisualStyle
  2
Shaded
 70
    27
177
     3
291
     0
 70
    58
 90
        2
176
     1
 90
        2
176
     1
 90
        1
176
     1
 90
        2
176
     1
 40
0.6
176
     1
 40
30.0
176
     1
 62
     7
420
 16777215
176
     1
 90
        0
176
     1
 90
        4
176
     1
 62
     7
176
     1
 62
   257
176
     1
 90
        1
176
     1
 90
        1
176
     1
 40
1.0
176
     1
 90
        8
176
     1
 62
   257
176
     1
 40
1.0
176
     1
 90
        1
176
     1
 90
        6
176
     1
 90
        2
176
     1
 62
     8
420
  7895160
176
     1
 90
        3
176
     1
 90
        0
176
     1
 90
        0
176
     1
290
     0
176
     1
 90
        5
176
     1
 40
0.0
176
     1
 90
        0
176
     1
290
     0
176
     1
290
     1
176
     1
290
     1
176
     1
290
     0
176
     1
290
     0
176
     1
290
     0
176
     1
290
     0
176
     1
290
     0
176
     1
290
     0
176
     1
 90
       50
176
     1
 40
0.0
176
     1
 40
1.0
176
     1
 90
        0
176
     1
 62
    18
420
        0
176
     1
 90
       50
176
     1
 90
        3
176
     1
 62
     5
420
      255
176
     1
290
     0
176
     1
 90
       50
176
     1
 90
       50
176
     1
 90
       50
176
     1
290
     0
176
     1
 90
       50
176
     1
 62
   256
176
     0
 40
1.0
176
     0
 90
        2
176
     1
  1
strokes_ogs.tif
176
     1
290
     0
176
     1
 40
1.0
176
     1
 40
1.0
176
     1
  0
VISUALSTYLE
  5
3D
102
{ACAD_REACTORS
330
29
102
}
330
29
100
AcDbVisualStyle
  2
Shaded with edges
 70
    26
177
     3
291
     0
 70
    58
 90
        2
176
     1
 90
        2
176
     1
 90
        1
176
     1
 90
        2
176
     1
 40
0.6
176
     1
 40
30.0
176
     1
 62
     7
420
 16777215
176
     1
 90
        1
176
     1
 90
       10
176
     1
 62
     7
176
     1
 62
   257
176
     1
 90
        2
176
     1
 90
        1
176
     1
 40
1.0
176
     1
 90
        8
176
     1
 62
   257
176
     1
 40
1.0
176
     1
 90
        1
176
     1
 90
        6
176
     1
 90
        2
176
     1
 62
     7
176
     1
 90
        3
176
     1
 90
        0
176
     1
 90
        0
176
     1
290
     0
176
     1
 90
        5
176
     1
 40
0.0
176
     1
 90
        0
176
     1
290
     0
176
     1
290
     1
176
     1
290
     1
176
     1
290
     0
176
     1
290
     0
176
     1
290
     0
176
     1
290
     0
176
     1
290
     0
176
     1
290
     0
176
     1
 90
       50
176
     1
 40
0.0
176
     1
 40
1.0
176
     1
 90
        0
176
     1
 62
    18
420
        0
176
     1
 90
       50
176
     1
 90
        3
176
     1
 62
     5
420
      255
176
     1
290
     0
176
     1
 90
       50
176
     1
 90
       50
176
     1
 90
       50
176
     1
290
     0
176
     1
 90
       50
176
     1
 62
   256
176
     0
 40
1.0
176
     0
 90
        2
176
     1
  1
strokes_ogs.tif
176
     1
290
     0
176
     1
 40
1.0
176
     1
 40
1.0
176
     1
  0
VISUALSTYLE
  5
3A
102
{ACAD_REACTORS
330
29
102
}
330
29
100
AcDbVisualStyle
  2
Shades of Gray
 70
    23
177
     3
291
     0
 70
    58
 90
        2
176
     1
 90
        2
176
     1
 90
        3
176
     1
 90
        0
176
     1
 40
0.6
176
     1
 40
30.0
176
     1
 62
     7
420
 16777215
176
     1
 90
        2
176
     1
 90
        2
176
     1
 62
     7
176
     1
 62
     7
176
     1
 90
        1
176
     1
 90
        1
176
     1
 40
40.0
176
     1
 90
        8
176
     1
 62
     7
176
     1
 40
1.0
176
     1
 90
        1
176
     1
 90
        6
176
     1
 90
        2
176
     1
 62
     7
176
     1
 90
        3
176
     1
 90
        0
176
     1
 90
        0
176
     1
290
     0
176
     1
 90
        1
176
     1
 40
0.0
176
     1
 90
        0
176
     1
290
     0
176
     1
290
     1
176
     1
290
     1
176
     1
290
     0
176
     1
290
     0
176
     1
290
     0
176
     1
290
     0
176
     1
290
     0
176
     1
290
     0
176
     1
 90
       50
176
     1
 40
0.0
176
     1
 40
1.0
176
     1
 90
        0
176
     1
 62
    18
420
        0
176
     1
 90
       50
176
     1
 90
        3
176
     1
 62
     5
420
      255
176
     1
290
     0
176
     1
 90
       50
176
     1
 90
       50
176
     1
 90
       50
176
     1
290
     0
176
     1
 90
       50
176
     1
 62
   256
176
     0
 40
1.0
176
     0
 90
        2
176
     1
  1
strokes_ogs.tif
176
     1
290
     0
176
     1
 40
1.0
176
     1
 40
1.0
176
     1
  0
VISUALSTYLE
  5
3B
102
{ACAD_REACTORS
330
29
102
}
330
29
100
AcDbVisualStyle
  2
Sketchy
 70
    24
177
     3
291
     0
 70
    58
 90
        1
176
     1
 90
        2
176
     1
 90
        2
176
     1
 90
        0
176
     1
 40
0.6
176
     1
 40
30.0
176
     1
 62
     7
420
 16777215
176
     1
 90
        2
176
     1
 90
        2
176
     1
 62
     7
176
     1
 62
     7
176
     1
 90
        1
176
     1
 90
        1
176
     1
 40
40.0
176
     1
 90
       11
176
     1
 62
     7
176
     1
 40
1.0
176
     1
 90
        1
176
     1
 90
        6
176
     1
 90
        2
176
     1
 62
     7
176
     1
 90
        6
176
     1
 90
        0
176
     1
 90
        0
176
     1
290
     0
176
     1
 90
        1
176
     1
 40
0.0
176
     1
 90
        0
176
     1
290
     0
176
     1
290
     1
176
     1
290
     1
176
     1
290
     0
176
     1
290
     0
176
     1
290
     0
176
     1
290
     0
176
     1
290
     0
176
     1
290
     0
176
     1
 90
       50
176
     1
 40
0.0
176
     1
 40
1.0
176
     1
 90
        0
176
     1
 62
    18
420
        0
176
     1
 90
       50
176
     1
 90
        3
176
     1
 62
     5
420
      255
176
     1
290
     0
176
     1
 90
       50
176
     1
 90
       50
176
     1
 90
       50
176
     1
290
     0
176
     1
 90
       50
176
     1
 62
   256
176
     0
 40
1.0
176
     0
 90
        2
176
     1
  1
strokes_ogs.tif
176
     1
290
     0
176
     1
 40
1.0
176
     1
 40
1.0
176
     1
  0
VISUALSTYLE
  5
36
102
{ACAD_REACTORS
330
29
102
}
330
29
100
AcDbVisualStyle
  2
Thicken
 70
    13
177
     3
291
     1
 70
    58
 90
        2
176
     1
 90
        2
176
     1
 90
        0
176
     1
 90
        0
176
     1
 40
0.6
176
     1
 40
30.0
176
     1
 62
     7
420
 16777215
176
     1
 90
        1
176
     1
 90
        4
176
     1
 62
     7
176
     1
 62
   257
176
     1
 90
        1
176
     1
 90
        1
176
     1
 40
1.0
176
     1
 90
       12
176
     1
 62
     7
176
     1
 40
1.0
176
     1
 90
        1
176
     1
 90
        6
176
     1
 90
        2
176
     1
 62
     7
176
     1
 90
        5
176
     1
 90
        0
176
     1
 90
        0
176
     1
290
     0
176
     1
 90
        1
176
     1
 40
0.0
176
     1
 90
        0
176
     1
290
     0
176
     1
290
     1
176
     1
290
     1
176
     1
290
     0
176
     1
290
     0
176
     1
290
     0
176
     1
290
     0
176
     1
290
     0
176
     1
290
     0
176
     1
 90
       50
176
     1
 40
0.0
176
     1
 40
1.0
176
     1
 90
        0
176
     1
 62
    18
420
        0
176
     1
 90
       50
176
     1
 90
        3
176
     1
 62
     5
420
      255
176
     1
290
     0
176
     1
 90
       50
176
     1
 90
       50
176
     1
 90
       50
176
     1
290
     0
176
     1
 90
       50
176
     1
 62
   256
176
     0
 40
1.0
176
     0
 90
        2
176
     1
  1
strokes_ogs.tif
176
     1
290
     0
176
     1
 40
1.0
176
     1
 40
1.0
176
     1
  0
VISUALSTYLE
  5
30
102
{ACAD_REACTORS
330
29
102
}
330
29
100
AcDbVisualStyle
  2
Wireframe
 70
     5
177
     3
291
     0
 70
    58
 90
        0
176
     1
 90
        2
176
     1
 90
        0
176
     1
 90
        0
176
     1
 40
0.6
176
     1
 40
30.0
176
     1
 62
     7
420
 16777215
176
     1
 90
        1
176
     1
 90
        4
176
     1
 62
     7
176
     1
 62
   257
176
     1
 90
        1
176
     1
 90
        1
176
     1
 40
1.0
176
     1
 90
        0
176
     1
 62
   257
176
     1
 40
1.0
176
     1
 90
        1
176
     1
 90
        6
176
     1
 90
        2
176
     1
 62
     7
176
     1
 90
        3
176
     1
 90
        0
176
     1
 90
        0
176
     1
290
     0
176
     1
 90
        1
176
     1
 40
0.0
176
     1
 90
        0
176
     1
290
     0
176
     1
290
     1
176
     1
290
     1
176
     1
290
     0
176
     1
290
     0
176
     1
290
     0
176
     1
290
     0
176
     1
290
     0
176
     1
290
     0
176
     1
 90
       50
176
     1
 40
0.0
176
     1
 40
1.0
176
     1
 90
        0
176
     1
 62
    18
420
        0
176
     1
 90
       50
176
     1
 90
        3
176
     1
 62
     5
420
      255
176
     1
290
     0
176
     1
 90
       50
176
     1
 90
       50
176
     1
 90
       50
176
     1
290
     0
176
     1
 90
       50
176
     1
 62
   256
176
     0
 40
1.0
176
     0
 90
        2
176
     1
  1
strokes_ogs.tif
176
     1
290
     0
176
     1
 40
1.0
176
     1
 40
1.0
176
     1
  0
VISUALSTYLE
  5
3C
102
{ACAD_REACTORS
330
29
102
}
330
29
100
AcDbVisualStyle
  2
X-Ray
 70
    25
177
     3
291
     0
 70
    58
 90
        2
176
     1
 90
        2
176
     1
 90
        1
176
     1
 90
        1
176
     1
 40
0.5
176
     1
 40
30.0
176
     1
 62
     7
420
 16777215
176
     1
 90
        1
176
     1
 90
        0
176
     1
 62
     7
176
     1
 62
   257
176
     1
 90
        1
176
     1
 90
        1
176
     1
 40
1.0
176
     1
 90
        8
176
     1
 62
     7
176
     1
 40
1.0
176
     1
 90
        1
176
     1
 90
        6
176
     1
 90
        2
176
     1
 62
     7
176
     1
 90
        3
176
     1
 90
        0
176
     1
 90
        0
176
     1
290
     0
176
     1
 90
       13
176
     1
 40
0.0
176
     1
 90
        0
176
     1
290
     0
176
     1
290
     1
176
     1
290
     1
176
     1
290
     0
176
     1
290
     0
176
     1
290
     0
176
     1
290
     0
176
     1
290
     0
176
     1
290
     0
176
     1
 90
       50
176
     1
 40
0.0
176
     1
 40
1.0
176
     1
 90
        0
176
     1
 62
    18
420
        0
176
     1
 90
       50
176
     1
 90
        3
176
     1
 62
     5
420
      255
176
     1
290
     0
176
     1
 90
       50
176
     1
 90
       50
176
     1
 90
       50
176
     1
290
     0
176
     1
 90
       50
176
     1
 62
   256
176
     0
 40
1.0
176
     0
 90
        2
176
     1
  1
strokes_ogs.tif
176
     1
290
     0
176
     1
 40
1.0
176
     1
 40
1.0
176
     1
  0
DICTIONARYVAR
  5
81
102
{ACAD_REACTORS
330
7C
102
}
330
7C
100
DictionaryVariables
280
     0
  1
1:1
  0
DICTIONARYVAR
  5
7E
102
{ACAD_REACTORS
330
7C
102
}
330
7C
100
DictionaryVariables
280
     0
  1
STANDARD
  0
DICTIONARYVAR
  5
7D
102
{ACAD_REACTORS
330
7C
102
}
330
7C
100
DictionaryVariables
280
     0
  1
STANDARD
  0
DICTIONARYVAR
  5
7F
102
{ACAD_REACTORS
330
7C
102
}
330
7C
100
DictionaryVariables
280
     0
  1
Imperial24
  0
DICTIONARYVAR
  5
80
102
{ACAD_REACTORS
330
7C
102
}
330
7C
100
DictionaryVariables
280
     0
  1
Imperial24
  0
XRECORD
  5
2A7
102
{ACAD_REACTORS
330
2A3
102
}
330
2A3
100
AcDbXrecord
280
     1
  1
BUILDING_ID
  1
Progetto per test valvole
  1
FLOOR_ID
  1
694395
  0
XRECORD
  5
2A5
102
{ACAD_REACTORS
330
2A3
102
}
330
2A3
100
AcDbXrecord
280
     1
  1
-2001160
  1
Apparecchi idraulici
  0
XRECORD
  5
2A6
102
{ACAD_REACTORS
330
2A3
102
}
330
2A3
100
AcDbXrecord
280
     1
  1
790271
  1
Body
  0
XRECORD
  5
2A4
102
{ACAD_REACTORS
330
2A3
102
}
330
2A3
100
AcDbXrecord
280
     1
  1
859151
  1
Automatic flow rate regulator valve_Caleffi_121 DN15 : 1/2''
  0
DICTIONARY
  5
1A
330
19
100
AcDbDictionary
280
     1
281
     1
  3
BUMPTILE
360
1C
  3
DIFFUSETILE
360
1B
  3
OPACITYTILE
360
1F
  3
REFLECTIONTILE
360
1E
  3
REFRACTIONTILE
360
20
  3
SPECULARTILE
360
1D
  0
DICTIONARY
  5
12
330
11
100
AcDbDictionary
280
     1
281
     1
  3
BUMPTILE
360
14
  3
DIFFUSETILE
360
13
  3
OPACITYTILE
360
17
  3
REFLECTIONTILE
360
16
  3
REFRACTIONTILE
360
18
  3
SPECULARTILE
360
15
  0
DICTIONARY
  5
22
330
21
100
AcDbDictionary
280
     1
281
     1
  3
BUMPTILE
360
24
  3
DIFFUSETILE
360
23
  3
OPACITYTILE
360
27
  3
REFLECTIONTILE
360
26
  3
REFRACTIONTILE
360
28
  3
SPECULARTILE
360
25
  0
DICTIONARY
  5
2AA
330
65
100
AcDbDictionary
280
     1
281
     1
  3
ACAD_ROUNDTRIP_2008_TABLESTYLE_CELLSTYLEMAP
360
2AB
  0
XRECORD
  5
1C
102
{ACAD_REACTORS
330
1A
102
}
330
1A
100
AcDbXrecord
280
     1
270
     1
271
     1
  0
XRECORD
  5
1B
102
{ACAD_REACTORS
330
1A
102
}
330
1A
100
AcDbXrecord
280
     1
270
     1
271
     1
  0
XRECORD
  5
1F
102
{ACAD_REACTORS
330
1A
102
}
330
1A
100
AcDbXrecord
280
     1
270
     1
271
     1
  0
XRECORD
  5
1E
102
{ACAD_REACTORS
330
1A
102
}
330
1A
100
AcDbXrecord
280
     1
270
     1
271
     1
  0
XRECORD
  5
20
102
{ACAD_REACTORS
330
1A
102
}
330
1A
100
AcDbXrecord
280
     1
270
     1
271
     1
  0
XRECORD
  5
1D
102
{ACAD_REACTORS
330
1A
102
}
330
1A
100
AcDbXrecord
280
     1
270
     1
271
     1
  0
XRECORD
  5
14
102
{ACAD_REACTORS
330
12
102
}
330
12
100
AcDbXrecord
280
     1
270
     1
271
     1
  0
XRECORD
  5
13
102
{ACAD_REACTORS
330
12
102
}
330
12
100
AcDbXrecord
280
     1
270
     1
271
     1
  0
XRECORD
  5
17
102
{ACAD_REACTORS
330
12
102
}
330
12
100
AcDbXrecord
280
     1
270
     1
271
     1
  0
XRECORD
  5
16
102
{ACAD_REACTORS
330
12
102
}
330
12
100
AcDbXrecord
280
     1
270
     1
271
     1
  0
XRECORD
  5
18
102
{ACAD_REACTORS
330
12
102
}
330
12
100
AcDbXrecord
280
     1
270
     1
271
     1
  0
XRECORD
  5
15
102
{ACAD_REACTORS
330
12
102
}
330
12
100
AcDbXrecord
280
     1
270
     1
271
     1
  0
XRECORD
  5
24
102
{ACAD_REACTORS
330
22
102
}
330
22
100
AcDbXrecord
280
     1
270
     1
271
     1
  0
XRECORD
  5
23
102
{ACAD_REACTORS
330
22
102
}
330
22
100
AcDbXrecord
280
     1
270
     1
271
     1
  0
XRECORD
  5
27
102
{ACAD_REACTORS
330
22
102
}
330
22
100
AcDbXrecord
280
     1
270
     1
271
     1
  0
XRECORD
  5
26
102
{ACAD_REACTORS
330
22
102
}
330
22
100
AcDbXrecord
280
     1
270
     1
271
     1
  0
XRECORD
  5
28
102
{ACAD_REACTORS
330
22
102
}
330
22
100
AcDbXrecord
280
     1
270
     1
271
     1
  0
XRECORD
  5
25
102
{ACAD_REACTORS
330
22
102
}
330
22
100
AcDbXrecord
280
     1
270
     1
271
     1
  0
CELLSTYLEMAP
  5
2AB
102
{ACAD_REACTORS
330
2AA
102
}
330
2AA
100
AcDbCellStyleMap
 90
        3
300
CELLSTYLE
  1
TABLEFORMAT_BEGIN
 90
        5
170
     1
 91
        0
 92
    32768
 62
   257
 93
        1
300
CONTENTFORMAT
  1
CONTENTFORMAT_BEGIN
 90
        0
 91
        0
 92
      512
 93
        0
300

 40
0.0
140
1.0
 94
        5
 62
     0
340
55
144
0.25
309
CONTENTFORMAT_END
171
     0
 94
        0
309
TABLEFORMAT_END
  1
CELLSTYLE_BEGIN
 90
        1
 91
        1
300
_TITLE
309
CELLSTYLE_END
300
CELLSTYLE
  1
TABLEFORMAT_BEGIN
 90
        5
170
     1
 91
        0
 92
        0
 62
   257
 93
        1
300
CONTENTFORMAT
  1
CONTENTFORMAT_BEGIN
 90
        0
 91
        0
 92
      512
 93
        0
300

 40
0.0
140
1.0
 94
        5
 62
     0
340
55
144
0.18
309
CONTENTFORMAT_END
171
     0
 94
        0
309
TABLEFORMAT_END
  1
CELLSTYLE_BEGIN
 90
        2
 91
        1
300
_HEADER
309
CELLSTYLE_END
300
CELLSTYLE
  1
TABLEFORMAT_BEGIN
 90
        5
170
     1
 91
        0
 92
        0
 62
   257
 93
        1
300
CONTENTFORMAT
  1
CONTENTFORMAT_BEGIN
 90
        0
 91
        0
 92
      512
 93
        0
300

 40
0.0
140
1.0
 94
        2
 62
     0
340
55
144
0.18
309
CONTENTFORMAT_END
171
     0
 94
        0
309
TABLEFORMAT_END
  1
CELLSTYLE_BEGIN
 90
        3
 91
        2
300
_DATA
309
CELLSTYLE_END
  0
ENDSEC
  0
EOF
