  0
SECTION
  2
HEADER
  9
$ACADVER
  1
AC1027
  9
$ACADMAINTVER
 70
    20
  9
$DWGCODEPAGE
  3
ANSI_1252
  9
$REQUIREDVERSIONS
160
                 0
  9
$INSBASE
 10
0.0
 20
0.0
 30
0.0
  9
$EXTMIN
 10
627.1664074431887
 20
1787.245878720052
 30
-0.00000001
  9
$EXTMAX
 10
1086.114353953097
 20
2030.000000000002
 30
0.00000001
  9
$LIMMIN
 10
0.0
 20
0.0
  9
$LIMMAX
 10
12.0
 20
9.0
  9
$ORTHOMODE
 70
     0
  9
$REGENMODE
 70
     1
  9
$FILLMODE
 70
     1
  9
$QTEXTMODE
 70
     0
  9
$MIRRTEXT
 70
     0
  9
$LTSCALE
 40
1.0
  9
$ATTMODE
 70
     1
  9
$TEXTSIZE
 40
0.2
  9
$TRACEWID
 40
0.05
  9
$TEXTSTYLE
  7
Standard
  9
$CLAYER
  8
0
  9
$CELTYPE
  6
ByLayer
  9
$CECOLOR
 62
   256
  9
$CELTSCALE
 40
1.0
  9
$DISPSILH
 70
     0
  9
$DIMSCALE
 40
1.0
  9
$DIMASZ
 40
0.18
  9
$DIMEXO
 40
0.0625
  9
$DIMDLI
 40
0.38
  9
$DIMRND
 40
0.0
  9
$DIMDLE
 40
0.0
  9
$DIMEXE
 40
0.18
  9
$DIMTP
 40
0.0
  9
$DIMTM
 40
0.0
  9
$DIMTXT
 40
0.18
  9
$DIMCEN
 40
0.09
  9
$DIMTSZ
 40
0.0
  9
$DIMTOL
 70
     0
  9
$DIMLIM
 70
     0
  9
$DIMTIH
 70
     1
  9
$DIMTOH
 70
     1
  9
$DIMSE1
 70
     0
  9
$DIMSE2
 70
     0
  9
$DIMTAD
 70
     0
  9
$DIMZIN
 70
     0
  9
$DIMBLK
  1

  9
$DIMASO
 70
     1
  9
$DIMSHO
 70
     1
  9
$DIMPOST
  1

  9
$DIMAPOST
  1

  9
$DIMALT
 70
     0
  9
$DIMALTD
 70
     2
  9
$DIMALTF
 40
25.4
  9
$DIMLFAC
 40
1.0
  9
$DIMTOFL
 70
     0
  9
$DIMTVP
 40
0.0
  9
$DIMTIX
 70
     0
  9
$DIMSOXD
 70
     0
  9
$DIMSAH
 70
     0
  9
$DIMBLK1
  1

  9
$DIMBLK2
  1

  9
$DIMSTYLE
  2
Standard
  9
$DIMCLRD
 70
     0
  9
$DIMCLRE
 70
     0
  9
$DIMCLRT
 70
     0
  9
$DIMTFAC
 40
1.0
  9
$DIMGAP
 40
0.09
  9
$DIMJUST
 70
     0
  9
$DIMSD1
 70
     0
  9
$DIMSD2
 70
     0
  9
$DIMTOLJ
 70
     1
  9
$DIMTZIN
 70
     0
  9
$DIMALTZ
 70
     0
  9
$DIMALTTZ
 70
     0
  9
$DIMUPT
 70
     0
  9
$DIMDEC
 70
     4
  9
$DIMTDEC
 70
     4
  9
$DIMALTU
 70
     2
  9
$DIMALTTD
 70
     2
  9
$DIMTXSTY
  7
Standard
  9
$DIMAUNIT
 70
     0
  9
$DIMADEC
 70
     0
  9
$DIMALTRND
 40
0.0
  9
$DIMAZIN
 70
     0
  9
$DIMDSEP
 70
    46
  9
$DIMATFIT
 70
     3
  9
$DIMFRAC
 70
     0
  9
$DIMLDRBLK
  1

  9
$DIMLUNIT
 70
     2
  9
$DIMLWD
 70
    -2
  9
$DIMLWE
 70
    -2
  9
$DIMTMOVE
 70
     0
  9
$DIMFXL
 40
1.0
  9
$DIMFXLON
 70
     0
  9
$DIMJOGANG
 40
0.7853981633974483
  9
$DIMTFILL
 70
     0
  9
$DIMTFILLCLR
 70
     0
  9
$DIMARCSYM
 70
     0
  9
$DIMLTYPE
  6

  9
$DIMLTEX1
  6

  9
$DIMLTEX2
  6

  9
$DIMTXTDIRECTION
 70
     0
  9
$LUNITS
 70
     2
  9
$LUPREC
 70
     4
  9
$SKETCHINC
 40
0.1
  9
$FILLETRAD
 40
0.0
  9
$AUNITS
 70
     0
  9
$AUPREC
 70
     0
  9
$MENU
  1
.
  9
$ELEVATION
 40
0.0
  9
$PELEVATION
 40
0.0
  9
$THICKNESS
 40
0.0
  9
$LIMCHECK
 70
     0
  9
$CHAMFERA
 40
0.0
  9
$CHAMFERB
 40
0.0
  9
$CHAMFERC
 40
0.0
  9
$CHAMFERD
 40
0.0
  9
$SKPOLY
 70
     0
  9
$TDCREATE
 40
2457540.407657419
  9
$TDUCREATE
 40
2457540.324324086
  9
$TDUPDATE
 40
2457540.407657419
  9
$TDUUPDATE
 40
2457540.324324086
  9
$TDINDWG
 40
0.0000125579
  9
$TDUSRTIMER
 40
0.0000125579
  9
$USRTIMER
 70
     1
  9
$ANGBASE
 50
0.0
  9
$ANGDIR
 70
     0
  9
$PDMODE
 70
     0
  9
$PDSIZE
 40
0.0
  9
$PLINEWID
 40
0.0
  9
$SPLFRAME
 70
     0
  9
$SPLINETYPE
 70
     6
  9
$SPLINESEGS
 70
     8
  9
$HANDSEED
  5
2A9
  9
$SURFTAB1
 70
     6
  9
$SURFTAB2
 70
     6
  9
$SURFTYPE
 70
     6
  9
$SURFU
 70
     6
  9
$SURFV
 70
     6
  9
$UCSBASE
  2

  9
$UCSNAME
  2

  9
$UCSORG
 10
0.0
 20
0.0
 30
0.0
  9
$UCSXDIR
 10
1.0
 20
0.0
 30
0.0
  9
$UCSYDIR
 10
0.0
 20
1.0
 30
0.0
  9
$UCSORTHOREF
  2

  9
$UCSORTHOVIEW
 70
     0
  9
$UCSORGTOP
 10
0.0
 20
0.0
 30
0.0
  9
$UCSORGBOTTOM
 10
0.0
 20
0.0
 30
0.0
  9
$UCSORGLEFT
 10
0.0
 20
0.0
 30
0.0
  9
$UCSORGRIGHT
 10
0.0
 20
0.0
 30
0.0
  9
$UCSORGFRONT
 10
0.0
 20
0.0
 30
0.0
  9
$UCSORGBACK
 10
0.0
 20
0.0
 30
0.0
  9
$PUCSBASE
  2

  9
$PUCSNAME
  2

  9
$PUCSORG
 10
0.0
 20
0.0
 30
0.0
  9
$PUCSXDIR
 10
1.0
 20
0.0
 30
0.0
  9
$PUCSYDIR
 10
0.0
 20
1.0
 30
0.0
  9
$PUCSORTHOREF
  2

  9
$PUCSORTHOVIEW
 70
     0
  9
$PUCSORGTOP
 10
0.0
 20
0.0
 30
0.0
  9
$PUCSORGBOTTOM
 10
0.0
 20
0.0
 30
0.0
  9
$PUCSORGLEFT
 10
0.0
 20
0.0
 30
0.0
  9
$PUCSORGRIGHT
 10
0.0
 20
0.0
 30
0.0
  9
$PUCSORGFRONT
 10
0.0
 20
0.0
 30
0.0
  9
$PUCSORGBACK
 10
0.0
 20
0.0
 30
0.0
  9
$USERI1
 70
     0
  9
$USERI2
 70
     0
  9
$USERI3
 70
     0
  9
$USERI4
 70
     0
  9
$USERI5
 70
     0
  9
$USERR1
 40
0.0
  9
$USERR2
 40
0.0
  9
$USERR3
 40
0.0
  9
$USERR4
 40
0.0
  9
$USERR5
 40
0.0
  9
$WORLDVIEW
 70
     1
  9
$SHADEDGE
 70
     3
  9
$SHADEDIF
 70
    70
  9
$TILEMODE
 70
     1
  9
$MAXACTVP
 70
    64
  9
$PINSBASE
 10
0.0
 20
0.0
 30
0.0
  9
$PLIMCHECK
 70
     0
  9
$PEXTMIN
 10
1.000000000000000E+20
 20
1.000000000000000E+20
 30
1.000000000000000E+20
  9
$PEXTMAX
 10
-1.000000000000000E+20
 20
-1.000000000000000E+20
 30
-1.000000000000000E+20
  9
$PLIMMIN
 10
0.0
 20
0.0
  9
$PLIMMAX
 10
12.0
 20
9.0
  9
$UNITMODE
 70
     0
  9
$VISRETAIN
 70
     1
  9
$PLINEGEN
 70
     0
  9
$PSLTSCALE
 70
     1
  9
$TREEDEPTH
 70
  3020
  9
$CMLSTYLE
  2
Standard
  9
$CMLJUST
 70
     0
  9
$CMLSCALE
 40
1.0
  9
$PROXYGRAPHICS
 70
     1
  9
$MEASUREMENT
 70
     1
  9
$CELWEIGHT
370
    -1
  9
$ENDCAPS
280
     0
  9
$JOINSTYLE
280
     0
  9
$LWDISPLAY
290
     0
  9
$INSUNITS
 70
     4
  9
$HYPERLINKBASE
  1

  9
$STYLESHEET
  1

  9
$XEDIT
290
     1
  9
$CEPSNTYPE
380
     0
  9
$PSTYLEMODE
290
     1
  9
$FINGERPRINTGUID
  2
{F2F770A3-6E09-4ECE-B0D4-30D132505AAB}
  9
$VERSIONGUID
  2
{2E1F0C22-4190-488F-B860-DA410CAAEAC5}
  9
$EXTNAMES
290
     1
  9
$PSVPSCALE
 40
0.0
  9
$OLESTARTUP
290
     0
  9
$SORTENTS
280
   127
  9
$INDEXCTL
280
     0
  9
$HIDETEXT
280
     1
  9
$XCLIPFRAME
280
     2
  9
$HALOGAP
280
     0
  9
$OBSCOLOR
 70
   257
  9
$OBSLTYPE
280
     0
  9
$INTERSECTIONDISPLAY
280
     0
  9
$INTERSECTIONCOLOR
 70
   257
  9
$DIMASSOC
280
     2
  9
$PROJECTNAME
  1

  9
$CAMERADISPLAY
290
     0
  9
$LENSLENGTH
 40
50.0
  9
$CAMERAHEIGHT
 40
0.0
  9
$STEPSPERSEC
 40
2.0
  9
$STEPSIZE
 40
6.0
  9
$3DDWFPREC
 40
2.0
  9
$PSOLWIDTH
 40
0.25
  9
$PSOLHEIGHT
 40
4.0
  9
$LOFTANG1
 40
1.570796326794896
  9
$LOFTANG2
 40
1.570796326794896
  9
$LOFTMAG1
 40
0.0
  9
$LOFTMAG2
 40
0.0
  9
$LOFTPARAM
 70
     7
  9
$LOFTNORMALS
280
     1
  9
$LATITUDE
 40
37.795
  9
$LONGITUDE
 40
-122.394
  9
$NORTHDIRECTION
 40
0.0
  9
$TIMEZONE
 70
 -8000
  9
$LIGHTGLYPHDISPLAY
280
     1
  9
$TILEMODELIGHTSYNCH
280
     1
  9
$CMATERIAL
347
11
  9
$SOLIDHIST
280
     0
  9
$SHOWHIST
280
     1
  9
$DWFFRAME
280
     2
  9
$DGNFRAME
280
     0
  9
$REALWORLDSCALE
290
     1
  9
$INTERFERECOLOR
 62
     1
  9
$INTERFEREOBJVS
345
33
  9
$INTERFEREVPVS
346
30
  9
$CSHADOW
280
     0
  9
$SHADOWPLANELOCATION
 40
0.0
  0
ENDSEC
  0
SECTION
  2
CLASSES
  0
CLASS
  1
ACDBDICTIONARYWDFLT
  2
AcDbDictionaryWithDefault
  3
ObjectDBX Classes
 90
        0
 91
        1
280
     0
281
     0
  0
CLASS
  1
MATERIAL
  2
AcDbMaterial
  3
ObjectDBX Classes
 90
     1153
 91
        3
280
     0
281
     0
  0
CLASS
  1
VISUALSTYLE
  2
AcDbVisualStyle
  3
ObjectDBX Classes
 90
     4095
 91
       24
280
     0
281
     0
  0
CLASS
  1
SCALE
  2
AcDbScale
  3
ObjectDBX Classes
 90
     1153
 91
       17
280
     0
281
     0
  0
CLASS
  1
TABLESTYLE
  2
AcDbTableStyle
  3
ObjectDBX Classes
 90
     4095
 91
        1
280
     0
281
     0
  0
CLASS
  1
MLEADERSTYLE
  2
AcDbMLeaderStyle
  3
ACDB_MLEADERSTYLE_CLASS
 90
     4095
 91
        1
280
     0
281
     0
  0
CLASS
  1
ACDBSECTIONVIEWSTYLE
  2
AcDbSectionViewStyle
  3
ObjectDBX Classes
 90
     1025
 91
        1
280
     0
281
     0
  0
CLASS
  1
ACDBDETAILVIEWSTYLE
  2
AcDbDetailViewStyle
  3
ObjectDBX Classes
 90
     1025
 91
        1
280
     0
281
     0
  0
CLASS
  1
RASTERVARIABLES
  2
AcDbRasterVariables
  3
ISM
 90
        0
 91
        1
280
     0
281
     0
  0
CLASS
  1
DICTIONARYVAR
  2
AcDbDictionaryVar
  3
ObjectDBX Classes
 90
        0
 91
        5
280
     0
281
     0
  0
CLASS
  1
CELLSTYLEMAP
  2
AcDbCellStyleMap
  3
ObjectDBX Classes
 90
     1152
 91
        2
280
     0
281
     0
  0
CLASS
  1
SORTENTSTABLE
  2
AcDbSortentsTable
  3
ObjectDBX Classes
 90
        0
 91
        1
280
     0
281
     0
  0
ENDSEC
  0
SECTION
  2
TABLES
  0
TABLE
  2
VPORT
  5
8
330
0
100
AcDbSymbolTable
 70
     1
  0
VPORT
  5
57
330
8
100
AcDbSymbolTableRecord
100
AcDbViewportTableRecord
  2
*Active
 70
     0
 10
0.0
 20
0.0
 11
1.0
 21
1.0
 12
856.640380698143
 22
1908.622939360027
 13
0.0
 23
0.0
 14
1.0
 24
1.0
 15
0.0
 25
0.0
 16
0.0
 26
0.0
 36
1.0
 17
0.0
 27
0.0
 37
0.0
 40
242.7541212799499
 41
1.890587661663789
 42
50.0
 43
0.0
 44
0.0
 50
0.0
 51
0.0
 71
     0
 72
  1000
 73
     1
 74
     1
 75
     0
 76
     0
 77
     0
 78
     0
281
     0
 65
     1
110
0.0
120
0.0
130
0.0
111
1.0
121
0.0
131
0.0
112
0.0
122
1.0
132
0.0
 79
     0
146
0.0
 60
     3
 61
     5
292
     1
282
     1
141
0.0
142
0.0
 63
   250
421
  3355443
  0
ENDTAB
  0
TABLE
  2
LTYPE
  5
5
330
0
100
AcDbSymbolTable
 70
     3
  0
LTYPE
  5
5B
330
5
100
AcDbSymbolTableRecord
100
AcDbLinetypeTableRecord
  2
ByBlock
 70
     0
  3

 72
    65
 73
     0
 40
0.0
  0
LTYPE
  5
5C
330
5
100
AcDbSymbolTableRecord
100
AcDbLinetypeTableRecord
  2
ByLayer
 70
     0
  3

 72
    65
 73
     0
 40
0.0
  0
LTYPE
  5
5D
330
5
100
AcDbSymbolTableRecord
100
AcDbLinetypeTableRecord
  2
Continuous
 70
     0
  3
Solid line
 72
    65
 73
     0
 40
0.0
  0
LTYPE
  5
69
330
5
100
AcDbSymbolTableRecord
100
AcDbLinetypeTableRecord
  2
PHANTOM2
 70
     0
  3
___ _ _ ___ _ _ ___ _ _ ___ _ _
 72
    65
 73
     6
 40
1.25
 49
0.625
 74
     0
 49
-0.125
 74
     0
 49
0.125
 74
     0
 49
-0.125
 74
     0
 49
0.125
 74
     0
 49
-0.125
 74
     0
  0
LTYPE
  5
86
330
5
100
AcDbSymbolTableRecord
100
AcDbLinetypeTableRecord
  2
Nascosto 1_5 mm
 70
     0
  3

 72
    65
 73
     2
 40
2.2
 49
1.5
 74
     0
 49
-0.7000000000000001
 74
     0
  0
ENDTAB
  0
TABLE
  2
LAYER
  5
2
330
0
100
AcDbSymbolTable
 70
     4
  0
LAYER
  5
54
330
2
100
AcDbSymbolTableRecord
100
AcDbLayerTableRecord
  2
0
 70
     0
 62
     7
  6
Continuous
370
    -3
390
F
347
21
348
0
  0
LAYER
  5
85
330
2
100
AcDbSymbolTableRecord
100
AcDbLayerTableRecord
  2
P-SANR-FIXT
 70
     0
 62
     6
  6
Continuous
370
    18
390
F
347
21
348
0
  0
LAYER
  5
88
330
2
100
AcDbSymbolTableRecord
100
AcDbLayerTableRecord
  2
M-PIPE
 70
     0
 62
     3
  6
Continuous
370
    18
390
F
347
21
348
0
  0
ENDTAB
  0
TABLE
  2
STYLE
  5
3
330
0
100
AcDbSymbolTable
 70
     2
  0
STYLE
  5
55
330
3
100
AcDbSymbolTableRecord
100
AcDbTextStyleTableRecord
  2
Standard
 70
     0
 40
0.0
 41
1.0
 50
0.0
 71
     0
 42
0.2
  3
txt
  4

  0
STYLE
  5
5A
330
3
100
AcDbSymbolTableRecord
100
AcDbTextStyleTableRecord
  2
Annotative
 70
     0
 40
0.0
 41
1.0
 50
0.0
 71
     0
 42
0.2
  3
txt
  4

1001
AcadAnnotative
1000
AnnotativeData
1002
{
1070
     1
1070
     1
1002
}
  0
ENDTAB
  0
TABLE
  2
VIEW
  5
6
330
0
100
AcDbSymbolTable
 70
     0
  0
ENDTAB
  0
TABLE
  2
UCS
  5
7
330
0
100
AcDbSymbolTable
 70
     0
  0
ENDTAB
  0
TABLE
  2
APPID
  5
9
330
0
100
AcDbSymbolTable
 70
     3
  0
APPID
  5
56
330
9
100
AcDbSymbolTableRecord
100
AcDbRegAppTableRecord
  2
ACAD
 70
     0
  0
APPID
  5
5E
330
9
100
AcDbSymbolTableRecord
100
AcDbRegAppTableRecord
  2
AcadAnnotative
 70
     0
  0
APPID
  5
79
330
9
100
AcDbSymbolTableRecord
100
AcDbRegAppTableRecord
  2
REVIT
 70
     0
  0
ENDTAB
  0
TABLE
  2
DIMSTYLE
  5
A
330
0
100
AcDbSymbolTable
 70
     2
100
AcDbDimStyleTable
 71
     0
  0
DIMSTYLE
105
58
330
A
100
AcDbSymbolTableRecord
100
AcDbDimStyleTableRecord
  2
Standard
 70
     0
340
55
  0
DIMSTYLE
105
59
330
A
100
AcDbSymbolTableRecord
100
AcDbDimStyleTableRecord
  2
Annotative
 70
     0
340
55
1001
AcadAnnotative
1000
AnnotativeData
1002
{
1070
     1
1070
     1
1002
}
  0
ENDTAB
  0
TABLE
  2
BLOCK_RECORD
  5
1
330
0
100
AcDbSymbolTable
 70
     4
  0
BLOCK_RECORD
  5
71
102
{ACAD_XDICTIONARY
360
2A4
102
}
330
1
100
AcDbSymbolTableRecord
100
AcDbBlockTableRecord
  2
*Model_Space
340
74
 70
     0
280
     1
281
     0
  0
BLOCK_RECORD
  5
6D
330
1
100
AcDbSymbolTableRecord
100
AcDbBlockTableRecord
  2
*Paper_Space
340
70
 70
     0
280
     1
281
     0
  0
BLOCK_RECORD
  5
75
330
1
100
AcDbSymbolTableRecord
100
AcDbBlockTableRecord
  2
*Paper_Space0
340
78
 70
     0
280
     1
281
     0
  0
BLOCK_RECORD
  5
87
330
1
100
AcDbSymbolTableRecord
100
AcDbBlockTableRecord
  2
Automatic flow rate regulator valve_Caleffi_121 DN15 - 1_2__-859151-Est - Idraulica
340
0
102
{BLKREFS
331
13C
102
}
 70
     0
280
     1
281
     0
  0
BLOCK_RECORD
  5
13D
330
1
100
AcDbSymbolTableRecord
100
AcDbBlockTableRecord
  2
Automatic flow rate regulator valve_Caleffi_121 DN15 - 1_2__-V1-Est - Idraulica
340
0
102
{BLKREFS
331
21D
102
}
 70
     0
280
     1
281
     0
  0
BLOCK_RECORD
  5
21E
330
1
100
AcDbSymbolTableRecord
100
AcDbBlockTableRecord
  2
Automatic flow rate regulator valve_Caleffi_121 DN15 - 1_2__-V2-Est - Idraulica
340
0
102
{BLKREFS
331
29D
102
}
 70
     0
280
     1
281
     0
  0
ENDTAB
  0
ENDSEC
  0
SECTION
  2
BLOCKS
  0
BLOCK
  5
72
330
71
100
AcDbEntity
  8
0
100
AcDbBlockBegin
  2
*Model_Space
 70
     0
 10
0.0
 20
0.0
 30
0.0
  3
*Model_Space
  1

  0
ENDBLK
  5
73
330
71
100
AcDbEntity
  8
0
100
AcDbBlockEnd
  0
BLOCK
  5
6E
330
6D
100
AcDbEntity
 67
     1
  8
0
100
AcDbBlockBegin
  2
*Paper_Space
 70
     0
 10
0.0
 20
0.0
 30
0.0
  3
*Paper_Space
  1

  0
ENDBLK
  5
6F
330
6D
100
AcDbEntity
 67
     1
  8
0
100
AcDbBlockEnd
  0
BLOCK
  5
76
330
75
100
AcDbEntity
 67
     1
  8
0
100
AcDbBlockBegin
  2
*Paper_Space0
 70
     0
 10
0.0
 20
0.0
 30
0.0
  3
*Paper_Space0
  1

  0
ENDBLK
  5
77
330
75
100
AcDbEntity
 67
     1
  8
0
100
AcDbBlockEnd
  0
BLOCK
  5
13A
330
87
100
AcDbEntity
  8
0
100
AcDbBlockBegin
  2
Automatic flow rate regulator valve_Caleffi_121 DN15 - 1_2__-859151-Est - Idraulica
 70
     0
 10
0.0
 20
0.0
 30
0.0
  3
Automatic flow rate regulator valve_Caleffi_121 DN15 - 1_2__-859151-Est - Idraulica
  1

  0
LINE
  5
89
330
87
100
AcDbEntity
  8
M-PIPE
100
AcDbLine
 10
647.179618794564
 20
1951.471137928769
 30
0.0
 11
648.8179228831345
 21
1952.618290801466
 31
0.0
1001
REVIT
1002
{
1070
     3
1000
790271
1002
}
  0
LINE
  5
8A
330
87
100
AcDbEntity
  8
M-PIPE
100
AcDbLine
 10
638.4935470288118
 20
1967.363027598673
 30
0.0
 11
636.8552429402411
 21
1966.215874725976
 31
0.0
1001
REVIT
1002
{
1070
     3
1000
790271
1002
}
  0
LINE
  5
8B
330
87
100
AcDbEntity
  8
M-PIPE
100
AcDbLine
 10
643.5956160941046
 20
1950.487560456899
 30
0.0
 11
643.8572446164942
 21
1950.365561073317
 31
0.0
1001
REVIT
1002
{
1070
     3
1000
790271
1002
}
  0
LINE
  5
8C
330
87
100
AcDbEntity
  8
M-PIPE
100
AcDbLine
 10
634.6800216348928
 20
1963.471993781952
 30
0.0
 11
634.7051813306629
 21
1963.184417143379
 31
0.0
1001
REVIT
1002
{
1070
     3
1000
790271
1002
}
  0
LINE
  5
8D
330
87
100
AcDbEntity
  8
M-PIPE
100
AcDbLine
 10
643.5956160941035
 20
1950.487560456899
 30
0.0
 11
634.7051813306618
 21
1963.184417143378
 31
0.0
1001
REVIT
1002
{
1070
     3
1000
790271
1002
}
  0
LINE
  5
8E
330
87
100
AcDbEntity
  8
M-PIPE
100
AcDbLine
 10
636.85524294024
 20
1966.215874725975
 30
0.0
 11
637.4288193765834
 21
1965.396722681697
 31
0.0
1001
REVIT
1002
{
1070
     3
1000
790271
1002
}
  0
LINE
  5
8F
330
87
100
AcDbEntity
  8
M-PIPE
100
AcDbLine
 10
637.4288193765834
 20
1965.396722681697
 30
0.0
 11
635.1529592881631
 21
1963.803148291875
 31
0.0
1001
REVIT
1002
{
1070
     3
1000
790271
1002
}
  0
LINE
  5
90
330
87
100
AcDbEntity
  8
M-PIPE
100
AcDbLine
 10
635.1529592881631
 20
1963.803148291875
 30
0.0
 11
635.3991874993217
 21
1963.451497962905
 31
0.0
1001
REVIT
1002
{
1070
     3
1000
790271
1002
}
  0
LINE
  5
91
330
87
100
AcDbEntity
  8
M-PIPE
100
AcDbLine
 10
635.3991874993217
 20
1963.451497962905
 30
0.0
 11
637.675047587742
 21
1965.045072352727
 31
0.0
1001
REVIT
1002
{
1070
     3
1000
790271
1002
}
  0
LINE
  5
92
330
87
100
AcDbEntity
  8
M-PIPE
100
AcDbLine
 10
637.675047587742
 20
1965.045072352727
 30
0.0
 11
641.7712026562538
 21
1959.195156656326
 31
0.0
1001
REVIT
1002
{
1070
     3
1000
790271
1002
}
  0
LINE
  5
93
330
87
100
AcDbEntity
  8
M-PIPE
100
AcDbLine
 10
641.7712026562541
 20
1959.195156656326
 30
0.0
 11
639.4953425678336
 21
1957.601582266503
 31
0.0
1001
REVIT
1002
{
1070
     3
1000
790271
1002
}
  0
LINE
  5
94
330
87
100
AcDbEntity
  8
M-PIPE
100
AcDbLine
 10
639.4953425678336
 20
1957.601582266503
 30
0.0
 11
639.987798990108
 21
1956.898281608625
 31
0.0
1001
REVIT
1002
{
1070
     3
1000
790271
1002
}
  0
LINE
  5
95
330
87
100
AcDbEntity
  8
M-PIPE
100
AcDbLine
 10
639.9877989901081
 20
1956.898281608624
 30
0.0
 11
642.2636590785284
 21
1958.491855998447
 31
0.0
1001
REVIT
1002
{
1070
     3
1000
790271
1002
}
  0
LINE
  5
96
330
87
100
AcDbEntity
  8
M-PIPE
100
AcDbLine
 10
642.2636590785283
 20
1958.491855998447
 30
0.0
 11
646.3598141470722
 21
1952.641940302
 31
0.0
1001
REVIT
1002
{
1070
     3
1000
790271
1002
}
  0
LINE
  5
97
330
87
100
AcDbEntity
  8
M-PIPE
100
AcDbLine
 10
646.3598141470722
 20
1952.641940302
 30
0.0
 11
644.0839540586519
 21
1951.048365912177
 31
0.0
1001
REVIT
1002
{
1070
     3
1000
790271
1002
}
  0
LINE
  5
98
330
87
100
AcDbEntity
  8
M-PIPE
100
AcDbLine
 10
644.0839540586519
 20
1951.048365912177
 30
0.0
 11
644.3301822697801
 21
1950.696715583251
 31
0.0
1001
REVIT
1002
{
1070
     3
1000
790271
1002
}
  0
LINE
  5
99
330
87
100
AcDbEntity
  8
M-PIPE
100
AcDbLine
 10
644.3301822697801
 20
1950.696715583251
 30
0.0
 11
646.6060423582005
 21
1952.290289973074
 31
0.0
1001
REVIT
1002
{
1070
     3
1000
790271
1002
}
  0
LINE
  5
9A
330
87
100
AcDbEntity
  8
M-PIPE
100
AcDbLine
 10
646.6060423582003
 20
1952.290289973074
 30
0.0
 11
647.179618794563
 21
1951.471137928768
 31
0.0
1001
REVIT
1002
{
1070
     3
1000
790271
1002
}
  0
SPLINE
  5
9B
330
87
100
AcDbEntity
  8
M-PIPE
100
AcDbSpline
210
0.0
220
0.0
230
1.0
 70
    24
 71
     3
 72
     9
 73
     5
 74
     0
 42
0.000000001
 43
0.0000000001
 40
-1.0
 40
-1.0
 40
-1.0
 40
-1.0
 40
-0.5
 40
0.0
 40
0.0
 40
0.0
 40
0.0
 10
643.857244616493
 20
1950.365561073316
 30
0.0
 10
643.8622633909757
 20
1950.369075257041
 30
0.0
 10
643.9461051076725
 20
1950.427781859089
 30
0.0
 10
644.1775551598335
 20
1950.589844930331
 30
0.0
 10
644.3301822697801
 20
1950.696715583251
 30
0.0
1001
REVIT
1002
{
1070
     3
1000
790271
1002
}
  0
SPLINE
  5
9C
330
87
100
AcDbEntity
  8
M-PIPE
100
AcDbSpline
210
0.0
220
0.0
230
1.0
 70
     8
 71
     3
 72
     9
 73
     5
 74
     0
 42
0.000000001
 43
0.0000000001
 40
-1.0
 40
-1.0
 40
-1.0
 40
-1.0
 40
-0.5
 40
0.0
 40
0.0
 40
0.0
 40
0.0
 10
644.0839540586519
 20
1951.048365912177
 30
0.0
 10
643.0950031838741
 20
1951.789712256131
 30
0.0
 10
641.4233597976724
 20
1953.506044549494
 30
0.0
 10
640.3642331381782
 20
1955.689656053763
 30
0.0
 10
639.9877989901081
 20
1956.898281608625
 30
0.0
1001
REVIT
1002
{
1070
     3
1000
790271
1002
}
  0
SPLINE
  5
9D
330
87
100
AcDbEntity
  8
M-PIPE
100
AcDbSpline
210
0.0
220
0.0
230
1.0
 70
     8
 71
     3
 72
     9
 73
     5
 74
     0
 42
0.000000001
 43
0.0000000001
 40
-1.0
 40
-1.0
 40
-1.0
 40
-1.0
 40
-0.5
 40
0.0
 40
0.0
 40
0.0
 40
0.0
 10
639.4953425678336
 20
1957.601582266503
 30
0.0
 10
638.5063916930666
 20
1958.342928610453
 30
0.0
 10
636.8347483068809
 20
1960.059260903803
 30
0.0
 10
635.775621647392
 20
1962.242872408054
 30
0.0
 10
635.3991874993218
 20
1963.451497962905
 30
0.0
1001
REVIT
1002
{
1070
     3
1000
790271
1002
}
  0
SPLINE
  5
9E
330
87
100
AcDbEntity
  8
M-PIPE
100
AcDbSpline
210
0.0
220
0.0
230
1.0
 70
    24
 71
     3
 72
     9
 73
     5
 74
     0
 42
0.000000001
 43
0.0000000001
 40
-1.0
 40
-1.0
 40
-1.0
 40
-1.0
 40
-0.5
 40
0.0
 40
0.0
 40
0.0
 40
0.0
 10
635.1529592881631
 20
1963.803148291875
 30
0.0
 10
635.0003321782215
 20
1963.696277638959
 30
0.0
 10
634.7688821260681
 20
1963.534214567722
 30
0.0
 10
634.6850404093739
 20
1963.475507965676
 30
0.0
 10
634.6800216348919
 20
1963.471993781951
 30
0.0
1001
REVIT
1002
{
1070
     3
1000
790271
1002
}
  0
LINE
  5
9F
330
87
100
AcDbEntity
  8
P-SANR-FIXT
100
AcDbLine
 10
690.186801173252
 20
1969.377345339914
 30
0.0
 11
697.5591695718529
 21
1974.539533267073
 31
0.0
  0
LINE
  5
A0
330
87
100
AcDbEntity
  8
P-SANR-FIXT
100
AcDbLine
 10
688.4458905724517
 20
1969.684314849837
 30
0.0
 11
690.186801173252
 21
1969.377345339914
 31
0.0
  0
LINE
  5
A1
330
87
100
AcDbEntity
  8
P-SANR-FIXT
100
AcDbLine
 10
672.4021535730623
 20
1958.45036926181
 30
0.0
 11
688.4458905724517
 21
1969.684314849837
 31
0.0
  0
LWPOLYLINE
  5
A2
330
87
100
AcDbEntity
  8
P-SANR-FIXT
100
AcDbPolyline
 90
       21
 70
   128
 43
0.0
 10
672.4021535730623
 20
1958.45036926181
 10
672.3698550281842
 20
1958.426777087751
 10
672.33852575403
 20
1958.401912187611
 10
672.3082158707544
 20
1958.375814339924
 10
672.2789738677054
 20
1958.34852529568
 10
672.2508465258499
 20
1958.320088711529
 10
672.2238788429343
 20
1958.290550079939
 10
672.1981139614991
 20
1958.259956656419
 10
672.1735930998577
 20
1958.228357383921
 10
672.1503554861582
 20
1958.19580281454
 10
672.1284382956253
 20
1958.162345028642
 10
672.1078765910886
 20
1958.128037551548
 10
672.088703266889
 20
1958.092935267901
 10
672.0709489962553
 20
1958.057094333869
 10
672.0546421822328
 20
1958.0205720873
 10
672.0398089122457
 20
1957.983426955996
 10
672.0264729163616
 20
1957.945718364246
 10
672.0146555293289
 20
1957.90750663775
 10
672.0043756564461
 20
1957.868852907121
 10
671.9956497433168
 20
1957.829819010082
 10
671.9909222564011
 20
1957.804865395188
  0
LINE
  5
A3
330
87
100
AcDbEntity
  8
P-SANR-FIXT
100
AcDbLine
 10
671.8278076070205
 20
1956.879796249643
 30
0.0
 11
671.9909222564011
 21
1957.804865395188
 31
0.0
  0
LWPOLYLINE
  5
A4
330
87
100
AcDbEntity
  8
P-SANR-FIXT
100
AcDbPolyline
 90
       21
 70
   128
 43
0.0
 10
671.8278076070205
 20
1956.879796249643
 10
671.8200757908511
 20
1956.84055334332
 10
671.8107808616145
 20
1956.801651017315
 10
671.7999376892144
 20
1956.763151507054
 10
671.7875636204141
 20
1956.725116403539
 10
671.7736784510837
 20
1956.687606554823
 10
671.7583043945321
 20
1956.650681968662
 10
671.7414660459702
 20
1956.614401716516
 10
671.7231903431637
 20
1956.57882383905
 10
671.7035065233386
 20
1956.544005253279
 10
671.6824460764075
 20
1956.510001661511
 10
671.660042694593
 20
1956.476867462241
 10
671.6363322185266
 20
1956.444655663117
 10
671.6113525799122
 20
1956.413417796149
 10
671.5851437408428
 20
1956.383203835258
 10
671.5577476298701
 20
1956.354062116338
 10
671.5292080749275
 20
1956.326039259922
 10
671.4995707332146
 20
1956.299180096602
 10
671.4688830181558
 20
1956.273527595311
 10
671.4371940235492
 20
1956.249122794577
 10
671.4165762903595
 20
1956.234292383021
  0
LINE
  5
A5
330
87
100
AcDbEntity
  8
P-SANR-FIXT
100
AcDbLine
 10
645.6028420373193
 20
1984.548755442636
 30
0.0
 11
642.5876071968088
 21
1982.437465277838
 31
0.0
  0
LINE
  5
A6
330
87
100
AcDbEntity
  8
P-SANR-FIXT
100
AcDbLine
 10
664.3835117781487
 20
1951.309687594856
 30
0.0
 11
671.4165762903595
 21
1956.234292383021
 31
0.0
  0
LINE
  5
A7
330
87
100
AcDbEntity
  8
P-SANR-FIXT
100
AcDbLine
 10
642.5876071968088
 20
1982.437465277838
 30
0.0
 11
642.3420315888871
 21
1981.04473679729
 31
0.0
  0
LINE
  5
A8
330
87
100
AcDbEntity
  8
P-SANR-FIXT
100
AcDbLine
 10
662.9907832977099
 20
1951.555263202759
 30
0.0
 11
664.3835117781486
 21
1951.309687594856
 31
0.0
  0
LINE
  5
A9
330
87
100
AcDbEntity
  8
P-SANR-FIXT
100
AcDbLine
 10
697.5591695718528
 20
1974.539533267074
 30
0.0
 11
698.1117146897133
 21
1977.673172348514
 31
0.0
  0
LWPOLYLINE
  5
AA
330
87
100
AcDbEntity
  8
P-SANR-FIXT
100
AcDbPolyline
 90
       33
 70
   128
 43
0.0
 10
707.9418403693974
 20
1999.853748442349
 10
707.7831145202813
 20
2000.080432447383
 10
707.4791639359846
 20
2000.514518868495
 10
707.1720821222132
 20
2000.953077148739
 10
706.8623603443621
 20
2001.395405688422
 10
706.5504940912052
 20
2001.840796856238
 10
706.2369822822196
 20
2002.288538121331
 10
705.9223264694208
 20
2002.73791319319
 10
705.6070300349863
 20
2003.18820316756
 10
705.2915973859517
 20
2003.63868767654
 10
704.9765331472665
 20
2004.088646041014
 10
704.6623413545025
 20
2004.537358423585
 10
704.3495246475039
 20
2004.98410698016
 10
704.0385834662719
 20
2005.428177008351
 10
703.7300152503653
 20
2005.868858090842
 10
703.4243136431053
 20
2006.305445231908
 10
703.1219677018508
 20
2006.737239985257
 10
702.8234611156107
 20
2007.163551571396
 10
702.5292714312448
 20
2007.583697982727
 10
702.2398692894913
 20
2007.997007074619
 10
701.9557176720411
 20
2008.402817640693
 10
701.6772711608661
 20
2008.800480470612
 10
701.4049752109855
 20
2009.189359388678
 10
701.1392654378327
 20
2009.568832271578
 10
700.8805669203626
 20
2009.93829204365
 10
700.6292935210171
 20
2010.297147648072
 10
700.3858472236335
 20
2010.64482499243
 10
700.1506174903548
 20
2010.980767867138
 10
699.9239806385747
 20
2011.304438835262
 10
699.7062992389092
 20
2011.615320092299
 10
699.4979215351619
 20
2011.912914294555
 10
699.2991808872068
 20
2012.196745354791
 10
699.1488933717904
 20
2012.411378170372
  0
LWPOLYLINE
  5
AB
330
87
100
AcDbEntity
  8
P-SANR-FIXT
100
AcDbPolyline
 90
        3
 70
   128
 43
0.0
 10
697.6501634929721
 20
2014.551786259451
 10
697.6370470389444
 20
2014.570518497126
 10
697.6352085578647
 20
2014.573144120215
  0
LINE
  5
AC
330
87
100
AcDbEntity
  8
P-SANR-FIXT
100
AcDbLine
 10
698.1117146897133
 20
1977.673172348514
 30
0.0
 11
710.7831082956837
 21
1986.545777671037
 31
0.0
  0
LWPOLYLINE
  5
AD
330
87
100
AcDbEntity
  8
P-SANR-FIXT
100
AcDbPolyline
 90
       80
 70
   128
 43
0.0
 10
640.1713636741837
 20
1978.914431465998
 10
640.1793926736737
 20
1978.90296486638
 10
640.2034668274575
 20
1978.86858341164
 10
640.2435476220242
 20
1978.811342104772
 10
640.299570936653
 20
1978.731332519654
 10
640.3714471459916
 20
1978.628682654556
 10
640.4590612634373
 20
1978.503556727364
 10
640.5622731250925
 20
1978.356154912871
 10
640.6809176139961
 20
1978.186713022534
 10
640.8148049242749
 20
1977.995502127233
 10
640.9637208647938
 20
1977.782828123611
 10
641.1274272018153
 20
1977.549031244705
 10
641.3056620401219
 20
1977.294485515647
 10
641.4981402419936
 20
1977.019598155305
 10
641.7045538833678
 20
1976.724808924815
 10
641.9245727464502
 20
1976.410589424061
 10
642.1578448479952
 20
1976.077442337215
 10
642.4039970024023
 20
1975.725900628546
 10
642.662635418734
 20
1975.356526689799
 10
642.9333463306975
 20
1974.969911440478
 10
643.2156966585822
 20
1974.566673382511
 10
643.5092347020949
 20
1974.147457610769
 10
643.8134908629843
 20
1973.712934781059
 10
644.1279783962974
 20
1973.263800037217
 10
644.452194189068
 20
1972.800771899022
 10
644.78561956519
 20
1972.324591112721
 10
645.1277211151886
 20
1971.836019465991
 10
645.4779515495614
 20
1971.335838569246
 10
645.8357505743256
 20
1970.824848605219
 10
646.2005457873677
 20
1970.303867048849
 10
646.5717535941656
 20
1969.773727359488
 10
646.9487801414155
 20
1969.23527764755
 10
647.3310222670694
 20
1968.689379317709
 10
647.7178684652674
 20
1968.136905690842
 10
648.1086998646148
 20
1967.578740606897
 10
648.5028912182457
 20
1967.015777010939
 10
648.8998119040839
 20
1966.44891552463
 10
649.298826933704
 20
1965.879063005423
 10
649.6992979681772
 20
1965.307131095787
 10
650.1005843392777
 20
1964.734034764773
 10
650.5020440744153
 20
1964.160690844255
 10
650.9030349236532
 20
1963.588016562199
 10
651.3029153871731
 20
1963.016928075293
 10
651.7010457415368
 20
1962.448339003291
 10
652.0967890631071
 20
1961.883158967413
 10
652.4895122469904
 20
1961.322292135154
 10
652.8785870198686
 20
1960.7666357738
 10
653.2633909451037
 20
1960.217078814993
 10
653.6433084185024
 20
1959.674500432638
 10
654.0177316531517
 20
1959.139768636401
 10
654.3860616517491
 20
1958.613738883085
 10
654.7477091648696
 20
1958.097252708084
 10
655.1020956336397
 20
1957.591136379098
 10
655.4486541153076
 20
1957.096199574289
 10
655.7868301902315
 20
1956.613234086963
 10
656.1160828488314
 20
1956.143012558874
 10
656.4358853570909
 20
1955.686287244156
 10
656.7457260992171
 20
1955.243788805885
 10
657.0451093961189
 20
1954.816225147166
 10
657.3335562983863
 20
1954.404280278646
 10
657.6106053525072
 20
1954.008613224237
 10
657.8758133390963
 20
1953.629856966822
 10
658.1287559819493
 20
1953.268617435615
 10
658.3690286267962
 20
1952.925472536805
 10
658.5962468886602
 20
1952.600971229031
 10
658.8100472667936
 20
1952.295632645163
 10
659.0100877261991
 20
1952.009945261798
 10
659.196048244815
 20
1951.744366117806
 10
659.367631325481
 20
1951.499320083165
 10
659.5245624718702
 20
1951.275199179255
 10
659.6665906276255
 20
1951.072361951714
 10
659.7934885779952
 20
1950.891132896835
 10
659.905053313329
 20
1950.731801942447
 10
660.0011063538497
 20
1950.594623984087
 10
660.0814940351823
 20
1950.479818477226
 10
660.1460877541856
 20
1950.387569086185
 10
660.1947841746881
 20
1950.318023390309
 10
660.2275053928049
 20
1950.271292647878
 10
660.2441990615678
 20
1950.24745161811
 10
660.2465389465781
 20
1950.244109915996
  0
LWPOLYLINE
  5
AE
330
87
100
AcDbEntity
  8
P-SANR-FIXT
100
AcDbPolyline
 90
       41
 70
   128
 43
0.0
 10
640.1713636741812
 20
1978.914431466002
 10
640.1490819686501
 20
1978.947647610821
 10
640.1281463776227
 20
1978.981728216836
 10
640.108590393578
 20
1979.016618762348
 10
640.0904453019195
 20
1979.052263429926
 10
640.0737401309226
 20
1979.088605195706
 10
640.0585016052972
 20
1979.125585920615
 10
640.0447541034339
 20
1979.163146443383
 10
640.0325196184029
 20
1979.201226675184
 10
640.0218177227706
 20
1979.239765695773
 10
640.0126655372867
 20
1979.278701850936
 10
640.0050777034959
 20
1979.317972851132
 10
639.9990663603134
 20
1979.357515871138
 10
639.9946411246061
 20
1979.397267650557
 10
639.991809075807
 20
1979.437164595022
 10
639.99057474459
 20
1979.477142877933
 10
639.9909401056219
 20
1979.517138542565
 10
639.992904574403
 20
1979.557087604387
 10
639.9964650082023
 20
1979.596926153422
 10
640.0016157110851
 20
1979.63659045649
 10
640.0083484430256
 20
1979.676017059167
 10
640.0166524330891
 20
1979.7151428873
 10
640.0265143966628
 20
1979.753905347909
 10
640.0379185567085
 20
1979.792242429328
 10
640.0508466690034
 20
1979.830092800403
 10
640.0652780513253
 20
1979.867395908616
 10
640.0811896165411
 20
1979.90409207695
 10
640.0985559095407
 20
1979.940122599365
 10
640.1173491479602
 20
1979.975429834711
 10
640.1375392666266
 20
1980.009957298942
 10
640.1590939656577
 20
1980.043649755483
 10
640.1819787621324
 20
1980.076453303589
 10
640.206157045259
 20
1980.108315464581
 10
640.2315901349415
 20
1980.139185265799
 10
640.2582373436621
 20
1980.169013322147
 10
640.2860560415716
 20
1980.197751915095
 10
640.3150017246873
 20
1980.225355069027
 10
640.3450280860909
 20
1980.251778624785
 10
640.3760870900098
 20
1980.276980310316
 10
640.4081290486632
 20
1980.3009198083
 10
640.4169392821191
 20
1980.307159946642
  0
LWPOLYLINE
  5
AF
330
87
100
AcDbEntity
  8
P-SANR-FIXT
100
AcDbPolyline
 90
       41
 70
   128
 43
0.0
 10
661.6392674272227
 20
1949.998534308066
 10
661.6060512824033
 20
1949.976252602535
 10
661.5719706763883
 20
1949.955317011507
 10
661.5370801308769
 20
1949.935761027462
 10
661.501435463299
 20
1949.917615935803
 10
661.4650936975193
 20
1949.900910764806
 10
661.4281129726102
 20
1949.885672239181
 10
661.3905524498428
 20
1949.871924737317
 10
661.3524722180413
 20
1949.859690252286
 10
661.3139331974529
 20
1949.848988356653
 10
661.2749970422894
 20
1949.839836171169
 10
661.2357260420934
 20
1949.832248337378
 10
661.1961830220876
 20
1949.826236994194
 10
661.1564312426686
 20
1949.821811758487
 10
661.1165342982035
 20
1949.818979709688
 10
661.0765560152928
 20
1949.81774537847
 10
661.0365603506608
 20
1949.818110739502
 10
660.9966112888388
 20
1949.820075208283
 10
660.956772739804
 20
1949.823635642081
 10
660.9171084367361
 20
1949.828786344964
 10
660.8776818340588
 20
1949.835519076904
 10
660.8385560059261
 20
1949.843823066967
 10
660.7997935453164
 20
1949.853685030541
 10
660.7614564638977
 20
1949.865089190586
 10
660.7236060928223
 20
1949.878017302881
 10
660.6863029846095
 20
1949.892448685202
 10
660.649606816275
 20
1949.908360250418
 10
660.6135762938598
 20
1949.925726543417
 10
660.578269058514
 20
1949.944519781836
 10
660.5437415942822
 20
1949.964709900502
 10
660.5100491377416
 20
1949.986264599533
 10
660.4772455896352
 20
1950.009149396008
 10
660.4453834286426
 20
1950.033327679134
 10
660.4145136274243
 20
1950.058760768816
 10
660.3846855710771
 20
1950.085407977536
 10
660.3559469781281
 20
1950.113226675446
 10
660.3283438241955
 20
1950.142172358561
 10
660.3019202684372
 20
1950.172198719965
 10
660.276718582906
 20
1950.203257723883
 10
660.2527790849221
 20
1950.235299682536
 10
660.2465389465806
 20
1950.244109915992
  0
LWPOLYLINE
  5
B0
330
87
100
AcDbEntity
  8
P-SANR-FIXT
100
AcDbPolyline
 90
        3
 70
   128
 43
0.0
 10
660.2465389465781
 20
1950.244109915996
 10
660.238509947088
 20
1950.255576515613
 10
660.2144357933044
 20
1950.289957970353
  0
LWPOLYLINE
  5
B1
330
87
100
AcDbEntity
  8
P-SANR-FIXT
100
AcDbPolyline
 90
        4
 70
   128
 43
0.0
 10
640.206534929624
 20
1978.864201707647
 10
640.1903972279568
 20
1978.887248734116
 10
640.1737035591942
 20
1978.911089763884
 10
640.1713636741837
 20
1978.914431465998
  0
LINE
  5
B2
330
87
100
AcDbEntity
  8
P-SANR-FIXT
100
AcDbLine
 10
661.6392674272316
 20
1949.998534308054
 30
0.0
 11
663.2775715157907
 21
1951.145687180753
 31
0.0
  0
LINE
  5
B3
330
87
100
AcDbEntity
  8
P-SANR-FIXT
100
AcDbLine
 10
642.0552433706695
 20
1981.454312819353
 30
0.0
 11
640.4169392821102
 21
1980.307159946654
 31
0.0
  0
LINE
  5
B4
330
87
100
AcDbEntity
  8
P-SANR-FIXT
100
AcDbLine
 10
697.5591695718517
 20
1974.539533267073
 30
0.0
 11
678.3287583527514
 21
2002.003406718462
 31
0.0
  0
LINE
  5
B5
330
87
100
AcDbEntity
  8
P-SANR-FIXT
100
AcDbLine
 10
672.3254832218092
 20
1994.885950970052
 30
0.0
 11
690.1868011732507
 21
1969.377345339914
 31
0.0
  0
LINE
  5
B6
330
87
100
AcDbEntity
  8
P-SANR-FIXT
100
AcDbLine
 10
671.9569428806774
 20
1993.232972629116
 30
0.0
 11
688.4458905724507
 21
1969.684314849836
 31
0.0
  0
LINE
  5
B7
330
87
100
AcDbEntity
  8
P-SANR-FIXT
100
AcDbLine
 10
642.5876071968076
 20
1982.437465277837
 30
0.0
 11
664.3835117781475
 21
1951.309687594855
 31
0.0
  0
LINE
  5
B8
330
87
100
AcDbEntity
  8
P-SANR-FIXT
100
AcDbLine
 10
698.1117146897121
 20
1977.673172348513
 30
0.0
 11
680.0313343437174
 21
2003.494631500785
 31
0.0
  0
LINE
  5
B9
330
87
100
AcDbEntity
  8
P-SANR-FIXT
100
AcDbLine
 10
642.0552433706683
 20
1981.454312819353
 30
0.0
 11
663.2775715157895
 21
1951.145687180753
 31
0.0
  0
LINE
  5
BA
330
87
100
AcDbEntity
  8
P-SANR-FIXT
100
AcDbLine
 10
649.1047111012992
 20
1952.208714779347
 30
0.0
 11
643.6557349559643
 21
1959.990659200092
 31
0.0
  0
LINE
  5
BB
330
87
100
AcDbEntity
  8
P-SANR-FIXT
100
AcDbLine
 10
643.6557349559643
 20
1959.990659200092
 30
0.0
 11
638.2067588106296
 21
1967.772603620837
 31
0.0
  0
LINE
  5
BC
330
87
100
AcDbEntity
  8
P-SANR-FIXT
100
AcDbLine
 10
655.6579274555985
 20
1956.797326270146
 30
0.0
 11
649.1047111012992
 21
1952.208714779347
 31
0.0
  0
LINE
  5
BD
330
87
100
AcDbEntity
  8
P-SANR-FIXT
100
AcDbLine
 10
650.2089513102636
 20
1964.579270690891
 30
0.0
 11
643.6557349559643
 21
1959.990659200092
 31
0.0
  0
LINE
  5
BE
330
87
100
AcDbEntity
  8
P-SANR-FIXT
100
AcDbLine
 10
644.7599751649286
 20
1972.361215111637
 30
0.0
 11
638.2067588106296
 21
1967.772603620837
 31
0.0
  0
LINE
  5
BF
330
87
100
AcDbEntity
  8
P-SANR-FIXT
100
AcDbLine
 10
627.1664074431899
 20
1984.499999999995
 30
0.0
 11
628.3211079815692
 21
1982.499999999996
 31
0.0
  0
LINE
  5
C0
330
87
100
AcDbEntity
  8
P-SANR-FIXT
100
AcDbLine
 10
628.3211079815689
 20
2017.499999999996
 30
0.0
 11
627.1664074431897
 21
2015.499999999995
 31
0.0
  0
LINE
  5
C1
330
87
100
AcDbEntity
  8
P-SANR-FIXT
100
AcDbLine
 10
639.5117069048108
 20
1982.499999999996
 30
0.0
 11
640.6664074431899
 21
1984.499999999995
 31
0.0
  0
LINE
  5
C2
330
87
100
AcDbEntity
  8
P-SANR-FIXT
100
AcDbLine
 10
640.6664074431899
 20
2015.499999999995
 30
0.0
 11
639.5117069048105
 21
2017.499999999996
 31
0.0
  0
LINE
  5
C3
330
87
100
AcDbEntity
  8
P-SANR-FIXT
100
AcDbLine
 10
640.6664074431899
 20
1984.499999999995
 30
0.0
 11
645.6099872327407
 21
1984.499999999995
 31
0.0
  0
LINE
  5
C4
330
87
100
AcDbEntity
  8
P-SANR-FIXT
100
AcDbLine
 10
675.232481824862
 20
2015.499999999995
 30
0.0
 11
671.66640744319
 21
2015.499999999995
 31
0.0
  0
LINE
  5
C5
330
87
100
AcDbEntity
  8
P-SANR-FIXT
100
AcDbLine
 10
646.6664074431897
 20
2015.499999999995
 30
0.0
 11
640.6664074431899
 21
2015.499999999995
 31
0.0
  0
LWPOLYLINE
  5
C6
330
87
100
AcDbEntity
  8
P-SANR-FIXT
100
AcDbPolyline
 90
       31
 70
   128
 43
0.0
 10
675.232481824862
 20
2015.499999999995
 10
675.3524498274218
 20
2015.497600319978
 10
675.4722259067695
 20
2015.490405118903
 10
675.5916184467288
 20
2015.478425907557
 10
675.7104364447047
 20
2015.461681850122
 10
675.8284898172473
 20
2015.44019973352
 10
675.9455897041434
 20
2015.414013924551
 10
676.0615487705543
 20
2015.383166314928
 10
676.1761815067103
 20
2015.347706254243
 10
676.2893045246872
 20
2015.30769047103
 10
676.400736851788
 20
2015.263182982005
 10
676.51030022006
 20
2015.214254989655
 10
676.6178193514864
 20
2015.160984768333
 10
676.7231222383932
 20
2015.103457539028
 10
676.8260404186245
 20
2015.041765333036
 10
676.9264092450471
 20
2014.976006844725
 10
677.0240681489491
 20
2014.906287273648
 10
677.1188608969172
 20
2014.832718156248
 10
677.2106358407762
 20
2014.755417187418
 10
677.2992461601937
 20
2014.674508032218
 10
677.3845500975604
 20
2014.590120128037
 10
677.4664111847746
 20
2014.50238847752
 10
677.5446984615589
 20
2014.411453432591
 10
677.6192866849712
 20
2014.317460469926
 10
677.6900565297649
 20
2014.220559958213
 10
677.7568947792858
 20
2014.1209069176
 10
677.819694506592
 20
2014.018660771694
 10
677.8783552455169
 20
2013.913985092517
 10
677.9327831513914
 20
2013.807047338826
 10
677.9828911511773
 20
2013.698018588215
 10
678.0235389722526
 20
2013.599999999996
  0
LINE
  5
C7
330
87
100
AcDbEntity
  8
P-SANR-FIXT
100
AcDbLine
 10
710.6460800671633
 20
1986.499999999996
 30
0.0
 11
711.1664074431899
 21
1986.499999999996
 31
0.0
  0
LINE
  5
C8
330
87
100
AcDbEntity
  8
P-SANR-FIXT
100
AcDbLine
 10
711.1664074431899
 20
2013.499999999996
 30
0.0
 11
707.91640744319
 21
2013.499999999996
 31
0.0
  0
LINE
  5
C9
330
87
100
AcDbEntity
  8
P-SANR-FIXT
100
AcDbLine
 10
711.1664074431899
 20
1986.499999999996
 30
0.0
 11
712.8735142243765
 21
1984.792893218809
 31
0.0
  0
LINE
  5
CA
330
87
100
AcDbEntity
  8
P-SANR-FIXT
100
AcDbLine
 10
712.8735142243764
 20
2015.207106781182
 30
0.0
 11
711.1664074431899
 21
2013.499999999996
 31
0.0
  0
LWPOLYLINE
  5
CB
330
87
100
AcDbEntity
  8
P-SANR-FIXT
100
AcDbPolyline
 90
       21
 70
   128
 43
0.0
 10
712.8735142243764
 20
2015.207106781182
 10
712.9023565637591
 20
2015.234817900557
 10
712.9322839815601
 20
2015.261353468043
 10
712.963248600295
 20
2015.286671032393
 10
712.9952008831791
 20
2015.310730090906
 10
713.0280897133761
 20
2015.333492154221
 10
713.0618624757736
 20
2015.35492080789
 10
713.0964651411561
 20
2015.37498177064
 10
713.1318423526407
 20
2015.39364294921
 10
713.1679375142355
 20
2015.410874489695
 10
713.204692881382
 20
2015.426648825306
 10
713.2420496533335
 20
2015.440940720472
 10
713.2799480672238
 20
2015.453727311207
 10
713.3183274936754
 20
2015.464988141696
 10
713.357126533793
 20
2015.474705197011
 10
713.3962831173891
 20
2015.482862931937
 10
713.4357346022831
 20
2015.489448295838
 10
713.4754178745147
 20
2015.494450753536
 10
713.5152694493141
 20
2015.497862302168
 10
713.5552255726625
 20
2015.499677483981
 10
713.580621005563
 20
2015.499999999995
  0
LWPOLYLINE
  5
CC
330
87
100
AcDbEntity
  8
P-SANR-FIXT
100
AcDbPolyline
 90
       21
 70
   128
 43
0.0
 10
713.5806210055631
 20
1984.499999999996
 10
713.5406316713764
 20
1984.500799893335
 10
713.500706311594
 20
1984.503198293693
 10
713.4609087982743
 20
1984.507191364142
 10
713.4213027989487
 20
1984.51277271662
 10
713.381951674768
 20
1984.519933422154
 10
713.342918379136
 20
1984.528662025143
 10
713.3042653569989
 20
1984.538944561685
 10
713.266054444947
 20
1984.550764581913
 10
713.228346772288
 20
1984.564103176318
 10
713.1912026632543
 20
1984.578939005993
 10
713.1546815404971
 20
1984.595248336776
 10
713.1188418300216
 20
1984.613005077216
 10
713.0837408677194
 20
1984.632180820318
 10
713.0494348076423
 20
1984.652744888982
 10
713.0159785321681
 20
1984.674664385086
 10
712.9834255642006
 20
1984.697904242112
 10
712.9518279815446
 20
1984.722427281245
 10
712.9212363335917
 20
1984.748194270855
 10
712.8916995604527
 20
1984.775163989255
 10
712.8735142243765
 20
1984.792893218809
  0
LINE
  5
CD
330
87
100
AcDbEntity
  8
P-SANR-FIXT
100
AcDbLine
 10
713.5806210055631
 20
1984.499999999996
 30
0.0
 11
719.6664074431899
 21
1984.499999999996
 31
0.0
  0
LINE
  5
CE
330
87
100
AcDbEntity
  8
P-SANR-FIXT
100
AcDbLine
 10
719.6664074431899
 20
2015.499999999995
 30
0.0
 11
713.580621005563
 21
2015.499999999995
 31
0.0
  0
LINE
  5
CF
330
87
100
AcDbEntity
  8
P-SANR-FIXT
100
AcDbLine
 10
719.6664074431899
 20
1984.499999999996
 30
0.0
 11
720.8211079815693
 21
1982.499999999996
 31
0.0
  0
LINE
  5
D0
330
87
100
AcDbEntity
  8
P-SANR-FIXT
100
AcDbLine
 10
720.8211079815692
 20
2017.499999999996
 30
0.0
 11
719.6664074431899
 21
2015.499999999995
 31
0.0
  0
LINE
  5
D1
330
87
100
AcDbEntity
  8
P-SANR-FIXT
100
AcDbLine
 10
732.0117069048109
 20
1982.499999999996
 30
0.0
 11
733.1664074431898
 21
1984.499999999996
 31
0.0
  0
LINE
  5
D2
330
87
100
AcDbEntity
  8
P-SANR-FIXT
100
AcDbLine
 10
733.1664074431898
 20
2015.499999999996
 30
0.0
 11
732.0117069048108
 21
2017.499999999996
 31
0.0
  0
LINE
  5
D3
330
87
100
AcDbEntity
  8
P-SANR-FIXT
100
AcDbLine
 10
690.41640744319
 20
2024.500000000003
 30
0.0
 11
690.41640744319
 21
2013.599999999996
 31
0.0
  0
LINE
  5
D4
330
87
100
AcDbEntity
  8
P-SANR-FIXT
100
AcDbLine
 10
707.91640744319
 20
2013.499999999996
 30
0.0
 11
707.91640744319
 21
2024.500000000003
 31
0.0
  0
LINE
  5
D5
330
87
100
AcDbEntity
  8
P-SANR-FIXT
100
AcDbLine
 10
671.66640744319
 20
2015.499999999995
 30
0.0
 11
671.66640744319
 21
2023.999999999996
 31
0.0
  0
LINE
  5
D6
330
87
100
AcDbEntity
  8
P-SANR-FIXT
100
AcDbLine
 10
646.6664074431897
 20
2023.999999999996
 30
0.0
 11
646.6664074431897
 21
2015.499999999995
 31
0.0
  0
LINE
  5
D7
330
87
100
AcDbEntity
  8
P-SANR-FIXT
100
AcDbLine
 10
647.1664074431899
 20
2024.499999999996
 30
0.0
 11
646.7139737170431
 21
2024.04756627385
 31
0.0
  0
LINE
  5
D8
330
87
100
AcDbEntity
  8
P-SANR-FIXT
100
AcDbLine
 10
646.7081109320568
 20
2024.041703488863
 30
0.0
 11
646.6664074431897
 21
2023.999999999996
 31
0.0
  0
LINE
  5
D9
330
87
100
AcDbEntity
  8
P-SANR-FIXT
100
AcDbLine
 10
671.66640744319
 20
2023.999999999996
 30
0.0
 11
671.624703954323
 21
2024.041703488863
 31
0.0
  0
LINE
  5
DA
330
87
100
AcDbEntity
  8
P-SANR-FIXT
100
AcDbLine
 10
671.6188411693366
 20
2024.04756627385
 30
0.0
 11
671.1664074431898
 21
2024.499999999996
 31
0.0
  0
LINE
  5
DB
330
87
100
AcDbEntity
  8
P-SANR-FIXT
100
AcDbLine
 10
690.1664074431862
 20
2026.499999999999
 30
0.0
 11
690.1664074431862
 21
2024.500000000003
 31
0.0
  0
LINE
  5
DC
330
87
100
AcDbEntity
  8
P-SANR-FIXT
100
AcDbLine
 10
708.166407443193
 20
2024.500000000003
 30
0.0
 11
708.166407443193
 21
2026.499999999999
 31
0.0
  0
LINE
  5
DD
330
87
100
AcDbEntity
  8
P-SANR-FIXT
100
AcDbLine
 10
668.1664074431929
 20
2024.499999999996
 30
0.0
 11
668.1664074431929
 21
2026.499999999999
 31
0.0
  0
LINE
  5
DE
330
87
100
AcDbEntity
  8
P-SANR-FIXT
100
AcDbLine
 10
650.166407443186
 20
2026.499999999999
 30
0.0
 11
650.166407443186
 21
2024.499999999996
 31
0.0
  0
LINE
  5
DF
330
87
100
AcDbEntity
  8
P-SANR-FIXT
100
AcDbLine
 10
733.1664074431887
 20
2015.499999999995
 30
0.0
 11
733.1664074431889
 21
1984.499999999995
 31
0.0
  0
LINE
  5
E0
330
87
100
AcDbEntity
  8
P-SANR-FIXT
100
AcDbLine
 10
627.1664074431888
 20
1984.499999999995
 30
0.0
 11
627.1664074431887
 21
2015.499999999994
 31
0.0
  0
SPLINE
  5
E1
330
87
100
AcDbEntity
  8
P-SANR-FIXT
100
AcDbSpline
210
0.0
220
0.0
230
1.0
 70
     8
 71
     3
 72
     9
 73
     5
 74
     0
 42
0.000000001
 43
0.0000000001
 40
-1.0
 40
-1.0
 40
-1.0
 40
-1.0
 40
-0.5
 40
0.0
 40
0.0
 40
0.0
 40
0.0
 10
628.321107981568
 20
1982.546063314791
 30
0.0
 10
627.6475729963244
 20
1983.836558823183
 30
0.0
 10
626.9740380110809
 20
1986.398399856773
 30
0.0
 10
627.6475729963244
 20
1988.921940923981
 30
0.0
 10
628.321107981568
 20
1990.174136465988
 30
0.0
  0
SPLINE
  5
E2
330
87
100
AcDbEntity
  8
P-SANR-FIXT
100
AcDbSpline
210
0.0
220
0.0
230
1.0
 70
     8
 71
     3
 72
     9
 73
     5
 74
     0
 42
0.000000001
 43
0.0000000001
 40
-1.0
 40
-1.0
 40
-1.0
 40
-1.0
 40
-0.5
 40
0.0
 40
0.0
 40
0.0
 40
0.0
 10
628.321107981568
 20
1992.371926848798
 30
0.0
 10
627.6475729963244
 20
1994.952917865581
 30
0.0
 10
626.974038011081
 20
2000.076599932762
 30
0.0
 10
627.6475729963244
 20
2005.123682067176
 30
0.0
 10
628.321107981568
 20
2007.628073151191
 30
0.0
  0
SPLINE
  5
E3
330
87
100
AcDbEntity
  8
P-SANR-FIXT
100
AcDbSpline
210
0.0
220
0.0
230
1.0
 70
     8
 71
     3
 72
     9
 73
     5
 74
     0
 42
0.000000001
 43
0.0000000001
 40
-1.0
 40
-1.0
 40
-1.0
 40
-1.0
 40
-0.5
 40
0.0
 40
0.0
 40
0.0
 40
0.0
 10
628.321107981568
 20
2009.825863534002
 30
0.0
 10
627.6475729963245
 20
2011.116359042393
 30
0.0
 10
626.9740380110812
 20
2013.678200075984
 30
0.0
 10
627.6475729963245
 20
2016.20174114319
 30
0.0
 10
628.3211079815678
 20
2017.453936685198
 30
0.0
  0
LINE
  5
E4
330
87
100
AcDbEntity
  8
P-SANR-FIXT
100
AcDbLine
 10
628.321107981568
 20
1990.174136465988
 30
0.0
 11
628.321107981568
 21
1992.371926848798
 31
0.0
  0
LINE
  5
E5
330
87
100
AcDbEntity
  8
P-SANR-FIXT
100
AcDbLine
 10
628.321107981568
 20
1990.174136465988
 30
0.0
 11
639.5117069048096
 21
1990.174136465988
 31
0.0
  0
LINE
  5
E6
330
87
100
AcDbEntity
  8
P-SANR-FIXT
100
AcDbLine
 10
639.5117069048096
 20
1992.371926848798
 30
0.0
 11
628.321107981568
 21
1992.371926848798
 31
0.0
  0
LINE
  5
E7
330
87
100
AcDbEntity
  8
P-SANR-FIXT
100
AcDbLine
 10
628.321107981568
 20
2007.62807315119
 30
0.0
 11
628.321107981568
 21
2009.825863534002
 31
0.0
  0
LINE
  5
E8
330
87
100
AcDbEntity
  8
P-SANR-FIXT
100
AcDbLine
 10
628.321107981568
 20
2007.628073151191
 30
0.0
 11
639.5117069048096
 21
2007.628073151191
 31
0.0
  0
LINE
  5
E9
330
87
100
AcDbEntity
  8
P-SANR-FIXT
100
AcDbLine
 10
639.5117069048096
 20
2009.825863534001
 30
0.0
 11
628.321107981568
 21
2009.825863534001
 31
0.0
  0
LINE
  5
EA
330
87
100
AcDbEntity
  8
P-SANR-FIXT
100
AcDbLine
 10
628.321107981568
 20
2017.453936685198
 30
0.0
 11
628.321107981568
 21
2017.499999999995
 31
0.0
  0
LINE
  5
EB
330
87
100
AcDbEntity
  8
P-SANR-FIXT
100
AcDbLine
 10
628.321107981568
 20
2017.453936685198
 30
0.0
 11
639.5117069048096
 21
2017.453936685198
 31
0.0
  0
LINE
  5
EC
330
87
100
AcDbEntity
  8
P-SANR-FIXT
100
AcDbLine
 10
639.5117069048096
 20
1982.546063314792
 30
0.0
 11
628.321107981568
 21
1982.546063314791
 31
0.0
  0
LINE
  5
ED
330
87
100
AcDbEntity
  8
P-SANR-FIXT
100
AcDbLine
 10
628.321107981568
 20
1982.499999999994
 30
0.0
 11
628.321107981568
 21
1982.546063314791
 31
0.0
  0
LINE
  5
EE
330
87
100
AcDbEntity
  8
P-SANR-FIXT
100
AcDbLine
 10
639.5117069048096
 20
2017.453936685198
 30
0.0
 11
639.5117069048096
 21
2017.499999999995
 31
0.0
  0
SPLINE
  5
EF
330
87
100
AcDbEntity
  8
P-SANR-FIXT
100
AcDbSpline
210
0.0
220
0.0
230
1.0
 70
     8
 71
     3
 72
     9
 73
     5
 74
     0
 42
0.000000001
 43
0.0000000001
 40
-1.0
 40
-1.0
 40
-1.0
 40
-1.0
 40
-0.5
 40
0.0
 40
0.0
 40
0.0
 40
0.0
 10
639.5117069048096
 20
2017.453936685198
 30
0.0
 10
640.1852418900528
 20
2016.20174114319
 30
0.0
 10
640.8587768752961
 20
2013.678200075984
 30
0.0
 10
640.1852418900528
 20
2011.116359042393
 30
0.0
 10
639.5117069048096
 20
2009.825863534002
 30
0.0
  0
LINE
  5
F0
330
87
100
AcDbEntity
  8
P-SANR-FIXT
100
AcDbLine
 10
639.5117069048096
 20
2007.628073151191
 30
0.0
 11
639.5117069048096
 21
2009.825863534002
 31
0.0
  0
SPLINE
  5
F1
330
87
100
AcDbEntity
  8
P-SANR-FIXT
100
AcDbSpline
210
0.0
220
0.0
230
1.0
 70
     8
 71
     3
 72
     9
 73
     5
 74
     0
 42
0.000000001
 43
0.0000000001
 40
-1.0
 40
-1.0
 40
-1.0
 40
-1.0
 40
-0.5
 40
0.0
 40
0.0
 40
0.0
 40
0.0
 10
639.5117069048096
 20
2007.628073151191
 30
0.0
 10
640.1852418900531
 20
2005.123682067176
 30
0.0
 10
640.8587768752965
 20
2000.076599932762
 30
0.0
 10
640.1852418900531
 20
1994.952917865581
 30
0.0
 10
639.5117069048096
 20
1992.371926848798
 30
0.0
  0
LINE
  5
F2
330
87
100
AcDbEntity
  8
P-SANR-FIXT
100
AcDbLine
 10
639.5117069048096
 20
1990.174136465988
 30
0.0
 11
639.5117069048096
 21
1992.371926848798
 31
0.0
  0
SPLINE
  5
F3
330
87
100
AcDbEntity
  8
P-SANR-FIXT
100
AcDbSpline
210
0.0
220
0.0
230
1.0
 70
     8
 71
     3
 72
     9
 73
     5
 74
     0
 42
0.000000001
 43
0.0000000001
 40
-1.0
 40
-1.0
 40
-1.0
 40
-1.0
 40
-0.5
 40
0.0
 40
0.0
 40
0.0
 40
0.0
 10
639.5117069048096
 20
1990.174136465988
 30
0.0
 10
640.1852418900532
 20
1988.921940923981
 30
0.0
 10
640.8587768752966
 20
1986.398399856773
 30
0.0
 10
640.1852418900532
 20
1983.836558823183
 30
0.0
 10
639.5117069048096
 20
1982.546063314791
 30
0.0
  0
LINE
  5
F4
330
87
100
AcDbEntity
  8
P-SANR-FIXT
100
AcDbLine
 10
639.5117069048096
 20
1982.499999999994
 30
0.0
 11
639.5117069048096
 21
1982.546063314791
 31
0.0
  0
LINE
  5
F5
330
87
100
AcDbEntity
  8
P-SANR-FIXT
100
AcDbLine
 10
640.6664074431888
 20
1984.499999999995
 30
0.0
 11
640.6664074431887
 21
2015.499999999994
 31
0.0
  0
SPLINE
  5
F6
330
87
100
AcDbEntity
  8
P-SANR-FIXT
100
AcDbSpline
210
0.0
220
0.0
230
1.0
 70
     8
 71
     3
 72
    11
 73
     7
 74
     0
 42
0.000000001
 43
0.0000000001
 40
0.0
 40
0.0
 40
0.0
 40
0.0
 40
0.3333333333333333
 40
0.5
 40
0.6666666666666666
 40
1.0
 40
1.0
 40
1.0
 40
1.0
 10
671.6664074431887
 20
2015.499999999995
 30
0.0
 10
671.6526487146413
 20
2015.499999999995
 30
0.0
 10
671.4532189672064
 20
2015.323991013553
 30
0.0
 10
670.7806167924543
 20
2014.794721032894
 30
0.0
 10
669.8859965900876
 20
2014.098840965035
 30
0.0
 10
669.0205127598082
 20
2013.440936699978
 30
0.0
 10
668.3406999484165
 20
2012.967946752333
 30
0.0
  0
SPLINE
  5
F7
330
87
100
AcDbEntity
  8
P-SANR-FIXT
100
AcDbSpline
210
0.0
220
0.0
230
1.0
 70
     8
 71
     3
 72
    11
 73
     7
 74
     0
 42
0.000000001
 43
0.0000000001
 40
0.0
 40
0.0
 40
0.0
 40
0.0
 40
0.3333333333333333
 40
0.5
 40
0.6666666666666666
 40
1.0
 40
1.0
 40
1.0
 40
1.0
 10
649.9921149379609
 20
2012.967946752333
 30
0.0
 10
649.3123021265692
 20
2013.440936699978
 30
0.0
 10
648.4468182962898
 20
2014.098840965035
 30
0.0
 10
647.5521980939231
 20
2014.794721032894
 30
0.0
 10
646.879595919171
 20
2015.323991013553
 30
0.0
 10
646.6801661717362
 20
2015.499999999995
 30
0.0
 10
646.6664074431887
 20
2015.499999999995
 30
0.0
  0
SPLINE
  5
F8
330
87
100
AcDbEntity
  8
P-SANR-FIXT
100
AcDbSpline
210
0.0
220
0.0
230
1.0
 70
     8
 71
     3
 72
     9
 73
     5
 74
     0
 42
0.000000001
 43
0.0000000001
 40
-1.0
 40
-1.0
 40
-1.0
 40
-1.0
 40
-0.5
 40
0.0
 40
0.0
 40
0.0
 40
0.0
 10
678.1555920192166
 20
2013.022164023975
 30
0.0
 10
678.1328608525321
 20
2013.12171022891
 30
0.0
 10
678.0777585820992
 20
2013.317562429849
 30
0.0
 10
678.0033764375379
 20
2013.506934212924
 30
0.0
 10
677.9613653967252
 20
2013.599999999995
 30
0.0
  0
LINE
  5
F9
330
87
100
AcDbEntity
  8
P-SANR-FIXT
100
AcDbLine
 10
678.7966725258203
 20
2010.203871565406
 30
0.0
 11
678.1555920192195
 21
2013.022164023963
 31
0.0
  0
SPLINE
  5
FA
330
87
100
AcDbEntity
  8
P-SANR-FIXT
100
AcDbSpline
210
0.0
220
0.0
230
1.0
 70
     8
 71
     3
 72
    13
 73
     9
 74
     0
 42
0.000000001
 43
0.0000000001
 40
-1.0
 40
-1.0
 40
-1.0
 40
-1.0
 40
-0.75
 40
-0.625
 40
-0.5
 40
-0.375
 40
-0.25
 40
0.0
 40
0.0
 40
0.0
 40
0.0
 10
683.4405120292261
 20
2008.380068949885
 30
0.0
 10
683.0324794672932
 20
2008.087534943052
 30
0.0
 10
682.3350905510401
 20
2007.812553186211
 30
0.0
 10
681.3391037859759
 20
2007.814301943518
 30
0.0
 10
680.6190959830773
 20
2008.00372782839
 30
0.0
 10
679.9682383106528
 20
2008.364751246072
 30
0.0
 10
679.241999017027
 20
2009.044636510927
 30
0.0
 10
678.908969974636
 20
2009.714900550552
 30
0.0
 10
678.7966725258173
 20
2010.203871565417
 30
0.0
  0
ARC
  5
FB
330
87
100
AcDbEntity
  8
P-SANR-FIXT
100
AcDbCircle
 10
1354.302254398584
 20
1074.320318255127
 30
0.0
 40
1150.010041366077
100
AcDbArc
 50
125.2599500462739
 51
125.6867180274995
  0
SPLINE
  5
FC
330
87
100
AcDbEntity
  8
P-SANR-FIXT
100
AcDbSpline
210
0.0
220
0.0
230
1.0
 70
     8
 71
     3
 72
    19
 73
    15
 74
     0
 42
0.000000001
 43
0.0000000001
 40
0.0
 40
0.0
 40
0.0
 40
0.0
 40
0.0555555555555556
 40
0.1111111111111111
 40
0.1666666666666666
 40
0.2222222222222222
 40
0.2777777777777778
 40
0.3333333333333333
 40
0.3611111111111111
 40
0.3888888888888888
 40
0.4444444444444445
 40
0.4583333333333333
 40
0.4722222222222223
 40
0.4842914655339909
 40
0.4842914655339909
 40
0.4842914655339909
 40
0.4842914655339909
 10
707.9164074431888
 20
2013.499999999995
 30
0.0
 10
707.9071485762796
 20
2013.499999999995
 30
0.0
 10
707.816553090091
 20
2013.443202732112
 30
0.0
 10
707.4757182614596
 20
2013.215011148434
 30
0.0
 10
706.896066860191
 20
2012.858621561071
 30
0.0
 10
706.1319409933214
 20
2012.412284832842
 30
0.0
 10
705.2094455910655
 20
2011.911384602043
 30
0.0
 10
704.3120707098793
 20
2011.485902390137
 30
0.0
 10
703.5312101030599
 20
2011.167105717981
 30
0.0
 10
702.6953312778666
 20
2010.855567807948
 30
0.0
 10
701.9220175417253
 20
2010.62658410707
 30
0.0
 10
701.2373591132093
 20
2010.488967205709
 30
0.0
 10
700.899249510205
 20
2010.430300109483
 30
0.0
 10
700.6747022624911
 20
2010.397731218414
 30
0.0
 10
700.569774428726
 20
2010.383877640719
 30
0.0
  0
SPLINE
  5
FD
330
87
100
AcDbEntity
  8
P-SANR-FIXT
100
AcDbSpline
210
0.0
220
0.0
230
1.0
 70
     8
 71
     3
 72
     8
 73
     4
 74
     0
 42
0.000000001
 43
0.0000000001
 40
0.96764125999442
 40
0.96764125999442
 40
0.96764125999442
 40
0.96764125999442
 40
1.0
 40
1.0
 40
1.0
 40
1.0
 10
690.8880321639716
 20
2013.204030959951
 30
0.0
 10
690.7980228423475
 20
2013.260044945727
 30
0.0
 10
690.7181528692953
 20
2013.309326344811
 30
0.0
 10
690.6480449244885
 20
2013.351029922813
 30
0.0
  0
LINE
  5
FE
330
87
100
AcDbEntity
  8
P-SANR-FIXT
100
AcDbLine
 10
690.4164074431888
 20
2009.670947167104
 30
0.0
 11
690.4164074431888
 21
2013.351029922813
 31
0.0
  0
LINE
  5
FF
330
87
100
AcDbEntity
  8
P-SANR-FIXT
100
AcDbLine
 10
711.1664074431888
 20
1986.499999999995
 30
0.0
 11
711.1664074431887
 21
2013.499999999995
 31
0.0
  0
LINE
  5
100
330
87
100
AcDbEntity
  8
P-SANR-FIXT
100
AcDbLine
 10
719.6664074431887
 20
1984.499999999995
 30
0.0
 11
719.6664074431886
 21
2015.499999999995
 31
0.0
  0
SPLINE
  5
101
330
87
100
AcDbEntity
  8
P-SANR-FIXT
100
AcDbSpline
210
0.0
220
0.0
230
1.0
 70
     8
 71
     3
 72
     9
 73
     5
 74
     0
 42
0.000000001
 43
0.0000000001
 40
-1.0
 40
-1.0
 40
-1.0
 40
-1.0
 40
-0.5
 40
0.0
 40
0.0
 40
0.0
 40
0.0
 10
720.821107981568
 20
1982.546063314792
 30
0.0
 10
720.1475729963245
 20
1983.836558823183
 30
0.0
 10
719.4740380110811
 20
1986.398399856774
 30
0.0
 10
720.1475729963245
 20
1988.921940923981
 30
0.0
 10
720.8211079815679
 20
1990.174136465988
 30
0.0
  0
SPLINE
  5
102
330
87
100
AcDbEntity
  8
P-SANR-FIXT
100
AcDbSpline
210
0.0
220
0.0
230
1.0
 70
     8
 71
     3
 72
     9
 73
     5
 74
     0
 42
0.000000001
 43
0.0000000001
 40
-1.0
 40
-1.0
 40
-1.0
 40
-1.0
 40
-0.5
 40
0.0
 40
0.0
 40
0.0
 40
0.0
 10
720.8211079815679
 20
1992.371926848799
 30
0.0
 10
720.1475729963245
 20
1994.952917865581
 30
0.0
 10
719.4740380110811
 20
2000.076599932762
 30
0.0
 10
720.1475729963244
 20
2005.123682067176
 30
0.0
 10
720.8211079815679
 20
2007.628073151191
 30
0.0
  0
SPLINE
  5
103
330
87
100
AcDbEntity
  8
P-SANR-FIXT
100
AcDbSpline
210
0.0
220
0.0
230
1.0
 70
     8
 71
     3
 72
     9
 73
     5
 74
     0
 42
0.000000001
 43
0.0000000001
 40
-1.0
 40
-1.0
 40
-1.0
 40
-1.0
 40
-0.5
 40
0.0
 40
0.0
 40
0.0
 40
0.0
 10
720.8211079815679
 20
2009.825863534002
 30
0.0
 10
720.1475729963245
 20
2011.116359042393
 30
0.0
 10
719.4740380110811
 20
2013.678200075984
 30
0.0
 10
720.1475729963244
 20
2016.20174114319
 30
0.0
 10
720.8211079815679
 20
2017.453936685198
 30
0.0
  0
LINE
  5
104
330
87
100
AcDbEntity
  8
P-SANR-FIXT
100
AcDbLine
 10
720.8211079815679
 20
1990.174136465988
 30
0.0
 11
720.8211079815679
 21
1992.371926848799
 31
0.0
  0
LINE
  5
105
330
87
100
AcDbEntity
  8
P-SANR-FIXT
100
AcDbLine
 10
720.8211079815679
 20
1990.174136465988
 30
0.0
 11
732.0117069048095
 21
1990.174136465988
 31
0.0
  0
LINE
  5
106
330
87
100
AcDbEntity
  8
P-SANR-FIXT
100
AcDbLine
 10
732.0117069048095
 20
1992.371926848799
 30
0.0
 11
720.8211079815679
 21
1992.371926848799
 31
0.0
  0
LINE
  5
107
330
87
100
AcDbEntity
  8
P-SANR-FIXT
100
AcDbLine
 10
720.8211079815679
 20
2007.628073151191
 30
0.0
 11
720.8211079815679
 21
2009.825863534002
 31
0.0
  0
LINE
  5
108
330
87
100
AcDbEntity
  8
P-SANR-FIXT
100
AcDbLine
 10
720.8211079815679
 20
2007.628073151191
 30
0.0
 11
732.0117069048095
 21
2007.628073151191
 31
0.0
  0
LINE
  5
109
330
87
100
AcDbEntity
  8
P-SANR-FIXT
100
AcDbLine
 10
732.0117069048095
 20
2009.825863534002
 30
0.0
 11
720.8211079815679
 21
2009.825863534002
 31
0.0
  0
LINE
  5
10A
330
87
100
AcDbEntity
  8
P-SANR-FIXT
100
AcDbLine
 10
720.8211079815679
 20
2017.453936685198
 30
0.0
 11
720.8211079815679
 21
2017.499999999995
 31
0.0
  0
LINE
  5
10B
330
87
100
AcDbEntity
  8
P-SANR-FIXT
100
AcDbLine
 10
720.8211079815679
 20
2017.453936685198
 30
0.0
 11
732.0117069048095
 21
2017.453936685198
 31
0.0
  0
LINE
  5
10C
330
87
100
AcDbEntity
  8
P-SANR-FIXT
100
AcDbLine
 10
732.0117069048096
 20
1982.546063314792
 30
0.0
 11
720.821107981568
 21
1982.546063314792
 31
0.0
  0
LINE
  5
10D
330
87
100
AcDbEntity
  8
P-SANR-FIXT
100
AcDbLine
 10
720.821107981568
 20
1982.499999999995
 30
0.0
 11
720.821107981568
 21
1982.546063314792
 31
0.0
  0
LINE
  5
10E
330
87
100
AcDbEntity
  8
P-SANR-FIXT
100
AcDbLine
 10
732.0117069048095
 20
2017.453936685198
 30
0.0
 11
732.0117069048095
 21
2017.499999999995
 31
0.0
  0
SPLINE
  5
10F
330
87
100
AcDbEntity
  8
P-SANR-FIXT
100
AcDbSpline
210
0.0
220
0.0
230
1.0
 70
     8
 71
     3
 72
     9
 73
     5
 74
     0
 42
0.000000001
 43
0.0000000001
 40
-1.0
 40
-1.0
 40
-1.0
 40
-1.0
 40
-0.5
 40
0.0
 40
0.0
 40
0.0
 40
0.0
 10
732.0117069048095
 20
2017.453936685198
 30
0.0
 10
732.6852418900529
 20
2016.20174114319
 30
0.0
 10
733.3587768752964
 20
2013.678200075984
 30
0.0
 10
732.6852418900529
 20
2011.116359042393
 30
0.0
 10
732.0117069048095
 20
2009.825863534002
 30
0.0
  0
LINE
  5
110
330
87
100
AcDbEntity
  8
P-SANR-FIXT
100
AcDbLine
 10
732.0117069048095
 20
2007.628073151191
 30
0.0
 11
732.0117069048095
 21
2009.825863534002
 31
0.0
  0
SPLINE
  5
111
330
87
100
AcDbEntity
  8
P-SANR-FIXT
100
AcDbSpline
210
0.0
220
0.0
230
1.0
 70
     8
 71
     3
 72
     9
 73
     5
 74
     0
 42
0.000000001
 43
0.0000000001
 40
-1.0
 40
-1.0
 40
-1.0
 40
-1.0
 40
-0.5
 40
0.0
 40
0.0
 40
0.0
 40
0.0
 10
732.0117069048095
 20
2007.628073151191
 30
0.0
 10
732.6852418900529
 20
2005.123682067176
 30
0.0
 10
733.3587768752964
 20
2000.076599932762
 30
0.0
 10
732.6852418900529
 20
1994.952917865581
 30
0.0
 10
732.0117069048095
 20
1992.371926848799
 30
0.0
  0
LINE
  5
112
330
87
100
AcDbEntity
  8
P-SANR-FIXT
100
AcDbLine
 10
732.0117069048095
 20
1990.174136465988
 30
0.0
 11
732.0117069048095
 21
1992.371926848799
 31
0.0
  0
SPLINE
  5
113
330
87
100
AcDbEntity
  8
P-SANR-FIXT
100
AcDbSpline
210
0.0
220
0.0
230
1.0
 70
     8
 71
     3
 72
     9
 73
     5
 74
     0
 42
0.000000001
 43
0.0000000001
 40
-1.0
 40
-1.0
 40
-1.0
 40
-1.0
 40
-0.5
 40
0.0
 40
0.0
 40
0.0
 40
0.0
 10
732.0117069048095
 20
1990.174136465988
 30
0.0
 10
732.6852418900529
 20
1988.921940923981
 30
0.0
 10
733.3587768752965
 20
1986.398399856774
 30
0.0
 10
732.6852418900529
 20
1983.836558823183
 30
0.0
 10
732.0117069048096
 20
1982.546063314792
 30
0.0
  0
LINE
  5
114
330
87
100
AcDbEntity
  8
P-SANR-FIXT
100
AcDbLine
 10
732.0117069048096
 20
1982.499999999995
 30
0.0
 11
732.0117069048096
 21
1982.546063314792
 31
0.0
  0
LINE
  5
115
330
87
100
AcDbEntity
  8
P-SANR-FIXT
100
AcDbLine
 10
690.6480449244885
 20
2013.599999999995
 30
0.0
 11
690.6480449244885
 21
2013.351029922813
 31
0.0
  0
LINE
  5
116
330
87
100
AcDbEntity
  8
P-SANR-FIXT
100
AcDbLine
 10
647.1664074431887
 20
2024.499999999996
 30
0.0
 11
671.1664074431887
 21
2024.499999999996
 31
0.0
  0
LINE
  5
117
330
87
100
AcDbEntity
  8
P-SANR-FIXT
100
AcDbLine
 10
671.6664074431887
 20
2023.999999999995
 30
0.0
 11
646.6664074431887
 21
2023.999999999995
 31
0.0
  0
LINE
  5
118
330
87
100
AcDbEntity
  8
P-SANR-FIXT
100
AcDbLine
 10
649.9921149379609
 20
2012.967946752333
 30
0.0
 11
668.3406999484165
 21
2012.967946752333
 31
0.0
  0
LINE
  5
119
330
87
100
AcDbEntity
  8
P-SANR-FIXT
100
AcDbLine
 10
690.6480449244885
 20
2013.599999999995
 30
0.0
 11
677.9613653967251
 21
2013.599999999995
 31
0.0
  0
LINE
  5
11A
330
87
100
AcDbEntity
  8
P-SANR-FIXT
100
AcDbLine
 10
708.1664074431919
 20
2024.500000000003
 30
0.0
 11
690.1664074431851
 21
2024.500000000003
 31
0.0
  0
LINE
  5
11B
330
87
100
AcDbEntity
  8
P-SANR-FIXT
100
AcDbLine
 10
707.1664074432078
 20
2026.499999999998
 30
0.0
 11
708.1664074431919
 21
2026.499999999998
 31
0.0
  0
LINE
  5
11C
330
87
100
AcDbEntity
  8
P-SANR-FIXT
100
AcDbLine
 10
699.5956932289527
 20
2026.499999999998
 30
0.0
 11
706.7371216574433
 21
2026.499999999998
 31
0.0
  0
LINE
  5
11D
330
87
100
AcDbEntity
  8
P-SANR-FIXT
100
AcDbLine
 10
691.5956932289333
 20
2026.499999999998
 30
0.0
 11
698.7371216574238
 21
2026.499999999998
 31
0.0
  0
LINE
  5
11E
330
87
100
AcDbEntity
  8
P-SANR-FIXT
100
AcDbLine
 10
690.1664074431851
 20
2026.499999999998
 30
0.0
 11
691.166407443169
 21
2026.499999999998
 31
0.0
  0
LINE
  5
11F
330
87
100
AcDbEntity
  8
P-SANR-FIXT
100
AcDbLine
 10
706.7371216574444
 20
2030.000000000002
 30
0.0
 11
707.1664074432078
 21
2030.000000000002
 31
0.0
  0
LINE
  5
120
330
87
100
AcDbEntity
  8
P-SANR-FIXT
100
AcDbLine
 10
691.166407443169
 20
2030.000000000002
 30
0.0
 11
691.5956932289339
 21
2030.000000000002
 31
0.0
  0
LINE
  5
121
330
87
100
AcDbEntity
  8
P-SANR-FIXT
100
AcDbLine
 10
691.5956932289339
 20
2030.000000000002
 30
0.0
 11
698.7371216574244
 21
2030.000000000002
 31
0.0
  0
LINE
  5
122
330
87
100
AcDbEntity
  8
P-SANR-FIXT
100
AcDbLine
 10
698.7371216574244
 20
2030.000000000002
 30
0.0
 11
699.5956932289524
 21
2030.000000000002
 31
0.0
  0
LINE
  5
123
330
87
100
AcDbEntity
  8
P-SANR-FIXT
100
AcDbLine
 10
699.5956932289524
 20
2030.000000000002
 30
0.0
 11
706.7371216574444
 21
2030.000000000002
 31
0.0
  0
LINE
  5
124
330
87
100
AcDbEntity
  8
P-SANR-FIXT
100
AcDbLine
 10
706.7371216574444
 20
2030.000000000002
 30
0.0
 11
706.7371216574444
 21
2026.499999999994
 31
0.0
  0
LINE
  5
125
330
87
100
AcDbEntity
  8
P-SANR-FIXT
100
AcDbLine
 10
707.1664074432078
 20
2026.499999999994
 30
0.0
 11
707.1664074432078
 21
2030.000000000002
 31
0.0
  0
LINE
  5
126
330
87
100
AcDbEntity
  8
P-SANR-FIXT
100
AcDbLine
 10
691.166407443169
 20
2026.499999999994
 30
0.0
 11
691.166407443169
 21
2030.000000000002
 31
0.0
  0
LINE
  5
127
330
87
100
AcDbEntity
  8
P-SANR-FIXT
100
AcDbLine
 10
691.5956932289339
 20
2026.499999999994
 30
0.0
 11
691.5956932289339
 21
2030.000000000002
 31
0.0
  0
LINE
  5
128
330
87
100
AcDbEntity
  8
P-SANR-FIXT
100
AcDbLine
 10
698.7371216574244
 20
2026.499999999994
 30
0.0
 11
698.7371216574244
 21
2030.000000000002
 31
0.0
  0
LINE
  5
129
330
87
100
AcDbEntity
  8
P-SANR-FIXT
100
AcDbLine
 10
699.5956932289524
 20
2026.499999999994
 30
0.0
 11
699.5956932289524
 21
2030.000000000002
 31
0.0
  0
LINE
  5
12A
330
87
100
AcDbEntity
  8
P-SANR-FIXT
100
AcDbLine
 10
667.1664074432076
 20
2026.499999999998
 30
0.0
 11
668.1664074431918
 21
2026.499999999998
 31
0.0
  0
LINE
  5
12B
330
87
100
AcDbEntity
  8
P-SANR-FIXT
100
AcDbLine
 10
659.5956932289525
 20
2026.499999999998
 30
0.0
 11
666.7371216574432
 21
2026.499999999998
 31
0.0
  0
LINE
  5
12C
330
87
100
AcDbEntity
  8
P-SANR-FIXT
100
AcDbLine
 10
651.5956932289332
 20
2026.499999999998
 30
0.0
 11
658.7371216574236
 21
2026.499999999998
 31
0.0
  0
LINE
  5
12D
330
87
100
AcDbEntity
  8
P-SANR-FIXT
100
AcDbLine
 10
650.1664074431849
 20
2026.499999999998
 30
0.0
 11
651.1664074431688
 21
2026.499999999998
 31
0.0
  0
LINE
  5
12E
330
87
100
AcDbEntity
  8
P-SANR-FIXT
100
AcDbLine
 10
650.1664170063427
 20
2026.499999999998
 30
0.0
 11
650.1664074431849
 21
2026.499999999998
 31
0.0
  0
LINE
  5
12F
330
87
100
AcDbEntity
  8
P-SANR-FIXT
100
AcDbLine
 10
666.737121657444
 20
2030.000000000002
 30
0.0
 11
667.1664074432077
 21
2030.000000000002
 31
0.0
  0
LINE
  5
130
330
87
100
AcDbEntity
  8
P-SANR-FIXT
100
AcDbLine
 10
651.1664074431688
 20
2030.000000000002
 30
0.0
 11
651.5956932289338
 21
2030.000000000002
 31
0.0
  0
LINE
  5
131
330
87
100
AcDbEntity
  8
P-SANR-FIXT
100
AcDbLine
 10
651.5956932289338
 20
2030.000000000002
 30
0.0
 11
658.7371216574243
 21
2030.000000000002
 31
0.0
  0
LINE
  5
132
330
87
100
AcDbEntity
  8
P-SANR-FIXT
100
AcDbLine
 10
658.7371216574243
 20
2030.000000000002
 30
0.0
 11
659.5956932289522
 21
2030.000000000002
 31
0.0
  0
LINE
  5
133
330
87
100
AcDbEntity
  8
P-SANR-FIXT
100
AcDbLine
 10
659.5956932289522
 20
2030.000000000002
 30
0.0
 11
666.737121657444
 21
2030.000000000002
 31
0.0
  0
LINE
  5
134
330
87
100
AcDbEntity
  8
P-SANR-FIXT
100
AcDbLine
 10
666.737121657444
 20
2030.000000000002
 30
0.0
 11
666.737121657444
 21
2026.499999999994
 31
0.0
  0
LINE
  5
135
330
87
100
AcDbEntity
  8
P-SANR-FIXT
100
AcDbLine
 10
667.1664074432077
 20
2026.499999999994
 30
0.0
 11
667.1664074432077
 21
2030.000000000002
 31
0.0
  0
LINE
  5
136
330
87
100
AcDbEntity
  8
P-SANR-FIXT
100
AcDbLine
 10
651.1664074431688
 20
2026.499999999994
 30
0.0
 11
651.1664074431688
 21
2030.000000000002
 31
0.0
  0
LINE
  5
137
330
87
100
AcDbEntity
  8
P-SANR-FIXT
100
AcDbLine
 10
651.5956932289338
 20
2026.499999999994
 30
0.0
 11
651.5956932289338
 21
2030.000000000002
 31
0.0
  0
LINE
  5
138
330
87
100
AcDbEntity
  8
P-SANR-FIXT
100
AcDbLine
 10
658.7371216574243
 20
2026.499999999994
 30
0.0
 11
658.7371216574243
 21
2030.000000000002
 31
0.0
  0
LINE
  5
139
330
87
100
AcDbEntity
  8
P-SANR-FIXT
100
AcDbLine
 10
659.5956932289522
 20
2026.499999999994
 30
0.0
 11
659.5956932289522
 21
2030.000000000002
 31
0.0
  0
ENDBLK
  5
13B
330
87
100
AcDbEntity
  8
0
100
AcDbBlockEnd
  0
BLOCK
  5
21B
330
13D
100
AcDbEntity
  8
0
100
AcDbBlockBegin
  2
Automatic flow rate regulator valve_Caleffi_121 DN15 - 1_2__-V1-Est - Idraulica
 70
     0
 10
0.0
 20
0.0
 30
0.0
  3
Automatic flow rate regulator valve_Caleffi_121 DN15 - 1_2__-V1-Est - Idraulica
  1

  0
LINE
  5
13E
330
13D
100
AcDbEntity
  8
P-SANR-FIXT
100
AcDbLine
 10
679.2888488825818
 20
1787.245878730053
 30
0.0
 11
686.6612172811828
 21
1787.245878730053
 31
0.0
  0
LINE
  5
13F
330
13D
100
AcDbEntity
  8
P-SANR-FIXT
100
AcDbLine
 10
686.6612172811828
 20
1825.245878730053
 30
0.0
 11
679.2888488825818
 21
1825.245878730053
 31
0.0
  0
LINE
  5
140
330
13D
100
AcDbEntity
  8
P-SANR-FIXT
100
AcDbLine
 10
662.2211718278309
 20
1788.495878730053
 30
0.0
 11
675.4330417787967
 21
1788.495878730053
 31
0.0
  0
LINE
  5
141
330
13D
100
AcDbEntity
  8
P-SANR-FIXT
100
AcDbLine
 10
675.4330417787963
 20
1823.995878730053
 30
0.0
 11
662.2211718278309
 21
1823.995878730053
 31
0.0
  0
LWPOLYLINE
  5
142
330
13D
100
AcDbEntity
  8
P-SANR-FIXT
100
AcDbPolyline
 90
       10
 70
   128
 43
0.0
 10
660.5186239996895
 20
1787.245878730053
 10
661.0010947706574
 20
1787.26270223901
 10
661.4821217101
 20
1787.313075568794
 10
661.9603046818593
 20
1787.396713832874
 10
662.4343256285857
 20
1787.513163414763
 10
662.9029774862236
 20
1787.661830039783
 10
663.3651814015614
 20
1787.84201166435
 10
663.8199921405764
 20
1788.052931767117
 10
664.2665933278233
 20
1788.293769387178
 10
664.5943331847321
 20
1788.495878730053
  0
LWPOLYLINE
  5
143
330
13D
100
AcDbEntity
  8
P-SANR-FIXT
100
AcDbPolyline
 90
       10
 70
   128
 43
0.0
 10
660.5186239996895
 20
1825.245878730053
 10
661.0010947706574
 20
1825.229055221096
 10
661.4821217100999
 20
1825.178681891312
 10
661.9603046818593
 20
1825.095043627231
 10
662.4343256285856
 20
1824.978594045343
 10
662.9029774862236
 20
1824.829927420323
 10
663.3651814015614
 20
1824.649745795756
 10
663.8199921405764
 20
1824.438825692989
 10
664.2665933278233
 20
1824.197988072928
 10
664.5943331847321
 20
1823.995878730053
  0
LINE
  5
144
330
13D
100
AcDbEntity
  8
P-SANR-FIXT
100
AcDbLine
 10
653.4855594874787
 20
1787.245878730053
 30
0.0
 11
660.5186239996895
 21
1787.245878730053
 31
0.0
  0
LINE
  5
145
330
13D
100
AcDbEntity
  8
P-SANR-FIXT
100
AcDbLine
 10
660.5186239996895
 20
1825.245878730053
 30
0.0
 11
653.4855594874787
 21
1825.245878730053
 31
0.0
  0
LWPOLYLINE
  5
146
330
13D
100
AcDbEntity
  8
P-SANR-FIXT
100
AcDbPolyline
 90
       16
 70
   128
 43
0.0
 10
703.0644284248247
 20
1789.495878730053
 10
703.5886289109871
 20
1789.514153550027
 10
704.1099748445546
 20
1789.568737924956
 10
704.6257403962426
 20
1789.658931631636
 10
705.1334412513889
 20
1789.783630940052
 10
705.6309190019478
 20
1789.941412417353
 10
706.1163904590018
 20
1790.130631020739
 10
706.5884615527128
 20
1790.349519233253
 10
707.0461107441821
 20
1790.596276279248
 10
707.4886500582676
 20
1790.869140263625
 10
707.9156727976598
 20
1791.166440162583
 10
708.3269961823693
 20
1791.486628009647
 10
708.7226053163727
 20
1791.828293907449
 10
709.1026027207182
 20
1792.190167622704
 10
709.4671656894177
 20
1792.571110724239
 10
709.620187737246
 20
1792.745878730053
  0
LWPOLYLINE
  5
147
330
13D
100
AcDbEntity
  8
P-SANR-FIXT
100
AcDbPolyline
 90
       16
 70
   128
 43
0.0
 10
703.0644284248247
 20
1822.995878730053
 10
703.5886289109871
 20
1822.977603910079
 10
704.1099748445543
 20
1822.92301953515
 10
704.6257403962426
 20
1822.83282582847
 10
705.1334412513889
 20
1822.708126520054
 10
705.6309190019478
 20
1822.550345042753
 10
706.1163904590018
 20
1822.361126439367
 10
706.5884615527128
 20
1822.142238226853
 10
707.0461107441821
 20
1821.895481180858
 10
707.4886500582676
 20
1821.622617196481
 10
707.9156727976598
 20
1821.325317297523
 10
708.3269961823693
 20
1821.005129450459
 10
708.7226053163727
 20
1820.663463552657
 10
709.1026027207182
 20
1820.301589837402
 10
709.4671656894177
 20
1819.920646735867
 10
709.6201877372463
 20
1819.745878730053
  0
LINE
  5
148
330
13D
100
AcDbEntity
  8
P-SANR-FIXT
100
AcDbLine
 10
688.5043093808331
 20
1789.495878730053
 30
0.0
 11
703.0644284248247
 21
1789.495878730053
 31
0.0
  0
LINE
  5
149
330
13D
100
AcDbEntity
  8
P-SANR-FIXT
100
AcDbLine
 10
703.0644284248246
 20
1822.995878730053
 30
0.0
 11
688.5043093808331
 21
1822.995878730053
 31
0.0
  0
LWPOLYLINE
  5
14A
330
13D
100
AcDbEntity
  8
P-SANR-FIXT
100
AcDbPolyline
 90
       15
 70
   128
 43
0.0
 10
651.0281033547032
 20
1787.745878730068
 10
650.5571010536311
 20
1787.762302292352
 10
650.0875242369787
 20
1787.811476421955
 10
649.6207547231502
 20
1787.893118150809
 10
649.1580923103969
 20
1788.006777056455
 10
648.7007258915436
 20
1788.151863328705
 10
648.2497162655073
 20
1788.327680651775
 10
647.8059907578358
 20
1788.533459486268
 10
647.3703480099686
 20
1788.768387096214
 10
646.9434702353906
 20
1789.031631935395
 10
646.5259399237497
 20
1789.322361368348
 10
646.1182582460424
 20
1789.63975283998
 10
645.7208630281026
 20
1789.982999369937
 10
645.3341448804161
 20
1790.351310623416
 10
644.958460733258
 20
1790.743910877505
  0
LWPOLYLINE
  5
14B
330
13D
100
AcDbEntity
  8
P-SANR-FIXT
100
AcDbPolyline
 90
       15
 70
   128
 43
0.0
 10
651.0281033547032
 20
1824.745878730038
 10
650.5571010536311
 20
1824.729455167753
 10
650.0875242369787
 20
1824.680281038151
 10
649.6207547231502
 20
1824.598639309297
 10
649.1580923103969
 20
1824.484980403651
 10
648.7007258915436
 20
1824.339894131401
 10
648.2497162655074
 20
1824.16407680833
 10
647.8059907578358
 20
1823.958297973837
 10
647.3703480099686
 20
1823.723370363892
 10
646.9434702353908
 20
1823.460125524711
 10
646.5259399237498
 20
1823.169396091758
 10
646.1182582460424
 20
1822.852004620126
 10
645.7208630281026
 20
1822.508758090169
 10
645.3341448804161
 20
1822.14044683669
 10
644.9584607332581
 20
1821.747846582601
  0
LINE
  5
14C
330
13D
100
AcDbEntity
  8
P-SANR-FIXT
100
AcDbLine
 10
651.028103354671
 20
1787.745878730053
 30
0.0
 11
651.0505277618344
 21
1787.745878730053
 31
0.0
  0
LINE
  5
14D
330
13D
100
AcDbEntity
  8
P-SANR-FIXT
100
AcDbLine
 10
651.0505277618343
 20
1824.745878730053
 30
0.0
 11
651.028103354671
 21
1824.745878730053
 31
0.0
  0
ELLIPSE
  5
14E
330
13D
100
AcDbEntity
  8
P-SANR-FIXT
100
AcDbEllipse
 10
686.6612172811817
 20
1806.245878730052
 30
0.0
 11
0.0
 21
18.99999999999985
 31
0.0
210
0.0
220
0.0
230
1.0
 40
0.5735764363510575
 41
2.271347842766229
 42
3.632466505713192
  0
ELLIPSE
  5
14F
330
13D
100
AcDbEntity
  8
P-SANR-FIXT
100
AcDbEllipse
 10
686.6612172811817
 20
1806.245878730052
 30
0.0
 11
0.0
 21
19.00000000000027
 31
0.0
210
0.0
220
0.0
230
1.0
 40
0.573576436351048
 41
5.792311455056191
 42
7.153430118003138
  0
ELLIPSE
  5
150
330
13D
100
AcDbEntity
  8
P-SANR-FIXT
100
AcDbEllipse
 10
679.2888488825807
 20
1806.245878730052
 30
0.0
 11
0.0
 21
18.9999999999999
 31
0.0
210
0.0
220
0.0
230
1.0
 40
0.5735764363510492
 41
2.526211219605458
 42
3.141592653589788
  0
ELLIPSE
  5
151
330
13D
100
AcDbEntity
  8
P-SANR-FIXT
100
AcDbEllipse
 10
679.2888488825807
 20
1806.245878730052
 30
0.0
 11
0.0
 21
19.0
 31
0.0
210
0.0
220
0.0
230
1.0
 40
0.5735764363510522
 41
0.0000000000000016
 42
0.6153814339843152
  0
ELLIPSE
  5
152
330
13D
100
AcDbEntity
  8
P-SANR-FIXT
100
AcDbEllipse
 10
678.2649088272195
 20
1806.245878730052
 30
0.0
 11
0.0
 21
17.75000000000004
 31
0.0
210
0.0
220
0.0
230
1.0
 40
0.5735764363510488
 41
1.633406659538586
 42
1.637085055085496
  0
ELLIPSE
  5
153
330
13D
100
AcDbEntity
  8
P-SANR-FIXT
100
AcDbEllipse
 10
678.2649088272195
 20
1806.245878730052
 30
0.0
 11
0.0
 21
17.74999999999991
 31
0.0
210
0.0
220
0.0
230
1.0
 40
0.5735764363510541
 41
1.504507598504266
 42
1.508185994051165
  0
ELLIPSE
  5
154
330
13D
100
AcDbEntity
  8
P-SANR-FIXT
100
AcDbEllipse
 10
653.4855594874775
 20
1806.245878730052
 30
0.0
 11
0.0
 21
18.9999999999999
 31
0.0
210
0.0
220
0.0
230
1.0
 40
0.5735764363510492
 41
2.526211219605458
 42
3.141592653589788
  0
ELLIPSE
  5
155
330
13D
100
AcDbEntity
  8
P-SANR-FIXT
100
AcDbEllipse
 10
653.4855594874775
 20
1806.245878730052
 30
0.0
 11
0.0
 21
19.0
 31
0.0
210
0.0
220
0.0
230
1.0
 40
0.5735764363510462
 41
0.0000000000000016
 42
0.6153814339843116
  0
ELLIPSE
  5
156
330
13D
100
AcDbEntity
  8
P-SANR-FIXT
100
AcDbEllipse
 10
688.504309380832
 20
1806.245878730052
 30
0.0
 11
0.0
 21
16.75
 31
0.0
210
0.0
220
0.0
230
1.0
 40
0.5735764363510484
 41
2.061670178918289
 42
3.141592653589788
  0
ELLIPSE
  5
157
330
13D
100
AcDbEntity
  8
P-SANR-FIXT
100
AcDbEllipse
 10
688.504309380832
 20
1806.245878730052
 30
0.0
 11
0.0
 21
16.7500000000002
 31
0.0
210
0.0
220
0.0
230
1.0
 40
0.5735764363510403
 41
0.0000000000000135
 42
1.082477192331981
  0
ELLIPSE
  5
158
330
13D
100
AcDbEntity
  8
P-SANR-FIXT
100
AcDbEllipse
 10
652.6664074432289
 20
1806.245878730052
 30
0.0
 11
0.0
 21
18.49999999999995
 31
0.0
210
0.0
220
0.0
230
1.0
 40
0.5735764363546307
 41
2.564936074802156
 42
2.819927156521826
  0
ELLIPSE
  5
159
330
13D
100
AcDbEntity
  8
P-SANR-FIXT
100
AcDbEllipse
 10
652.6664074432289
 20
1806.245878730052
 30
0.0
 11
0.0
 21
18.50000000000022
 31
0.0
210
0.0
220
0.0
230
1.0
 40
0.5735764363546191
 41
0.321665497067966
 42
0.5766565787876353
  0
LINE
  5
15A
330
13D
100
AcDbEntity
  8
P-SANR-FIXT
100
AcDbLine
 10
627.1664074431897
 20
1790.745878730053
 30
0.0
 11
627.310871573692
 21
1790.495659516151
 31
0.0
  0
LINE
  5
15B
330
13D
100
AcDbEntity
  8
P-SANR-FIXT
100
AcDbLine
 10
627.310871573692
 20
1821.996097943954
 30
0.0
 11
627.1664074431897
 21
1821.745878730053
 31
0.0
  0
LINE
  5
15C
330
13D
100
AcDbEntity
  8
P-SANR-FIXT
100
AcDbLine
 10
640.5219433126876
 20
1790.495659516151
 30
0.0
 11
640.6664074431899
 21
1790.745878730053
 31
0.0
  0
LINE
  5
15D
330
13D
100
AcDbEntity
  8
P-SANR-FIXT
100
AcDbLine
 10
640.6664074431899
 20
1821.745878730053
 30
0.0
 11
640.5219433126876
 21
1821.996097943954
 31
0.0
  0
LINE
  5
15E
330
13D
100
AcDbEntity
  8
P-SANR-FIXT
100
AcDbLine
 10
640.6664074431899
 20
1790.745878730053
 30
0.0
 11
675.232481824862
 21
1790.745878730053
 31
0.0
  0
LINE
  5
15F
330
13D
100
AcDbEntity
  8
P-SANR-FIXT
100
AcDbLine
 10
675.232481824862
 20
1821.745878730053
 30
0.0
 11
640.6664074431899
 21
1821.745878730053
 31
0.0
  0
LWPOLYLINE
  5
160
330
13D
100
AcDbEntity
  8
P-SANR-FIXT
100
AcDbPolyline
 90
       35
 70
   128
 43
0.0
 10
678.1555920192178
 20
1793.071025567021
 10
678.1262669141806
 20
1792.954672147145
 10
678.0923123703084
 20
1792.839584489019
 10
678.0537827076283
 20
1792.725946708347
 10
678.0107395653812
 20
1792.613940601335
 10
677.9632518034127
 20
1792.503745353862
 10
677.9113953920116
 20
1792.395537254817
 10
677.8552532903741
 20
1792.289489414075
 10
677.7949153138864
 20
1792.185771485558
 10
677.73047799044
 20
1792.084549395827
 10
677.6620444060057
 20
1791.985985078634
 10
677.5897240397208
 20
1791.890236215858
 10
677.5136325887436
 20
1791.797455985256
 10
677.4338917831638
 20
1791.707792815404
 10
677.3506291912597
 20
1791.621390148247
 10
677.2639780154166
 20
1791.538386209621
 10
677.1740768790315
 20
1791.458913788121
 10
677.0810696047446
 20
1791.383100022668
 10
676.9851049843542
 20
1791.311066199115
 10
676.8863365407817
 20
1791.242927556212
 10
676.7849222824672
 20
1791.178793101253
 10
676.6810244505901
 20
1791.118765435684
 10
676.574809259518
 20
1791.062940590966
 10
676.4664466308982
 20
1791.01140787494
 10
676.3561099218203
 20
1790.964249728959
 10
676.2439756474821
 20
1790.921541595998
 10
676.1302231988016
 20
1790.883351799958
 10
676.0150345554306
 20
1790.849741436367
 10
675.8985939946263
 20
1790.820764274636
 10
675.7810877964467
 20
1790.796466672042
 10
675.6627039457424
 20
1790.776887499567
 10
675.5436318314206
 20
1790.762058079709
 10
675.4240619434634
 20
1790.752002136378
 10
675.3041855681847
 20
1790.746735756936
 10
675.232481824862
 20
1790.745878730053
  0
LWPOLYLINE
  5
161
330
13D
100
AcDbEntity
  8
P-SANR-FIXT
100
AcDbPolyline
 90
       35
 70
   128
 43
0.0
 10
675.232481824862
 20
1821.745878730053
 10
675.3524498274219
 20
1821.743479050036
 10
675.4722259067695
 20
1821.736283848961
 10
675.5916184467288
 20
1821.724304637615
 10
675.7104364447047
 20
1821.70756058018
 10
675.8284898172473
 20
1821.686078463576
 10
675.9455897041434
 20
1821.659892654609
 10
676.0615487705543
 20
1821.629045044986
 10
676.1761815067104
 20
1821.5935849843
 10
676.2893045246872
 20
1821.553569201087
 10
676.400736851788
 20
1821.509061712061
 10
676.51030022006
 20
1821.460133719713
 10
676.6178193514864
 20
1821.406863498391
 10
676.7231222383932
 20
1821.349336269086
 10
676.8260404186248
 20
1821.287644063093
 10
676.9264092450471
 20
1821.221885574782
 10
677.0240681489491
 20
1821.152166003706
 10
677.1188608969175
 20
1821.078596886305
 10
677.2106358407766
 20
1821.001295917475
 10
677.2992461601937
 20
1820.920386762276
 10
677.3845500975607
 20
1820.835998858094
 10
677.4664111847746
 20
1820.748267207577
 10
677.544698461559
 20
1820.657332162649
 10
677.6192866849712
 20
1820.563339199983
 10
677.6900565297649
 20
1820.46643868827
 10
677.7568947792858
 20
1820.366785647657
 10
677.819694506592
 20
1820.264539501751
 10
677.8783552455169
 20
1820.159863822574
 10
677.9327831513914
 20
1820.052926068883
 10
677.9828911511773
 20
1819.943897318272
 10
678.0285990827636
 20
1819.832951993483
 10
678.0698338232106
 20
1819.720267583369
 10
678.1065294057297
 20
1819.606024358949
 10
678.1386271252168
 20
1819.49040508501
 10
678.1555920192178
 20
1819.420731893085
  0
LINE
  5
162
330
13D
100
AcDbEntity
  8
P-SANR-FIXT
100
AcDbLine
 10
678.1555920192178
 20
1793.071025567021
 30
0.0
 11
678.3118524853136
 21
1793.74786400602
 31
0.0
  0
LINE
  5
163
330
13D
100
AcDbEntity
  8
P-SANR-FIXT
100
AcDbLine
 10
678.3118524853136
 20
1818.743893454086
 30
0.0
 11
678.1555920192178
 21
1819.420731893085
 31
0.0
  0
LWPOLYLINE
  5
164
330
13D
100
AcDbEntity
  8
P-SANR-FIXT
100
AcDbPolyline
 90
        4
 70
   128
 43
0.0
 10
678.8664027142438
 20
1796.097785817315
 10
678.8552502864458
 20
1796.064318606791
 10
678.8218982553278
 20
1795.949054899915
 10
678.7966725258186
 20
1795.847850314837
  0
LWPOLYLINE
  5
165
330
13D
100
AcDbEntity
  8
P-SANR-FIXT
100
AcDbPolyline
 90
        3
 70
   128
 43
0.0
 10
678.7966725258186
 20
1816.643907145269
 10
678.8259976308555
 20
1816.527553725393
 10
678.8599521747276
 20
1816.412466067267
  0
LINE
  5
166
330
13D
100
AcDbEntity
  8
P-SANR-FIXT
100
AcDbLine
 10
707.2536721174384
 20
1792.745878730053
 30
0.0
 11
707.9164074431901
 21
1792.745878730053
 31
0.0
  0
LINE
  5
167
330
13D
100
AcDbEntity
  8
P-SANR-FIXT
100
AcDbLine
 10
707.9164074431901
 20
1819.745878730053
 30
0.0
 11
707.2536721174384
 21
1819.745878730053
 31
0.0
  0
LINE
  5
168
330
13D
100
AcDbEntity
  8
P-SANR-FIXT
100
AcDbLine
 10
707.9164074431901
 20
1792.745878730053
 30
0.0
 11
711.1664074431899
 21
1792.745878730053
 31
0.0
  0
LINE
  5
169
330
13D
100
AcDbEntity
  8
P-SANR-FIXT
100
AcDbLine
 10
711.1664074431899
 20
1819.745878730053
 30
0.0
 11
707.9164074431901
 21
1819.745878730053
 31
0.0
  0
LINE
  5
16A
330
13D
100
AcDbEntity
  8
P-SANR-FIXT
100
AcDbLine
 10
711.1664074431899
 20
1792.745878730053
 30
0.0
 11
712.8735142243765
 21
1791.038771948866
 31
0.0
  0
LINE
  5
16B
330
13D
100
AcDbEntity
  8
P-SANR-FIXT
100
AcDbLine
 10
712.8735142243765
 20
1821.452985511239
 30
0.0
 11
711.1664074431899
 21
1819.745878730053
 31
0.0
  0
LWPOLYLINE
  5
16C
330
13D
100
AcDbEntity
  8
P-SANR-FIXT
100
AcDbPolyline
 90
       21
 70
   128
 43
0.0
 10
713.580621005563
 20
1790.745878730053
 10
713.5406316713764
 20
1790.746678623392
 10
713.500706311594
 20
1790.74907702375
 10
713.4609087982741
 20
1790.753070094199
 10
713.4213027989487
 20
1790.758651446677
 10
713.381951674768
 20
1790.765812152212
 10
713.342918379136
 20
1790.774540755201
 10
713.3042653569989
 20
1790.784823291742
 10
713.266054444947
 20
1790.79664331197
 10
713.2283467722878
 20
1790.809981906375
 10
713.1912026632543
 20
1790.82481773605
 10
713.1546815404971
 20
1790.841127066833
 10
713.1188418300215
 20
1790.858883807274
 10
713.0837408677193
 20
1790.878059550375
 10
713.0494348076423
 20
1790.89862361904
 10
713.015978532168
 20
1790.920543115143
 10
712.9834255642006
 20
1790.943782972169
 10
712.9518279815446
 20
1790.968306011302
 10
712.9212363335915
 20
1790.994073000912
 10
712.8916995604523
 20
1791.021042719312
 10
712.8735142243765
 20
1791.038771948866
  0
LWPOLYLINE
  5
16D
330
13D
100
AcDbEntity
  8
P-SANR-FIXT
100
AcDbPolyline
 90
       21
 70
   128
 43
0.0
 10
712.8735142243765
 20
1821.452985511239
 10
712.9023565637591
 20
1821.480696630614
 10
712.9322839815602
 20
1821.5072321981
 10
712.963248600295
 20
1821.532549762451
 10
712.9952008831793
 20
1821.556608820964
 10
713.0280897133761
 20
1821.579370884278
 10
713.0618624757736
 20
1821.600799537947
 10
713.0964651411561
 20
1821.620860500697
 10
713.1318423526407
 20
1821.639521679268
 10
713.1679375142355
 20
1821.656753219752
 10
713.204692881382
 20
1821.672527555364
 10
713.2420496533335
 20
1821.686819450529
 10
713.2799480672238
 20
1821.699606041264
 10
713.3183274936754
 20
1821.710866871753
 10
713.3571265337931
 20
1821.720583927068
 10
713.3962831173893
 20
1821.728741661994
 10
713.4357346022831
 20
1821.735327025895
 10
713.4754178745149
 20
1821.740329483594
 10
713.5152694493141
 20
1821.743741032225
 10
713.5552255726625
 20
1821.745556214039
 10
713.580621005563
 20
1821.745878730053
  0
LINE
  5
16E
330
13D
100
AcDbEntity
  8
P-SANR-FIXT
100
AcDbLine
 10
713.580621005563
 20
1790.745878730053
 30
0.0
 11
719.6664074431899
 21
1790.745878730053
 31
0.0
  0
LINE
  5
16F
330
13D
100
AcDbEntity
  8
P-SANR-FIXT
100
AcDbLine
 10
719.6664074431899
 20
1821.745878730053
 30
0.0
 11
713.580621005563
 21
1821.745878730053
 31
0.0
  0
LINE
  5
170
330
13D
100
AcDbEntity
  8
P-SANR-FIXT
100
AcDbLine
 10
719.6664074431899
 20
1790.745878730053
 30
0.0
 11
719.8108715736922
 21
1790.495659516151
 31
0.0
  0
LINE
  5
171
330
13D
100
AcDbEntity
  8
P-SANR-FIXT
100
AcDbLine
 10
719.8108715736922
 20
1821.996097943954
 30
0.0
 11
719.6664074431899
 21
1821.745878730053
 31
0.0
  0
LINE
  5
172
330
13D
100
AcDbEntity
  8
P-SANR-FIXT
100
AcDbLine
 10
733.0219433126877
 20
1790.495659516151
 30
0.0
 11
733.1664074431898
 21
1790.745878730053
 31
0.0
  0
LINE
  5
173
330
13D
100
AcDbEntity
  8
P-SANR-FIXT
100
AcDbLine
 10
733.1664074431898
 20
1821.745878730053
 30
0.0
 11
733.0219433126877
 21
1821.996097943954
 31
0.0
  0
LINE
  5
174
330
13D
100
AcDbEntity
  8
P-SANR-FIXT
100
AcDbLine
 10
677.9613653967252
 20
1808.245878730051
 30
0.0
 11
690.4003281739155
 21
1808.245878730051
 31
0.0
  0
LINE
  5
175
330
13D
100
AcDbEntity
  8
P-SANR-FIXT
100
AcDbLine
 10
733.1664074431887
 20
1806.245878730052
 30
0.0
 11
733.1664074431887
 21
1790.745878730052
 31
0.0
  0
LINE
  5
176
330
13D
100
AcDbEntity
  8
P-SANR-FIXT
100
AcDbLine
 10
733.1664074431887
 20
1821.745878730052
 30
0.0
 11
733.1664074431887
 21
1806.245878730052
 31
0.0
  0
LINE
  5
177
330
13D
100
AcDbEntity
  8
P-SANR-FIXT
100
AcDbLine
 10
627.1664074431887
 20
1790.745878730052
 30
0.0
 11
627.1664074431887
 21
1806.245878730052
 31
0.0
  0
SPLINE
  5
178
330
13D
100
AcDbEntity
  8
P-SANR-FIXT
100
AcDbSpline
210
0.0
220
0.0
230
1.0
 70
    24
 71
     3
 72
     9
 73
     5
 74
     0
 42
0.000000001
 43
0.0000000001
 40
-0.5040433972373397
 40
-0.5040433972373397
 40
-0.5040433972373397
 40
-0.5040433972373397
 40
-0.5
 40
0.0
 40
0.0
 40
0.0
 40
0.0
 10
627.3108715736911
 20
1790.495878730052
 30
0.0
 10
627.3108275270321
 20
1790.495878730052
 30
0.0
 10
627.3080821342023
 20
1790.495878730052
 30
0.0
 10
627.6475729965631
 20
1790.495878730098
 30
0.0
 10
628.321107981568
 20
1790.495878730052
 30
0.0
  0
SPLINE
  5
179
330
13D
100
AcDbEntity
  8
P-SANR-FIXT
100
AcDbSpline
210
0.0
220
0.0
230
1.0
 70
     8
 71
     3
 72
     9
 73
     5
 74
     0
 42
0.000000001
 43
0.0000000001
 40
-1.0
 40
-1.0
 40
-1.0
 40
-1.0
 40
-0.5
 40
0.0
 40
0.0
 40
0.0
 40
0.0
 10
628.321107981568
 20
1791.764773599191
 30
0.0
 10
627.6475729963245
 20
1793.999977386664
 30
0.0
 10
626.9740380110812
 20
1798.437216217757
 30
0.0
 10
627.6475729963245
 20
1802.808117561145
 30
0.0
 10
628.3211079815678
 20
1804.976983860913
 30
0.0
  0
LINE
  5
17A
330
13D
100
AcDbEntity
  8
P-SANR-FIXT
100
AcDbLine
 10
627.1664074431887
 20
1806.245878730052
 30
0.0
 11
627.1664074431887
 21
1821.745878730052
 31
0.0
  0
SPLINE
  5
17B
330
13D
100
AcDbEntity
  8
P-SANR-FIXT
100
AcDbSpline
210
0.0
220
0.0
230
1.0
 70
     8
 71
     3
 72
     9
 73
     5
 74
     0
 42
0.000000001
 43
0.0000000001
 40
-1.0
 40
-1.0
 40
-1.0
 40
-1.0
 40
-0.5
 40
0.0
 40
0.0
 40
0.0
 40
0.0
 10
628.321107981568
 20
1807.514773599191
 30
0.0
 10
627.6475729963245
 20
1809.749977386664
 30
0.0
 10
626.9740380110812
 20
1814.187216217757
 30
0.0
 10
627.6475729963245
 20
1818.558117561146
 30
0.0
 10
628.321107981568
 20
1820.726983860913
 30
0.0
  0
SPLINE
  5
17C
330
13D
100
AcDbEntity
  8
P-SANR-FIXT
100
AcDbSpline
210
0.0
220
0.0
230
1.0
 70
    24
 71
     3
 72
     8
 73
     4
 74
     0
 42
0.000000001
 43
0.0000000001
 40
-1.0
 40
-1.0
 40
-1.0
 40
-1.0
 40
-0.5
 40
-0.5
 40
-0.5
 40
-0.5
 10
628.321107981568
 20
1821.995878730052
 30
0.0
 10
627.6475729963244
 20
1821.995878730052
 30
0.0
 10
627.3108055037027
 20
1821.995878730052
 30
0.0
 10
627.3108055037027
 20
1821.995878730052
 30
0.0
  0
LINE
  5
17D
330
13D
100
AcDbEntity
  8
P-SANR-FIXT
100
AcDbLine
 10
628.321107981568
 20
1790.495878730052
 30
0.0
 11
628.321107981568
 21
1791.764773599191
 31
0.0
  0
LINE
  5
17E
330
13D
100
AcDbEntity
  8
P-SANR-FIXT
100
AcDbLine
 10
628.321107981568
 20
1790.495878730052
 30
0.0
 11
639.5117069048096
 21
1790.495878730052
 31
0.0
  0
LINE
  5
17F
330
13D
100
AcDbEntity
  8
P-SANR-FIXT
100
AcDbLine
 10
639.5117069048096
 20
1791.76477359919
 30
0.0
 11
628.321107981568
 21
1791.76477359919
 31
0.0
  0
LINE
  5
180
330
13D
100
AcDbEntity
  8
P-SANR-FIXT
100
AcDbLine
 10
628.321107981568
 20
1804.976983860913
 30
0.0
 11
628.321107981568
 21
1806.245878730052
 31
0.0
  0
LINE
  5
181
330
13D
100
AcDbEntity
  8
P-SANR-FIXT
100
AcDbLine
 10
628.321107981568
 20
1804.976983860914
 30
0.0
 11
639.5117069048096
 21
1804.976983860914
 31
0.0
  0
LINE
  5
182
330
13D
100
AcDbEntity
  8
P-SANR-FIXT
100
AcDbLine
 10
628.321107981568
 20
1820.726983860913
 30
0.0
 11
628.321107981568
 21
1821.995878730052
 31
0.0
  0
LINE
  5
183
330
13D
100
AcDbEntity
  8
P-SANR-FIXT
100
AcDbLine
 10
628.321107981568
 20
1820.726983860914
 30
0.0
 11
639.5117069048096
 21
1820.726983860914
 31
0.0
  0
LINE
  5
184
330
13D
100
AcDbEntity
  8
P-SANR-FIXT
100
AcDbLine
 10
639.5117069048096
 20
1821.995878730052
 30
0.0
 11
628.321107981568
 21
1821.995878730052
 31
0.0
  0
LINE
  5
185
330
13D
100
AcDbEntity
  8
P-SANR-FIXT
100
AcDbLine
 10
639.5117069048096
 20
1807.51477359919
 30
0.0
 11
628.321107981568
 21
1807.51477359919
 31
0.0
  0
LINE
  5
186
330
13D
100
AcDbEntity
  8
P-SANR-FIXT
100
AcDbLine
 10
628.321107981568
 20
1806.245878730052
 30
0.0
 11
628.321107981568
 21
1807.514773599191
 31
0.0
  0
LINE
  5
187
330
13D
100
AcDbEntity
  8
P-SANR-FIXT
100
AcDbLine
 10
639.5117069048096
 20
1804.976983860913
 30
0.0
 11
639.5117069048096
 21
1806.245878730052
 31
0.0
  0
SPLINE
  5
188
330
13D
100
AcDbEntity
  8
P-SANR-FIXT
100
AcDbSpline
210
0.0
220
0.0
230
1.0
 70
     8
 71
     3
 72
     9
 73
     5
 74
     0
 42
0.000000001
 43
0.0000000001
 40
-1.0
 40
-1.0
 40
-1.0
 40
-1.0
 40
-0.5
 40
0.0
 40
0.0
 40
0.0
 40
0.0
 10
639.5117069048096
 20
1804.976983860913
 30
0.0
 10
640.1852418900528
 20
1802.808117561145
 30
0.0
 10
640.8587768752961
 20
1798.437216217757
 30
0.0
 10
640.1852418900528
 20
1793.999977386664
 30
0.0
 10
639.5117069048096
 20
1791.764773599191
 30
0.0
  0
LINE
  5
189
330
13D
100
AcDbEntity
  8
P-SANR-FIXT
100
AcDbLine
 10
639.5117069048096
 20
1790.495878730052
 30
0.0
 11
639.5117069048096
 21
1791.764773599191
 31
0.0
  0
SPLINE
  5
18A
330
13D
100
AcDbEntity
  8
P-SANR-FIXT
100
AcDbSpline
210
0.0
220
0.0
230
1.0
 70
    24
 71
     3
 72
     9
 73
     5
 74
     0
 42
0.000000001
 43
0.0000000001
 40
-1.0
 40
-1.0
 40
-1.0
 40
-1.0
 40
-0.5
 40
-0.4959566027626483
 40
-0.4959566027626483
 40
-0.4959566027626483
 40
-0.4959566027626483
 10
639.5117069048096
 20
1790.495878730052
 30
0.0
 10
640.1852418900531
 20
1790.495878730052
 30
0.0
 10
640.524732752172
 20
1790.495878730052
 30
0.0
 10
640.5219873593454
 20
1790.495878730052
 30
0.0
 10
640.5219433126865
 20
1790.495878730052
 30
0.0
  0
SPLINE
  5
18B
330
13D
100
AcDbEntity
  8
P-SANR-FIXT
100
AcDbSpline
210
0.0
220
0.0
230
1.0
 70
    24
 71
     3
 72
     8
 73
     4
 74
     0
 42
0.000000001
 43
0.0000000001
 40
-0.5
 40
-0.5
 40
-0.5
 40
-0.5
 40
0.0
 40
0.0
 40
0.0
 40
0.0
 10
640.5220093826747
 20
1821.995878730052
 30
0.0
 10
640.5220093826747
 20
1821.995878730052
 30
0.0
 10
640.1852418900529
 20
1821.995878730052
 30
0.0
 10
639.5117069048096
 20
1821.995878730052
 30
0.0
  0
LINE
  5
18C
330
13D
100
AcDbEntity
  8
P-SANR-FIXT
100
AcDbLine
 10
639.5117069048096
 20
1820.726983860913
 30
0.0
 11
639.5117069048096
 21
1821.995878730052
 31
0.0
  0
SPLINE
  5
18D
330
13D
100
AcDbEntity
  8
P-SANR-FIXT
100
AcDbSpline
210
0.0
220
0.0
230
1.0
 70
     8
 71
     3
 72
     9
 73
     5
 74
     0
 42
0.000000001
 43
0.0000000001
 40
-1.0
 40
-1.0
 40
-1.0
 40
-1.0
 40
-0.5
 40
0.0
 40
0.0
 40
0.0
 40
0.0
 10
639.5117069048096
 20
1820.726983860913
 30
0.0
 10
640.1852418900528
 20
1818.558117561146
 30
0.0
 10
640.8587768752961
 20
1814.187216217757
 30
0.0
 10
640.1852418900528
 20
1809.749977386664
 30
0.0
 10
639.5117069048096
 20
1807.514773599191
 30
0.0
  0
LINE
  5
18E
330
13D
100
AcDbEntity
  8
P-SANR-FIXT
100
AcDbLine
 10
639.5117069048096
 20
1806.245878730052
 30
0.0
 11
639.5117069048096
 21
1807.514773599191
 31
0.0
  0
LINE
  5
18F
330
13D
100
AcDbEntity
  8
P-SANR-FIXT
100
AcDbLine
 10
640.6664074431888
 20
1790.745878730052
 30
0.0
 11
640.6664074431887
 21
1806.245878730052
 31
0.0
  0
SPLINE
  5
190
330
13D
100
AcDbEntity
  8
P-SANR-FIXT
100
AcDbSpline
210
0.0
220
0.0
230
1.0
 70
     8
 71
     3
 72
     8
 73
     4
 74
     0
 42
0.000000001
 43
0.0000000001
 40
0.3333333333333333
 40
0.3333333333333333
 40
0.3333333333333333
 40
0.3333333333333333
 40
0.3377789851355881
 40
0.3377789851355881
 40
0.3377789851355881
 40
0.3377789851355881
 10
671.2511771031151
 20
1803.050829079965
 30
0.0
 10
671.2475958845674
 20
1803.037193038212
 30
0.0
 10
671.2439839599674
 20
1803.023570029315
 30
0.0
 10
671.2403419733651
 20
1803.009959773061
 30
0.0
  0
SPLINE
  5
191
330
13D
100
AcDbEntity
  8
P-SANR-FIXT
100
AcDbSpline
210
0.0
220
0.0
230
1.0
 70
     8
 71
     3
 72
     8
 73
     4
 74
     0
 42
0.000000001
 43
0.0000000001
 40
0.4444444444444445
 40
0.4444444444444445
 40
0.4444444444444445
 40
0.4444444444444445
 40
0.4531481424502916
 40
0.4531481424502916
 40
0.4531481424502916
 40
0.4531481424502916
 10
670.9392892121416
 20
1802.045434714257
 30
0.0
 10
670.9300605500882
 20
1802.019670817965
 30
0.0
 10
670.9207221489568
 20
1801.993971761559
 30
0.0
 10
670.9112882656426
 20
1801.968327432793
 30
0.0
  0
SPLINE
  5
192
330
13D
100
AcDbEntity
  8
P-SANR-FIXT
100
AcDbSpline
210
0.0
220
0.0
230
1.0
 70
     8
 71
     3
 72
     8
 73
     4
 74
     0
 42
0.000000001
 43
0.0000000001
 40
0.5555555555555556
 40
0.5555555555555556
 40
0.5555555555555556
 40
0.5555555555555556
 40
0.5696698337490642
 40
0.5696698337490642
 40
0.5696698337490642
 40
0.5696698337490642
 10
670.547938363562
 20
1801.080707687213
 30
0.0
 10
670.5298391576588
 20
1801.040853165584
 30
0.0
 10
670.5117194806323
 20
1801.000989787578
 30
0.0
 10
670.4935206075658
 20
1800.961174786923
 30
0.0
  0
SPLINE
  5
193
330
13D
100
AcDbEntity
  8
P-SANR-FIXT
100
AcDbSpline
210
0.0
220
0.0
230
1.0
 70
     8
 71
     3
 72
     8
 73
     4
 74
     0
 42
0.000000001
 43
0.0000000001
 40
0.6666666666666666
 40
0.6666666666666666
 40
0.6666666666666666
 40
0.6666666666666666
 40
0.6887424454826112
 40
0.6887424454826112
 40
0.6887424454826112
 40
0.6887424454826112
 10
670.0880384541789
 20
1800.165749121254
 30
0.0
 10
670.0555515300631
 20
1800.106984971728
 30
0.0
 10
670.0219057816354
 20
1800.049275378533
 30
0.0
 10
669.9872513534606
 20
1799.992483998854
 30
0.0
  0
SPLINE
  5
194
330
13D
100
AcDbEntity
  8
P-SANR-FIXT
100
AcDbSpline
210
0.0
220
0.0
230
1.0
 70
     8
 71
     3
 72
     8
 73
     4
 74
     0
 42
0.000000001
 43
0.0000000001
 40
0.7777777777777779
 40
0.7777777777777779
 40
0.7777777777777779
 40
0.7777777777777779
 40
0.8102419933030166
 40
0.8102419933030166
 40
0.8102419933030166
 40
0.8102419933030166
 10
669.5680780703936
 20
1799.307118394571
 30
0.0
 10
669.514513028224
 20
1799.226253723391
 30
0.0
 10
669.4584860116923
 20
1799.147488510921
 30
0.0
 10
669.4006788210175
 20
1799.07024315789
 30
0.0
  0
LINE
  5
195
330
13D
100
AcDbEntity
  8
P-SANR-FIXT
100
AcDbLine
 10
668.3406999484165
 20
1797.75574580833
 30
0.0
 11
668.3247685772989
 21
1797.75574580833
 31
0.0
  0
LINE
  5
196
330
13D
100
AcDbEntity
  8
P-SANR-FIXT
100
AcDbLine
 10
650.0080463090784
 20
1797.75574580833
 30
0.0
 11
649.9921149379609
 21
1797.75574580833
 31
0.0
  0
SPLINE
  5
197
330
13D
100
AcDbEntity
  8
P-SANR-FIXT
100
AcDbSpline
210
0.0
220
0.0
230
1.0
 70
     8
 71
     3
 72
     8
 73
     4
 74
     0
 42
0.000000001
 43
0.0000000001
 40
0.1897580066969952
 40
0.1897580066969952
 40
0.1897580066969952
 40
0.1897580066969952
 40
0.2222222222222222
 40
0.2222222222222222
 40
0.2222222222222222
 40
0.2222222222222222
 10
648.9280624465834
 20
1799.066905406537
 30
0.0
 10
648.8727386938847
 20
1799.146185583866
 30
0.0
 10
648.8181692896095
 20
1799.226186036056
 30
0.0
 10
648.7644290366761
 20
1799.306961247482
 30
0.0
  0
SPLINE
  5
198
330
13D
100
AcDbEntity
  8
P-SANR-FIXT
100
AcDbSpline
210
0.0
220
0.0
230
1.0
 70
     8
 71
     3
 72
     8
 73
     4
 74
     0
 42
0.000000001
 43
0.0000000001
 40
0.3112575545173986
 40
0.3112575545173986
 40
0.3112575545173986
 40
0.3112575545173986
 40
0.3333333333333333
 40
0.3333333333333333
 40
0.3333333333333333
 40
0.3333333333333333
 10
648.3433795207186
 20
1799.990599624495
 30
0.0
 10
648.3101294673693
 20
1800.048602704326
 30
0.0
 10
648.2771780601259
 20
1800.106946190005
 30
0.0
 10
648.2447764321987
 20
1800.165749121254
 30
0.0
  0
SPLINE
  5
199
330
13D
100
AcDbEntity
  8
P-SANR-FIXT
100
AcDbSpline
210
0.0
220
0.0
230
1.0
 70
     8
 71
     3
 72
     8
 73
     4
 74
     0
 42
0.000000001
 43
0.0000000001
 40
0.4303301662509514
 40
0.4303301662509514
 40
0.4303301662509514
 40
0.4303301662509514
 40
0.4444444444444445
 40
0.4444444444444445
 40
0.4444444444444445
 40
0.4444444444444445
 10
647.8397234741171
 20
1800.961548764757
 30
0.0
 10
647.8212592886469
 20
1801.001132586373
 30
0.0
 10
647.8030674091552
 20
1801.040889256742
 30
0.0
 10
647.7850958440328
 20
1801.08079402577
 30
0.0
  0
SPLINE
  5
19A
330
13D
100
AcDbEntity
  8
P-SANR-FIXT
100
AcDbSpline
210
0.0
220
0.0
230
1.0
 70
     8
 71
     3
 72
     8
 73
     4
 74
     0
 42
0.000000001
 43
0.0000000001
 40
0.546851857549723
 40
0.546851857549723
 40
0.546851857549723
 40
0.546851857549723
 40
0.5555555555555556
 40
0.5555555555555556
 40
0.5555555555555556
 40
0.5555555555555556
 10
647.4214545825315
 20
1801.968268702928
 30
0.0
 10
647.412064263826
 20
1801.993948548177
 30
0.0
 10
647.4026691581441
 20
1802.019641382815
 30
0.0
 10
647.3932887025687
 20
1802.045352823572
 30
0.0
  0
SPLINE
  5
19B
330
13D
100
AcDbEntity
  8
P-SANR-FIXT
100
AcDbSpline
210
0.0
220
0.0
230
1.0
 70
     8
 71
     3
 72
     8
 73
     4
 74
     0
 42
0.000000001
 43
0.0000000001
 40
0.6622210148644305
 40
0.6622210148644305
 40
0.6622210148644305
 40
0.6622210148644305
 40
0.6666666666666666
 40
0.6666666666666666
 40
0.6666666666666666
 40
0.6666666666666666
 10
647.092453663167
 20
1803.009945667579
 30
0.0
 10
647.0888243339483
 20
1803.023565198635
 30
0.0
 10
647.0851966424032
 20
1803.037185871072
 30
0.0
 10
647.0816377832623
 20
1803.050829079965
 30
0.0
  0
LINE
  5
19C
330
13D
100
AcDbEntity
  8
P-SANR-FIXT
100
AcDbLine
 10
640.6664074431887
 20
1806.245878730052
 30
0.0
 11
640.6664074431888
 21
1821.745878730052
 31
0.0
  0
SPLINE
  5
19D
330
13D
100
AcDbEntity
  8
P-SANR-FIXT
100
AcDbSpline
210
0.0
220
0.0
230
1.0
 70
     8
 71
     3
 72
     8
 73
     4
 74
     0
 42
0.000000001
 43
0.0000000001
 40
0.3333333333333333
 40
0.3333333333333333
 40
0.3333333333333333
 40
0.3333333333333333
 40
0.33777898513556
 40
0.33777898513556
 40
0.33777898513556
 40
0.33777898513556
 10
647.0816377832623
 20
1809.44092838014
 30
0.0
 10
647.0852190018101
 20
1809.454564421892
 30
0.0
 10
647.08883092641
 20
1809.468187430789
 30
0.0
 10
647.0924729130123
 20
1809.481797687044
 30
0.0
  0
SPLINE
  5
19E
330
13D
100
AcDbEntity
  8
P-SANR-FIXT
100
AcDbSpline
210
0.0
220
0.0
230
1.0
 70
     8
 71
     3
 72
     8
 73
     4
 74
     0
 42
0.000000001
 43
0.0000000001
 40
0.4444444444444445
 40
0.4444444444444445
 40
0.4444444444444445
 40
0.4444444444444445
 40
0.4531481424502628
 40
0.4531481424502628
 40
0.4531481424502628
 40
0.4531481424502628
 10
647.3935256742358
 20
1810.446322745847
 30
0.0
 10
647.4027543362893
 20
1810.472086642139
 30
0.0
 10
647.4120927374207
 20
1810.497785698546
 30
0.0
 10
647.4215266207346
 20
1810.523430027312
 30
0.0
  0
SPLINE
  5
19F
330
13D
100
AcDbEntity
  8
P-SANR-FIXT
100
AcDbSpline
210
0.0
220
0.0
230
1.0
 70
     8
 71
     3
 72
     8
 73
     4
 74
     0
 42
0.000000001
 43
0.0000000001
 40
0.5555555555555556
 40
0.5555555555555556
 40
0.5555555555555556
 40
0.5555555555555556
 40
0.5696698337490384
 40
0.5696698337490384
 40
0.5696698337490384
 40
0.5696698337490384
 10
647.7848765228154
 20
1811.411049772891
 30
0.0
 10
647.8029757287188
 20
1811.45090429452
 30
0.0
 10
647.8210954057452
 20
1811.490767672527
 30
0.0
 10
647.8392942788116
 20
1811.530582673181
 30
0.0
  0
SPLINE
  5
1A0
330
13D
100
AcDbEntity
  8
P-SANR-FIXT
100
AcDbSpline
210
0.0
220
0.0
230
1.0
 70
     8
 71
     3
 72
     8
 73
     4
 74
     0
 42
0.000000001
 43
0.0000000001
 40
0.6666666666666666
 40
0.6666666666666666
 40
0.6666666666666666
 40
0.6666666666666666
 40
0.6887424454825892
 40
0.6887424454825892
 40
0.6887424454825892
 40
0.6887424454825892
 10
648.2447764321987
 20
1812.32600833885
 30
0.0
 10
648.2772633563143
 20
1812.384772488376
 30
0.0
 10
648.310909104742
 20
1812.442482081571
 30
0.0
 10
648.3455635329169
 20
1812.49927346125
 30
0.0
  0
SPLINE
  5
1A1
330
13D
100
AcDbEntity
  8
P-SANR-FIXT
100
AcDbSpline
210
0.0
220
0.0
230
1.0
 70
     8
 71
     3
 72
     8
 73
     4
 74
     0
 42
0.000000001
 43
0.0000000001
 40
0.7777777777777779
 40
0.7777777777777779
 40
0.7777777777777779
 40
0.7777777777777779
 40
0.8102419933029873
 40
0.8102419933029873
 40
0.8102419933029873
 40
0.8102419933029873
 10
648.7647368159838
 20
1813.184639065533
 30
0.0
 10
648.8183018581535
 20
1813.265503736714
 30
0.0
 10
648.8743288746851
 20
1813.344268949183
 30
0.0
 10
648.9321360653597
 20
1813.421514302214
 30
0.0
  0
LINE
  5
1A2
330
13D
100
AcDbEntity
  8
P-SANR-FIXT
100
AcDbLine
 10
649.9921149379609
 20
1814.736011651775
 30
0.0
 11
650.0080463090786
 21
1814.736011651775
 31
0.0
  0
LINE
  5
1A3
330
13D
100
AcDbEntity
  8
P-SANR-FIXT
100
AcDbLine
 10
668.3247685772989
 20
1814.736011651775
 30
0.0
 11
668.3406999484165
 21
1814.736011651775
 31
0.0
  0
SPLINE
  5
1A4
330
13D
100
AcDbEntity
  8
P-SANR-FIXT
100
AcDbSpline
210
0.0
220
0.0
230
1.0
 70
     8
 71
     3
 72
     8
 73
     4
 74
     0
 42
0.000000001
 43
0.0000000001
 40
0.1897580066969659
 40
0.1897580066969659
 40
0.1897580066969659
 40
0.1897580066969659
 40
0.2222222222222222
 40
0.2222222222222222
 40
0.2222222222222222
 40
0.2222222222222222
 10
669.4047524397939
 20
1813.424852053568
 30
0.0
 10
669.4600761924927
 20
1813.345571876239
 30
0.0
 10
669.5146455967678
 20
1813.265571424048
 30
0.0
 10
669.5683858497014
 20
1813.184796212623
 30
0.0
  0
SPLINE
  5
1A5
330
13D
100
AcDbEntity
  8
P-SANR-FIXT
100
AcDbSpline
210
0.0
220
0.0
230
1.0
 70
     8
 71
     3
 72
     8
 73
     4
 74
     0
 42
0.000000001
 43
0.0000000001
 40
0.3112575545173723
 40
0.3112575545173723
 40
0.3112575545173723
 40
0.3112575545173723
 40
0.3333333333333333
 40
0.3333333333333333
 40
0.3333333333333333
 40
0.3333333333333333
 10
669.9894353656587
 20
1812.50115783561
 30
0.0
 10
670.0226854190081
 20
1812.443154755779
 30
0.0
 10
670.0556368262515
 20
1812.384811270099
 30
0.0
 10
670.0880384541789
 20
1812.32600833885
 30
0.0
  0
SPLINE
  5
1A6
330
13D
100
AcDbEntity
  8
P-SANR-FIXT
100
AcDbSpline
210
0.0
220
0.0
230
1.0
 70
     8
 71
     3
 72
     8
 73
     4
 74
     0
 42
0.000000001
 43
0.0000000001
 40
0.430330166250925
 40
0.430330166250925
 40
0.430330166250925
 40
0.430330166250925
 40
0.4444444444444445
 40
0.4444444444444445
 40
0.4444444444444445
 40
0.4444444444444445
 10
670.4930914122603
 20
1811.530208695347
 30
0.0
 10
670.5115555977305
 20
1811.490624873732
 30
0.0
 10
670.5297474772223
 20
1811.450868203363
 30
0.0
 10
670.5477190423447
 20
1811.410963434335
 30
0.0
  0
SPLINE
  5
1A7
330
13D
100
AcDbEntity
  8
P-SANR-FIXT
100
AcDbSpline
210
0.0
220
0.0
230
1.0
 70
     8
 71
     3
 72
     8
 73
     4
 74
     0
 42
0.000000001
 43
0.0000000001
 40
0.5468518575496987
 40
0.5468518575496987
 40
0.5468518575496987
 40
0.5468518575496987
 40
0.5555555555555556
 40
0.5555555555555556
 40
0.5555555555555556
 40
0.5555555555555556
 10
670.911360303846
 20
1810.523488757177
 30
0.0
 10
670.9207506225514
 20
1810.497808911928
 30
0.0
 10
670.9301457282333
 20
1810.47211607729
 30
0.0
 10
670.9395261838087
 20
1810.446404636532
 30
0.0
  0
SPLINE
  5
1A8
330
13D
100
AcDbEntity
  8
P-SANR-FIXT
100
AcDbSpline
210
0.0
220
0.0
230
1.0
 70
     8
 71
     3
 72
     8
 73
     4
 74
     0
 42
0.000000001
 43
0.0000000001
 40
0.6622210148644025
 40
0.6622210148644025
 40
0.6622210148644025
 40
0.6622210148644025
 40
0.6666666666666666
 40
0.6666666666666666
 40
0.6666666666666666
 40
0.6666666666666666
 10
671.2403612232105
 20
1809.481811792526
 30
0.0
 10
671.2439905524291
 20
1809.468192261469
 30
0.0
 10
671.2476182439743
 20
1809.454571589033
 30
0.0
 10
671.2511771031151
 20
1809.44092838014
 30
0.0
  0
SPLINE
  5
1A9
330
13D
100
AcDbEntity
  8
P-SANR-FIXT
100
AcDbSpline
210
0.0
220
0.0
230
1.0
 70
     8
 71
     3
 72
     9
 73
     5
 74
     0
 42
0.000000001
 43
0.0000000001
 40
-1.0
 40
-1.0
 40
-1.0
 40
-1.0
 40
-0.5
 40
0.0
 40
0.0
 40
0.0
 40
0.0
 10
677.9613653967251
 20
1804.245878730052
 30
0.0
 10
677.9826084344529
 20
1804.578876017956
 30
0.0
 10
678.0142137347685
 20
1805.245206639193
 30
0.0
 10
678.0240574848037
 20
1805.912209351289
 30
0.0
 10
678.0235389722513
 20
1806.245878730052
 30
0.0
  0
SPLINE
  5
1AA
330
13D
100
AcDbEntity
  8
P-SANR-FIXT
100
AcDbSpline
210
0.0
220
0.0
230
1.0
 70
     8
 71
     3
 72
     9
 73
     5
 74
     0
 42
0.000000001
 43
0.0000000001
 40
-1.0
 40
-1.0
 40
-1.0
 40
-1.0
 40
-0.5
 40
0.0
 40
0.0
 40
0.0
 40
0.0
 10
678.0235389722512
 20
1806.245878730052
 30
0.0
 10
678.0240574848037
 20
1806.579548108815
 30
0.0
 10
678.0142137347685
 20
1807.246550820911
 30
0.0
 10
677.982608434453
 20
1807.912881442148
 30
0.0
 10
677.9613653967252
 20
1808.245878730051
 30
0.0
  0
LINE
  5
1AB
330
13D
100
AcDbEntity
  8
P-SANR-FIXT
100
AcDbLine
 10
690.4164074431888
 20
1796.826601640435
 30
0.0
 11
690.4164074431888
 21
1804.076981461519
 31
0.0
  0
LINE
  5
1AC
330
13D
100
AcDbEntity
  8
P-SANR-FIXT
100
AcDbLine
 10
690.4164074431888
 20
1808.415943538823
 30
0.0
 11
690.4164074431888
 21
1815.932101859814
 31
0.0
  0
LINE
  5
1AD
330
13D
100
AcDbEntity
  8
P-SANR-FIXT
100
AcDbLine
 10
711.1664074431887
 20
1792.745878730053
 30
0.0
 11
711.1664074431887
 21
1806.245878730052
 31
0.0
  0
LINE
  5
1AE
330
13D
100
AcDbEntity
  8
P-SANR-FIXT
100
AcDbLine
 10
711.1664074431887
 20
1806.245878730052
 30
0.0
 11
711.1664074431887
 21
1819.745878730052
 31
0.0
  0
LINE
  5
1AF
330
13D
100
AcDbEntity
  8
P-SANR-FIXT
100
AcDbLine
 10
719.6664074431887
 20
1790.745878730052
 30
0.0
 11
719.6664074431886
 21
1806.245878730052
 31
0.0
  0
SPLINE
  5
1B0
330
13D
100
AcDbEntity
  8
P-SANR-FIXT
100
AcDbSpline
210
0.0
220
0.0
230
1.0
 70
    24
 71
     3
 72
     9
 73
     5
 74
     0
 42
0.000000001
 43
0.0000000001
 40
-0.5040433972373395
 40
-0.5040433972373395
 40
-0.5040433972373395
 40
-0.5040433972373395
 40
-0.5
 40
0.0
 40
0.0
 40
0.0
 40
0.0
 10
719.810871573691
 20
1790.495878730052
 30
0.0
 10
719.8108275270321
 20
1790.495878730052
 30
0.0
 10
719.8080821342041
 20
1790.495878730052
 30
0.0
 10
720.1475729963237
 20
1790.495878730052
 30
0.0
 10
720.8211079815679
 20
1790.495878730052
 30
0.0
  0
SPLINE
  5
1B1
330
13D
100
AcDbEntity
  8
P-SANR-FIXT
100
AcDbSpline
210
0.0
220
0.0
230
1.0
 70
     8
 71
     3
 72
     9
 73
     5
 74
     0
 42
0.000000001
 43
0.0000000001
 40
-1.0
 40
-1.0
 40
-1.0
 40
-1.0
 40
-0.5
 40
0.0
 40
0.0
 40
0.0
 40
0.0
 10
720.8211079815679
 20
1791.76477359919
 30
0.0
 10
720.1475729963245
 20
1793.999977386663
 30
0.0
 10
719.4740380110811
 20
1798.437216217757
 30
0.0
 10
720.1475729963244
 20
1802.808117561145
 30
0.0
 10
720.8211079815679
 20
1804.976983860914
 30
0.0
  0
LINE
  5
1B2
330
13D
100
AcDbEntity
  8
P-SANR-FIXT
100
AcDbLine
 10
719.6664074431886
 20
1806.245878730052
 30
0.0
 11
719.6664074431887
 21
1821.745878730052
 31
0.0
  0
SPLINE
  5
1B3
330
13D
100
AcDbEntity
  8
P-SANR-FIXT
100
AcDbSpline
210
0.0
220
0.0
230
1.0
 70
     8
 71
     3
 72
     9
 73
     5
 74
     0
 42
0.000000001
 43
0.0000000001
 40
-1.0
 40
-1.0
 40
-1.0
 40
-1.0
 40
-0.5
 40
0.0
 40
0.0
 40
0.0
 40
0.0
 10
720.8211079815679
 20
1807.51477359919
 30
0.0
 10
720.1475729963244
 20
1809.749977386663
 30
0.0
 10
719.4740380110811
 20
1814.187216217757
 30
0.0
 10
720.1475729963245
 20
1818.558117561146
 30
0.0
 10
720.8211079815679
 20
1820.726983860914
 30
0.0
  0
SPLINE
  5
1B4
330
13D
100
AcDbEntity
  8
P-SANR-FIXT
100
AcDbSpline
210
0.0
220
0.0
230
1.0
 70
    24
 71
     3
 72
     8
 73
     4
 74
     0
 42
0.000000001
 43
0.0000000001
 40
-1.0
 40
-1.0
 40
-1.0
 40
-1.0
 40
-0.5
 40
-0.5
 40
-0.5
 40
-0.5
 10
720.8211079815679
 20
1821.995878730052
 30
0.0
 10
720.1475729963244
 20
1821.995878730052
 30
0.0
 10
719.8108055037027
 20
1821.995878730052
 30
0.0
 10
719.8108055037027
 20
1821.995878730052
 30
0.0
  0
LINE
  5
1B5
330
13D
100
AcDbEntity
  8
P-SANR-FIXT
100
AcDbLine
 10
720.8211079815679
 20
1790.495878730052
 30
0.0
 11
720.8211079815679
 21
1791.76477359919
 31
0.0
  0
LINE
  5
1B6
330
13D
100
AcDbEntity
  8
P-SANR-FIXT
100
AcDbLine
 10
720.8211079815679
 20
1790.495878730052
 30
0.0
 11
732.0117069048095
 21
1790.495878730052
 31
0.0
  0
LINE
  5
1B7
330
13D
100
AcDbEntity
  8
P-SANR-FIXT
100
AcDbLine
 10
732.0117069048095
 20
1791.76477359919
 30
0.0
 11
720.8211079815679
 21
1791.76477359919
 31
0.0
  0
LINE
  5
1B8
330
13D
100
AcDbEntity
  8
P-SANR-FIXT
100
AcDbLine
 10
720.8211079815679
 20
1804.976983860914
 30
0.0
 11
720.8211079815679
 21
1806.245878730052
 31
0.0
  0
LINE
  5
1B9
330
13D
100
AcDbEntity
  8
P-SANR-FIXT
100
AcDbLine
 10
720.8211079815679
 20
1804.976983860914
 30
0.0
 11
732.0117069048095
 21
1804.976983860914
 31
0.0
  0
LINE
  5
1BA
330
13D
100
AcDbEntity
  8
P-SANR-FIXT
100
AcDbLine
 10
720.8211079815679
 20
1820.726983860914
 30
0.0
 11
720.8211079815679
 21
1821.995878730052
 31
0.0
  0
LINE
  5
1BB
330
13D
100
AcDbEntity
  8
P-SANR-FIXT
100
AcDbLine
 10
720.8211079815679
 20
1820.726983860914
 30
0.0
 11
732.0117069048095
 21
1820.726983860914
 31
0.0
  0
LINE
  5
1BC
330
13D
100
AcDbEntity
  8
P-SANR-FIXT
100
AcDbLine
 10
732.0117069048095
 20
1821.995878730052
 30
0.0
 11
720.8211079815679
 21
1821.995878730052
 31
0.0
  0
LINE
  5
1BD
330
13D
100
AcDbEntity
  8
P-SANR-FIXT
100
AcDbLine
 10
732.0117069048095
 20
1807.51477359919
 30
0.0
 11
720.8211079815679
 21
1807.51477359919
 31
0.0
  0
LINE
  5
1BE
330
13D
100
AcDbEntity
  8
P-SANR-FIXT
100
AcDbLine
 10
720.8211079815679
 20
1806.245878730052
 30
0.0
 11
720.8211079815679
 21
1807.51477359919
 31
0.0
  0
LINE
  5
1BF
330
13D
100
AcDbEntity
  8
P-SANR-FIXT
100
AcDbLine
 10
732.0117069048095
 20
1804.976983860914
 30
0.0
 11
732.0117069048095
 21
1806.245878730052
 31
0.0
  0
SPLINE
  5
1C0
330
13D
100
AcDbEntity
  8
P-SANR-FIXT
100
AcDbSpline
210
0.0
220
0.0
230
1.0
 70
     8
 71
     3
 72
     9
 73
     5
 74
     0
 42
0.000000001
 43
0.0000000001
 40
-1.0
 40
-1.0
 40
-1.0
 40
-1.0
 40
-0.5
 40
0.0
 40
0.0
 40
0.0
 40
0.0
 10
732.0117069048095
 20
1804.976983860914
 30
0.0
 10
732.6852418900529
 20
1802.808117561146
 30
0.0
 10
733.3587768752964
 20
1798.437216217757
 30
0.0
 10
732.6852418900529
 20
1793.999977386663
 30
0.0
 10
732.0117069048095
 20
1791.76477359919
 30
0.0
  0
LINE
  5
1C1
330
13D
100
AcDbEntity
  8
P-SANR-FIXT
100
AcDbLine
 10
732.0117069048095
 20
1790.495878730052
 30
0.0
 11
732.0117069048095
 21
1791.76477359919
 31
0.0
  0
SPLINE
  5
1C2
330
13D
100
AcDbEntity
  8
P-SANR-FIXT
100
AcDbSpline
210
0.0
220
0.0
230
1.0
 70
    24
 71
     3
 72
     9
 73
     5
 74
     0
 42
0.000000001
 43
0.0000000001
 40
-1.0
 40
-1.0
 40
-1.0
 40
-1.0
 40
-0.5
 40
-0.4959566027626606
 40
-0.4959566027626606
 40
-0.4959566027626606
 40
-0.4959566027626606
 10
732.0117069048095
 20
1790.495878730052
 30
0.0
 10
732.6852418900529
 20
1790.495878730052
 30
0.0
 10
733.0247327521733
 20
1790.495878730052
 30
0.0
 10
733.0219873593453
 20
1790.495878730052
 30
0.0
 10
733.0219433126865
 20
1790.495878730052
 30
0.0
  0
SPLINE
  5
1C3
330
13D
100
AcDbEntity
  8
P-SANR-FIXT
100
AcDbSpline
210
0.0
220
0.0
230
1.0
 70
    24
 71
     3
 72
     8
 73
     4
 74
     0
 42
0.000000001
 43
0.0000000001
 40
-0.5
 40
-0.5
 40
-0.5
 40
-0.5
 40
0.0
 40
0.0
 40
0.0
 40
0.0
 10
733.0220093826746
 20
1821.995878730052
 30
0.0
 10
733.0220093826746
 20
1821.995878730052
 30
0.0
 10
732.6852418900529
 20
1821.995878730052
 30
0.0
 10
732.0117069048095
 20
1821.995878730052
 30
0.0
  0
LINE
  5
1C4
330
13D
100
AcDbEntity
  8
P-SANR-FIXT
100
AcDbLine
 10
732.0117069048095
 20
1820.726983860914
 30
0.0
 11
732.0117069048095
 21
1821.995878730052
 31
0.0
  0
SPLINE
  5
1C5
330
13D
100
AcDbEntity
  8
P-SANR-FIXT
100
AcDbSpline
210
0.0
220
0.0
230
1.0
 70
     8
 71
     3
 72
     9
 73
     5
 74
     0
 42
0.000000001
 43
0.0000000001
 40
-1.0
 40
-1.0
 40
-1.0
 40
-1.0
 40
-0.5
 40
0.0
 40
0.0
 40
0.0
 40
0.0
 10
732.0117069048095
 20
1820.726983860914
 30
0.0
 10
732.6852418900529
 20
1818.558117561146
 30
0.0
 10
733.3587768752964
 20
1814.187216217757
 30
0.0
 10
732.6852418900529
 20
1809.749977386663
 30
0.0
 10
732.0117069048095
 20
1807.51477359919
 30
0.0
  0
LINE
  5
1C6
330
13D
100
AcDbEntity
  8
P-SANR-FIXT
100
AcDbLine
 10
732.0117069048095
 20
1806.245878730052
 30
0.0
 11
732.0117069048095
 21
1807.51477359919
 31
0.0
  0
ARC
  5
1C7
330
13D
100
AcDbEntity
  8
P-SANR-FIXT
100
AcDbCircle
 10
659.1664074431887
 20
1806.245878730052
 30
0.0
 40
12.0
100
AcDbArc
 50
180.0
 51
0.0
  0
ARC
  5
1C8
330
13D
100
AcDbEntity
  8
P-SANR-FIXT
100
AcDbCircle
 10
659.1664074431882
 20
1806.245878730052
 30
0.0
 40
9.000000000003453
100
AcDbArc
 50
352.4999999999993
 51
352.9161788483979
  0
ARC
  5
1C9
330
13D
100
AcDbEntity
  8
P-SANR-FIXT
100
AcDbCircle
 10
659.1664074431882
 20
1806.245878730052
 30
0.0
 40
9.000000000003408
100
AcDbArc
 50
345.0000000000009
 51
346.0011654348712
  0
ARC
  5
1CA
330
13D
100
AcDbEntity
  8
P-SANR-FIXT
100
AcDbCircle
 10
659.1664074431882
 20
1806.245878730052
 30
0.0
 40
9.000000000003414
100
AcDbArc
 50
337.4999999999996
 51
339.2541034358842
  0
ARC
  5
1CB
330
13D
100
AcDbEntity
  8
P-SANR-FIXT
100
AcDbCircle
 10
659.1664074431882
 20
1806.245878730052
 30
0.0
 40
9.000000000003488
100
AcDbArc
 50
320.3550820925336
 51
322.5000000000002
  0
ARC
  5
1CC
330
13D
100
AcDbEntity
  8
P-SANR-FIXT
100
AcDbCircle
 10
659.1664074431882
 20
1806.245878730052
 30
0.0
 40
9.000000000003529
100
AcDbArc
 50
313.6823170857368
 51
314.9999999999999
  0
ARC
  5
1CD
330
13D
100
AcDbEntity
  8
P-SANR-FIXT
100
AcDbCircle
 10
659.1664074431882
 20
1806.245878730052
 30
0.0
 40
9.000000000003376
100
AcDbArc
 50
306.8245351280642
 51
307.5000000000001
  0
ARC
  5
1CE
330
13D
100
AcDbEntity
  8
P-SANR-FIXT
100
AcDbCircle
 10
659.1664074431882
 20
1806.245878730052
 30
0.0
 40
9.00000000000343
100
AcDbArc
 50
292.4999999999996
 51
293.1816634898954
  0
ARC
  5
1CF
330
13D
100
AcDbEntity
  8
P-SANR-FIXT
100
AcDbCircle
 10
659.1664074431882
 20
1806.245878730052
 30
0.0
 40
9.000000000003502
100
AcDbArc
 50
285.0000000000001
 51
286.3740753085637
  0
ARC
  5
1D0
330
13D
100
AcDbEntity
  8
P-SANR-FIXT
100
AcDbCircle
 10
659.1664074431882
 20
1806.245878730052
 30
0.0
 40
9.000000000003378
100
AcDbArc
 50
277.5000000000001
 51
279.5592212383431
  0
ARC
  5
1D1
330
13D
100
AcDbEntity
  8
P-SANR-FIXT
100
AcDbCircle
 10
659.1664074431882
 20
1806.245878730052
 30
0.0
 40
9.000000000003502
100
AcDbArc
 50
260.5560081308997
 51
262.5000000000001
  0
ARC
  5
1D2
330
13D
100
AcDbEntity
  8
P-SANR-FIXT
100
AcDbCircle
 10
659.1664074431882
 20
1806.245878730052
 30
0.0
 40
9.000000000003415
100
AcDbArc
 50
253.8250687660559
 51
254.9999999999997
  0
ARC
  5
1D3
330
13D
100
AcDbEntity
  8
P-SANR-FIXT
100
AcDbCircle
 10
659.1664074431882
 20
1806.245878730052
 30
0.0
 40
9.000000000003453
100
AcDbArc
 50
247.0702621793738
 51
247.4999999999996
  0
ARC
  5
1D4
330
13D
100
AcDbEntity
  8
P-SANR-FIXT
100
AcDbCircle
 10
659.1664074431882
 20
1806.245878730052
 30
0.0
 40
9.000000000003376
100
AcDbArc
 50
239.9999999999999
 51
240.2745373860172
  0
ARC
  5
1D5
330
13D
100
AcDbEntity
  8
P-SANR-FIXT
100
AcDbCircle
 10
659.1664074431882
 20
1806.245878730052
 30
0.0
 40
9.000000000003408
100
AcDbArc
 50
232.4999999999996
 51
233.4123099427106
  0
ARC
  5
1D6
330
13D
100
AcDbEntity
  8
P-SANR-FIXT
100
AcDbCircle
 10
659.1664074431882
 20
1806.245878730052
 30
0.0
 40
9.000000000003419
100
AcDbArc
 50
224.9999999999994
 51
226.5071358431709
  0
ARC
  5
1D7
330
13D
100
AcDbEntity
  8
P-SANR-FIXT
100
AcDbCircle
 10
659.1664074431882
 20
1806.245878730052
 30
0.0
 40
9.000000000003389
100
AcDbArc
 50
217.4999999999999
 51
219.7623156285678
  0
ARC
  5
1D8
330
13D
100
AcDbEntity
  8
P-SANR-FIXT
100
AcDbCircle
 10
659.1664074431882
 20
1806.245878730052
 30
0.0
 40
9.000000000003348
100
AcDbArc
 50
200.7060447906915
 51
202.4999999999991
  0
ARC
  5
1D9
330
13D
100
AcDbEntity
  8
P-SANR-FIXT
100
AcDbCircle
 10
659.1664074431882
 20
1806.245878730052
 30
0.0
 40
9.000000000003415
100
AcDbArc
 50
193.9456142934418
 51
194.9999999999986
  0
ARC
  5
1DA
330
13D
100
AcDbEntity
  8
P-SANR-FIXT
100
AcDbCircle
 10
659.1664074431882
 20
1806.245878730052
 30
0.0
 40
9.000000000003502
100
AcDbArc
 50
187.0437015966117
 51
187.4999999999999
  0
ARC
  5
1DB
330
13D
100
AcDbEntity
  8
P-SANR-FIXT
100
AcDbCircle
 10
659.1664074431887
 20
1806.245878730052
 30
0.0
 40
12.0
100
AcDbArc
 50
0.0
 51
180.0
  0
ARC
  5
1DC
330
13D
100
AcDbEntity
  8
P-SANR-FIXT
100
AcDbCircle
 10
659.1664074431882
 20
1806.245878730052
 30
0.0
 40
9.000000000003453
100
AcDbArc
 50
172.5000000000011
 51
172.9506386771145
  0
ARC
  5
1DD
330
13D
100
AcDbEntity
  8
P-SANR-FIXT
100
AcDbCircle
 10
659.1664074431882
 20
1806.245878730052
 30
0.0
 40
9.000000000003348
100
AcDbArc
 50
164.9999999999999
 51
166.0468773716725
  0
ARC
  5
1DE
330
13D
100
AcDbEntity
  8
P-SANR-FIXT
100
AcDbCircle
 10
659.1664074431882
 20
1806.245878730052
 30
0.0
 40
9.000000000003442
100
AcDbArc
 50
157.4999999999987
 51
159.2883328281273
  0
ARC
  5
1DF
330
13D
100
AcDbEntity
  8
P-SANR-FIXT
100
AcDbCircle
 10
659.1664074431882
 20
1806.245878730052
 30
0.0
 40
9.000000000003488
100
AcDbArc
 50
140.5804674936569
 51
142.4999999999998
  0
ARC
  5
1E0
330
13D
100
AcDbEntity
  8
P-SANR-FIXT
100
AcDbCircle
 10
659.1664074431882
 20
1806.245878730052
 30
0.0
 40
9.000000000003529
100
AcDbArc
 50
134.0434385808308
 51
135.0000000000002
  0
ARC
  5
1E1
330
13D
100
AcDbEntity
  8
P-SANR-FIXT
100
AcDbCircle
 10
659.1664074431882
 20
1806.245878730052
 30
0.0
 40
9.000000000003398
100
AcDbArc
 50
127.2760310931244
 51
127.5000000000006
  0
ARC
  5
1E2
330
13D
100
AcDbEntity
  8
P-SANR-FIXT
100
AcDbCircle
 10
659.1664074431882
 20
1806.245878730052
 30
0.0
 40
9.000000000003447
100
AcDbArc
 50
120.0000000000003
 51
120.4983086117709
  0
ARC
  5
1E3
330
13D
100
AcDbEntity
  8
P-SANR-FIXT
100
AcDbCircle
 10
659.1664074431882
 20
1806.245878730052
 30
0.0
 40
9.000000000003378
100
AcDbArc
 50
112.4999999999996
 51
113.6628692568677
  0
ARC
  5
1E4
330
13D
100
AcDbEntity
  8
P-SANR-FIXT
100
AcDbCircle
 10
659.1664074431882
 20
1806.245878730052
 30
0.0
 40
9.000000000003497
100
AcDbArc
 50
104.9999999999997
 51
106.754922675873
  0
ARC
  5
1E5
330
13D
100
AcDbEntity
  8
P-SANR-FIXT
100
AcDbCircle
 10
659.1664074431882
 20
1806.245878730052
 30
0.0
 40
9.000000000003458
100
AcDbArc
 50
97.4999999999995
 51
99.77980421456145
  0
ARC
  5
1E6
330
13D
100
AcDbEntity
  8
P-SANR-FIXT
100
AcDbCircle
 10
659.1664074431882
 20
1806.245878730052
 30
0.0
 40
9.000000000003517
100
AcDbArc
 50
80.50638591397357
 51
82.49999999999976
  0
ARC
  5
1E7
330
13D
100
AcDbEntity
  8
P-SANR-FIXT
100
AcDbCircle
 10
659.1664074431882
 20
1806.245878730052
 30
0.0
 40
9.000000000003526
100
AcDbArc
 50
73.73929340885445
 51
75.00000000000035
  0
ARC
  5
1E8
330
13D
100
AcDbEntity
  8
P-SANR-FIXT
100
AcDbCircle
 10
659.1664074431882
 20
1806.245878730052
 30
0.0
 40
9.000000000003558
100
AcDbArc
 50
66.96172732833144
 51
67.50000000000046
  0
ARC
  5
1E9
330
13D
100
AcDbEntity
  8
P-SANR-FIXT
100
AcDbCircle
 10
659.1664074431882
 20
1806.245878730052
 30
0.0
 40
9.0000000000036
100
AcDbArc
 50
60.00000000000074
 51
60.16539396895456
  0
ARC
  5
1EA
330
13D
100
AcDbEntity
  8
P-SANR-FIXT
100
AcDbCircle
 10
659.1664074431882
 20
1806.245878730052
 30
0.0
 40
9.000000000003472
100
AcDbArc
 50
52.49999999999972
 51
53.31023242254243
  0
ARC
  5
1EB
330
13D
100
AcDbEntity
  8
P-SANR-FIXT
100
AcDbCircle
 10
659.1664074431882
 20
1806.245878730052
 30
0.0
 40
9.000000000003623
100
AcDbArc
 50
45.0000000000028
 51
46.42548229846178
  0
ARC
  5
1EC
330
13D
100
AcDbEntity
  8
P-SANR-FIXT
100
AcDbCircle
 10
659.1664074431882
 20
1806.245878730052
 30
0.0
 40
9.000000000003566
100
AcDbArc
 50
37.5000000000015
 51
39.7117882477344
  0
ARC
  5
1ED
330
13D
100
AcDbEntity
  8
P-SANR-FIXT
100
AcDbCircle
 10
659.1664074431882
 20
1806.245878730052
 30
0.0
 40
9.00000000000354
100
AcDbArc
 50
20.74589656411654
 51
22.5000000000012
  0
ARC
  5
1EE
330
13D
100
AcDbEntity
  8
P-SANR-FIXT
100
AcDbCircle
 10
659.1664074431882
 20
1806.245878730052
 30
0.0
 40
9.000000000003474
100
AcDbArc
 50
13.99883456513034
 51
15.0000000000008
  0
ARC
  5
1EF
330
13D
100
AcDbEntity
  8
P-SANR-FIXT
100
AcDbCircle
 10
659.1664074431882
 20
1806.245878730052
 30
0.0
 40
9.000000000003421
100
AcDbArc
 50
7.083821151603235
 51
7.500000000001885
  0
ARC
  5
1F0
330
13D
100
AcDbEntity
  8
P-SANR-FIXT
100
AcDbCircle
 10
659.1664074431887
 20
1806.245878730052
 30
0.0
 40
12.5
100
AcDbArc
 50
180.0
 51
0.0
  0
ARC
  5
1F1
330
13D
100
AcDbEntity
  8
P-SANR-FIXT
100
AcDbCircle
 10
659.1664074431887
 20
1806.245878730052
 30
0.0
 40
12.5
100
AcDbArc
 50
0.0000000000020844
 51
180.0
  0
LINE
  5
1F2
330
13D
100
AcDbEntity
  8
P-SANR-FIXT
100
AcDbLine
 10
690.4002754405571
 20
1804.245878730052
 30
0.0
 11
677.9613653967251
 21
1804.245878730052
 31
0.0
  0
ARC
  5
1F3
330
13D
100
AcDbEntity
  8
P-SANR-FIXT
100
AcDbCircle
 10
699.1664074431883
 20
1806.245878730052
 30
0.0
 40
9.000000000003527
100
AcDbArc
 50
332.7339555494942
 51
0.0
  0
ARC
  5
1F4
330
13D
100
AcDbEntity
  8
P-SANR-FIXT
100
AcDbCircle
 10
699.1664074431883
 20
1806.245878730052
 30
0.0
 40
9.000000000003483
100
AcDbArc
 50
272.7339555494939
 51
327.2660444505036
  0
ARC
  5
1F5
330
13D
100
AcDbEntity
  8
P-SANR-FIXT
100
AcDbCircle
 10
699.1664074431883
 20
1806.245878730052
 30
0.0
 40
9.000000000003442
100
AcDbArc
 50
212.7339555494934
 51
267.2660444505039
  0
ARC
  5
1F6
330
13D
100
AcDbEntity
  8
P-SANR-FIXT
100
AcDbCircle
 10
699.1664074431883
 20
1806.245878730052
 30
0.0
 40
9.000000000003296
100
AcDbArc
 50
180.0
 51
207.2660444505036
  0
ARC
  5
1F7
330
13D
100
AcDbEntity
  8
P-SANR-FIXT
100
AcDbCircle
 10
699.1664074431883
 20
1806.245878730052
 30
0.0
 40
9.000000000003325
100
AcDbArc
 50
152.7339555494923
 51
180.0
  0
ARC
  5
1F8
330
13D
100
AcDbEntity
  8
P-SANR-FIXT
100
AcDbCircle
 10
699.1664074431883
 20
1806.245878730052
 30
0.0
 40
9.000000000003359
100
AcDbArc
 50
92.73395554949281
 51
147.2660444505046
  0
ARC
  5
1F9
330
13D
100
AcDbEntity
  8
P-SANR-FIXT
100
AcDbCircle
 10
699.1664074431883
 20
1806.245878730052
 30
0.0
 40
9.00000000000338
100
AcDbArc
 50
32.73395554949356
 51
87.26604445050361
  0
ARC
  5
1FA
330
13D
100
AcDbEntity
  8
P-SANR-FIXT
100
AcDbCircle
 10
699.1664074431883
 20
1806.245878730052
 30
0.0
 40
9.000000000003524
100
AcDbArc
 50
0.0
 51
27.26604445050492
  0
ARC
  5
1FB
330
13D
100
AcDbEntity
  8
P-SANR-FIXT
100
AcDbCircle
 10
699.1664074431888
 20
1806.245878730052
 30
0.0
 40
9.000000000003517
100
AcDbArc
 50
327.2660444505104
 51
332.7339555494875
  0
LINE
  5
1FC
330
13D
100
AcDbEntity
  8
P-SANR-FIXT
100
AcDbLine
 10
707.1664074432078
 20
1802.122773104463
 30
0.0
 11
707.1664074432078
 21
1810.36898435564
 31
0.0
  0
ARC
  5
1FD
330
13D
100
AcDbEntity
  8
P-SANR-FIXT
100
AcDbCircle
 10
699.1664074431888
 20
1806.245878730052
 30
0.0
 40
9.000000000003328
100
AcDbArc
 50
27.26604445050956
 51
32.73395554949384
  0
LINE
  5
1FE
330
13D
100
AcDbEntity
  8
P-SANR-FIXT
100
AcDbLine
 10
706.7371216574438
 20
1811.11252914755
 30
0.0
 11
699.5956932289537
 21
1815.235634773138
 31
0.0
  0
ARC
  5
1FF
330
13D
100
AcDbEntity
  8
P-SANR-FIXT
100
AcDbCircle
 10
699.1664074431888
 20
1806.245878730052
 30
0.0
 40
9.000000000003396
100
AcDbArc
 50
87.26604445050213
 51
92.73395554950004
  0
LINE
  5
200
330
13D
100
AcDbEntity
  8
P-SANR-FIXT
100
AcDbLine
 10
698.7371216574234
 20
1815.235634773138
 30
0.0
 11
691.5956932289347
 21
1811.112529147552
 31
0.0
  0
ARC
  5
201
330
13D
100
AcDbEntity
  8
P-SANR-FIXT
100
AcDbCircle
 10
699.1664074431888
 20
1806.245878730052
 30
0.0
 40
9.000000000003353
100
AcDbArc
 50
147.2660444504969
 51
152.7339555494994
  0
LINE
  5
202
330
13D
100
AcDbEntity
  8
P-SANR-FIXT
100
AcDbLine
 10
691.1664074431691
 20
1810.368984355639
 30
0.0
 11
691.166407443169
 21
1802.122773104466
 31
0.0
  0
ARC
  5
203
330
13D
100
AcDbEntity
  8
P-SANR-FIXT
100
AcDbCircle
 10
699.1664074431888
 20
1806.245878730052
 30
0.0
 40
9.000000000003359
100
AcDbArc
 50
207.2660444504972
 51
212.7339555494942
  0
LINE
  5
204
330
13D
100
AcDbEntity
  8
P-SANR-FIXT
100
AcDbLine
 10
691.5956932289339
 20
1801.379228312553
 30
0.0
 11
698.7371216574244
 21
1797.256122686966
 31
0.0
  0
ARC
  5
205
330
13D
100
AcDbEntity
  8
P-SANR-FIXT
100
AcDbCircle
 10
699.1664074431888
 20
1806.245878730052
 30
0.0
 40
9.000000000003488
100
AcDbArc
 50
267.2660444505047
 51
272.7339555494888
  0
LINE
  5
206
330
13D
100
AcDbEntity
  8
P-SANR-FIXT
100
AcDbLine
 10
699.5956932289524
 20
1797.256122686966
 30
0.0
 11
706.7371216574444
 21
1801.379228312554
 31
0.0
  0
ARC
  5
207
330
13D
100
AcDbEntity
  8
P-SANR-FIXT
100
AcDbCircle
 10
659.1664074431882
 20
1806.245878730052
 30
0.0
 40
9.000000000003426
100
AcDbArc
 50
332.7339555494941
 51
0.0
  0
ARC
  5
208
330
13D
100
AcDbEntity
  8
P-SANR-FIXT
100
AcDbCircle
 10
659.1664074431882
 20
1806.245878730052
 30
0.0
 40
9.000000000003478
100
AcDbArc
 50
272.7339555494932
 51
327.2660444505036
  0
ARC
  5
209
330
13D
100
AcDbEntity
  8
P-SANR-FIXT
100
AcDbCircle
 10
659.1664074431882
 20
1806.245878730052
 30
0.0
 40
9.000000000003442
100
AcDbArc
 50
212.7339555494934
 51
267.2660444505039
  0
ARC
  5
20A
330
13D
100
AcDbEntity
  8
P-SANR-FIXT
100
AcDbCircle
 10
659.1664074431882
 20
1806.245878730052
 30
0.0
 40
9.00000000000341
100
AcDbArc
 50
180.0
 51
207.2660444505039
  0
ARC
  5
20B
330
13D
100
AcDbEntity
  8
P-SANR-FIXT
100
AcDbCircle
 10
659.1664074431882
 20
1806.245878730052
 30
0.0
 40
9.000000000003325
100
AcDbArc
 50
152.7339555494923
 51
180.0
  0
ARC
  5
20C
330
13D
100
AcDbEntity
  8
P-SANR-FIXT
100
AcDbCircle
 10
659.1664074431882
 20
1806.245878730052
 30
0.0
 40
9.000000000003359
100
AcDbArc
 50
92.73395554949281
 51
147.2660444505046
  0
ARC
  5
20D
330
13D
100
AcDbEntity
  8
P-SANR-FIXT
100
AcDbCircle
 10
659.1664074431882
 20
1806.245878730052
 30
0.0
 40
9.000000000003318
100
AcDbArc
 50
32.73395554949339
 51
87.26604445050503
  0
ARC
  5
20E
330
13D
100
AcDbEntity
  8
P-SANR-FIXT
100
AcDbCircle
 10
659.1664074431882
 20
1806.245878730052
 30
0.0
 40
9.000000000003524
100
AcDbArc
 50
0.0
 51
27.26604445050654
  0
ARC
  5
20F
330
13D
100
AcDbEntity
  8
P-SANR-FIXT
100
AcDbCircle
 10
659.1664074431887
 20
1806.245878730052
 30
0.0
 40
9.000000000003325
100
AcDbArc
 50
327.2660444505102
 51
332.7339555494881
  0
LINE
  5
210
330
13D
100
AcDbEntity
  8
P-SANR-FIXT
100
AcDbLine
 10
667.1664074432077
 20
1802.122773104463
 30
0.0
 11
667.1664074432077
 21
1810.36898435564
 31
0.0
  0
ARC
  5
211
330
13D
100
AcDbEntity
  8
P-SANR-FIXT
100
AcDbCircle
 10
659.1664074431887
 20
1806.245878730052
 30
0.0
 40
9.000000000003332
100
AcDbArc
 50
27.26604445050989
 51
32.73395554949384
  0
LINE
  5
212
330
13D
100
AcDbEntity
  8
P-SANR-FIXT
100
AcDbLine
 10
666.7371216574437
 20
1811.11252914755
 30
0.0
 11
659.5956932289534
 21
1815.235634773138
 31
0.0
  0
ARC
  5
213
330
13D
100
AcDbEntity
  8
P-SANR-FIXT
100
AcDbCircle
 10
659.1664074431887
 20
1806.245878730052
 30
0.0
 40
9.000000000003396
100
AcDbArc
 50
87.26604445050213
 51
92.73395554950004
  0
LINE
  5
214
330
13D
100
AcDbEntity
  8
P-SANR-FIXT
100
AcDbLine
 10
658.7371216574233
 20
1815.235634773138
 30
0.0
 11
651.5956932289344
 21
1811.112529147552
 31
0.0
  0
ARC
  5
215
330
13D
100
AcDbEntity
  8
P-SANR-FIXT
100
AcDbCircle
 10
659.1664074431887
 20
1806.245878730052
 30
0.0
 40
9.000000000003353
100
AcDbArc
 50
147.2660444504969
 51
152.7339555494994
  0
LINE
  5
216
330
13D
100
AcDbEntity
  8
P-SANR-FIXT
100
AcDbLine
 10
651.166407443169
 20
1810.368984355639
 30
0.0
 11
651.1664074431688
 21
1802.122773104466
 31
0.0
  0
ARC
  5
217
330
13D
100
AcDbEntity
  8
P-SANR-FIXT
100
AcDbCircle
 10
659.1664074431887
 20
1806.245878730052
 30
0.0
 40
9.000000000003359
100
AcDbArc
 50
207.2660444504972
 51
212.7339555494942
  0
LINE
  5
218
330
13D
100
AcDbEntity
  8
P-SANR-FIXT
100
AcDbLine
 10
651.5956932289338
 20
1801.379228312553
 30
0.0
 11
658.7371216574243
 21
1797.256122686966
 31
0.0
  0
ARC
  5
219
330
13D
100
AcDbEntity
  8
P-SANR-FIXT
100
AcDbCircle
 10
659.1664074431887
 20
1806.245878730052
 30
0.0
 40
9.000000000003375
100
AcDbArc
 50
267.2660444505047
 51
272.7339555494881
  0
LINE
  5
21A
330
13D
100
AcDbEntity
  8
P-SANR-FIXT
100
AcDbLine
 10
659.5956932289522
 20
1797.256122686966
 30
0.0
 11
666.737121657444
 21
1801.379228312554
 31
0.0
  0
ENDBLK
  5
21C
330
13D
100
AcDbEntity
  8
0
100
AcDbBlockEnd
  0
BLOCK
  5
29B
330
21E
100
AcDbEntity
  8
0
100
AcDbBlockBegin
  2
Automatic flow rate regulator valve_Caleffi_121 DN15 - 1_2__-V2-Est - Idraulica
 70
     0
 10
0.0
 20
0.0
 30
0.0
  3
Automatic flow rate regulator valve_Caleffi_121 DN15 - 1_2__-V2-Est - Idraulica
  1

  0
LINE
  5
21F
330
21E
100
AcDbEntity
  8
M-PIPE
100
AcDbLine
 10
1076.114353943076
 20
1957.232490787566
 30
0.0
 11
1076.114353943076
 21
1959.973218050085
 31
0.0
1001
REVIT
1002
{
1070
     3
1000
790271
1002
}
  0
LINE
  5
220
330
21E
100
AcDbEntity
  8
M-PIPE
100
AcDbLine
 10
1058.114353943069
 20
1959.973218050085
 30
0.0
 11
1058.114353943069
 21
1957.232490787566
 31
0.0
1001
REVIT
1002
{
1070
     3
1000
790271
1002
}
  0
ELLIPSE
  5
221
330
21E
100
AcDbEntity
  8
M-PIPE
100
AcDbEllipse
 10
1067.114353943071
 20
1959.973218050085
 30
0.0
 11
-9.00000000000341
 21
0.0000000000013814
 31
0.0
210
0.0
220
0.0
230
1.0
 40
0.8191520442889798
 41
3.141592653589913
 42
4.71238898038481
1001
REVIT
1002
{
1070
     3
1000
790271
1002
}
  0
ELLIPSE
  5
222
330
21E
100
AcDbEntity
  8
M-PIPE
100
AcDbEllipse
 10
1067.114353943071
 20
1959.973218050085
 30
0.0
 11
-9.00000000000341
 21
0.000000000000692
 31
0.0
210
0.0
220
0.0
230
1.0
 40
0.8191520442889798
 41
4.712388980384748
 42
6.283185307179651
1001
REVIT
1002
{
1070
     3
1000
790271
1002
}
  0
ELLIPSE
  5
223
330
21E
100
AcDbEntity
  8
M-PIPE
100
AcDbEllipse
 10
1067.114353943071
 20
1956.818547650154
 30
0.0
 11
7.75
 21
0.0
 31
0.0
210
0.0
220
0.0
230
1.0
 40
0.8191520442889903
 41
4.712388980384654
 42
7.853981633974482
1001
REVIT
1002
{
1070
     3
1000
790271
1002
}
  0
ELLIPSE
  5
224
330
21E
100
AcDbEntity
  8
M-PIPE
100
AcDbEllipse
 10
1067.114353943071
 20
1956.818547650154
 30
0.0
 11
-7.750000000000227
 21
0.0000000000006905
 31
0.0
210
0.0
220
0.0
230
1.0
 40
0.8191520442889956
 41
4.712388980384758
 42
7.853981633974521
1001
REVIT
1002
{
1070
     3
1000
790271
1002
}
  0
ELLIPSE
  5
225
330
21E
100
AcDbEntity
  8
M-PIPE
100
AcDbEllipse
 10
1067.114353943071
 20
1958.826065177387
 30
0.0
 11
-9.00000000000341
 21
0.000000000000692
 31
0.0
210
0.0
220
0.0
230
1.0
 40
0.8191520442889798
 41
4.236506730727658
 42
4.712388980384748
1001
REVIT
1002
{
1070
     3
1000
790271
1002
}
  0
LINE
  5
226
330
21E
100
AcDbEntity
  8
M-PIPE
100
AcDbLine
 10
1071.237459568664
 20
1965.379281531713
 30
0.0
 11
1071.237459568664
 21
1963.78570714189
 31
0.0
1001
REVIT
1002
{
1070
     3
1000
790271
1002
}
  0
ELLIPSE
  5
227
330
21E
100
AcDbEntity
  8
M-PIPE
100
AcDbEllipse
 10
1067.114353943071
 20
1957.232490787565
 30
0.0
 11
9.000000000003195
 21
0.0
 31
0.0
210
0.0
220
0.0
230
1.0
 40
0.8191520442889887
 41
0.9994810252600045
 42
1.094914077137759
1001
REVIT
1002
{
1070
     3
1000
790271
1002
}
  0
LINE
  5
228
330
21E
100
AcDbEntity
  8
M-PIPE
100
AcDbLine
 10
1071.981004360529
 20
1963.43405681292
 30
0.0
 11
1071.981004360529
 21
1965.027631202743
 31
0.0
1001
REVIT
1002
{
1070
     3
1000
790271
1002
}
  0
ELLIPSE
  5
229
330
21E
100
AcDbEntity
  8
M-PIPE
100
AcDbEllipse
 10
1067.114353943071
 20
1958.826065177387
 30
0.0
 11
9.000000000003346
 21
0.0
 31
0.0
210
0.0
220
0.0
230
1.0
 40
0.8191520442889881
 41
0.0477165259365168
 42
0.9994810252600046
1001
REVIT
1002
{
1070
     3
1000
790271
1002
}
  0
LINE
  5
22A
330
21E
100
AcDbEntity
  8
M-PIPE
100
AcDbLine
 10
1076.104109986159
 20
1959.177715506341
 30
0.0
 11
1076.104109986159
 21
1957.584141116519
 31
0.0
1001
REVIT
1002
{
1070
     3
1000
790271
1002
}
  0
ELLIPSE
  5
22B
330
21E
100
AcDbEntity
  8
M-PIPE
100
AcDbEllipse
 10
1067.114353943071
 20
1957.232490787565
 30
0.0
 11
9.000000000003232
 21
0.0
 31
0.0
210
0.0
220
0.0
230
1.0
 40
0.8191520442890125
 41
6.235468781247046
 42
6.330901833116101
1001
REVIT
1002
{
1070
     3
1000
790271
1002
}
  0
ELLIPSE
  5
22C
330
21E
100
AcDbEntity
  8
M-PIPE
100
AcDbEllipse
 10
1067.114353943071
 20
1957.232490787565
 30
0.0
 11
9.000000000003334
 21
0.0
 31
0.0
210
0.0
220
0.0
230
1.0
 40
0.8191520442889622
 41
5.188271230049821
 42
5.283704281915448
1001
REVIT
1002
{
1070
     3
1000
790271
1002
}
  0
ELLIPSE
  5
22D
330
21E
100
AcDbEntity
  8
M-PIPE
100
AcDbEllipse
 10
1067.114353943071
 20
1957.232490787565
 30
0.0
 11
9.00000000000368
 21
0.0
 31
0.0
210
0.0
220
0.0
230
1.0
 40
0.8191520442889355
 41
4.141073678848599
 42
4.23650673071944
1001
REVIT
1002
{
1070
     3
1000
790271
1002
}
  0
ELLIPSE
  5
22E
330
21E
100
AcDbEntity
  8
M-PIPE
100
AcDbEllipse
 10
1067.114353943071
 20
1957.232490787565
 30
0.0
 11
9.000000000003538
 21
0.0
 31
0.0
210
0.0
220
0.0
230
1.0
 40
0.8191520442889812
 41
3.093876127647935
 42
3.189309179527506
1001
REVIT
1002
{
1070
     3
1000
790271
1002
}
  0
LINE
  5
22F
330
21E
100
AcDbEntity
  8
M-PIPE
100
AcDbLine
 10
1058.124597899984
 20
1957.584141116558
 30
0.0
 11
1058.124597899984
 21
1959.17771550638
 31
0.0
1001
REVIT
1002
{
1070
     3
1000
790271
1002
}
  0
ELLIPSE
  5
230
330
21E
100
AcDbEntity
  8
M-PIPE
100
AcDbEllipse
 10
1067.114353943071
 20
1958.826065177387
 30
0.0
 11
9.000000000003478
 21
0.0
 31
0.0
210
0.0
220
0.0
230
1.0
 40
0.8191520442889704
 41
2.142111628334972
 42
3.093876127647965
1001
REVIT
1002
{
1070
     3
1000
790271
1002
}
  0
LINE
  5
231
330
21E
100
AcDbEntity
  8
M-PIPE
100
AcDbLine
 10
1062.247703525573
 20
1965.027631202722
 30
0.0
 11
1062.247703525573
 21
1963.4340568129
 31
0.0
1001
REVIT
1002
{
1070
     3
1000
790271
1002
}
  0
ELLIPSE
  5
232
330
21E
100
AcDbEntity
  8
M-PIPE
100
AcDbEllipse
 10
1067.114353943071
 20
1957.232490787565
 30
0.0
 11
9.000000000003387
 21
0.0
 31
0.0
210
0.0
220
0.0
230
1.0
 40
0.8191520442889981
 41
2.046678576451987
 42
2.142111628334971
1001
REVIT
1002
{
1070
     3
1000
790271
1002
}
  0
LINE
  5
233
330
21E
100
AcDbEntity
  8
M-PIPE
100
AcDbLine
 10
1062.991248317478
 20
1963.785707141891
 30
0.0
 11
1062.991248317478
 21
1965.379281531713
 31
0.0
1001
REVIT
1002
{
1070
     3
1000
790271
1002
}
  0
ELLIPSE
  5
234
330
21E
100
AcDbEntity
  8
M-PIPE
100
AcDbEllipse
 10
1067.114353943071
 20
1958.826065177387
 30
0.0
 11
9.000000000003188
 21
0.0
 31
0.0
210
0.0
220
0.0
230
1.0
 40
0.8191520442889888
 41
1.570796326794896
 42
2.046678576451974
1001
REVIT
1002
{
1070
     3
1000
790271
1002
}
  0
SPLINE
  5
235
330
21E
100
AcDbEntity
  8
M-PIPE
100
AcDbSpline
210
0.0
220
0.0
230
1.0
 70
     8
 71
     3
 72
     9
 73
     5
 74
     0
 42
0.000000001
 43
0.0000000001
 40
-1.0
 40
-1.0
 40
-1.0
 40
-1.0
 40
-0.5
 40
0.0
 40
0.0
 40
0.0
 40
0.0
 10
1067.11435394307
 20
1950.348119923332
 30
0.0
 10
1067.813675799215
 20
1950.351634107057
 30
0.0
 10
1069.200181926302
 20
1950.410340709105
 30
0.0
 10
1070.562412882986
 20
1950.572403780347
 30
0.0
 10
1071.237459568728
 20
1950.679274433267
 30
0.0
1001
REVIT
1002
{
1070
     3
1000
790271
1002
}
  0
SPLINE
  5
236
330
21E
100
AcDbEntity
  8
M-PIPE
100
AcDbSpline
210
0.0
220
0.0
230
1.0
 70
     8
 71
     3
 72
     9
 73
     5
 74
     0
 42
0.000000001
 43
0.0000000001
 40
-1.0
 40
-1.0
 40
-1.0
 40
-1.0
 40
-0.5
 40
0.0
 40
0.0
 40
0.0
 40
0.0
 10
1071.981004360498
 20
1951.030924762193
 30
0.0
 10
1072.659110502954
 20
1951.772271106147
 30
0.0
 10
1074.024400916353
 20
1953.488603399509
 30
0.0
 10
1075.407847586729
 20
1955.672214903779
 30
0.0
 10
1076.104109986161
 20
1956.88084045864
 30
0.0
1001
REVIT
1002
{
1070
     3
1000
790271
1002
}
  0
SPLINE
  5
237
330
21E
100
AcDbEntity
  8
M-PIPE
100
AcDbSpline
210
0.0
220
0.0
230
1.0
 70
     8
 71
     3
 72
     9
 73
     5
 74
     0
 42
0.000000001
 43
0.0000000001
 40
-1.0
 40
-1.0
 40
-1.0
 40
-1.0
 40
-0.5
 40
0.0
 40
0.0
 40
0.0
 40
0.0
 10
1076.104109986159
 20
1957.584141116519
 30
0.0
 10
1075.426003843709
 20
1958.325487460468
 30
0.0
 10
1074.060713430321
 20
1960.041819753819
 30
0.0
 10
1072.677266759956
 20
1962.22543125807
 30
0.0
 10
1071.981004360529
 20
1963.43405681292
 30
0.0
1001
REVIT
1002
{
1070
     3
1000
790271
1002
}
  0
SPLINE
  5
238
330
21E
100
AcDbEntity
  8
M-PIPE
100
AcDbSpline
210
0.0
220
0.0
230
1.0
 70
     8
 71
     3
 72
     9
 73
     5
 74
     0
 42
0.000000001
 43
0.0000000001
 40
-1.0
 40
-1.0
 40
-1.0
 40
-1.0
 40
-0.5
 40
0.0
 40
0.0
 40
0.0
 40
0.0
 10
1071.237459568664
 20
1963.78570714189
 30
0.0
 10
1070.562412882932
 20
1963.678836488974
 30
0.0
 10
1069.200181926269
 20
1963.516773417737
 30
0.0
 10
1067.813675799204
 20
1963.458066815691
 30
0.0
 10
1067.114353943071
 20
1963.454552631966
 30
0.0
1001
REVIT
1002
{
1070
     3
1000
790271
1002
}
  0
SPLINE
  5
239
330
21E
100
AcDbEntity
  8
M-PIPE
100
AcDbSpline
210
0.0
220
0.0
230
1.0
 70
     8
 71
     3
 72
     9
 73
     5
 74
     0
 42
0.000000001
 43
0.0000000001
 40
-1.0
 40
-1.0
 40
-1.0
 40
-1.0
 40
-0.5
 40
0.0
 40
0.0
 40
0.0
 40
0.0
 10
1067.114353943071
 20
1963.454552631966
 30
0.0
 10
1066.415032086938
 20
1963.458066815691
 30
0.0
 10
1065.028525959873
 20
1963.516773417737
 30
0.0
 10
1063.666295003209
 20
1963.678836488974
 30
0.0
 10
1062.991248317478
 20
1963.785707141891
 30
0.0
1001
REVIT
1002
{
1070
     3
1000
790271
1002
}
  0
SPLINE
  5
23A
330
21E
100
AcDbEntity
  8
M-PIPE
100
AcDbSpline
210
0.0
220
0.0
230
1.0
 70
     8
 71
     3
 72
     9
 73
     5
 74
     0
 42
0.000000001
 43
0.0000000001
 40
-1.0
 40
-1.0
 40
-1.0
 40
-1.0
 40
-0.5
 40
0.0
 40
0.0
 40
0.0
 40
0.0
 10
1062.247703525573
 20
1963.4340568129
 30
0.0
 10
1061.551441126153
 20
1962.225431258064
 30
0.0
 10
1060.167994455802
 20
1960.041819753837
 30
0.0
 10
1058.802704042427
 20
1958.325487460502
 30
0.0
 10
1058.124597899984
 20
1957.584141116558
 30
0.0
1001
REVIT
1002
{
1070
     3
1000
790271
1002
}
  0
SPLINE
  5
23B
330
21E
100
AcDbEntity
  8
M-PIPE
100
AcDbSpline
210
0.0
220
0.0
230
1.0
 70
     8
 71
     3
 72
     9
 73
     5
 74
     0
 42
0.000000001
 43
0.0000000001
 40
-1.0
 40
-1.0
 40
-1.0
 40
-1.0
 40
-0.5
 40
0.0
 40
0.0
 40
0.0
 40
0.0
 10
1058.124597899983
 20
1956.880840458602
 30
0.0
 10
1058.820860299408
 20
1955.672214903755
 30
0.0
 10
1060.20430696977
 20
1953.48860339951
 30
0.0
 10
1061.569597383154
 20
1951.772271106163
 30
0.0
 10
1062.247703525603
 20
1951.030924762214
 30
0.0
1001
REVIT
1002
{
1070
     3
1000
790271
1002
}
  0
SPLINE
  5
23C
330
21E
100
AcDbEntity
  8
M-PIPE
100
AcDbSpline
210
0.0
220
0.0
230
1.0
 70
     8
 71
     3
 72
     9
 73
     5
 74
     0
 42
0.000000001
 43
0.0000000001
 40
-1.0
 40
-1.0
 40
-1.0
 40
-1.0
 40
-0.5
 40
0.0
 40
0.0
 40
0.0
 40
0.0
 10
1062.991248317413
 20
1950.679274433267
 30
0.0
 10
1063.666295003154
 20
1950.572403780347
 30
0.0
 10
1065.028525959839
 20
1950.410340709105
 30
0.0
 10
1066.415032086926
 20
1950.351634107057
 30
0.0
 10
1067.11435394307
 20
1950.348119923332
 30
0.0
1001
REVIT
1002
{
1070
     3
1000
790271
1002
}
  0
LINE
  5
23D
330
21E
100
AcDbEntity
  8
M-PIPE
100
AcDbLine
 10
1062.991248317478
 20
1965.379281531713
 30
0.0
 11
1071.237459568664
 21
1965.379281531713
 31
0.0
1001
REVIT
1002
{
1070
     3
1000
790271
1002
}
  0
LINE
  5
23E
330
21E
100
AcDbEntity
  8
M-PIPE
100
AcDbLine
 10
1071.981004360529
 20
1965.027631202743
 30
0.0
 11
1076.104109986159
 21
1959.177715506341
 31
0.0
1001
REVIT
1002
{
1070
     3
1000
790271
1002
}
  0
LINE
  5
23F
330
21E
100
AcDbEntity
  8
M-PIPE
100
AcDbLine
 10
1058.124597899984
 20
1959.17771550638
 30
0.0
 11
1062.247703525573
 21
1965.027631202722
 31
0.0
1001
REVIT
1002
{
1070
     3
1000
790271
1002
}
  0
LINE
  5
240
330
21E
100
AcDbEntity
  8
P-SANR-FIXT
100
AcDbLine
 10
1086.114353943099
 20
1984.923793031421
 30
0.0
 11
1086.114353943098
 21
1990.08598095858
 31
0.0
  0
LINE
  5
241
330
21E
100
AcDbEntity
  8
P-SANR-FIXT
100
AcDbLine
 10
1048.114353943098
 20
1990.08598095858
 30
0.0
 11
1048.114353943098
 21
1984.923793031421
 31
0.0
  0
LINE
  5
242
330
21E
100
AcDbEntity
  8
P-SANR-FIXT
100
AcDbLine
 10
1084.864353943098
 20
1977.373664850275
 30
0.0
 11
1084.864353943098
 21
1984.206822485982
 31
0.0
  0
LINE
  5
243
330
21E
100
AcDbEntity
  8
P-SANR-FIXT
100
AcDbLine
 10
1049.364353943098
 20
1984.206822485982
 30
0.0
 11
1049.364353943098
 21
1977.368572615869
 31
0.0
  0
LWPOLYLINE
  5
244
330
21E
100
AcDbEntity
  8
P-SANR-FIXT
100
AcDbPolyline
 90
       30
 70
   128
 43
0.0
 10
1086.114353943098
 20
1971.780740074528
 10
1086.098764490091
 20
1972.419171118268
 10
1086.05202943963
 20
1973.056466653604
 10
1085.974248382078
 20
1973.691495951038
 10
1085.865586200712
 20
1974.323137700941
 10
1085.72627147885
 20
1974.950284388601
 10
1085.556594380567
 20
1975.571846294145
 10
1085.356904103621
 20
1976.186755033639
 10
1085.127606015912
 20
1976.793966587208
 10
1084.869158590759
 20
1977.392463790646
 10
1084.582070252031
 20
1977.981258295953
 10
1084.266896229048
 20
1978.55939203134
 10
1083.924235505135
 20
1979.12593821091
 10
1083.554727924691
 20
1979.680001957704
 10
1083.159051503747
 20
1980.220720611148
 10
1082.737919969842
 20
1980.747263791596
 10
1082.292080539951
 20
1981.258833291712
 10
1081.822311930999
 20
1981.754662857976
 10
1081.329422586537
 20
1982.234017916857
 10
1080.814249095464
 20
1982.696195290283
 10
1080.277654774042
 20
1983.140522934862
 10
1079.720528380375
 20
1983.566359729604
 10
1079.14378293058
 20
1983.97309532811
 10
1078.548354587459
 20
1984.360150083686
 10
1077.935201595162
 20
1984.726975049597
 10
1077.305303236673
 20
1985.073052051868
 10
1076.659658794567
 20
1985.397893828421
 10
1075.99928649916
 20
1985.701044225819
 10
1075.325222451721
 20
1985.982078443363
 10
1074.743883857521
 20
1986.20093652042
  0
LWPOLYLINE
  5
245
330
21E
100
AcDbEntity
  8
P-SANR-FIXT
100
AcDbPolyline
 90
       31
 70
   128
 43
0.0
 10
1059.486465565234
 20
1986.199988778846
 10
1059.087631163379
 20
1986.054089883307
 10
1058.410051366719
 20
1985.77909371059
 10
1057.745880750313
 20
1985.481872109721
 10
1057.09616005016
 20
1985.162841372236
 10
1056.461912427469
 20
1984.822449214979
 10
1055.844142383447
 20
1984.461174525105
 10
1055.243834701796
 20
1984.079527149502
 10
1054.661953407479
 20
1983.67804773916
 10
1054.099440726858
 20
1983.257307657736
 10
1053.557216030657
 20
1982.817908961287
 10
1053.036174737527
 20
1982.360484452872
 10
1052.537187152562
 20
1981.885697811224
 10
1052.06109721222
 20
1981.394243786871
 10
1051.608721105159
 20
1980.886848451868
 10
1051.180845737992
 20
1980.3642694809
 10
1050.778227016423
 20
1979.827296431967
 10
1050.401587916101
 20
1979.276750984783
 10
1050.051616324378
 20
1978.713487084958
 10
1049.72896264423
 20
1978.138390932843
 10
1049.434237164918
 20
1977.552380748764
 10
1049.168007220377
 20
1976.956406242317
 10
1048.93079417499
 20
1976.351447713737
 10
1048.723070296264
 20
1975.738514721059
 10
1048.545255593343
 20
1975.118644258619
 10
1048.39771471737
 20
1974.492898410449
 10
1048.280754032326
 20
1973.862361465908
 10
1048.194618971248
 20
1973.228136512986
 10
1048.139491791075
 20
1972.591341555155
 10
1048.115489829029
 20
1971.953105227778
 10
1048.114353943098
 20
1971.780740074528
  0
LINE
  5
246
330
21E
100
AcDbEntity
  8
P-SANR-FIXT
100
AcDbLine
 10
1086.114353943098
 20
1966.856135286363
 30
0.0
 11
1086.114353943098
 21
1971.780740074528
 31
0.0
  0
LINE
  5
247
330
21E
100
AcDbEntity
  8
P-SANR-FIXT
100
AcDbLine
 10
1048.114353943098
 20
1971.780740074528
 30
0.0
 11
1048.114353943098
 21
1966.856135286363
 31
0.0
  0
LWPOLYLINE
  5
248
330
21E
100
AcDbEntity
  8
P-SANR-FIXT
100
AcDbPolyline
 90
       10
 70
   128
 43
0.0
 10
1083.864353943098
 20
2001.571633052204
 10
1083.849781290972
 20
2002.168443053261
 10
1083.806111754014
 20
2002.763955820856
 10
1083.733489666921
 20
2003.356885083819
 10
1083.632152560071
 20
2003.945966087162
 10
1083.502426792242
 20
2004.529965358977
 10
1083.344721767709
 20
2005.107689368136
 10
1083.159523032658
 20
2005.677991827033
 10
1082.947384583721
 20
2006.239779482199
 10
1082.864353943098
 20
2006.432062626618
  0
LWPOLYLINE
  5
249
330
21E
100
AcDbEntity
  8
P-SANR-FIXT
100
AcDbPolyline
 90
        7
 70
   128
 43
0.0
 10
1079.935564241705
 20
2010.766763112247
 10
1079.499379275493
 20
2011.190980422954
 10
1079.039389967875
 20
2011.603659442265
 10
1078.561811384706
 20
2011.999127372381
 10
1078.067498514815
 20
2012.376960674339
 10
1077.557307351552
 20
2012.736767600361
 10
1077.152397974502
 20
2012.999981638008
  0
LWPOLYLINE
  5
24A
330
21E
100
AcDbEntity
  8
P-SANR-FIXT
100
AcDbPolyline
 90
        8
 70
   128
 43
0.0
 10
1057.076309911694
 20
2012.998965328529
 10
1056.811715435936
 20
2012.830745420663
 10
1056.297385383093
 20
2012.475867248758
 10
1055.798702460079
 20
2012.102862077928
 10
1055.316522864482
 20
2011.712113521911
 10
1054.851701905212
 20
2011.304036271674
 10
1054.405093447173
 20
2010.879078855067
 10
1054.300286289717
 20
2010.770886920392
  0
LWPOLYLINE
  5
24B
330
21E
100
AcDbEntity
  8
P-SANR-FIXT
100
AcDbPolyline
 90
       11
 70
   128
 43
0.0
 10
1051.364353943098
 20
2006.43735119197
 10
1051.343119752778
 20
2006.389815555458
 10
1051.123813015416
 20
2005.830506128354
 10
1050.931285782357
 20
2005.262396492121
 10
1050.766109141855
 20
2004.68656479788
 10
1050.628787897949
 20
2004.104143524077
 10
1050.519752725498
 20
2003.516314108972
 10
1050.43935302019
 20
2002.924300044387
 10
1050.387850782047
 20
2002.329358563061
 10
1050.365415840149
 20
2001.732771142268
 10
1050.364353943098
 20
2001.571633052204
  0
LINE
  5
24C
330
21E
100
AcDbEntity
  8
P-SANR-FIXT
100
AcDbLine
 10
1083.864353943098
 20
1997.422747370782
 30
0.0
 11
1083.864353943098
 21
2001.571633052204
 31
0.0
  0
LINE
  5
24D
330
21E
100
AcDbEntity
  8
P-SANR-FIXT
100
AcDbLine
 10
1050.364353943098
 20
2001.571633052204
 30
0.0
 11
1050.364353943098
 21
1997.422747370782
 31
0.0
  0
LWPOLYLINE
  5
24E
330
21E
100
AcDbEntity
  8
P-SANR-FIXT
100
AcDbPolyline
 90
       41
 70
   128
 43
0.0
 10
1067.114353943098
 20
1949.800245202366
 10
1067.846933256486
 20
1949.812248750376
 10
1068.578392250734
 20
1949.848242733523
 10
1069.307612061155
 20
1949.908177192552
 10
1070.033476725694
 20
1949.991968939542
 10
1070.754874620671
 20
1950.09950167252
 10
1071.470699878048
 20
1950.230626132595
 10
1072.179853778498
 20
1950.385160300298
 10
1072.881246114908
 20
1950.562889626748
 10
1073.573796521488
 20
1950.763567294289
 10
1074.256435764344
 20
1950.986914500181
 10
1074.928106990276
 20
1951.232620755889
 10
1075.587766931699
 20
1951.500344193489
 10
1076.234387066953
 20
1951.789711869776
 10
1076.866954737066
 20
1952.100320057817
 10
1077.48447422202
 20
1952.431734515051
 10
1078.085967782057
 20
1952.783490716727
 10
1078.67047667238
 20
1953.15509404351
 10
1079.23706214272
 20
1953.546019912744
 10
1079.784806436771
 20
1953.955713844185
 10
1080.312813810077
 20
1954.383591453262
 10
1080.820211588671
 20
1954.829038368197
 10
1081.306151294172
 20
1955.291410071851
 10
1081.769809863945
 20
1955.77003167495
 10
1082.210390996874
 20
1956.264197634574
 10
1082.627126655787
 20
1956.773171440217
 10
1083.019278756137
 20
1957.296185299242
 10
1083.386141066639
 20
1957.83243986366
 10
1083.727041340715
 20
1958.381104050225
 10
1084.041343687565
 20
1958.941315015013
 10
1084.32845117828
 20
1959.512178350822
 10
1084.58780866608
 20
1960.092768579783
 10
1084.818905781046
 20
1960.682130013223
 10
1085.021280039858
 20
1961.279278045131
 10
1085.19451999162
 20
1961.883200933742
 10
1085.338268303817
 20
1962.492862107739
 10
1085.452224679759
 20
1963.107203009812
 10
1085.536148492663
 20
1963.725146462183
 10
1085.589861023118
 20
1964.345600508307
 10
1085.613247197036
 20
1964.967462654797
 10
1085.614353943083
 20
1965.135405977463
  0
LWPOLYLINE
  5
24F
330
21E
100
AcDbEntity
  8
P-SANR-FIXT
100
AcDbPolyline
 90
       41
 70
   128
 43
0.0
 10
1048.614353943113
 20
1965.135405977464
 10
1048.629543449446
 20
1964.51335360615
 10
1048.675079299723
 20
1963.892410540858
 10
1048.750863822045
 20
1963.273681350623
 10
1048.856735327168
 20
1962.658261268378
 10
1048.992469696259
 20
1962.047231857628
 10
1049.157782493042
 20
1961.441657054042
 10
1049.352331501713
 20
1960.8425796656
 10
1049.575719579304
 20
1960.251018385392
 10
1049.827497707249
 20
1959.667965340526
 10
1050.107168131136
 20
1959.094384171644
 10
1050.414187488723
 20
1958.53120861244
 10
1050.747969842411
 20
1957.979341518922
 10
1051.107889551301
 20
1957.439654284641
 10
1051.493283937908
 20
1956.912986570819
 10
1051.903455723757
 20
1956.400146278595
 10
1052.337675225131
 20
1955.901909693608
 10
1052.795182314512
 20
1955.419021739557
 10
1053.275188164166
 20
1954.952196286155
 10
1053.776876796035
 20
1954.502116466777
 10
1054.299406466757
 20
1954.06943497131
 10
1054.841910918667
 20
1953.65477428939
 10
1055.403500527637
 20
1953.258726888019
 10
1055.983263376977
 20
1952.881855315055
 10
1056.580266283986
 20
1952.524692226317
 10
1057.193555802369
 20
1952.187740338832
 10
1057.822159220155
 20
1951.871472316445
 10
1058.46508556903
 20
1951.576330596412
 10
1059.121326657518
 20
1951.30272716726
 10
1059.789858137162
 20
1951.051043308921
 10
1060.469640607946
 20
1950.821629306421
 10
1061.15962076668
 20
1950.614804148121
 10
1061.858732599882
 20
1950.430855218962
 10
1062.565898620883
 20
1950.270037998381
 10
1063.280031149408
 20
1950.13257577163
 10
1064.000033630653
 20
1950.018659362245
 10
1064.72480198996
 20
1949.928446892347
 10
1065.453226018409
 20
1949.862063576438
 10
1066.184190784111
 20
1949.81960155331
 10
1066.916578063543
 20
1949.801119759678
 10
1067.114353943098
 20
1949.800245202366
  0
LINE
  5
250
330
21E
100
AcDbEntity
  8
P-SANR-FIXT
100
AcDbLine
 10
1085.614353943098
 20
1965.135405977369
 30
0.0
 11
1085.614353943098
 21
1966.282558850069
 31
0.0
  0
LINE
  5
251
330
21E
100
AcDbEntity
  8
P-SANR-FIXT
100
AcDbLine
 10
1048.614353943098
 20
1966.282558850069
 30
0.0
 11
1048.614353943098
 21
1965.13540597737
 31
0.0
  0
ELLIPSE
  5
252
330
21E
100
AcDbEntity
  8
P-SANR-FIXT
100
AcDbEllipse
 10
1067.114353943096
 20
1990.085980958579
 30
0.0
 11
19.00000000000045
 21
0.0
 31
0.0
210
0.0
220
0.0
230
1.0
 40
0.8191520442889807
 41
0.0
 42
0.5977913243426545
  0
ELLIPSE
  5
253
330
21E
100
AcDbEntity
  8
P-SANR-FIXT
100
AcDbEllipse
 10
1067.114353943096
 20
1990.085980958579
 30
0.0
 11
19.00000000000004
 21
0.0
 31
0.0
210
0.0
220
0.0
230
1.0
 40
0.8191520442890013
 41
2.552544031041699
 42
3.141592653589793
  0
ELLIPSE
  5
254
330
21E
100
AcDbEntity
  8
P-SANR-FIXT
100
AcDbEllipse
 10
1067.114353943096
 20
1984.92379303142
 30
0.0
 11
19.00000000000016
 21
0.0
 31
0.0
210
0.0
220
0.0
230
1.0
 40
0.8191520442889819
 41
5.921164335091125
 42
6.876469719610949
  0
ELLIPSE
  5
255
330
21E
100
AcDbEntity
  8
P-SANR-FIXT
100
AcDbEllipse
 10
1067.114353943096
 20
1984.92379303142
 30
0.0
 11
18.99999999999982
 21
0.0
 31
0.0
210
0.0
220
0.0
230
1.0
 40
0.8191520442890032
 41
2.54830824115846
 42
3.503613625678241
  0
ELLIPSE
  5
256
330
21E
100
AcDbEntity
  8
P-SANR-FIXT
100
AcDbEllipse
 10
1067.114353943096
 20
1984.206822485981
 30
0.0
 11
17.75000000000028
 21
0.0
 31
0.0
210
0.0
220
0.0
230
1.0
 40
0.8191520442889864
 41
0.0
 42
0.5283624315220404
  0
ELLIPSE
  5
257
330
21E
100
AcDbEntity
  8
P-SANR-FIXT
100
AcDbEllipse
 10
1067.114353943096
 20
1984.206822485981
 30
0.0
 11
17.75
 21
0.0
 31
0.0
210
0.0
220
0.0
230
1.0
 40
0.8191520442889899
 41
2.613230222067762
 42
3.141592653589793
  0
ELLIPSE
  5
258
330
21E
100
AcDbEntity
  8
P-SANR-FIXT
100
AcDbEllipse
 10
1067.114353943096
 20
1966.856135286362
 30
0.0
 11
19.0
 21
0.0
 31
0.0
210
0.0
220
0.0
230
1.0
 40
0.8191520442889764
 41
5.977790677607321
 42
7.853981633974482
  0
ELLIPSE
  5
259
330
21E
100
AcDbEntity
  8
P-SANR-FIXT
100
AcDbEllipse
 10
1067.114353943096
 20
1966.856135286362
 30
0.0
 11
19.00000000000017
 21
0.0
 31
0.0
210
0.0
220
0.0
230
1.0
 40
0.8191520442889824
 41
1.570796326794896
 42
3.446987283162056
  0
ELLIPSE
  5
25A
330
21E
100
AcDbEntity
  8
P-SANR-FIXT
100
AcDbEllipse
 10
1067.114353943096
 20
1966.282558850068
 30
0.0
 11
18.5
 21
0.0
 31
0.0
210
0.0
220
0.0
230
1.0
 40
0.8191520442864989
 41
0.0
 42
1.570796326794896
  0
ELLIPSE
  5
25B
330
21E
100
AcDbEntity
  8
P-SANR-FIXT
100
AcDbEllipse
 10
1067.114353943096
 20
1966.282558850068
 30
0.0
 11
18.50000000000022
 21
0.0
 31
0.0
210
0.0
220
0.0
230
1.0
 40
0.8191520442864888
 41
1.570796326794908
 42
3.141592653589793
  0
LINE
  5
25C
330
21E
100
AcDbEntity
  8
P-SANR-FIXT
100
AcDbLine
 10
1067.114353943096
 20
1972.343773961674
 30
0.0
 11
1072.599181500398
 21
1972.343773961674
 31
0.0
  0
LINE
  5
25D
330
21E
100
AcDbEntity
  8
P-SANR-FIXT
100
AcDbLine
 10
1072.599181500398
 20
1972.343773961674
 30
0.0
 11
1078.084009057699
 21
1964.561829540952
 31
0.0
  0
LINE
  5
25E
330
21E
100
AcDbEntity
  8
P-SANR-FIXT
100
AcDbLine
 10
1056.144698828494
 20
1964.561829540952
 30
0.0
 11
1061.629526385795
 21
1972.343773961674
 31
0.0
  0
LINE
  5
25F
330
21E
100
AcDbEntity
  8
P-SANR-FIXT
100
AcDbLine
 10
1061.629526385795
 20
1972.343773961674
 30
0.0
 11
1067.114353943096
 21
1972.343773961674
 31
0.0
  0
LINE
  5
260
330
21E
100
AcDbEntity
  8
P-SANR-FIXT
100
AcDbLine
 10
1056.144698828494
 20
1959.973218050108
 30
0.0
 11
1058.076403246285
 21
1957.23249078758
 31
0.0
  0
LINE
  5
261
330
21E
100
AcDbEntity
  8
P-SANR-FIXT
100
AcDbLine
 10
1076.152304639908
 20
1957.23249078758
 30
0.0
 11
1078.084009057699
 21
1959.973218050108
 31
0.0
  0
LINE
  5
262
330
21E
100
AcDbEntity
  8
P-SANR-FIXT
100
AcDbLine
 10
1078.084009057699
 20
1959.973218050108
 30
0.0
 11
1072.599181500398
 21
1967.755162470853
 31
0.0
  0
LINE
  5
263
330
21E
100
AcDbEntity
  8
P-SANR-FIXT
100
AcDbLine
 10
1072.599181500398
 20
1967.755162470853
 30
0.0
 11
1061.629526385795
 21
1967.755162470853
 31
0.0
  0
LINE
  5
264
330
21E
100
AcDbEntity
  8
P-SANR-FIXT
100
AcDbLine
 10
1061.629526385795
 20
1967.755162470853
 30
0.0
 11
1056.144698828494
 21
1959.973218050108
 31
0.0
  0
LINE
  5
265
330
21E
100
AcDbEntity
  8
P-SANR-FIXT
100
AcDbLine
 10
1056.144698828494
 20
1959.973218050108
 30
0.0
 11
1056.144698828494
 21
1964.561829540907
 31
0.0
  0
LINE
  5
266
330
21E
100
AcDbEntity
  8
P-SANR-FIXT
100
AcDbLine
 10
1078.084009057699
 20
1964.561829540907
 30
0.0
 11
1078.084009057699
 21
1959.973218050108
 31
0.0
  0
LINE
  5
267
330
21E
100
AcDbEntity
  8
P-SANR-FIXT
100
AcDbLine
 10
1072.599181500398
 20
1972.343773961653
 30
0.0
 11
1072.599181500398
 21
1967.755162470853
 31
0.0
  0
LINE
  5
268
330
21E
100
AcDbEntity
  8
P-SANR-FIXT
100
AcDbLine
 10
1061.629526385795
 20
1972.343773961653
 30
0.0
 11
1061.629526385795
 21
1967.755162470853
 31
0.0
  0
LINE
  5
269
330
21E
100
AcDbEntity
  8
P-SANR-FIXT
100
AcDbLine
 10
1079.614353943098
 20
2012.95050560235
 30
0.0
 11
1079.614353943098
 21
2023.982558850012
 31
0.0
  0
LINE
  5
26A
330
21E
100
AcDbEntity
  8
P-SANR-FIXT
100
AcDbLine
 10
1054.614353943098
 20
2023.982558850012
 30
0.0
 11
1054.614353943098
 21
2012.95050560235
 31
0.0
  0
LINE
  5
26B
330
21E
100
AcDbEntity
  8
P-SANR-FIXT
100
AcDbLine
 10
1079.614353943098
 20
2023.982558850012
 30
0.0
 11
1079.114353943098
 21
2024.482558850012
 31
0.0
  0
LINE
  5
26C
330
21E
100
AcDbEntity
  8
P-SANR-FIXT
100
AcDbLine
 10
1055.114353943098
 20
2024.482558850012
 30
0.0
 11
1054.661920216951
 21
2024.030125123865
 31
0.0
  0
LINE
  5
26D
330
21E
100
AcDbEntity
  8
P-SANR-FIXT
100
AcDbLine
 10
1054.656079915496
 20
2024.024284822409
 30
0.0
 11
1054.614353943098
 21
2023.982558850012
 31
0.0
  0
LINE
  5
26E
330
21E
100
AcDbEntity
  8
P-SANR-FIXT
100
AcDbLine
 10
1076.114353943101
 20
2024.482558850012
 30
0.0
 11
1076.114353943101
 21
2026.482558850015
 31
0.0
  0
LINE
  5
26F
330
21E
100
AcDbEntity
  8
P-SANR-FIXT
100
AcDbLine
 10
1058.114353943095
 20
2026.482558850015
 30
0.0
 11
1058.114353943095
 21
2024.482558850012
 31
0.0
  0
LINE
  5
270
330
21E
100
AcDbEntity
  8
P-SANR-FIXT
100
AcDbLine
 10
1058.114353943095
 20
2029.982558850019
 30
0.0
 11
1058.114353943095
 21
2026.482558850015
 31
0.0
  0
LINE
  5
271
330
21E
100
AcDbEntity
  8
P-SANR-FIXT
100
AcDbLine
 10
1076.114353943101
 20
2026.482558850015
 30
0.0
 11
1076.114353943101
 21
2029.982558850019
 31
0.0
  0
ARC
  5
272
330
21E
100
AcDbEntity
  8
P-SANR-FIXT
100
AcDbCircle
 10
1067.114353943096
 20
1999.982558850011
 30
0.0
 40
9.549999999999727
100
AcDbArc
 50
269.9999999999997
 51
90.0
  0
ARC
  5
273
330
21E
100
AcDbEntity
  8
P-SANR-FIXT
100
AcDbCircle
 10
1067.114353943096
 20
1999.982558850011
 30
0.0
 40
9.549999999999499
100
AcDbArc
 50
90.0
 51
269.9999999999997
  0
ARC
  5
274
330
21E
100
AcDbEntity
  8
P-SANR-FIXT
100
AcDbCircle
 10
1067.114353943096
 20
1999.98255885001
 30
0.0
 40
15.49999999999988
100
AcDbArc
 50
269.9999999999993
 51
89.99999999999872
  0
SPLINE
  5
275
330
21E
100
AcDbEntity
  8
P-SANR-FIXT
100
AcDbSpline
210
0.0
220
0.0
230
1.0
 70
    24
 71
     3
 72
     9
 73
     5
 74
     0
 42
0.000000001
 43
0.0000000001
 40
-1.0
 40
-1.0
 40
-1.0
 40
-1.0
 40
-0.5
 40
0.0
 40
0.0
 40
0.0
 40
0.0
 10
1068.383248812234
 20
1982.528622164807
 30
0.0
 10
1070.618452599707
 20
1983.819117673198
 30
0.0
 10
1075.055691430801
 20
1986.380958706789
 30
0.0
 10
1079.42659277419
 20
1988.904499773996
 30
0.0
 10
1081.595459073958
 20
1990.156695316004
 30
0.0
  0
SPLINE
  5
276
330
21E
100
AcDbEntity
  8
P-SANR-FIXT
100
AcDbSpline
210
0.0
220
0.0
230
1.0
 70
    24
 71
     3
 72
     9
 73
     5
 74
     0
 42
0.000000001
 43
0.0000000001
 40
-1.0
 40
-1.0
 40
-1.0
 40
-1.0
 40
-0.5
 40
0.0
 40
0.0
 40
0.0
 40
0.0
 10
1082.864353943096
 20
1992.354485698814
 30
0.0
 10
1082.864353943096
 20
1994.935476715596
 30
0.0
 10
1082.864353943096
 20
2000.059158782778
 30
0.0
 10
1082.864353943096
 20
2005.106240917192
 30
0.0
 10
1082.864353943096
 20
2007.610632001206
 30
0.0
  0
SPLINE
  5
277
330
21E
100
AcDbEntity
  8
P-SANR-FIXT
100
AcDbSpline
210
0.0
220
0.0
230
1.0
 70
    24
 71
     3
 72
     9
 73
     5
 74
     0
 42
0.000000001
 43
0.0000000001
 40
-1.0
 40
-1.0
 40
-1.0
 40
-1.0
 40
-0.5
 40
0.0
 40
0.0
 40
0.0
 40
0.0
 10
1081.595459073958
 20
2009.808422384018
 30
0.0
 10
1079.360255286485
 20
2011.098917892409
 30
0.0
 10
1074.923016455392
 20
2013.660758925999
 30
0.0
 10
1070.552115112003
 20
2016.184299993206
 30
0.0
 10
1068.383248812235
 20
2017.436495535213
 30
0.0
  0
ARC
  5
278
330
21E
100
AcDbEntity
  8
P-SANR-FIXT
100
AcDbCircle
 10
1067.114353943096
 20
1999.98255885001
 30
0.0
 40
15.49999999999977
100
AcDbArc
 50
90.0
 51
269.9999999999997
  0
SPLINE
  5
279
330
21E
100
AcDbEntity
  8
P-SANR-FIXT
100
AcDbSpline
210
0.0
220
0.0
230
1.0
 70
    24
 71
     3
 72
     9
 73
     5
 74
     0
 42
0.000000001
 43
0.0000000001
 40
-1.0
 40
-1.0
 40
-1.0
 40
-1.0
 40
-0.5
 40
0.0
 40
0.0
 40
0.0
 40
0.0
 10
1065.845459073957
 20
2017.436495535213
 30
0.0
 10
1063.610255286485
 20
2016.146000026822
 30
0.0
 10
1059.173016455392
 20
2013.584158993232
 30
0.0
 10
1054.802115112003
 20
2011.060617926025
 30
0.0
 10
1052.633248812235
 20
2009.808422384018
 30
0.0
  0
SPLINE
  5
27A
330
21E
100
AcDbEntity
  8
P-SANR-FIXT
100
AcDbSpline
210
0.0
220
0.0
230
1.0
 70
    24
 71
     3
 72
     9
 73
     5
 74
     0
 42
0.000000001
 43
0.0000000001
 40
-1.0
 40
-1.0
 40
-1.0
 40
-1.0
 40
-0.5
 40
0.0
 40
0.0
 40
0.0
 40
0.0
 10
1051.364353943096
 20
2007.610632001206
 30
0.0
 10
1051.364353943096
 20
2005.029640984424
 30
0.0
 10
1051.364353943096
 20
1999.905958917243
 30
0.0
 10
1051.364353943096
 20
1994.858876782829
 30
0.0
 10
1051.364353943096
 20
1992.354485698814
 30
0.0
  0
SPLINE
  5
27B
330
21E
100
AcDbEntity
  8
P-SANR-FIXT
100
AcDbSpline
210
0.0
220
0.0
230
1.0
 70
    24
 71
     3
 72
     9
 73
     5
 74
     0
 42
0.000000001
 43
0.0000000001
 40
-1.0
 40
-1.0
 40
-1.0
 40
-1.0
 40
-0.5
 40
0.0
 40
0.0
 40
0.0
 40
0.0
 10
1052.633248812234
 20
1990.156695316004
 30
0.0
 10
1054.868452599707
 20
1988.866199807613
 30
0.0
 10
1059.305691430801
 20
1986.304358774022
 30
0.0
 10
1063.67659277419
 20
1983.780817706815
 30
0.0
 10
1065.845459073959
 20
1982.528622164807
 30
0.0
  0
ARC
  5
27C
330
21E
100
AcDbEntity
  8
P-SANR-FIXT
100
AcDbCircle
 10
1067.114353943096
 20
1999.98255885001
 30
0.0
 40
17.49999999999988
100
AcDbArc
 50
325.8419327631678
 51
334.1580672368319
  0
ARC
  5
27D
330
21E
100
AcDbEntity
  8
P-SANR-FIXT
100
AcDbCircle
 10
1067.114353943096
 20
1999.98255885001
 30
0.0
 40
17.49999999999996
100
AcDbArc
 50
25.84193276316543
 51
34.15806723683561
  0
ARC
  5
27E
330
21E
100
AcDbEntity
  8
P-SANR-FIXT
100
AcDbCircle
 10
1067.114353943096
 20
1999.98255885001
 30
0.0
 40
17.49999999999983
100
AcDbArc
 50
85.84193276316304
 51
89.99999999999927
  0
ARC
  5
27F
330
21E
100
AcDbEntity
  8
P-SANR-FIXT
100
AcDbCircle
 10
1067.114353943096
 20
1999.98255885001
 30
0.0
 40
17.49999999999988
100
AcDbArc
 50
269.9999999999993
 51
274.1580672368295
  0
ARC
  5
280
330
21E
100
AcDbEntity
  8
P-SANR-FIXT
100
AcDbCircle
 10
1067.114353943096
 20
1999.98255885001
 30
0.0
 40
17.4999999999999
100
AcDbArc
 50
145.8419327631634
 51
154.158067236832
  0
ARC
  5
281
330
21E
100
AcDbEntity
  8
P-SANR-FIXT
100
AcDbCircle
 10
1067.114353943096
 20
1999.98255885001
 30
0.0
 40
17.49999999999985
100
AcDbArc
 50
205.8419327631652
 51
214.1580672368307
  0
ARC
  5
282
330
21E
100
AcDbEntity
  8
P-SANR-FIXT
100
AcDbCircle
 10
1067.114353943096
 20
1999.98255885001
 30
0.0
 40
17.5
100
AcDbArc
 50
90.0
 51
94.15806723683543
  0
ARC
  5
283
330
21E
100
AcDbEntity
  8
P-SANR-FIXT
100
AcDbCircle
 10
1067.114353943096
 20
1999.98255885001
 30
0.0
 40
17.49999999999994
100
AcDbArc
 50
265.8419327631679
 51
269.9999999999997
  0
LINE
  5
284
330
21E
100
AcDbEntity
  8
P-SANR-FIXT
100
AcDbLine
 10
1067.114353943096
 20
2024.482558850011
 30
0.0
 11
1079.114353943096
 21
2024.482558850011
 31
0.0
  0
LINE
  5
285
330
21E
100
AcDbEntity
  8
P-SANR-FIXT
100
AcDbLine
 10
1055.114353943096
 20
2024.482558850011
 30
0.0
 11
1067.114353943096
 21
2024.482558850011
 31
0.0
  0
LINE
  5
286
330
21E
100
AcDbEntity
  8
P-SANR-FIXT
100
AcDbLine
 10
1079.614353943096
 20
2023.982558850011
 30
0.0
 11
1067.114353943096
 21
2023.982558850011
 31
0.0
  0
LINE
  5
287
330
21E
100
AcDbEntity
  8
P-SANR-FIXT
100
AcDbLine
 10
1067.114353943096
 20
2023.982558850011
 30
0.0
 11
1054.614353943096
 21
2023.982558850011
 31
0.0
  0
LINE
  5
288
330
21E
100
AcDbEntity
  8
P-SANR-FIXT
100
AcDbLine
 10
1076.153629352625
 20
2012.950505602348
 30
0.0
 11
1079.614353943096
 21
2012.950505602348
 31
0.0
  0
LINE
  5
289
330
21E
100
AcDbEntity
  8
P-SANR-FIXT
100
AcDbLine
 10
1054.614353943096
 20
2012.950505602348
 30
0.0
 11
1058.155583234368
 21
2012.950505602348
 31
0.0
  0
LINE
  5
28A
330
21E
100
AcDbEntity
  8
P-SANR-FIXT
100
AcDbLine
 10
1071.981004360595
 20
2026.482558850014
 30
0.0
 11
1076.104109986182
 21
2026.482558850014
 31
0.0
  0
LINE
  5
28B
330
21E
100
AcDbEntity
  8
P-SANR-FIXT
100
AcDbLine
 10
1067.114353943096
 20
2026.482558850014
 30
0.0
 11
1071.237459568684
 21
2026.482558850014
 31
0.0
  0
LINE
  5
28C
330
21E
100
AcDbEntity
  8
P-SANR-FIXT
100
AcDbLine
 10
1062.991248317509
 20
2026.482558850014
 30
0.0
 11
1067.114353943096
 21
2026.482558850014
 31
0.0
  0
LINE
  5
28D
330
21E
100
AcDbEntity
  8
P-SANR-FIXT
100
AcDbLine
 10
1058.12459790001
 20
2026.482558850014
 30
0.0
 11
1062.247703525598
 21
2026.482558850014
 31
0.0
  0
LINE
  5
28E
330
21E
100
AcDbEntity
  8
P-SANR-FIXT
100
AcDbLine
 10
1058.114353943093
 20
2029.982558850018
 30
0.0
 11
1058.124597900011
 21
2029.982558850018
 31
0.0
  0
LINE
  5
28F
330
21E
100
AcDbEntity
  8
P-SANR-FIXT
100
AcDbLine
 10
1058.124597900011
 20
2029.982558850018
 30
0.0
 11
1062.247703525597
 21
2029.982558850018
 31
0.0
  0
LINE
  5
290
330
21E
100
AcDbEntity
  8
P-SANR-FIXT
100
AcDbLine
 10
1062.247703525597
 20
2029.982558850018
 30
0.0
 11
1062.99124831751
 21
2029.982558850018
 31
0.0
  0
LINE
  5
291
330
21E
100
AcDbEntity
  8
P-SANR-FIXT
100
AcDbLine
 10
1062.99124831751
 20
2029.982558850018
 30
0.0
 11
1071.237459568683
 21
2029.982558850018
 31
0.0
  0
LINE
  5
292
330
21E
100
AcDbEntity
  8
P-SANR-FIXT
100
AcDbLine
 10
1071.237459568683
 20
2029.982558850018
 30
0.0
 11
1071.981004360595
 21
2029.982558850018
 31
0.0
  0
LINE
  5
293
330
21E
100
AcDbEntity
  8
P-SANR-FIXT
100
AcDbLine
 10
1071.981004360595
 20
2029.982558850018
 30
0.0
 11
1076.104109986182
 21
2029.982558850018
 31
0.0
  0
LINE
  5
294
330
21E
100
AcDbEntity
  8
P-SANR-FIXT
100
AcDbLine
 10
1076.104109986182
 20
2029.982558850018
 30
0.0
 11
1076.1143539431
 21
2029.982558850018
 31
0.0
  0
LINE
  5
295
330
21E
100
AcDbEntity
  8
P-SANR-FIXT
100
AcDbLine
 10
1058.124597900011
 20
2026.482558850009
 30
0.0
 11
1058.124597900011
 21
2029.982558850018
 31
0.0
  0
LINE
  5
296
330
21E
100
AcDbEntity
  8
P-SANR-FIXT
100
AcDbLine
 10
1062.247703525597
 20
2026.482558850009
 30
0.0
 11
1062.247703525597
 21
2029.982558850018
 31
0.0
  0
LINE
  5
297
330
21E
100
AcDbEntity
  8
P-SANR-FIXT
100
AcDbLine
 10
1062.99124831751
 20
2026.482558850009
 30
0.0
 11
1062.99124831751
 21
2029.982558850018
 31
0.0
  0
LINE
  5
298
330
21E
100
AcDbEntity
  8
P-SANR-FIXT
100
AcDbLine
 10
1071.237459568683
 20
2026.482558850009
 30
0.0
 11
1071.237459568683
 21
2029.982558850018
 31
0.0
  0
LINE
  5
299
330
21E
100
AcDbEntity
  8
P-SANR-FIXT
100
AcDbLine
 10
1071.981004360595
 20
2026.482558850009
 30
0.0
 11
1071.981004360595
 21
2029.982558850018
 31
0.0
  0
LINE
  5
29A
330
21E
100
AcDbEntity
  8
P-SANR-FIXT
100
AcDbLine
 10
1076.104109986182
 20
2026.482558850009
 30
0.0
 11
1076.104109986182
 21
2029.982558850018
 31
0.0
  0
ENDBLK
  5
29C
330
21E
100
AcDbEntity
  8
0
100
AcDbBlockEnd
  0
ENDSEC
  0
SECTION
  2
ENTITIES
  0
INSERT
  5
13C
330
71
100
AcDbEntity
  8
P-SANR-FIXT
100
AcDbBlockReference
  2
Automatic flow rate regulator valve_Caleffi_121 DN15 - 1_2__-859151-Est - Idraulica
 10
0.0
 20
0.0
 30
0.0
1001
REVIT
1002
{
1070
     1
1000
863131
1002
}
1002
{
1070
     5
1000
859151
1002
}
1002
{
1070
     2
1000
-2001160
1002
}
  0
INSERT
  5
21D
330
71
100
AcDbEntity
  8
P-SANR-FIXT
100
AcDbBlockReference
  2
Automatic flow rate regulator valve_Caleffi_121 DN15 - 1_2__-V1-Est - Idraulica
 10
0.0
 20
0.0
 30
0.0
1001
REVIT
1002
{
1070
     1
1000
863152
1002
}
1002
{
1070
     5
1000
859151
1002
}
1002
{
1070
     2
1000
-2001160
1002
}
  0
INSERT
  5
29D
330
71
100
AcDbEntity
  8
P-SANR-FIXT
100
AcDbBlockReference
  2
Automatic flow rate regulator valve_Caleffi_121 DN15 - 1_2__-V2-Est - Idraulica
 10
0.0
 20
0.0
 30
0.0
1001
REVIT
1002
{
1070
     1
1000
863172
1002
}
1002
{
1070
     5
1000
859151
1002
}
1002
{
1070
     2
1000
-2001160
1002
}
  0
ENDSEC
  0
SECTION
  2
OBJECTS
  0
DICTIONARY
  5
C
330
0
100
AcDbDictionary
281
     1
  3
ACAD_CIP_PREVIOUS_PRODUCT_INFO
350
7A
  3
ACAD_COLOR
350
63
  3
ACAD_DETAILVIEWSTYLE
350
6B
  3
ACAD_GROUP
350
D
  3
ACAD_IMAGE_VARS
350
7B
  3
ACAD_LAYOUT
350
62
  3
ACAD_MATERIAL
350
10
  3
ACAD_MLEADERSTYLE
350
66
  3
ACAD_MLINESTYLE
350
5F
  3
ACAD_PLOTSETTINGS
350
61
  3
ACAD_PLOTSTYLENAME
350
E
  3
ACAD_SCALELIST
350
42
  3
ACAD_SECTIONVIEWSTYLE
350
68
  3
ACAD_TABLESTYLE
350
64
  3
ACAD_VISUALSTYLE
350
29
  3
ACDB_RECOMPOSE_DATA
350
2A8
  3
AcDbVariableDictionary
350
7C
  3
REVIT_DICTIONARY
350
29F
  0
DICTIONARY
  5
2A4
330
71
100
AcDbDictionary
280
     1
281
     1
  3
ACAD_SORTENTS
360
2A5
  0
XRECORD
  5
7A
102
{ACAD_REACTORS
330
C
102
}
330
C
100
AcDbXrecord
280
     1
300
RVT
300
2013
300
RVT2013
  0
DICTIONARY
  5
63
102
{ACAD_REACTORS
330
C
102
}
330
C
100
AcDbDictionary
281
     1
  0
DICTIONARY
  5
6B
102
{ACAD_REACTORS
330
C
102
}
330
C
100
AcDbDictionary
281
     1
  3
Imperial24
350
6C
  0
DICTIONARY
  5
D
102
{ACAD_REACTORS
330
C
102
}
330
C
100
AcDbDictionary
281
     1
  0
RASTERVARIABLES
  5
7B
102
{ACAD_REACTORS
330
C
102
}
330
C
100
AcDbRasterVariables
 90
        0
 70
     0
 71
     1
 72
     1
  0
DICTIONARY
  5
62
102
{ACAD_REACTORS
330
C
102
}
330
C
100
AcDbDictionary
281
     1
  3
Layout1
350
70
  3
Layout2
350
78
  3
Model
350
74
  0
DICTIONARY
  5
10
102
{ACAD_REACTORS
330
C
102
}
330
C
100
AcDbDictionary
281
     1
  3
ByBlock
350
19
  3
ByLayer
350
11
  3
Global
350
21
  0
DICTIONARY
  5
66
102
{ACAD_REACTORS
330
C
102
}
330
C
100
AcDbDictionary
281
     1
  3
Standard
350
67
  0
DICTIONARY
  5
5F
102
{ACAD_REACTORS
330
C
102
}
330
C
100
AcDbDictionary
281
     1
  3
Standard
350
60
  0
DICTIONARY
  5
61
102
{ACAD_REACTORS
330
C
102
}
330
C
100
AcDbDictionary
281
     1
  0
ACDBDICTIONARYWDFLT
  5
E
102
{ACAD_REACTORS
330
C
102
}
330
C
100
AcDbDictionary
281
     1
  3
Normal
350
F
100
AcDbDictionaryWithDefault
340
F
  0
DICTIONARY
  5
42
102
{ACAD_REACTORS
330
C
102
}
330
C
100
AcDbDictionary
281
     1
  3
A0
350
43
  3
A1
350
44
  3
A2
350
45
  3
A3
350
46
  3
A4
350
47
  3
A5
350
48
  3
A6
350
49
  3
A7
350
4A
  3
A8
350
4B
  3
A9
350
4C
  3
B0
350
4D
  3
B1
350
4E
  3
B2
350
4F
  3
B3
350
50
  3
B4
350
51
  3
B5
350
52
  3
B6
350
53
  0
DICTIONARY
  5
68
102
{ACAD_REACTORS
330
C
102
}
330
C
100
AcDbDictionary
281
     1
  3
Imperial24
350
6A
  0
DICTIONARY
  5
64
102
{ACAD_REACTORS
330
C
102
}
330
C
100
AcDbDictionary
281
     1
  3
Standard
350
65
  0
DICTIONARY
  5
29
102
{ACAD_REACTORS
330
C
102
}
330
C
100
AcDbDictionary
281
     1
  3
2dWireframe
350
2F
  3
Basic
350
2E
  3
Brighten
350
35
  3
ColorChange
350
39
  3
Conceptual
350
32
  3
Dim
350
34
  3
EdgeColorOff
350
41
  3
Facepattern
350
38
  3
Flat
350
2A
  3
FlatWithEdges
350
2B
  3
Gouraud
350
2C
  3
GouraudWithEdges
350
2D
  3
Hidden
350
31
  3
JitterOff
350
3F
  3
Linepattern
350
37
  3
OverhangOff
350
40
  3
Realistic
350
33
  3
Shaded
350
3E
  3
Shaded with edges
350
3D
  3
Shades of Gray
350
3A
  3
Sketchy
350
3B
  3
Thicken
350
36
  3
Wireframe
350
30
  3
X-Ray
350
3C
  0
XRECORD
  5
2A8
102
{ACAD_REACTORS
330
C
102
}
330
C
100
AcDbXrecord
280
     1
 90
        1
330
65
  0
DICTIONARY
  5
7C
102
{ACAD_REACTORS
330
C
102
}
330
C
100
AcDbDictionary
281
     1
  3
CANNOSCALE
350
81
  3
CMLEADERSTYLE
350
7E
  3
CTABLESTYLE
350
7D
  3
CVIEWDETAILSTYLE
350
7F
  3
CVIEWSECTIONSTYLE
350
80
  0
DICTIONARY
  5
29F
102
{ACAD_REACTORS
330
C
102
}
330
C
100
AcDbDictionary
281
     1
  3
DRAWING_TOOL
350
2A3
  3
REVIT_CATEGORY_MAPPING
350
2A1
  3
REVIT_SUB_CATEGORY_MAPPING
350
2A2
  3
REVIT_TYPE_MAPPING
350
2A0
  0
SORTENTSTABLE
  5
2A5
102
{ACAD_REACTORS
330
2A4
102
}
330
2A4
100
AcDbSortentsTable
330
71
  0
ACDBDETAILVIEWSTYLE
  5
6C
102
{ACAD_REACTORS
330
6B
102
}
330
6B
100
AcDbModelDocViewStyle
 70
     0
  3
Imperial24
290
     1
100
AcDbDetailViewStyle
 70
     0
 71
     0
 90
        3
 71
     1
340
55
 62
   256
 40
0.24
340
0
 62
   256
 40
0.24
300

 40
0.36
280
     3
 71
     2
340
5D
 90
       25
 62
   256
 71
     3
340
55
 62
   256
 40
0.24
 90
        1
 40
0.75
 90
        1
300
%<\AcVar ViewType \f "%tc1">% %<\AcVar ViewDetailId>%\PSCALA %<\AcVar ViewScale \f "%sn">%
 71
     4
340
5D
 90
       25
 62
   256
340
5D
 90
       25
 62
   256
280
     0
  0
LAYOUT
  5
70
102
{ACAD_REACTORS
330
62
102
}
330
62
100
AcDbPlotSettings
  1

  2

  4

  6

 40
0.0
 41
0.0
 42
0.0
 43
0.0
 44
0.0
 45
0.0
 46
0.0
 47
0.0
 48
0.0
 49
0.0
140
0.0
141
0.0
142
1.0
143
1.0
 70
   688
 72
     0
 73
     0
 74
     5
  7

 75
    16
147
1.0
 76
     0
 77
     2
 78
   300
148
0.0
149
0.0
100
AcDbLayout
  1
Layout1
 70
     1
 71
     1
 10
0.0
 20
0.0
 11
12.0
 21
9.0
 12
0.0
 22
0.0
 32
0.0
 14
0.0
 24
0.0
 34
0.0
 15
0.0
 25
0.0
 35
0.0
146
0.0
 13
0.0
 23
0.0
 33
0.0
 16
1.0
 26
0.0
 36
0.0
 17
0.0
 27
1.0
 37
0.0
 76
     0
330
6D
  0
LAYOUT
  5
78
102
{ACAD_REACTORS
330
62
102
}
330
62
100
AcDbPlotSettings
  1

  2

  4

  6

 40
0.0
 41
0.0
 42
0.0
 43
0.0
 44
0.0
 45
0.0
 46
0.0
 47
0.0
 48
0.0
 49
0.0
140
0.0
141
0.0
142
1.0
143
1.0
 70
   688
 72
     0
 73
     0
 74
     5
  7

 75
    16
147
1.0
 76
     0
 77
     2
 78
   300
148
0.0
149
0.0
100
AcDbLayout
  1
Layout2
 70
     1
 71
     2
 10
0.0
 20
0.0
 11
12.0
 21
9.0
 12
0.0
 22
0.0
 32
0.0
 14
0.0
 24
0.0
 34
0.0
 15
0.0
 25
0.0
 35
0.0
146
0.0
 13
0.0
 23
0.0
 33
0.0
 16
1.0
 26
0.0
 36
0.0
 17
0.0
 27
1.0
 37
0.0
 76
     0
330
75
  0
LAYOUT
  5
74
102
{ACAD_REACTORS
330
62
102
}
330
62
100
AcDbPlotSettings
  1

  2

  4

  6

 40
0.0
 41
0.0
 42
0.0
 43
0.0
 44
0.0
 45
0.0
 46
0.0
 47
0.0
 48
0.0
 49
0.0
140
0.0
141
0.0
142
1.0
143
1.0
 70
  1712
 72
     0
 73
     0
 74
     0
  7

 75
     0
147
1.0
 76
     0
 77
     2
 78
   300
148
0.0
149
0.0
100
AcDbLayout
  1
Model
 70
     1
 71
     0
 10
0.0
 20
0.0
 11
12.0
 21
9.0
 12
0.0
 22
0.0
 32
0.0
 14
0.0
 24
0.0
 34
0.0
 15
0.0
 25
0.0
 35
0.0
146
0.0
 13
0.0
 23
0.0
 33
0.0
 16
1.0
 26
0.0
 36
0.0
 17
0.0
 27
1.0
 37
0.0
 76
     0
330
71
  0
MATERIAL
  5
19
102
{ACAD_XDICTIONARY
360
1A
102
}
102
{ACAD_REACTORS
330
10
102
}
330
10
100
AcDbMaterial
  1
ByBlock
 72
     0
 43
0.0208333333333333
 43
0.0
 43
0.0
 43
0.0
 43
0.0
 43
0.0208333333333333
 43
0.0
 43
0.0
 43
0.0
 43
0.0
 43
1.0
 43
0.0
 43
0.0
 43
0.0
 43
0.0
 43
1.0
 77
     0
 47
0.0208333333333333
 47
0.0
 47
0.0
 47
0.0
 47
0.0
 47
0.0208333333333333
 47
0.0
 47
0.0
 47
0.0
 47
0.0
 47
1.0
 47
0.0
 47
0.0
 47
0.0
 47
0.0
 47
1.0
171
     0
 49
0.0208333333333333
 49
0.0
 49
0.0
 49
0.0
 49
0.0
 49
0.0208333333333333
 49
0.0
 49
0.0
 49
0.0
 49
0.0
 49
1.0
 49
0.0
 49
0.0
 49
0.0
 49
0.0
 49
1.0
175
     0
142
0.0208333333333333
142
0.0
142
0.0
142
0.0
142
0.0
142
0.0208333333333333
142
0.0
142
0.0
142
0.0
142
0.0
142
1.0
142
0.0
142
0.0
142
0.0
142
0.0
142
1.0
179
     0
144
0.0208333333333333
144
0.0
144
0.0
144
0.0
144
0.0
144
0.0208333333333333
144
0.0
144
0.0
144
0.0
144
0.0
144
1.0
144
0.0
144
0.0
144
0.0
144
0.0
144
1.0
147
0.0208333333333333
147
0.0
147
0.0
147
0.0
147
0.0
147
0.0208333333333333
147
0.0
147
0.0
147
0.0
147
0.0
147
1.0
147
0.0
147
0.0
147
0.0
147
0.0
147
1.0
  0
MATERIAL
  5
11
102
{ACAD_XDICTIONARY
360
12
102
}
102
{ACAD_REACTORS
330
10
102
}
330
10
100
AcDbMaterial
  1
ByLayer
 72
     0
 43
0.0208333333333333
 43
0.0
 43
0.0
 43
0.0
 43
0.0
 43
0.0208333333333333
 43
0.0
 43
0.0
 43
0.0
 43
0.0
 43
1.0
 43
0.0
 43
0.0
 43
0.0
 43
0.0
 43
1.0
 77
     0
 47
0.0208333333333333
 47
0.0
 47
0.0
 47
0.0
 47
0.0
 47
0.0208333333333333
 47
0.0
 47
0.0
 47
0.0
 47
0.0
 47
1.0
 47
0.0
 47
0.0
 47
0.0
 47
0.0
 47
1.0
171
     0
 49
0.0208333333333333
 49
0.0
 49
0.0
 49
0.0
 49
0.0
 49
0.0208333333333333
 49
0.0
 49
0.0
 49
0.0
 49
0.0
 49
1.0
 49
0.0
 49
0.0
 49
0.0
 49
0.0
 49
1.0
175
     0
142
0.0208333333333333
142
0.0
142
0.0
142
0.0
142
0.0
142
0.0208333333333333
142
0.0
142
0.0
142
0.0
142
0.0
142
1.0
142
0.0
142
0.0
142
0.0
142
0.0
142
1.0
179
     0
144
0.0208333333333333
144
0.0
144
0.0
144
0.0
144
0.0
144
0.0208333333333333
144
0.0
144
0.0
144
0.0
144
0.0
144
1.0
144
0.0
144
0.0
144
0.0
144
0.0
144
1.0
147
0.0208333333333333
147
0.0
147
0.0
147
0.0
147
0.0
147
0.0208333333333333
147
0.0
147
0.0
147
0.0
147
0.0
147
1.0
147
0.0
147
0.0
147
0.0
147
0.0
147
1.0
  0
MATERIAL
  5
21
102
{ACAD_XDICTIONARY
360
22
102
}
102
{ACAD_REACTORS
330
10
102
}
330
10
100
AcDbMaterial
  1
Global
 72
     0
 43
0.0208333333333333
 43
0.0
 43
0.0
 43
0.0
 43
0.0
 43
0.0208333333333333
 43
0.0
 43
0.0
 43
0.0
 43
0.0
 43
1.0
 43
0.0
 43
0.0
 43
0.0
 43
0.0
 43
1.0
 77
     0
 47
0.0208333333333333
 47
0.0
 47
0.0
 47
0.0
 47
0.0
 47
0.0208333333333333
 47
0.0
 47
0.0
 47
0.0
 47
0.0
 47
1.0
 47
0.0
 47
0.0
 47
0.0
 47
0.0
 47
1.0
171
     0
 49
0.0208333333333333
 49
0.0
 49
0.0
 49
0.0
 49
0.0
 49
0.0208333333333333
 49
0.0
 49
0.0
 49
0.0
 49
0.0
 49
1.0
 49
0.0
 49
0.0
 49
0.0
 49
0.0
 49
1.0
175
     0
142
0.0208333333333333
142
0.0
142
0.0
142
0.0
142
0.0
142
0.0208333333333333
142
0.0
142
0.0
142
0.0
142
0.0
142
1.0
142
0.0
142
0.0
142
0.0
142
0.0
142
1.0
179
     0
144
0.0208333333333333
144
0.0
144
0.0
144
0.0
144
0.0
144
0.0208333333333333
144
0.0
144
0.0
144
0.0
144
0.0
144
1.0
144
0.0
144
0.0
144
0.0
144
0.0
144
1.0
147
0.0208333333333333
147
0.0
147
0.0
147
0.0
147
0.0
147
0.0208333333333333
147
0.0
147
0.0
147
0.0
147
0.0
147
1.0
147
0.0
147
0.0
147
0.0
147
0.0
147
1.0
  0
MLEADERSTYLE
  5
67
102
{ACAD_REACTORS
330
66
102
}
330
66
100
AcDbMLeaderStyle
179
     2
170
     2
171
     1
172
     0
 90
        2
 40
0.0
 41
0.0
173
     1
 91
-1056964608
340
5B
 92
       -2
290
     1
 42
0.09
291
     1
 43
0.36
  3
Standard
 44
0.18
300

342
55
174
     1
178
     6
175
     1
176
     0
 93
-1056964608
 45
0.18
292
     0
297
     0
 46
0.18
 94
-1056964608
 47
1.0
 49
1.0
140
1.0
293
     1
141
0.0
294
     1
177
     0
142
1.0
295
     1
296
     0
143
0.125
271
     0
272
     9
273
     9
298
     1
  0
MLINESTYLE
  5
60
102
{ACAD_REACTORS
330
5F
102
}
330
5F
100
AcDbMlineStyle
  2
STANDARD
 70
     0
  3

 62
   256
 51
90.0
 52
90.0
 71
     2
 49
0.5
 62
   256
  6
BYLAYER
 49
-0.5
 62
   256
  6
BYLAYER
  0
ACDBPLACEHOLDER
  5
F
102
{ACAD_REACTORS
330
E
102
}
330
E
  0
SCALE
  5
43
102
{ACAD_REACTORS
330
42
102
}
330
42
100
AcDbScale
 70
     0
300
1:1
140
1.0
141
1.0
290
     1
  0
SCALE
  5
44
102
{ACAD_REACTORS
330
42
102
}
330
42
100
AcDbScale
 70
     0
300
1/128" = 1'-0"
140
0.0078125
141
12.0
290
     0
  0
SCALE
  5
45
102
{ACAD_REACTORS
330
42
102
}
330
42
100
AcDbScale
 70
     0
300
1/64" = 1'-0"
140
0.015625
141
12.0
290
     0
  0
SCALE
  5
46
102
{ACAD_REACTORS
330
42
102
}
330
42
100
AcDbScale
 70
     0
300
1/32" = 1'-0"
140
0.03125
141
12.0
290
     0
  0
SCALE
  5
47
102
{ACAD_REACTORS
330
42
102
}
330
42
100
AcDbScale
 70
     0
300
1/16" = 1'-0"
140
0.0625
141
12.0
290
     0
  0
SCALE
  5
48
102
{ACAD_REACTORS
330
42
102
}
330
42
100
AcDbScale
 70
     0
300
3/32" = 1'-0"
140
0.09375
141
12.0
290
     0
  0
SCALE
  5
49
102
{ACAD_REACTORS
330
42
102
}
330
42
100
AcDbScale
 70
     0
300
1/8" = 1'-0"
140
0.125
141
12.0
290
     0
  0
SCALE
  5
4A
102
{ACAD_REACTORS
330
42
102
}
330
42
100
AcDbScale
 70
     0
300
3/16" = 1'-0"
140
0.1875
141
12.0
290
     0
  0
SCALE
  5
4B
102
{ACAD_REACTORS
330
42
102
}
330
42
100
AcDbScale
 70
     0
300
1/4" = 1'-0"
140
0.25
141
12.0
290
     0
  0
SCALE
  5
4C
102
{ACAD_REACTORS
330
42
102
}
330
42
100
AcDbScale
 70
     0
300
3/8" = 1'-0"
140
0.375
141
12.0
290
     0
  0
SCALE
  5
4D
102
{ACAD_REACTORS
330
42
102
}
330
42
100
AcDbScale
 70
     0
300
1/2" = 1'-0"
140
0.5
141
12.0
290
     0
  0
SCALE
  5
4E
102
{ACAD_REACTORS
330
42
102
}
330
42
100
AcDbScale
 70
     0
300
3/4" = 1'-0"
140
0.75
141
12.0
290
     0
  0
SCALE
  5
4F
102
{ACAD_REACTORS
330
42
102
}
330
42
100
AcDbScale
 70
     0
300
1" = 1'-0"
140
1.0
141
12.0
290
     0
  0
SCALE
  5
50
102
{ACAD_REACTORS
330
42
102
}
330
42
100
AcDbScale
 70
     0
300
1-1/2" = 1'-0"
140
1.5
141
12.0
290
     0
  0
SCALE
  5
51
102
{ACAD_REACTORS
330
42
102
}
330
42
100
AcDbScale
 70
     0
300
3" = 1'-0"
140
3.0
141
12.0
290
     0
  0
SCALE
  5
52
102
{ACAD_REACTORS
330
42
102
}
330
42
100
AcDbScale
 70
     0
300
6" = 1'-0"
140
6.0
141
12.0
290
     0
  0
SCALE
  5
53
102
{ACAD_REACTORS
330
42
102
}
330
42
100
AcDbScale
 70
     0
300
1'-0" = 1'-0"
140
12.0
141
12.0
290
     0
  0
ACDBSECTIONVIEWSTYLE
  5
6A
102
{ACAD_REACTORS
330
68
102
}
330
68
100
AcDbModelDocViewStyle
 70
     0
  3
Imperial24
290
     1
100
AcDbSectionViewStyle
 70
     0
 71
     0
 90
       78
 71
     1
340
55
 62
   256
 40
0.24
340
0
340
0
 62
   256
 40
0.24
300
I, O, Q, S, X, Z
 40
0.48
 90
        3
 40
0.18
 90
        1
 71
     2
340
69
 90
       25
 62
   256
340
5D
 90
       50
 62
   256
 40
0.24
 40
0.0
 40
0.24
 71
     3
340
55
 62
   256
 40
0.24
 90
        1
 40
0.75
 90
        1
300
%<\AcVar ViewType \f "%tc1">% %<\AcVar ViewSectionStartId>%-%<\AcVar ViewSectionEndId>%\PSCALA %<\AcVar ViewScale \f "%sn">%
 71
     4
 62
   256
 62
   257
300
ANSI31
 40
1.0
 90
        0
290
     0
290
     0
 90
        6
 40
0.0
 40
1.570796326794896
 40
0.2617993877991494
 40
1.308996938995747
 40
-0.2617993877991494
 40
1.832595714594046
  0
TABLESTYLE
  5
65
102
{ACAD_XDICTIONARY
360
2A6
102
}
102
{ACAD_REACTORS
330
64
102
}
330
64
100
AcDbTableStyle
280
     0
  3
Standard
 70
     0
 71
     0
 40
0.06
 41
0.06
280
     0
281
     0
  7
Standard
140
0.18
170
     2
 62
     0
 63
     7
283
     0
 90
      512
 91
        0
  1

274
    -2
284
     1
 64
     0
275
    -2
285
     1
 65
     0
276
    -2
286
     1
 66
     0
277
    -2
287
     1
 67
     0
278
    -2
288
     1
 68
     0
279
    -2
289
     1
 69
     0
  7
Standard
140
0.25
170
     5
 62
     0
 63
     7
283
     0
 90
      512
 91
        0
  1

274
    -2
284
     1
 64
     0
275
    -2
285
     1
 65
     0
276
    -2
286
     1
 66
     0
277
    -2
287
     1
 67
     0
278
    -2
288
     1
 68
     0
279
    -2
289
     1
 69
     0
  7
Standard
140
0.18
170
     5
 62
     0
 63
     7
283
     0
 90
      512
 91
        0
  1

274
    -2
284
     1
 64
     0
275
    -2
285
     1
 65
     0
276
    -2
286
     1
 66
     0
277
    -2
287
     1
 67
     0
278
    -2
288
     1
 68
     0
279
    -2
289
     1
 69
     0
  0
VISUALSTYLE
  5
2F
102
{ACAD_REACTORS
330
29
102
}
330
29
100
AcDbVisualStyle
  2
2dWireframe
 70
     4
177
     3
291
     0
 70
    58
 90
        0
176
     1
 90
        2
176
     1
 90
        0
176
     1
 90
        0
176
     1
 40
0.6
176
     1
 40
30.0
176
     1
 62
     7
420
 16777215
176
     1
 90
        1
176
     1
 90
        4
176
     1
 62
     7
176
     1
 62
   257
176
     1
 90
        1
176
     1
 90
        1
176
     1
 40
1.0
176
     1
 90
        0
176
     1
 62
   257
176
     1
 40
1.0
176
     1
 90
        1
176
     1
 90
        6
176
     1
 90
        2
176
     1
 62
     7
176
     1
 90
        5
176
     1
 90
        0
176
     1
 90
        0
176
     1
290
     0
176
     1
 90
        1
176
     1
 40
0.0
176
     1
 90
        0
176
     1
290
     1
176
     1
290
     1
176
     1
290
     0
176
     1
290
     0
176
     1
290
     0
176
     1
290
     0
176
     1
290
     0
176
     1
290
     0
176
     1
290
     0
176
     1
 90
       50
176
     1
 40
0.0
176
     1
 40
1.0
176
     1
 90
        0
176
     1
 62
    18
420
        0
176
     1
 90
       50
176
     1
 90
        3
176
     1
 62
     5
420
      255
176
     1
290
     0
176
     1
 90
       50
176
     1
 90
       50
176
     1
 90
       50
176
     1
290
     0
176
     1
 90
       50
176
     1
 62
   256
176
     0
 40
1.0
176
     0
 90
        2
176
     1
  1
strokes_ogs.tif
176
     1
290
     0
176
     1
 40
1.0
176
     1
 40
1.0
176
     1
  0
VISUALSTYLE
  5
2E
102
{ACAD_REACTORS
330
29
102
}
330
29
100
AcDbVisualStyle
  2
Basic
 70
     7
177
     3
291
     1
 70
    58
 90
        1
176
     1
 90
        0
176
     1
 90
        1
176
     1
 90
        0
176
     1
 40
0.6
176
     1
 40
30.0
176
     1
 62
     7
420
 16777215
176
     1
 90
        0
176
     1
 90
        4
176
     1
 62
     7
176
     1
 62
   257
176
     1
 90
        1
176
     1
 90
        1
176
     1
 40
1.0
176
     1
 90
        8
176
     1
 62
     7
176
     1
 40
1.0
176
     1
 90
        1
176
     1
 90
        6
176
     1
 90
        2
176
     1
 62
     7
176
     1
 90
        5
176
     1
 90
        0
176
     1
 90
        0
176
     1
290
     0
176
     1
 90
        1
176
     1
 40
0.0
176
     1
 90
        0
176
     1
290
     0
176
     1
290
     1
176
     1
290
     1
176
     1
290
     0
176
     1
290
     0
176
     1
290
     0
176
     1
290
     0
176
     1
290
     0
176
     1
290
     0
176
     1
 90
       50
176
     1
 40
0.0
176
     1
 40
1.0
176
     1
 90
        0
176
     1
 62
    18
420
        0
176
     1
 90
       50
176
     1
 90
        3
176
     1
 62
     5
420
      255
176
     1
290
     0
176
     1
 90
       50
176
     1
 90
       50
176
     1
 90
       50
176
     1
290
     0
176
     1
 90
       50
176
     1
 62
   256
176
     0
 40
1.0
176
     0
 90
        2
176
     1
  1
strokes_ogs.tif
176
     1
290
     0
176
     1
 40
1.0
176
     1
 40
1.0
176
     1
  0
VISUALSTYLE
  5
35
102
{ACAD_REACTORS
330
29
102
}
330
29
100
AcDbVisualStyle
  2
Brighten
 70
    12
177
     3
291
     1
 70
    58
 90
        2
176
     1
 90
        2
176
     1
 90
        0
176
     1
 90
        0
176
     1
 40
0.6
176
     1
 40
30.0
176
     1
 62
     7
420
 16777215
176
     1
 90
        1
176
     1
 90
        4
176
     1
 62
     7
176
     1
 62
   257
176
     1
 90
        1
176
     1
 90
        1
176
     1
 40
1.0
176
     1
 90
        8
176
     1
 62
     7
176
     1
 40
1.0
176
     1
 90
        1
176
     1
 90
        6
176
     1
 90
        2
176
     1
 62
     7
176
     1
 90
        5
176
     1
 90
        0
176
     1
 90
        0
176
     1
290
     0
176
     1
 90
        1
176
     1
 40
50.0
176
     1
 90
        0
176
     1
290
     0
176
     1
290
     1
176
     1
290
     1
176
     1
290
     0
176
     1
290
     0
176
     1
290
     0
176
     1
290
     0
176
     1
290
     0
176
     1
290
     0
176
     1
 90
       50
176
     1
 40
0.0
176
     1
 40
1.0
176
     1
 90
        0
176
     1
 62
    18
420
        0
176
     1
 90
       50
176
     1
 90
        3
176
     1
 62
     5
420
      255
176
     1
290
     0
176
     1
 90
       50
176
     1
 90
       50
176
     1
 90
       50
176
     1
290
     0
176
     1
 90
       50
176
     1
 62
   256
176
     0
 40
1.0
176
     0
 90
        2
176
     1
  1
strokes_ogs.tif
176
     1
290
     0
176
     1
 40
1.0
176
     1
 40
1.0
176
     1
  0
VISUALSTYLE
  5
39
102
{ACAD_REACTORS
330
29
102
}
330
29
100
AcDbVisualStyle
  2
ColorChange
 70
    16
177
     3
291
     1
 70
    58
 90
        2
176
     1
 90
        2
176
     1
 90
        3
176
     1
 90
        0
176
     1
 40
0.6
176
     1
 40
30.0
176
     1
 62
     8
420
  8421504
176
     1
 90
        1
176
     1
 90
        4
176
     1
 62
     7
176
     1
 62
   257
176
     1
 90
        1
176
     1
 90
        1
176
     1
 40
1.0
176
     1
 90
        8
176
     1
 62
     8
420
  8421504
176
     1
 40
1.0
176
     1
 90
        1
176
     1
 90
        6
176
     1
 90
        2
176
     1
 62
     7
176
     1
 90
        5
176
     1
 90
        0
176
     1
 90
        0
176
     1
290
     0
176
     1
 90
        1
176
     1
 40
0.0
176
     1
 90
        0
176
     1
290
     0
176
     1
290
     1
176
     1
290
     1
176
     1
290
     0
176
     1
290
     0
176
     1
290
     0
176
     1
290
     0
176
     1
290
     0
176
     1
290
     0
176
     1
 90
       50
176
     1
 40
0.0
176
     1
 40
1.0
176
     1
 90
        0
176
     1
 62
    18
420
        0
176
     1
 90
       50
176
     1
 90
        3
176
     1
 62
     5
420
      255
176
     1
290
     0
176
     1
 90
       50
176
     1
 90
       50
176
     1
 90
       50
176
     1
290
     0
176
     1
 90
       50
176
     1
 62
   256
176
     0
 40
1.0
176
     0
 90
        2
176
     1
  1
strokes_ogs.tif
176
     1
290
     0
176
     1
 40
1.0
176
     1
 40
1.0
176
     1
  0
VISUALSTYLE
  5
32
102
{ACAD_REACTORS
330
29
102
}
330
29
100
AcDbVisualStyle
  2
Conceptual
 70
     9
177
     3
291
     0
 70
    58
 90
        3
176
     1
 90
        2
176
     1
 90
        0
176
     1
 90
        0
176
     1
 40
0.6
176
     1
 40
30.0
176
     1
 62
     7
420
 16777215
176
     1
 90
        2
176
     1
 90
        2
176
     1
 62
     7
176
     1
 62
   257
176
     1
 90
        1
176
     1
 90
        1
176
     1
 40
179.0
176
     1
 90
        8
176
     1
 62
     7
176
     1
 40
1.0
176
     1
 90
        1
176
     1
 90
        6
176
     1
 90
        2
176
     1
 62
     7
176
     1
 90
        3
176
     1
 90
        0
176
     1
 90
        0
176
     1
290
     0
176
     1
 90
        1
176
     1
 40
0.0
176
     1
 90
        0
176
     1
290
     0
176
     1
290
     1
176
     1
290
     1
176
     1
290
     0
176
     1
290
     0
176
     1
290
     0
176
     1
290
     0
176
     1
290
     0
176
     1
290
     0
176
     1
 90
       50
176
     1
 40
0.0
176
     1
 40
1.0
176
     1
 90
        0
176
     1
 62
    18
420
        0
176
     1
 90
       50
176
     1
 90
        3
176
     1
 62
     5
420
      255
176
     1
290
     0
176
     1
 90
       50
176
     1
 90
       50
176
     1
 90
       50
176
     1
290
     0
176
     1
 90
       50
176
     1
 62
   256
176
     0
 40
1.0
176
     0
 90
        2
176
     1
  1
strokes_ogs.tif
176
     1
290
     0
176
     1
 40
1.0
176
     1
 40
1.0
176
     1
  0
VISUALSTYLE
  5
34
102
{ACAD_REACTORS
330
29
102
}
330
29
100
AcDbVisualStyle
  2
Dim
 70
    11
177
     3
291
     1
 70
    58
 90
        2
176
     1
 90
        2
176
     1
 90
        0
176
     1
 90
        0
176
     1
 40
0.6
176
     1
 40
30.0
176
     1
 62
     7
420
 16777215
176
     1
 90
        1
176
     1
 90
        4
176
     1
 62
     7
176
     1
 62
   257
176
     1
 90
        1
176
     1
 90
        1
176
     1
 40
1.0
176
     1
 90
        8
176
     1
 62
     7
176
     1
 40
1.0
176
     1
 90
        1
176
     1
 90
        6
176
     1
 90
        2
176
     1
 62
     7
176
     1
 90
        5
176
     1
 90
        0
176
     1
 90
        0
176
     1
290
     0
176
     1
 90
        1
176
     1
 40
-50.0
176
     1
 90
        0
176
     1
290
     0
176
     1
290
     1
176
     1
290
     1
176
     1
290
     0
176
     1
290
     0
176
     1
290
     0
176
     1
290
     0
176
     1
290
     0
176
     1
290
     0
176
     1
 90
       50
176
     1
 40
0.0
176
     1
 40
1.0
176
     1
 90
        0
176
     1
 62
    18
420
        0
176
     1
 90
       50
176
     1
 90
        3
176
     1
 62
     5
420
      255
176
     1
290
     0
176
     1
 90
       50
176
     1
 90
       50
176
     1
 90
       50
176
     1
290
     0
176
     1
 90
       50
176
     1
 62
   256
176
     0
 40
1.0
176
     0
 90
        2
176
     1
  1
strokes_ogs.tif
176
     1
290
     0
176
     1
 40
1.0
176
     1
 40
1.0
176
     1
  0
VISUALSTYLE
  5
41
102
{ACAD_REACTORS
330
29
102
}
330
29
100
AcDbVisualStyle
  2
EdgeColorOff
 70
    22
177
     3
291
     1
 70
    58
 90
        2
176
     0
 90
        2
176
     0
 90
        0
176
     0
 90
        0
176
     0
 40
0.6
176
     0
 40
30.0
176
     0
 62
     7
420
 16777215
176
     0
 90
        1
176
     0
 90
        4
176
     0
 62
     7
176
     0
 62
   257
176
     0
 90
        1
176
     0
 90
        1
176
     0
 40
1.0
176
     0
 90
        8
176
     2
 62
     7
176
     0
 40
1.0
176
     0
 90
        1
176
     0
 90
        6
176
     0
 90
        2
176
     0
 62
     7
176
     0
 90
        5
176
     0
 90
        0
176
     0
 90
        0
176
     0
290
     0
176
     0
 90
        1
176
     0
 40
0.0
176
     0
 90
        0
176
     0
290
     0
176
     0
290
     1
176
     0
290
     1
176
     0
290
     0
176
     0
290
     0
176
     0
290
     0
176
     0
290
     0
176
     0
290
     0
176
     0
290
     0
176
     0
 90
       50
176
     0
 40
0.0
176
     0
 40
1.0
176
     0
 90
        0
176
     0
 62
    18
420
        0
176
     0
 90
       50
176
     0
 90
        3
176
     0
 62
     5
420
      255
176
     0
290
     0
176
     0
 90
       50
176
     0
 90
       50
176
     0
 90
       50
176
     0
290
     0
176
     0
 90
       50
176
     0
 62
   256
176
     0
 40
1.0
176
     0
 90
        2
176
     0
  1
strokes_ogs.tif
176
     0
290
     0
176
     0
 40
1.0
176
     0
 40
1.0
176
     0
  0
VISUALSTYLE
  5
38
102
{ACAD_REACTORS
330
29
102
}
330
29
100
AcDbVisualStyle
  2
Facepattern
 70
    15
177
     3
291
     1
 70
    58
 90
        2
176
     1
 90
        2
176
     1
 90
        0
176
     1
 90
        0
176
     1
 40
0.6
176
     1
 40
30.0
176
     1
 62
     7
420
 16777215
176
     1
 90
        1
176
     1
 90
        4
176
     1
 62
     7
176
     1
 62
   257
176
     1
 90
        1
176
     1
 90
        1
176
     1
 40
1.0
176
     1
 90
        8
176
     1
 62
     7
176
     1
 40
1.0
176
     1
 90
        1
176
     1
 90
        6
176
     1
 90
        2
176
     1
 62
     7
176
     1
 90
        5
176
     1
 90
        0
176
     1
 90
        0
176
     1
290
     0
176
     1
 90
        1
176
     1
 40
0.0
176
     1
 90
        0
176
     1
290
     0
176
     1
290
     1
176
     1
290
     1
176
     1
290
     0
176
     1
290
     0
176
     1
290
     0
176
     1
290
     0
176
     1
290
     0
176
     1
290
     0
176
     1
 90
       50
176
     1
 40
0.0
176
     1
 40
1.0
176
     1
 90
        0
176
     1
 62
    18
420
        0
176
     1
 90
       50
176
     1
 90
        3
176
     1
 62
     5
420
      255
176
     1
290
     0
176
     1
 90
       50
176
     1
 90
       50
176
     1
 90
       50
176
     1
290
     0
176
     1
 90
       50
176
     1
 62
   256
176
     0
 40
1.0
176
     0
 90
        2
176
     1
  1
strokes_ogs.tif
176
     1
290
     0
176
     1
 40
1.0
176
     1
 40
1.0
176
     1
  0
VISUALSTYLE
  5
2A
102
{ACAD_REACTORS
330
29
102
}
330
29
100
AcDbVisualStyle
  2
Flat
 70
     0
177
     3
291
     1
 70
    58
 90
        2
176
     1
 90
        1
176
     1
 90
        1
176
     1
 90
        2
176
     1
 40
0.6
176
     1
 40
30.0
176
     1
 62
     7
420
 16777215
176
     1
 90
        0
176
     1
 90
        0
176
     1
 62
     7
176
     1
 62
   257
176
     1
 90
        1
176
     1
 90
        1
176
     1
 40
1.0
176
     1
 90
        8
176
     1
 62
     7
176
     1
 40
1.0
176
     1
 90
        1
176
     1
 90
        6
176
     1
 90
        2
176
     1
 62
     7
176
     1
 90
        5
176
     1
 90
        0
176
     1
 90
        0
176
     1
290
     0
176
     1
 90
       13
176
     1
 40
0.0
176
     1
 90
        0
176
     1
290
     0
176
     1
290
     1
176
     1
290
     1
176
     1
290
     0
176
     1
290
     0
176
     1
290
     0
176
     1
290
     0
176
     1
290
     0
176
     1
290
     0
176
     1
 90
       50
176
     1
 40
0.0
176
     1
 40
1.0
176
     1
 90
        0
176
     1
 62
    18
420
        0
176
     1
 90
       50
176
     1
 90
        3
176
     1
 62
     5
420
      255
176
     1
290
     0
176
     1
 90
       50
176
     1
 90
       50
176
     1
 90
       50
176
     1
290
     0
176
     1
 90
       50
176
     1
 62
   256
176
     0
 40
1.0
176
     0
 90
        2
176
     1
  1
strokes_ogs.tif
176
     1
290
     0
176
     1
 40
1.0
176
     1
 40
1.0
176
     1
  0
VISUALSTYLE
  5
2B
102
{ACAD_REACTORS
330
29
102
}
330
29
100
AcDbVisualStyle
  2
FlatWithEdges
 70
     1
177
     3
291
     1
 70
    58
 90
        2
176
     1
 90
        1
176
     1
 90
        1
176
     1
 90
        2
176
     1
 40
0.6
176
     1
 40
30.0
176
     1
 62
     7
420
 16777215
176
     1
 90
        1
176
     1
 90
        0
176
     1
 62
     7
176
     1
 62
   257
176
     1
 90
        1
176
     1
 90
        1
176
     1
 40
1.0
176
     1
 90
        0
176
     1
 62
   257
176
     1
 40
1.0
176
     1
 90
        1
176
     1
 90
        6
176
     1
 90
        2
176
     1
 62
     7
176
     1
 90
        5
176
     1
 90
        0
176
     1
 90
        0
176
     1
290
     0
176
     1
 90
       13
176
     1
 40
0.0
176
     1
 90
        0
176
     1
290
     0
176
     1
290
     1
176
     1
290
     1
176
     1
290
     0
176
     1
290
     0
176
     1
290
     0
176
     1
290
     0
176
     1
290
     0
176
     1
290
     0
176
     1
 90
       50
176
     1
 40
0.0
176
     1
 40
1.0
176
     1
 90
        0
176
     1
 62
    18
420
        0
176
     1
 90
       50
176
     1
 90
        3
176
     1
 62
     5
420
      255
176
     1
290
     0
176
     1
 90
       50
176
     1
 90
       50
176
     1
 90
       50
176
     1
290
     0
176
     1
 90
       50
176
     1
 62
   256
176
     0
 40
1.0
176
     0
 90
        2
176
     1
  1
strokes_ogs.tif
176
     1
290
     0
176
     1
 40
1.0
176
     1
 40
1.0
176
     1
  0
VISUALSTYLE
  5
2C
102
{ACAD_REACTORS
330
29
102
}
330
29
100
AcDbVisualStyle
  2
Gouraud
 70
     2
177
     3
291
     1
 70
    58
 90
        2
176
     1
 90
        2
176
     1
 90
        1
176
     1
 90
        2
176
     1
 40
0.6
176
     1
 40
30.0
176
     1
 62
     7
420
 16777215
176
     1
 90
        0
176
     1
 90
        0
176
     1
 62
     7
176
     1
 62
   257
176
     1
 90
        1
176
     1
 90
        1
176
     1
 40
1.0
176
     1
 90
        0
176
     1
 62
     7
176
     1
 40
1.0
176
     1
 90
        1
176
     1
 90
        6
176
     1
 90
        2
176
     1
 62
     7
176
     1
 90
        5
176
     1
 90
        0
176
     1
 90
        0
176
     1
290
     0
176
     1
 90
       13
176
     1
 40
0.0
176
     1
 90
        0
176
     1
290
     0
176
     1
290
     1
176
     1
290
     1
176
     1
290
     0
176
     1
290
     0
176
     1
290
     0
176
     1
290
     0
176
     1
290
     0
176
     1
290
     0
176
     1
 90
       50
176
     1
 40
0.0
176
     1
 40
1.0
176
     1
 90
        0
176
     1
 62
    18
420
        0
176
     1
 90
       50
176
     1
 90
        3
176
     1
 62
     5
420
      255
176
     1
290
     0
176
     1
 90
       50
176
     1
 90
       50
176
     1
 90
       50
176
     1
290
     0
176
     1
 90
       50
176
     1
 62
   256
176
     0
 40
1.0
176
     0
 90
        2
176
     1
  1
strokes_ogs.tif
176
     1
290
     0
176
     1
 40
1.0
176
     1
 40
1.0
176
     1
  0
VISUALSTYLE
  5
2D
102
{ACAD_REACTORS
330
29
102
}
330
29
100
AcDbVisualStyle
  2
GouraudWithEdges
 70
     3
177
     3
291
     1
 70
    58
 90
        2
176
     1
 90
        2
176
     1
 90
        1
176
     1
 90
        2
176
     1
 40
0.6
176
     1
 40
30.0
176
     1
 62
     7
420
 16777215
176
     1
 90
        1
176
     1
 90
        0
176
     1
 62
     7
176
     1
 62
   257
176
     1
 90
        1
176
     1
 90
        1
176
     1
 40
1.0
176
     1
 90
        0
176
     1
 62
   257
176
     1
 40
1.0
176
     1
 90
        1
176
     1
 90
        6
176
     1
 90
        2
176
     1
 62
     7
176
     1
 90
        5
176
     1
 90
        0
176
     1
 90
        0
176
     1
290
     0
176
     1
 90
       13
176
     1
 40
0.0
176
     1
 90
        0
176
     1
290
     0
176
     1
290
     1
176
     1
290
     1
176
     1
290
     0
176
     1
290
     0
176
     1
290
     0
176
     1
290
     0
176
     1
290
     0
176
     1
290
     0
176
     1
 90
       50
176
     1
 40
0.0
176
     1
 40
1.0
176
     1
 90
        0
176
     1
 62
    18
420
        0
176
     1
 90
       50
176
     1
 90
        3
176
     1
 62
     5
420
      255
176
     1
290
     0
176
     1
 90
       50
176
     1
 90
       50
176
     1
 90
       50
176
     1
290
     0
176
     1
 90
       50
176
     1
 62
   256
176
     0
 40
1.0
176
     0
 90
        2
176
     1
  1
strokes_ogs.tif
176
     1
290
     0
176
     1
 40
1.0
176
     1
 40
1.0
176
     1
  0
VISUALSTYLE
  5
31
102
{ACAD_REACTORS
330
29
102
}
330
29
100
AcDbVisualStyle
  2
Hidden
 70
     6
177
     3
291
     0
 70
    58
 90
        1
176
     1
 90
        2
176
     1
 90
        2
176
     1
 90
        0
176
     1
 40
0.6
176
     1
 40
30.0
176
     1
 62
     7
420
 16777215
176
     1
 90
        2
176
     1
 90
        2
176
     1
 62
     7
176
     1
 62
   257
176
     1
 90
        2
176
     1
 90
        1
176
     1
 40
40.0
176
     1
 90
        0
176
     1
 62
   257
176
     1
 40
1.0
176
     1
 90
        1
176
     1
 90
        6
176
     1
 90
        2
176
     1
 62
     7
176
     1
 90
        3
176
     1
 90
        0
176
     1
 90
        0
176
     1
290
     0
176
     1
 90
        1
176
     1
 40
0.0
176
     1
 90
        0
176
     1
290
     0
176
     1
290
     1
176
     1
290
     1
176
     1
290
     0
176
     1
290
     0
176
     1
290
     0
176
     1
290
     0
176
     1
290
     0
176
     1
290
     0
176
     1
 90
       50
176
     1
 40
0.0
176
     1
 40
1.0
176
     1
 90
        0
176
     1
 62
    18
420
        0
176
     1
 90
       50
176
     1
 90
        3
176
     1
 62
     5
420
      255
176
     1
290
     0
176
     1
 90
       50
176
     1
 90
       50
176
     1
 90
       50
176
     1
290
     0
176
     1
 90
       50
176
     1
 62
   256
176
     0
 40
1.0
176
     0
 90
        2
176
     1
  1
strokes_ogs.tif
176
     1
290
     0
176
     1
 40
1.0
176
     1
 40
1.0
176
     1
  0
VISUALSTYLE
  5
3F
102
{ACAD_REACTORS
330
29
102
}
330
29
100
AcDbVisualStyle
  2
JitterOff
 70
    20
177
     3
291
     1
 70
    58
 90
        2
176
     0
 90
        2
176
     0
 90
        0
176
     0
 90
        0
176
     0
 40
0.6
176
     0
 40
30.0
176
     0
 62
     7
420
 16777215
176
     0
 90
        1
176
     0
 90
        4
176
     0
 62
     7
176
     0
 62
   257
176
     0
 90
        1
176
     0
 90
        1
176
     0
 40
1.0
176
     0
 90
       10
176
     2
 62
     7
176
     0
 40
1.0
176
     0
 90
        1
176
     0
 90
        6
176
     0
 90
        2
176
     0
 62
     7
176
     0
 90
        5
176
     0
 90
        0
176
     0
 90
        0
176
     0
290
     0
176
     0
 90
        1
176
     0
 40
0.0
176
     0
 90
        0
176
     0
290
     0
176
     0
290
     1
176
     0
290
     1
176
     0
290
     0
176
     0
290
     0
176
     0
290
     0
176
     0
290
     0
176
     0
290
     0
176
     0
290
     0
176
     0
 90
       50
176
     0
 40
0.0
176
     0
 40
1.0
176
     0
 90
        0
176
     0
 62
    18
420
        0
176
     0
 90
       50
176
     0
 90
        3
176
     0
 62
     5
420
      255
176
     0
290
     0
176
     0
 90
       50
176
     0
 90
       50
176
     0
 90
       50
176
     0
290
     0
176
     0
 90
       50
176
     0
 62
   256
176
     0
 40
1.0
176
     0
 90
        2
176
     0
  1
strokes_ogs.tif
176
     0
290
     0
176
     0
 40
1.0
176
     0
 40
1.0
176
     0
  0
VISUALSTYLE
  5
37
102
{ACAD_REACTORS
330
29
102
}
330
29
100
AcDbVisualStyle
  2
Linepattern
 70
    14
177
     3
291
     1
 70
    58
 90
        2
176
     1
 90
        2
176
     1
 90
        0
176
     1
 90
        0
176
     1
 40
0.6
176
     1
 40
30.0
176
     1
 62
     7
420
 16777215
176
     1
 90
        1
176
     1
 90
        4
176
     1
 62
     7
176
     1
 62
   257
176
     1
 90
        7
176
     1
 90
        7
176
     1
 40
1.0
176
     1
 90
        8
176
     1
 62
     7
176
     1
 40
1.0
176
     1
 90
        1
176
     1
 90
        6
176
     1
 90
        2
176
     1
 62
     7
176
     1
 90
        5
176
     1
 90
        0
176
     1
 90
        0
176
     1
290
     0
176
     1
 90
        1
176
     1
 40
0.0
176
     1
 90
        0
176
     1
290
     0
176
     1
290
     1
176
     1
290
     1
176
     1
290
     0
176
     1
290
     0
176
     1
290
     0
176
     1
290
     0
176
     1
290
     0
176
     1
290
     0
176
     1
 90
       50
176
     1
 40
0.0
176
     1
 40
1.0
176
     1
 90
        0
176
     1
 62
    18
420
        0
176
     1
 90
       50
176
     1
 90
        3
176
     1
 62
     5
420
      255
176
     1
290
     0
176
     1
 90
       50
176
     1
 90
       50
176
     1
 90
       50
176
     1
290
     0
176
     1
 90
       50
176
     1
 62
   256
176
     0
 40
1.0
176
     0
 90
        2
176
     1
  1
strokes_ogs.tif
176
     1
290
     0
176
     1
 40
1.0
176
     1
 40
1.0
176
     1
  0
VISUALSTYLE
  5
40
102
{ACAD_REACTORS
330
29
102
}
330
29
100
AcDbVisualStyle
  2
OverhangOff
 70
    21
177
     3
291
     1
 70
    58
 90
        2
176
     0
 90
        2
176
     0
 90
        0
176
     0
 90
        0
176
     0
 40
0.6
176
     0
 40
30.0
176
     0
 62
     7
420
 16777215
176
     0
 90
        1
176
     0
 90
        4
176
     0
 62
     7
176
     0
 62
   257
176
     0
 90
        1
176
     0
 90
        1
176
     0
 40
1.0
176
     0
 90
        9
176
     2
 62
     7
176
     0
 40
1.0
176
     0
 90
        1
176
     0
 90
        6
176
     0
 90
        2
176
     0
 62
     7
176
     0
 90
        5
176
     0
 90
        0
176
     0
 90
        0
176
     0
290
     0
176
     0
 90
        1
176
     0
 40
0.0
176
     0
 90
        0
176
     0
290
     0
176
     0
290
     1
176
     0
290
     1
176
     0
290
     0
176
     0
290
     0
176
     0
290
     0
176
     0
290
     0
176
     0
290
     0
176
     0
290
     0
176
     0
 90
       50
176
     0
 40
0.0
176
     0
 40
1.0
176
     0
 90
        0
176
     0
 62
    18
420
        0
176
     0
 90
       50
176
     0
 90
        3
176
     0
 62
     5
420
      255
176
     0
290
     0
176
     0
 90
       50
176
     0
 90
       50
176
     0
 90
       50
176
     0
290
     0
176
     0
 90
       50
176
     0
 62
   256
176
     0
 40
1.0
176
     0
 90
        2
176
     0
  1
strokes_ogs.tif
176
     0
290
     0
176
     0
 40
1.0
176
     0
 40
1.0
176
     0
  0
VISUALSTYLE
  5
33
102
{ACAD_REACTORS
330
29
102
}
330
29
100
AcDbVisualStyle
  2
Realistic
 70
     8
177
     3
291
     0
 70
    58
 90
        2
176
     1
 90
        3
176
     1
 90
        0
176
     1
 90
        2
176
     1
 40
0.6
176
     1
 40
30.0
176
     1
 62
     7
420
 16777215
176
     1
 90
        0
176
     1
 90
        0
176
     1
 62
     7
176
     1
 62
   257
176
     1
 90
        1
176
     1
 90
        1
176
     1
 40
1.0
176
     1
 90
        8
176
     1
 62
   257
176
     1
 40
1.0
176
     1
 90
        1
176
     1
 90
        6
176
     1
 90
        2
176
     1
 62
     7
176
     1
 90
        3
176
     1
 90
        0
176
     1
 90
        0
176
     1
290
     0
176
     1
 90
       13
176
     1
 40
0.0
176
     1
 90
        0
176
     1
290
     0
176
     1
290
     1
176
     1
290
     1
176
     1
290
     0
176
     1
290
     0
176
     1
290
     0
176
     1
290
     0
176
     1
290
     0
176
     1
290
     0
176
     1
 90
       50
176
     1
 40
0.0
176
     1
 40
1.0
176
     1
 90
        0
176
     1
 62
    18
420
        0
176
     1
 90
       50
176
     1
 90
        3
176
     1
 62
     5
420
      255
176
     1
290
     0
176
     1
 90
       50
176
     1
 90
       50
176
     1
 90
       50
176
     1
290
     0
176
     1
 90
       50
176
     1
 62
   256
176
     0
 40
1.0
176
     0
 90
        2
176
     1
  1
strokes_ogs.tif
176
     1
290
     0
176
     1
 40
1.0
176
     1
 40
1.0
176
     1
  0
VISUALSTYLE
  5
3E
102
{ACAD_REACTORS
330
29
102
}
330
29
100
AcDbVisualStyle
  2
Shaded
 70
    27
177
     3
291
     0
 70
    58
 90
        2
176
     1
 90
        2
176
     1
 90
        1
176
     1
 90
        2
176
     1
 40
0.6
176
     1
 40
30.0
176
     1
 62
     7
420
 16777215
176
     1
 90
        0
176
     1
 90
        4
176
     1
 62
     7
176
     1
 62
   257
176
     1
 90
        1
176
     1
 90
        1
176
     1
 40
1.0
176
     1
 90
        8
176
     1
 62
   257
176
     1
 40
1.0
176
     1
 90
        1
176
     1
 90
        6
176
     1
 90
        2
176
     1
 62
     8
420
  7895160
176
     1
 90
        3
176
     1
 90
        0
176
     1
 90
        0
176
     1
290
     0
176
     1
 90
        5
176
     1
 40
0.0
176
     1
 90
        0
176
     1
290
     0
176
     1
290
     1
176
     1
290
     1
176
     1
290
     0
176
     1
290
     0
176
     1
290
     0
176
     1
290
     0
176
     1
290
     0
176
     1
290
     0
176
     1
 90
       50
176
     1
 40
0.0
176
     1
 40
1.0
176
     1
 90
        0
176
     1
 62
    18
420
        0
176
     1
 90
       50
176
     1
 90
        3
176
     1
 62
     5
420
      255
176
     1
290
     0
176
     1
 90
       50
176
     1
 90
       50
176
     1
 90
       50
176
     1
290
     0
176
     1
 90
       50
176
     1
 62
   256
176
     0
 40
1.0
176
     0
 90
        2
176
     1
  1
strokes_ogs.tif
176
     1
290
     0
176
     1
 40
1.0
176
     1
 40
1.0
176
     1
  0
VISUALSTYLE
  5
3D
102
{ACAD_REACTORS
330
29
102
}
330
29
100
AcDbVisualStyle
  2
Shaded with edges
 70
    26
177
     3
291
     0
 70
    58
 90
        2
176
     1
 90
        2
176
     1
 90
        1
176
     1
 90
        2
176
     1
 40
0.6
176
     1
 40
30.0
176
     1
 62
     7
420
 16777215
176
     1
 90
        1
176
     1
 90
       10
176
     1
 62
     7
176
     1
 62
   257
176
     1
 90
        2
176
     1
 90
        1
176
     1
 40
1.0
176
     1
 90
        8
176
     1
 62
   257
176
     1
 40
1.0
176
     1
 90
        1
176
     1
 90
        6
176
     1
 90
        2
176
     1
 62
     7
176
     1
 90
        3
176
     1
 90
        0
176
     1
 90
        0
176
     1
290
     0
176
     1
 90
        5
176
     1
 40
0.0
176
     1
 90
        0
176
     1
290
     0
176
     1
290
     1
176
     1
290
     1
176
     1
290
     0
176
     1
290
     0
176
     1
290
     0
176
     1
290
     0
176
     1
290
     0
176
     1
290
     0
176
     1
 90
       50
176
     1
 40
0.0
176
     1
 40
1.0
176
     1
 90
        0
176
     1
 62
    18
420
        0
176
     1
 90
       50
176
     1
 90
        3
176
     1
 62
     5
420
      255
176
     1
290
     0
176
     1
 90
       50
176
     1
 90
       50
176
     1
 90
       50
176
     1
290
     0
176
     1
 90
       50
176
     1
 62
   256
176
     0
 40
1.0
176
     0
 90
        2
176
     1
  1
strokes_ogs.tif
176
     1
290
     0
176
     1
 40
1.0
176
     1
 40
1.0
176
     1
  0
VISUALSTYLE
  5
3A
102
{ACAD_REACTORS
330
29
102
}
330
29
100
AcDbVisualStyle
  2
Shades of Gray
 70
    23
177
     3
291
     0
 70
    58
 90
        2
176
     1
 90
        2
176
     1
 90
        3
176
     1
 90
        0
176
     1
 40
0.6
176
     1
 40
30.0
176
     1
 62
     7
420
 16777215
176
     1
 90
        2
176
     1
 90
        2
176
     1
 62
     7
176
     1
 62
     7
176
     1
 90
        1
176
     1
 90
        1
176
     1
 40
40.0
176
     1
 90
        8
176
     1
 62
     7
176
     1
 40
1.0
176
     1
 90
        1
176
     1
 90
        6
176
     1
 90
        2
176
     1
 62
     7
176
     1
 90
        3
176
     1
 90
        0
176
     1
 90
        0
176
     1
290
     0
176
     1
 90
        1
176
     1
 40
0.0
176
     1
 90
        0
176
     1
290
     0
176
     1
290
     1
176
     1
290
     1
176
     1
290
     0
176
     1
290
     0
176
     1
290
     0
176
     1
290
     0
176
     1
290
     0
176
     1
290
     0
176
     1
 90
       50
176
     1
 40
0.0
176
     1
 40
1.0
176
     1
 90
        0
176
     1
 62
    18
420
        0
176
     1
 90
       50
176
     1
 90
        3
176
     1
 62
     5
420
      255
176
     1
290
     0
176
     1
 90
       50
176
     1
 90
       50
176
     1
 90
       50
176
     1
290
     0
176
     1
 90
       50
176
     1
 62
   256
176
     0
 40
1.0
176
     0
 90
        2
176
     1
  1
strokes_ogs.tif
176
     1
290
     0
176
     1
 40
1.0
176
     1
 40
1.0
176
     1
  0
VISUALSTYLE
  5
3B
102
{ACAD_REACTORS
330
29
102
}
330
29
100
AcDbVisualStyle
  2
Sketchy
 70
    24
177
     3
291
     0
 70
    58
 90
        1
176
     1
 90
        2
176
     1
 90
        2
176
     1
 90
        0
176
     1
 40
0.6
176
     1
 40
30.0
176
     1
 62
     7
420
 16777215
176
     1
 90
        2
176
     1
 90
        2
176
     1
 62
     7
176
     1
 62
     7
176
     1
 90
        1
176
     1
 90
        1
176
     1
 40
40.0
176
     1
 90
       11
176
     1
 62
     7
176
     1
 40
1.0
176
     1
 90
        1
176
     1
 90
        6
176
     1
 90
        2
176
     1
 62
     7
176
     1
 90
        6
176
     1
 90
        0
176
     1
 90
        0
176
     1
290
     0
176
     1
 90
        1
176
     1
 40
0.0
176
     1
 90
        0
176
     1
290
     0
176
     1
290
     1
176
     1
290
     1
176
     1
290
     0
176
     1
290
     0
176
     1
290
     0
176
     1
290
     0
176
     1
290
     0
176
     1
290
     0
176
     1
 90
       50
176
     1
 40
0.0
176
     1
 40
1.0
176
     1
 90
        0
176
     1
 62
    18
420
        0
176
     1
 90
       50
176
     1
 90
        3
176
     1
 62
     5
420
      255
176
     1
290
     0
176
     1
 90
       50
176
     1
 90
       50
176
     1
 90
       50
176
     1
290
     0
176
     1
 90
       50
176
     1
 62
   256
176
     0
 40
1.0
176
     0
 90
        2
176
     1
  1
strokes_ogs.tif
176
     1
290
     0
176
     1
 40
1.0
176
     1
 40
1.0
176
     1
  0
VISUALSTYLE
  5
36
102
{ACAD_REACTORS
330
29
102
}
330
29
100
AcDbVisualStyle
  2
Thicken
 70
    13
177
     3
291
     1
 70
    58
 90
        2
176
     1
 90
        2
176
     1
 90
        0
176
     1
 90
        0
176
     1
 40
0.6
176
     1
 40
30.0
176
     1
 62
     7
420
 16777215
176
     1
 90
        1
176
     1
 90
        4
176
     1
 62
     7
176
     1
 62
   257
176
     1
 90
        1
176
     1
 90
        1
176
     1
 40
1.0
176
     1
 90
       12
176
     1
 62
     7
176
     1
 40
1.0
176
     1
 90
        1
176
     1
 90
        6
176
     1
 90
        2
176
     1
 62
     7
176
     1
 90
        5
176
     1
 90
        0
176
     1
 90
        0
176
     1
290
     0
176
     1
 90
        1
176
     1
 40
0.0
176
     1
 90
        0
176
     1
290
     0
176
     1
290
     1
176
     1
290
     1
176
     1
290
     0
176
     1
290
     0
176
     1
290
     0
176
     1
290
     0
176
     1
290
     0
176
     1
290
     0
176
     1
 90
       50
176
     1
 40
0.0
176
     1
 40
1.0
176
     1
 90
        0
176
     1
 62
    18
420
        0
176
     1
 90
       50
176
     1
 90
        3
176
     1
 62
     5
420
      255
176
     1
290
     0
176
     1
 90
       50
176
     1
 90
       50
176
     1
 90
       50
176
     1
290
     0
176
     1
 90
       50
176
     1
 62
   256
176
     0
 40
1.0
176
     0
 90
        2
176
     1
  1
strokes_ogs.tif
176
     1
290
     0
176
     1
 40
1.0
176
     1
 40
1.0
176
     1
  0
VISUALSTYLE
  5
30
102
{ACAD_REACTORS
330
29
102
}
330
29
100
AcDbVisualStyle
  2
Wireframe
 70
     5
177
     3
291
     0
 70
    58
 90
        0
176
     1
 90
        2
176
     1
 90
        0
176
     1
 90
        0
176
     1
 40
0.6
176
     1
 40
30.0
176
     1
 62
     7
420
 16777215
176
     1
 90
        1
176
     1
 90
        4
176
     1
 62
     7
176
     1
 62
   257
176
     1
 90
        1
176
     1
 90
        1
176
     1
 40
1.0
176
     1
 90
        0
176
     1
 62
   257
176
     1
 40
1.0
176
     1
 90
        1
176
     1
 90
        6
176
     1
 90
        2
176
     1
 62
     7
176
     1
 90
        3
176
     1
 90
        0
176
     1
 90
        0
176
     1
290
     0
176
     1
 90
        1
176
     1
 40
0.0
176
     1
 90
        0
176
     1
290
     0
176
     1
290
     1
176
     1
290
     1
176
     1
290
     0
176
     1
290
     0
176
     1
290
     0
176
     1
290
     0
176
     1
290
     0
176
     1
290
     0
176
     1
 90
       50
176
     1
 40
0.0
176
     1
 40
1.0
176
     1
 90
        0
176
     1
 62
    18
420
        0
176
     1
 90
       50
176
     1
 90
        3
176
     1
 62
     5
420
      255
176
     1
290
     0
176
     1
 90
       50
176
     1
 90
       50
176
     1
 90
       50
176
     1
290
     0
176
     1
 90
       50
176
     1
 62
   256
176
     0
 40
1.0
176
     0
 90
        2
176
     1
  1
strokes_ogs.tif
176
     1
290
     0
176
     1
 40
1.0
176
     1
 40
1.0
176
     1
  0
VISUALSTYLE
  5
3C
102
{ACAD_REACTORS
330
29
102
}
330
29
100
AcDbVisualStyle
  2
X-Ray
 70
    25
177
     3
291
     0
 70
    58
 90
        2
176
     1
 90
        2
176
     1
 90
        1
176
     1
 90
        1
176
     1
 40
0.5
176
     1
 40
30.0
176
     1
 62
     7
420
 16777215
176
     1
 90
        1
176
     1
 90
        0
176
     1
 62
     7
176
     1
 62
   257
176
     1
 90
        1
176
     1
 90
        1
176
     1
 40
1.0
176
     1
 90
        8
176
     1
 62
     7
176
     1
 40
1.0
176
     1
 90
        1
176
     1
 90
        6
176
     1
 90
        2
176
     1
 62
     7
176
     1
 90
        3
176
     1
 90
        0
176
     1
 90
        0
176
     1
290
     0
176
     1
 90
       13
176
     1
 40
0.0
176
     1
 90
        0
176
     1
290
     0
176
     1
290
     1
176
     1
290
     1
176
     1
290
     0
176
     1
290
     0
176
     1
290
     0
176
     1
290
     0
176
     1
290
     0
176
     1
290
     0
176
     1
 90
       50
176
     1
 40
0.0
176
     1
 40
1.0
176
     1
 90
        0
176
     1
 62
    18
420
        0
176
     1
 90
       50
176
     1
 90
        3
176
     1
 62
     5
420
      255
176
     1
290
     0
176
     1
 90
       50
176
     1
 90
       50
176
     1
 90
       50
176
     1
290
     0
176
     1
 90
       50
176
     1
 62
   256
176
     0
 40
1.0
176
     0
 90
        2
176
     1
  1
strokes_ogs.tif
176
     1
290
     0
176
     1
 40
1.0
176
     1
 40
1.0
176
     1
  0
DICTIONARYVAR
  5
81
102
{ACAD_REACTORS
330
7C
102
}
330
7C
100
DictionaryVariables
280
     0
  1
1:1
  0
DICTIONARYVAR
  5
7E
102
{ACAD_REACTORS
330
7C
102
}
330
7C
100
DictionaryVariables
280
     0
  1
STANDARD
  0
DICTIONARYVAR
  5
7D
102
{ACAD_REACTORS
330
7C
102
}
330
7C
100
DictionaryVariables
280
     0
  1
STANDARD
  0
DICTIONARYVAR
  5
7F
102
{ACAD_REACTORS
330
7C
102
}
330
7C
100
DictionaryVariables
280
     0
  1
Imperial24
  0
DICTIONARYVAR
  5
80
102
{ACAD_REACTORS
330
7C
102
}
330
7C
100
DictionaryVariables
280
     0
  1
Imperial24
  0
XRECORD
  5
2A3
102
{ACAD_REACTORS
330
29F
102
}
330
29F
100
AcDbXrecord
280
     1
  1
BUILDING_ID
  1
Progetto per test valvole
  1
FLOOR_ID
  1
694395
  0
XRECORD
  5
2A1
102
{ACAD_REACTORS
330
29F
102
}
330
29F
100
AcDbXrecord
280
     1
  1
-2001160
  1
Apparecchi idraulici
  0
XRECORD
  5
2A2
102
{ACAD_REACTORS
330
29F
102
}
330
29F
100
AcDbXrecord
280
     1
  1
790271
  1
Body
  0
XRECORD
  5
2A0
102
{ACAD_REACTORS
330
29F
102
}
330
29F
100
AcDbXrecord
280
     1
  1
859151
  1
Automatic flow rate regulator valve_Caleffi_121 DN15 : 1/2''
  0
DICTIONARY
  5
1A
330
19
100
AcDbDictionary
280
     1
281
     1
  3
BUMPTILE
360
1C
  3
DIFFUSETILE
360
1B
  3
OPACITYTILE
360
1F
  3
REFLECTIONTILE
360
1E
  3
REFRACTIONTILE
360
20
  3
SPECULARTILE
360
1D
  0
DICTIONARY
  5
12
330
11
100
AcDbDictionary
280
     1
281
     1
  3
BUMPTILE
360
14
  3
DIFFUSETILE
360
13
  3
OPACITYTILE
360
17
  3
REFLECTIONTILE
360
16
  3
REFRACTIONTILE
360
18
  3
SPECULARTILE
360
15
  0
DICTIONARY
  5
22
330
21
100
AcDbDictionary
280
     1
281
     1
  3
BUMPTILE
360
24
  3
DIFFUSETILE
360
23
  3
OPACITYTILE
360
27
  3
REFLECTIONTILE
360
26
  3
REFRACTIONTILE
360
28
  3
SPECULARTILE
360
25
  0
DICTIONARY
  5
2A6
330
65
100
AcDbDictionary
280
     1
281
     1
  3
ACAD_ROUNDTRIP_2008_TABLESTYLE_CELLSTYLEMAP
360
2A7
  0
XRECORD
  5
1C
102
{ACAD_REACTORS
330
1A
102
}
330
1A
100
AcDbXrecord
280
     1
270
     1
271
     1
  0
XRECORD
  5
1B
102
{ACAD_REACTORS
330
1A
102
}
330
1A
100
AcDbXrecord
280
     1
270
     1
271
     1
  0
XRECORD
  5
1F
102
{ACAD_REACTORS
330
1A
102
}
330
1A
100
AcDbXrecord
280
     1
270
     1
271
     1
  0
XRECORD
  5
1E
102
{ACAD_REACTORS
330
1A
102
}
330
1A
100
AcDbXrecord
280
     1
270
     1
271
     1
  0
XRECORD
  5
20
102
{ACAD_REACTORS
330
1A
102
}
330
1A
100
AcDbXrecord
280
     1
270
     1
271
     1
  0
XRECORD
  5
1D
102
{ACAD_REACTORS
330
1A
102
}
330
1A
100
AcDbXrecord
280
     1
270
     1
271
     1
  0
XRECORD
  5
14
102
{ACAD_REACTORS
330
12
102
}
330
12
100
AcDbXrecord
280
     1
270
     1
271
     1
  0
XRECORD
  5
13
102
{ACAD_REACTORS
330
12
102
}
330
12
100
AcDbXrecord
280
     1
270
     1
271
     1
  0
XRECORD
  5
17
102
{ACAD_REACTORS
330
12
102
}
330
12
100
AcDbXrecord
280
     1
270
     1
271
     1
  0
XRECORD
  5
16
102
{ACAD_REACTORS
330
12
102
}
330
12
100
AcDbXrecord
280
     1
270
     1
271
     1
  0
XRECORD
  5
18
102
{ACAD_REACTORS
330
12
102
}
330
12
100
AcDbXrecord
280
     1
270
     1
271
     1
  0
XRECORD
  5
15
102
{ACAD_REACTORS
330
12
102
}
330
12
100
AcDbXrecord
280
     1
270
     1
271
     1
  0
XRECORD
  5
24
102
{ACAD_REACTORS
330
22
102
}
330
22
100
AcDbXrecord
280
     1
270
     1
271
     1
  0
XRECORD
  5
23
102
{ACAD_REACTORS
330
22
102
}
330
22
100
AcDbXrecord
280
     1
270
     1
271
     1
  0
XRECORD
  5
27
102
{ACAD_REACTORS
330
22
102
}
330
22
100
AcDbXrecord
280
     1
270
     1
271
     1
  0
XRECORD
  5
26
102
{ACAD_REACTORS
330
22
102
}
330
22
100
AcDbXrecord
280
     1
270
     1
271
     1
  0
XRECORD
  5
28
102
{ACAD_REACTORS
330
22
102
}
330
22
100
AcDbXrecord
280
     1
270
     1
271
     1
  0
XRECORD
  5
25
102
{ACAD_REACTORS
330
22
102
}
330
22
100
AcDbXrecord
280
     1
270
     1
271
     1
  0
CELLSTYLEMAP
  5
2A7
102
{ACAD_REACTORS
330
2A6
102
}
330
2A6
100
AcDbCellStyleMap
 90
        3
300
CELLSTYLE
  1
TABLEFORMAT_BEGIN
 90
        5
170
     1
 91
        0
 92
    32768
 62
   257
 93
        1
300
CONTENTFORMAT
  1
CONTENTFORMAT_BEGIN
 90
        0
 91
        0
 92
      512
 93
        0
300

 40
0.0
140
1.0
 94
        5
 62
     0
340
55
144
0.25
309
CONTENTFORMAT_END
171
     0
 94
        0
309
TABLEFORMAT_END
  1
CELLSTYLE_BEGIN
 90
        1
 91
        1
300
_TITLE
309
CELLSTYLE_END
300
CELLSTYLE
  1
TABLEFORMAT_BEGIN
 90
        5
170
     1
 91
        0
 92
        0
 62
   257
 93
        1
300
CONTENTFORMAT
  1
CONTENTFORMAT_BEGIN
 90
        0
 91
        0
 92
      512
 93
        0
300

 40
0.0
140
1.0
 94
        5
 62
     0
340
55
144
0.18
309
CONTENTFORMAT_END
171
     0
 94
        0
309
TABLEFORMAT_END
  1
CELLSTYLE_BEGIN
 90
        2
 91
        1
300
_HEADER
309
CELLSTYLE_END
300
CELLSTYLE
  1
TABLEFORMAT_BEGIN
 90
        5
170
     1
 91
        0
 92
        0
 62
   257
 93
        1
300
CONTENTFORMAT
  1
CONTENTFORMAT_BEGIN
 90
        0
 91
        0
 92
      512
 93
        0
300

 40
0.0
140
1.0
 94
        2
 62
     0
340
55
144
0.18
309
CONTENTFORMAT_END
171
     0
 94
        0
309
TABLEFORMAT_END
  1
CELLSTYLE_BEGIN
 90
        3
 91
        2
300
_DATA
309
CELLSTYLE_END
  0
ENDSEC
  0
EOF
