  0
SECTION
  2
HEADER
  9
$ACADVER
  1
AC1027
  9
$ACADMAINTVER
 70
    20
  9
$DWGCODEPAGE
  3
ANSI_1252
  9
$REQUIREDVERSIONS
160
                 0
  9
$INSBASE
 10
0.0
 20
0.0
 30
0.0
  9
$EXTMIN
 10
626.0271471288002
 20
1780.193319846824
 30
-0.00000001
  9
$EXTMAX
 10
1093.166912826324
 20
2050.019999999994
 30
0.00000001
  9
$LIMMIN
 10
0.0
 20
0.0
  9
$LIMMAX
 10
12.0
 20
9.0
  9
$ORTHOMODE
 70
     0
  9
$REGENMODE
 70
     1
  9
$FILLMODE
 70
     1
  9
$QTEXTMODE
 70
     0
  9
$MIRRTEXT
 70
     0
  9
$LTSCALE
 40
1.0
  9
$ATTMODE
 70
     1
  9
$TEXTSIZE
 40
0.2
  9
$TRACEWID
 40
0.05
  9
$TEXTSTYLE
  7
Standard
  9
$CLAYER
  8
0
  9
$CELTYPE
  6
ByLayer
  9
$CECOLOR
 62
   256
  9
$CELTSCALE
 40
1.0
  9
$DISPSILH
 70
     0
  9
$DIMSCALE
 40
1.0
  9
$DIMASZ
 40
0.18
  9
$DIMEXO
 40
0.0625
  9
$DIMDLI
 40
0.38
  9
$DIMRND
 40
0.0
  9
$DIMDLE
 40
0.0
  9
$DIMEXE
 40
0.18
  9
$DIMTP
 40
0.0
  9
$DIMTM
 40
0.0
  9
$DIMTXT
 40
0.18
  9
$DIMCEN
 40
0.09
  9
$DIMTSZ
 40
0.0
  9
$DIMTOL
 70
     0
  9
$DIMLIM
 70
     0
  9
$DIMTIH
 70
     1
  9
$DIMTOH
 70
     1
  9
$DIMSE1
 70
     0
  9
$DIMSE2
 70
     0
  9
$DIMTAD
 70
     0
  9
$DIMZIN
 70
     0
  9
$DIMBLK
  1

  9
$DIMASO
 70
     1
  9
$DIMSHO
 70
     1
  9
$DIMPOST
  1

  9
$DIMAPOST
  1

  9
$DIMALT
 70
     0
  9
$DIMALTD
 70
     2
  9
$DIMALTF
 40
25.4
  9
$DIMLFAC
 40
1.0
  9
$DIMTOFL
 70
     0
  9
$DIMTVP
 40
0.0
  9
$DIMTIX
 70
     0
  9
$DIMSOXD
 70
     0
  9
$DIMSAH
 70
     0
  9
$DIMBLK1
  1

  9
$DIMBLK2
  1

  9
$DIMSTYLE
  2
Standard
  9
$DIMCLRD
 70
     0
  9
$DIMCLRE
 70
     0
  9
$DIMCLRT
 70
     0
  9
$DIMTFAC
 40
1.0
  9
$DIMGAP
 40
0.09
  9
$DIMJUST
 70
     0
  9
$DIMSD1
 70
     0
  9
$DIMSD2
 70
     0
  9
$DIMTOLJ
 70
     1
  9
$DIMTZIN
 70
     0
  9
$DIMALTZ
 70
     0
  9
$DIMALTTZ
 70
     0
  9
$DIMUPT
 70
     0
  9
$DIMDEC
 70
     4
  9
$DIMTDEC
 70
     4
  9
$DIMALTU
 70
     2
  9
$DIMALTTD
 70
     2
  9
$DIMTXSTY
  7
Standard
  9
$DIMAUNIT
 70
     0
  9
$DIMADEC
 70
     0
  9
$DIMALTRND
 40
0.0
  9
$DIMAZIN
 70
     0
  9
$DIMDSEP
 70
    46
  9
$DIMATFIT
 70
     3
  9
$DIMFRAC
 70
     0
  9
$DIMLDRBLK
  1

  9
$DIMLUNIT
 70
     2
  9
$DIMLWD
 70
    -2
  9
$DIMLWE
 70
    -2
  9
$DIMTMOVE
 70
     0
  9
$DIMFXL
 40
1.0
  9
$DIMFXLON
 70
     0
  9
$DIMJOGANG
 40
0.7853981633974483
  9
$DIMTFILL
 70
     0
  9
$DIMTFILLCLR
 70
     0
  9
$DIMARCSYM
 70
     0
  9
$DIMLTYPE
  6

  9
$DIMLTEX1
  6

  9
$DIMLTEX2
  6

  9
$DIMTXTDIRECTION
 70
     0
  9
$LUNITS
 70
     2
  9
$LUPREC
 70
     4
  9
$SKETCHINC
 40
0.1
  9
$FILLETRAD
 40
0.0
  9
$AUNITS
 70
     0
  9
$AUPREC
 70
     0
  9
$MENU
  1
.
  9
$ELEVATION
 40
0.0
  9
$PELEVATION
 40
0.0
  9
$THICKNESS
 40
0.0
  9
$LIMCHECK
 70
     0
  9
$CHAMFERA
 40
0.0
  9
$CHAMFERB
 40
0.0
  9
$CHAMFERC
 40
0.0
  9
$CHAMFERD
 40
0.0
  9
$SKPOLY
 70
     0
  9
$TDCREATE
 40
2457539.695460938
  9
$TDUCREATE
 40
2457539.612127604
  9
$TDUPDATE
 40
2457539.695460938
  9
$TDUUPDATE
 40
2457539.612127604
  9
$TDINDWG
 40
0.0000093403
  9
$TDUSRTIMER
 40
0.0000093403
  9
$USRTIMER
 70
     1
  9
$ANGBASE
 50
0.0
  9
$ANGDIR
 70
     0
  9
$PDMODE
 70
     0
  9
$PDSIZE
 40
0.0
  9
$PLINEWID
 40
0.0
  9
$SPLFRAME
 70
     0
  9
$SPLINETYPE
 70
     6
  9
$SPLINESEGS
 70
     8
  9
$HANDSEED
  5
333
  9
$SURFTAB1
 70
     6
  9
$SURFTAB2
 70
     6
  9
$SURFTYPE
 70
     6
  9
$SURFU
 70
     6
  9
$SURFV
 70
     6
  9
$UCSBASE
  2

  9
$UCSNAME
  2

  9
$UCSORG
 10
0.0
 20
0.0
 30
0.0
  9
$UCSXDIR
 10
1.0
 20
0.0
 30
0.0
  9
$UCSYDIR
 10
0.0
 20
1.0
 30
0.0
  9
$UCSORTHOREF
  2

  9
$UCSORTHOVIEW
 70
     0
  9
$UCSORGTOP
 10
0.0
 20
0.0
 30
0.0
  9
$UCSORGBOTTOM
 10
0.0
 20
0.0
 30
0.0
  9
$UCSORGLEFT
 10
0.0
 20
0.0
 30
0.0
  9
$UCSORGRIGHT
 10
0.0
 20
0.0
 30
0.0
  9
$UCSORGFRONT
 10
0.0
 20
0.0
 30
0.0
  9
$UCSORGBACK
 10
0.0
 20
0.0
 30
0.0
  9
$PUCSBASE
  2

  9
$PUCSNAME
  2

  9
$PUCSORG
 10
0.0
 20
0.0
 30
0.0
  9
$PUCSXDIR
 10
1.0
 20
0.0
 30
0.0
  9
$PUCSYDIR
 10
0.0
 20
1.0
 30
0.0
  9
$PUCSORTHOREF
  2

  9
$PUCSORTHOVIEW
 70
     0
  9
$PUCSORGTOP
 10
0.0
 20
0.0
 30
0.0
  9
$PUCSORGBOTTOM
 10
0.0
 20
0.0
 30
0.0
  9
$PUCSORGLEFT
 10
0.0
 20
0.0
 30
0.0
  9
$PUCSORGRIGHT
 10
0.0
 20
0.0
 30
0.0
  9
$PUCSORGFRONT
 10
0.0
 20
0.0
 30
0.0
  9
$PUCSORGBACK
 10
0.0
 20
0.0
 30
0.0
  9
$USERI1
 70
     0
  9
$USERI2
 70
     0
  9
$USERI3
 70
     0
  9
$USERI4
 70
     0
  9
$USERI5
 70
     0
  9
$USERR1
 40
0.0
  9
$USERR2
 40
0.0
  9
$USERR3
 40
0.0
  9
$USERR4
 40
0.0
  9
$USERR5
 40
0.0
  9
$WORLDVIEW
 70
     1
  9
$SHADEDGE
 70
     3
  9
$SHADEDIF
 70
    70
  9
$TILEMODE
 70
     1
  9
$MAXACTVP
 70
    64
  9
$PINSBASE
 10
0.0
 20
0.0
 30
0.0
  9
$PLIMCHECK
 70
     0
  9
$PEXTMIN
 10
1.000000000000000E+20
 20
1.000000000000000E+20
 30
1.000000000000000E+20
  9
$PEXTMAX
 10
-1.000000000000000E+20
 20
-1.000000000000000E+20
 30
-1.000000000000000E+20
  9
$PLIMMIN
 10
0.0
 20
0.0
  9
$PLIMMAX
 10
12.0
 20
9.0
  9
$UNITMODE
 70
     0
  9
$VISRETAIN
 70
     1
  9
$PLINEGEN
 70
     0
  9
$PSLTSCALE
 70
     1
  9
$TREEDEPTH
 70
  3020
  9
$CMLSTYLE
  2
Standard
  9
$CMLJUST
 70
     0
  9
$CMLSCALE
 40
1.0
  9
$PROXYGRAPHICS
 70
     1
  9
$MEASUREMENT
 70
     1
  9
$CELWEIGHT
370
    -1
  9
$ENDCAPS
280
     0
  9
$JOINSTYLE
280
     0
  9
$LWDISPLAY
290
     0
  9
$INSUNITS
 70
     4
  9
$HYPERLINKBASE
  1

  9
$STYLESHEET
  1

  9
$XEDIT
290
     1
  9
$CEPSNTYPE
380
     0
  9
$PSTYLEMODE
290
     1
  9
$FINGERPRINTGUID
  2
{8C0360CA-9BF1-4373-9201-6D884A53DC34}
  9
$VERSIONGUID
  2
{18A721CD-38D8-4955-84AF-B8B84C52ECB6}
  9
$EXTNAMES
290
     1
  9
$PSVPSCALE
 40
0.0
  9
$OLESTARTUP
290
     0
  9
$SORTENTS
280
   127
  9
$INDEXCTL
280
     0
  9
$HIDETEXT
280
     1
  9
$XCLIPFRAME
280
     2
  9
$HALOGAP
280
     0
  9
$OBSCOLOR
 70
   257
  9
$OBSLTYPE
280
     0
  9
$INTERSECTIONDISPLAY
280
     0
  9
$INTERSECTIONCOLOR
 70
   257
  9
$DIMASSOC
280
     2
  9
$PROJECTNAME
  1

  9
$CAMERADISPLAY
290
     0
  9
$LENSLENGTH
 40
50.0
  9
$CAMERAHEIGHT
 40
0.0
  9
$STEPSPERSEC
 40
2.0
  9
$STEPSIZE
 40
6.0
  9
$3DDWFPREC
 40
2.0
  9
$PSOLWIDTH
 40
0.25
  9
$PSOLHEIGHT
 40
4.0
  9
$LOFTANG1
 40
1.570796326794896
  9
$LOFTANG2
 40
1.570796326794896
  9
$LOFTMAG1
 40
0.0
  9
$LOFTMAG2
 40
0.0
  9
$LOFTPARAM
 70
     7
  9
$LOFTNORMALS
280
     1
  9
$LATITUDE
 40
37.795
  9
$LONGITUDE
 40
-122.394
  9
$NORTHDIRECTION
 40
0.0
  9
$TIMEZONE
 70
 -8000
  9
$LIGHTGLYPHDISPLAY
280
     1
  9
$TILEMODELIGHTSYNCH
280
     1
  9
$CMATERIAL
347
11
  9
$SOLIDHIST
280
     0
  9
$SHOWHIST
280
     1
  9
$DWFFRAME
280
     2
  9
$DGNFRAME
280
     0
  9
$REALWORLDSCALE
290
     1
  9
$INTERFERECOLOR
 62
     1
  9
$INTERFEREOBJVS
345
33
  9
$INTERFEREVPVS
346
30
  9
$CSHADOW
280
     0
  9
$SHADOWPLANELOCATION
 40
0.0
  0
ENDSEC
  0
SECTION
  2
CLASSES
  0
CLASS
  1
ACDBDICTIONARYWDFLT
  2
AcDbDictionaryWithDefault
  3
ObjectDBX Classes
 90
        0
 91
        1
280
     0
281
     0
  0
CLASS
  1
MATERIAL
  2
AcDbMaterial
  3
ObjectDBX Classes
 90
     1153
 91
        3
280
     0
281
     0
  0
CLASS
  1
VISUALSTYLE
  2
AcDbVisualStyle
  3
ObjectDBX Classes
 90
     4095
 91
       24
280
     0
281
     0
  0
CLASS
  1
SCALE
  2
AcDbScale
  3
ObjectDBX Classes
 90
     1153
 91
       17
280
     0
281
     0
  0
CLASS
  1
TABLESTYLE
  2
AcDbTableStyle
  3
ObjectDBX Classes
 90
     4095
 91
        1
280
     0
281
     0
  0
CLASS
  1
MLEADERSTYLE
  2
AcDbMLeaderStyle
  3
ACDB_MLEADERSTYLE_CLASS
 90
     4095
 91
        1
280
     0
281
     0
  0
CLASS
  1
ACDBSECTIONVIEWSTYLE
  2
AcDbSectionViewStyle
  3
ObjectDBX Classes
 90
     1025
 91
        1
280
     0
281
     0
  0
CLASS
  1
ACDBDETAILVIEWSTYLE
  2
AcDbDetailViewStyle
  3
ObjectDBX Classes
 90
     1025
 91
        1
280
     0
281
     0
  0
CLASS
  1
RASTERVARIABLES
  2
AcDbRasterVariables
  3
ISM
 90
        0
 91
        1
280
     0
281
     0
  0
CLASS
  1
DICTIONARYVAR
  2
AcDbDictionaryVar
  3
ObjectDBX Classes
 90
        0
 91
        5
280
     0
281
     0
  0
CLASS
  1
CELLSTYLEMAP
  2
AcDbCellStyleMap
  3
ObjectDBX Classes
 90
     1152
 91
        2
280
     0
281
     0
  0
CLASS
  1
SORTENTSTABLE
  2
AcDbSortentsTable
  3
ObjectDBX Classes
 90
        0
 91
        1
280
     0
281
     0
  0
ENDSEC
  0
SECTION
  2
TABLES
  0
TABLE
  2
VPORT
  5
8
330
0
100
AcDbSymbolTable
 70
     1
  0
VPORT
  5
57
330
8
100
AcDbSymbolTableRecord
100
AcDbViewportTableRecord
  2
*Active
 70
     0
 10
0.0
 20
0.0
 11
1.0
 21
1.0
 12
859.5970299775622
 22
1915.106659923409
 13
0.0
 23
0.0
 14
1.0
 24
1.0
 15
0.0
 25
0.0
 16
0.0
 26
0.0
 36
1.0
 17
0.0
 27
0.0
 37
0.0
 40
269.8266801531691
 41
1.731258619171198
 42
50.0
 43
0.0
 44
0.0
 50
0.0
 51
0.0
 71
     0
 72
  1000
 73
     1
 74
     1
 75
     0
 76
     0
 77
     0
 78
     0
281
     0
 65
     1
110
0.0
120
0.0
130
0.0
111
1.0
121
0.0
131
0.0
112
0.0
122
1.0
132
0.0
 79
     0
146
0.0
 60
     3
 61
     5
292
     1
282
     1
141
0.0
142
0.0
 63
   250
421
  3355443
  0
ENDTAB
  0
TABLE
  2
LTYPE
  5
5
330
0
100
AcDbSymbolTable
 70
     3
  0
LTYPE
  5
5B
330
5
100
AcDbSymbolTableRecord
100
AcDbLinetypeTableRecord
  2
ByBlock
 70
     0
  3

 72
    65
 73
     0
 40
0.0
  0
LTYPE
  5
5C
330
5
100
AcDbSymbolTableRecord
100
AcDbLinetypeTableRecord
  2
ByLayer
 70
     0
  3

 72
    65
 73
     0
 40
0.0
  0
LTYPE
  5
5D
330
5
100
AcDbSymbolTableRecord
100
AcDbLinetypeTableRecord
  2
Continuous
 70
     0
  3
Solid line
 72
    65
 73
     0
 40
0.0
  0
LTYPE
  5
69
330
5
100
AcDbSymbolTableRecord
100
AcDbLinetypeTableRecord
  2
PHANTOM2
 70
     0
  3
___ _ _ ___ _ _ ___ _ _ ___ _ _
 72
    65
 73
     6
 40
1.25
 49
0.625
 74
     0
 49
-0.125
 74
     0
 49
0.125
 74
     0
 49
-0.125
 74
     0
 49
0.125
 74
     0
 49
-0.125
 74
     0
  0
LTYPE
  5
86
330
5
100
AcDbSymbolTableRecord
100
AcDbLinetypeTableRecord
  2
Nascosto 1_5 mm
 70
     0
  3

 72
    65
 73
     2
 40
2.2
 49
1.5
 74
     0
 49
-0.7000000000000001
 74
     0
  0
ENDTAB
  0
TABLE
  2
LAYER
  5
2
330
0
100
AcDbSymbolTable
 70
     4
  0
LAYER
  5
54
330
2
100
AcDbSymbolTableRecord
100
AcDbLayerTableRecord
  2
0
 70
     0
 62
     7
  6
Continuous
370
    -3
390
F
347
21
348
0
  0
LAYER
  5
85
330
2
100
AcDbSymbolTableRecord
100
AcDbLayerTableRecord
  2
P-SANR-FIXT
 70
     0
 62
     6
  6
Continuous
370
    18
390
F
347
21
348
0
  0
LAYER
  5
88
330
2
100
AcDbSymbolTableRecord
100
AcDbLayerTableRecord
  2
M-PIPE
 70
     0
 62
     3
  6
Continuous
370
    18
390
F
347
21
348
0
  0
ENDTAB
  0
TABLE
  2
STYLE
  5
3
330
0
100
AcDbSymbolTable
 70
     2
  0
STYLE
  5
55
330
3
100
AcDbSymbolTableRecord
100
AcDbTextStyleTableRecord
  2
Standard
 70
     0
 40
0.0
 41
1.0
 50
0.0
 71
     0
 42
0.2
  3
txt
  4

  0
STYLE
  5
5A
330
3
100
AcDbSymbolTableRecord
100
AcDbTextStyleTableRecord
  2
Annotative
 70
     0
 40
0.0
 41
1.0
 50
0.0
 71
     0
 42
0.2
  3
txt
  4

1001
AcadAnnotative
1000
AnnotativeData
1002
{
1070
     1
1070
     1
1002
}
  0
ENDTAB
  0
TABLE
  2
VIEW
  5
6
330
0
100
AcDbSymbolTable
 70
     0
  0
ENDTAB
  0
TABLE
  2
UCS
  5
7
330
0
100
AcDbSymbolTable
 70
     0
  0
ENDTAB
  0
TABLE
  2
APPID
  5
9
330
0
100
AcDbSymbolTable
 70
     3
  0
APPID
  5
56
330
9
100
AcDbSymbolTableRecord
100
AcDbRegAppTableRecord
  2
ACAD
 70
     0
  0
APPID
  5
5E
330
9
100
AcDbSymbolTableRecord
100
AcDbRegAppTableRecord
  2
AcadAnnotative
 70
     0
  0
APPID
  5
79
330
9
100
AcDbSymbolTableRecord
100
AcDbRegAppTableRecord
  2
REVIT
 70
     0
  0
ENDTAB
  0
TABLE
  2
DIMSTYLE
  5
A
330
0
100
AcDbSymbolTable
 70
     2
100
AcDbDimStyleTable
 71
     0
  0
DIMSTYLE
105
58
330
A
100
AcDbSymbolTableRecord
100
AcDbDimStyleTableRecord
  2
Standard
 70
     0
340
55
  0
DIMSTYLE
105
59
330
A
100
AcDbSymbolTableRecord
100
AcDbDimStyleTableRecord
  2
Annotative
 70
     0
340
55
1001
AcadAnnotative
1000
AnnotativeData
1002
{
1070
     1
1070
     1
1002
}
  0
ENDTAB
  0
TABLE
  2
BLOCK_RECORD
  5
1
330
0
100
AcDbSymbolTable
 70
     4
  0
BLOCK_RECORD
  5
71
102
{ACAD_XDICTIONARY
360
32E
102
}
330
1
100
AcDbSymbolTableRecord
100
AcDbBlockTableRecord
  2
*Model_Space
340
74
 70
     0
280
     1
281
     0
  0
BLOCK_RECORD
  5
6D
330
1
100
AcDbSymbolTableRecord
100
AcDbBlockTableRecord
  2
*Paper_Space
340
70
 70
     0
280
     1
281
     0
  0
BLOCK_RECORD
  5
75
330
1
100
AcDbSymbolTableRecord
100
AcDbBlockTableRecord
  2
*Paper_Space0
340
78
 70
     0
280
     1
281
     0
  0
BLOCK_RECORD
  5
87
330
1
100
AcDbSymbolTableRecord
100
AcDbBlockTableRecord
  2
Automatic flow rate regulator valve_Caleffi_121 DN15 - 1_2__-859151-Est - Idraulica
340
0
102
{BLKREFS
331
19A
102
}
 70
     0
280
     1
281
     0
  0
BLOCK_RECORD
  5
19B
330
1
100
AcDbSymbolTableRecord
100
AcDbBlockTableRecord
  2
Automatic flow rate regulator valve_Caleffi_121 DN15 - 1_2__-V1-Est - Idraulica
340
0
102
{BLKREFS
331
2B4
102
}
 70
     0
280
     1
281
     0
  0
BLOCK_RECORD
  5
2B5
330
1
100
AcDbSymbolTableRecord
100
AcDbBlockTableRecord
  2
Automatic flow rate regulator valve_Caleffi_121 DN15 - 1_2__-V2-Est - Idraulica
340
0
102
{BLKREFS
331
327
102
}
 70
     0
280
     1
281
     0
  0
ENDTAB
  0
ENDSEC
  0
SECTION
  2
BLOCKS
  0
BLOCK
  5
72
330
71
100
AcDbEntity
  8
0
100
AcDbBlockBegin
  2
*Model_Space
 70
     0
 10
0.0
 20
0.0
 30
0.0
  3
*Model_Space
  1

  0
ENDBLK
  5
73
330
71
100
AcDbEntity
  8
0
100
AcDbBlockEnd
  0
BLOCK
  5
6E
330
6D
100
AcDbEntity
 67
     1
  8
0
100
AcDbBlockBegin
  2
*Paper_Space
 70
     0
 10
0.0
 20
0.0
 30
0.0
  3
*Paper_Space
  1

  0
ENDBLK
  5
6F
330
6D
100
AcDbEntity
 67
     1
  8
0
100
AcDbBlockEnd
  0
BLOCK
  5
76
330
75
100
AcDbEntity
 67
     1
  8
0
100
AcDbBlockBegin
  2
*Paper_Space0
 70
     0
 10
0.0
 20
0.0
 30
0.0
  3
*Paper_Space0
  1

  0
ENDBLK
  5
77
330
75
100
AcDbEntity
 67
     1
  8
0
100
AcDbBlockEnd
  0
BLOCK
  5
198
330
87
100
AcDbEntity
  8
0
100
AcDbBlockBegin
  2
Automatic flow rate regulator valve_Caleffi_121 DN15 - 1_2__-859151-Est - Idraulica
 70
     0
 10
0.0
 20
0.0
 30
0.0
  3
Automatic flow rate regulator valve_Caleffi_121 DN15 - 1_2__-859151-Est - Idraulica
  1

  0
LINE
  5
89
330
87
100
AcDbEntity
  8
M-PIPE
100
AcDbLine
 10
655.5853480921581
 20
2023.499999999979
 30
0.0
 11
642.5450950244948
 21
2023.499999999979
 31
0.0
1001
REVIT
1002
{
1070
     3
1000
790271
1002
}
  0
LINE
  5
8A
330
87
100
AcDbEntity
  8
M-PIPE
100
AcDbLine
 10
642.5450950245133
 20
1976.499999999979
 30
0.0
 11
655.5853480921408
 21
1976.499999999979
 31
0.0
1001
REVIT
1002
{
1070
     3
1000
790271
1002
}
  0
LINE
  5
8B
330
87
100
AcDbEntity
  8
M-PIPE
100
AcDbLine
 10
641.4728239335503
 20
2023.500216657194
 30
0.0
 11
638.9464194048222
 21
2019.124355652964
 31
0.0
1001
REVIT
1002
{
1070
     3
1000
790271
1002
}
  0
LINE
  5
8C
330
87
100
AcDbEntity
  8
M-PIPE
100
AcDbLine
 10
638.9464194048228
 20
1980.875644347026
 30
0.0
 11
641.4728239335702
 21
1976.499783342764
 31
0.0
1001
REVIT
1002
{
1070
     3
1000
790271
1002
}
  0
LINE
  5
8D
330
87
100
AcDbEntity
  8
M-PIPE
100
AcDbLine
 10
656.9464194048221
 20
2022.999999999939
 30
0.0
 11
656.6576191831025
 21
2023.500216657194
 31
0.0
1001
REVIT
1002
{
1070
     3
1000
790271
1002
}
  0
LINE
  5
8E
330
87
100
AcDbEntity
  8
M-PIPE
100
AcDbLine
 10
656.6576191830838
 20
1976.499783342764
 30
0.0
 11
656.9464194048228
 21
1977.000000000053
 31
0.0
1001
REVIT
1002
{
1070
     3
1000
790271
1002
}
  0
LINE
  5
8F
330
87
100
AcDbEntity
  8
M-PIPE
100
AcDbLine
 10
638.9464194048214
 20
1999.999999999994
 30
0.0
 11
638.9464194048209
 21
2019.124355652964
 31
0.0
1001
REVIT
1002
{
1070
     3
1000
790271
1002
}
  0
LINE
  5
90
330
87
100
AcDbEntity
  8
M-PIPE
100
AcDbLine
 10
638.9464194048214
 20
1980.875644347026
 30
0.0
 11
638.9464194048214
 21
1999.999999999994
 31
0.0
1001
REVIT
1002
{
1070
     3
1000
790271
1002
}
  0
LINE
  5
91
330
87
100
AcDbEntity
  8
M-PIPE
100
AcDbLine
 10
656.9464194048208
 20
2022.999999999937
 30
0.0
 11
656.9464194048214
 21
1999.999999999995
 31
0.0
1001
REVIT
1002
{
1070
     3
1000
790271
1002
}
  0
LINE
  5
92
330
87
100
AcDbEntity
  8
M-PIPE
100
AcDbLine
 10
656.9464194048214
 20
1999.999999999995
 30
0.0
 11
656.9464194048215
 21
1977.000000000053
 31
0.0
1001
REVIT
1002
{
1070
     3
1000
790271
1002
}
  0
SPLINE
  5
93
330
87
100
AcDbEntity
  8
M-PIPE
100
AcDbSpline
210
0.0
220
0.0
230
1.0
 70
     8
 71
     3
 72
     9
 73
     5
 74
     0
 42
0.000000001
 43
0.0000000001
 40
0.0
 40
0.0
 40
0.0
 40
0.0
 40
0.5
 40
1.0
 40
1.0
 40
1.0
 40
1.0
 10
642.545095024506
 20
2003.499999999978
 30
0.0
 10
642.6775277880379
 20
2002.977756471432
 30
0.0
 10
642.8768479482889
 20
2001.847926113041
 30
0.0
 10
642.9450773749151
 20
2000.618695592793
 30
0.0
 10
642.946419404822
 20
1999.999999999972
 30
0.0
1001
REVIT
1002
{
1070
     3
1000
790271
1002
}
  0
SPLINE
  5
94
330
87
100
AcDbEntity
  8
M-PIPE
100
AcDbSpline
210
0.0
220
0.0
230
1.0
 70
     8
 71
     3
 72
     9
 73
     5
 74
     0
 42
0.000000001
 43
0.0000000001
 40
0.0
 40
0.0
 40
0.0
 40
0.0
 40
0.5
 40
1.0
 40
1.0
 40
1.0
 40
1.0
 10
642.946419404822
 20
1999.999999999972
 30
0.0
 10
642.9450773749151
 20
1999.381304407152
 30
0.0
 10
642.8768479482896
 20
1998.15207388691
 30
0.0
 10
642.6775277880397
 20
1997.022243528522
 30
0.0
 10
642.5450950245086
 20
1996.499999999978
 30
0.0
1001
REVIT
1002
{
1070
     3
1000
790271
1002
}
  0
SPLINE
  5
95
330
87
100
AcDbEntity
  8
M-PIPE
100
AcDbSpline
210
0.0
220
0.0
230
1.0
 70
     8
 71
     3
 72
     9
 73
     5
 74
     0
 42
0.000000001
 43
0.0000000001
 40
0.0
 40
0.0
 40
0.0
 40
0.0
 40
0.5
 40
1.0
 40
1.0
 40
1.0
 40
1.0
 10
655.5853480921426
 20
1996.499999999978
 30
0.0
 10
655.4529153286131
 20
1997.022243528525
 30
0.0
 10
655.2535951683623
 20
1998.152073886921
 30
0.0
 10
655.185365741728
 20
1999.381304407172
 30
0.0
 10
655.184023711815
 20
1999.999999999995
 30
0.0
1001
REVIT
1002
{
1070
     3
1000
790271
1002
}
  0
SPLINE
  5
96
330
87
100
AcDbEntity
  8
M-PIPE
100
AcDbSpline
210
0.0
220
0.0
230
1.0
 70
     8
 71
     3
 72
     9
 73
     5
 74
     0
 42
0.000000001
 43
0.0000000001
 40
0.0
 40
0.0
 40
0.0
 40
0.0
 40
0.5
 40
1.0
 40
1.0
 40
1.0
 40
1.0
 10
655.184023711815
 20
1999.999999999995
 30
0.0
 10
655.1853657417296
 20
2000.618695592812
 30
0.0
 10
655.2535951683662
 20
2001.84792611305
 30
0.0
 10
655.4529153286165
 20
2002.977756471435
 30
0.0
 10
655.5853480921451
 20
2003.499999999978
 30
0.0
1001
REVIT
1002
{
1070
     3
1000
790271
1002
}
  0
SPLINE
  5
97
330
87
100
AcDbEntity
  8
M-PIPE
100
AcDbSpline
210
0.0
220
0.0
230
1.0
 70
     8
 71
     3
 72
     9
 73
     5
 74
     0
 42
0.000000001
 43
0.0000000001
 40
0.0
 40
0.0
 40
0.0
 40
0.0
 40
0.5
 40
1.0
 40
1.0
 40
1.0
 40
1.0
 10
642.5450950244968
 20
2019.999999999978
 30
0.0
 10
641.8302046111176
 20
2017.290537294334
 30
0.0
 10
641.1153141977401
 20
2011.831074588691
 30
0.0
 10
641.8302046111238
 20
2006.290537294334
 30
0.0
 10
642.545095024506
 20
2003.499999999978
 30
0.0
1001
REVIT
1002
{
1070
     3
1000
790271
1002
}
  0
SPLINE
  5
98
330
87
100
AcDbEntity
  8
M-PIPE
100
AcDbSpline
210
0.0
220
0.0
230
1.0
 70
     8
 71
     3
 72
     9
 73
     5
 74
     0
 42
0.000000001
 43
0.0000000001
 40
0.0
 40
0.0
 40
0.0
 40
0.0
 40
0.5
 40
1.0
 40
1.0
 40
1.0
 40
1.0
 10
655.5853480921451
 20
2003.499999999978
 30
0.0
 10
656.3002385055273
 20
2006.290537294334
 30
0.0
 10
657.0151289189108
 20
2011.831074588691
 30
0.0
 10
656.3002385055331
 20
2017.290537294334
 30
0.0
 10
655.5853480921538
 20
2019.999999999978
 30
0.0
1001
REVIT
1002
{
1070
     3
1000
790271
1002
}
  0
SPLINE
  5
99
330
87
100
AcDbEntity
  8
M-PIPE
100
AcDbSpline
210
0.0
220
0.0
230
1.0
 70
     8
 71
     3
 72
     9
 73
     5
 74
     0
 42
0.000000001
 43
0.0000000001
 40
0.0
 40
0.0
 40
0.0
 40
0.0
 40
0.5
 40
1.0
 40
1.0
 40
1.0
 40
1.0
 10
642.9464194048216
 20
2022.562177826466
 30
0.0
 10
642.9450773749088
 20
2022.252830030056
 30
0.0
 10
642.8768479482754
 20
2021.4953335387
 30
0.0
 10
642.6775277880257
 20
2020.522243528522
 30
0.0
 10
642.5450950244968
 20
2019.999999999978
 30
0.0
1001
REVIT
1002
{
1070
     3
1000
790271
1002
}
  0
SPLINE
  5
9A
330
87
100
AcDbEntity
  8
M-PIPE
100
AcDbSpline
210
0.0
220
0.0
230
1.0
 70
     8
 71
     3
 72
    10
 73
     6
 74
     0
 42
0.000000001
 43
0.0000000001
 40
0.0
 40
0.0
 40
0.0
 40
0.0
 40
0.4
 40
0.7
 40
1.0
 40
1.0
 40
1.0
 40
1.0
 10
655.5853480921538
 20
2019.999999999978
 30
0.0
 10
655.3742958838548
 20
2020.835201035563
 30
0.0
 10
655.1454601318747
 20
2022.140753847886
 30
0.0
 10
655.2021414949071
 20
2023.274729575355
 30
0.0
 10
655.4272987673648
 20
2023.499999999978
 30
0.0
 10
655.5853480921568
 20
2023.499999999978
 30
0.0
1001
REVIT
1002
{
1070
     3
1000
790271
1002
}
  0
SPLINE
  5
9B
330
87
100
AcDbEntity
  8
M-PIPE
100
AcDbSpline
210
0.0
220
0.0
230
1.0
 70
     8
 71
     3
 72
     9
 73
     5
 74
     0
 42
0.000000001
 43
0.0000000001
 40
0.0
 40
0.0
 40
0.0
 40
0.0
 40
0.5
 40
1.0
 40
1.0
 40
1.0
 40
1.0
 10
642.5450950244935
 20
2023.499999999978
 30
0.0
 10
642.6775277880235
 20
2023.499999999978
 30
0.0
 10
642.8768479482747
 20
2023.343259651768
 30
0.0
 10
642.9450773749088
 20
2022.871525622877
 30
0.0
 10
642.9464194048216
 20
2022.562177826466
 30
0.0
1001
REVIT
1002
{
1070
     3
1000
790271
1002
}
  0
SPLINE
  5
9C
330
87
100
AcDbEntity
  8
M-PIPE
100
AcDbSpline
210
0.0
220
0.0
230
1.0
 70
    24
 71
     3
 72
     8
 73
     4
 74
     0
 42
0.000000001
 43
0.0000000001
 40
0.5
 40
0.5
 40
0.5
 40
0.5
 40
1.0
 40
1.0
 40
1.0
 40
1.0
 10
641.472759404419
 20
2023.499999999978
 30
0.0
 10
641.4727594044198
 20
2023.499999999978
 30
0.0
 10
641.8302046111114
 20
2023.499999999978
 30
0.0
 10
642.5450950244935
 20
2023.499999999978
 30
0.0
1001
REVIT
1002
{
1070
     3
1000
790271
1002
}
  0
SPLINE
  5
9D
330
87
100
AcDbEntity
  8
M-PIPE
100
AcDbSpline
210
0.0
220
0.0
230
1.0
 70
    24
 71
     3
 72
     8
 73
     4
 74
     0
 42
0.000000001
 43
0.0000000001
 40
0.0
 40
0.0
 40
0.0
 40
0.0
 40
0.5
 40
0.5
 40
0.5
 40
0.5
 10
655.5853480921568
 20
2023.499999999978
 30
0.0
 10
656.3002385055389
 20
2023.499999999978
 30
0.0
 10
656.6576837122303
 20
2023.499999999978
 30
0.0
 10
656.6576837122312
 20
2023.499999999978
 30
0.0
1001
REVIT
1002
{
1070
     3
1000
790271
1002
}
  0
SPLINE
  5
9E
330
87
100
AcDbEntity
  8
M-PIPE
100
AcDbSpline
210
0.0
220
0.0
230
1.0
 70
    24
 71
     3
 72
     9
 73
     5
 74
     0
 42
0.000000001
 43
0.0000000001
 40
0.0
 40
0.0
 40
0.0
 40
0.0
 40
0.5
 40
0.5038786674292672
 40
0.5038786674292672
 40
0.5038786674292672
 40
0.5038786674292672
 10
642.5450950245119
 20
1976.499999999978
 30
0.0
 10
641.8302046111308
 20
1976.499999999978
 30
0.0
 10
641.4699865822774
 20
1976.499999999978
 30
0.0
 10
641.4727809141488
 20
1976.499999999978
 30
0.0
 10
641.4728239335688
 20
1976.499999999978
 30
0.0
1001
REVIT
1002
{
1070
     3
1000
790271
1002
}
  0
SPLINE
  5
9F
330
87
100
AcDbEntity
  8
M-PIPE
100
AcDbSpline
210
0.0
220
0.0
230
1.0
 70
    24
 71
     3
 72
     9
 73
     5
 74
     0
 42
0.000000001
 43
0.0000000001
 40
0.4961213325707748
 40
0.4961213325707748
 40
0.4961213325707748
 40
0.4961213325707748
 40
0.5
 40
1.0
 40
1.0
 40
1.0
 40
1.0
 10
656.6576191830825
 20
1976.499999999978
 30
0.0
 10
656.6576622025024
 20
1976.499999999978
 30
0.0
 10
656.6604565343725
 20
1976.499999999978
 30
0.0
 10
656.3002385058902
 20
1976.500000000024
 30
0.0
 10
655.5853480921395
 20
1976.499999999978
 30
0.0
1001
REVIT
1002
{
1070
     3
1000
790271
1002
}
  0
SPLINE
  5
A0
330
87
100
AcDbEntity
  8
M-PIPE
100
AcDbSpline
210
0.0
220
0.0
230
1.0
 70
     8
 71
     3
 72
     9
 73
     5
 74
     0
 42
0.000000001
 43
0.0000000001
 40
0.0
 40
0.0
 40
0.0
 40
0.0
 40
0.5
 40
1.0
 40
1.0
 40
1.0
 40
1.0
 10
642.9464194048222
 20
1977.437822173487
 30
0.0
 10
642.9450773749177
 20
1977.128474377077
 30
0.0
 10
642.876847948295
 20
1976.656740348187
 30
0.0
 10
642.6775277880442
 20
1976.499999999978
 30
0.0
 10
642.5450950245119
 20
1976.499999999978
 30
0.0
1001
REVIT
1002
{
1070
     3
1000
790271
1002
}
  0
SPLINE
  5
A1
330
87
100
AcDbEntity
  8
M-PIPE
100
AcDbSpline
210
0.0
220
0.0
230
1.0
 70
     8
 71
     3
 72
    10
 73
     6
 74
     0
 42
0.000000001
 43
0.0000000001
 40
0.0
 40
0.0
 40
0.0
 40
0.0
 40
0.4
 40
0.7
 40
1.0
 40
1.0
 40
1.0
 40
1.0
 10
655.5853480921395
 20
1976.499999999978
 30
0.0
 10
655.3742958838402
 20
1976.499999999978
 30
0.0
 10
655.1454601318591
 20
1976.856269652591
 30
0.0
 10
655.2021414948901
 20
1978.222580553142
 30
0.0
 10
655.4272987673473
 20
1979.374889404171
 30
0.0
 10
655.5853480921391
 20
1979.999999999978
 30
0.0
1001
REVIT
1002
{
1070
     3
1000
790271
1002
}
  0
SPLINE
  5
A2
330
87
100
AcDbEntity
  8
M-PIPE
100
AcDbSpline
210
0.0
220
0.0
230
1.0
 70
     8
 71
     3
 72
     9
 73
     5
 74
     0
 42
0.000000001
 43
0.0000000001
 40
0.0
 40
0.0
 40
0.0
 40
0.0
 40
0.5
 40
1.0
 40
1.0
 40
1.0
 40
1.0
 10
642.5450950245124
 20
1979.999999999978
 30
0.0
 10
642.6775277880445
 20
1979.477756471433
 30
0.0
 10
642.876847948295
 20
1978.504666461253
 30
0.0
 10
642.9450773749177
 20
1977.747169969897
 30
0.0
 10
642.9464194048222
 20
1977.437822173487
 30
0.0
1001
REVIT
1002
{
1070
     3
1000
790271
1002
}
  0
SPLINE
  5
A3
330
87
100
AcDbEntity
  8
M-PIPE
100
AcDbSpline
210
0.0
220
0.0
230
1.0
 70
     8
 71
     3
 72
     9
 73
     5
 74
     0
 42
0.000000001
 43
0.0000000001
 40
0.0
 40
0.0
 40
0.0
 40
0.0
 40
0.5
 40
1.0
 40
1.0
 40
1.0
 40
1.0
 10
642.5450950245086
 20
1996.499999999978
 30
0.0
 10
641.8302046111291
 20
1993.709462705621
 30
0.0
 10
641.1153141977502
 20
1988.168925411265
 30
0.0
 10
641.8302046111316
 20
1982.709462705621
 30
0.0
 10
642.5450950245124
 20
1979.999999999978
 30
0.0
1001
REVIT
1002
{
1070
     3
1000
790271
1002
}
  0
SPLINE
  5
A4
330
87
100
AcDbEntity
  8
M-PIPE
100
AcDbSpline
210
0.0
220
0.0
230
1.0
 70
     8
 71
     3
 72
     9
 73
     5
 74
     0
 42
0.000000001
 43
0.0000000001
 40
0.0
 40
0.0
 40
0.0
 40
0.0
 40
0.5
 40
1.0
 40
1.0
 40
1.0
 40
1.0
 10
655.5853480921391
 20
1979.999999999978
 30
0.0
 10
656.3002385055199
 20
1982.709462705621
 30
0.0
 10
657.0151289189013
 20
1988.168925411265
 30
0.0
 10
656.300238505522
 20
1993.709462705621
 30
0.0
 10
655.5853480921426
 20
1996.499999999978
 30
0.0
1001
REVIT
1002
{
1070
     3
1000
790271
1002
}
  0
LINE
  5
A5
330
87
100
AcDbEntity
  8
M-PIPE
100
AcDbLine
 10
777.1626652825788
 20
2047.019999999993
 30
0.0
 11
848.5271471288097
 21
2047.019999999994
 31
0.0
1001
REVIT
1002
{
1070
     3
1000
856288
1002
}
  0
LINE
  5
A6
330
87
100
AcDbEntity
  8
M-PIPE
100
AcDbLine
 10
848.5271471288097
 20
2047.019999999994
 30
0.0
 11
848.5271471288097
 21
2050.019999999994
 31
0.0
1001
REVIT
1002
{
1070
     3
1000
856288
1002
}
  0
LINE
  5
A7
330
87
100
AcDbEntity
  8
M-PIPE
100
AcDbLine
 10
848.5271471288097
 20
2050.019999999994
 30
0.0
 11
777.1626652825788
 21
2050.019999999993
 31
0.0
1001
REVIT
1002
{
1070
     3
1000
856288
1002
}
  0
LINE
  5
A8
330
87
100
AcDbEntity
  8
M-PIPE
100
AcDbLine
 10
777.1626652825788
 20
2050.019999999993
 30
0.0
 11
777.1626652825788
 21
2047.019999999993
 31
0.0
1001
REVIT
1002
{
1070
     3
1000
856288
1002
}
  0
LINE
  5
A9
330
87
100
AcDbEntity
  8
M-PIPE
100
AcDbLine
 10
761.099186790892
 20
2031.02000000001
 30
0.0
 11
772.3025074022356
 21
2047.019999999993
 31
0.0
1001
REVIT
1002
{
1070
     3
1000
856288
1002
}
  0
LINE
  5
AA
330
87
100
AcDbEntity
  8
M-PIPE
100
AcDbLine
 10
772.3025074022356
 20
2047.019999999993
 30
0.0
 11
777.1626652825788
 21
2047.019999999993
 31
0.0
1001
REVIT
1002
{
1070
     3
1000
856288
1002
}
  0
LINE
  5
AB
330
87
100
AcDbEntity
  8
M-PIPE
100
AcDbLine
 10
777.1626652825788
 20
2047.019999999993
 30
0.0
 11
777.1626652825788
 21
2050.019999999993
 31
0.0
1001
REVIT
1002
{
1070
     3
1000
856288
1002
}
  0
LINE
  5
AC
330
87
100
AcDbEntity
  8
M-PIPE
100
AcDbLine
 10
777.1626652825788
 20
2050.019999999993
 30
0.0
 11
770.7408062505805
 21
2050.019999999993
 31
0.0
1001
REVIT
1002
{
1070
     3
1000
856288
1002
}
  0
LINE
  5
AD
330
87
100
AcDbEntity
  8
M-PIPE
100
AcDbLine
 10
770.7408062505805
 20
2050.019999999993
 30
0.0
 11
759.5374856392504
 21
2034.02000000003
 31
0.0
1001
REVIT
1002
{
1070
     3
1000
856288
1002
}
  0
LINE
  5
AE
330
87
100
AcDbEntity
  8
M-PIPE
100
AcDbLine
 10
759.5374856392504
 20
2034.02000000003
 30
0.0
 11
736.0271471288144
 21
2034.02000000003
 31
0.0
1001
REVIT
1002
{
1070
     3
1000
856288
1002
}
  0
LINE
  5
AF
330
87
100
AcDbEntity
  8
M-PIPE
100
AcDbLine
 10
736.0271471288144
 20
2034.02000000003
 30
0.0
 11
736.0271471288097
 21
2031.02000000003
 31
0.0
1001
REVIT
1002
{
1070
     3
1000
856288
1002
}
  0
LINE
  5
B0
330
87
100
AcDbEntity
  8
M-PIPE
100
AcDbLine
 10
736.0271471288097
 20
2031.02000000003
 30
0.0
 11
761.099186790892
 21
2031.02000000001
 31
0.0
1001
REVIT
1002
{
1070
     3
1000
856288
1002
}
  0
LINE
  5
B1
330
87
100
AcDbEntity
  8
P-SANR-FIXT
100
AcDbLine
 10
752.5271471288016
 20
2026.499999999996
 30
0.0
 11
752.5271471288016
 21
2031.020000000018
 31
0.0
  0
LINE
  5
B2
330
87
100
AcDbEntity
  8
P-SANR-FIXT
100
AcDbLine
 10
744.5271471288016
 20
2031.020000000024
 30
0.0
 11
744.5271471288016
 21
2026.499999999996
 31
0.0
  0
LINE
  5
B3
330
87
100
AcDbEntity
  8
P-SANR-FIXT
100
AcDbLine
 10
718.4006342092414
 20
1975.522260712197
 30
0.0
 11
734.0784706916458
 21
1986.499999999996
 31
0.0
  0
LINE
  5
B4
330
87
100
AcDbEntity
  8
P-SANR-FIXT
100
AcDbLine
 10
734.0795912074558
 20
1986.499999999996
 30
0.0
 11
736.7771471288013
 21
1986.499999999996
 31
0.0
  0
LINE
  5
B5
330
87
100
AcDbEntity
  8
P-SANR-FIXT
100
AcDbLine
 10
736.7771471288013
 20
2013.499999999996
 30
0.0
 11
731.2771471288011
 21
2013.499999999996
 31
0.0
  0
LINE
  5
B6
330
87
100
AcDbEntity
  8
P-SANR-FIXT
100
AcDbLine
 10
739.5271471288012
 20
2026.499999999996
 30
0.0
 11
739.5271471288012
 21
2016.249999999996
 31
0.0
  0
LINE
  5
B7
330
87
100
AcDbEntity
  8
P-SANR-FIXT
100
AcDbLine
 10
757.5271471288021
 20
2016.249999999996
 30
0.0
 11
757.5271471288021
 21
2026.499999999996
 31
0.0
  0
LINE
  5
B8
330
87
100
AcDbEntity
  8
P-SANR-FIXT
100
AcDbLine
 10
739.5271471288013
 20
1983.749999999995
 30
0.0
 11
761.028109023125
 21
1983.749999999996
 31
0.0
  0
LINE
  5
B9
330
87
100
AcDbEntity
  8
P-SANR-FIXT
100
AcDbLine
 10
761.0281090231247
 20
2016.249999999996
 30
0.0
 11
757.5271471288021
 21
2016.249999999996
 31
0.0
  0
LINE
  5
BA
330
87
100
AcDbEntity
  8
P-SANR-FIXT
100
AcDbLine
 10
761.028109023125
 20
1983.749999999996
 30
0.0
 11
762.275715290789
 21
1981.58908255656
 31
0.0
  0
LINE
  5
BB
330
87
100
AcDbEntity
  8
P-SANR-FIXT
100
AcDbLine
 10
762.2879401995099
 20
1981.567908393538
 30
0.0
 11
762.3271471288017
 21
1981.499999999996
 31
0.0
  0
LINE
  5
BC
330
87
100
AcDbEntity
  8
P-SANR-FIXT
100
AcDbLine
 10
762.3271471288015
 20
2018.499999999996
 30
0.0
 11
762.2879401995097
 21
2018.432091606454
 31
0.0
  0
LINE
  5
BD
330
87
100
AcDbEntity
  8
P-SANR-FIXT
100
AcDbLine
 10
762.2757152907889
 20
2018.410917443432
 30
0.0
 11
761.0281090231247
 21
2016.249999999996
 31
0.0
  0
LINE
  5
BE
330
87
100
AcDbEntity
  8
P-SANR-FIXT
100
AcDbLine
 10
762.3271471288017
 20
1981.499999999996
 30
0.0
 11
764.8271471288016
 21
1981.499999999996
 31
0.0
  0
LINE
  5
BF
330
87
100
AcDbEntity
  8
P-SANR-FIXT
100
AcDbLine
 10
764.8271471288015
 20
2018.499999999996
 30
0.0
 11
762.3271471288015
 21
2018.499999999996
 31
0.0
  0
LINE
  5
C0
330
87
100
AcDbEntity
  8
P-SANR-FIXT
100
AcDbLine
 10
739.5271471288012
 20
2016.249999999996
 30
0.0
 11
736.7771471288013
 21
2013.499999999996
 31
0.0
  0
LINE
  5
C1
330
87
100
AcDbEntity
  8
P-SANR-FIXT
100
AcDbLine
 10
736.7771471288013
 20
1986.499999999996
 30
0.0
 11
739.5271471288013
 21
1983.749999999995
 31
0.0
  0
LINE
  5
C2
330
87
100
AcDbEntity
  8
P-SANR-FIXT
100
AcDbLine
 10
711.2128725299657
 20
1968.352980271181
 30
0.0
 11
718.5852409285668
 21
1973.515168198341
 31
0.0
  0
LINE
  5
C3
330
87
100
AcDbEntity
  8
P-SANR-FIXT
100
AcDbLine
 10
731.2771471288011
 20
2013.499999999996
 30
0.0
 11
731.2771471288011
 21
2024.499999999996
 31
0.0
  0
LINE
  5
C4
330
87
100
AcDbEntity
  8
P-SANR-FIXT
100
AcDbLine
 10
713.7771471288012
 20
2024.499999999996
 30
0.0
 11
713.7771471288012
 21
2013.499999999996
 31
0.0
  0
LINE
  5
C5
330
87
100
AcDbEntity
  8
P-SANR-FIXT
100
AcDbLine
 10
717.5814821649526
 20
1974.948684275846
 30
0.0
 11
718.4006342092414
 21
1975.522260712197
 31
0.0
  0
LINE
  5
C6
330
87
100
AcDbEntity
  8
P-SANR-FIXT
100
AcDbLine
 10
694.3996493169227
 20
1957.495815577377
 30
0.0
 11
710.7826902027026
 21
1968.967344304397
 31
0.0
  0
LINE
  5
C7
330
87
100
AcDbEntity
  8
P-SANR-FIXT
100
AcDbLine
 10
667.1087667262797
 20
1983.249999999995
 30
0.0
 11
665.1291948381319
 21
1981.863888841486
 31
0.0
  0
LINE
  5
C8
330
87
100
AcDbEntity
  8
P-SANR-FIXT
100
AcDbLine
 10
686.9250994194715
 20
1950.736111158505
 30
0.0
 11
695.1166198623614
 21
1956.471875522015
 31
0.0
  0
LINE
  5
C9
330
87
100
AcDbEntity
  8
P-SANR-FIXT
100
AcDbLine
 10
656.9464194048228
 20
1983.249999999995
 30
0.0
 11
667.1087667262797
 21
1983.249999999995
 31
0.0
  0
LINE
  5
CA
330
87
100
AcDbEntity
  8
P-SANR-FIXT
100
AcDbLine
 10
697.7251661648647
 20
2016.749999999996
 30
0.0
 11
695.0271471288016
 21
2016.749999999996
 31
0.0
  0
LINE
  5
CB
330
87
100
AcDbEntity
  8
P-SANR-FIXT
100
AcDbLine
 10
670.0271471288015
 20
2016.749999999996
 30
0.0
 11
656.9464194048225
 21
2016.749999999996
 31
0.0
  0
LWPOLYLINE
  5
CC
330
87
100
AcDbEntity
  8
P-SANR-FIXT
100
AcDbPolyline
 90
       34
 70
   128
 43
0.0
 10
697.7251661648647
 20
2016.749999999996
 10
697.8451341674246
 20
2016.747600319979
 10
697.9649102467724
 20
2016.740405118904
 10
698.0843027867314
 20
2016.728425907558
 10
698.2031207847074
 20
2016.711681850123
 10
698.32117415725
 20
2016.69019973352
 10
698.4382740441462
 20
2016.664013924552
 10
698.554233110557
 20
2016.633166314928
 10
698.6688658467131
 20
2016.597706254243
 10
698.78198886469
 20
2016.55769047103
 10
698.8934211917905
 20
2016.513182982005
 10
699.0029845600627
 20
2016.464254989656
 10
699.1105036914892
 20
2016.410984768334
 10
699.2158065783959
 20
2016.353457539029
 10
699.3187247586274
 20
2016.291765333036
 10
699.4190935850498
 20
2016.226006844725
 10
699.5167524889519
 20
2016.156287273649
 10
699.6115452369202
 20
2016.082718156249
 10
699.7033201807791
 20
2016.005417187419
 10
699.7919305001964
 20
2015.924508032219
 10
699.8772344375634
 20
2015.840120128038
 10
699.9590955247773
 20
2015.75238847752
 10
700.0373828015617
 20
2015.661453432592
 10
700.1119710249739
 20
2015.567460469926
 10
700.1827408697677
 20
2015.470559958213
 10
700.2495791192883
 20
2015.370906917601
 10
700.3123788465948
 20
2015.268660771694
 10
700.3710395855194
 20
2015.163985092518
 10
700.4254674913942
 20
2015.057047338826
 10
700.47557549118
 20
2014.948018588215
 10
700.5212834227664
 20
2014.837073263426
 10
700.5625181632133
 20
2014.724388853312
 10
700.5992137457324
 20
2014.610145628892
 10
700.622943643732
 20
2014.526457135303
  0
LINE
  5
CD
330
87
100
AcDbEntity
  8
P-SANR-FIXT
100
AcDbLine
 10
700.8979820042029
 20
2013.499999999996
 30
0.0
 11
700.622943643732
 21
2014.526457135303
 31
0.0
  0
LINE
  5
CE
330
87
100
AcDbEntity
  8
P-SANR-FIXT
100
AcDbLine
 10
665.1291948381319
 20
1981.863888841486
 30
0.0
 11
662.671738705265
 21
1980.143159532433
 31
0.0
  0
LINE
  5
CF
330
87
100
AcDbEntity
  8
P-SANR-FIXT
100
AcDbLine
 10
684.4676432866044
 20
1949.015381849452
 30
0.0
 11
686.9250994194715
 21
1950.736111158505
 31
0.0
  0
LINE
  5
D0
330
87
100
AcDbEntity
  8
P-SANR-FIXT
100
AcDbLine
 10
668.1207148505998
 20
1972.361215111688
 30
0.0
 11
661.5674984962879
 21
1967.772603620879
 31
0.0
  0
LINE
  5
D1
330
87
100
AcDbEntity
  8
P-SANR-FIXT
100
AcDbLine
 10
672.4654507869575
 20
1952.208714779389
 30
0.0
 11
679.0186671412696
 21
1956.797326270197
 31
0.0
  0
LINE
  5
D2
330
87
100
AcDbEntity
  8
P-SANR-FIXT
100
AcDbLine
 10
670.0271471288015
 20
2024.499999999996
 30
0.0
 11
670.0271471288015
 21
2016.749999999996
 31
0.0
  0
LINE
  5
D3
330
87
100
AcDbEntity
  8
P-SANR-FIXT
100
AcDbLine
 10
695.0271471288016
 20
2016.749999999996
 30
0.0
 11
695.0271471288016
 21
2024.499999999996
 31
0.0
  0
LWPOLYLINE
  5
D4
330
87
100
AcDbEntity
  8
P-SANR-FIXT
100
AcDbPolyline
 90
       15
 70
   128
 43
0.0
 10
726.1929804769404
 20
2007.108083414856
 10
725.8983486482877
 20
2007.528861273669
 10
725.6084587558657
 20
2007.942866945706
 10
725.3237745616626
 20
2008.349438110208
 10
725.0447514996595
 20
2008.747924340043
 10
724.7718359472337
 20
2009.137688142248
 10
724.5054645110505
 20
2009.518105977887
 10
724.2460633285848
 20
2009.888569259572
 10
723.9940473863927
 20
2010.248485325081
 10
723.7498198562207
 20
2010.597278385487
 10
723.5137714500187
 20
2010.934390446299
 10
723.2862797948818
 20
2011.259282200133
 10
723.0677088289296
 20
2011.57143388949
 10
722.8584082190812
 20
2011.870346138254
 10
722.7770685510716
 20
2011.986511222992
  0
LINE
  5
D5
330
87
100
AcDbEntity
  8
P-SANR-FIXT
100
AcDbLine
 10
767.8271471288017
 20
2017.999999999996
 30
0.0
 11
764.8271471288015
 21
2017.999999999996
 31
0.0
  0
LINE
  5
D6
330
87
100
AcDbEntity
  8
P-SANR-FIXT
100
AcDbLine
 10
764.8271471288016
 20
1981.999999999996
 30
0.0
 11
767.8271471288017
 21
1981.999999999996
 31
0.0
  0
LINE
  5
D7
330
87
100
AcDbEntity
  8
P-SANR-FIXT
100
AcDbLine
 10
626.0271471288015
 20
1983.249999999997
 30
0.0
 11
638.9464194048228
 21
1983.249999999997
 31
0.0
  0
LINE
  5
D8
330
87
100
AcDbEntity
  8
P-SANR-FIXT
100
AcDbLine
 10
638.9464194048222
 20
2016.749999999996
 30
0.0
 11
626.0271471288015
 21
2016.749999999996
 31
0.0
  0
SPLINE
  5
D9
330
87
100
AcDbEntity
  8
P-SANR-FIXT
100
AcDbSpline
210
0.0
220
0.0
230
1.0
 70
     8
 71
     3
 72
     8
 73
     4
 74
     0
 42
0.000000001
 43
0.0000000001
 40
0.0625
 40
0.0625
 40
0.0625
 40
0.0625
 40
0.0652145346053691
 40
0.0652145346053691
 40
0.0652145346053691
 40
0.0652145346053691
 10
732.4806110681286
 20
1991.33553418896
 30
0.0
 10
732.466749438346
 20
1991.333592810273
 30
0.0
 10
732.4528925414508
 20
1991.331683040867
 30
0.0
 10
732.4390402951194
 20
1991.329804997197
 30
0.0
  0
SPLINE
  5
DA
330
87
100
AcDbEntity
  8
P-SANR-FIXT
100
AcDbSpline
210
0.0
220
0.0
230
1.0
 70
     8
 71
     3
 72
     8
 73
     4
 74
     0
 42
0.000000001
 43
0.0000000001
 40
0.125
 40
0.125
 40
0.125
 40
0.125
 40
0.1405545844164578
 40
0.1405545844164578
 40
0.1405545844164578
 40
0.1405545844164578
 10
731.5296741782751
 20
1991.253129035744
 30
0.0
 10
731.4512439618985
 20
1991.250698581692
 30
0.0
 10
731.3729069728782
 20
1991.249394083867
 30
0.0
 10
731.2946761305726
 20
1991.249197972565
 30
0.0
  0
SPLINE
  5
DB
330
87
100
AcDbEntity
  8
P-SANR-FIXT
100
AcDbSpline
210
0.0
220
0.0
230
1.0
 70
     8
 71
     3
 72
     8
 73
     4
 74
     0
 42
0.000000001
 43
0.0000000001
 40
0.1875
 40
0.1875
 40
0.1875
 40
0.1875
 40
0.25
 40
0.25
 40
0.25
 40
0.25
 10
730.5895994165734
 20
1991.277222121922
 30
0.0
 10
730.2783050823091
 20
1991.302672062299
 30
0.0
 10
729.9693601236497
 20
1991.345167308736
 30
0.0
 10
729.6635947371551
 20
1991.403561014412
 30
0.0
  0
SPLINE
  5
DC
330
87
100
AcDbEntity
  8
P-SANR-FIXT
100
AcDbSpline
210
0.0
220
0.0
230
1.0
 70
     8
 71
     3
 72
     8
 73
     4
 74
     0
 42
0.000000001
 43
0.0000000001
 40
0.2936036140053774
 40
0.2936036140053774
 40
0.2936036140053774
 40
0.2936036140053774
 40
0.3125
 40
0.3125
 40
0.3125
 40
0.3125
 10
729.028553996924
 20
1991.549109269961
 30
0.0
 10
728.9375644208035
 20
1991.573517445322
 30
0.0
 10
728.8469125568225
 20
1991.599396406692
 30
0.0
 10
728.75661996939
 20
1991.626754770496
 30
0.0
  0
SPLINE
  5
DD
330
87
100
AcDbEntity
  8
P-SANR-FIXT
100
AcDbSpline
210
0.0
220
0.0
230
1.0
 70
     8
 71
     3
 72
     8
 73
     4
 74
     0
 42
0.000000001
 43
0.0000000001
 40
0.3697694096351071
 40
0.3697694096351071
 40
0.3697694096351071
 40
0.3697694096351071
 40
0.375
 40
0.375
 40
0.375
 40
0.375
 10
727.9461733964939
 20
1991.916509762582
 30
0.0
 10
727.9218364933289
 20
1991.926585642693
 30
0.0
 10
727.8975317872621
 20
1991.936776580963
 30
0.0
 10
727.8732601743546
 20
1991.94708312027
 30
0.0
  0
SPLINE
  5
DE
330
87
100
AcDbEntity
  8
P-SANR-FIXT
100
AcDbSpline
210
0.0
220
0.0
230
1.0
 70
     8
 71
     3
 72
     8
 73
     4
 74
     0
 42
0.000000001
 43
0.0000000001
 40
0.4375
 40
0.4375
 40
0.4375
 40
0.4375
 40
0.4449845399651151
 40
0.4449845399651151
 40
0.4449845399651151
 40
0.4449845399651151
 10
727.018839025324
 20
1992.366162188244
 30
0.0
 10
726.9854209968455
 20
1992.384880542884
 30
0.0
 10
726.9520939625665
 20
1992.403838886039
 30
0.0
 10
726.9188603439872
 20
1992.423037356621
 30
0.0
  0
SPLINE
  5
DF
330
87
100
AcDbEntity
  8
P-SANR-FIXT
100
AcDbSpline
210
0.0
220
0.0
230
1.0
 70
     8
 71
     3
 72
     8
 73
     4
 74
     0
 42
0.000000001
 43
0.0000000001
 40
0.5
 40
0.5
 40
0.5
 40
0.5
 40
0.5189473000662693
 40
0.5189473000662693
 40
0.5189473000662693
 40
0.5189473000662693
 10
726.202108163921
 20
1992.885372926234
 30
0.0
 10
726.1218034535122
 20
1992.942943960897
 30
0.0
 10
726.0422027645911
 20
1993.002056199958
 30
0.0
 10
725.9633928477382
 20
1993.062685739035
 30
0.0
  0
SPLINE
  5
E0
330
87
100
AcDbEntity
  8
P-SANR-FIXT
100
AcDbSpline
210
0.0
220
0.0
230
1.0
 70
     8
 71
     3
 72
     9
 73
     5
 74
     0
 42
0.000000001
 43
0.0000000001
 40
0.5625
 40
0.5625
 40
0.5625
 40
0.5625
 40
0.625
 40
0.6875
 40
0.6875
 40
0.6875
 40
0.6875
 10
725.4335181128839
 20
1993.504539505053
 30
0.0
 10
725.1868358682852
 20
1993.726987769682
 30
0.0
 10
724.715378891478
 20
1994.20365228071
 30
0.0
 10
724.2900185163354
 20
1994.743932452132
 30
0.0
 10
724.0965492347257
 20
1995.028622636522
 30
0.0
  0
SPLINE
  5
E1
330
87
100
AcDbEntity
  8
P-SANR-FIXT
100
AcDbSpline
210
0.0
220
0.0
230
1.0
 70
     8
 71
     3
 72
     8
 73
     4
 74
     0
 42
0.000000001
 43
0.0000000001
 40
0.7294225494614226
 40
0.7294225494614226
 40
0.7294225494614226
 40
0.7294225494614226
 40
0.75
 40
0.75
 40
0.75
 40
0.75
 10
723.723153642615
 20
1995.616760388024
 30
0.0
 10
723.6656319693208
 20
1995.715809294696
 30
0.0
 10
723.6108966649651
 20
1995.816551047422
 30
0.0
 10
723.556168287692
 20
1995.91805254401
 30
0.0
  0
SPLINE
  5
E2
330
87
100
AcDbEntity
  8
P-SANR-FIXT
100
AcDbSpline
210
0.0
220
0.0
230
1.0
 70
     8
 71
     3
 72
     8
 73
     4
 74
     0
 42
0.000000001
 43
0.0000000001
 40
0.797734507029478
 40
0.797734507029478
 40
0.797734507029478
 40
0.797734507029478
 40
0.8125
 40
0.8125
 40
0.8125
 40
0.8125
 10
723.2139142601351
 20
1996.646899905998
 30
0.0
 10
723.1819947095868
 20
1996.723942567426
 30
0.0
 10
723.1500632160983
 20
1996.801237983641
 30
0.0
 10
723.1187605850875
 20
1996.878882863802
 30
0.0
  0
SPLINE
  5
E3
330
87
100
AcDbEntity
  8
P-SANR-FIXT
100
AcDbSpline
210
0.0
220
0.0
230
1.0
 70
     8
 71
     3
 72
     8
 73
     4
 74
     0
 42
0.000000001
 43
0.0000000001
 40
0.8653931091268127
 40
0.8653931091268127
 40
0.8653931091268127
 40
0.8653931091268127
 40
0.875
 40
0.875
 40
0.875
 40
0.875
 10
722.8444751267578
 20
1997.733317212388
 30
0.0
 10
722.8303741101476
 20
1997.78576710955
 30
0.0
 10
722.8163055889011
 20
1997.838221056295
 30
0.0
 10
722.8036636452919
 20
1997.890976785225
 30
0.0
  0
SPLINE
  5
E4
330
87
100
AcDbEntity
  8
P-SANR-FIXT
100
AcDbSpline
210
0.0
220
0.0
230
1.0
 70
     8
 71
     3
 72
     8
 73
     4
 74
     0
 42
0.000000001
 43
0.0000000001
 40
0.933167427440974
 40
0.933167427440974
 40
0.933167427440974
 40
0.933167427440974
 40
0.9375
 40
0.9375
 40
0.9375
 40
0.9375
 10
722.6206567728861
 20
1998.858216410885
 30
0.0
 10
722.6174766444231
 20
1998.88251799443
 30
0.0
 10
722.6145868018563
 20
1998.906888840975
 30
0.0
 10
722.6119504601444
 20
1998.931320161591
 30
0.0
  0
SPLINE
  5
E5
330
87
100
AcDbEntity
  8
P-SANR-FIXT
100
AcDbSpline
210
0.0
220
0.0
230
1.0
 70
     8
 71
     3
 72
     9
 73
     5
 74
     0
 42
0.000000001
 43
0.0000000001
 40
0.2197888803237286
 40
0.2197888803237286
 40
0.2197888803237286
 40
0.2197888803237286
 40
0.3333333333333333
 40
0.4401957780415296
 40
0.4401957780415296
 40
0.4401957780415296
 40
0.4401957780415296
 10
722.6216096802909
 20
2001.149112983038
 30
0.0
 10
722.6473841392969
 20
2001.344502300414
 30
0.0
 10
722.7141251288639
 20
2001.720008773864
 30
0.0
 10
722.7910333417088
 20
2002.09826668557
 30
0.0
 10
722.8345093939751
 20
2002.280072850748
 30
0.0
  0
SPLINE
  5
E6
330
87
100
AcDbEntity
  8
P-SANR-FIXT
100
AcDbSpline
210
0.0
220
0.0
230
1.0
 70
     8
 71
     3
 72
     8
 73
     4
 74
     0
 42
0.000000001
 43
0.0000000001
 40
0.6576783609101773
 40
0.6576783609101773
 40
0.6576783609101773
 40
0.6576783609101773
 40
0.6666666666666666
 40
0.6666666666666666
 40
0.6666666666666666
 40
0.6666666666666666
 10
723.2123965147707
 20
2003.350055875563
 30
0.0
 10
723.218374412052
 20
2003.364480491528
 30
0.0
 10
723.2243530707494
 20
2003.378902317173
 30
0.0
 10
723.2304441434982
 20
2003.393272797699
 30
0.0
  0
SPLINE
  5
E7
330
87
100
AcDbEntity
  8
P-SANR-FIXT
100
AcDbSpline
210
0.0
220
0.0
230
1.0
 70
     8
 71
     3
 72
     8
 73
     4
 74
     0
 42
0.000000001
 43
0.0000000001
 40
0.880721623127764
 40
0.880721623127764
 40
0.880721623127764
 40
0.880721623127764
 40
1.0
 40
1.0
 40
1.0
 40
1.0
 10
723.7277081187978
 20
2004.390394610845
 30
0.0
 10
723.832146850034
 20
2004.570267224056
 30
0.0
 10
723.9433405737247
 20
2004.747371325918
 30
0.0
 10
724.0613335794886
 20
2004.922050295663
 30
0.0
  0
SPLINE
  5
E8
330
87
100
AcDbEntity
  8
P-SANR-FIXT
100
AcDbSpline
210
0.0
220
0.0
230
1.0
 70
     8
 71
     3
 72
    10
 73
     6
 74
     0
 42
0.000000001
 43
0.0000000001
 40
0.0
 40
0.0
 40
0.0
 40
0.0
 40
0.25
 40
0.5
 40
1.0
 40
1.0
 40
1.0
 40
1.0
 10
717.770286625854
 20
2013.906596462817
 30
0.0
 10
717.3068733528317
 20
2013.762748009543
 30
0.0
 10
716.4415361755706
 20
2013.534343913403
 30
0.0
 10
714.9737483843994
 20
2013.27207563072
 30
0.0
 10
714.2675112815702
 20
2013.215332856616
 30
0.0
 10
714.0087846100994
 20
2013.196715830336
 30
0.0
  0
LINE
  5
E9
330
87
100
AcDbEntity
  8
P-SANR-FIXT
100
AcDbLine
 10
714.0087846100994
 20
2013.196715830336
 30
0.0
 11
702.9575881052745
 21
2005.458584731421
 31
0.0
  0
SPLINE
  5
EA
330
87
100
AcDbEntity
  8
P-SANR-FIXT
100
AcDbSpline
210
0.0
220
0.0
230
1.0
 70
     8
 71
     3
 72
    12
 73
     8
 74
     0
 42
0.000000001
 43
0.0000000001
 40
0.0
 40
0.0
 40
0.0
 40
0.0
 40
0.1666666666666666
 40
0.3333333333333333
 40
0.5
 40
0.6666666666666666
 40
1.0
 40
1.0
 40
1.0
 40
1.0
 10
702.9575881052745
 20
2005.458584731421
 30
0.0
 10
702.9198138408546
 20
2005.344059354828
 30
0.0
 10
702.8331119137192
 20
2005.029658586606
 30
0.0
 10
702.6714168231908
 20
2004.326375779754
 30
0.0
 10
702.4333146399336
 20
2003.374447941125
 30
0.0
 10
702.0715825740564
 20
2001.857685981068
 30
0.0
 10
701.7889650722923
 20
2000.533319295806
 30
0.0
 10
701.5594677588467
 20
1999.573939009538
 30
0.0
  0
SPLINE
  5
EB
330
87
100
AcDbEntity
  8
P-SANR-FIXT
100
AcDbSpline
210
0.0
220
0.0
230
1.0
 70
     8
 71
     3
 72
    10
 73
     6
 74
     0
 42
0.000000001
 43
0.0000000001
 40
0.0
 40
0.0
 40
0.0
 40
0.0
 40
0.3333333333333333
 40
0.6666666666666666
 40
1.0
 40
1.0
 40
1.0
 40
1.0
 10
734.0784706916444
 20
1986.499999999995
 30
0.0
 10
734.0760713472665
 20
1986.498319960975
 30
0.0
 10
734.0859071516706
 20
1986.781589230269
 30
0.0
 10
734.1330153350578
 20
1988.020435095372
 30
0.0
 10
734.3107959587906
 20
1989.335599094669
 30
0.0
 10
734.4441825411597
 20
1990.093805246748
 30
0.0
  0
LINE
  5
EC
330
87
100
AcDbEntity
  8
P-SANR-FIXT
100
AcDbLine
 10
764.8271471288002
 20
2018.499999999995
 30
0.0
 11
764.8271471288003
 21
1981.499999999995
 31
0.0
  0
LINE
  5
ED
330
87
100
AcDbEntity
  8
P-SANR-FIXT
100
AcDbLine
 10
739.5271471287998
 20
2026.499999999995
 30
0.0
 11
757.5271471288007
 21
2026.499999999995
 31
0.0
  0
SPLINE
  5
EE
330
87
100
AcDbEntity
  8
P-SANR-FIXT
100
AcDbSpline
210
0.0
220
0.0
230
1.0
 70
     8
 71
     3
 72
    49
 73
    45
 74
     0
 42
0.000000001
 43
0.0000000001
 40
0.0
 40
0.0
 40
0.0
 40
0.0
 40
0.0555555555555556
 40
0.0833333333333333
 40
0.1111111111111111
 40
0.1388888888888889
 40
0.1666666666666666
 40
0.1944444444444444
 40
0.2083333333333333
 40
0.2222222222222222
 40
0.2361111111111111
 40
0.25
 40
0.2777777777777778
 40
0.3055555555555556
 40
0.3194444444444444
 40
0.3333333333333333
 40
0.3472222222222222
 40
0.3611111111111111
 40
0.3888888888888888
 40
0.4166666666666666
 40
0.4444444444444445
 40
0.4722222222222223
 40
0.5
 40
0.5277777777777778
 40
0.5555555555555556
 40
0.5833333333333334
 40
0.6111111111111112
 40
0.6388888888888889
 40
0.6527777777777777
 40
0.6666666666666666
 40
0.6805555555555556
 40
0.6944444444444445
 40
0.7222222222222223
 40
0.75
 40
0.7638888888888889
 40
0.7777777777777778
 40
0.7916666666666668
 40
0.8055555555555555
 40
0.8333333333333332
 40
0.861111111111111
 40
0.8888888888888889
 40
0.9166666666666666
 40
0.9444444444444444
 40
1.0
 40
1.0
 40
1.0
 40
1.0
 10
739.5271471287998
 20
2016.249999999995
 30
0.0
 10
739.5271471287998
 20
2016.23815877871
 30
0.0
 10
739.5999090583451
 20
2016.191573016488
 30
0.0
 10
739.8348854419796
 20
2016.070207088937
 30
0.0
 10
740.0775085992568
 20
2015.95276428898
 30
0.0
 10
740.3829657672051
 20
2015.796073396061
 30
0.0
 10
740.7475522048773
 20
2015.602376512741
 30
0.0
 10
741.0983194380735
 20
2015.426083396501
 30
0.0
 10
741.4055742019868
 20
2015.282567573127
 30
0.0
 10
741.6492263710728
 20
2015.177449982296
 30
0.0
 10
741.9048216431365
 20
2015.069550993986
 30
0.0
 10
742.2599872503357
 20
2014.915561412906
 30
0.0
 10
742.7310005005963
 20
2014.714313737904
 30
0.0
 10
743.2374644448876
 20
2014.51632052692
 30
0.0
 10
743.6639648560121
 20
2014.368771383206
 30
0.0
 10
743.994791561229
 20
2014.267758137332
 30
0.0
 10
744.3358311763577
 20
2014.17103377801
 30
0.0
 10
744.8022368666841
 20
2014.040417864148
 30
0.0
 10
745.4059771152603
 20
2013.884638182272
 30
0.0
 10
746.1583311029873
 20
2013.724917008904
 30
0.0
 10
746.9312445955488
 20
2013.614757295838
 30
0.0
 10
747.7234865379852
 20
2013.556917480457
 30
0.0
 10
748.528594908384
 20
2013.536005906414
 30
0.0
 10
749.3336246431791
 20
2013.55711145563
 30
0.0
 10
750.1257120766243
 20
2013.615084241976
 30
0.0
 10
750.898168694869
 20
2013.725248913253
 30
0.0
 10
751.6498347664215
 20
2013.884910061474
 30
0.0
 10
752.2530967187414
 20
2014.040642992186
 30
0.0
 10
752.7192927301572
 20
2014.171258142133
 30
0.0
 10
753.0602812031103
 20
2014.268006552761
 30
0.0
 10
753.3912122278736
 20
2014.369086033923
 30
0.0
 10
753.8180178518311
 20
2014.516773310079
 30
0.0
 10
754.3250167838207
 20
2014.714992313724
 30
0.0
 10
754.7964479748042
 20
2014.916445440595
 30
0.0
 10
755.1517344601604
 20
2015.070531465759
 30
0.0
 10
755.4072855606975
 20
2015.178454728776
 30
0.0
 10
755.6507577869474
 20
2015.283535661815
 30
0.0
 10
755.9576694136433
 20
2015.426940214462
 30
0.0
 10
756.3079022766473
 20
2015.603011351339
 30
0.0
 10
756.6719166366818
 20
2015.796408809218
 30
0.0
 10
756.9770434078167
 20
2015.952897900649
 30
0.0
 10
757.2195197346197
 20
2016.070252835911
 30
0.0
 10
757.4543816320795
 20
2016.191534199955
 30
0.0
 10
757.5271471288007
 20
2016.238126763166
 30
0.0
 10
757.5271471288007
 20
2016.249999999995
 30
0.0
  0
LINE
  5
EF
330
87
100
AcDbEntity
  8
P-SANR-FIXT
100
AcDbLine
 10
739.5271471287998
 20
2016.249999999995
 30
0.0
 11
739.5271471287998
 21
2002.967426952194
 31
0.0
  0
LINE
  5
F0
330
87
100
AcDbEntity
  8
P-SANR-FIXT
100
AcDbLine
 10
739.5271471287998
 20
1997.032573047795
 30
0.0
 11
739.5271471287998
 21
1983.749999999995
 31
0.0
  0
LINE
  5
F1
330
87
100
AcDbEntity
  8
P-SANR-FIXT
100
AcDbLine
 10
761.0281090231236
 20
1983.749999999995
 30
0.0
 11
761.0281090231234
 21
2016.249999999995
 31
0.0
  0
LINE
  5
F2
330
87
100
AcDbEntity
  8
P-SANR-FIXT
100
AcDbLine
 10
762.3271471288002
 20
1981.499999999995
 30
0.0
 11
762.3271471288002
 21
2018.499999999995
 31
0.0
  0
LINE
  5
F3
330
87
100
AcDbEntity
  8
P-SANR-FIXT
100
AcDbLine
 10
736.7771471287998
 20
2006.820273737769
 30
0.0
 11
736.7771471287998
 21
2013.499999999995
 31
0.0
  0
LINE
  5
F4
330
87
100
AcDbEntity
  8
P-SANR-FIXT
100
AcDbLine
 10
736.7771471287999
 20
1986.499999999995
 30
0.0
 11
736.7771471287999
 21
1993.17972626222
 31
0.0
  0
SPLINE
  5
F5
330
87
100
AcDbEntity
  8
P-SANR-FIXT
100
AcDbSpline
210
0.0
220
0.0
230
1.0
 70
     8
 71
     3
 72
     9
 73
     5
 74
     0
 42
0.000000001
 43
0.0000000001
 40
0.0
 40
0.0
 40
0.0
 40
0.0
 40
0.5
 40
1.0
 40
1.0
 40
1.0
 40
1.0
 10
700.8352119505545
 20
1998.8648367029
 30
0.0
 10
700.8002799154194
 20
1998.685028989922
 30
0.0
 10
700.7300393384922
 20
1998.322573635617
 30
0.0
 10
700.6588367008324
 20
1997.954736975272
 30
0.0
 10
700.6229436437307
 20
1997.769546472741
 30
0.0
  0
SPLINE
  5
F6
330
87
100
AcDbEntity
  8
P-SANR-FIXT
100
AcDbSpline
210
0.0
220
0.0
230
1.0
 70
     8
 71
     3
 72
    19
 73
    15
 74
     0
 42
0.000000001
 43
0.0000000001
 40
0.0
 40
0.0
 40
0.0
 40
0.0
 40
0.1666666666666666
 40
0.3333333333333333
 40
0.4166666666666666
 40
0.5
 40
0.5833333333333333
 40
0.625
 40
0.6666666666666666
 40
0.7083333333333333
 40
0.75
 40
0.8333333333333332
 40
0.9166666666666666
 40
1.0
 40
1.0
 40
1.0
 40
1.0
 10
700.6229436437307
 20
1997.769546472741
 30
0.0
 10
700.573662267551
 20
1997.513726481556
 30
0.0
 10
700.441032706014
 20
1997.000541019902
 30
0.0
 10
700.1871999174851
 20
1996.3518177438
 30
0.0
 10
699.9294130633471
 20
1995.844678332062
 30
0.0
 10
699.7072541197176
 20
1995.474179340628
 30
0.0
 10
699.496896209479
 20
1995.175898954209
 30
0.0
 10
699.3134225503061
 20
1994.944900804733
 30
0.0
 10
699.1678780568386
 20
1994.779441039118
 30
0.0
 10
699.0139119272086
 20
1994.619450295938
 30
0.0
 10
698.7976440716645
 20
1994.41171566423
 30
0.0
 10
698.5086067179699
 20
1994.174673859782
 30
0.0
 10
698.134015189824
 20
1993.938617752839
 30
0.0
 10
697.8646304429214
 20
1993.806962120288
 30
0.0
 10
697.7251661648633
 20
1993.748043367596
 30
0.0
  0
SPLINE
  5
F7
330
87
100
AcDbEntity
  8
P-SANR-FIXT
100
AcDbSpline
210
0.0
220
0.0
230
1.0
 70
     8
 71
     3
 72
     9
 73
     5
 74
     0
 42
0.000000001
 43
0.0000000001
 40
0.0
 40
0.0
 40
0.0
 40
0.0
 40
0.5
 40
1.0
 40
1.0
 40
1.0
 40
1.0
 10
697.7251661648633
 20
1993.748043367596
 30
0.0
 10
697.1628211419358
 20
1993.524531398821
 30
0.0
 10
696.0374520031409
 20
1993.082997509606
 30
0.0
 10
694.9113071183879
 20
1992.651611906653
 30
0.0
 10
694.3482015878235
 20
1992.43822646156
 30
0.0
  0
LINE
  5
F8
330
87
100
AcDbEntity
  8
P-SANR-FIXT
100
AcDbLine
 10
694.3482015878235
 20
1992.43822646156
 30
0.0
 11
711.2128725299644
 21
1968.35298027118
 31
0.0
  0
LINE
  5
F9
330
87
100
AcDbEntity
  8
P-SANR-FIXT
100
AcDbLine
 10
718.5852409285652
 20
1973.51516819834
 30
0.0
 11
700.8352119505545
 21
1998.8648367029
 31
0.0
  0
ARC
  5
FA
330
87
100
AcDbEntity
  8
P-SANR-FIXT
100
AcDbCircle
 10
731.2956905576115
 20
1999.999999999995
 30
0.0
 40
8.750000000000056
100
AcDbArc
 50
359.9999999999992
 51
179.9999999999996
  0
ARC
  5
FB
330
87
100
AcDbEntity
  8
P-SANR-FIXT
100
AcDbCircle
 10
731.2956905576115
 20
1999.999999999995
 30
0.0
 40
8.749999999999886
100
AcDbArc
 50
180.0
 51
0.0
  0
SPLINE
  5
FC
330
87
100
AcDbEntity
  8
P-SANR-FIXT
100
AcDbSpline
210
0.0
220
0.0
230
1.0
 70
     8
 71
     3
 72
     8
 73
     4
 74
     0
 42
0.000000001
 43
0.0000000001
 40
-1.0
 40
-1.0
 40
-1.0
 40
-1.0
 40
-0.9290704923303517
 40
-0.9290704923303517
 40
-0.9290704923303517
 40
-0.9290704923303517
 10
736.7771471287999
 20
1993.17972626222
 30
0.0
 10
736.7287103640812
 20
1993.140797616177
 30
0.0
 10
736.6798031413281
 20
1993.102341742003
 30
0.0
 10
736.6304348254165
 20
1993.06437053036
 30
0.0
  0
SPLINE
  5
FD
330
87
100
AcDbEntity
  8
P-SANR-FIXT
100
AcDbSpline
210
0.0
220
0.0
230
1.0
 70
     8
 71
     3
 72
     8
 73
     4
 74
     0
 42
0.000000001
 43
0.0000000001
 40
-0.5
 40
-0.5
 40
-0.5
 40
-0.5
 40
-0.4936934169490231
 40
-0.4936934169490231
 40
-0.4936934169490231
 40
-0.4936934169490231
 10
735.6859646826807
 20
1992.431116786023
 30
0.0
 10
735.6811096416055
 20
1992.428300685599
 30
0.0
 10
735.6762457383267
 20
1992.425498270563
 30
0.0
 10
735.6713731953886
 20
1992.422709197083
 30
0.0
  0
SPLINE
  5
FE
330
87
100
AcDbEntity
  8
P-SANR-FIXT
100
AcDbSpline
210
0.0
220
0.0
230
1.0
 70
     8
 71
     3
 72
     8
 73
     4
 74
     0
 42
0.000000001
 43
0.0000000001
 40
-0.0698502576958776
 40
-0.0698502576958776
 40
-0.0698502576958776
 40
-0.0698502576958776
 40
0.0
 40
0.0
 40
0.0
 40
0.0
 10
734.6505043060759
 20
1991.918683646826
 30
0.0
 10
734.5923221669254
 20
1991.894528605502
 30
0.0
 10
734.5338163251263
 20
1991.870976236971
 30
0.0
 10
734.4749979083033
 20
1991.848036753645
 30
0.0
  0
SPLINE
  5
FF
330
87
100
AcDbEntity
  8
P-SANR-FIXT
100
AcDbSpline
210
0.0
220
0.0
230
1.0
 70
     8
 71
     3
 72
     8
 73
     4
 74
     0
 42
0.000000001
 43
0.0000000001
 40
-1.0
 40
-1.0
 40
-1.0
 40
-1.0
 40
-0.8333333333333332
 40
-0.8333333333333332
 40
-0.8333333333333332
 40
-0.8333333333333332
 10
739.5271471287998
 20
1997.032573047795
 30
0.0
 10
739.4189390418473
 20
1996.732410589629
 30
0.0
 10
739.2975153356175
 20
1996.446952916585
 30
0.0
 10
739.1660272792892
 20
1996.176349926124
 30
0.0
  0
SPLINE
  5
100
330
87
100
AcDbEntity
  8
P-SANR-FIXT
100
AcDbSpline
210
0.0
220
0.0
230
1.0
 70
     8
 71
     3
 72
     8
 73
     4
 74
     0
 42
0.000000001
 43
0.0000000001
 40
-0.7137530338269618
 40
-0.7137530338269618
 40
-0.7137530338269618
 40
-0.7137530338269618
 40
-0.6666666666666666
 40
-0.6666666666666666
 40
-0.6666666666666666
 40
-0.6666666666666666
 10
738.8688617244906
 20
1995.617168087668
 30
0.0
 10
738.8281843502838
 20
1995.546872115772
 30
0.0
 10
738.7869072835866
 20
1995.477872631186
 30
0.0
 10
738.7451553744216
 20
1995.410013731703
 30
0.0
  0
SPLINE
  5
101
330
87
100
AcDbEntity
  8
P-SANR-FIXT
100
AcDbSpline
210
0.0
220
0.0
230
1.0
 70
     8
 71
     3
 72
     8
 73
     4
 74
     0
 42
0.000000001
 43
0.0000000001
 40
-0.5
 40
-0.5
 40
-0.5
 40
-0.5
 40
-0.4823401031226133
 40
-0.4823401031226133
 40
-0.4823401031226133
 40
-0.4823401031226133
 10
738.2846961318177
 20
1994.735372654806
 30
0.0
 10
738.2678997343856
 20
1994.713075124567
 30
0.0
 10
738.2510453395042
 20
1994.690984959834
 30
0.0
 10
738.2341367899717
 20
1994.669083307573
 30
0.0
  0
SPLINE
  5
102
330
87
100
AcDbEntity
  8
P-SANR-FIXT
100
AcDbSpline
210
0.0
220
0.0
230
1.0
 70
     8
 71
     3
 72
     8
 73
     4
 74
     0
 42
0.000000001
 43
0.0000000001
 40
-0.3333333333333333
 40
-0.3333333333333333
 40
-0.3333333333333333
 40
-0.3333333333333333
 40
-0.1666666666666666
 40
-0.1666666666666666
 40
-0.1666666666666666
 40
-0.1666666666666666
 10
737.7968772314281
 20
1994.143629807445
 30
0.0
 10
737.6304998213178
 20
1993.958969565322
 30
0.0
 10
737.4607169672219
 20
1993.780497691582
 30
0.0
 10
737.2900368690108
 20
1993.625808890605
 30
0.0
  0
SPLINE
  5
103
330
87
100
AcDbEntity
  8
P-SANR-FIXT
100
AcDbSpline
210
0.0
220
0.0
230
1.0
 70
     8
 71
     3
 72
     8
 73
     4
 74
     0
 42
0.000000001
 43
0.0000000001
 40
-0.6229045534796248
 40
-0.6229045534796248
 40
-0.6229045534796248
 40
-0.6229045534796248
 40
-0.5
 40
-0.5
 40
-0.5
 40
-0.5
 10
739.970292110681
 20
1998.853889616726
 30
0.0
 10
739.9540074985559
 20
1998.730595658983
 30
0.0
 10
739.9371038396134
 20
1998.607147770977
 30
0.0
 10
739.9136522273558
 20
1998.485656360388
 30
0.0
  0
SPLINE
  5
104
330
87
100
AcDbEntity
  8
P-SANR-FIXT
100
AcDbSpline
210
0.0
220
0.0
230
1.0
 70
     8
 71
     3
 72
     8
 73
     4
 74
     0
 42
0.000000001
 43
0.0000000001
 40
-0.5
 40
-0.5
 40
-0.5
 40
-0.5
 40
-0.3770954465203804
 40
-0.3770954465203804
 40
-0.3770954465203804
 40
-0.3770954465203804
 10
739.9136522273558
 20
2001.514343639602
 30
0.0
 10
739.9351171084961
 20
2001.392186012786
 30
0.0
 10
739.9500045925923
 20
2001.268890229261
 30
0.0
 10
739.9612352450106
 20
2001.144947168074
 30
0.0
  0
SPLINE
  5
105
330
87
100
AcDbEntity
  8
P-SANR-FIXT
100
AcDbSpline
210
0.0
220
0.0
230
1.0
 70
     8
 71
     3
 72
     8
 73
     4
 74
     0
 42
0.000000001
 43
0.0000000001
 40
-0.8333333333333332
 40
-0.8333333333333332
 40
-0.8333333333333332
 40
-0.8333333333333332
 40
-0.6666666666666666
 40
-0.6666666666666666
 40
-0.6666666666666666
 40
-0.6666666666666666
 10
737.2900368690108
 20
2006.374191109384
 30
0.0
 10
737.4606691686834
 20
2006.213703010187
 30
0.0
 10
737.6302214991974
 20
2006.040477792485
 30
0.0
 10
737.7968772314281
 20
2005.856370192545
 30
0.0
  0
SPLINE
  5
106
330
87
100
AcDbEntity
  8
P-SANR-FIXT
100
AcDbSpline
210
0.0
220
0.0
230
1.0
 70
     8
 71
     3
 72
     8
 73
     4
 74
     0
 42
0.000000001
 43
0.0000000001
 40
-0.5176598968773928
 40
-0.5176598968773928
 40
-0.5176598968773928
 40
-0.5176598968773928
 40
-0.5
 40
-0.5
 40
-0.5
 40
-0.5
 10
738.2341596418664
 20
2005.331057707271
 30
0.0
 10
738.251053859585
 20
2005.309067616012
 30
0.0
 10
738.2679169788491
 20
2005.286955631349
 30
0.0
 10
738.2846961318177
 20
2005.264627345184
 30
0.0
  0
SPLINE
  5
107
330
87
100
AcDbEntity
  8
P-SANR-FIXT
100
AcDbSpline
210
0.0
220
0.0
230
1.0
 70
     8
 71
     3
 72
     8
 73
     4
 74
     0
 42
0.000000001
 43
0.0000000001
 40
-0.3333333333333333
 40
-0.3333333333333333
 40
-0.3333333333333333
 40
-0.3333333333333333
 40
-0.2862469661730336
 40
-0.2862469661730336
 40
-0.2862469661730336
 40
-0.2862469661730336
 10
738.7451553744216
 20
2004.589986268287
 30
0.0
 10
738.7869204477884
 20
2004.522186166707
 30
0.0
 10
738.8288981763094
 20
2004.454152393141
 30
0.0
 10
738.8703981960293
 20
2004.385037111832
 30
0.0
  0
SPLINE
  5
108
330
87
100
AcDbEntity
  8
P-SANR-FIXT
100
AcDbSpline
210
0.0
220
0.0
230
1.0
 70
     8
 71
     3
 72
     8
 73
     4
 74
     0
 42
0.000000001
 43
0.0000000001
 40
-0.1666666666666666
 40
-0.1666666666666666
 40
-0.1666666666666666
 40
-0.1666666666666666
 40
0.0
 40
0.0
 40
0.0
 40
0.0
 10
739.1660272792892
 20
2003.823650073865
 30
0.0
 10
739.2975153356175
 20
2003.553047083406
 30
0.0
 10
739.4189390418473
 20
2003.267589410361
 30
0.0
 10
739.5271471287998
 20
2002.967426952194
 30
0.0
  0
SPLINE
  5
109
330
87
100
AcDbEntity
  8
P-SANR-FIXT
100
AcDbSpline
210
0.0
220
0.0
230
1.0
 70
     8
 71
     3
 72
     8
 73
     4
 74
     0
 42
0.000000001
 43
0.0000000001
 40
-0.9219221430389822
 40
-0.9219221430389822
 40
-0.9219221430389822
 40
-0.9219221430389822
 40
-0.9166666666666666
 40
-0.9166666666666666
 40
-0.9166666666666666
 40
-0.9166666666666666
 10
726.9166597518351
 20
2007.575393112666
 30
0.0
 10
726.9335065236397
 20
2007.585131777164
 30
0.0
 10
726.9503929500886
 20
2007.594818357277
 30
0.0
 10
726.9673187522641
 20
2007.604452479607
 30
0.0
  0
SPLINE
  5
10A
330
87
100
AcDbEntity
  8
P-SANR-FIXT
100
AcDbSpline
210
0.0
220
0.0
230
1.0
 70
     8
 71
     3
 72
     8
 73
     4
 74
     0
 42
0.000000001
 43
0.0000000001
 40
-0.8333333333333332
 40
-0.8333333333333332
 40
-0.8333333333333332
 40
-0.8333333333333332
 40
-0.8195753196801751
 40
-0.8195753196801751
 40
-0.8195753196801751
 40
-0.8195753196801751
 10
727.8010142631323
 20
2008.021828818712
 30
0.0
 10
727.8484015205513
 20
2008.042472316269
 30
0.0
 10
727.8960271243574
 20
2008.062719646665
 30
0.0
 10
727.9438838846685
 20
2008.082564753525
 30
0.0
  0
SPLINE
  5
10B
330
87
100
AcDbEntity
  8
P-SANR-FIXT
100
AcDbSpline
210
0.0
220
0.0
230
1.0
 70
     8
 71
     3
 72
     8
 73
     4
 74
     0
 42
0.000000001
 43
0.0000000001
 40
-0.75
 40
-0.75
 40
-0.75
 40
-0.75
 40
-0.719065672553189
 40
-0.719065672553189
 40
-0.719065672553189
 40
-0.719065672553189
 10
728.6867346319851
 20
2008.351996706061
 30
0.0
 10
728.799181943209
 20
2008.387122290153
 30
0.0
 10
728.9126140622715
 20
2008.420059566257
 30
0.0
 10
729.0268848884908
 20
2008.450739261119
 30
0.0
  0
SPLINE
  5
10C
330
87
100
AcDbEntity
  8
P-SANR-FIXT
100
AcDbSpline
210
0.0
220
0.0
230
1.0
 70
     8
 71
     3
 72
     9
 73
     5
 74
     0
 42
0.000000001
 43
0.0000000001
 40
-0.6666666666666666
 40
-0.6666666666666666
 40
-0.6666666666666666
 40
-0.6666666666666666
 40
-0.625
 40
-0.5833333333333333
 40
-0.5833333333333333
 40
-0.5833333333333333
 40
-0.5833333333333333
 10
729.6145445345436
 20
2008.586981311791
 30
0.0
 10
729.7721904520186
 20
2008.617843899744
 30
0.0
 10
730.0905626635916
 20
2008.671168067849
 30
0.0
 10
730.4143253940305
 20
2008.707017849635
 30
0.0
 10
730.5765751118433
 20
2008.720399817415
 30
0.0
  0
SPLINE
  5
10D
330
87
100
AcDbEntity
  8
P-SANR-FIXT
100
AcDbSpline
210
0.0
220
0.0
230
1.0
 70
     8
 71
     3
 72
     8
 73
     4
 74
     0
 42
0.000000001
 43
0.0000000001
 40
-0.5218847154150046
 40
-0.5218847154150046
 40
-0.5218847154150046
 40
-0.5218847154150046
 40
-0.5
 40
-0.5
 40
-0.5
 40
-0.5
 10
731.2957728246198
 20
2008.749993039986
 30
0.0
 10
731.3811894093596
 20
2008.74999411013
 30
0.0
 10
731.4665747452283
 20
2008.748745532789
 30
0.0
 10
731.5518815609322
 20
2008.746248691281
 30
0.0
  0
SPLINE
  5
10E
330
87
100
AcDbEntity
  8
P-SANR-FIXT
100
AcDbSpline
210
0.0
220
0.0
230
1.0
 70
     8
 71
     3
 72
     8
 73
     4
 74
     0
 42
0.000000001
 43
0.0000000001
 40
-0.4238491544695969
 40
-0.4238491544695969
 40
-0.4238491544695969
 40
-0.4238491544695969
 40
-0.4166666666666666
 40
-0.4166666666666666
 40
-0.4166666666666666
 40
-0.4166666666666666
 10
732.4380670152017
 20
2008.675108498903
 30
0.0
 10
732.4657462416872
 20
2008.671463135882
 30
0.0
 10
732.4934039286989
 20
2008.667685713045
 30
0.0
 10
732.5210388143251
 20
2008.663776408107
 30
0.0
  0
SPLINE
  5
10F
330
87
100
AcDbEntity
  8
P-SANR-FIXT
100
AcDbSpline
210
0.0
220
0.0
230
1.0
 70
     8
 71
     3
 72
     8
 73
     4
 74
     0
 42
0.000000001
 43
0.0000000001
 40
-0.3333333333333333
 40
-0.3333333333333333
 40
-0.3333333333333333
 40
-0.3333333333333333
 40
-0.3247939502730688
 40
-0.3247939502730688
 40
-0.3247939502730688
 40
-0.3247939502730688
 10
733.4676146389232
 20
2008.476157489389
 30
0.0
 10
733.4992756888159
 20
2008.468044912933
 30
0.0
 10
733.5308584599451
 20
2008.459762893938
 30
0.0
 10
733.5623637814919
 20
2008.451312526886
 30
0.0
  0
SPLINE
  5
110
330
87
100
AcDbEntity
  8
P-SANR-FIXT
100
AcDbSpline
210
0.0
220
0.0
230
1.0
 70
     8
 71
     3
 72
     8
 73
     4
 74
     0
 42
0.000000001
 43
0.0000000001
 40
-0.25
 40
-0.25
 40
-0.25
 40
-0.25
 40
-0.2236282243343012
 40
-0.2236282243343012
 40
-0.2236282243343012
 40
-0.2236282243343012
 10
734.372573964071
 20
2008.19117137551
 30
0.0
 10
734.4656701962496
 20
2008.156201932421
 30
0.0
 10
734.5579417440884
 20
2008.119672091394
 30
0.0
 10
734.649430241176
 20
2008.081699695933
 30
0.0
  0
SPLINE
  5
111
330
87
100
AcDbEntity
  8
P-SANR-FIXT
100
AcDbSpline
210
0.0
220
0.0
230
1.0
 70
     8
 71
     3
 72
     9
 73
     5
 74
     0
 42
0.000000001
 43
0.0000000001
 40
-0.1666666666666666
 40
-0.1666666666666666
 40
-0.1666666666666666
 40
-0.1666666666666666
 40
-0.125
 40
-0.0833333333333333
 40
-0.0833333333333333
 40
-0.0833333333333333
 40
-0.0833333333333333
 10
735.230613720031
 20
2007.815297800198
 30
0.0
 10
735.3693627823595
 20
2007.745438759504
 30
0.0
 10
735.6414076563601
 20
2007.597623705667
 30
0.0
 10
735.9076309594982
 20
2007.440858287446
 30
0.0
 10
736.0347244311423
 20
2007.355546067115
 30
0.0
  0
SPLINE
  5
112
330
87
100
AcDbEntity
  8
P-SANR-FIXT
100
AcDbSpline
210
0.0
220
0.0
230
1.0
 70
     8
 71
     3
 72
     8
 73
     4
 74
     0
 42
0.000000001
 43
0.0000000001
 40
-0.0173211720932227
 40
-0.0173211720932227
 40
-0.0173211720932227
 40
-0.0173211720932227
 40
0.0
 40
0.0
 40
0.0
 40
0.0
 10
736.628226050808
 20
2006.937329455226
 30
0.0
 10
736.6783500662329
 20
2006.898801411335
 30
0.0
 10
736.7279935293581
 20
2006.859778504149
 30
0.0
 10
736.7771471287998
 20
2006.82027373777
 30
0.0
  0
SPLINE
  5
113
330
87
100
AcDbEntity
  8
P-SANR-FIXT
100
AcDbSpline
210
0.0
220
0.0
230
1.0
 70
     8
 71
     3
 72
    27
 73
    23
 74
     0
 42
0.000000001
 43
0.0000000001
 40
-1.0
 40
-1.0
 40
-1.0
 40
-1.0
 40
-0.8333333333333332
 40
-0.75
 40
-0.6666666666666666
 40
-0.625
 40
-0.5833333333333333
 40
-0.5416666666666666
 40
-0.5
 40
-0.4583333333333333
 40
-0.4166666666666666
 40
-0.375
 40
-0.3541666666666666
 40
-0.3333333333333333
 40
-0.3125
 40
-0.2916666666666666
 40
-0.25
 40
-0.2083333333333333
 40
-0.1666666666666666
 40
-0.125
 40
-0.0833333333333333
 40
0.0
 40
0.0
 40
0.0
 40
0.0
 10
731.2771471287998
 20
2013.499999999995
 30
0.0
 10
731.2771471287998
 20
2013.493680023602
 30
0.0
 10
731.1453814797175
 20
2013.416087776779
 30
0.0
 10
730.7270887328028
 20
2013.147395350601
 30
0.0
 10
730.371597441389
 20
2012.929096400299
 30
0.0
 10
730.0376085593718
 20
2012.733646930196
 30
0.0
 10
729.7635561955892
 20
2012.570605227653
 30
0.0
 10
729.4667110490555
 20
2012.399102107491
 30
0.0
 10
729.147127424906
 20
2012.226538595337
 30
0.0
 10
728.8070874846612
 20
2012.048641716321
 30
0.0
 10
728.4485889323772
 20
2011.861593209671
 30
0.0
 10
728.1337824785143
 20
2011.705791646427
 30
0.0
 10
727.8721718347148
 20
2011.583689511104
 30
0.0
 10
727.6708035173758
 20
2011.494969162076
 30
0.0
 10
727.4648776645237
 20
2011.406919916754
 30
0.0
 10
727.1851503975153
 20
2011.287743938494
 30
0.0
 10
726.825300582062
 20
2011.139784410989
 30
0.0
 10
726.3770858390669
 20
2010.970509338795
 30
0.0
 10
725.9115665278256
 20
2010.819173533929
 30
0.0
 10
725.4296916039948
 20
2010.686921795166
 30
0.0
 10
724.7692618184534
 20
2010.527365667939
 30
0.0
 10
724.2554969233061
 20
2010.42901282107
 30
0.0
 10
723.9071088331747
 20
2010.372646446565
 30
0.0
  0
LINE
  5
114
330
87
100
AcDbEntity
  8
P-SANR-FIXT
100
AcDbLine
 10
730.5271471287977
 20
2024.499999999995
 30
0.0
 11
731.2771471287998
 21
2024.499999999995
 31
0.0
  0
LINE
  5
115
330
87
100
AcDbEntity
  8
P-SANR-FIXT
100
AcDbLine
 10
723.4576398393451
 20
2024.499999999995
 30
0.0
 11
729.5966544182532
 21
2024.499999999995
 31
0.0
  0
LINE
  5
116
330
87
100
AcDbEntity
  8
P-SANR-FIXT
100
AcDbLine
 10
715.457639839349
 20
2024.499999999995
 30
0.0
 11
721.5966544182493
 21
2024.499999999995
 31
0.0
  0
LINE
  5
117
330
87
100
AcDbEntity
  8
P-SANR-FIXT
100
AcDbLine
 10
713.7771471287997
 20
2024.499999999995
 30
0.0
 11
714.5271471287977
 21
2024.499999999995
 31
0.0
  0
LINE
  5
118
330
87
100
AcDbEntity
  8
P-SANR-FIXT
100
AcDbLine
 10
714.0087846100994
 20
2013.499999999995
 30
0.0
 11
714.0087846100994
 21
2013.196715830336
 31
0.0
  0
SPLINE
  5
119
330
87
100
AcDbEntity
  8
P-SANR-FIXT
100
AcDbSpline
210
0.0
220
0.0
230
1.0
 70
     8
 71
     3
 72
     9
 73
     5
 74
     0
 42
0.000000001
 43
0.0000000001
 40
0.0
 40
0.0
 40
0.0
 40
0.0
 40
0.5
 40
1.0
 40
1.0
 40
1.0
 40
1.0
 10
701.5594677588468
 20
1999.573939009538
 30
0.0
 10
701.5115598425697
 20
1999.358929318594
 30
0.0
 10
701.4151859151803
 20
1998.922561798879
 30
0.0
 10
701.3171053627717
 20
1998.474341232572
 30
0.0
 10
701.2674946289161
 20
1998.247473057449
 30
0.0
  0
SPLINE
  5
11A
330
87
100
AcDbEntity
  8
P-SANR-FIXT
100
AcDbSpline
210
0.0
220
0.0
230
1.0
 70
     8
 71
     3
 72
     9
 73
     5
 74
     0
 42
0.000000001
 43
0.0000000001
 40
0.0
 40
0.0
 40
0.0
 40
0.0
 40
0.5
 40
1.0
 40
1.0
 40
1.0
 40
1.0
 10
694.8077955820855
 20
1991.781858214744
 30
0.0
 10
691.3904071886213
 20
1990.505439432254
 30
0.0
 10
684.5846050283709
 20
1988.256687698079
 30
0.0
 10
678.1007667626266
 20
1986.239055642009
 30
0.0
 10
675.049036573887
 20
1985.131354595579
 30
0.0
  0
LINE
  5
11B
330
87
100
AcDbEntity
  8
P-SANR-FIXT
100
AcDbLine
 10
674.5835116248662
 20
1985.796193123611
 30
0.0
 11
695.11661986236
 21
1956.471875522015
 31
0.0
  0
SPLINE
  5
11C
330
87
100
AcDbEntity
  8
P-SANR-FIXT
100
AcDbSpline
210
0.0
220
0.0
230
1.0
 70
     8
 71
     3
 72
     9
 73
     5
 74
     0
 42
0.000000001
 43
0.0000000001
 40
0.0
 40
0.0
 40
0.0
 40
0.0
 40
0.5
 40
1.0
 40
1.0
 40
1.0
 40
1.0
 10
674.5835116248663
 20
1985.796193123611
 30
0.0
 10
672.6788727292083
 20
1985.015825772683
 30
0.0
 10
669.3926415674301
 20
1984.005037470837
 30
0.0
 10
667.5347316420737
 20
1983.548263845047
 30
0.0
 10
667.1087667262784
 20
1983.249999999995
 30
0.0
  0
SPLINE
  5
11D
330
87
100
AcDbEntity
  8
P-SANR-FIXT
100
AcDbSpline
210
0.0
220
0.0
230
1.0
 70
     8
 71
     3
 72
    39
 73
    35
 74
     0
 42
0.000000001
 43
0.0000000001
 40
0.0
 40
0.0
 40
0.0
 40
0.0
 40
0.0555555555555556
 40
0.1111111111111111
 40
0.1666666666666666
 40
0.2222222222222222
 40
0.2777777777777778
 40
0.3055555555555556
 40
0.3194444444444444
 40
0.3333333333333333
 40
0.3472222222222222
 40
0.3611111111111111
 40
0.3888888888888888
 40
0.4166666666666666
 40
0.4444444444444445
 40
0.4583333333333333
 40
0.4722222222222223
 40
0.5
 40
0.5277777777777778
 40
0.5416666666666668
 40
0.5555555555555556
 40
0.5833333333333334
 40
0.6111111111111112
 40
0.6388888888888889
 40
0.6527777777777777
 40
0.6666666666666666
 40
0.6805555555555556
 40
0.6944444444444445
 40
0.7222222222222223
 40
0.7777777777777778
 40
0.8333333333333332
 40
0.8888888888888889
 40
0.9444444444444444
 40
1.0
 40
1.0
 40
1.0
 40
1.0
 10
695.0271471288004
 20
2016.749999999996
 30
0.0
 10
695.0068311201222
 20
2016.749999999996
 30
0.0
 10
694.8491324603383
 20
2016.638385169098
 30
0.0
 10
694.2831227163059
 20
2016.194752772604
 30
0.0
 10
693.3224366991368
 20
2015.510591165565
 30
0.0
 10
692.0685586510217
 20
2014.66625449771
 30
0.0
 10
690.8394873601604
 20
2013.88597254525
 30
0.0
 10
689.8666959010259
 20
2013.333795545658
 30
0.0
 10
689.286106233944
 20
2013.029238927344
 30
0.0
 10
688.8398142823938
 20
2012.810638528576
 30
0.0
 10
688.3785431108766
 20
2012.596322036896
 30
0.0
 10
687.7393336165225
 20
2012.310064960287
 30
0.0
 10
686.9043053729606
 20
2011.967045313415
 30
0.0
 10
685.8584989871025
 20
2011.611960235009
 30
0.0
 10
684.9733228540612
 20
2011.399431010352
 30
0.0
 10
684.2481832740165
 20
2011.289590839114
 30
0.0
 10
683.495957000895
 20
2011.20875167107
 30
0.0
 10
682.529288154035
 20
2011.168463664954
 30
0.0
 10
681.562548016066
 20
2011.20833242002
 30
0.0
 10
680.8101677315517
 20
2011.288923750611
 30
0.0
 10
680.0848399655759
 20
2011.398601620706
 30
0.0
 10
679.1991359393708
 20
2011.611142748361
 30
0.0
 10
678.1523697350707
 20
2011.966407240157
 30
0.0
 10
677.3165826728718
 20
2012.309567611826
 30
0.0
 10
676.6769467694746
 20
2012.595855578064
 30
0.0
 10
676.2154875369045
 20
2012.810141064056
 30
0.0
 10
675.7691818022123
 20
2013.02863197682
 30
0.0
 10
675.1887518236007
 20
2013.332966905666
 30
0.0
 10
674.2165696885733
 20
2013.884660028615
 30
0.0
 10
672.9883818798258
 20
2014.664568911802
 30
0.0
 10
671.733326479572
 20
2015.509723197965
 30
0.0
 10
670.771487516601
 20
2016.194483908266
 30
0.0
 10
670.2051918189972
 20
2016.638329302384
 30
0.0
 10
670.0474271828597
 20
2016.749999999996
 30
0.0
 10
670.0271471288004
 20
2016.749999999996
 30
0.0
  0
SPLINE
  5
11E
330
87
100
AcDbEntity
  8
P-SANR-FIXT
100
AcDbSpline
210
0.0
220
0.0
230
1.0
 70
     8
 71
     3
 72
     8
 73
     4
 74
     0
 42
0.000000001
 43
0.0000000001
 40
0.037037037037037
 40
0.037037037037037
 40
0.037037037037037
 40
0.037037037037037
 40
0.0401883591845503
 40
0.0401883591845503
 40
0.0401883591845503
 40
0.0401883591845503
 10
691.2059341371793
 20
1998.946709659509
 30
0.0
 10
691.2023940423332
 20
1998.91744265692
 30
0.0
 10
691.1987230471757
 20
1998.888226717363
 30
0.0
 10
691.1949207587399
 20
1998.859061706715
 30
0.0
  0
SPLINE
  5
11F
330
87
100
AcDbEntity
  8
P-SANR-FIXT
100
AcDbSpline
210
0.0
220
0.0
230
1.0
 70
     8
 71
     3
 72
     8
 73
     4
 74
     0
 42
0.000000001
 43
0.0000000001
 40
0.0740740740740741
 40
0.0740740740740741
 40
0.0740740740740741
 40
0.0740740740740741
 40
0.0815942729156419
 40
0.0815942729156419
 40
0.0815942729156419
 40
0.0815942729156419
 10
691.0262338708718
 20
1997.935739228217
 30
0.0
 10
691.0103137738031
 20
1997.868717609808
 30
0.0
 10
690.9936219339857
 20
1997.801977804679
 30
0.0
 10
690.9761530111282
 20
1997.735517990127
 30
0.0
  0
SPLINE
  5
120
330
87
100
AcDbEntity
  8
P-SANR-FIXT
100
AcDbSpline
210
0.0
220
0.0
230
1.0
 70
     8
 71
     3
 72
     8
 73
     4
 74
     0
 42
0.000000001
 43
0.0000000001
 40
0.1111111111111111
 40
0.1111111111111111
 40
0.1111111111111111
 40
0.1111111111111111
 40
0.1236459678828132
 40
0.1236459678828132
 40
0.1236459678828132
 40
0.1236459678828132
 10
690.7342186381121
 20
1996.965782268678
 30
0.0
 10
690.6947960432678
 20
1996.85862213757
 30
0.0
 10
690.6531562386155
 20
1996.752220029644
 30
0.0
 10
690.6093734160354
 20
1996.646666137097
 30
0.0
  0
SPLINE
  5
121
330
87
100
AcDbEntity
  8
P-SANR-FIXT
100
AcDbSpline
210
0.0
220
0.0
230
1.0
 70
     8
 71
     3
 72
     8
 73
     4
 74
     0
 42
0.000000001
 43
0.0000000001
 40
0.1481481481481481
 40
0.1481481481481481
 40
0.1481481481481481
 40
0.1481481481481481
 40
0.1851851851851852
 40
0.1851851851851852
 40
0.1851851851851852
 40
0.1851851851851852
 10
690.3286125416453
 20
1996.038076671455
 30
0.0
 10
690.175329297042
 20
1995.737010370387
 30
0.0
 10
690.0046027886526
 20
1995.444888496924
 30
0.0
 10
689.818346862309
 20
1995.164037639316
 30
0.0
  0
SPLINE
  5
122
330
87
100
AcDbEntity
  8
P-SANR-FIXT
100
AcDbSpline
210
0.0
220
0.0
230
1.0
 70
     8
 71
     3
 72
     8
 73
     4
 74
     0
 42
0.000000001
 43
0.0000000001
 40
0.207606942108512
 40
0.207606942108512
 40
0.207606942108512
 40
0.207606942108512
 40
0.2222222222222222
 40
0.2222222222222222
 40
0.2222222222222222
 40
0.2222222222222222
 10
689.4634261821123
 20
1994.666875375985
 30
0.0
 10
689.3827842863406
 20
1994.561769722284
 30
0.0
 10
689.299904582947
 20
1994.458638509143
 30
0.0
 10
689.2149046752467
 20
1994.357624702308
 30
0.0
  0
SPLINE
  5
123
330
87
100
AcDbEntity
  8
P-SANR-FIXT
100
AcDbSpline
210
0.0
220
0.0
230
1.0
 70
     8
 71
     3
 72
     8
 73
     4
 74
     0
 42
0.000000001
 43
0.0000000001
 40
0.2501178127202924
 40
0.2501178127202924
 40
0.2501178127202924
 40
0.2501178127202924
 40
0.2592592592592593
 40
0.2592592592592593
 40
0.2592592592592593
 40
0.2592592592592593
 10
688.7052740755847
 20
1993.802510884022
 30
0.0
 10
688.6471282326393
 20
1993.744433663323
 30
0.0
 10
688.5881796289955
 20
1993.687200697522
 30
0.0
 10
688.5284370127294
 20
1993.63081719505
 30
0.0
  0
SPLINE
  5
124
330
87
100
AcDbEntity
  8
P-SANR-FIXT
100
AcDbSpline
210
0.0
220
0.0
230
1.0
 70
     8
 71
     3
 72
     8
 73
     4
 74
     0
 42
0.000000001
 43
0.0000000001
 40
0.2917954686638131
 40
0.2917954686638131
 40
0.2917954686638131
 40
0.2917954686638131
 40
0.2962962962962963
 40
0.2962962962962963
 40
0.2962962962962963
 40
0.2962962962962963
 10
687.8608254235238
 20
1993.061417817811
 30
0.0
 10
687.8287072305237
 20
1993.036706348313
 30
0.0
 10
687.7964120025486
 20
1993.012217980364
 30
0.0
 10
687.763943318892
 20
1992.987957409239
 30
0.0
  0
SPLINE
  5
125
330
87
100
AcDbEntity
  8
P-SANR-FIXT
100
AcDbSpline
210
0.0
220
0.0
230
1.0
 70
     8
 71
     3
 72
     8
 73
     4
 74
     0
 42
0.000000001
 43
0.0000000001
 40
0.3333333333333333
 40
0.3333333333333333
 40
0.3333333333333333
 40
0.3333333333333333
 40
0.3344458362313214
 40
0.3344458362313214
 40
0.3344458362313214
 40
0.3344458362313214
 10
686.9291524379722
 20
1992.437933532552
 30
0.0
 10
686.9204812018079
 20
1992.432942136924
 30
0.0
 10
686.9118011676047
 20
1992.42796701952
 30
0.0
 10
686.9031121631746
 20
1992.423007976305
 30
0.0
  0
SPLINE
  5
126
330
87
100
AcDbEntity
  8
P-SANR-FIXT
100
AcDbSpline
210
0.0
220
0.0
230
1.0
 70
     8
 71
     3
 72
     8
 73
     4
 74
     0
 42
0.000000001
 43
0.0000000001
 40
0.3703703703703703
 40
0.3703703703703703
 40
0.3703703703703703
 40
0.3703703703703703
 40
0.3762884637864161
 40
0.3762884637864161
 40
0.3762884637864161
 40
0.3762884637864161
 10
686.0278027706224
 20
1991.986264845832
 30
0.0
 10
685.9777328523342
 20
1991.964434975741
 30
0.0
 10
685.9273726880705
 20
1991.942975622043
 30
0.0
 10
685.8767736573924
 20
1991.921921320474
 30
0.0
  0
SPLINE
  5
127
330
87
100
AcDbEntity
  8
P-SANR-FIXT
100
AcDbSpline
210
0.0
220
0.0
230
1.0
 70
     8
 71
     3
 72
     8
 73
     4
 74
     0
 42
0.000000001
 43
0.0000000001
 40
0.4074074074074074
 40
0.4074074074074074
 40
0.4074074074074074
 40
0.4074074074074074
 40
0.4175497377435302
 40
0.4175497377435302
 40
0.4175497377435302
 40
0.4175497377435302
 10
685.0647478515424
 20
1991.627634924236
 30
0.0
 10
684.9753445052073
 20
1991.600062984632
 30
0.0
 10
684.8855855759738
 20
1991.573980633736
 30
0.0
 10
684.7954845887317
 20
1991.549433864701
 30
0.0
  0
SPLINE
  5
128
330
87
100
AcDbEntity
  8
P-SANR-FIXT
100
AcDbSpline
210
0.0
220
0.0
230
1.0
 70
     8
 71
     3
 72
     8
 73
     4
 74
     0
 42
0.000000001
 43
0.0000000001
 40
0.4444444444444445
 40
0.4444444444444445
 40
0.4444444444444445
 40
0.4444444444444445
 40
0.4590398452912312
 40
0.4590398452912312
 40
0.4590398452912312
 40
0.4590398452912312
 10
684.0717509885174
 20
1991.387410440719
 30
0.0
 10
683.9396166978079
 20
1991.364271115179
 30
0.0
 10
683.8068483364262
 20
1991.344564397861
 30
0.0
 10
683.6732246727041
 20
1991.328043087037
 30
0.0
  0
SPLINE
  5
129
330
87
100
AcDbEntity
  8
P-SANR-FIXT
100
AcDbSpline
210
0.0
220
0.0
230
1.0
 70
     8
 71
     3
 72
     9
 73
     5
 74
     0
 42
0.000000001
 43
0.0000000001
 40
0.4814814814814815
 40
0.4814814814814815
 40
0.4814814814814815
 40
0.4814814814814815
 40
0.5138888888888889
 40
0.5185185185185186
 40
0.5185185185185186
 40
0.5185185185185186
 40
0.5185185185185186
 10
683.0499860490959
 20
1991.273529461544
 30
0.0
 10
682.7463456278851
 20
1991.257314237708
 30
0.0
 10
682.3934976024956
 20
1991.254838337276
 30
0.0
 10
682.0453197064189
 20
1991.271178902347
 30
0.0
 10
682.0018783918432
 20
1991.27351871166
 30
0.0
  0
SPLINE
  5
12A
330
87
100
AcDbEntity
  8
P-SANR-FIXT
100
AcDbSpline
210
0.0
220
0.0
230
1.0
 70
     8
 71
     3
 72
     9
 73
     5
 74
     0
 42
0.000000001
 43
0.0000000001
 40
0.5408663698198023
 40
0.5408663698198023
 40
0.5408663698198023
 40
0.5408663698198023
 40
0.5486111111111111
 40
0.5555555555555556
 40
0.5555555555555556
 40
0.5555555555555556
 40
0.5555555555555556
 10
681.37933651642
 20
1991.328542346965
 30
0.0
 10
681.3082822562929
 20
1991.337383259052
 30
0.0
 10
681.1741502847983
 20
1991.355812898723
 30
0.0
 10
681.0413525695492
 20
1991.377445746088
 30
0.0
 10
680.9788119496566
 20
1991.388400009341
 30
0.0
  0
SPLINE
  5
12B
330
87
100
AcDbEntity
  8
P-SANR-FIXT
100
AcDbSpline
210
0.0
220
0.0
230
1.0
 70
     8
 71
     3
 72
     9
 73
     5
 74
     0
 42
0.000000001
 43
0.0000000001
 40
0.5823733029489424
 40
0.5823733029489424
 40
0.5823733029489424
 40
0.5823733029489424
 40
0.5833333333333333
 40
0.5925925925925926
 40
0.5925925925925926
 40
0.5925925925925926
 40
0.5925925925925926
 10
680.2617192965136
 20
1991.548487077588
 30
0.0
 10
680.2532114986533
 20
1991.550800666845
 30
0.0
 10
680.1626514588384
 20
1991.575584673442
 30
0.0
 10
680.0721162457542
 20
1991.602041717172
 30
0.0
 10
679.990252139735
 20
1991.627298326497
 30
0.0
  0
SPLINE
  5
12C
330
87
100
AcDbEntity
  8
P-SANR-FIXT
100
AcDbSpline
210
0.0
220
0.0
230
1.0
 70
     8
 71
     3
 72
     8
 73
     4
 74
     0
 42
0.000000001
 43
0.0000000001
 40
0.6236644130528046
 40
0.6236644130528046
 40
0.6236644130528046
 40
0.6236644130528046
 40
0.6296296296296296
 40
0.6296296296296296
 40
0.6296296296296296
 40
0.6296296296296296
 10
679.1772304810685
 20
1991.921661404705
 30
0.0
 10
679.126264454131
 20
1991.942862099366
 30
0.0
 10
679.0755539810613
 20
1991.964475601628
 30
0.0
 10
679.0251269143859
 20
1991.986485204985
 30
0.0
  0
SPLINE
  5
12D
330
87
100
AcDbEntity
  8
P-SANR-FIXT
100
AcDbSpline
210
0.0
220
0.0
230
1.0
 70
     8
 71
     3
 72
     8
 73
     4
 74
     0
 42
0.000000001
 43
0.0000000001
 40
0.6655217994548934
 40
0.6655217994548934
 40
0.6655217994548934
 40
0.6655217994548934
 40
0.6666666666666666
 40
0.6666666666666666
 40
0.6666666666666666
 40
0.6666666666666666
 10
678.1508188652052
 20
1992.423444325135
 30
0.0
 10
678.1419214103824
 20
1992.428503573476
 30
0.0
 10
678.1330361066919
 20
1992.433578098376
 30
0.0
 10
678.1241626020194
 20
1992.438668074994
 30
0.0
  0
SPLINE
  5
12E
330
87
100
AcDbEntity
  8
P-SANR-FIXT
100
AcDbSpline
210
0.0
220
0.0
230
1.0
 70
     8
 71
     3
 72
     8
 73
     4
 74
     0
 42
0.000000001
 43
0.0000000001
 40
0.7037037037037035
 40
0.7037037037037035
 40
0.7037037037037035
 40
0.7037037037037035
 40
0.7081383088987675
 40
0.7081383088987675
 40
0.7081383088987675
 40
0.7081383088987675
 10
677.2912529657357
 20
1992.986889826388
 30
0.0
 10
677.2590817043675
 20
1993.010997332807
 30
0.0
 10
677.2270257218109
 20
1993.035321924074
 30
0.0
 10
677.1951247171742
 20
1993.059863701663
 30
0.0
  0
SPLINE
  5
12F
330
87
100
AcDbEntity
  8
P-SANR-FIXT
100
AcDbSpline
210
0.0
220
0.0
230
1.0
 70
     8
 71
     3
 72
     8
 73
     4
 74
     0
 42
0.000000001
 43
0.0000000001
 40
0.7407407407407405
 40
0.7407407407407405
 40
0.7407407407407405
 40
0.7407407407407405
 40
0.7497758405936628
 40
0.7497758405936628
 40
0.7497758405936628
 40
0.7497758405936628
 10
676.5236894590464
 20
1993.633141313343
 30
0.0
 10
676.4646897420553
 20
1993.688806008478
 30
0.0
 10
676.4069049034591
 20
1993.74543102443
 30
0.0
 10
676.3501238384137
 20
1993.802924589393
 30
0.0
  0
SPLINE
  5
130
330
87
100
AcDbEntity
  8
P-SANR-FIXT
100
AcDbSpline
210
0.0
220
0.0
230
1.0
 70
     8
 71
     3
 72
     9
 73
     5
 74
     0
 42
0.000000001
 43
0.0000000001
 40
0.7777777777777775
 40
0.7777777777777775
 40
0.7777777777777775
 40
0.7777777777777775
 40
0.7916666666666668
 40
0.7922772153956142
 40
0.7922772153956142
 40
0.7922772153956142
 40
0.7922772153956142
 10
675.8396638225828
 20
1994.356984764504
 30
0.0
 10
675.7592569251604
 20
1994.452518451997
 30
0.0
 10
675.6783801006235
 20
1994.554802750377
 30
0.0
 10
675.5971915044637
 20
1994.658194892532
 30
0.0
 10
675.5937723598026
 20
1994.662550577252
 30
0.0
  0
SPLINE
  5
131
330
87
100
AcDbEntity
  8
P-SANR-FIXT
100
AcDbSpline
210
0.0
220
0.0
230
1.0
 70
     8
 71
     3
 72
     8
 73
     4
 74
     0
 42
0.000000001
 43
0.0000000001
 40
0.8148148148148145
 40
0.8148148148148145
 40
0.8148148148148145
 40
0.8148148148148145
 40
0.8518518518518513
 40
0.8518518518518513
 40
0.8518518518518513
 40
0.8518518518518513
 10
675.2366265760156
 20
1995.162728294799
 30
0.0
 10
675.0496786673762
 20
1995.444377562746
 30
0.0
 10
674.8630653056578
 20
1995.732228209121
 30
0.0
 10
674.7154092337175
 20
1996.036051088899
 30
0.0
  0
SPLINE
  5
132
330
87
100
AcDbEntity
  8
P-SANR-FIXT
100
AcDbSpline
210
0.0
220
0.0
230
1.0
 70
     8
 71
     3
 72
     8
 73
     4
 74
     0
 42
0.000000001
 43
0.0000000001
 40
0.8763142123579775
 40
0.8763142123579775
 40
0.8763142123579775
 40
0.8763142123579775
 40
0.8888888888888883
 40
0.8888888888888883
 40
0.8888888888888883
 40
0.8888888888888883
 10
674.4446564169861
 20
1996.646636126194
 30
0.0
 10
674.40101199221
 20
1996.752270317807
 30
0.0
 10
674.363336524105
 20
1996.860181060691
 30
0.0
 10
674.3304613820375
 20
1996.96992229659
 30
0.0
  0
SPLINE
  5
133
330
87
100
AcDbEntity
  8
P-SANR-FIXT
100
AcDbSpline
210
0.0
220
0.0
230
1.0
 70
     8
 71
     3
 72
     8
 73
     4
 74
     0
 42
0.000000001
 43
0.0000000001
 40
0.9183896965017559
 40
0.9183896965017559
 40
0.9183896965017559
 40
0.9183896965017559
 40
0.9259259259259254
 40
0.9259259259259254
 40
0.9259259259259254
 40
0.9259259259259254
 10
674.0794367684913
 20
1997.73436374776
 30
0.0
 10
674.0619496382269
 20
1997.800938341434
 30
0.0
 10
674.046587835833
 20
1997.86833568402
 30
0.0
 10
674.032971897432
 20
1997.936408809872
 30
0.0
  0
SPLINE
  5
134
330
87
100
AcDbEntity
  8
P-SANR-FIXT
100
AcDbSpline
210
0.0
220
0.0
230
1.0
 70
     8
 71
     3
 72
     8
 73
     4
 74
     0
 42
0.000000001
 43
0.0000000001
 40
0.9598073742606437
 40
0.9598073742606437
 40
0.9598073742606437
 40
0.9598073742606437
 40
0.9629629629629622
 40
0.9629629629629622
 40
0.9629629629629622
 40
0.9629629629629622
 10
673.860108193269
 20
1998.858495041323
 30
0.0
 10
673.8562763741294
 20
1998.887716534017
 30
0.0
 10
673.8528150899956
 20
1998.917083625812
 30
0.0
 10
673.849667776672
 20
1998.946574085771
 30
0.0
  0
SPLINE
  5
135
330
87
100
AcDbEntity
  8
P-SANR-FIXT
100
AcDbSpline
210
0.0
220
0.0
230
1.0
 70
     8
 71
     3
 72
     8
 73
     4
 74
     0
 42
0.000000001
 43
0.0000000001
 40
0.037037037037037
 40
0.037037037037037
 40
0.037037037037037
 40
0.037037037037037
 40
0.0401926257393517
 40
0.0401926257393517
 40
0.0401926257393517
 40
0.0401926257393517
 10
673.8485033330997
 20
2001.053232447105
 30
0.0
 10
673.8520504180221
 20
2001.082536189601
 30
0.0
 10
673.8557285368224
 20
2001.111788564581
 30
0.0
 10
673.8595380682721
 20
2001.140989691266
 30
0.0
  0
SPLINE
  5
136
330
87
100
AcDbEntity
  8
P-SANR-FIXT
100
AcDbSpline
210
0.0
220
0.0
230
1.0
 70
     8
 71
     3
 72
     8
 73
     4
 74
     0
 42
0.000000001
 43
0.0000000001
 40
0.0740740740740741
 40
0.0740740740740741
 40
0.0740740740740741
 40
0.0740740740740741
 40
0.0816103034982412
 40
0.0816103034982412
 40
0.0816103034982412
 40
0.0816103034982412
 10
674.0281640447949
 20
2002.064007679543
 30
0.0
 10
674.0441057333387
 20
2002.131150881287
 30
0.0
 10
674.0608201399031
 20
2002.198009085252
 30
0.0
 10
674.0783124238784
 20
2002.264583915371
 30
0.0
  0
SPLINE
  5
137
330
87
100
AcDbEntity
  8
P-SANR-FIXT
100
AcDbSpline
210
0.0
220
0.0
230
1.0
 70
     8
 71
     3
 72
     8
 73
     4
 74
     0
 42
0.000000001
 43
0.0000000001
 40
0.1111111111111111
 40
0.1111111111111111
 40
0.1111111111111111
 40
0.1111111111111111
 40
0.1236857876420192
 40
0.1236857876420192
 40
0.1236857876420192
 40
0.1236857876420192
 10
674.3198037449912
 20
2003.033482253156
 30
0.0
 10
674.3592842832809
 20
2003.140906304703
 30
0.0
 10
674.4009867424392
 20
2003.247559112449
 30
0.0
 10
674.4448392193395
 20
2003.353352716497
 30
0.0
  0
SPLINE
  5
138
330
87
100
AcDbEntity
  8
P-SANR-FIXT
100
AcDbSpline
210
0.0
220
0.0
230
1.0
 70
     8
 71
     3
 72
     8
 73
     4
 74
     0
 42
0.000000001
 43
0.0000000001
 40
0.1481481481481481
 40
0.1481481481481481
 40
0.1481481481481481
 40
0.1481481481481481
 40
0.1851851851851852
 40
0.1851851851851852
 40
0.1851851851851852
 40
0.1851851851851852
 10
674.7246472607232
 20
2003.960372447599
 30
0.0
 10
674.8776458505333
 20
2004.261146817324
 30
0.0
 10
675.0480827780242
 20
2004.552982986209
 30
0.0
 10
675.2341208026948
 20
2004.833633437547
 30
0.0
  0
SPLINE
  5
139
330
87
100
AcDbEntity
  8
P-SANR-FIXT
100
AcDbSpline
210
0.0
220
0.0
230
1.0
 70
     8
 71
     3
 72
     8
 73
     4
 74
     0
 42
0.000000001
 43
0.0000000001
 40
0.2077227846043806
 40
0.2077227846043806
 40
0.2077227846043806
 40
0.2077227846043806
 40
0.2222222222222222
 40
0.2222222222222222
 40
0.2222222222222222
 40
0.2222222222222222
 10
675.5906585354661
 20
2005.333041291182
 30
0.0
 10
675.6706563907354
 20
2005.437256451226
 30
0.0
 10
675.7528739324127
 20
2005.539547677872
 30
0.0
 10
675.837200927743
 20
2005.639780122213
 30
0.0
  0
SPLINE
  5
13A
330
87
100
AcDbEntity
  8
P-SANR-FIXT
100
AcDbSpline
210
0.0
220
0.0
230
1.0
 70
     8
 71
     3
 72
     8
 73
     4
 74
     0
 42
0.000000001
 43
0.0000000001
 40
0.2502241594063348
 40
0.2502241594063348
 40
0.2502241594063348
 40
0.2502241594063348
 40
0.2592592592592593
 40
0.2592592592592593
 40
0.2592592592592593
 40
0.2592592592592593
 10
676.3490797744054
 20
2006.197269960421
 30
0.0
 10
676.4066098199899
 20
2006.25471052778
 30
0.0
 10
676.4649285810007
 20
2006.311331494524
 30
0.0
 10
676.5240262555725
 20
2006.367126348553
 30
0.0
  0
SPLINE
  5
13B
330
87
100
AcDbEntity
  8
P-SANR-FIXT
100
AcDbSpline
210
0.0
220
0.0
230
1.0
 70
     8
 71
     3
 72
     8
 73
     4
 74
     0
 42
0.000000001
 43
0.0000000001
 40
0.2918616911012323
 40
0.2918616911012323
 40
0.2918616911012323
 40
0.2918616911012323
 40
0.2962962962962963
 40
0.2962962962962963
 40
0.2962962962962963
 40
0.2962962962962963
 10
677.1936602239001
 20
2006.938419974831
 30
0.0
 10
677.2253380181811
 20
2006.962798149783
 30
0.0
 10
677.2571870918235
 20
2006.986959309271
 30
0.0
 10
677.2892038161917
 20
2007.010898797581
 30
0.0
  0
SPLINE
  5
13C
330
87
100
AcDbEntity
  8
P-SANR-FIXT
100
AcDbSpline
210
0.0
220
0.0
230
1.0
 70
     8
 71
     3
 72
     8
 73
     4
 74
     0
 42
0.000000001
 43
0.0000000001
 40
0.3333333333333333
 40
0.3333333333333333
 40
0.3333333333333333
 40
0.3333333333333333
 40
0.3344782005451063
 40
0.3344782005451063
 40
0.3344782005451063
 40
0.3344782005451063
 10
678.1243663297962
 20
2007.561614988602
 30
0.0
 10
678.1332896008266
 20
2007.566755608642
 30
0.0
 10
678.1422220259076
 20
2007.571878862698
 30
0.0
 10
678.1511637963522
 20
2007.576984976738
 30
0.0
  0
SPLINE
  5
13D
330
87
100
AcDbEntity
  8
P-SANR-FIXT
100
AcDbSpline
210
0.0
220
0.0
230
1.0
 70
     8
 71
     3
 72
     8
 73
     4
 74
     0
 42
0.000000001
 43
0.0000000001
 40
0.3703703703703703
 40
0.3703703703703703
 40
0.3703703703703703
 40
0.3703703703703703
 40
0.3763355869471954
 40
0.3763355869471954
 40
0.3763355869471954
 40
0.3763355869471954
 10
679.0253048843854
 20
2008.013396079709
 30
0.0
 10
679.07573697273
 20
2008.035396804998
 30
0.0
 10
679.1264625827712
 20
2008.057020305012
 30
0.0
 10
679.177429523968
 20
2008.078231396001
 30
0.0
  0
SPLINE
  5
13E
330
87
100
AcDbEntity
  8
P-SANR-FIXT
100
AcDbSpline
210
0.0
220
0.0
230
1.0
 70
     8
 71
     3
 72
     8
 73
     4
 74
     0
 42
0.000000001
 43
0.0000000001
 40
0.4074074074074074
 40
0.4074074074074074
 40
0.4074074074074074
 40
0.4074074074074074
 40
0.4176266970510593
 40
0.4176266970510593
 40
0.4176266970510593
 40
0.4176266970510593
 10
679.9876184233357
 20
2008.371924319864
 30
0.0
 10
680.0776337327683
 20
2008.399696042467
 30
0.0
 10
680.1680121587643
 20
2008.425956650564
 30
0.0
 10
680.2587411022958
 20
2008.45066008767
 30
0.0
  0
SPLINE
  5
13F
330
87
100
AcDbEntity
  8
P-SANR-FIXT
100
AcDbSpline
210
0.0
220
0.0
230
1.0
 70
     8
 71
     3
 72
     8
 73
     4
 74
     0
 42
0.000000001
 43
0.0000000001
 40
0.4444444444444445
 40
0.4444444444444445
 40
0.4444444444444445
 40
0.4444444444444445
 40
0.4591336301801977
 40
0.4591336301801977
 40
0.4591336301801977
 40
0.4591336301801977
 10
680.9800353461242
 20
2008.612139405039
 30
0.0
 10
681.1129686017882
 20
2008.635444727418
 30
0.0
 10
681.2465577325671
 20
2008.655283020204
 30
0.0
 10
681.3810237642249
 20
2008.671903084373
 30
0.0
  0
SPLINE
  5
140
330
87
100
AcDbEntity
  8
P-SANR-FIXT
100
AcDbSpline
210
0.0
220
0.0
230
1.0
 70
     8
 71
     3
 72
     9
 73
     5
 74
     0
 42
0.000000001
 43
0.0000000001
 40
0.4814814814814815
 40
0.4814814814814815
 40
0.4814814814814815
 40
0.4814814814814815
 40
0.5138888888888889
 40
0.5185185185185186
 40
0.5185185185185186
 40
0.5185185185185186
 40
0.5185185185185186
 10
682.0016093136128
 20
2008.726287648783
 30
0.0
 10
682.3052280725318
 20
2008.742605724631
 30
0.0
 10
682.6580686304842
 20
2008.74521047848
 30
0.0
 10
683.0062686855502
 20
2008.728989919989
 30
0.0
 10
683.049713285633
 20
2008.72666488051
 30
0.0
  0
SPLINE
  5
141
330
87
100
AcDbEntity
  8
P-SANR-FIXT
100
AcDbSpline
210
0.0
220
0.0
230
1.0
 70
     8
 71
     3
 72
     9
 73
     5
 74
     0
 42
0.000000001
 43
0.0000000001
 40
0.5409601547087627
 40
0.5409601547087627
 40
0.5409601547087627
 40
0.5409601547087627
 40
0.5486111111111111
 40
0.5555555555555556
 40
0.5555555555555556
 40
0.5555555555555556
 40
0.5555555555555556
 10
683.6749264387598
 20
2008.671507621543
 30
0.0
 10
683.7451280066158
 20
2008.662769920276
 30
0.0
 10
683.8784291652729
 20
2008.644466705614
 30
0.0
 10
684.01042158597
 20
2008.622992770392
 30
0.0
 10
684.0729845203441
 20
2008.612046648916
 30
0.0
  0
SPLINE
  5
142
330
87
100
AcDbEntity
  8
P-SANR-FIXT
100
AcDbSpline
210
0.0
220
0.0
230
1.0
 70
     8
 71
     3
 72
     9
 73
     5
 74
     0
 42
0.000000001
 43
0.0000000001
 40
0.5824502622564698
 40
0.5824502622564698
 40
0.5824502622564698
 40
0.5824502622564698
 40
0.5833333333333333
 40
0.5925925925925926
 40
0.5925925925925926
 40
0.5925925925925926
 40
0.5925925925925926
 10
684.7924826358088
 20
2008.451425815549
 30
0.0
 10
684.8003134826178
 20
2008.449295066895
 30
0.0
 10
684.8902505489595
 20
2008.424679744306
 30
0.0
 10
684.9801686410986
 20
2008.398413797996
 30
0.0
 10
685.0620946250053
 20
2008.37314840866
 30
0.0
  0
SPLINE
  5
143
330
87
100
AcDbEntity
  8
P-SANR-FIXT
100
AcDbSpline
210
0.0
220
0.0
230
1.0
 70
     8
 71
     3
 72
     8
 73
     4
 74
     0
 42
0.000000001
 43
0.0000000001
 40
0.6237115362135773
 40
0.6237115362135773
 40
0.6237115362135773
 40
0.6237115362135773
 40
0.6296296296296296
 40
0.6296296296296296
 40
0.6296296296296296
 40
0.6296296296296296
 10
685.8769778358078
 20
2008.078182879001
 30
0.0
 10
685.9275763293549
 20
2008.057138272285
 30
0.0
 10
685.9779219059707
 20
2008.035688232213
 30
0.0
 10
686.0279869372641
 20
2008.013849347336
 30
0.0
  0
SPLINE
  5
144
330
87
100
AcDbEntity
  8
P-SANR-FIXT
100
AcDbSpline
210
0.0
220
0.0
230
1.0
 70
     8
 71
     3
 72
     8
 73
     4
 74
     0
 42
0.000000001
 43
0.0000000001
 40
0.6655541637686785
 40
0.6655541637686785
 40
0.6655541637686785
 40
0.6655541637686785
 40
0.6666666666666666
 40
0.6666666666666666
 40
0.6666666666666666
 40
0.6666666666666666
 10
686.9034421551159
 20
2007.576576856639
 30
0.0
 10
686.9120880221501
 20
2007.571663340479
 30
0.0
 10
686.9207223034711
 20
2007.566735476373
 30
0.0
 10
686.9293453222171
 20
2007.561793104686
 30
0.0
  0
SPLINE
  5
145
330
87
100
AcDbEntity
  8
P-SANR-FIXT
100
AcDbSpline
210
0.0
220
0.0
230
1.0
 70
     8
 71
     3
 72
     8
 73
     4
 74
     0
 42
0.000000001
 43
0.0000000001
 40
0.7037037037037035
 40
0.7037037037037035
 40
0.7037037037037035
 40
0.7037037037037035
 40
0.7082045313361786
 40
0.7082045313361786
 40
0.7082045313361786
 40
0.7082045313361786
 10
687.7619037923492
 20
2007.014241140947
 30
0.0
 10
687.7945284094272
 20
2006.989811187495
 30
0.0
 10
687.8270333851711
 20
2006.965158322653
 30
0.0
 10
687.8593775502324
 20
2006.940282131987
 30
0.0
  0
SPLINE
  5
146
330
87
100
AcDbEntity
  8
P-SANR-FIXT
100
AcDbSpline
210
0.0
220
0.0
230
1.0
 70
     8
 71
     3
 72
     8
 73
     4
 74
     0
 42
0.000000001
 43
0.0000000001
 40
0.7407407407407405
 40
0.7407407407407405
 40
0.7407407407407405
 40
0.7407407407407405
 40
0.7498821872797074
 40
0.7498821872797074
 40
0.7498821872797074
 40
0.7498821872797074
 10
688.5287844000633
 20
2006.368906705388
 30
0.0
 10
688.5884310120296
 20
2006.312652058508
 30
0.0
 10
688.6468380109069
 20
2006.255409873242
 30
0.0
 10
688.704224868437
 20
2006.197274258924
 30
0.0
  0
SPLINE
  5
147
330
87
100
AcDbEntity
  8
P-SANR-FIXT
100
AcDbSpline
210
0.0
220
0.0
230
1.0
 70
     8
 71
     3
 72
     9
 73
     5
 74
     0
 42
0.000000001
 43
0.0000000001
 40
0.7777777777777775
 40
0.7777777777777775
 40
0.7777777777777775
 40
0.7777777777777775
 40
0.7916666666666668
 40
0.7923930578914851
 40
0.7923930578914851
 40
0.7923930578914851
 40
0.7923930578914851
 10
689.212481452576
 20
2005.645576860406
 30
0.0
 10
689.2928866423548
 20
2005.550063385999
 30
0.0
 10
689.3744261174052
 20
2005.446963044958
 30
0.0
 10
689.456306942758
 20
2005.342709107693
 30
0.0
 10
689.4603771033992
 20
2005.337524689716
 30
0.0
  0
SPLINE
  5
148
330
87
100
AcDbEntity
  8
P-SANR-FIXT
100
AcDbSpline
210
0.0
220
0.0
230
1.0
 70
     8
 71
     3
 72
     8
 73
     4
 74
     0
 42
0.000000001
 43
0.0000000001
 40
0.8148148148148145
 40
0.8148148148148145
 40
0.8148148148148145
 40
0.8148148148148145
 40
0.8518518518518513
 40
0.8518518518518513
 40
0.8518518518518513
 40
0.8518518518518513
 10
689.8159062948235
 20
2004.839545485699
 30
0.0
 10
690.003097310305
 20
2004.557670439149
 30
0.0
 10
690.190066054617
 20
2004.269473561332
 30
0.0
 10
690.3379900976501
 20
2003.965371848763
 30
0.0
  0
SPLINE
  5
149
330
87
100
AcDbEntity
  8
P-SANR-FIXT
100
AcDbSpline
210
0.0
220
0.0
230
1.0
 70
     8
 71
     3
 72
     8
 73
     4
 74
     0
 42
0.000000001
 43
0.0000000001
 40
0.8763540321171829
 40
0.8763540321171829
 40
0.8763540321171829
 40
0.8763540321171829
 40
0.8888888888888883
 40
0.8888888888888883
 40
0.8888888888888883
 40
0.8888888888888883
 10
690.6096193902593
 20
2003.353287868377
 30
0.0
 10
690.653179642155
 20
2003.24790800986
 30
0.0
 10
690.6907927409376
 20
2003.140277624736
 30
0.0
 10
690.7236198401243
 20
2003.030836499658
 30
0.0
  0
SPLINE
  5
14A
330
87
100
AcDbEntity
  8
P-SANR-FIXT
100
AcDbSpline
210
0.0
220
0.0
230
1.0
 70
     8
 71
     3
 72
     8
 73
     4
 74
     0
 42
0.000000001
 43
0.0000000001
 40
0.9184057270843572
 40
0.9184057270843572
 40
0.9184057270843572
 40
0.9184057270843572
 40
0.9259259259259254
 40
0.9259259259259254
 40
0.9259259259259254
 40
0.9259259259259254
 10
690.9749963457889
 20
2002.265571215841
 30
0.0
 10
690.992458435835
 20
2002.199113159023
 30
0.0
 10
691.0077998219935
 20
2002.131838998768
 30
0.0
 10
691.021398431782
 20
2002.063894248592
 30
0.0
  0
SPLINE
  5
14B
330
87
100
AcDbEntity
  8
P-SANR-FIXT
100
AcDbSpline
210
0.0
220
0.0
230
1.0
 70
     8
 71
     3
 72
     8
 73
     4
 74
     0
 42
0.000000001
 43
0.0000000001
 40
0.9598116408154474
 40
0.9598116408154474
 40
0.9598116408154474
 40
0.9598116408154474
 40
0.9629629629629622
 40
0.9629629629629622
 40
0.9629629629629622
 40
0.9629629629629622
 10
691.194327989887
 20
2001.141477750767
 30
0.0
 10
691.1981533463327
 20
2001.11229152171
 30
0.0
 10
691.2016086194157
 20
2001.082960455738
 30
0.0
 10
691.2047502357036
 20
2001.05350664108
 30
0.0
  0
ARC
  5
14C
330
87
100
AcDbEntity
  8
P-SANR-FIXT
100
AcDbCircle
 10
-58.0043557578185
 20
1811.115937916196
 30
0.0
 40
785.3866209575024
100
AcDbArc
 50
14.32657165901925
 51
14.62972163825442
  0
LINE
  5
14D
330
87
100
AcDbEntity
  8
P-SANR-FIXT
100
AcDbLine
 10
662.6717387052637
 20
1980.143159532432
 30
0.0
 11
684.4676432866032
 21
1949.015381849451
 31
0.0
  0
LINE
  5
14E
330
87
100
AcDbEntity
  8
P-SANR-FIXT
100
AcDbLine
 10
661.5674984962866
 20
1967.772603620878
 30
0.0
 11
672.4654507869563
 21
1952.208714779388
 31
0.0
  0
LINE
  5
14F
330
87
100
AcDbEntity
  8
P-SANR-FIXT
100
AcDbLine
 10
670.0271471288004
 20
2024.499999999995
 30
0.0
 11
695.0271471288004
 21
2024.499999999995
 31
0.0
  0
ARC
  5
150
330
87
100
AcDbEntity
  8
P-SANR-FIXT
100
AcDbCircle
 10
682.5271471288001
 20
1999.999999999995
 30
0.0
 40
8.750000000000113
100
AcDbArc
 50
0.0
 51
180.0
  0
ARC
  5
151
330
87
100
AcDbEntity
  8
P-SANR-FIXT
100
AcDbCircle
 10
682.5271471288001
 20
1999.999999999995
 30
0.0
 40
8.75
100
AcDbArc
 50
180.0
 51
0.0
  0
LINE
  5
152
330
87
100
AcDbEntity
  8
P-SANR-FIXT
100
AcDbLine
 10
714.0087846100994
 20
2013.499999999995
 30
0.0
 11
700.8585012812549
 21
2013.499999999995
 31
0.0
  0
SPLINE
  5
153
330
87
100
AcDbEntity
  8
P-SANR-FIXT
100
AcDbSpline
210
0.0
220
0.0
230
1.0
 70
     8
 71
     3
 72
     8
 73
     4
 74
     0
 42
0.000000001
 43
0.0000000001
 40
0.1428571428571428
 40
0.1428571428571428
 40
0.1428571428571428
 40
0.1428571428571428
 40
0.2857142857142857
 40
0.2857142857142857
 40
0.2857142857142857
 40
0.2857142857142857
 10
726.1322097180844
 20
2007.064546136906
 30
0.0
 10
726.0922859937005
 20
2007.035404139941
 30
0.0
 10
726.0329047411905
 20
2006.990871358497
 30
0.0
 10
725.9560075239745
 20
2006.931831294847
 30
0.0
  0
SPLINE
  5
154
330
87
100
AcDbEntity
  8
P-SANR-FIXT
100
AcDbSpline
210
0.0
220
0.0
230
1.0
 70
     8
 71
     3
 72
     8
 73
     4
 74
     0
 42
0.000000001
 43
0.0000000001
 40
0.5714285714285714
 40
0.5714285714285714
 40
0.5714285714285714
 40
0.5714285714285714
 40
0.7142857142857143
 40
0.7142857142857143
 40
0.7142857142857143
 40
0.7142857142857143
 10
725.3139666869336
 20
2006.386037858868
 30
0.0
 10
725.1832977327609
 20
2006.263508649915
 30
0.0
 10
725.0427806744635
 20
2006.132804614704
 30
0.0
 10
724.9010953564898
 20
2005.981288864488
 30
0.0
  0
SPLINE
  5
155
330
87
100
AcDbEntity
  8
P-SANR-FIXT
100
AcDbSpline
210
0.0
220
0.0
230
1.0
 70
     8
 71
     3
 72
     8
 73
     4
 74
     0
 42
0.000000001
 43
0.0000000001
 40
0.8571428571428569
 40
0.8571428571428569
 40
0.8571428571428569
 40
0.8571428571428569
 40
0.8965293680944498
 40
0.8965293680944498
 40
0.8965293680944498
 40
0.8965293680944498
 10
724.4758343579874
 20
2005.482014043573
 30
0.0
 10
724.4369173061486
 20
2005.433590293561
 30
0.0
 10
724.3985788114041
 20
2005.383123878488
 30
0.0
 10
724.3605281674517
 20
2005.331611542441
 30
0.0
  0
SPLINE
  5
156
330
87
100
AcDbEntity
  8
P-SANR-FIXT
100
AcDbSpline
210
0.0
220
0.0
230
1.0
 70
     8
 71
     3
 72
    11
 73
     7
 74
     0
 42
0.000000001
 43
0.0000000001
 40
0.0
 40
0.0
 40
0.0
 40
0.0
 40
0.2857142857142857
 40
0.5714285714285714
 40
0.7857142857142857
 40
1.0
 40
1.0
 40
1.0
 40
1.0
 10
717.770286625854
 20
2013.906596462817
 30
0.0
 10
718.23755234022
 20
2014.049841178104
 30
0.0
 10
719.2568316224866
 20
2014.138404554547
 30
0.0
 10
720.7428765485197
 20
2013.736148499969
 30
0.0
 10
721.9523071815091
 20
2012.967947426456
 30
0.0
 10
722.5304283847138
 20
2012.338719287676
 30
0.0
 10
722.7770685510703
 20
2011.986511222991
 30
0.0
  0
SPLINE
  5
157
330
87
100
AcDbEntity
  8
P-SANR-FIXT
100
AcDbSpline
210
0.0
220
0.0
230
1.0
 70
     8
 71
     3
 72
     9
 73
     5
 74
     0
 42
0.000000001
 43
0.0000000001
 40
0.0
 40
0.0
 40
0.0
 40
0.0
 40
0.5
 40
1.0
 40
1.0
 40
1.0
 40
1.0
 10
734.4749979083033
 20
1991.848036753645
 30
0.0
 10
734.5119138130058
 20
1991.533216736734
 30
0.0
 10
734.5436938231844
 20
1990.924470027543
 30
0.0
 10
734.49137023491
 20
1990.362218555149
 30
0.0
 10
734.4441825411597
 20
1990.093805246748
 30
0.0
  0
SPLINE
  5
158
330
87
100
AcDbEntity
  8
P-SANR-FIXT
100
AcDbSpline
210
0.0
220
0.0
230
1.0
 70
     8
 71
     3
 72
     8
 73
     4
 74
     0
 42
0.000000001
 43
0.0000000001
 40
0.0
 40
0.0
 40
0.0
 40
0.0
 40
0.5
 40
0.5
 40
0.5
 40
0.5
 10
733.4466090890612
 20
1991.518487783941
 30
0.0
 10
733.6393591656693
 20
1991.567369363211
 30
0.0
 10
733.8213368290951
 20
1991.62049881991
 30
0.0
 10
733.9926673313195
 20
1991.676009593821
 30
0.0
  0
LINE
  5
159
330
87
100
AcDbEntity
  8
P-SANR-FIXT
100
AcDbLine
 10
722.9564329145262
 20
2029.999999999995
 30
0.0
 11
730.0978613430692
 21
2029.999999999995
 31
0.0
  0
LINE
  5
15A
330
87
100
AcDbEntity
  8
P-SANR-FIXT
100
AcDbLine
 10
730.5271471287977
 20
2029.999999999995
 30
0.0
 11
730.0978613430692
 21
2029.999999999995
 31
0.0
  0
LINE
  5
15B
330
87
100
AcDbEntity
  8
P-SANR-FIXT
100
AcDbLine
 10
714.9564329145264
 20
2029.999999999995
 30
0.0
 11
714.5271471287977
 21
2029.999999999995
 31
0.0
  0
LINE
  5
15C
330
87
100
AcDbEntity
  8
P-SANR-FIXT
100
AcDbLine
 10
714.9564329145264
 20
2029.999999999995
 30
0.0
 11
722.0978613430692
 21
2029.999999999995
 31
0.0
  0
LINE
  5
15D
330
87
100
AcDbEntity
  8
P-SANR-FIXT
100
AcDbLine
 10
722.9564329145264
 20
2029.999999999995
 30
0.0
 11
722.0978613430692
 21
2029.999999999995
 31
0.0
  0
LINE
  5
15E
330
87
100
AcDbEntity
  8
P-SANR-FIXT
100
AcDbLine
 10
730.0978613430692
 20
2024.499999999995
 30
0.0
 11
730.5271471287977
 21
2024.499999999995
 31
0.0
  0
LINE
  5
15F
330
87
100
AcDbEntity
  8
P-SANR-FIXT
100
AcDbLine
 10
730.0978613430692
 20
2024.499999999995
 30
0.0
 11
729.5966544182532
 21
2024.499999999995
 31
0.0
  0
LINE
  5
160
330
87
100
AcDbEntity
  8
P-SANR-FIXT
100
AcDbLine
 10
723.4576398393451
 20
2024.499999999995
 30
0.0
 11
722.9564329145262
 21
2024.499999999995
 31
0.0
  0
LINE
  5
161
330
87
100
AcDbEntity
  8
P-SANR-FIXT
100
AcDbLine
 10
722.0978613430692
 20
2024.499999999995
 30
0.0
 11
722.9564329145262
 21
2024.499999999995
 31
0.0
  0
LINE
  5
162
330
87
100
AcDbEntity
  8
P-SANR-FIXT
100
AcDbLine
 10
722.0978613430692
 20
2024.499999999995
 30
0.0
 11
721.5966544182496
 21
2024.499999999995
 31
0.0
  0
LINE
  5
163
330
87
100
AcDbEntity
  8
P-SANR-FIXT
100
AcDbLine
 10
715.457639839349
 20
2024.499999999995
 30
0.0
 11
714.9564329145264
 21
2024.499999999995
 31
0.0
  0
LINE
  5
164
330
87
100
AcDbEntity
  8
P-SANR-FIXT
100
AcDbLine
 10
714.5271471287977
 20
2024.499999999995
 30
0.0
 11
714.9564329145264
 21
2024.499999999995
 31
0.0
  0
LINE
  5
165
330
87
100
AcDbEntity
  8
P-SANR-FIXT
100
AcDbLine
 10
730.0978613430692
 20
2029.999999999995
 30
0.0
 11
730.0978613430692
 21
2024.499999999995
 31
0.0
  0
LINE
  5
166
330
87
100
AcDbEntity
  8
P-SANR-FIXT
100
AcDbLine
 10
722.9564329145262
 20
2024.499999999995
 30
0.0
 11
722.9564329145262
 21
2029.999999999995
 31
0.0
  0
LINE
  5
167
330
87
100
AcDbEntity
  8
P-SANR-FIXT
100
AcDbLine
 10
730.5271471287977
 20
2024.499999999995
 30
0.0
 11
730.5271471287977
 21
2029.999999999995
 31
0.0
  0
LINE
  5
168
330
87
100
AcDbEntity
  8
P-SANR-FIXT
100
AcDbLine
 10
714.5271471287977
 20
2029.999999999995
 30
0.0
 11
714.5271471287977
 21
2024.499999999995
 31
0.0
  0
LINE
  5
169
330
87
100
AcDbEntity
  8
P-SANR-FIXT
100
AcDbLine
 10
722.0978613430692
 20
2029.999999999995
 30
0.0
 11
722.0978613430692
 21
2024.499999999995
 31
0.0
  0
LINE
  5
16A
330
87
100
AcDbEntity
  8
P-SANR-FIXT
100
AcDbLine
 10
714.9564329145264
 20
2024.499999999995
 30
0.0
 11
714.9564329145264
 21
2029.999999999995
 31
0.0
  0
LINE
  5
16B
330
87
100
AcDbEntity
  8
P-SANR-FIXT
100
AcDbLine
 10
682.9564329145288
 20
2029.999999999995
 30
0.0
 11
690.0978613430716
 21
2029.999999999995
 31
0.0
  0
LINE
  5
16C
330
87
100
AcDbEntity
  8
P-SANR-FIXT
100
AcDbLine
 10
690.5271471288003
 20
2029.999999999995
 30
0.0
 11
690.0978613430718
 21
2029.999999999995
 31
0.0
  0
LINE
  5
16D
330
87
100
AcDbEntity
  8
P-SANR-FIXT
100
AcDbLine
 10
674.9564329145288
 20
2029.999999999995
 30
0.0
 11
674.5271471288003
 21
2029.999999999995
 31
0.0
  0
LINE
  5
16E
330
87
100
AcDbEntity
  8
P-SANR-FIXT
100
AcDbLine
 10
674.9564329145288
 20
2029.999999999995
 30
0.0
 11
682.0978613430716
 21
2029.999999999995
 31
0.0
  0
LINE
  5
16F
330
87
100
AcDbEntity
  8
P-SANR-FIXT
100
AcDbLine
 10
682.9564329145289
 20
2029.999999999995
 30
0.0
 11
682.0978613430717
 21
2029.999999999995
 31
0.0
  0
LINE
  5
170
330
87
100
AcDbEntity
  8
P-SANR-FIXT
100
AcDbLine
 10
690.0978613430716
 20
2029.999999999995
 30
0.0
 11
690.0978613430716
 21
2024.499999999995
 31
0.0
  0
LINE
  5
171
330
87
100
AcDbEntity
  8
P-SANR-FIXT
100
AcDbLine
 10
682.9564329145288
 20
2024.499999999995
 30
0.0
 11
682.9564329145288
 21
2029.999999999995
 31
0.0
  0
LINE
  5
172
330
87
100
AcDbEntity
  8
P-SANR-FIXT
100
AcDbLine
 10
690.5271471288003
 20
2024.499999999995
 30
0.0
 11
690.5271471288003
 21
2029.999999999995
 31
0.0
  0
LINE
  5
173
330
87
100
AcDbEntity
  8
P-SANR-FIXT
100
AcDbLine
 10
674.5271471288003
 20
2029.999999999995
 30
0.0
 11
674.5271471288003
 21
2024.499999999995
 31
0.0
  0
LINE
  5
174
330
87
100
AcDbEntity
  8
P-SANR-FIXT
100
AcDbLine
 10
682.0978613430717
 20
2029.999999999995
 30
0.0
 11
682.0978613430717
 21
2024.499999999995
 31
0.0
  0
LINE
  5
175
330
87
100
AcDbEntity
  8
P-SANR-FIXT
100
AcDbLine
 10
674.9564329145288
 20
2024.499999999995
 30
0.0
 11
674.9564329145288
 21
2029.999999999995
 31
0.0
  0
LINE
  5
176
330
87
100
AcDbEntity
  8
P-SANR-FIXT
100
AcDbLine
 10
767.8271471288001
 20
2017.959837206124
 30
0.0
 11
767.8271471288001
 21
1999.999999999995
 31
0.0
  0
LINE
  5
177
330
87
100
AcDbEntity
  8
P-SANR-FIXT
100
AcDbLine
 10
767.8271471288001
 20
1999.999999999995
 30
0.0
 11
767.8271471288001
 21
1982.039611294817
 31
0.0
  0
LINE
  5
178
330
87
100
AcDbEntity
  8
P-SANR-FIXT
100
AcDbLine
 10
785.5271471288
 20
2017.499999999995
 30
0.0
 11
785.5271471288
 21
2017.453936685198
 31
0.0
  0
LINE
  5
179
330
87
100
AcDbEntity
  8
P-SANR-FIXT
100
AcDbLine
 10
785.5271471288
 20
2017.453936685198
 30
0.0
 11
785.5271471288
 21
2009.825863534002
 31
0.0
  0
LINE
  5
17A
330
87
100
AcDbEntity
  8
P-SANR-FIXT
100
AcDbLine
 10
785.5271471288
 20
2009.825863534002
 30
0.0
 11
785.5271471288
 21
2007.628073151191
 31
0.0
  0
LINE
  5
17B
330
87
100
AcDbEntity
  8
P-SANR-FIXT
100
AcDbLine
 10
785.5271471288
 20
2007.628073151191
 30
0.0
 11
785.5271471288
 21
1992.371926848798
 31
0.0
  0
LINE
  5
17C
330
87
100
AcDbEntity
  8
P-SANR-FIXT
100
AcDbLine
 10
785.5271471288
 20
1992.371926848798
 30
0.0
 11
785.5271471288
 21
1990.174136465988
 31
0.0
  0
LINE
  5
17D
330
87
100
AcDbEntity
  8
P-SANR-FIXT
100
AcDbLine
 10
785.5271471288
 20
1990.174136465988
 30
0.0
 11
785.5271471288
 21
1982.546063314792
 31
0.0
  0
LINE
  5
17E
330
87
100
AcDbEntity
  8
P-SANR-FIXT
100
AcDbLine
 10
785.5271471288
 20
1982.546063314792
 30
0.0
 11
785.5271471288
 21
1982.499999999995
 31
0.0
  0
LINE
  5
17F
330
87
100
AcDbEntity
  8
P-SANR-FIXT
100
AcDbLine
 10
767.8271471288001
 20
1982.546063314792
 30
0.0
 11
785.3271471288002
 21
1982.546063314792
 31
0.0
  0
LINE
  5
180
330
87
100
AcDbEntity
  8
P-SANR-FIXT
100
AcDbLine
 10
785.3271471288002
 20
1982.546063314792
 30
0.0
 11
785.5271471288
 21
1982.546063314792
 31
0.0
  0
LINE
  5
181
330
87
100
AcDbEntity
  8
P-SANR-FIXT
100
AcDbLine
 10
785.5271471288
 20
1990.174136465988
 30
0.0
 11
785.3271471288002
 21
1990.174136465988
 31
0.0
  0
LINE
  5
182
330
87
100
AcDbEntity
  8
P-SANR-FIXT
100
AcDbLine
 10
785.3271471288002
 20
1990.174136465988
 30
0.0
 11
767.8271471288001
 21
1990.174136465988
 31
0.0
  0
LINE
  5
183
330
87
100
AcDbEntity
  8
P-SANR-FIXT
100
AcDbLine
 10
767.8271471288001
 20
1992.371926848798
 30
0.0
 11
785.3271471288002
 21
1992.371926848798
 31
0.0
  0
LINE
  5
184
330
87
100
AcDbEntity
  8
P-SANR-FIXT
100
AcDbLine
 10
785.3271471288002
 20
1992.371926848798
 30
0.0
 11
785.5271471288
 21
1992.371926848798
 31
0.0
  0
LINE
  5
185
330
87
100
AcDbEntity
  8
P-SANR-FIXT
100
AcDbLine
 10
785.5271471288
 20
2007.628073151191
 30
0.0
 11
785.3271471288002
 21
2007.628073151191
 31
0.0
  0
LINE
  5
186
330
87
100
AcDbEntity
  8
P-SANR-FIXT
100
AcDbLine
 10
785.3271471288002
 20
2007.628073151191
 30
0.0
 11
767.8271471288001
 21
2007.628073151191
 31
0.0
  0
LINE
  5
187
330
87
100
AcDbEntity
  8
P-SANR-FIXT
100
AcDbLine
 10
767.8271471288001
 20
2009.825863534002
 30
0.0
 11
785.3271471288002
 21
2009.825863534002
 31
0.0
  0
LINE
  5
188
330
87
100
AcDbEntity
  8
P-SANR-FIXT
100
AcDbLine
 10
785.3271471288002
 20
2009.825863534002
 30
0.0
 11
785.5271471288
 21
2009.825863534002
 31
0.0
  0
LINE
  5
189
330
87
100
AcDbEntity
  8
P-SANR-FIXT
100
AcDbLine
 10
785.5271471288
 20
2017.453936685198
 30
0.0
 11
785.3271471288
 21
2017.453936685198
 31
0.0
  0
LINE
  5
18A
330
87
100
AcDbEntity
  8
P-SANR-FIXT
100
AcDbLine
 10
785.3271471288
 20
2017.453936685198
 30
0.0
 11
767.8271471288001
 21
2017.453936685198
 31
0.0
  0
LINE
  5
18B
330
87
100
AcDbEntity
  8
P-SANR-FIXT
100
AcDbLine
 10
626.0271471288002
 20
1983.249999999997
 30
0.0
 11
626.0271471288002
 21
1983.40199996653
 31
0.0
  0
LINE
  5
18C
330
87
100
AcDbEntity
  8
P-SANR-FIXT
100
AcDbLine
 10
626.0271471288002
 20
1983.40199996653
 30
0.0
 11
626.0271471288002
 21
1989.751212516182
 31
0.0
  0
LINE
  5
18D
330
87
100
AcDbEntity
  8
P-SANR-FIXT
100
AcDbLine
 10
626.0271471288002
 20
1989.751212516182
 30
0.0
 11
626.0271471288002
 21
1993.650787450344
 31
0.0
  0
LINE
  5
18E
330
87
100
AcDbEntity
  8
P-SANR-FIXT
100
AcDbLine
 10
626.0271471288002
 20
1993.650787450344
 30
0.0
 11
626.0271471288002
 21
2006.349212549647
 31
0.0
  0
LINE
  5
18F
330
87
100
AcDbEntity
  8
P-SANR-FIXT
100
AcDbLine
 10
626.0271471288002
 20
2006.349212549647
 30
0.0
 11
626.0271471288002
 21
2010.24878748381
 31
0.0
  0
LINE
  5
190
330
87
100
AcDbEntity
  8
P-SANR-FIXT
100
AcDbLine
 10
626.0271471288002
 20
2010.24878748381
 30
0.0
 11
626.0271471288002
 21
2016.598000033462
 31
0.0
  0
LINE
  5
191
330
87
100
AcDbEntity
  8
P-SANR-FIXT
100
AcDbLine
 10
626.0271471288002
 20
2016.598000033462
 30
0.0
 11
626.0271471288002
 21
2016.749999999996
 31
0.0
  0
LINE
  5
192
330
87
100
AcDbEntity
  8
P-SANR-FIXT
100
AcDbLine
 10
638.9464194048214
 20
1983.40199996653
 30
0.0
 11
626.0271471288002
 21
1983.40199996653
 31
0.0
  0
LINE
  5
193
330
87
100
AcDbEntity
  8
P-SANR-FIXT
100
AcDbLine
 10
638.9464194048214
 20
1989.751212516182
 30
0.0
 11
626.0271471288002
 21
1989.751212516182
 31
0.0
  0
LINE
  5
194
330
87
100
AcDbEntity
  8
P-SANR-FIXT
100
AcDbLine
 10
638.9464194048214
 20
1993.650787450344
 30
0.0
 11
626.0271471288002
 21
1993.650787450344
 31
0.0
  0
LINE
  5
195
330
87
100
AcDbEntity
  8
P-SANR-FIXT
100
AcDbLine
 10
638.9464194048213
 20
2006.349212549647
 30
0.0
 11
626.0271471288002
 21
2006.349212549647
 31
0.0
  0
LINE
  5
196
330
87
100
AcDbEntity
  8
P-SANR-FIXT
100
AcDbLine
 10
638.9464194048212
 20
2010.24878748381
 30
0.0
 11
626.0271471288002
 21
2010.24878748381
 31
0.0
  0
LINE
  5
197
330
87
100
AcDbEntity
  8
P-SANR-FIXT
100
AcDbLine
 10
638.946419404821
 20
2016.598000033462
 30
0.0
 11
626.0271471288002
 21
2016.598000033462
 31
0.0
  0
ENDBLK
  5
199
330
87
100
AcDbEntity
  8
0
100
AcDbBlockEnd
  0
BLOCK
  5
2B2
330
19B
100
AcDbEntity
  8
0
100
AcDbBlockBegin
  2
Automatic flow rate regulator valve_Caleffi_121 DN15 - 1_2__-V1-Est - Idraulica
 70
     0
 10
0.0
 20
0.0
 30
0.0
  3
Automatic flow rate regulator valve_Caleffi_121 DN15 - 1_2__-V1-Est - Idraulica
  1

  0
LINE
  5
19C
330
19B
100
AcDbEntity
  8
M-PIPE
100
AcDbLine
 10
642.9464194048232
 20
1780.193319846826
 30
0.0
 11
655.1840237118162
 21
1780.193319846826
 31
0.0
1001
REVIT
1002
{
1070
     3
1000
790271
1002
}
  0
LINE
  5
19D
330
19B
100
AcDbEntity
  8
M-PIPE
100
AcDbLine
 10
655.1840237118303
 20
1832.298437613341
 30
0.0
 11
642.9464194048229
 21
1832.298437613341
 31
0.0
1001
REVIT
1002
{
1070
     3
1000
790271
1002
}
  0
LINE
  5
19E
330
19B
100
AcDbEntity
  8
M-PIPE
100
AcDbLine
 10
638.9464194048226
 20
1787.121523077127
 30
0.0
 11
642.8069496507238
 21
1780.43488854707
 31
0.0
1001
REVIT
1002
{
1070
     3
1000
790271
1002
}
  0
LINE
  5
19F
330
19B
100
AcDbEntity
  8
M-PIPE
100
AcDbLine
 10
642.8285348948196
 20
1780.397501807603
 30
0.0
 11
642.9464194048376
 21
1780.193319846826
 31
0.0
1001
REVIT
1002
{
1070
     3
1000
790271
1002
}
  0
LINE
  5
1A0
330
19B
100
AcDbEntity
  8
M-PIPE
100
AcDbLine
 10
642.9464194048229
 20
1832.298437613341
 30
0.0
 11
642.828534894807
 21
1832.094255652569
 31
0.0
1001
REVIT
1002
{
1070
     3
1000
790271
1002
}
  0
LINE
  5
1A1
330
19B
100
AcDbEntity
  8
M-PIPE
100
AcDbLine
 10
642.806949650709
 20
1832.056868913097
 30
0.0
 11
638.9464194048222
 21
1825.370234383065
 31
0.0
1001
REVIT
1002
{
1070
     3
1000
790271
1002
}
  0
LINE
  5
1A2
330
19B
100
AcDbEntity
  8
M-PIPE
100
AcDbLine
 10
655.1840237118162
 20
1780.193319846826
 30
0.0
 11
655.3019422755077
 21
1780.397560790295
 31
0.0
1001
REVIT
1002
{
1070
     3
1000
790271
1002
}
  0
LINE
  5
1A3
330
19B
100
AcDbEntity
  8
M-PIPE
100
AcDbLine
 10
655.3234934659318
 20
1780.434888547073
 30
0.0
 11
656.9464194048228
 21
1783.245878730153
 31
0.0
1001
REVIT
1002
{
1070
     3
1000
790271
1002
}
  0
LINE
  5
1A4
330
19B
100
AcDbEntity
  8
M-PIPE
100
AcDbLine
 10
656.9464194048222
 20
1829.245878730039
 30
0.0
 11
655.3234934659455
 21
1832.056868913094
 31
0.0
1001
REVIT
1002
{
1070
     3
1000
790271
1002
}
  0
LINE
  5
1A5
330
19B
100
AcDbEntity
  8
M-PIPE
100
AcDbLine
 10
655.3019422755219
 20
1832.094196669872
 30
0.0
 11
655.1840237118303
 21
1832.298437613341
 31
0.0
1001
REVIT
1002
{
1070
     3
1000
790271
1002
}
  0
LINE
  5
1A6
330
19B
100
AcDbEntity
  8
M-PIPE
100
AcDbLine
 10
638.9464194048214
 20
1787.121523077126
 30
0.0
 11
638.946419404821
 21
1825.370234383064
 31
0.0
1001
REVIT
1002
{
1070
     3
1000
790271
1002
}
  0
LINE
  5
1A7
330
19B
100
AcDbEntity
  8
M-PIPE
100
AcDbLine
 10
656.9464194048209
 20
1829.245878730037
 30
0.0
 11
656.9464194048214
 21
1783.245878730153
 31
0.0
1001
REVIT
1002
{
1070
     3
1000
790271
1002
}
  0
SPLINE
  5
1A8
330
19B
100
AcDbEntity
  8
M-PIPE
100
AcDbSpline
210
0.0
220
0.0
230
1.0
 70
     8
 71
     3
 72
     9
 73
     5
 74
     0
 42
0.000000001
 43
0.0000000001
 40
0.0
 40
0.0
 40
0.0
 40
0.0
 40
0.5
 40
1.0
 40
1.0
 40
1.0
 40
1.0
 10
642.545095024506
 20
1781.131142020334
 30
0.0
 10
642.6775277880379
 20
1780.829624578545
 30
0.0
 10
642.8768479482889
 20
1780.358304881454
 30
0.0
 10
642.9450773749151
 20
1780.193319846824
 30
0.0
 10
642.946419404822
 20
1780.193319846825
 30
0.0
1001
REVIT
1002
{
1070
     3
1000
790271
1002
}
  0
SPLINE
  5
1A9
330
19B
100
AcDbEntity
  8
M-PIPE
100
AcDbSpline
210
0.0
220
0.0
230
1.0
 70
     8
 71
     3
 72
     9
 73
     5
 74
     0
 42
0.000000001
 43
0.0000000001
 40
0.0
 40
0.0
 40
0.0
 40
0.0
 40
0.5
 40
1.0
 40
1.0
 40
1.0
 40
1.0
 10
655.184023711815
 20
1780.193319846825
 30
0.0
 10
655.1853657417296
 20
1780.193319846827
 30
0.0
 10
655.2535951683662
 20
1780.358304881457
 30
0.0
 10
655.4529153286165
 20
1780.829624578547
 30
0.0
 10
655.5853480921451
 20
1781.131142020334
 30
0.0
1001
REVIT
1002
{
1070
     3
1000
790271
1002
}
  0
SPLINE
  5
1AA
330
19B
100
AcDbEntity
  8
M-PIPE
100
AcDbSpline
210
0.0
220
0.0
230
1.0
 70
     8
 71
     3
 72
     9
 73
     5
 74
     0
 42
0.000000001
 43
0.0000000001
 40
0.0
 40
0.0
 40
0.0
 40
0.0
 40
0.5
 40
1.0
 40
1.0
 40
1.0
 40
1.0
 10
642.5450950244968
 20
1790.657421461962
 30
0.0
 10
641.8302046111176
 20
1789.0931124395
 30
0.0
 10
641.1153141977401
 20
1785.941090176766
 30
0.0
 10
641.8302046111238
 20
1782.742259478414
 30
0.0
 10
642.545095024506
 20
1781.131142020334
 30
0.0
1001
REVIT
1002
{
1070
     3
1000
790271
1002
}
  0
SPLINE
  5
1AB
330
19B
100
AcDbEntity
  8
M-PIPE
100
AcDbSpline
210
0.0
220
0.0
230
1.0
 70
     8
 71
     3
 72
     9
 73
     5
 74
     0
 42
0.000000001
 43
0.0000000001
 40
0.0
 40
0.0
 40
0.0
 40
0.0
 40
0.5
 40
1.0
 40
1.0
 40
1.0
 40
1.0
 10
655.5853480921451
 20
1781.131142020334
 30
0.0
 10
656.3002385055273
 20
1782.742259478414
 30
0.0
 10
657.0151289189108
 20
1785.941090176766
 30
0.0
 10
656.3002385055331
 20
1789.0931124395
 30
0.0
 10
655.5853480921538
 20
1790.657421461962
 30
0.0
1001
REVIT
1002
{
1070
     3
1000
790271
1002
}
  0
SPLINE
  5
1AC
330
19B
100
AcDbEntity
  8
M-PIPE
100
AcDbSpline
210
0.0
220
0.0
230
1.0
 70
     8
 71
     3
 72
     9
 73
     5
 74
     0
 42
0.000000001
 43
0.0000000001
 40
0.0
 40
0.0
 40
0.0
 40
0.0
 40
0.5
 40
1.0
 40
1.0
 40
1.0
 40
1.0
 10
642.9464194048216
 20
1793.219599288447
 30
0.0
 10
642.9450773749088
 20
1792.683793187857
 30
0.0
 10
642.8768479482754
 20
1791.701740847535
 30
0.0
 10
642.6775277880257
 20
1790.95893890375
 30
0.0
 10
642.5450950244968
 20
1790.657421461962
 30
0.0
1001
REVIT
1002
{
1070
     3
1000
790271
1002
}
  0
SPLINE
  5
1AD
330
19B
100
AcDbEntity
  8
M-PIPE
100
AcDbSpline
210
0.0
220
0.0
230
1.0
 70
     8
 71
     3
 72
    10
 73
     6
 74
     0
 42
0.000000001
 43
0.0000000001
 40
0.0
 40
0.0
 40
0.0
 40
0.0
 40
0.4
 40
0.7
 40
1.0
 40
1.0
 40
1.0
 40
1.0
 10
655.5853480921538
 20
1790.657421461962
 30
0.0
 10
655.3742958838548
 20
1791.139625004685
 30
0.0
 10
655.1454601318747
 20
1792.304771032002
 30
0.0
 10
655.2021414949071
 20
1794.53715215597
 30
0.0
 10
655.4272987673648
 20
1795.997783746929
 30
0.0
 10
655.5853480921568
 20
1796.719599288454
 30
0.0
1001
REVIT
1002
{
1070
     3
1000
790271
1002
}
  0
SPLINE
  5
1AE
330
19B
100
AcDbEntity
  8
M-PIPE
100
AcDbSpline
210
0.0
220
0.0
230
1.0
 70
     8
 71
     3
 72
     9
 73
     5
 74
     0
 42
0.000000001
 43
0.0000000001
 40
0.0
 40
0.0
 40
0.0
 40
0.0
 40
0.5
 40
1.0
 40
1.0
 40
1.0
 40
1.0
 10
642.5450950244935
 20
1796.719599288454
 30
0.0
 10
642.6775277880235
 20
1796.116564404876
 30
0.0
 10
642.8768479482747
 20
1794.902442763995
 30
0.0
 10
642.9450773749088
 20
1793.75540538904
 30
0.0
 10
642.9464194048216
 20
1793.219599288447
 30
0.0
1001
REVIT
1002
{
1070
     3
1000
790271
1002
}
  0
SPLINE
  5
1AF
330
19B
100
AcDbEntity
  8
M-PIPE
100
AcDbSpline
210
0.0
220
0.0
230
1.0
 70
     8
 71
     3
 72
     9
 73
     5
 74
     0
 42
0.000000001
 43
0.0000000001
 40
0.0
 40
0.0
 40
0.0
 40
0.0
 40
0.5
 40
1.0
 40
1.0
 40
1.0
 40
1.0
 10
642.545095024488
 20
1815.772158171711
 30
0.0
 10
641.8302046111078
 20
1812.643540126786
 30
0.0
 10
641.1153141977283
 20
1806.339495601318
 30
0.0
 10
641.8302046111116
 20
1799.941834204614
 30
0.0
 10
642.5450950244935
 20
1796.719599288454
 30
0.0
1001
REVIT
1002
{
1070
     3
1000
790271
1002
}
  0
SPLINE
  5
1B0
330
19B
100
AcDbEntity
  8
M-PIPE
100
AcDbSpline
210
0.0
220
0.0
230
1.0
 70
     8
 71
     3
 72
     9
 73
     5
 74
     0
 42
0.000000001
 43
0.0000000001
 40
0.0
 40
0.0
 40
0.0
 40
0.0
 40
0.5
 40
1.0
 40
1.0
 40
1.0
 40
1.0
 10
655.5853480921568
 20
1796.719599288454
 30
0.0
 10
656.3002385055389
 20
1799.941834204614
 30
0.0
 10
657.0151289189218
 20
1806.339495601318
 30
0.0
 10
656.3002385055424
 20
1812.643540126786
 30
0.0
 10
655.5853480921621
 20
1815.772158171711
 30
0.0
1001
REVIT
1002
{
1070
     3
1000
790271
1002
}
  0
SPLINE
  5
1B1
330
19B
100
AcDbEntity
  8
M-PIPE
100
AcDbSpline
210
0.0
220
0.0
230
1.0
 70
     8
 71
     3
 72
     9
 73
     5
 74
     0
 42
0.000000001
 43
0.0000000001
 40
0.0
 40
0.0
 40
0.0
 40
0.0
 40
0.5
 40
1.0
 40
1.0
 40
1.0
 40
1.0
 10
642.9464194048213
 20
1819.27215817171
 30
0.0
 10
642.945077374905
 20
1818.736352071119
 30
0.0
 10
642.8768479482666
 20
1817.589314696166
 30
0.0
 10
642.6775277880161
 20
1816.375193055287
 30
0.0
 10
642.545095024488
 20
1815.772158171711
 30
0.0
1001
REVIT
1002
{
1070
     3
1000
790271
1002
}
  0
SPLINE
  5
1B2
330
19B
100
AcDbEntity
  8
M-PIPE
100
AcDbSpline
210
0.0
220
0.0
230
1.0
 70
     8
 71
     3
 72
    10
 73
     6
 74
     0
 42
0.000000001
 43
0.0000000001
 40
0.0
 40
0.0
 40
0.0
 40
0.0
 40
0.4
 40
0.7
 40
1.0
 40
1.0
 40
1.0
 40
1.0
 10
655.5853480921621
 20
1815.772158171711
 30
0.0
 10
655.3742958838629
 20
1816.736565257155
 30
0.0
 10
655.1454601318822
 20
1818.449780172268
 30
0.0
 10
655.2021414949134
 20
1820.548022521515
 30
0.0
 10
655.4272987673706
 20
1821.47342822744
 30
0.0
 10
655.5853480921625
 20
1821.834335998202
 30
0.0
1001
REVIT
1002
{
1070
     3
1000
790271
1002
}
  0
SPLINE
  5
1B3
330
19B
100
AcDbEntity
  8
M-PIPE
100
AcDbSpline
210
0.0
220
0.0
230
1.0
 70
     8
 71
     3
 72
     9
 73
     5
 74
     0
 42
0.000000001
 43
0.0000000001
 40
0.0
 40
0.0
 40
0.0
 40
0.0
 40
0.5
 40
1.0
 40
1.0
 40
1.0
 40
1.0
 10
642.5450950244878
 20
1821.834335998202
 30
0.0
 10
642.6775277880159
 20
1821.532818556414
 30
0.0
 10
642.8768479482664
 20
1820.790016612627
 30
0.0
 10
642.945077374905
 20
1819.807964272302
 30
0.0
 10
642.9464194048213
 20
1819.27215817171
 30
0.0
1001
REVIT
1002
{
1070
     3
1000
790271
1002
}
  0
SPLINE
  5
1B4
330
19B
100
AcDbEntity
  8
M-PIPE
100
AcDbSpline
210
0.0
220
0.0
230
1.0
 70
     8
 71
     3
 72
     9
 73
     5
 74
     0
 42
0.000000001
 43
0.0000000001
 40
0.0
 40
0.0
 40
0.0
 40
0.0
 40
0.5
 40
1.0
 40
1.0
 40
1.0
 40
1.0
 10
642.5450950244912
 20
1831.360615439831
 30
0.0
 10
641.8302046111094
 20
1829.796306417369
 30
0.0
 10
641.115314197727
 20
1826.644284154635
 30
0.0
 10
641.8302046111071
 20
1823.445453456283
 30
0.0
 10
642.5450950244878
 20
1821.834335998202
 30
0.0
1001
REVIT
1002
{
1070
     3
1000
790271
1002
}
  0
SPLINE
  5
1B5
330
19B
100
AcDbEntity
  8
M-PIPE
100
AcDbSpline
210
0.0
220
0.0
230
1.0
 70
     8
 71
     3
 72
     9
 73
     5
 74
     0
 42
0.000000001
 43
0.0000000001
 40
0.0
 40
0.0
 40
0.0
 40
0.0
 40
0.5
 40
1.0
 40
1.0
 40
1.0
 40
1.0
 10
655.5853480921625
 20
1821.834335998202
 30
0.0
 10
656.3002385055431
 20
1823.445453456283
 30
0.0
 10
657.0151289189232
 20
1826.644284154635
 30
0.0
 10
656.3002385055408
 20
1829.796306417369
 30
0.0
 10
655.5853480921589
 20
1831.360615439831
 30
0.0
1001
REVIT
1002
{
1070
     3
1000
790271
1002
}
  0
SPLINE
  5
1B6
330
19B
100
AcDbEntity
  8
M-PIPE
100
AcDbSpline
210
0.0
220
0.0
230
1.0
 70
     8
 71
     3
 72
     9
 73
     5
 74
     0
 42
0.000000001
 43
0.0000000001
 40
0.0
 40
0.0
 40
0.0
 40
0.0
 40
0.5
 40
1.0
 40
1.0
 40
1.0
 40
1.0
 10
642.9464194048215
 20
1832.29843761334
 30
0.0
 10
642.9450773749076
 20
1832.298437613341
 30
0.0
 10
642.876847948272
 20
1832.133452578712
 30
0.0
 10
642.6775277880208
 20
1831.66213288162
 30
0.0
 10
642.5450950244912
 20
1831.360615439831
 30
0.0
1001
REVIT
1002
{
1070
     3
1000
790271
1002
}
  0
SPLINE
  5
1B7
330
19B
100
AcDbEntity
  8
M-PIPE
100
AcDbSpline
210
0.0
220
0.0
230
1.0
 70
     8
 71
     3
 72
     9
 73
     5
 74
     0
 42
0.000000001
 43
0.0000000001
 40
0.0
 40
0.0
 40
0.0
 40
0.0
 40
0.5
 40
1.0
 40
1.0
 40
1.0
 40
1.0
 10
655.5853480921589
 20
1831.360615439831
 30
0.0
 10
655.4529153286304
 20
1831.662132881618
 30
0.0
 10
655.2535951683799
 20
1832.133452578708
 30
0.0
 10
655.1853657417437
 20
1832.298437613339
 30
0.0
 10
655.1840237118288
 20
1832.29843761334
 30
0.0
1001
REVIT
1002
{
1070
     3
1000
790271
1002
}
  0
LINE
  5
1B8
330
19B
100
AcDbEntity
  8
M-PIPE
100
AcDbLine
 10
848.5271471288097
 20
1798.245878730052
 30
0.0
 11
777.1626652825788
 21
1798.245878730052
 31
0.0
1001
REVIT
1002
{
1070
     3
1000
856288
1002
}
  0
LINE
  5
1B9
330
19B
100
AcDbEntity
  8
M-PIPE
100
AcDbLine
 10
777.1626652825787
 20
1814.245878730052
 30
0.0
 11
848.5271471288097
 21
1814.245878730052
 31
0.0
1001
REVIT
1002
{
1070
     3
1000
856288
1002
}
  0
LINE
  5
1BA
330
19B
100
AcDbEntity
  8
M-PIPE
100
AcDbLine
 10
848.5271471288097
 20
1814.245878730052
 30
0.0
 11
848.5271471288097
 21
1798.245878730052
 31
0.0
1001
REVIT
1002
{
1070
     3
1000
856288
1002
}
  0
LINE
  5
1BB
330
19B
100
AcDbEntity
  8
M-PIPE
100
AcDbLine
 10
777.1626652825787
 20
1814.245878730052
 30
0.0
 11
777.1626652825788
 21
1798.245878730052
 31
0.0
1001
REVIT
1002
{
1070
     3
1000
856288
1002
}
  0
LINE
  5
1BC
330
19B
100
AcDbEntity
  8
M-PIPE
100
AcDbLine
 10
777.1626652825788
 20
1798.245878730052
 30
0.0
 11
770.7408062505805
 21
1798.245878730052
 31
0.0
1001
REVIT
1002
{
1070
     3
1000
856288
1002
}
  0
LINE
  5
1BD
330
19B
100
AcDbEntity
  8
M-PIPE
100
AcDbLine
 10
770.7408062505805
 20
1798.245878730052
 30
0.0
 11
759.5374856392504
 21
1798.245878730052
 31
0.0
1001
REVIT
1002
{
1070
     3
1000
856288
1002
}
  0
LINE
  5
1BE
330
19B
100
AcDbEntity
  8
M-PIPE
100
AcDbLine
 10
759.5374856392504
 20
1798.245878730052
 30
0.0
 11
736.0271471288144
 21
1798.245878730052
 31
0.0
1001
REVIT
1002
{
1070
     3
1000
856288
1002
}
  0
LINE
  5
1BF
330
19B
100
AcDbEntity
  8
M-PIPE
100
AcDbLine
 10
759.5374856392503
 20
1814.245878730052
 30
0.0
 11
770.7408062505804
 21
1814.245878730051
 31
0.0
1001
REVIT
1002
{
1070
     3
1000
856288
1002
}
  0
LINE
  5
1C0
330
19B
100
AcDbEntity
  8
M-PIPE
100
AcDbLine
 10
770.7408062505804
 20
1814.245878730051
 30
0.0
 11
777.1626652825787
 21
1814.245878730052
 31
0.0
1001
REVIT
1002
{
1070
     3
1000
856288
1002
}
  0
LINE
  5
1C1
330
19B
100
AcDbEntity
  8
M-PIPE
100
AcDbLine
 10
755.5271471288143
 20
1814.245878730052
 30
0.0
 11
759.5374856392503
 21
1814.245878730052
 31
0.0
1001
REVIT
1002
{
1070
     3
1000
856288
1002
}
  0
LINE
  5
1C2
330
19B
100
AcDbEntity
  8
M-PIPE
100
AcDbLine
 10
777.1626652825787
 20
1814.245878730052
 30
0.0
 11
777.1626652825788
 21
1798.245878730052
 31
0.0
1001
REVIT
1002
{
1070
     3
1000
856288
1002
}
  0
ARC
  5
1C3
330
19B
100
AcDbEntity
  8
M-PIPE
100
AcDbCircle
 10
748.527147128822
 20
1806.245878730035
 30
0.0
 40
4.000000000000113
100
AcDbArc
 50
180.0
 51
0.0
1001
REVIT
1002
{
1070
     3
1000
856288
1002
}
  0
ARC
  5
1C4
330
19B
100
AcDbEntity
  8
M-PIPE
100
AcDbCircle
 10
748.527147128822
 20
1806.245878730035
 30
0.0
 40
4.0
100
AcDbArc
 50
0.0
 51
180.0
1001
REVIT
1002
{
1070
     3
1000
856288
1002
}
  0
LINE
  5
1C5
330
19B
100
AcDbEntity
  8
M-PIPE
100
AcDbLine
 10
759.5374856392504
 20
1798.245878730052
 30
0.0
 11
759.5374856392503
 21
1814.245878730052
 31
0.0
1001
REVIT
1002
{
1070
     3
1000
856288
1002
}
  0
LINE
  5
1C6
330
19B
100
AcDbEntity
  8
M-PIPE
100
AcDbLine
 10
755.5271471288143
 20
1814.245878730052
 30
0.0
 11
755.5271471288143
 21
1818.745878730035
 31
0.0
1001
REVIT
1002
{
1070
     3
1000
856288
1002
}
  0
LINE
  5
1C7
330
19B
100
AcDbEntity
  8
M-PIPE
100
AcDbLine
 10
755.5271471288143
 20
1818.745878730035
 30
0.0
 11
748.5271471288144
 21
1818.745878730035
 31
0.0
1001
REVIT
1002
{
1070
     3
1000
856288
1002
}
  0
LINE
  5
1C8
330
19B
100
AcDbEntity
  8
M-PIPE
100
AcDbLine
 10
748.5271471288144
 20
1818.745878730035
 30
0.0
 11
736.0271471288144
 21
1806.245878730035
 31
0.0
1001
REVIT
1002
{
1070
     3
1000
856288
1002
}
  0
LINE
  5
1C9
330
19B
100
AcDbEntity
  8
M-PIPE
100
AcDbLine
 10
736.0271471288144
 20
1806.245878730035
 30
0.0
 11
736.0271471288144
 21
1798.245878730052
 31
0.0
1001
REVIT
1002
{
1070
     3
1000
856288
1002
}
  0
LINE
  5
1CA
330
19B
100
AcDbEntity
  8
M-PIPE
100
AcDbLine
 10
770.7408062505804
 20
1814.245878730051
 30
0.0
 11
770.7408062505805
 21
1798.245878730052
 31
0.0
1001
REVIT
1002
{
1070
     3
1000
856288
1002
}
  0
LINE
  5
1CB
330
19B
100
AcDbEntity
  8
P-SANR-FIXT
100
AcDbLine
 10
708.7932289003614
 20
1789.495878730053
 30
0.0
 11
722.5466599382068
 21
1789.495878730053
 31
0.0
  0
LINE
  5
1CC
330
19B
100
AcDbEntity
  8
P-SANR-FIXT
100
AcDbLine
 10
722.5466599382066
 20
1822.995878730053
 30
0.0
 11
708.7932289003614
 21
1822.995878730053
 31
0.0
  0
LINE
  5
1CD
330
19B
100
AcDbEntity
  8
P-SANR-FIXT
100
AcDbLine
 10
740.0456905576128
 20
1789.995878730053
 30
0.0
 11
761.028109023125
 21
1789.995878730053
 31
0.0
  0
LINE
  5
1CE
330
19B
100
AcDbEntity
  8
P-SANR-FIXT
100
AcDbLine
 10
761.028109023125
 20
1822.495878730053
 30
0.0
 11
740.0456905576128
 21
1822.495878730053
 31
0.0
  0
LINE
  5
1CF
330
19B
100
AcDbEntity
  8
P-SANR-FIXT
100
AcDbLine
 10
761.028109023125
 20
1789.995878730053
 30
0.0
 11
762.275715290789
 21
1787.834961286617
 31
0.0
  0
LINE
  5
1D0
330
19B
100
AcDbEntity
  8
P-SANR-FIXT
100
AcDbLine
 10
762.2879401995099
 20
1787.813787123595
 30
0.0
 11
762.3271471288015
 21
1787.745878730053
 31
0.0
  0
LINE
  5
1D1
330
19B
100
AcDbEntity
  8
P-SANR-FIXT
100
AcDbLine
 10
762.3271471288015
 20
1824.745878730053
 30
0.0
 11
762.2879401995097
 21
1824.677970336511
 31
0.0
  0
LINE
  5
1D2
330
19B
100
AcDbEntity
  8
P-SANR-FIXT
100
AcDbLine
 10
762.2757152907889
 20
1824.656796173489
 30
0.0
 11
761.028109023125
 21
1822.495878730053
 31
0.0
  0
LINE
  5
1D3
330
19B
100
AcDbEntity
  8
P-SANR-FIXT
100
AcDbLine
 10
762.3271471288015
 20
1787.745878730053
 30
0.0
 11
764.8271471288016
 21
1787.745878730053
 31
0.0
  0
LINE
  5
1D4
330
19B
100
AcDbEntity
  8
P-SANR-FIXT
100
AcDbLine
 10
764.8271471288016
 20
1824.745878730053
 30
0.0
 11
762.3271471288015
 21
1824.745878730053
 31
0.0
  0
LINE
  5
1D5
330
19B
100
AcDbEntity
  8
P-SANR-FIXT
100
AcDbLine
 10
700.6017084574714
 20
1787.745878730053
 30
0.0
 11
707.288126375062
 21
1787.745878730053
 31
0.0
  0
LINE
  5
1D6
330
19B
100
AcDbEntity
  8
P-SANR-FIXT
100
AcDbLine
 10
707.4123766627486
 20
1787.745878730053
 30
0.0
 11
707.9740768560723
 21
1787.745878730053
 31
0.0
  0
LINE
  5
1D7
330
19B
100
AcDbEntity
  8
P-SANR-FIXT
100
AcDbLine
 10
707.9740768560723
 20
1824.745878730053
 30
0.0
 11
707.4123766627486
 21
1824.745878730053
 31
0.0
  0
LINE
  5
1D8
330
19B
100
AcDbEntity
  8
P-SANR-FIXT
100
AcDbLine
 10
707.288126375062
 20
1824.745878730053
 30
0.0
 11
700.6017084574715
 21
1824.745878730053
 31
0.0
  0
LINE
  5
1D9
330
19B
100
AcDbEntity
  8
P-SANR-FIXT
100
AcDbLine
 10
740.0456905576128
 20
1780.745878730053
 30
0.0
 11
740.0456905576128
 21
1789.995878730053
 31
0.0
  0
LINE
  5
1DA
330
19B
100
AcDbEntity
  8
P-SANR-FIXT
100
AcDbLine
 10
740.0456905576128
 20
1822.495878730053
 30
0.0
 11
740.0456905576128
 21
1831.745878730053
 31
0.0
  0
LINE
  5
1DB
330
19B
100
AcDbEntity
  8
P-SANR-FIXT
100
AcDbLine
 10
722.5456905576129
 20
1831.745878730053
 30
0.0
 11
722.5456905576129
 21
1822.970401987018
 31
0.0
  0
LINE
  5
1DC
330
19B
100
AcDbEntity
  8
P-SANR-FIXT
100
AcDbLine
 10
722.5456905576129
 20
1789.521355473088
 30
0.0
 11
722.5456905576129
 21
1780.745878730053
 31
0.0
  0
LINE
  5
1DD
330
19B
100
AcDbEntity
  8
P-SANR-FIXT
100
AcDbLine
 10
707.9740768560723
 20
1789.495878730053
 30
0.0
 11
708.7932289003614
 21
1789.495878730053
 31
0.0
  0
LINE
  5
1DE
330
19B
100
AcDbEntity
  8
P-SANR-FIXT
100
AcDbLine
 10
708.7932289003614
 20
1822.995878730053
 30
0.0
 11
707.9740768560725
 21
1822.995878730053
 31
0.0
  0
LINE
  5
1DF
330
19B
100
AcDbEntity
  8
P-SANR-FIXT
100
AcDbLine
 10
691.2771471288014
 20
1788.495878730053
 30
0.0
 11
697.6357284054868
 21
1788.495878730053
 31
0.0
  0
LINE
  5
1E0
330
19B
100
AcDbEntity
  8
P-SANR-FIXT
100
AcDbLine
 10
697.6357284054871
 20
1823.995878730053
 30
0.0
 11
691.2771471288014
 21
1823.995878730053
 31
0.0
  0
LINE
  5
1E1
330
19B
100
AcDbEntity
  8
P-SANR-FIXT
100
AcDbLine
 10
656.9464194048225
 20
1789.495878730053
 30
0.0
 11
673.7771471288015
 21
1789.495878730053
 31
0.0
  0
LINE
  5
1E2
330
19B
100
AcDbEntity
  8
P-SANR-FIXT
100
AcDbLine
 10
691.2771471288014
 20
1789.495878730053
 30
0.0
 11
697.7251661648647
 21
1789.495878730053
 31
0.0
  0
LINE
  5
1E3
330
19B
100
AcDbEntity
  8
P-SANR-FIXT
100
AcDbLine
 10
697.7251661648647
 20
1822.995878730053
 30
0.0
 11
691.2771471288014
 21
1822.995878730053
 31
0.0
  0
LINE
  5
1E4
330
19B
100
AcDbEntity
  8
P-SANR-FIXT
100
AcDbLine
 10
673.7771471288015
 20
1822.995878730053
 30
0.0
 11
656.9464194048221
 21
1822.995878730053
 31
0.0
  0
LWPOLYLINE
  5
1E5
330
19B
100
AcDbEntity
  8
P-SANR-FIXT
100
AcDbPolyline
 90
       34
 70
   128
 43
0.0
 10
700.622943643732
 20
1791.719421594745
 10
700.5895757269631
 20
1791.604162485635
 10
700.5516253659366
 20
1791.490329932293
 10
700.5091532731341
 20
1791.378106042522
 10
700.4622273948438
 20
1791.267670350605
 10
700.4109228024609
 20
1791.159199530092
 10
700.3553215723887
 20
1791.052867111156
 10
700.2955126547343
 20
1790.948843202983
 10
700.2315917310075
 20
1790.847294221638
 10
700.1636610610505
 20
1790.748382623826
 10
700.0918293194441
 20
1790.652266647006
 10
700.0162114216516
 20
1790.559100056235
 10
699.9369283401786
 20
1790.469031898185
 10
699.8541069110422
 20
1790.382206262695
 10
699.767879630862
 20
1790.29876205226
 10
699.6783844448919
 20
1790.218832759817
 10
699.5857645263377
 20
1790.142546255182
 10
699.490168047312
 20
1790.070024580488
 10
699.3917479417879
 20
1790.001383754947
 10
699.2906616609392
 20
1789.936733589235
 10
699.1870709212512
 20
1789.876177509827
 10
699.0811414458096
 20
1789.819812393531
 10
698.9730426991777
 20
1789.76772841251
 10
698.8629476162904
 20
1789.720008890022
 10
698.7510323257947
 20
1789.676730167125
 10
698.6374758682812
 20
1789.637961480542
 10
698.5224599098577
 20
1789.603764851901
 10
698.4061684515227
 20
1789.574194988515
 10
698.2887875348017
 20
1789.549299195855
 10
698.1705049441217
 20
1789.529117301881
 10
698.0515099063953
 20
1789.513681593315
 10
697.9319927882989
 20
1789.503016764001
 10
697.8121447917256
 20
1789.497139875389
 10
697.7251661648647
 20
1789.495878730053
  0
LWPOLYLINE
  5
1E6
330
19B
100
AcDbEntity
  8
P-SANR-FIXT
100
AcDbPolyline
 90
       34
 70
   128
 43
0.0
 10
697.7251661648647
 20
1822.995878730053
 10
697.8451341674246
 20
1822.993479050036
 10
697.9649102467724
 20
1822.986283848961
 10
698.0843027867314
 20
1822.974304637615
 10
698.2031207847074
 20
1822.95756058018
 10
698.32117415725
 20
1822.936078463577
 10
698.4382740441462
 20
1822.90989265461
 10
698.554233110557
 20
1822.879045044986
 10
698.6688658467131
 20
1822.843584984301
 10
698.78198886469
 20
1822.803569201087
 10
698.8934211917905
 20
1822.759061712062
 10
699.0029845600627
 20
1822.710133719713
 10
699.1105036914892
 20
1822.656863498391
 10
699.2158065783959
 20
1822.599336269086
 10
699.3187247586274
 20
1822.537644063094
 10
699.4190935850498
 20
1822.471885574782
 10
699.5167524889519
 20
1822.402166003706
 10
699.6115452369202
 20
1822.328596886306
 10
699.7033201807791
 20
1822.251295917476
 10
699.7919305001964
 20
1822.170386762276
 10
699.8772344375634
 20
1822.085998858095
 10
699.9590955247773
 20
1821.998267207577
 10
700.0373828015617
 20
1821.907332162649
 10
700.1119710249739
 20
1821.813339199984
 10
700.1827408697677
 20
1821.716438688271
 10
700.2495791192883
 20
1821.616785647658
 10
700.3123788465948
 20
1821.514539501751
 10
700.3710395855194
 20
1821.409863822574
 10
700.4254674913942
 20
1821.302926068884
 10
700.47557549118
 20
1821.193897318272
 10
700.5212834227664
 20
1821.082951993483
 10
700.5625181632133
 20
1820.97026758337
 10
700.5992137457324
 20
1820.856024358949
 10
700.622943643732
 20
1820.772335865361
  0
LINE
  5
1E7
330
19B
100
AcDbEntity
  8
P-SANR-FIXT
100
AcDbLine
 10
700.622943643732
 20
1791.719421594745
 30
0.0
 11
701.6616181280845
 21
1795.595807542875
 31
0.0
  0
LINE
  5
1E8
330
19B
100
AcDbEntity
  8
P-SANR-FIXT
100
AcDbLine
 10
701.6616181280845
 20
1816.895949917231
 30
0.0
 11
700.622943643732
 21
1820.772335865361
 31
0.0
  0
LINE
  5
1E9
330
19B
100
AcDbEntity
  8
P-SANR-FIXT
100
AcDbLine
 10
673.5696909959346
 20
1787.245878730053
 30
0.0
 11
673.7771471288015
 21
1787.245878730053
 31
0.0
  0
LINE
  5
1EA
330
19B
100
AcDbEntity
  8
P-SANR-FIXT
100
AcDbLine
 10
673.7771471288015
 20
1825.245878730053
 30
0.0
 11
673.5696909959346
 21
1825.245878730053
 31
0.0
  0
LINE
  5
1EB
330
19B
100
AcDbEntity
  8
P-SANR-FIXT
100
AcDbLine
 10
691.2771471288014
 20
1780.745878730053
 30
0.0
 11
691.2771471288014
 21
1789.495878730053
 31
0.0
  0
LINE
  5
1EC
330
19B
100
AcDbEntity
  8
P-SANR-FIXT
100
AcDbLine
 10
691.2771471288014
 20
1822.995878730053
 30
0.0
 11
691.2771471288014
 21
1831.745878730053
 31
0.0
  0
LINE
  5
1ED
330
19B
100
AcDbEntity
  8
P-SANR-FIXT
100
AcDbLine
 10
673.7771471288015
 20
1831.745878730053
 30
0.0
 11
673.7771471288015
 21
1822.995878730053
 31
0.0
  0
LINE
  5
1EE
330
19B
100
AcDbEntity
  8
P-SANR-FIXT
100
AcDbLine
 10
673.7771471288015
 20
1789.495878730053
 30
0.0
 11
673.7771471288015
 21
1780.745878730053
 31
0.0
  0
LINE
  5
1EF
330
19B
100
AcDbEntity
  8
P-SANR-FIXT
100
AcDbLine
 10
767.8271471288017
 20
1824.245878730053
 30
0.0
 11
764.8271471288016
 21
1824.245878730053
 31
0.0
  0
LINE
  5
1F0
330
19B
100
AcDbEntity
  8
P-SANR-FIXT
100
AcDbLine
 10
764.8271471288016
 20
1788.245878730053
 30
0.0
 11
767.8271471288017
 21
1788.245878730053
 31
0.0
  0
SPLINE
  5
1F1
330
19B
100
AcDbEntity
  8
P-SANR-FIXT
100
AcDbSpline
210
0.0
220
0.0
230
1.0
 70
     8
 71
     3
 72
    10
 73
     6
 74
     0
 42
0.000000001
 43
0.0000000001
 40
0.0
 40
0.0
 40
0.0
 40
0.0
 40
0.3333333333333333
 40
0.6666666666666666
 40
1.0
 40
1.0
 40
1.0
 40
1.0
 10
722.5456905576115
 20
1789.521355473087
 30
0.0
 10
722.5470704489173
 20
1789.547957857803
 30
0.0
 10
722.6611898334624
 20
1789.637393931297
 30
0.0
 10
723.1783104410789
 20
1789.827646733542
 30
0.0
 10
723.7315923225008
 20
1789.948895161483
 30
0.0
 10
724.0613335794886
 20
1790.001905602168
 30
0.0
  0
SPLINE
  5
1F2
330
19B
100
AcDbEntity
  8
P-SANR-FIXT
100
AcDbSpline
210
0.0
220
0.0
230
1.0
 70
     8
 71
     3
 72
     8
 73
     4
 74
     0
 42
0.000000001
 43
0.0000000001
 40
0.25
 40
0.25
 40
0.25
 40
0.25
 40
0.2997602782975268
 40
0.2997602782975268
 40
0.2997602782975268
 40
0.2997602782975268
 10
716.4743969959895
 20
1799.927119688138
 30
0.0
 10
716.3948188127425
 20
1800.003263088248
 30
0.0
 10
716.3148460204521
 20
1800.080096676001
 30
0.0
 10
716.2355782343195
 20
1800.158129613953
 30
0.0
  0
SPLINE
  5
1F3
330
19B
100
AcDbEntity
  8
P-SANR-FIXT
100
AcDbSpline
210
0.0
220
0.0
230
1.0
 70
     8
 71
     3
 72
    12
 73
     8
 74
     0
 42
0.000000001
 43
0.0000000001
 40
0.0
 40
0.0
 40
0.0
 40
0.0
 40
0.1666666666666666
 40
0.3333333333333333
 40
0.5
 40
0.6666666666666666
 40
0.9471915320023692
 40
0.9471915320023692
 40
0.9471915320023692
 40
0.9471915320023692
 10
702.9575881052745
 20
1804.245878730052
 30
0.0
 10
702.9198138408546
 20
1803.64596811971
 30
0.0
 10
702.8331119137192
 20
1802.46742455538
 30
0.0
 10
702.6714168231908
 20
1800.786289221457
 30
0.0
 10
702.4333146399336
 20
1799.19157252318
 30
0.0
 10
702.1002363483934
 20
1797.383155560764
 30
0.0
 10
701.8485372048574
 20
1796.239118487948
 30
0.0
 10
701.6655921598603
 20
1795.585295219708
 30
0.0
  0
SPLINE
  5
1F4
330
19B
100
AcDbEntity
  8
P-SANR-FIXT
100
AcDbSpline
210
0.0
220
0.0
230
1.0
 70
     8
 71
     3
 72
    12
 73
     8
 74
     0
 42
0.000000001
 43
0.0000000001
 40
0.0528084679976348
 40
0.0528084679976348
 40
0.0528084679976348
 40
0.0528084679976348
 40
0.3333333333333333
 40
0.5
 40
0.6666666666666666
 40
0.8333333333333332
 40
1.0
 40
1.0
 40
1.0
 40
1.0
 10
701.6655921598603
 20
1816.906462240397
 30
0.0
 10
701.8485372048574
 20
1816.252638972157
 30
0.0
 10
702.1002363483934
 20
1815.108601899341
 30
0.0
 10
702.4333146399336
 20
1813.300184936925
 30
0.0
 10
702.6714168231908
 20
1811.705468238647
 30
0.0
 10
702.8331119137192
 20
1810.024332904724
 30
0.0
 10
702.9198138408544
 20
1808.845789340394
 30
0.0
 10
702.9575881052745
 20
1808.245878730052
 30
0.0
  0
SPLINE
  5
1F5
330
19B
100
AcDbEntity
  8
P-SANR-FIXT
100
AcDbSpline
210
0.0
220
0.0
230
1.0
 70
     8
 71
     3
 72
     8
 73
     4
 74
     0
 42
0.000000001
 43
0.0000000001
 40
0.6993951889625634
 40
0.6993951889625634
 40
0.6993951889625634
 40
0.6993951889625634
 40
0.75
 40
0.75
 40
0.75
 40
0.75
 10
716.2355110599415
 20
1812.326899476534
 30
0.0
 10
716.3136533837646
 20
1812.407768387195
 30
0.0
 10
716.3921496999238
 20
1812.48832435427
 30
0.0
 10
716.4741668651442
 20
1812.564417321198
 30
0.0
  0
SPLINE
  5
1F6
330
19B
100
AcDbEntity
  8
P-SANR-FIXT
100
AcDbSpline
210
0.0
220
0.0
230
1.0
 70
     8
 71
     3
 72
    10
 73
     6
 74
     0
 42
0.000000001
 43
0.0000000001
 40
0.0
 40
0.0
 40
0.0
 40
0.0
 40
0.3333333333333333
 40
0.6666666666666666
 40
1.0
 40
1.0
 40
1.0
 40
1.0
 10
724.0613335794886
 20
1822.489851857936
 30
0.0
 10
723.7315923225008
 20
1822.542862298622
 30
0.0
 10
723.1783104410789
 20
1822.664110726563
 30
0.0
 10
722.6611898334624
 20
1822.854363528807
 30
0.0
 10
722.5470704489173
 20
1822.943799602301
 30
0.0
 10
722.5456905576114
 20
1822.970401987017
 30
0.0
  0
LINE
  5
1F7
330
19B
100
AcDbEntity
  8
P-SANR-FIXT
100
AcDbLine
 10
764.8271471288002
 20
1798.236452420145
 30
0.0
 11
764.8271471288002
 21
1787.745878730052
 31
0.0
  0
LINE
  5
1F8
330
19B
100
AcDbEntity
  8
P-SANR-FIXT
100
AcDbLine
 10
764.8271471288002
 20
1824.745878730053
 30
0.0
 11
764.8271471288002
 21
1814.255305039958
 31
0.0
  0
ARC
  5
1F9
330
19B
100
AcDbEntity
  8
P-SANR-FIXT
100
AcDbCircle
 10
748.5271471288002
 20
1806.245878730052
 30
0.0
 40
9.000000000000483
100
AcDbArc
 50
242.9639395157609
 51
297.0360604842378
  0
SPLINE
  5
1FA
330
19B
100
AcDbEntity
  8
P-SANR-FIXT
100
AcDbSpline
210
0.0
220
0.0
230
1.0
 70
     8
 71
     3
 72
     8
 73
     4
 74
     0
 42
0.000000001
 43
0.0000000001
 40
0.3703703703703703
 40
0.3703703703703703
 40
0.3703703703703703
 40
0.3703703703703703
 40
0.3763817759135541
 40
0.3763817759135541
 40
0.3763817759135541
 40
0.3763817759135541
 10
744.9247951005105
 20
1797.998270391836
 30
0.0
 10
744.976637313595
 20
1797.975626950596
 30
0.0
 10
745.0287246527486
 20
1797.953458275053
 30
0.0
 10
745.0810481527659
 20
1797.931770416006
 30
0.0
  0
SPLINE
  5
1FB
330
19B
100
AcDbEntity
  8
P-SANR-FIXT
100
AcDbSpline
210
0.0
220
0.0
230
1.0
 70
     8
 71
     3
 72
     9
 73
     5
 74
     0
 42
0.000000001
 43
0.0000000001
 40
0.4074074074074074
 40
0.4074074074074074
 40
0.4074074074074074
 40
0.4074074074074074
 40
0.4166666666666666
 40
0.4178446353886467
 40
0.4178446353886467
 40
0.4178446353886467
 40
0.4178446353886467
 10
745.9087337350296
 20
1797.635201433654
 30
0.0
 10
745.992664254221
 20
1797.609677724264
 30
0.0
 10
746.0877524722875
 20
1797.582269955224
 30
0.0
 10
746.1833244579131
 20
1797.556423237619
 30
0.0
 10
746.1941170709195
 20
1797.553526023095
 30
0.0
  0
SPLINE
  5
1FC
330
19B
100
AcDbEntity
  8
P-SANR-FIXT
100
AcDbSpline
210
0.0
220
0.0
230
1.0
 70
     8
 71
     3
 72
     8
 73
     4
 74
     0
 42
0.000000001
 43
0.0000000001
 40
0.4444444444444445
 40
0.4444444444444445
 40
0.4444444444444445
 40
0.4444444444444445
 40
0.4590793160552606
 40
0.4590793160552606
 40
0.4590793160552606
 40
0.4590793160552606
 10
746.9344660038614
 20
1797.387923727103
 30
0.0
 10
747.0719010969142
 20
1797.363216657899
 30
0.0
 10
747.2102303774995
 20
1797.341647655071
 30
0.0
 10
747.3492963416743
 20
1797.323287922267
 30
0.0
  0
SPLINE
  5
1FD
330
19B
100
AcDbEntity
  8
P-SANR-FIXT
100
AcDbSpline
210
0.0
220
0.0
230
1.0
 70
     8
 71
     3
 72
     9
 73
     5
 74
     0
 42
0.000000001
 43
0.0000000001
 40
0.4814814814814815
 40
0.4814814814814815
 40
0.4814814814814815
 40
0.4814814814814815
 40
0.5
 40
0.5185185185185186
 40
0.5185185185185186
 40
0.5185185185185186
 40
0.5185185185185186
 10
747.9924908885384
 20
1797.261782419486
 30
0.0
 10
748.1707675097696
 20
1797.251177002905
 30
0.0
 10
748.5285876273097
 20
1797.240523991209
 30
0.0
 10
748.886384445411
 20
1797.251290392282
 30
0.0
 10
749.0646417868496
 20
1797.261951334348
 30
0.0
  0
SPLINE
  5
1FE
330
19B
100
AcDbEntity
  8
P-SANR-FIXT
100
AcDbSpline
210
0.0
220
0.0
230
1.0
 70
     8
 71
     3
 72
     8
 73
     4
 74
     0
 42
0.000000001
 43
0.0000000001
 40
0.540825998983326
 40
0.540825998983326
 40
0.540825998983326
 40
0.540825998983326
 40
0.5555555555555556
 40
0.5555555555555556
 40
0.5555555555555556
 40
0.5555555555555556
 10
749.7050358652828
 20
1797.323293517488
 30
0.0
 10
749.8449798273936
 20
1797.341769799977
 30
0.0
 10
749.9841700333769
 20
1797.363494708515
 30
0.0
 10
750.1224402740908
 20
1797.388393772086
 30
0.0
  0
SPLINE
  5
1FF
330
19B
100
AcDbEntity
  8
P-SANR-FIXT
100
AcDbSpline
210
0.0
220
0.0
230
1.0
 70
     8
 71
     3
 72
     9
 73
     5
 74
     0
 42
0.000000001
 43
0.0000000001
 40
0.5820781249432879
 40
0.5820781249432879
 40
0.5820781249432879
 40
0.5820781249432879
 40
0.5833333333333334
 40
0.5925925925925926
 40
0.5925925925925926
 40
0.5925925925925926
 40
0.5925925925925926
 10
750.8602467467936
 20
1797.553544633052
 30
0.0
 10
750.8717394292959
 20
1797.556629866919
 30
0.0
 10
750.9679507299311
 20
1797.582662698792
 30
0.0
 10
751.0636655591654
 20
1797.610275723923
 30
0.0
 10
751.1475260514272
 20
1797.635798951517
 30
0.0
  0
SPLINE
  5
200
330
19B
100
AcDbEntity
  8
P-SANR-FIXT
100
AcDbSpline
210
0.0
220
0.0
230
1.0
 70
     8
 71
     3
 72
     8
 73
     4
 74
     0
 42
0.000000001
 43
0.0000000001
 40
0.6235703493569745
 40
0.6235703493569745
 40
0.6235703493569745
 40
0.6235703493569745
 40
0.6296296296296296
 40
0.6296296296296296
 40
0.6296296296296296
 40
0.6296296296296296
 10
751.9732645236722
 20
1797.93177776463
 30
0.0
 10
752.0259680550668
 20
1797.953623248029
 30
0.0
 10
752.0784334504241
 20
1797.975957200609
 30
0.0
 10
752.1306519298978
 20
1797.998773713409
 30
0.0
  0
ARC
  5
201
330
19B
100
AcDbEntity
  8
P-SANR-FIXT
100
AcDbCircle
 10
748.5271471288002
 20
1806.245878730052
 30
0.0
 40
9.000000000000541
100
AcDbArc
 50
124.7514312265388
 51
145.2485687734554
  0
SPLINE
  5
202
330
19B
100
AcDbEntity
  8
P-SANR-FIXT
100
AcDbSpline
210
0.0
220
0.0
230
1.0
 70
     8
 71
     3
 72
     8
 73
     4
 74
     0
 42
0.000000001
 43
0.0000000001
 40
0.7037037037037035
 40
0.7037037037037035
 40
0.7037037037037035
 40
0.7037037037037035
 40
0.7080358909363337
 40
0.7080358909363337
 40
0.7080358909363337
 40
0.7080358909363337
 10
743.1385408469175
 20
1813.454414127687
 30
0.0
 10
743.1065759062119
 20
1813.43051985082
 30
0.0
 10
743.0747837362076
 20
1813.406423084499
 30
0.0
 10
743.0431642636921
 20
1813.382124481508
 30
0.0
  0
SPLINE
  5
203
330
19B
100
AcDbEntity
  8
P-SANR-FIXT
100
AcDbSpline
210
0.0
220
0.0
230
1.0
 70
     8
 71
     3
 72
     9
 73
     5
 74
     0
 42
0.000000001
 43
0.0000000001
 40
0.7407407407407405
 40
0.7407407407407405
 40
0.7407407407407405
 40
0.7407407407407405
 40
0.75
 40
0.7500480297210572
 40
0.7500480297210572
 40
0.7500480297210572
 40
0.7500480297210572
 10
742.3565902752086
 20
1812.797541023675
 30
0.0
 10
742.2945947993173
 20
1812.739150689749
 30
0.0
 10
742.2330789549124
 20
1812.679541874434
 30
0.0
 10
742.1723730377062
 20
1812.619013468897
 30
0.0
 10
742.1720597899351
 20
1812.618701091105
 30
0.0
  0
SPLINE
  5
204
330
19B
100
AcDbEntity
  8
P-SANR-FIXT
100
AcDbSpline
210
0.0
220
0.0
230
1.0
 70
     8
 71
     3
 72
    10
 73
     6
 74
     0
 42
0.000000001
 43
0.0000000001
 40
0.7777777777777778
 40
0.7777777777777778
 40
0.7777777777777778
 40
0.7777777777777778
 40
0.7916666666666668
 40
0.8055555555555555
 40
0.8107498119857691
 40
0.8107498119857691
 40
0.8107498119857691
 40
0.8107498119857691
 10
741.6512168882357
 20
1812.052907516523
 30
0.0
 10
741.5680089813775
 20
1811.954382863669
 30
0.0
 10
741.4055680995471
 20
1811.753445765094
 30
0.0
 10
741.2232351676573
 20
1811.506856187162
 30
0.0
 10
741.1218576075022
 20
1811.360977962254
 30
0.0
 10
741.0945765763251
 20
1811.321039975945
 30
0.0
  0
LINE
  5
205
330
19B
100
AcDbEntity
  8
P-SANR-FIXT
100
AcDbLine
 10
739.5271471287998
 20
1798.232508395887
 30
0.0
 11
739.5271471287998
 21
1790.269118192216
 31
0.0
  0
LINE
  5
206
330
19B
100
AcDbEntity
  8
P-SANR-FIXT
100
AcDbLine
 10
739.5271471287998
 20
1822.222639267889
 30
0.0
 11
739.5271471287998
 21
1809.74803407203
 31
0.0
  0
LINE
  5
207
330
19B
100
AcDbEntity
  8
P-SANR-FIXT
100
AcDbLine
 10
761.0281090231236
 20
1789.995878730052
 30
0.0
 11
761.0281090231234
 21
1798.238466884125
 31
0.0
  0
LINE
  5
208
330
19B
100
AcDbEntity
  8
P-SANR-FIXT
100
AcDbLine
 10
761.0281090231234
 20
1814.253290575978
 30
0.0
 11
761.0281090231236
 21
1822.495878730052
 31
0.0
  0
LINE
  5
209
330
19B
100
AcDbEntity
  8
P-SANR-FIXT
100
AcDbLine
 10
762.3271471288002
 20
1787.745878730052
 30
0.0
 11
762.3271471288002
 21
1798.236452420145
 31
0.0
  0
LINE
  5
20A
330
19B
100
AcDbEntity
  8
P-SANR-FIXT
100
AcDbLine
 10
762.3271471288002
 20
1814.255305039958
 30
0.0
 11
762.3271471288002
 21
1824.745878730053
 31
0.0
  0
LINE
  5
20B
330
19B
100
AcDbEntity
  8
P-SANR-FIXT
100
AcDbLine
 10
736.7771471287998
 20
1794.595390923019
 30
0.0
 11
736.7771471287998
 21
1798.239258228967
 31
0.0
  0
LINE
  5
20C
330
19B
100
AcDbEntity
  8
P-SANR-FIXT
100
AcDbLine
 10
736.7771471287998
 20
1806.996433373267
 30
0.0
 11
736.7771471287998
 21
1817.896366537085
 31
0.0
  0
SPLINE
  5
20D
330
19B
100
AcDbEntity
  8
P-SANR-FIXT
100
AcDbSpline
210
0.0
220
0.0
230
1.0
 70
     8
 71
     3
 72
     8
 73
     4
 74
     0
 42
0.000000001
 43
0.0000000001
 40
0.0
 40
0.0
 40
0.0
 40
0.0
 40
0.5
 40
0.5
 40
0.5
 40
0.5
 10
700.8352119505545
 20
1792.558609816469
 30
0.0
 10
700.8002799154194
 20
1792.442894364463
 30
0.0
 10
700.7651596269558
 20
1792.329461631348
 30
0.0
 10
700.7297988233091
 20
1792.218308245361
 30
0.0
  0
ELLIPSE
  5
20E
330
19B
100
AcDbEntity
  8
P-SANR-FIXT
100
AcDbEllipse
 10
700.60170845747
 20
1806.245878730052
 30
0.0
 11
0.0
 21
18.49999999999987
 31
0.0
210
0.0
220
0.0
230
1.0
 40
0.5735764363510505
 41
2.703064189128554
 42
3.153326740349074
  0
ELLIPSE
  5
20F
330
19B
100
AcDbEntity
  8
P-SANR-FIXT
100
AcDbEllipse
 10
700.60170845747
 20
1806.245878730052
 30
0.0
 11
0.0
 21
18.49999999999983
 31
0.0
210
0.0
220
0.0
230
1.0
 40
0.5735764363510532
 41
6.271451220420285
 42
6.721713771640795
  0
SPLINE
  5
210
330
19B
100
AcDbEntity
  8
P-SANR-FIXT
100
AcDbSpline
210
0.0
220
0.0
230
1.0
 70
     8
 71
     3
 72
     8
 73
     4
 74
     0
 42
0.000000001
 43
0.0000000001
 40
0.5
 40
0.5
 40
0.5
 40
0.5
 40
1.0
 40
1.0
 40
1.0
 40
1.0
 10
700.7297988233091
 20
1820.273449214743
 30
0.0
 10
700.7651596269558
 20
1820.162295828756
 30
0.0
 10
700.8002799154194
 20
1820.048863095641
 30
0.0
 10
700.8352119505545
 20
1819.933147643635
 30
0.0
  0
LINE
  5
211
330
19B
100
AcDbEntity
  8
P-SANR-FIXT
100
AcDbLine
 10
717.7265508305945
 20
1798.955424116817
 30
0.0
 11
717.7230923497453
 21
1798.941377628132
 31
0.0
  0
ELLIPSE
  5
212
330
19B
100
AcDbEntity
  8
P-SANR-FIXT
100
AcDbEllipse
 10
707.9740768560709
 20
1806.245878730052
 30
0.0
 11
0.0
 21
18.49999999999963
 31
0.0
210
0.0
220
0.0
230
1.0
 40
0.5735764363510532
 41
2.404506286675309
 42
3.580015925792751
  0
ELLIPSE
  5
213
330
19B
100
AcDbEntity
  8
P-SANR-FIXT
100
AcDbEllipse
 10
707.9740768560709
 20
1806.245878730052
 30
0.0
 11
0.0
 21
18.50000000000024
 31
0.0
210
0.0
220
0.0
230
1.0
 40
0.5735764363510379
 41
5.844762034976628
 42
7.020271674094087
  0
LINE
  5
214
330
19B
100
AcDbEntity
  8
P-SANR-FIXT
100
AcDbLine
 10
717.7230926875213
 20
1813.55037846167
 30
0.0
 11
717.7264981123755
 21
1813.536547696875
 31
0.0
  0
LINE
  5
215
330
19B
100
AcDbEntity
  8
P-SANR-FIXT
100
AcDbLine
 10
722.5456905576115
 20
1831.745878730052
 30
0.0
 11
740.0456905576114
 21
1831.745878730052
 31
0.0
  0
LINE
  5
216
330
19B
100
AcDbEntity
  8
P-SANR-FIXT
100
AcDbLine
 10
740.0456905576114
 20
1780.745878730052
 30
0.0
 11
722.5456905576115
 21
1780.745878730052
 31
0.0
  0
SPLINE
  5
217
330
19B
100
AcDbEntity
  8
P-SANR-FIXT
100
AcDbSpline
210
0.0
220
0.0
230
1.0
 70
     8
 71
     3
 72
    23
 73
    19
 74
     0
 42
0.000000001
 43
0.0000000001
 40
-1.0
 40
-1.0
 40
-1.0
 40
-1.0
 40
-0.9166666666666666
 40
-0.8333333333333332
 40
-0.75
 40
-0.6666666666666666
 40
-0.6458333333333333
 40
-0.625
 40
-0.5833333333333333
 40
-0.5
 40
-0.4166666666666666
 40
-0.375
 40
-0.3333333333333333
 40
-0.2916666666666666
 40
-0.25
 40
-0.1666666666666666
 40
-0.0833333333333333
 40
0.0
 40
0.0
 40
0.0
 40
0.0
 10
736.7771471287998
 20
1817.896366537085
 30
0.0
 10
736.5406658292221
 20
1817.77738917902
 30
0.0
 10
736.0450771274952
 20
1817.550454536254
 30
0.0
 10
735.2395778967879
 20
1817.250659814627
 30
0.0
 10
734.3802936055393
 20
1816.96883126825
 30
0.0
 10
733.7010920004956
 20
1816.795405071142
 30
0.0
 10
733.2350218806706
 20
1816.709129585342
 30
0.0
 10
732.9206379759956
 20
1816.655363048657
 30
0.0
 10
732.3622840671426
 20
1816.575645510628
 30
0.0
 10
731.5530115100053
 20
1816.511964593264
 30
0.0
 10
730.7380892075017
 20
1816.536025717391
 30
0.0
 10
730.0905624600257
 20
1816.596664577146
 30
0.0
 10
729.6130043991127
 20
1816.659266069492
 30
0.0
 10
729.1446871507845
 20
1816.743504056304
 30
0.0
 10
728.5317015508905
 20
1816.886666334416
 30
0.0
 10
727.7922697678406
 20
1817.099270503336
 30
0.0
 10
726.9574185999308
 20
1817.383177220613
 30
0.0
 10
726.4404517639908
 20
1817.605060504171
 30
0.0
 10
726.1929804769389
 20
1817.723036486544
 30
0.0
  0
SPLINE
  5
218
330
19B
100
AcDbEntity
  8
P-SANR-FIXT
100
AcDbSpline
210
0.0
220
0.0
230
1.0
 70
     8
 71
     3
 72
    13
 73
     9
 74
     0
 42
0.000000001
 43
0.0000000001
 40
-1.0
 40
-1.0
 40
-1.0
 40
-1.0
 40
-0.8333333333333332
 40
-0.6666666666666666
 40
-0.5
 40
-0.3333333333333333
 40
-0.1666666666666666
 40
0.0
 40
0.0
 40
0.0
 40
0.0
 10
739.5271471287998
 20
1822.222639267889
 30
0.0
 10
739.4189390418473
 20
1822.045025019363
 30
0.0
 10
739.1760916293877
 20
1821.665675312988
 30
0.0
 10
738.7514344101075
 20
1821.031715513145
 30
0.0
 10
738.2891029767117
 20
1820.310535309947
 30
0.0
 10
737.8003304739519
 20
1819.535562448007
 30
0.0
 10
737.2908385160493
 20
1818.74022467194
 30
0.0
 10
736.9479706226265
 20
1818.181566103094
 30
0.0
 10
736.7771471287998
 20
1817.896366537085
 30
0.0
  0
SPLINE
  5
219
330
19B
100
AcDbEntity
  8
P-SANR-FIXT
100
AcDbSpline
210
0.0
220
0.0
230
1.0
 70
     8
 71
     3
 72
     9
 73
     5
 74
     0
 42
0.000000001
 43
0.0000000001
 40
-1.0
 40
-1.0
 40
-1.0
 40
-1.0
 40
-0.5
 40
0.0
 40
0.0
 40
0.0
 40
0.0
 10
740.0456905576114
 20
1822.495878730052
 30
0.0
 10
740.0456905576114
 20
1822.494275311817
 30
0.0
 10
739.9562606496626
 20
1822.447131983222
 30
0.0
 10
739.6963970524866
 20
1822.312115670374
 30
0.0
 10
739.5271471287998
 20
1822.222639267889
 30
0.0
  0
SPLINE
  5
21A
330
19B
100
AcDbEntity
  8
P-SANR-FIXT
100
AcDbSpline
210
0.0
220
0.0
230
1.0
 70
     8
 71
     3
 72
     9
 73
     5
 74
     0
 42
0.000000001
 43
0.0000000001
 40
-1.0
 40
-1.0
 40
-1.0
 40
-1.0
 40
-0.5
 40
0.0
 40
0.0
 40
0.0
 40
0.0
 10
739.5271471287998
 20
1790.269118192216
 30
0.0
 10
739.6963970524866
 20
1790.17964178973
 30
0.0
 10
739.9562606496626
 20
1790.044625476883
 30
0.0
 10
740.0456905576114
 20
1789.997482148287
 30
0.0
 10
740.0456905576114
 20
1789.995878730052
 30
0.0
  0
SPLINE
  5
21B
330
19B
100
AcDbEntity
  8
P-SANR-FIXT
100
AcDbSpline
210
0.0
220
0.0
230
1.0
 70
     8
 71
     3
 72
    13
 73
     9
 74
     0
 42
0.000000001
 43
0.0000000001
 40
-1.0
 40
-1.0
 40
-1.0
 40
-1.0
 40
-0.8333333333333332
 40
-0.6666666666666666
 40
-0.5
 40
-0.3333333333333333
 40
-0.1666666666666666
 40
0.0
 40
0.0
 40
0.0
 40
0.0
 10
736.7771471287998
 20
1794.595390923019
 30
0.0
 10
736.9479706226265
 20
1794.31019135701
 30
0.0
 10
737.2908385160493
 20
1793.751532788164
 30
0.0
 10
737.8003304739519
 20
1792.956195012097
 30
0.0
 10
738.2891029767117
 20
1792.181222150157
 30
0.0
 10
738.7514344101075
 20
1791.460041946959
 30
0.0
 10
739.1760916293877
 20
1790.826082147116
 30
0.0
 10
739.4189390418473
 20
1790.446732440742
 30
0.0
 10
739.5271471287998
 20
1790.269118192216
 30
0.0
  0
SPLINE
  5
21C
330
19B
100
AcDbEntity
  8
P-SANR-FIXT
100
AcDbSpline
210
0.0
220
0.0
230
1.0
 70
     8
 71
     3
 72
    25
 73
    21
 74
     0
 42
0.000000001
 43
0.0000000001
 40
-1.0
 40
-1.0
 40
-1.0
 40
-1.0
 40
-0.9166666666666666
 40
-0.8333333333333332
 40
-0.75
 40
-0.7083333333333333
 40
-0.6666666666666666
 40
-0.625
 40
-0.5833333333333333
 40
-0.5
 40
-0.4166666666666666
 40
-0.375
 40
-0.3333333333333333
 40
-0.2916666666666666
 40
-0.25
 40
-0.2083333333333333
 40
-0.1666666666666666
 40
-0.125
 40
-0.0833333333333333
 40
0.0
 40
0.0
 40
0.0
 40
0.0
 10
726.1929804769389
 20
1794.768720973561
 30
0.0
 10
726.4404517639908
 20
1794.886696955934
 30
0.0
 10
726.9574185991002
 20
1795.108580246447
 30
0.0
 10
727.7922697707477
 20
1795.392486932423
 30
0.0
 10
728.5317015423767
 20
1795.605091196984
 30
0.0
 10
729.1446871655278
 20
1795.748253280338
 30
0.0
 10
729.6130043428391
 20
1795.832491861856
 30
0.0
 10
730.0905626703779
 20
1795.895091121449
 30
0.0
 10
730.7380880905382
 20
1795.955741096274
 30
0.0
 10
731.5530205109162
 20
1795.979717492343
 30
0.0
 10
732.3622581813739
 20
1795.916328719405
 30
0.0
 10
733.0004476143188
 20
1795.824631080756
 30
0.0
 10
733.4694699801938
 20
1795.741681201986
 30
0.0
 10
733.9273602984451
 20
1795.639716506686
 30
0.0
 10
734.3745466391798
 20
1795.516646284886
 30
0.0
 10
734.8098969292621
 20
1795.380661887996
 30
0.0
 10
735.2328485219228
 20
1795.238880974101
 30
0.0
 10
735.642391303233
 20
1795.092433913212
 30
0.0
 10
736.168936028272
 20
1794.88382908603
 30
0.0
 10
736.5406658292221
 20
1794.714368281084
 30
0.0
 10
736.7771471287998
 20
1794.595390923019
 30
0.0
  0
SPLINE
  5
21D
330
19B
100
AcDbEntity
  8
P-SANR-FIXT
100
AcDbSpline
210
0.0
220
0.0
230
1.0
 70
     8
 71
     3
 72
     8
 73
     4
 74
     0
 42
0.000000001
 43
0.0000000001
 40
-1.0
 40
-1.0
 40
-1.0
 40
-1.0
 40
-0.8333333333333332
 40
-0.8333333333333332
 40
-0.8333333333333332
 40
-0.8333333333333332
 10
731.2771471287998
 20
1806.245878730052
 30
0.0
 10
731.2771471287998
 20
1805.531386707417
 30
0.0
 10
731.1893033627448
 20
1804.824018494093
 30
0.0
 10
731.0205911917551
 20
1804.142569920236
 30
0.0
  0
SPLINE
  5
21E
330
19B
100
AcDbEntity
  8
P-SANR-FIXT
100
AcDbSpline
210
0.0
220
0.0
230
1.0
 70
     8
 71
     3
 72
     8
 73
     4
 74
     0
 42
0.000000001
 43
0.0000000001
 40
-0.75
 40
-0.75
 40
-0.75
 40
-0.75
 40
-0.7144360348346304
 40
-0.7144360348346304
 40
-0.7144360348346304
 40
-0.7144360348346304
 10
730.7082770678844
 20
1803.142394733023
 30
0.0
 10
730.6556204130933
 20
1803.003607131462
 30
0.0
 10
730.599537579072
 20
1802.866465599356
 30
0.0
 10
730.5402057622066
 20
1802.731204069561
 30
0.0
  0
SPLINE
  5
21F
330
19B
100
AcDbEntity
  8
P-SANR-FIXT
100
AcDbSpline
210
0.0
220
0.0
230
1.0
 70
     8
 71
     3
 72
     9
 73
     5
 74
     0
 42
0.000000001
 43
0.0000000001
 40
-0.5
 40
-0.5
 40
-0.5
 40
-0.5
 40
-0.4583333333333333
 40
-0.4166666666666666
 40
-0.4166666666666666
 40
-0.4166666666666666
 40
-0.4166666666666666
 10
729.1437180388901
 20
1800.520191924808
 30
0.0
 10
729.0337807781577
 20
1800.393147685164
 30
0.0
 10
728.8070874767124
 20
1800.145995051595
 30
0.0
 10
728.5680884657027
 20
1799.913634583039
 30
0.0
 10
728.4453774003186
 20
1799.800954335362
 30
0.0
  0
SPLINE
  5
220
330
19B
100
AcDbEntity
  8
P-SANR-FIXT
100
AcDbSpline
210
0.0
220
0.0
230
1.0
 70
     8
 71
     3
 72
     9
 73
     5
 74
     0
 42
0.000000001
 43
0.0000000001
 40
-0.3619695701154012
 40
-0.3619695701154012
 40
-0.3619695701154012
 40
-0.3619695701154012
 40
-0.3541666666666666
 40
-0.3333333333333333
 40
-0.3333333333333333
 40
-0.3333333333333333
 40
-0.3333333333333333
 10
727.9454062522113
 20
1799.375291074295
 30
0.0
 10
727.920827122315
 20
1799.355907617606
 30
0.0
 10
727.8301892248134
 20
1799.285214724821
 30
0.0
 10
727.7379260658693
 20
1799.216133708732
 30
0.0
 10
727.6700439281236
 20
1799.166817174203
 30
0.0
  0
SPLINE
  5
221
330
19B
100
AcDbEntity
  8
P-SANR-FIXT
100
AcDbSpline
210
0.0
220
0.0
230
1.0
 70
     8
 71
     3
 72
     8
 73
     4
 74
     0
 42
0.000000001
 43
0.0000000001
 40
-0.2610505036266949
 40
-0.2610505036266949
 40
-0.2610505036266949
 40
-0.2610505036266949
 40
-0.25
 40
-0.25
 40
-0.25
 40
-0.25
 10
726.9386896732179
 20
1798.689372179782
 30
0.0
 10
726.9001744886934
 20
1798.666886878685
 30
0.0
 10
726.861469958954
 20
1798.64467919084
 30
0.0
 10
726.8225680879868
 20
1798.622765272719
 30
0.0
  0
SPLINE
  5
222
330
19B
100
AcDbEntity
  8
P-SANR-FIXT
100
AcDbSpline
210
0.0
220
0.0
230
1.0
 70
     8
 71
     3
 72
     8
 73
     4
 74
     0
 42
0.000000001
 43
0.0000000001
 40
-0.1666666666666666
 40
-0.1666666666666666
 40
-0.1666666666666666
 40
-0.1666666666666666
 40
-0.1608623441202795
 40
-0.1608623441202795
 40
-0.1608623441202795
 40
-0.1608623441202795
 10
725.908840592394
 20
1798.175770346747
 30
0.0
 10
725.8868446655181
 20
1798.166553478613
 30
0.0
 10
725.8647821286895
 20
1798.157453039124
 30
0.0
 10
725.8426600224622
 20
1798.148456199518
 30
0.0
  0
SPLINE
  5
223
330
19B
100
AcDbEntity
  8
P-SANR-FIXT
100
AcDbSpline
210
0.0
220
0.0
230
1.0
 70
     8
 71
     3
 72
     8
 73
     4
 74
     0
 42
0.000000001
 43
0.0000000001
 40
-0.0833333333333333
 40
-0.0833333333333333
 40
-0.0833333333333333
 40
-0.0833333333333333
 40
-0.0622483741806513
 40
-0.0622483741806513
 40
-0.0622483741806513
 40
-0.0622483741806513
 10
724.9323200919508
 20
1797.832933763078
 30
0.0
 10
724.8477323202033
 20
1797.80875270165
 30
0.0
 10
724.76197478748
 20
1797.787729856586
 30
0.0
 10
724.6755746558434
 20
1797.768426180244
 30
0.0
  0
ARC
  5
224
330
19B
100
AcDbEntity
  8
P-SANR-FIXT
100
AcDbCircle
 10
722.5271471287998
 20
1806.245878730052
 30
0.0
 40
8.749999999999944
100
AcDbArc
 50
336.1044918138065
 51
0.0
  0
ARC
  5
225
330
19B
100
AcDbEntity
  8
P-SANR-FIXT
100
AcDbCircle
 10
722.5271471287998
 20
1806.245878730052
 30
0.0
 40
8.750000000000056
100
AcDbArc
 50
276.1044918138215
 51
323.8955081861756
  0
ARC
  5
226
330
19B
100
AcDbEntity
  8
P-SANR-FIXT
100
AcDbCircle
 10
722.5271471287998
 20
1806.245878730052
 30
0.0
 40
8.74999999999995
100
AcDbArc
 50
216.1044918138529
 51
263.8955081861441
  0
ARC
  5
227
330
19B
100
AcDbEntity
  8
P-SANR-FIXT
100
AcDbCircle
 10
722.5271471287998
 20
1806.245878730052
 30
0.0
 40
8.75
100
AcDbArc
 50
180.0
 51
203.895508186128
  0
ARC
  5
228
330
19B
100
AcDbEntity
  8
P-SANR-FIXT
100
AcDbCircle
 10
722.5271471287998
 20
1806.245878730052
 30
0.0
 40
8.75
100
AcDbArc
 50
180.0
 51
193.2129803601569
  0
ARC
  5
229
330
19B
100
AcDbEntity
  8
P-SANR-FIXT
100
AcDbCircle
 10
722.5271471287998
 20
1806.245878730052
 30
0.0
 40
8.749999999999905
100
AcDbArc
 50
166.7870196398413
 51
180.0
  0
ARC
  5
22A
330
19B
100
AcDbEntity
  8
P-SANR-FIXT
100
AcDbCircle
 10
722.5271471287998
 20
1806.245878730052
 30
0.0
 40
8.750000000000083
100
AcDbArc
 50
156.1044918138688
 51
180.0
  0
ARC
  5
22B
330
19B
100
AcDbEntity
  8
P-SANR-FIXT
100
AcDbCircle
 10
722.5271471287998
 20
1806.245878730052
 30
0.0
 40
8.750000000000101
100
AcDbArc
 50
96.10449181385252
 51
143.8955081861434
  0
ARC
  5
22C
330
19B
100
AcDbEntity
  8
P-SANR-FIXT
100
AcDbCircle
 10
722.5271471287998
 20
1806.245878730052
 30
0.0
 40
8.749999999999969
100
AcDbArc
 50
36.10449181382101
 51
83.89550818617587
  0
ARC
  5
22D
330
19B
100
AcDbEntity
  8
P-SANR-FIXT
100
AcDbCircle
 10
722.5271471287998
 20
1806.245878730052
 30
0.0
 40
8.75
100
AcDbArc
 50
0.0
 51
23.89550818619111
  0
SPLINE
  5
22E
330
19B
100
AcDbEntity
  8
P-SANR-FIXT
100
AcDbSpline
210
0.0
220
0.0
230
1.0
 70
     8
 71
     3
 72
     8
 73
     4
 74
     0
 42
0.000000001
 43
0.0000000001
 40
-0.940850456807332
 40
-0.940850456807332
 40
-0.940850456807332
 40
-0.940850456807332
 40
-0.9166666666666666
 40
-0.9166666666666666
 40
-0.9166666666666666
 40
-0.9166666666666666
 10
724.6392472750661
 20
1814.7371344155
 30
0.0
 10
724.7375907758659
 20
1814.712674173039
 30
0.0
 10
724.8353006080678
 20
1814.686558584404
 30
0.0
 10
724.9323200919508
 20
1814.658823697026
 30
0.0
  0
SPLINE
  5
22F
330
19B
100
AcDbEntity
  8
P-SANR-FIXT
100
AcDbSpline
210
0.0
220
0.0
230
1.0
 70
     8
 71
     3
 72
     8
 73
     4
 74
     0
 42
0.000000001
 43
0.0000000001
 40
-0.844134550479986
 40
-0.844134550479986
 40
-0.844134550479986
 40
-0.844134550479986
 40
-0.8333333333333332
 40
-0.8333333333333332
 40
-0.8333333333333332
 40
-0.8333333333333332
 10
725.7855038066379
 20
1814.366566792386
 30
0.0
 10
725.8267937087191
 20
1814.350000285073
 30
0.0
 10
725.8679087972873
 20
1814.333138534971
 30
0.0
 10
725.908840592394
 20
1814.315987113357
 30
0.0
  0
SPLINE
  5
230
330
19B
100
AcDbEntity
  8
P-SANR-FIXT
100
AcDbSpline
210
0.0
220
0.0
230
1.0
 70
     8
 71
     3
 72
     8
 73
     4
 74
     0
 42
0.000000001
 43
0.0000000001
 40
-0.75
 40
-0.75
 40
-0.75
 40
-0.75
 40
-0.7449855802201081
 40
-0.7449855802201081
 40
-0.7449855802201081
 40
-0.7449855802201081
 10
726.8225680879868
 20
1813.868992187386
 30
0.0
 10
726.8402179345841
 20
1813.859047043211
 30
0.0
 10
726.857827871749
 20
1813.849043753673
 30
0.0
 10
726.8753981159075
 20
1813.838982258471
 30
0.0
  0
SPLINE
  5
231
330
19B
100
AcDbEntity
  8
P-SANR-FIXT
100
AcDbSpline
210
0.0
220
0.0
230
1.0
 70
     8
 71
     3
 72
     9
 73
     5
 74
     0
 42
0.000000001
 43
0.0000000001
 40
-0.6666666666666666
 40
-0.6666666666666666
 40
-0.6666666666666666
 40
-0.6666666666666666
 40
-0.6458333333333333
 40
-0.6433711618624559
 40
-0.6433711618624559
 40
-0.6433711618624559
 40
-0.6433711618624559
 10
727.6700439281236
 20
1813.324940285902
 30
0.0
 10
727.737908055951
 20
1813.275636953526
 30
0.0
 10
727.8129784832207
 20
1813.219428940739
 30
0.0
 10
727.8869632484695
 20
1813.162161833809
 30
0.0
 10
727.8947708837501
 20
1813.156097222343
 30
0.0
  0
SPLINE
  5
232
330
19B
100
AcDbEntity
  8
P-SANR-FIXT
100
AcDbSpline
210
0.0
220
0.0
230
1.0
 70
     8
 71
     3
 72
     9
 73
     5
 74
     0
 42
0.000000001
 43
0.0000000001
 40
-0.5833333333333333
 40
-0.5833333333333333
 40
-0.5833333333333333
 40
-0.5833333333333333
 40
-0.5416666666666666
 40
-0.5
 40
-0.5
 40
-0.5
 40
-0.5
 10
728.4453774003186
 20
1812.690803124743
 30
0.0
 10
728.5680893864895
 20
1812.57812219564
 30
0.0
 10
728.807087727774
 20
1812.345763032492
 30
0.0
 10
729.0337793552479
 20
1812.098609208401
 30
0.0
 10
729.1437180388901
 20
1811.971565535296
 30
0.0
  0
SPLINE
  5
233
330
19B
100
AcDbEntity
  8
P-SANR-FIXT
100
AcDbSpline
210
0.0
220
0.0
230
1.0
 70
     8
 71
     3
 72
     8
 73
     4
 74
     0
 42
0.000000001
 43
0.0000000001
 40
-0.2855639651653399
 40
-0.2855639651653399
 40
-0.2855639651653399
 40
-0.2855639651653399
 40
-0.25
 40
-0.25
 40
-0.25
 40
-0.25
 10
730.5402352962056
 20
1809.760550996491
 30
0.0
 10
730.5995630767927
 20
1809.625289793915
 30
0.0
 10
730.6542486649918
 20
1809.487790836816
 30
0.0
 10
730.7082770678844
 20
1809.349362727081
 30
0.0
  0
SPLINE
  5
234
330
19B
100
AcDbEntity
  8
P-SANR-FIXT
100
AcDbSpline
210
0.0
220
0.0
230
1.0
 70
     8
 71
     3
 72
     8
 73
     4
 74
     0
 42
0.000000001
 43
0.0000000001
 40
-0.1666666666666666
 40
-0.1666666666666666
 40
-0.1666666666666666
 40
-0.1666666666666666
 40
0.0
 40
0.0
 40
0.0
 40
0.0
 10
731.0205911917551
 20
1808.349187539868
 30
0.0
 10
731.1893180535133
 20
1807.667737775189
 30
0.0
 10
731.2771471287998
 20
1806.960370752688
 30
0.0
 10
731.2771471287998
 20
1806.245878730052
 30
0.0
  0
ELLIPSE
  5
235
330
19B
100
AcDbEntity
  8
P-SANR-FIXT
100
AcDbEllipse
 10
707.9740768560709
 20
1806.245878730052
 30
0.0
 11
0.0
 21
16.74999999999977
 31
0.0
210
0.0
220
0.0
230
1.0
 40
0.5735764363510468
 41
3.141592653589788
 42
3.150064817389223
  0
ELLIPSE
  5
236
330
19B
100
AcDbEntity
  8
P-SANR-FIXT
100
AcDbEllipse
 10
707.9740768560709
 20
1806.245878730052
 30
0.0
 11
0.0
 21
16.74999999999992
 31
0.0
210
0.0
220
0.0
230
1.0
 40
0.5735764363510491
 41
2.3719594377051
 42
3.06326903055613
  0
ELLIPSE
  5
237
330
19B
100
AcDbEntity
  8
P-SANR-FIXT
100
AcDbEllipse
 10
707.9740768560712
 20
1806.245878730052
 30
0.0
 11
0.0
 21
16.75000000000025
 31
0.0
210
0.0
220
0.0
230
1.0
 40
0.573576436351034
 41
0.0783236230336719
 42
0.7696332158847199
  0
ELLIPSE
  5
238
330
19B
100
AcDbEntity
  8
P-SANR-FIXT
100
AcDbEllipse
 10
707.9740768560712
 20
1806.245878730052
 30
0.0
 11
0.0
 21
16.75
 31
0.0
210
0.0
220
0.0
230
1.0
 40
0.5735764363510484
 41
6.274713143380171
 42
6.283185307179588
  0
SPLINE
  5
239
330
19B
100
AcDbEntity
  8
P-SANR-FIXT
100
AcDbSpline
210
0.0
220
0.0
230
1.0
 70
     8
 71
     3
 72
     8
 73
     4
 74
     0
 42
0.000000001
 43
0.0000000001
 40
0.4690868730841713
 40
0.4690868730841713
 40
0.4690868730841713
 40
0.4690868730841713
 40
0.4701866146811068
 40
0.4701866146811068
 40
0.4701866146811068
 40
0.4701866146811068
 10
685.2822399418641
 20
1794.039953550019
 30
0.0
 10
685.2749110203371
 20
1794.042351297741
 30
0.0
 10
685.2675818305154
 20
1794.044748924413
 30
0.0
 10
685.2602524411866
 20
1794.047146590443
 30
0.0
  0
SPLINE
  5
23A
330
19B
100
AcDbEntity
  8
P-SANR-FIXT
100
AcDbSpline
210
0.0
220
0.0
230
1.0
 70
     8
 71
     3
 72
     8
 73
     4
 74
     0
 42
0.000000001
 43
0.0000000001
 40
0.5298133853189185
 40
0.5298133853189185
 40
0.5298133853189185
 40
0.5298133853189185
 40
0.5309131269158373
 40
0.5309131269158373
 40
0.5309131269158373
 40
0.5309131269158373
 10
685.2602542869411
 20
1818.444606545897
 30
0.0
 10
685.2675824684622
 20
1818.447007041272
 30
0.0
 10
685.2749114590461
 20
1818.449403810391
 30
0.0
 10
685.2822412549123
 20
1818.451796870671
 30
0.0
  0
SPLINE
  5
23B
330
19B
100
AcDbEntity
  8
P-SANR-FIXT
100
AcDbSpline
210
0.0
220
0.0
230
1.0
 70
     8
 71
     3
 72
     8
 73
     4
 74
     0
 42
0.000000001
 43
0.0000000001
 40
0.0277777777777778
 40
0.0277777777777778
 40
0.0277777777777778
 40
0.0277777777777778
 40
0.0555555555555556
 40
0.0555555555555556
 40
0.0555555555555556
 40
0.0555555555555556
 10
694.9532260034754
 20
1805.081491705
 30
0.0
 10
694.9142542171321
 20
1804.698991042758
 30
0.0
 10
694.8611019790879
 20
1804.32250477923
 30
0.0
 10
694.7942221679455
 20
1803.953191072233
 30
0.0
  0
SPLINE
  5
23C
330
19B
100
AcDbEntity
  8
P-SANR-FIXT
100
AcDbSpline
210
0.0
220
0.0
230
1.0
 70
     8
 71
     3
 72
     8
 73
     4
 74
     0
 42
0.000000001
 43
0.0000000001
 40
0.0795294410965249
 40
0.0795294410965249
 40
0.0795294410965249
 40
0.0795294410965249
 40
0.0833333333333333
 40
0.0833333333333333
 40
0.0833333333333333
 40
0.0833333333333333
 10
694.5895090281364
 20
1803.012719624498
 30
0.0
 10
694.576967058184
 20
1802.963796773499
 30
0.0
 10
694.564145671595
 20
1802.91500138156
 30
0.0
 10
694.551041379416
 20
1802.866332330862
 30
0.0
  0
SPLINE
  5
23D
330
19B
100
AcDbEntity
  8
P-SANR-FIXT
100
AcDbSpline
210
0.0
220
0.0
230
1.0
 70
     8
 71
     3
 72
     8
 73
     4
 74
     0
 42
0.000000001
 43
0.0000000001
 40
0.1111111111111111
 40
0.1111111111111111
 40
0.1111111111111111
 40
0.1111111111111111
 40
0.1666666666666666
 40
0.1666666666666666
 40
0.1666666666666666
 40
0.1666666666666666
 10
694.2173433374499
 20
1801.819897188826
 30
0.0
 10
693.9628940439163
 20
1801.13516790728
 30
0.0
 10
693.6426653715265
 20
1800.475646532056
 30
0.0
 10
693.2735713606458
 20
1799.85749194979
 30
0.0
  0
SPLINE
  5
23E
330
19B
100
AcDbEntity
  8
P-SANR-FIXT
100
AcDbSpline
210
0.0
220
0.0
230
1.0
 70
     8
 71
     3
 72
     8
 73
     4
 74
     0
 42
0.000000001
 43
0.0000000001
 40
0.1944444444444444
 40
0.1944444444444444
 40
0.1944444444444444
 40
0.1944444444444444
 40
0.2222222222222222
 40
0.2222222222222222
 40
0.2222222222222222
 40
0.2222222222222222
 10
692.6847851848322
 20
1798.961293537217
 30
0.0
 10
692.4773093545219
 20
1798.672908008671
 30
0.0
 10
692.2591210339644
 20
1798.394872544474
 30
0.0
 10
692.0317240675354
 20
1798.127195510733
 30
0.0
  0
SPLINE
  5
23F
330
19B
100
AcDbEntity
  8
P-SANR-FIXT
100
AcDbSpline
210
0.0
220
0.0
230
1.0
 70
     8
 71
     3
 72
     8
 73
     4
 74
     0
 42
0.000000001
 43
0.0000000001
 40
0.2483464078708266
 40
0.2483464078708266
 40
0.2483464078708266
 40
0.2483464078708266
 40
0.25
 40
0.25
 40
0.25
 40
0.25
 10
691.3650848910531
 20
1797.399746840759
 30
0.0
 10
691.3504775107904
 20
1797.38499059546
 30
0.0
 10
691.3358349977751
 20
1797.370272231285
 30
0.0
 10
691.3211571937819
 20
1797.355591822517
 30
0.0
  0
SPLINE
  5
240
330
19B
100
AcDbEntity
  8
P-SANR-FIXT
100
AcDbSpline
210
0.0
220
0.0
230
1.0
 70
     8
 71
     3
 72
     8
 73
     4
 74
     0
 42
0.000000001
 43
0.0000000001
 40
0.2777777777777778
 40
0.2777777777777778
 40
0.2777777777777778
 40
0.2777777777777778
 40
0.3055555555555556
 40
0.3055555555555556
 40
0.3055555555555556
 40
0.3055555555555556
 10
690.5508382236903
 20
1796.648251446874
 30
0.0
 10
690.2836065263693
 20
1796.423416621513
 30
0.0
 10
690.0056661094737
 20
1796.209644469887
 30
0.0
 10
689.7194894148145
 20
1796.010020196236
 30
0.0
  0
SPLINE
  5
241
330
19B
100
AcDbEntity
  8
P-SANR-FIXT
100
AcDbSpline
210
0.0
220
0.0
230
1.0
 70
     8
 71
     3
 72
     8
 73
     4
 74
     0
 42
0.000000001
 43
0.0000000001
 40
0.3333333333333333
 40
0.3333333333333333
 40
0.3333333333333333
 40
0.3333333333333333
 40
0.335119889531537
 40
0.335119889531537
 40
0.335119889531537
 40
0.335119889531537
 10
688.8373177457326
 20
1795.455524389939
 30
0.0
 10
688.8178607954594
 20
1795.444505070092
 30
0.0
 10
688.7983625369827
 20
1795.433528249482
 30
0.0
 10
688.7788218505207
 20
1795.422591712273
 30
0.0
  0
SPLINE
  5
242
330
19B
100
AcDbEntity
  8
P-SANR-FIXT
100
AcDbSpline
210
0.0
220
0.0
230
1.0
 70
     8
 71
     3
 72
     8
 73
     4
 74
     0
 42
0.000000001
 43
0.0000000001
 40
0.3611111111111111
 40
0.3611111111111111
 40
0.3611111111111111
 40
0.3611111111111111
 40
0.3888888888888888
 40
0.3888888888888888
 40
0.3888888888888888
 40
0.3888888888888888
 10
687.8967348984032
 20
1794.966103875717
 30
0.0
 10
687.5723279678102
 20
1794.811149622589
 30
0.0
 10
687.2383166703853
 20
1794.666455120926
 30
0.0
 10
686.8970099573632
 20
1794.535767511528
 30
0.0
  0
SPLINE
  5
243
330
19B
100
AcDbEntity
  8
P-SANR-FIXT
100
AcDbSpline
210
0.0
220
0.0
230
1.0
 70
     8
 71
     3
 72
     8
 73
     4
 74
     0
 42
0.000000001
 43
0.0000000001
 40
0.4166666666666666
 40
0.4166666666666666
 40
0.4166666666666666
 40
0.4166666666666666
 40
0.4190192147863934
 40
0.4190192147863934
 40
0.4190192147863934
 40
0.4190192147863934
 10
685.8557648248039
 20
1794.190284902422
 30
0.0
 10
685.8260095457026
 20
1794.181975433866
 30
0.0
 10
685.796234655304
 20
1794.173799136581
 30
0.0
 10
685.7664383724757
 20
1794.165756543933
 30
0.0
  0
SPLINE
  5
244
330
19B
100
AcDbEntity
  8
P-SANR-FIXT
100
AcDbSpline
210
0.0
220
0.0
230
1.0
 70
     8
 71
     3
 72
     9
 73
     5
 74
     0
 42
0.000000001
 43
0.0000000001
 40
0.4444444444444445
 40
0.4444444444444445
 40
0.4444444444444445
 40
0.4444444444444445
 40
0.4583333333333333
 40
0.4722222222222223
 40
0.4722222222222223
 40
0.4722222222222223
 40
0.4722222222222223
 10
684.7906214029157
 20
1793.952519375896
 30
0.0
 10
684.6107530640388
 20
1793.922467677928
 30
0.0
 10
684.2481832740226
 20
1793.872086508036
 30
0.0
 10
683.8720701374437
 20
1793.835439618265
 30
0.0
 10
683.6822545021448
 20
1793.820825930805
 30
0.0
  0
SPLINE
  5
245
330
19B
100
AcDbEntity
  8
P-SANR-FIXT
100
AcDbSpline
210
0.0
220
0.0
230
1.0
 70
     8
 71
     3
 72
     9
 73
     5
 74
     0
 42
0.000000001
 43
0.0000000001
 40
0.5277777777777778
 40
0.5277777777777778
 40
0.5277777777777778
 40
0.5277777777777778
 40
0.5416666666666668
 40
0.5555555555555556
 40
0.5555555555555556
 40
0.5555555555555556
 40
0.5555555555555556
 10
681.3762039304257
 20
1793.820397500299
 30
0.0
 10
681.1863578738088
 20
1793.834947474121
 30
0.0
 10
680.8101677328007
 20
1793.871478474908
 30
0.0
 10
680.4475038460655
 20
1793.921779051733
 30
0.0
 10
680.2675689524874
 20
1793.951802658011
 30
0.0
  0
SPLINE
  5
246
330
19B
100
AcDbEntity
  8
P-SANR-FIXT
100
AcDbSpline
210
0.0
220
0.0
230
1.0
 70
     8
 71
     3
 72
     8
 73
     4
 74
     0
 42
0.000000001
 43
0.0000000001
 40
0.5810663034333413
 40
0.5810663034333413
 40
0.5810663034333413
 40
0.5810663034333413
 40
0.5833333333333334
 40
0.5833333333333334
 40
0.5833333333333334
 40
0.5833333333333334
 10
679.2879567622995
 20
1794.165868245781
 30
0.0
 10
679.259224175243
 20
1794.173628988723
 30
0.0
 10
679.2305110186307
 20
1794.181514058533
 30
0.0
 10
679.2018157105617
 20
1794.189522964614
 30
0.0
  0
SPLINE
  5
247
330
19B
100
AcDbEntity
  8
P-SANR-FIXT
100
AcDbSpline
210
0.0
220
0.0
230
1.0
 70
     8
 71
     3
 72
     8
 73
     4
 74
     0
 42
0.000000001
 43
0.0000000001
 40
0.6111111111111112
 40
0.6111111111111112
 40
0.6111111111111112
 40
0.6111111111111112
 40
0.6388888888888889
 40
0.6388888888888889
 40
0.6388888888888889
 40
0.6388888888888889
 10
678.1596733566809
 20
1794.53511316323
 30
0.0
 10
677.8180549101912
 20
1794.665845915769
 30
0.0
 10
677.4837404207626
 20
1794.810586865353
 30
0.0
 10
677.1590898425525
 20
1794.96555892915
 30
0.0
  0
SPLINE
  5
248
330
19B
100
AcDbEntity
  8
P-SANR-FIXT
100
AcDbSpline
210
0.0
220
0.0
230
1.0
 70
     8
 71
     3
 72
     8
 73
     4
 74
     0
 42
0.000000001
 43
0.0000000001
 40
0.6649116064030706
 40
0.6649116064030706
 40
0.6649116064030706
 40
0.6649116064030706
 40
0.6666666666666666
 40
0.6666666666666666
 40
0.6666666666666666
 40
0.6666666666666666
 10
676.2754897123151
 20
1795.422576891423
 30
0.0
 10
676.2562898216027
 20
1795.433317993339
 30
0.0
 10
676.2371313492028
 20
1795.444097783061
 30
0.0
 10
676.2180131198841
 20
1795.454918251136
 30
0.0
  0
SPLINE
  5
249
330
19B
100
AcDbEntity
  8
P-SANR-FIXT
100
AcDbSpline
210
0.0
220
0.0
230
1.0
 70
     8
 71
     3
 72
     8
 73
     4
 74
     0
 42
0.000000001
 43
0.0000000001
 40
0.6944444444444445
 40
0.6944444444444445
 40
0.6944444444444445
 40
0.6944444444444445
 40
0.7222222222222223
 40
0.7222222222222223
 40
0.7222222222222223
 40
0.7222222222222223
 10
675.3359340957557
 20
1796.009012805322
 30
0.0
 10
675.049868661454
 20
1796.208450601453
 30
0.0
 10
674.7718878824779
 20
1796.421854275067
 30
0.0
 10
674.5050456003816
 20
1796.646602426472
 30
0.0
  0
SPLINE
  5
24A
330
19B
100
AcDbEntity
  8
P-SANR-FIXT
100
AcDbSpline
210
0.0
220
0.0
230
1.0
 70
     8
 71
     3
 72
     8
 73
     4
 74
     0
 42
0.000000001
 43
0.0000000001
 40
0.7500000000000002
 40
0.7500000000000002
 40
0.7500000000000002
 40
0.7500000000000002
 40
0.7517342623720747
 40
0.7517342623720747
 40
0.7517342623720747
 40
0.7517342623720747
 10
673.7352070665451
 20
1797.353304094869
 30
0.0
 10
673.7198213024186
 20
1797.368689234946
 30
0.0
 10
673.7044770309365
 20
1797.384118065825
 30
0.0
 10
673.6891735234969
 20
1797.399590181257
 30
0.0
  0
SPLINE
  5
24B
330
19B
100
AcDbEntity
  8
P-SANR-FIXT
100
AcDbSpline
210
0.0
220
0.0
230
1.0
 70
     8
 71
     3
 72
     8
 73
     4
 74
     0
 42
0.000000001
 43
0.0000000001
 40
0.7777777777777778
 40
0.7777777777777778
 40
0.7777777777777778
 40
0.7777777777777778
 40
0.8055555555555557
 40
0.8055555555555557
 40
0.8055555555555557
 40
0.8055555555555557
 10
673.024843541533
 20
1798.124534842775
 30
0.0
 10
672.7974368106371
 20
1798.392161439378
 30
0.0
 10
672.577382237088
 20
1798.66929782287
 30
0.0
 10
672.3688756760691
 20
1798.957305057145
 30
0.0
  0
SPLINE
  5
24C
330
19B
100
AcDbEntity
  8
P-SANR-FIXT
100
AcDbSpline
210
0.0
220
0.0
230
1.0
 70
     8
 71
     3
 72
     8
 73
     4
 74
     0
 42
0.000000001
 43
0.0000000001
 40
0.8333333333333332
 40
0.8333333333333332
 40
0.8333333333333332
 40
0.8333333333333332
 40
0.8888888888888889
 40
0.8888888888888889
 40
0.8888888888888889
 40
0.8888888888888889
 10
671.7821958857858
 20
1799.855300376208
 30
0.0
 10
671.4127134919149
 20
1800.47377113259
 30
0.0
 10
671.1077277746604
 20
1801.140464348723
 30
0.0
 10
670.8374113941622
 20
1801.818681145312
 30
0.0
  0
SPLINE
  5
24D
330
19B
100
AcDbEntity
  8
P-SANR-FIXT
100
AcDbSpline
210
0.0
220
0.0
230
1.0
 70
     8
 71
     3
 72
     8
 73
     4
 74
     0
 42
0.000000001
 43
0.0000000001
 40
0.9166666666666669
 40
0.9166666666666669
 40
0.9166666666666669
 40
0.9166666666666669
 40
0.9204917155846171
 40
0.9204917155846171
 40
0.9204917155846171
 40
0.9204917155846171
 10
670.5034478346483
 20
1802.865477528884
 30
0.0
 10
670.4902621448487
 20
1802.914431711348
 30
0.0
 10
670.4771054299714
 20
1802.963399394812
 30
0.0
 10
670.4640804812749
 20
1803.012428860957
 30
0.0
  0
SPLINE
  5
24E
330
19B
100
AcDbEntity
  8
P-SANR-FIXT
100
AcDbSpline
210
0.0
220
0.0
230
1.0
 70
     8
 71
     3
 72
     8
 73
     4
 74
     0
 42
0.000000001
 43
0.0000000001
 40
0.9444444444444444
 40
0.9444444444444444
 40
0.9444444444444444
 40
0.9444444444444444
 40
0.9722222222222224
 40
0.9722222222222224
 40
0.9722222222222224
 40
0.9722222222222224
 10
670.2601332762301
 20
1803.952630995035
 30
0.0
 10
670.1932213885794
 20
1804.322040758656
 30
0.0
 10
670.1544666308154
 20
1804.704054782984
 30
0.0
 10
670.1226939554175
 20
1805.08936532112
 30
0.0
  0
SPLINE
  5
24F
330
19B
100
AcDbEntity
  8
P-SANR-FIXT
100
AcDbSpline
210
0.0
220
0.0
230
1.0
 70
     8
 71
     3
 72
    25
 73
    21
 74
     0
 42
0.000000001
 43
0.0000000001
 40
0.0
 40
0.0
 40
0.0
 40
0.0
 40
0.1111111111111111
 40
0.2222222222222222
 40
0.2777777777777778
 40
0.3333333333333333
 40
0.3611111111111111
 40
0.3888888888888888
 40
0.4444444444444445
 40
0.4791666666666666
 40
0.5138888888888889
 40
0.5486111111111111
 40
0.5833333333333333
 40
0.6180555555555555
 40
0.6527777777777777
 40
0.6875
 40
0.7222222222222223
 40
0.7916666666666668
 40
0.861111111111111
 40
1.0
 40
1.0
 40
1.0
 40
1.0
 10
673.7771471288001
 20
1789.495878730052
 30
0.0
 10
673.795575906437
 20
1789.495878730052
 30
0.0
 10
674.1463235405817
 20
1789.697743275337
 30
0.0
 10
675.4521591053094
 20
1790.325636433695
 30
0.0
 10
676.8684516855556
 20
1790.895999381586
 30
0.0
 10
677.8970843162866
 20
1791.243148798076
 30
0.0
 10
678.7846568829614
 20
1791.48261163654
 30
0.0
 10
679.7372010315532
 20
1791.704081343499
 30
0.0
 10
680.7856352219864
 20
1791.877675618179
 30
0.0
 10
681.930046140659
 20
1791.956053871736
 30
0.0
 10
682.9232227436127
 20
1791.962591308883
 30
0.0
 10
683.8919398684468
 20
1791.908394942905
 30
0.0
 10
684.8161508512401
 20
1791.790898553222
 30
0.0
 10
685.7393043024885
 20
1791.611558716548
 30
0.0
 10
686.6139471043925
 20
1791.39487993724
 30
0.0
 10
687.4105072117816
 20
1791.159738564524
 30
0.0
 10
688.420982431225
 20
1790.806545494388
 30
0.0
 10
689.4935074278857
 20
1790.364939543187
 30
0.0
 10
690.8468375967284
 20
1789.733218889283
 30
0.0
 10
691.2543405643837
 20
1789.495878730052
 30
0.0
 10
691.2771471288002
 20
1789.495878730052
 30
0.0
  0
SPLINE
  5
250
330
19B
100
AcDbEntity
  8
P-SANR-FIXT
100
AcDbSpline
210
0.0
220
0.0
230
1.0
 70
     8
 71
     3
 72
     8
 73
     4
 74
     0
 42
0.000000001
 43
0.0000000001
 40
0.0277777777777778
 40
0.0277777777777778
 40
0.0277777777777778
 40
0.0277777777777778
 40
0.0555555555555556
 40
0.0555555555555556
 40
0.0555555555555556
 40
0.0555555555555556
 10
670.1004919876209
 20
1807.410112436345
 30
0.0
 10
670.1392857726652
 20
1807.792566968367
 30
0.0
 10
670.1924622960079
 20
1808.169151554128
 30
0.0
 10
670.2601332762301
 20
1808.539126465069
 30
0.0
  0
SPLINE
  5
251
330
19B
100
AcDbEntity
  8
P-SANR-FIXT
100
AcDbSpline
210
0.0
220
0.0
230
1.0
 70
     8
 71
     3
 72
     8
 73
     4
 74
     0
 42
0.000000001
 43
0.0000000001
 40
0.07950828441538
 40
0.07950828441538
 40
0.07950828441538
 40
0.07950828441538
 40
0.0833333333333333
 40
0.0833333333333333
 40
0.0833333333333333
 40
0.0833333333333333
 10
670.4669503526498
 20
1809.480674283472
 30
0.0
 10
670.4796193987318
 20
1809.529923973552
 30
0.0
 10
670.492548672023
 20
1809.579028076979
 30
0.0
 10
670.5057358388835
 20
1809.62798335912
 30
0.0
  0
SPLINE
  5
252
330
19B
100
AcDbEntity
  8
P-SANR-FIXT
100
AcDbSpline
210
0.0
220
0.0
230
1.0
 70
     8
 71
     3
 72
     8
 73
     4
 74
     0
 42
0.000000001
 43
0.0000000001
 40
0.1111111111111111
 40
0.1111111111111111
 40
0.1111111111111111
 40
0.1111111111111111
 40
0.1666666666666666
 40
0.1666666666666666
 40
0.1666666666666666
 40
0.1666666666666666
 10
670.8374113941623
 20
1810.673076314792
 30
0.0
 10
671.0904965069511
 20
1811.356892216466
 30
0.0
 10
671.4122844310954
 20
1812.017666890093
 30
0.0
 10
671.7821958857858
 20
1812.636457083896
 30
0.0
  0
SPLINE
  5
253
330
19B
100
AcDbEntity
  8
P-SANR-FIXT
100
AcDbSpline
210
0.0
220
0.0
230
1.0
 70
     8
 71
     3
 72
     8
 73
     4
 74
     0
 42
0.000000001
 43
0.0000000001
 40
0.1944444444444444
 40
0.1944444444444444
 40
0.1944444444444444
 40
0.1944444444444444
 40
0.2222222222222222
 40
0.2222222222222222
 40
0.2222222222222222
 40
0.2222222222222222
 10
672.3717235532358
 20
1813.533197563669
 30
0.0
 10
672.5793088833588
 20
1813.821643969596
 30
0.0
 10
672.797492933623
 20
1814.099637804503
 30
0.0
 10
673.024843541533
 20
1814.367222617329
 30
0.0
  0
SPLINE
  5
254
330
19B
100
AcDbEntity
  8
P-SANR-FIXT
100
AcDbSpline
210
0.0
220
0.0
230
1.0
 70
     8
 71
     3
 72
     8
 73
     4
 74
     0
 42
0.000000001
 43
0.0000000001
 40
0.2482657376279241
 40
0.2482657376279241
 40
0.2482657376279241
 40
0.2482657376279241
 40
0.25
 40
0.25
 40
0.25
 40
0.25
 10
673.6891139717652
 20
1815.092133895535
 30
0.0
 10
673.7044232365792
 20
1815.107603238362
 30
0.0
 10
673.7197710185246
 20
1815.123030788607
 30
0.0
 10
673.7351575031555
 20
1815.138416465102
 30
0.0
  0
SPLINE
  5
255
330
19B
100
AcDbEntity
  8
P-SANR-FIXT
100
AcDbSpline
210
0.0
220
0.0
230
1.0
 70
     8
 71
     3
 72
     8
 73
     4
 74
     0
 42
0.000000001
 43
0.0000000001
 40
0.2777777777777778
 40
0.2777777777777778
 40
0.2777777777777778
 40
0.2777777777777778
 40
0.3055555555555556
 40
0.3055555555555556
 40
0.3055555555555556
 40
0.3055555555555556
 10
674.5050456003816
 20
1815.845155033633
 30
0.0
 10
674.772112298694
 20
1816.069769660297
 30
0.0
 10
675.0498704845617
 20
1816.283308215962
 30
0.0
 10
675.3359340957557
 20
1816.482744654783
 30
0.0
  0
SPLINE
  5
256
330
19B
100
AcDbEntity
  8
P-SANR-FIXT
100
AcDbSpline
210
0.0
220
0.0
230
1.0
 70
     8
 71
     3
 72
     8
 73
     4
 74
     0
 42
0.000000001
 43
0.0000000001
 40
0.3333333333333333
 40
0.3333333333333333
 40
0.3333333333333333
 40
0.3333333333333333
 40
0.3350883935969298
 40
0.3350883935969298
 40
0.3350883935969298
 40
0.3350883935969298
 10
676.2180131198841
 20
1817.036839208969
 30
0.0
 10
676.2371312982727
 20
1817.047659703278
 30
0.0
 10
676.2562898068412
 20
1817.058439455775
 30
0.0
 10
676.2754896925951
 20
1817.069180554
 30
0.0
  0
SPLINE
  5
257
330
19B
100
AcDbEntity
  8
P-SANR-FIXT
100
AcDbSpline
210
0.0
220
0.0
230
1.0
 70
     8
 71
     3
 72
     8
 73
     4
 74
     0
 42
0.000000001
 43
0.0000000001
 40
0.3611111111111111
 40
0.3611111111111111
 40
0.3611111111111111
 40
0.3611111111111111
 40
0.3888888888888888
 40
0.3888888888888888
 40
0.3888888888888888
 40
0.3888888888888888
 10
677.1590898425527
 20
1817.526198530954
 30
0.0
 10
677.4837400727824
 20
1817.681170839784
 30
0.0
 10
677.8180549068395
 20
1817.82591154184
 30
0.0
 10
678.1596733566809
 20
1817.956644296874
 30
0.0
  0
SPLINE
  5
258
330
19B
100
AcDbEntity
  8
P-SANR-FIXT
100
AcDbSpline
210
0.0
220
0.0
230
1.0
 70
     8
 71
     3
 72
     8
 73
     4
 74
     0
 42
0.000000001
 43
0.0000000001
 40
0.4166666666666666
 40
0.4166666666666666
 40
0.4166666666666666
 40
0.4166666666666666
 40
0.4189336965666591
 40
0.4189336965666591
 40
0.4189336965666591
 40
0.4189336965666591
 10
679.2018157105617
 20
1818.30223449549
 30
0.0
 10
679.2305110182624
 20
1818.310243401774
 30
0.0
 10
679.2592241751103
 20
1818.318128471282
 30
0.0
 10
679.2879567621154
 20
1818.325889214186
 30
0.0
  0
SPLINE
  5
259
330
19B
100
AcDbEntity
  8
P-SANR-FIXT
100
AcDbSpline
210
0.0
220
0.0
230
1.0
 70
     8
 71
     3
 72
     9
 73
     5
 74
     0
 42
0.000000001
 43
0.0000000001
 40
0.4444444444444445
 40
0.4444444444444445
 40
0.4444444444444445
 40
0.4444444444444445
 40
0.4583333333333333
 40
0.4722222222222223
 40
0.4722222222222223
 40
0.4722222222222223
 40
0.4722222222222223
 10
680.2675689524874
 20
1818.539954802093
 30
0.0
 10
680.4475038486444
 20
1818.56997840605
 30
0.0
 10
680.8101677315091
 20
1818.620278986352
 30
0.0
 10
681.1863578738133
 20
1818.656809985991
 30
0.0
 10
681.3762039304257
 20
1818.671359959805
 30
0.0
  0
SPLINE
  5
25A
330
19B
100
AcDbEntity
  8
P-SANR-FIXT
100
AcDbSpline
210
0.0
220
0.0
230
1.0
 70
     8
 71
     3
 72
     9
 73
     5
 74
     0
 42
0.000000001
 43
0.0000000001
 40
0.5277777777777778
 40
0.5277777777777778
 40
0.5277777777777778
 40
0.5277777777777778
 40
0.5416666666666668
 40
0.5555555555555556
 40
0.5555555555555556
 40
0.5555555555555556
 40
0.5555555555555556
 10
683.6822545021448
 20
1818.6709315293
 30
0.0
 10
683.8720701374561
 20
1818.656317841826
 30
0.0
 10
684.2481832727678
 20
1818.619670950884
 30
0.0
 10
684.610753066536
 20
1818.569289784557
 30
0.0
 10
684.7906214029157
 20
1818.539238084208
 30
0.0
  0
SPLINE
  5
25B
330
19B
100
AcDbEntity
  8
P-SANR-FIXT
100
AcDbSpline
210
0.0
220
0.0
230
1.0
 70
     8
 71
     3
 72
     8
 73
     4
 74
     0
 42
0.000000001
 43
0.0000000001
 40
0.580980785213607
 40
0.580980785213607
 40
0.580980785213607
 40
0.580980785213607
 40
0.5833333333333334
 40
0.5833333333333334
 40
0.5833333333333334
 40
0.5833333333333334
 10
685.7664383724758
 20
1818.326000916171
 30
0.0
 10
685.796234655304
 20
1818.317958323524
 30
0.0
 10
685.8260095453843
 20
1818.309782025963
 30
0.0
 10
685.8557648248039
 20
1818.301472557683
 30
0.0
  0
SPLINE
  5
25C
330
19B
100
AcDbEntity
  8
P-SANR-FIXT
100
AcDbSpline
210
0.0
220
0.0
230
1.0
 70
     8
 71
     3
 72
     8
 73
     4
 74
     0
 42
0.000000001
 43
0.0000000001
 40
0.6111111111111112
 40
0.6111111111111112
 40
0.6111111111111112
 40
0.6111111111111112
 40
0.6388888888888889
 40
0.6388888888888889
 40
0.6388888888888889
 40
0.6388888888888889
 10
686.8970099573632
 20
1817.955989948576
 30
0.0
 10
687.2383166703854
 20
1817.825302339178
 30
0.0
 10
687.5723276326377
 20
1817.680607583224
 30
0.0
 10
687.8967348984031
 20
1817.525653584387
 30
0.0
  0
SPLINE
  5
25D
330
19B
100
AcDbEntity
  8
P-SANR-FIXT
100
AcDbSpline
210
0.0
220
0.0
230
1.0
 70
     8
 71
     3
 72
     8
 73
     4
 74
     0
 42
0.000000001
 43
0.0000000001
 40
0.6648801104684683
 40
0.6648801104684683
 40
0.6648801104684683
 40
0.6648801104684683
 40
0.6666666666666666
 40
0.6666666666666666
 40
0.6666666666666666
 40
0.6666666666666666
 10
688.7788218505208
 20
1817.069165747831
 30
0.0
 10
688.7983625369828
 20
1817.058229210622
 30
0.0
 10
688.8178607513597
 20
1817.04725235652
 30
0.0
 10
688.8373177457326
 20
1817.036233070165
 30
0.0
  0
SPLINE
  5
25E
330
19B
100
AcDbEntity
  8
P-SANR-FIXT
100
AcDbSpline
210
0.0
220
0.0
230
1.0
 70
     8
 71
     3
 72
     8
 73
     4
 74
     0
 42
0.000000001
 43
0.0000000001
 40
0.6944444444444445
 40
0.6944444444444445
 40
0.6944444444444445
 40
0.6944444444444445
 40
0.7222222222222223
 40
0.7222222222222223
 40
0.7222222222222223
 40
0.7222222222222223
 10
689.7194894148145
 20
1816.481737263868
 30
0.0
 10
690.0056661094737
 20
1816.282112990217
 30
0.0
 10
690.2838211120895
 20
1816.068481520124
 30
0.0
 10
690.5508382236903
 20
1815.843506013231
 30
0.0
  0
SPLINE
  5
25F
330
19B
100
AcDbEntity
  8
P-SANR-FIXT
100
AcDbSpline
210
0.0
220
0.0
230
1.0
 70
     8
 71
     3
 72
     8
 73
     4
 74
     0
 42
0.000000001
 43
0.0000000001
 40
0.7500000000000002
 40
0.7500000000000002
 40
0.7500000000000002
 40
0.7500000000000002
 40
0.7516535921291722
 40
0.7516535921291722
 40
0.7516535921291722
 40
0.7516535921291722
 10
691.3211571937819
 20
1815.136165637587
 30
0.0
 10
691.335834997775
 20
1815.12148522882
 30
0.0
 10
691.350474913999
 20
1815.106765258488
 30
0.0
 10
691.3650775644344
 20
1815.092006087716
 30
0.0
  0
SPLINE
  5
260
330
19B
100
AcDbEntity
  8
P-SANR-FIXT
100
AcDbSpline
210
0.0
220
0.0
230
1.0
 70
     8
 71
     3
 72
     8
 73
     4
 74
     0
 42
0.000000001
 43
0.0000000001
 40
0.7777777777777778
 40
0.7777777777777778
 40
0.7777777777777778
 40
0.7777777777777778
 40
0.8055555555555557
 40
0.8055555555555557
 40
0.8055555555555557
 40
0.8055555555555557
 10
692.0317240675352
 20
1814.364561949372
 30
0.0
 10
692.2591210339644
 20
1814.096884915631
 30
0.0
 10
692.4790711208252
 20
1813.819786824409
 30
0.0
 10
692.6874278342872
 20
1813.531869982351
 30
0.0
  0
SPLINE
  5
261
330
19B
100
AcDbEntity
  8
P-SANR-FIXT
100
AcDbSpline
210
0.0
220
0.0
230
1.0
 70
     8
 71
     3
 72
     8
 73
     4
 74
     0
 42
0.000000001
 43
0.0000000001
 40
0.8333333333333332
 40
0.8333333333333332
 40
0.8333333333333332
 40
0.8333333333333332
 40
0.8888888888888889
 40
0.8888888888888889
 40
0.8888888888888889
 40
0.8888888888888889
 10
693.2735713606457
 20
1812.634265510315
 30
0.0
 10
693.6426653715265
 20
1812.016110928048
 30
0.0
 10
693.9472851582592
 20
1811.349788664681
 30
0.0
 10
694.2173433374497
 20
1810.671860271278
 30
0.0
  0
SPLINE
  5
262
330
19B
100
AcDbEntity
  8
P-SANR-FIXT
100
AcDbSpline
210
0.0
220
0.0
230
1.0
 70
     8
 71
     3
 72
     8
 73
     4
 74
     0
 42
0.000000001
 43
0.0000000001
 40
0.9166666666666669
 40
0.9166666666666669
 40
0.9166666666666669
 40
0.9166666666666669
 40
0.9204705589034743
 40
0.9204705589034743
 40
0.9204705589034743
 40
0.9204705589034743
 10
694.551041379416
 20
1809.625425129243
 30
0.0
 10
694.5641456715949
 20
1809.576756078545
 30
0.0
 10
694.5772215598371
 20
1809.528073558644
 30
0.0
 10
694.5901679786349
 20
1809.47933008159
 30
0.0
  0
SPLINE
  5
263
330
19B
100
AcDbEntity
  8
P-SANR-FIXT
100
AcDbSpline
210
0.0
220
0.0
230
1.0
 70
     8
 71
     3
 72
     8
 73
     4
 74
     0
 42
0.000000001
 43
0.0000000001
 40
0.9444444444444444
 40
0.9444444444444444
 40
0.9444444444444444
 40
0.9444444444444444
 40
0.9722222222222224
 40
0.9722222222222224
 40
0.9722222222222224
 40
0.9722222222222224
 10
694.7942221679455
 20
1808.538566387871
 30
0.0
 10
694.8611019790879
 20
1808.169252680874
 30
0.0
 10
694.8998473261299
 20
1807.787331097541
 30
0.0
 10
694.9316156669721
 20
1807.402112775396
 30
0.0
  0
SPLINE
  5
264
330
19B
100
AcDbEntity
  8
P-SANR-FIXT
100
AcDbSpline
210
0.0
220
0.0
230
1.0
 70
     8
 71
     3
 72
    25
 73
    21
 74
     0
 42
0.000000001
 43
0.0000000001
 40
0.0
 40
0.0
 40
0.0
 40
0.0
 40
0.1111111111111111
 40
0.2222222222222222
 40
0.2777777777777778
 40
0.3333333333333333
 40
0.3611111111111111
 40
0.3888888888888888
 40
0.4444444444444445
 40
0.4791666666666666
 40
0.5138888888888889
 40
0.5486111111111111
 40
0.5833333333333333
 40
0.6180555555555555
 40
0.6527777777777777
 40
0.6875
 40
0.7222222222222223
 40
0.7916666666666668
 40
0.861111111111111
 40
1.0
 40
1.0
 40
1.0
 40
1.0
 10
691.2771471288002
 20
1822.995878730052
 30
0.0
 10
691.2589018772672
 20
1822.995878730052
 30
0.0
 10
690.9084326254389
 20
1822.794181852462
 30
0.0
 10
689.5992761240201
 20
1822.164982669425
 30
0.0
 10
688.1843304774163
 20
1821.594988899168
 30
0.0
 10
687.1566321838137
 20
1821.248404992342
 30
0.0
 10
686.2686532875685
 20
1821.008980992851
 30
0.0
 10
685.3153512886706
 20
1820.787447814874
 30
0.0
 10
684.2661002951301
 20
1820.613743697328
 30
0.0
 10
683.1215373458668
 20
1820.53556967519
 30
0.0
 10
682.1283345321615
 20
1820.529256449441
 30
0.0
 10
681.1597474327384
 20
1820.583643611475
 30
0.0
 10
680.235956146835
 20
1820.70115076011
 30
0.0
 10
679.3136085410472
 20
1820.880390023656
 30
0.0
 10
678.4396062344996
 20
1821.097029334422
 30
0.0
 10
677.6430119447001
 20
1821.33234903735
 30
0.0
 10
676.6315452592031
 20
1821.686083133133
 30
0.0
 10
675.5581575312366
 20
1822.127860070657
 30
0.0
 10
674.207704134604
 20
1822.75841925881
 30
0.0
 10
673.8001831008463
 20
1822.995878730052
 30
0.0
 10
673.7771471288001
 20
1822.995878730052
 30
0.0
  0
ARC
  5
265
330
19B
100
AcDbEntity
  8
P-SANR-FIXT
100
AcDbCircle
 10
649.9980267811069
 20
1806.250272563259
 30
0.0
 40
50.89995541273889
100
AcDbArc
 50
357.7431609041993
 51
359.9950540605204
  0
ARC
  5
266
330
19B
100
AcDbEntity
  8
P-SANR-FIXT
100
AcDbCircle
 10
649.9980267811003
 20
1806.241484896845
 30
0.0
 40
50.89995541274547
100
AcDbArc
 50
0.0049459394789507
 51
2.256839095800032
  0
ELLIPSE
  5
267
330
19B
100
AcDbEntity
  8
P-SANR-FIXT
100
AcDbEllipse
 10
673.5696909959333
 20
1806.245878730052
 30
0.0
 11
0.0
 21
18.99999999999965
 31
0.0
210
0.0
220
0.0
230
1.0
 40
0.57357643635105
 41
2.650718801466383
 42
3.141592653589788
  0
ELLIPSE
  5
268
330
19B
100
AcDbEntity
  8
P-SANR-FIXT
100
AcDbEllipse
 10
673.5696909959333
 20
1806.245878730052
 30
0.0
 11
0.0000000000001699
 21
18.99999999999977
 31
0.0
210
0.0
220
0.0
230
1.0
 40
0.5735764363510411
 41
0.0000000000000052
 42
0.4908738521234102
  0
ELLIPSE
  5
269
330
19B
100
AcDbEntity
  8
P-SANR-FIXT
100
AcDbEllipse
 10
667.0164746416214
 20
1806.245878730052
 30
0.0
 11
0.0
 21
9.499999999999809
 31
0.0
210
0.0
220
0.0
230
1.0
 40
0.5735764363510424
 41
4.074197433972006
 42
4.077002077936526
  0
ELLIPSE
  5
26A
330
19B
100
AcDbEntity
  8
P-SANR-FIXT
100
AcDbEllipse
 10
667.0164746416214
 20
1806.245878730052
 30
0.0
 11
0.0
 21
9.499999999999905
 31
0.0
210
0.0
220
0.0
230
1.0
 40
0.573576436351038
 41
5.347775882832858
 42
5.350580526797378
  0
ARC
  5
26B
330
19B
100
AcDbEntity
  8
P-SANR-FIXT
100
AcDbCircle
 10
682.5271471288004
 20
1806.245878730052
 30
0.0
 40
12.50000000000011
100
AcDbArc
 50
179.9999999999995
 51
359.9999999999992
  0
ARC
  5
26C
330
19B
100
AcDbEntity
  8
P-SANR-FIXT
100
AcDbCircle
 10
682.5271471288004
 20
1806.245878730052
 30
0.0
 40
12.5
100
AcDbArc
 50
0.0
 51
180.0
  0
LINE
  5
26D
330
19B
100
AcDbEntity
  8
P-SANR-FIXT
100
AcDbLine
 10
673.7771471288001
 20
1831.745878730052
 30
0.0
 11
691.2771471288002
 21
1831.745878730052
 31
0.0
  0
LINE
  5
26E
330
19B
100
AcDbEntity
  8
P-SANR-FIXT
100
AcDbLine
 10
691.2771471288002
 20
1780.745878730052
 30
0.0
 11
673.7771471288001
 21
1780.745878730052
 31
0.0
  0
LINE
  5
26F
330
19B
100
AcDbEntity
  8
P-SANR-FIXT
100
AcDbLine
 10
700.8585012812549
 20
1808.245878730052
 30
0.0
 11
714.0087846100994
 21
1808.245878730052
 31
0.0
  0
LINE
  5
270
330
19B
100
AcDbEntity
  8
P-SANR-FIXT
100
AcDbLine
 10
714.0087846100994
 20
1804.245878730052
 30
0.0
 11
700.8585012812549
 21
1804.245878730052
 31
0.0
  0
LINE
  5
271
330
19B
100
AcDbEntity
  8
P-SANR-FIXT
100
AcDbLine
 10
726.1929804769389
 20
1794.768720973561
 30
0.0
 11
726.1929804769389
 21
1793.307486538877
 31
0.0
  0
LWPOLYLINE
  5
272
330
19B
100
AcDbEntity
  8
P-SANR-FIXT
100
AcDbPolyline
 90
        3
 70
   128
 43
0.0
 10
723.9071088331747
 20
1797.605380729678
 10
724.9699892768385
 20
1796.055473378206
 10
726.1929804769389
 20
1794.768720973561
  0
LINE
  5
273
330
19B
100
AcDbEntity
  8
P-SANR-FIXT
100
AcDbLine
 10
723.4647784291793
 20
1797.546234806588
 30
0.0
 11
723.9071088331747
 21
1797.605380729678
 31
0.0
  0
LINE
  5
274
330
19B
100
AcDbEntity
  8
P-SANR-FIXT
100
AcDbLine
 10
723.9071088331747
 20
1814.886376730426
 30
0.0
 11
723.4647784291796
 21
1814.945522653517
 31
0.0
  0
LWPOLYLINE
  5
275
330
19B
100
AcDbEntity
  8
P-SANR-FIXT
100
AcDbPolyline
 90
        3
 70
   128
 43
0.0
 10
726.1929804769389
 20
1817.723036486544
 10
724.9699892768385
 20
1816.436284081898
 10
723.9071088331747
 20
1814.886376730426
  0
LINE
  5
276
330
19B
100
AcDbEntity
  8
P-SANR-FIXT
100
AcDbLine
 10
726.1929804769389
 20
1819.184270921227
 30
0.0
 11
726.1929804769389
 21
1817.723036486544
 31
0.0
  0
SPLINE
  5
277
330
19B
100
AcDbEntity
  8
P-SANR-FIXT
100
AcDbSpline
210
0.0
220
0.0
230
1.0
 70
     8
 71
     3
 72
    12
 73
     8
 74
     0
 42
0.000000001
 43
0.0000000001
 40
0.0
 40
0.0
 40
0.0
 40
0.0
 40
0.2857142857142857
 40
0.4285714285714286
 40
0.5714285714285714
 40
0.7857142857142857
 40
1.0
 40
1.0
 40
1.0
 40
1.0
 10
726.1929804769389
 20
1793.307486538877
 30
0.0
 10
726.1926567116804
 20
1792.828695129841
 30
0.0
 10
726.0690314485201
 20
1792.128650842152
 30
0.0
 10
725.6887512538297
 20
1791.308983786478
 30
0.0
 10
725.2615489315639
 20
1790.701843701797
 30
0.0
 10
724.6872062280068
 20
1790.201976013851
 30
0.0
 10
724.262728949625
 20
1790.033765074004
 30
0.0
 10
724.0613335794886
 20
1790.001905602168
 30
0.0
  0
SPLINE
  5
278
330
19B
100
AcDbEntity
  8
P-SANR-FIXT
100
AcDbSpline
210
0.0
220
0.0
230
1.0
 70
     8
 71
     3
 72
     8
 73
     4
 74
     0
 42
0.000000001
 43
0.0000000001
 40
0.0
 40
0.0
 40
0.0
 40
0.0
 40
0.1428571428571428
 40
0.1428571428571428
 40
0.1428571428571428
 40
0.1428571428571428
 10
717.770286625854
 20
1798.901848626934
 30
0.0
 10
718.0039194830369
 20
1798.750520419543
 30
0.0
 10
718.2481458219117
 20
1798.608537740305
 30
0.0
 10
718.4995901723806
 20
1798.478124929441
 30
0.0
  0
SPLINE
  5
279
330
19B
100
AcDbEntity
  8
P-SANR-FIXT
100
AcDbSpline
210
0.0
220
0.0
230
1.0
 70
     8
 71
     3
 72
     8
 73
     4
 74
     0
 42
0.000000001
 43
0.0000000001
 40
0.273443589436174
 40
0.273443589436174
 40
0.273443589436174
 40
0.273443589436174
 40
0.2857142857142857
 40
0.2857142857142857
 40
0.2857142857142857
 40
0.2857142857142857
 10
719.2046455007901
 20
1798.151193793924
 30
0.0
 10
719.2271344872679
 20
1798.141968510397
 30
0.0
 10
719.2496673691817
 20
1798.132828588601
 30
0.0
 10
719.2722017884713
 20
1798.123820442187
 30
0.0
  0
SPLINE
  5
27A
330
19B
100
AcDbEntity
  8
P-SANR-FIXT
100
AcDbSpline
210
0.0
220
0.0
230
1.0
 70
     8
 71
     3
 72
     8
 73
     4
 74
     0
 42
0.000000001
 43
0.0000000001
 40
0.4285714285714286
 40
0.4285714285714286
 40
0.4285714285714286
 40
0.4285714285714286
 40
0.5714285714285714
 40
0.5714285714285714
 40
0.5714285714285714
 40
0.5714285714285714
 10
720.0652794443242
 20
1797.850045948854
 30
0.0
 10
720.3295047515628
 20
1797.772574714719
 30
0.0
 10
720.5868926802099
 20
1797.711761188458
 30
0.0
 10
720.845624273277
 20
1797.658971202522
 30
0.0
  0
SPLINE
  5
27B
330
19B
100
AcDbEntity
  8
P-SANR-FIXT
100
AcDbSpline
210
0.0
220
0.0
230
1.0
 70
     8
 71
     3
 72
     8
 73
     4
 74
     0
 42
0.000000001
 43
0.0000000001
 40
0.7142857142857143
 40
0.7142857142857143
 40
0.7142857142857143
 40
0.7142857142857143
 40
0.7181685026928636
 40
0.7181685026928636
 40
0.7181685026928636
 40
0.7181685026928636
 10
721.5778754104375
 20
1797.547570798217
 30
0.0
 10
721.5841893553507
 20
1797.546882024646
 30
0.0
 10
721.5905056340178
 20
1797.546195790669
 30
0.0
 10
721.5968221133656
 20
1797.545512923744
 30
0.0
  0
SPLINE
  5
27C
330
19B
100
AcDbEntity
  8
P-SANR-FIXT
100
AcDbSpline
210
0.0
220
0.0
230
1.0
 70
     8
 71
     3
 72
    12
 73
     8
 74
     0
 42
0.000000001
 43
0.0000000001
 40
0.0
 40
0.0
 40
0.0
 40
0.0
 40
0.2857142857142857
 40
0.4285714285714286
 40
0.5714285714285714
 40
0.7857142857142857
 40
1.0
 40
1.0
 40
1.0
 40
1.0
 10
724.0613335794886
 20
1822.489851857936
 30
0.0
 10
724.3298607396706
 20
1822.447372562156
 30
0.0
 10
724.7653831027202
 20
1822.24293501509
 30
0.0
 10
725.3225370592408
 20
1821.702946704807
 30
0.0
 10
725.7500541650463
 20
1821.096281536951
 30
0.0
 10
726.1014159650775
 20
1820.243965916315
 30
0.0
 10
726.1927376529952
 20
1819.543364478004
 30
0.0
 10
726.1929804769389
 20
1819.184270921227
 30
0.0
  0
SPLINE
  5
27D
330
19B
100
AcDbEntity
  8
P-SANR-FIXT
100
AcDbSpline
210
0.0
220
0.0
230
1.0
 70
     8
 71
     3
 72
     8
 73
     4
 74
     0
 42
0.000000001
 43
0.0000000001
 40
0.2818314973071365
 40
0.2818314973071365
 40
0.2818314973071365
 40
0.2818314973071365
 40
0.2857142857142857
 40
0.2857142857142857
 40
0.2857142857142857
 40
0.2857142857142857
 10
721.5963972258962
 20
1814.946254496123
 30
0.0
 10
721.5901206946262
 20
1814.945576837055
 30
0.0
 10
721.5838337750239
 20
1814.944892772252
 30
0.0
 10
721.5775364414813
 20
1814.944196932011
 30
0.0
  0
SPLINE
  5
27E
330
19B
100
AcDbEntity
  8
P-SANR-FIXT
100
AcDbSpline
210
0.0
220
0.0
230
1.0
 70
     8
 71
     3
 72
     8
 73
     4
 74
     0
 42
0.000000001
 43
0.0000000001
 40
0.4285714285714286
 40
0.4285714285714286
 40
0.4285714285714286
 40
0.4285714285714286
 40
0.5714285714285714
 40
0.5714285714285714
 40
0.5714285714285714
 40
0.5714285714285714
 10
720.8462367699073
 20
1814.832299125841
 30
0.0
 10
720.5923466862138
 20
1814.782634188028
 30
0.0
 10
720.3319016892922
 20
1814.716110163495
 30
0.0
 10
720.0658956704714
 20
1814.642588875036
 30
0.0
  0
SPLINE
  5
27F
330
19B
100
AcDbEntity
  8
P-SANR-FIXT
100
AcDbSpline
210
0.0
220
0.0
230
1.0
 70
     8
 71
     3
 72
     8
 73
     4
 74
     0
 42
0.000000001
 43
0.0000000001
 40
0.7142857142857143
 40
0.7142857142857143
 40
0.7142857142857143
 40
0.7142857142857143
 40
0.7282542173547978
 40
0.7282542173547978
 40
0.7282542173547978
 40
0.7282542173547978
 10
719.2716567043783
 20
1814.367568454881
 30
0.0
 10
719.2459269484036
 20
1814.357260616387
 30
0.0
 10
719.2201626037938
 20
1814.346929875452
 30
0.0
 10
719.1944095006858
 20
1814.33651690941
 30
0.0
  0
SPLINE
  5
280
330
19B
100
AcDbEntity
  8
P-SANR-FIXT
100
AcDbSpline
210
0.0
220
0.0
230
1.0
 70
     8
 71
     3
 72
     8
 73
     4
 74
     0
 42
0.000000001
 43
0.0000000001
 40
0.8571428571428569
 40
0.8571428571428569
 40
0.8571428571428569
 40
0.8571428571428569
 40
1.0
 40
1.0
 40
1.0
 40
1.0
 10
718.498376939288
 20
1814.013215736661
 30
0.0
 10
718.2473437598115
 20
1813.882976348528
 30
0.0
 10
718.0039194830369
 20
1813.741237040561
 30
0.0
 10
717.7702866258539
 20
1813.589908833171
 30
0.0
  0
LINE
  5
281
330
19B
100
AcDbEntity
  8
P-SANR-FIXT
100
AcDbLine
 10
722.9564329145262
 20
1797.256122686968
 30
0.0
 11
730.0978613430692
 21
1801.379228312585
 31
0.0
  0
ARC
  5
282
330
19B
100
AcDbEntity
  8
P-SANR-FIXT
100
AcDbCircle
 10
722.5271471287978
 20
1806.245878730052
 30
0.0
 40
8.999999999999895
100
AcDbArc
 50
327.2660444507323
 51
332.7339555492678
  0
LINE
  5
283
330
19B
100
AcDbEntity
  8
P-SANR-FIXT
100
AcDbLine
 10
730.5271471287977
 20
1802.122773104434
 30
0.0
 11
730.527147128798
 21
1810.36898435567
 31
0.0
  0
ARC
  5
284
330
19B
100
AcDbEntity
  8
P-SANR-FIXT
100
AcDbCircle
 10
722.5271471287978
 20
1806.245878730052
 30
0.0
 40
8.999999999999937
100
AcDbArc
 50
27.26604445073229
 51
32.73395554926674
  0
LINE
  5
285
330
19B
100
AcDbEntity
  8
P-SANR-FIXT
100
AcDbLine
 10
730.0978613430693
 20
1811.112529147519
 30
0.0
 11
722.9564329145266
 21
1815.235634773136
 31
0.0
  0
ARC
  5
286
330
19B
100
AcDbEntity
  8
P-SANR-FIXT
100
AcDbCircle
 10
722.5271471287978
 20
1806.245878730052
 30
0.0
 40
8.999999999999948
100
AcDbArc
 50
87.26604445073149
 51
92.7339555492656
  0
LINE
  5
287
330
19B
100
AcDbEntity
  8
P-SANR-FIXT
100
AcDbLine
 10
722.0978613430694
 20
1815.235634773136
 30
0.0
 11
714.9564329145265
 21
1811.112529147519
 31
0.0
  0
ARC
  5
288
330
19B
100
AcDbEntity
  8
P-SANR-FIXT
100
AcDbCircle
 10
722.5271471287978
 20
1806.245878730052
 30
0.0
 40
9.000000000000049
100
AcDbArc
 50
147.266044450731
 51
152.7339555492655
  0
LINE
  5
289
330
19B
100
AcDbEntity
  8
P-SANR-FIXT
100
AcDbLine
 10
714.5271471287978
 20
1810.36898435567
 30
0.0
 11
714.5271471287977
 21
1802.122773104435
 31
0.0
  0
ARC
  5
28A
330
19B
100
AcDbEntity
  8
P-SANR-FIXT
100
AcDbCircle
 10
722.5271471287978
 20
1806.245878730052
 30
0.0
 40
9.0
100
AcDbArc
 50
207.2660444507312
 51
212.7339555492657
  0
LINE
  5
28B
330
19B
100
AcDbEntity
  8
P-SANR-FIXT
100
AcDbLine
 10
714.9564329145264
 20
1801.379228312586
 30
0.0
 11
722.0978613430692
 21
1797.256122686968
 31
0.0
  0
ARC
  5
28C
330
19B
100
AcDbEntity
  8
P-SANR-FIXT
100
AcDbCircle
 10
722.5271471287978
 20
1806.245878730052
 30
0.0
 40
8.999999999999957
100
AcDbArc
 50
267.2660444507319
 51
272.7339555492667
  0
LINE
  5
28D
330
19B
100
AcDbEntity
  8
P-SANR-FIXT
100
AcDbLine
 10
682.9564329145288
 20
1797.256122686968
 30
0.0
 11
690.0978613430716
 21
1801.379228312585
 31
0.0
  0
ARC
  5
28E
330
19B
100
AcDbEntity
  8
P-SANR-FIXT
100
AcDbCircle
 10
682.5271471288001
 20
1806.245878730052
 30
0.0
 40
9.000000000000097
100
AcDbArc
 50
327.2660444507345
 51
332.733955549267
  0
LINE
  5
28F
330
19B
100
AcDbEntity
  8
P-SANR-FIXT
100
AcDbLine
 10
690.5271471288003
 20
1802.122773104434
 30
0.0
 11
690.5271471288003
 21
1810.36898435567
 31
0.0
  0
ARC
  5
290
330
19B
100
AcDbEntity
  8
P-SANR-FIXT
100
AcDbCircle
 10
682.5271471288001
 20
1806.245878730052
 30
0.0
 40
9.000000000000191
100
AcDbArc
 50
27.26604445073296
 51
32.73395554926669
  0
LINE
  5
291
330
19B
100
AcDbEntity
  8
P-SANR-FIXT
100
AcDbLine
 10
690.0978613430716
 20
1811.112529147519
 30
0.0
 11
682.9564329145288
 21
1815.235634773136
 31
0.0
  0
ARC
  5
292
330
19B
100
AcDbEntity
  8
P-SANR-FIXT
100
AcDbCircle
 10
682.5271471288001
 20
1806.245878730052
 30
0.0
 40
9.000000000000065
100
AcDbArc
 50
87.26604445073155
 51
92.73395554926629
  0
LINE
  5
293
330
19B
100
AcDbEntity
  8
P-SANR-FIXT
100
AcDbLine
 10
682.0978613430717
 20
1815.235634773136
 30
0.0
 11
674.9564329145288
 21
1811.112529147519
 31
0.0
  0
ARC
  5
294
330
19B
100
AcDbEntity
  8
P-SANR-FIXT
100
AcDbCircle
 10
682.5271471288001
 20
1806.245878730052
 30
0.0
 40
9.0
100
AcDbArc
 50
147.2660444507323
 51
152.7339555492663
  0
LINE
  5
295
330
19B
100
AcDbEntity
  8
P-SANR-FIXT
100
AcDbLine
 10
674.5271471288003
 20
1810.36898435567
 30
0.0
 11
674.5271471288003
 21
1802.122773104435
 31
0.0
  0
ARC
  5
296
330
19B
100
AcDbEntity
  8
P-SANR-FIXT
100
AcDbCircle
 10
682.5271471288001
 20
1806.245878730052
 30
0.0
 40
8.999999999999904
100
AcDbArc
 50
207.2660444507312
 51
212.7339555492667
  0
LINE
  5
297
330
19B
100
AcDbEntity
  8
P-SANR-FIXT
100
AcDbLine
 10
674.9564329145288
 20
1801.379228312585
 30
0.0
 11
682.0978613430716
 21
1797.256122686968
 31
0.0
  0
ARC
  5
298
330
19B
100
AcDbEntity
  8
P-SANR-FIXT
100
AcDbCircle
 10
682.5271471288001
 20
1806.245878730052
 30
0.0
 40
8.999999999999969
100
AcDbArc
 50
267.2660444507333
 51
272.7339555492681
  0
LINE
  5
299
330
19B
100
AcDbEntity
  8
P-SANR-FIXT
100
AcDbLine
 10
767.8271471288001
 20
1824.245878730052
 30
0.0
 11
767.8271471288001
 21
1814.24893061135
 31
0.0
  0
LINE
  5
29A
330
19B
100
AcDbEntity
  8
P-SANR-FIXT
100
AcDbLine
 10
767.8271471288001
 20
1798.231049848275
 30
0.0
 11
767.8271471288001
 21
1788.245878730052
 31
0.0
  0
LINE
  5
29B
330
19B
100
AcDbEntity
  8
P-SANR-FIXT
100
AcDbLine
 10
785.5271471288001
 20
1821.995878730052
 30
0.0
 11
785.5271471288
 21
1820.726983860914
 31
0.0
  0
LINE
  5
29C
330
19B
100
AcDbEntity
  8
P-SANR-FIXT
100
AcDbLine
 10
785.5271471288
 20
1820.726983860914
 30
0.0
 11
785.5271471288
 21
1814.245878730052
 31
0.0
  0
LINE
  5
29D
330
19B
100
AcDbEntity
  8
P-SANR-FIXT
100
AcDbLine
 10
785.5271471288
 20
1798.245878730052
 30
0.0
 11
785.5271471288
 21
1791.76477359919
 31
0.0
  0
LINE
  5
29E
330
19B
100
AcDbEntity
  8
P-SANR-FIXT
100
AcDbLine
 10
785.5271471288
 20
1791.76477359919
 30
0.0
 11
785.5271471288
 21
1790.495878730052
 31
0.0
  0
LINE
  5
29F
330
19B
100
AcDbEntity
  8
P-SANR-FIXT
100
AcDbLine
 10
785.5271471288
 20
1790.495878730052
 30
0.0
 11
785.3271471288002
 21
1790.495878730052
 31
0.0
  0
LINE
  5
2A0
330
19B
100
AcDbEntity
  8
P-SANR-FIXT
100
AcDbLine
 10
785.3271471288002
 20
1790.495878730052
 30
0.0
 11
767.8271471288001
 21
1790.495878730052
 31
0.0
  0
LINE
  5
2A1
330
19B
100
AcDbEntity
  8
P-SANR-FIXT
100
AcDbLine
 10
767.8271471288001
 20
1791.76477359919
 30
0.0
 11
785.3271471288002
 21
1791.76477359919
 31
0.0
  0
LINE
  5
2A2
330
19B
100
AcDbEntity
  8
P-SANR-FIXT
100
AcDbLine
 10
785.3271471288002
 20
1791.76477359919
 30
0.0
 11
785.5271471288
 21
1791.76477359919
 31
0.0
  0
LINE
  5
2A3
330
19B
100
AcDbEntity
  8
P-SANR-FIXT
100
AcDbLine
 10
785.5271471288
 20
1820.726983860914
 30
0.0
 11
785.3271471288002
 21
1820.726983860914
 31
0.0
  0
LINE
  5
2A4
330
19B
100
AcDbEntity
  8
P-SANR-FIXT
100
AcDbLine
 10
785.3271471288002
 20
1820.726983860914
 30
0.0
 11
767.8271471288001
 21
1820.726983860914
 31
0.0
  0
LINE
  5
2A5
330
19B
100
AcDbEntity
  8
P-SANR-FIXT
100
AcDbLine
 10
767.8271471288001
 20
1821.995878730052
 30
0.0
 11
785.3271471288002
 21
1821.995878730052
 31
0.0
  0
LINE
  5
2A6
330
19B
100
AcDbEntity
  8
P-SANR-FIXT
100
AcDbLine
 10
785.3271471288002
 20
1821.995878730052
 30
0.0
 11
785.5271471288
 21
1821.995878730052
 31
0.0
  0
LINE
  5
2A7
330
19B
100
AcDbEntity
  8
P-SANR-FIXT
100
AcDbLine
 10
626.0271471288002
 20
1790.745878730074
 30
0.0
 11
626.0271471288002
 21
1792.997299368038
 31
0.0
  0
LINE
  5
2A8
330
19B
100
AcDbEntity
  8
P-SANR-FIXT
100
AcDbLine
 10
626.0271471288002
 20
1792.997299368038
 30
0.0
 11
626.0271471288002
 21
1803.994458092089
 31
0.0
  0
LINE
  5
2A9
330
19B
100
AcDbEntity
  8
P-SANR-FIXT
100
AcDbLine
 10
626.0271471288002
 20
1803.994458092089
 30
0.0
 11
626.0271471288002
 21
1808.497299368016
 31
0.0
  0
LINE
  5
2AA
330
19B
100
AcDbEntity
  8
P-SANR-FIXT
100
AcDbLine
 10
626.0271471288002
 20
1808.497299368016
 30
0.0
 11
626.0271471288002
 21
1819.494458092066
 31
0.0
  0
LINE
  5
2AB
330
19B
100
AcDbEntity
  8
P-SANR-FIXT
100
AcDbLine
 10
626.0271471288002
 20
1819.494458092066
 30
0.0
 11
626.0271471288002
 21
1821.74587873003
 31
0.0
  0
LINE
  5
2AC
330
19B
100
AcDbEntity
  8
P-SANR-FIXT
100
AcDbLine
 10
638.9464194048212
 20
1790.745878730074
 30
0.0
 11
626.0271471288002
 21
1790.745878730074
 31
0.0
  0
LINE
  5
2AD
330
19B
100
AcDbEntity
  8
P-SANR-FIXT
100
AcDbLine
 10
638.9464194048212
 20
1792.997299368038
 30
0.0
 11
626.0271471288002
 21
1792.997299368038
 31
0.0
  0
LINE
  5
2AE
330
19B
100
AcDbEntity
  8
P-SANR-FIXT
100
AcDbLine
 10
638.946419404821
 20
1803.994458092089
 30
0.0
 11
626.0271471288002
 21
1803.994458092089
 31
0.0
  0
LINE
  5
2AF
330
19B
100
AcDbEntity
  8
P-SANR-FIXT
100
AcDbLine
 10
638.946419404821
 20
1808.497299368016
 30
0.0
 11
626.0271471288002
 21
1808.497299368016
 31
0.0
  0
LINE
  5
2B0
330
19B
100
AcDbEntity
  8
P-SANR-FIXT
100
AcDbLine
 10
638.9464194048207
 20
1819.494458092066
 30
0.0
 11
626.0271471288002
 21
1819.494458092066
 31
0.0
  0
LINE
  5
2B1
330
19B
100
AcDbEntity
  8
P-SANR-FIXT
100
AcDbLine
 10
638.9464194048207
 20
1821.74587873003
 30
0.0
 11
626.0271471288002
 21
1821.74587873003
 31
0.0
  0
ENDBLK
  5
2B3
330
19B
100
AcDbEntity
  8
0
100
AcDbBlockEnd
  0
BLOCK
  5
325
330
2B5
100
AcDbEntity
  8
0
100
AcDbBlockBegin
  2
Automatic flow rate regulator valve_Caleffi_121 DN15 - 1_2__-V2-Est - Idraulica
 70
     0
 10
0.0
 20
0.0
 30
0.0
  3
Automatic flow rate regulator valve_Caleffi_121 DN15 - 1_2__-V2-Est - Idraulica
  1

  0
ARC
  5
2B6
330
2B5
100
AcDbEntity
  8
M-PIPE
100
AcDbCircle
 10
1067.114353943053
 20
1999.98255885001
 30
0.0
 40
19.12435565296918
100
AcDbArc
 50
359.9999999999992
 51
179.9999999999983
1001
REVIT
1002
{
1070
     3
1000
790271
1002
}
  0
ARC
  5
2B7
330
2B5
100
AcDbEntity
  8
M-PIPE
100
AcDbCircle
 10
1067.114353943053
 20
1999.98255885001
 30
0.0
 40
19.1243556529688
100
AcDbArc
 50
180.0000000000004
 51
0.0000000000003562
1001
REVIT
1002
{
1070
     3
1000
790271
1002
}
  0
SPLINE
  5
2B8
330
2B5
100
AcDbEntity
  8
M-PIPE
100
AcDbSpline
210
0.0
220
0.0
230
1.0
 70
     8
 71
     3
 72
     9
 73
     5
 74
     0
 42
0.000000001
 43
0.0000000001
 40
0.0
 40
0.0
 40
0.0
 40
0.0
 40
0.5
 40
1.0
 40
1.0
 40
1.0
 40
1.0
 10
1092.229090652815
 20
2003.482558849993
 30
0.0
 10
1092.530608094603
 20
2002.960315321448
 30
0.0
 10
1093.001927791695
 20
2001.830484963056
 30
0.0
 10
1093.166912826324
 20
2000.601254442809
 30
0.0
 10
1093.166912826323
 20
1999.982558849987
 30
0.0
1001
REVIT
1002
{
1070
     3
1000
790271
1002
}
  0
SPLINE
  5
2B9
330
2B5
100
AcDbEntity
  8
M-PIPE
100
AcDbSpline
210
0.0
220
0.0
230
1.0
 70
     8
 71
     3
 72
     9
 73
     5
 74
     0
 42
0.000000001
 43
0.0000000001
 40
0.0
 40
0.0
 40
0.0
 40
0.0
 40
0.5
 40
1.0
 40
1.0
 40
1.0
 40
1.0
 10
1093.166912826323
 20
1999.982558849987
 30
0.0
 10
1093.166912826323
 20
1999.363863257168
 30
0.0
 10
1093.001927791693
 20
1998.134632736926
 30
0.0
 10
1092.530608094602
 20
1997.004802378538
 30
0.0
 10
1092.229090652815
 20
1996.482558849994
 30
0.0
1001
REVIT
1002
{
1070
     3
1000
790271
1002
}
  0
SPLINE
  5
2BA
330
2B5
100
AcDbEntity
  8
M-PIPE
100
AcDbSpline
210
0.0
220
0.0
230
1.0
 70
    24
 71
     3
 72
     9
 73
     5
 74
     0
 42
0.000000001
 43
0.0000000001
 40
0.0
 40
0.0
 40
0.0
 40
0.0
 40
0.5
 40
1.0
 40
1.0
 40
1.0
 40
1.0
 10
1082.702811211186
 20
2019.982558849994
 30
0.0
 10
1084.267120233649
 20
2017.27309614435
 30
0.0
 10
1087.419142496382
 20
2011.813633438707
 30
0.0
 10
1090.617973194734
 20
2006.27309614435
 30
0.0
 10
1092.229090652815
 20
2003.482558849993
 30
0.0
1001
REVIT
1002
{
1070
     3
1000
790271
1002
}
  0
SPLINE
  5
2BB
330
2B5
100
AcDbEntity
  8
M-PIPE
100
AcDbSpline
210
0.0
220
0.0
230
1.0
 70
     8
 71
     3
 72
     9
 73
     5
 74
     0
 42
0.000000001
 43
0.0000000001
 40
0.0
 40
0.0
 40
0.0
 40
0.0
 40
0.5
 40
1.0
 40
1.0
 40
1.0
 40
1.0
 10
1080.140633384701
 20
2022.544736676481
 30
0.0
 10
1080.676439485292
 20
2022.235388880071
 30
0.0
 10
1081.658491825613
 20
2021.477892388716
 30
0.0
 10
1082.401293769398
 20
2020.504802378538
 30
0.0
 10
1082.702811211186
 20
2019.982558849994
 30
0.0
1001
REVIT
1002
{
1070
     3
1000
790271
1002
}
  0
SPLINE
  5
2BC
330
2B5
100
AcDbEntity
  8
M-PIPE
100
AcDbSpline
210
0.0
220
0.0
230
1.0
 70
     8
 71
     3
 72
     8
 73
     4
 74
     0
 42
0.000000001
 43
0.0000000001
 40
0.2
 40
0.2
 40
0.2
 40
0.2
 40
0.2460800750595885
 40
0.2460800750595885
 40
0.2460800750595885
 40
0.2460800750595885
 10
1081.848534192998
 20
2021.158740054282
 30
0.0
 10
1081.77338336702
 20
2021.242438262857
 30
0.0
 10
1081.695769265169
 20
2021.323463654317
 30
0.0
 10
1081.616039351738
 20
2021.402369105619
 30
0.0
1001
REVIT
1002
{
1070
     3
1000
790271
1002
}
  0
SPLINE
  5
2BD
330
2B5
100
AcDbEntity
  8
M-PIPE
100
AcDbSpline
210
0.0
220
0.0
230
1.0
 70
     8
 71
     3
 72
     8
 73
     4
 74
     0
 42
0.000000001
 43
0.0000000001
 40
0.3725383325882599
 40
0.3725383325882599
 40
0.3725383325882599
 40
0.3725383325882599
 40
0.4
 40
0.4
 40
0.4
 40
0.4
 10
1080.921220528362
 20
2022.021137852457
 30
0.0
 10
1080.867840271918
 20
2022.06243331503
 30
0.0
 10
1080.813709467301
 20
2022.102545293446
 30
0.0
 10
1080.759209511706
 20
2022.142711735386
 30
0.0
1001
REVIT
1002
{
1070
     3
1000
790271
1002
}
  0
SPLINE
  5
2BE
330
2B5
100
AcDbEntity
  8
M-PIPE
100
AcDbSpline
210
0.0
220
0.0
230
1.0
 70
     8
 71
     3
 72
     8
 73
     4
 74
     0
 42
0.000000001
 43
0.0000000001
 40
0.6000000000000001
 40
0.6000000000000001
 40
0.6000000000000001
 40
0.6000000000000001
 40
0.6243444675304062
 40
0.6243444675304062
 40
0.6243444675304062
 40
0.6243444675304062
 10
1079.481112637695
 20
2022.879902056797
 30
0.0
 10
1079.426332014166
 20
2022.904252096394
 30
0.0
 10
1079.371356384061
 20
2022.928594024096
 30
0.0
 10
1079.316136793915
 20
2022.952407710684
 30
0.0
1001
REVIT
1002
{
1070
     3
1000
790271
1002
}
  0
SPLINE
  5
2BF
330
2B5
100
AcDbEntity
  8
M-PIPE
100
AcDbSpline
210
0.0
220
0.0
230
1.0
 70
     8
 71
     3
 72
     8
 73
     4
 74
     0
 42
0.000000001
 43
0.0000000001
 40
0.7488314589060947
 40
0.7488314589060947
 40
0.7488314589060947
 40
0.7488314589060947
 40
0.8
 40
0.8
 40
0.8
 40
0.8
 10
1078.448711135771
 20
2023.245032288703
 30
0.0
 10
1078.327808189246
 20
2023.2773374413
 30
0.0
 10
1078.206002088356
 20
2023.30110203238
 30
0.0
 10
1078.083610890662
 20
2023.319531801008
 30
0.0
1001
REVIT
1002
{
1070
     3
1000
790271
1002
}
  0
SPLINE
  5
2C0
330
2B5
100
AcDbEntity
  8
M-PIPE
100
AcDbSpline
210
0.0
220
0.0
230
1.0
 70
     8
 71
     3
 72
     9
 73
     5
 74
     0
 42
0.000000001
 43
0.0000000001
 40
0.0
 40
0.0
 40
0.0
 40
0.0
 40
0.5
 40
1.0
 40
1.0
 40
1.0
 40
1.0
 10
1076.640633384695
 20
2023.482558849994
 30
0.0
 10
1077.243668268272
 20
2023.482558849994
 30
0.0
 10
1078.457789909153
 20
2023.325818501783
 30
0.0
 10
1079.604827284109
 20
2022.854084472892
 30
0.0
 10
1080.140633384701
 20
2022.544736676481
 30
0.0
1001
REVIT
1002
{
1070
     3
1000
790271
1002
}
  0
SPLINE
  5
2C1
330
2B5
100
AcDbEntity
  8
M-PIPE
100
AcDbSpline
210
0.0
220
0.0
230
1.0
 70
    24
 71
     3
 72
     9
 73
     5
 74
     0
 42
0.000000001
 43
0.0000000001
 40
0.0
 40
0.0
 40
0.0
 40
0.0
 40
0.5
 40
1.0
 40
1.0
 40
1.0
 40
1.0
 10
1057.588074501437
 20
2023.482558849994
 30
0.0
 10
1060.716692546362
 20
2023.482558849994
 30
0.0
 10
1067.02073707183
 20
2023.482558849994
 30
0.0
 10
1073.418398468534
 20
2023.482558849994
 30
0.0
 10
1076.640633384695
 20
2023.482558849994
 30
0.0
1001
REVIT
1002
{
1070
     3
1000
790271
1002
}
  0
SPLINE
  5
2C2
330
2B5
100
AcDbEntity
  8
M-PIPE
100
AcDbSpline
210
0.0
220
0.0
230
1.0
 70
     8
 71
     3
 72
     9
 73
     5
 74
     0
 42
0.000000001
 43
0.0000000001
 40
0.0
 40
0.0
 40
0.0
 40
0.0
 40
0.5
 40
1.0
 40
1.0
 40
1.0
 40
1.0
 10
1054.088074501438
 20
2022.544736676486
 30
0.0
 10
1054.623880602029
 20
2022.854084472895
 30
0.0
 10
1055.770917976983
 20
2023.325818501784
 30
0.0
 10
1056.985039617861
 20
2023.482558849994
 30
0.0
 10
1057.588074501437
 20
2023.482558849994
 30
0.0
1001
REVIT
1002
{
1070
     3
1000
790271
1002
}
  0
SPLINE
  5
2C3
330
2B5
100
AcDbEntity
  8
M-PIPE
100
AcDbSpline
210
0.0
220
0.0
230
1.0
 70
     8
 71
     3
 72
     8
 73
     4
 74
     0
 42
0.000000001
 43
0.0000000001
 40
0.2
 40
0.2
 40
0.2
 40
0.2
 40
0.2508982807719544
 40
0.2508982807719544
 40
0.2508982807719544
 40
0.2508982807719544
 10
1056.142333189976
 20
2023.330823852519
 30
0.0
 10
1056.020764934356
 20
2023.305161109147
 30
0.0
 10
1055.900516299681
 20
2023.275273340258
 30
0.0
 10
1055.78117754215
 20
2023.241932366718
 30
0.0
1001
REVIT
1002
{
1070
     3
1000
790271
1002
}
  0
SPLINE
  5
2C4
330
2B5
100
AcDbEntity
  8
M-PIPE
100
AcDbSpline
210
0.0
220
0.0
230
1.0
 70
     8
 71
     3
 72
     8
 73
     4
 74
     0
 42
0.000000001
 43
0.0000000001
 40
0.375399826751087
 40
0.375399826751087
 40
0.375399826751087
 40
0.375399826751087
 40
0.4
 40
0.4
 40
0.4
 40
0.4
 10
1054.912306506573
 20
2022.950918831565
 30
0.0
 10
1054.856425868709
 20
2022.927830556235
 30
0.0
 10
1054.801071004133
 20
2022.903744073414
 30
0.0
 10
1054.745526376889
 20
2022.879426846102
 30
0.0
1001
REVIT
1002
{
1070
     3
1000
790271
1002
}
  0
SPLINE
  5
2C5
330
2B5
100
AcDbEntity
  8
M-PIPE
100
AcDbSpline
210
0.0
220
0.0
230
1.0
 70
     8
 71
     3
 72
     8
 73
     4
 74
     0
 42
0.000000001
 43
0.0000000001
 40
0.6000000000000001
 40
0.6000000000000001
 40
0.6000000000000001
 40
0.6000000000000001
 40
0.6271811010702692
 40
0.6271811010702692
 40
0.6271811010702692
 40
0.6271811010702692
 10
1053.468052394118
 20
2022.141157645416
 30
0.0
 10
1053.413925633162
 20
2022.101781990186
 30
0.0
 10
1053.359690380262
 20
2022.062185519164
 30
0.0
 10
1053.305936024032
 20
2022.021951510987
 30
0.0
1001
REVIT
1002
{
1070
     3
1000
790271
1002
}
  0
SPLINE
  5
2C6
330
2B5
100
AcDbEntity
  8
M-PIPE
100
AcDbSpline
210
0.0
220
0.0
230
1.0
 70
     8
 71
     3
 72
     8
 73
     4
 74
     0
 42
0.000000001
 43
0.0000000001
 40
0.7536678542129934
 40
0.7536678542129934
 40
0.7536678542129934
 40
0.7536678542129934
 40
0.8
 40
0.8
 40
0.8
 40
0.8
 10
1052.610632499488
 20
2021.404466852738
 30
0.0
 10
1052.530992997044
 20
2021.323899404473
 30
0.0
 10
1052.457125900783
 20
2021.239157618799
 30
0.0
 10
1052.387008448296
 20
2021.151686260121
 30
0.0
1001
REVIT
1002
{
1070
     3
1000
790271
1002
}
  0
SPLINE
  5
2C7
330
2B5
100
AcDbEntity
  8
M-PIPE
100
AcDbSpline
210
0.0
220
0.0
230
1.0
 70
     8
 71
     3
 72
     9
 73
     5
 74
     0
 42
0.000000001
 43
0.0000000001
 40
0.0
 40
0.0
 40
0.0
 40
0.0
 40
0.5
 40
1.0
 40
1.0
 40
1.0
 40
1.0
 10
1051.525896674946
 20
2019.982558849994
 30
0.0
 10
1051.827414116734
 20
2020.504802378539
 30
0.0
 10
1052.570216060522
 20
2021.47789238872
 30
0.0
 10
1053.552268400847
 20
2022.235388880076
 30
0.0
 10
1054.088074501438
 20
2022.544736676486
 30
0.0
1001
REVIT
1002
{
1070
     3
1000
790271
1002
}
  0
SPLINE
  5
2C8
330
2B5
100
AcDbEntity
  8
M-PIPE
100
AcDbSpline
210
0.0
220
0.0
230
1.0
 70
    24
 71
     3
 72
     9
 73
     5
 74
     0
 42
0.000000001
 43
0.0000000001
 40
0.0
 40
0.0
 40
0.0
 40
0.0
 40
0.5
 40
1.0
 40
1.0
 40
1.0
 40
1.0
 10
1041.999617233317
 20
2003.482558849995
 30
0.0
 10
1043.56392625578
 20
2006.192021555638
 30
0.0
 10
1046.715948518514
 20
2011.651484261281
 30
0.0
 10
1049.914779216866
 20
2017.192021555638
 30
0.0
 10
1051.525896674946
 20
2019.982558849994
 30
0.0
1001
REVIT
1002
{
1070
     3
1000
790271
1002
}
  0
SPLINE
  5
2C9
330
2B5
100
AcDbEntity
  8
M-PIPE
100
AcDbSpline
210
0.0
220
0.0
230
1.0
 70
     8
 71
     3
 72
     9
 73
     5
 74
     0
 42
0.000000001
 43
0.0000000001
 40
0.0
 40
0.0
 40
0.0
 40
0.0
 40
0.5
 40
1.0
 40
1.0
 40
1.0
 40
1.0
 10
1041.061795059808
 20
1999.982558849988
 30
0.0
 10
1041.061795059808
 20
2000.601254442809
 30
0.0
 10
1041.226780094437
 20
2001.830484963056
 30
0.0
 10
1041.698099791529
 20
2002.960315321448
 30
0.0
 10
1041.999617233317
 20
2003.482558849995
 30
0.0
1001
REVIT
1002
{
1070
     3
1000
790271
1002
}
  0
SPLINE
  5
2CA
330
2B5
100
AcDbEntity
  8
M-PIPE
100
AcDbSpline
210
0.0
220
0.0
230
1.0
 70
     8
 71
     3
 72
     9
 73
     5
 74
     0
 42
0.000000001
 43
0.0000000001
 40
0.0
 40
0.0
 40
0.0
 40
0.0
 40
0.5
 40
1.0
 40
1.0
 40
1.0
 40
1.0
 10
1041.999617233317
 20
1996.482558849994
 30
0.0
 10
1041.698099791529
 20
1997.004802378539
 30
0.0
 10
1041.226780094439
 20
1998.134632736927
 30
0.0
 10
1041.061795059809
 20
1999.363863257169
 30
0.0
 10
1041.061795059808
 20
1999.982558849988
 30
0.0
1001
REVIT
1002
{
1070
     3
1000
790271
1002
}
  0
SPLINE
  5
2CB
330
2B5
100
AcDbEntity
  8
M-PIPE
100
AcDbSpline
210
0.0
220
0.0
230
1.0
 70
    24
 71
     3
 72
     9
 73
     5
 74
     0
 42
0.000000001
 43
0.0000000001
 40
0.0
 40
0.0
 40
0.0
 40
0.0
 40
0.5
 40
1.0
 40
1.0
 40
1.0
 40
1.0
 10
1051.525896674945
 20
1979.982558849994
 30
0.0
 10
1049.961587652483
 20
1982.692021555638
 30
0.0
 10
1046.809565389749
 20
1988.151484261281
 30
0.0
 10
1043.610734691398
 20
1993.692021555638
 30
0.0
 10
1041.999617233317
 20
1996.482558849994
 30
0.0
1001
REVIT
1002
{
1070
     3
1000
790271
1002
}
  0
SPLINE
  5
2CC
330
2B5
100
AcDbEntity
  8
M-PIPE
100
AcDbSpline
210
0.0
220
0.0
230
1.0
 70
     8
 71
     3
 72
     9
 73
     5
 74
     0
 42
0.000000001
 43
0.0000000001
 40
0.0
 40
0.0
 40
0.0
 40
0.0
 40
0.5
 40
1.0
 40
1.0
 40
1.0
 40
1.0
 10
1054.088074501443
 20
1977.420381023499
 30
0.0
 10
1053.552268400849
 20
1977.72972881991
 30
0.0
 10
1052.570216060522
 20
1978.487225311267
 30
0.0
 10
1051.827414116734
 20
1979.460315321448
 30
0.0
 10
1051.525896674945
 20
1979.982558849994
 30
0.0
1001
REVIT
1002
{
1070
     3
1000
790271
1002
}
  0
SPLINE
  5
2CD
330
2B5
100
AcDbEntity
  8
M-PIPE
100
AcDbSpline
210
0.0
220
0.0
230
1.0
 70
     8
 71
     3
 72
     8
 73
     4
 74
     0
 42
0.000000001
 43
0.0000000001
 40
0.2
 40
0.2
 40
0.2
 40
0.2
 40
0.2460800750604344
 40
0.2460800750604344
 40
0.2460800750604344
 40
0.2460800750604344
 10
1052.380173693133
 20
1978.806377645706
 30
0.0
 10
1052.455324519113
 20
1978.722679437129
 30
0.0
 10
1052.532938620965
 20
1978.641654045668
 30
0.0
 10
1052.612668534397
 20
1978.562748594365
 30
0.0
1001
REVIT
1002
{
1070
     3
1000
790271
1002
}
  0
SPLINE
  5
2CE
330
2B5
100
AcDbEntity
  8
M-PIPE
100
AcDbSpline
210
0.0
220
0.0
230
1.0
 70
     8
 71
     3
 72
     8
 73
     4
 74
     0
 42
0.000000001
 43
0.0000000001
 40
0.3725383325897776
 40
0.3725383325897776
 40
0.3725383325897776
 40
0.3725383325897776
 40
0.4
 40
0.4
 40
0.4
 40
0.4
 10
1053.307487357778
 20
1977.943979847525
 30
0.0
 10
1053.36086761422
 20
1977.902684384954
 30
0.0
 10
1053.414998418833
 20
1977.86257240654
 30
0.0
 10
1053.469498374425
 20
1977.822405964602
 30
0.0
1001
REVIT
1002
{
1070
     3
1000
790271
1002
}
  0
SPLINE
  5
2CF
330
2B5
100
AcDbEntity
  8
M-PIPE
100
AcDbSpline
210
0.0
220
0.0
230
1.0
 70
     8
 71
     3
 72
     8
 73
     4
 74
     0
 42
0.000000001
 43
0.0000000001
 40
0.6000000000000001
 40
0.6000000000000001
 40
0.6000000000000001
 40
0.6000000000000001
 40
0.6243444675318846
 40
0.6243444675318846
 40
0.6243444675318846
 40
0.6243444675318846
 10
1054.747595248437
 20
1977.085215643191
 30
0.0
 10
1054.802375871969
 20
1977.060865603592
 30
0.0
 10
1054.857351502076
 20
1977.036523675889
 30
0.0
 10
1054.912571092227
 20
1977.012709989299
 30
0.0
1001
REVIT
1002
{
1070
     3
1000
790271
1002
}
  0
SPLINE
  5
2D0
330
2B5
100
AcDbEntity
  8
M-PIPE
100
AcDbSpline
210
0.0
220
0.0
230
1.0
 70
     8
 71
     3
 72
     8
 73
     4
 74
     0
 42
0.000000001
 43
0.0000000001
 40
0.7488314589071368
 40
0.7488314589071368
 40
0.7488314589071368
 40
0.7488314589071368
 40
0.8
 40
0.8
 40
0.8
 40
0.8
 10
1055.779996750368
 20
1976.720085411282
 30
0.0
 10
1055.90089969689
 20
1976.687780258686
 30
0.0
 10
1056.022705797778
 20
1976.664015667607
 30
0.0
 10
1056.145096995469
 20
1976.64558589898
 30
0.0
1001
REVIT
1002
{
1070
     3
1000
790271
1002
}
  0
SPLINE
  5
2D1
330
2B5
100
AcDbEntity
  8
M-PIPE
100
AcDbSpline
210
0.0
220
0.0
230
1.0
 70
     8
 71
     3
 72
     9
 73
     5
 74
     0
 42
0.000000001
 43
0.0000000001
 40
0.0
 40
0.0
 40
0.0
 40
0.0
 40
0.5
 40
1.0
 40
1.0
 40
1.0
 40
1.0
 10
1057.588074501436
 20
1976.482558849994
 30
0.0
 10
1056.985039617862
 20
1976.482558849994
 30
0.0
 10
1055.770917976986
 20
1976.639299198203
 30
0.0
 10
1054.623880602034
 20
1977.11103322709
 30
0.0
 10
1054.088074501443
 20
1977.420381023499
 30
0.0
1001
REVIT
1002
{
1070
     3
1000
790271
1002
}
  0
SPLINE
  5
2D2
330
2B5
100
AcDbEntity
  8
M-PIPE
100
AcDbSpline
210
0.0
220
0.0
230
1.0
 70
    24
 71
     3
 72
     9
 73
     5
 74
     0
 42
0.000000001
 43
0.0000000001
 40
0.0
 40
0.0
 40
0.0
 40
0.0
 40
0.5
 40
1.0
 40
1.0
 40
1.0
 40
1.0
 10
1076.640633384694
 20
1976.482558849994
 30
0.0
 10
1073.512015339769
 20
1976.482558849994
 30
0.0
 10
1067.207970814301
 20
1976.482558849994
 30
0.0
 10
1060.810309417598
 20
1976.482558849994
 30
0.0
 10
1057.588074501436
 20
1976.482558849994
 30
0.0
1001
REVIT
1002
{
1070
     3
1000
790271
1002
}
  0
SPLINE
  5
2D3
330
2B5
100
AcDbEntity
  8
M-PIPE
100
AcDbSpline
210
0.0
220
0.0
230
1.0
 70
     8
 71
     3
 72
     9
 73
     5
 74
     0
 42
0.000000001
 43
0.0000000001
 40
0.0
 40
0.0
 40
0.0
 40
0.0
 40
0.5
 40
1.0
 40
1.0
 40
1.0
 40
1.0
 10
1080.140633384695
 20
1977.420381023503
 30
0.0
 10
1079.604827284103
 20
1977.111033227093
 30
0.0
 10
1078.457789909148
 20
1976.639299198203
 30
0.0
 10
1077.24366826827
 20
1976.482558849994
 30
0.0
 10
1076.640633384694
 20
1976.482558849994
 30
0.0
1001
REVIT
1002
{
1070
     3
1000
790271
1002
}
  0
SPLINE
  5
2D4
330
2B5
100
AcDbEntity
  8
M-PIPE
100
AcDbSpline
210
0.0
220
0.0
230
1.0
 70
     8
 71
     3
 72
     8
 73
     4
 74
     0
 42
0.000000001
 43
0.0000000001
 40
0.2
 40
0.2
 40
0.2
 40
0.2
 40
0.2508982807719544
 40
0.2508982807719544
 40
0.2508982807719544
 40
0.2508982807719544
 10
1078.086374696156
 20
1976.634293847469
 30
0.0
 10
1078.207942951776
 20
1976.659956590841
 30
0.0
 10
1078.328191586451
 20
1976.689844359729
 30
0.0
 10
1078.447530343982
 20
1976.72318533327
 30
0.0
1001
REVIT
1002
{
1070
     3
1000
790271
1002
}
  0
SPLINE
  5
2D5
330
2B5
100
AcDbEntity
  8
M-PIPE
100
AcDbSpline
210
0.0
220
0.0
230
1.0
 70
     8
 71
     3
 72
     8
 73
     4
 74
     0
 42
0.000000001
 43
0.0000000001
 40
0.3753998267511112
 40
0.3753998267511112
 40
0.3753998267511112
 40
0.3753998267511112
 40
0.4
 40
0.4
 40
0.4
 40
0.4
 10
1079.316401379558
 20
1977.014198868422
 30
0.0
 10
1079.372282017422
 20
1977.037287143752
 30
0.0
 10
1079.427636881999
 20
1977.061373626573
 30
0.0
 10
1079.483181509242
 20
1977.085690853886
 30
0.0
1001
REVIT
1002
{
1070
     3
1000
790271
1002
}
  0
SPLINE
  5
2D6
330
2B5
100
AcDbEntity
  8
M-PIPE
100
AcDbSpline
210
0.0
220
0.0
230
1.0
 70
     8
 71
     3
 72
     8
 73
     4
 74
     0
 42
0.000000001
 43
0.0000000001
 40
0.6000000000000001
 40
0.6000000000000001
 40
0.6000000000000001
 40
0.6000000000000001
 40
0.6271811010705798
 40
0.6271811010705798
 40
0.6271811010705798
 40
0.6271811010705798
 10
1080.760655492014
 20
1977.823960054571
 30
0.0
 10
1080.814782252971
 20
1977.863335709802
 30
0.0
 10
1080.869017505871
 20
1977.902932180825
 30
0.0
 10
1080.922771862101
 20
1977.943166189001
 30
0.0
1001
REVIT
1002
{
1070
     3
1000
790271
1002
}
  0
SPLINE
  5
2D7
330
2B5
100
AcDbEntity
  8
M-PIPE
100
AcDbSpline
210
0.0
220
0.0
230
1.0
 70
     8
 71
     3
 72
     8
 73
     4
 74
     0
 42
0.000000001
 43
0.0000000001
 40
0.7536678542131798
 40
0.7536678542131798
 40
0.7536678542131798
 40
0.7536678542131798
 40
0.8
 40
0.8
 40
0.8
 40
0.8
 10
1081.618075386645
 20
1978.560650847251
 30
0.0
 10
1081.697714889089
 20
1978.641218295515
 30
0.0
 10
1081.771581985349
 20
1978.725960081189
 30
0.0
 10
1081.841699437836
 20
1978.813431439867
 30
0.0
1001
REVIT
1002
{
1070
     3
1000
790271
1002
}
  0
SPLINE
  5
2D8
330
2B5
100
AcDbEntity
  8
M-PIPE
100
AcDbSpline
210
0.0
220
0.0
230
1.0
 70
     8
 71
     3
 72
     9
 73
     5
 74
     0
 42
0.000000001
 43
0.0000000001
 40
0.0
 40
0.0
 40
0.0
 40
0.0
 40
0.5
 40
1.0
 40
1.0
 40
1.0
 40
1.0
 10
1082.702811211185
 20
1979.982558849993
 30
0.0
 10
1082.401293769398
 20
1979.460315321449
 30
0.0
 10
1081.658491825611
 20
1978.487225311269
 30
0.0
 10
1080.676439485287
 20
1977.729728819913
 30
0.0
 10
1080.140633384695
 20
1977.420381023503
 30
0.0
1001
REVIT
1002
{
1070
     3
1000
790271
1002
}
  0
SPLINE
  5
2D9
330
2B5
100
AcDbEntity
  8
M-PIPE
100
AcDbSpline
210
0.0
220
0.0
230
1.0
 70
    24
 71
     3
 72
     9
 73
     5
 74
     0
 42
0.000000001
 43
0.0000000001
 40
0.0
 40
0.0
 40
0.0
 40
0.0
 40
0.5
 40
1.0
 40
1.0
 40
1.0
 40
1.0
 10
1092.229090652815
 20
1996.482558849994
 30
0.0
 10
1090.617973194734
 20
1993.692021555637
 30
0.0
 10
1087.419142496382
 20
1988.15148426128
 30
0.0
 10
1084.267120233648
 20
1982.692021555637
 30
0.0
 10
1082.702811211186
 20
1979.982558849993
 30
0.0
1001
REVIT
1002
{
1070
     3
1000
790271
1002
}
  0
LINE
  5
2DA
330
2B5
100
AcDbEntity
  8
M-PIPE
100
AcDbLine
 10
1075.114353943097
 20
2050.002558850009
 30
0.0
 11
1075.114353943097
 21
2034.002558850045
 31
0.0
1001
REVIT
1002
{
1070
     3
1000
856288
1002
}
  0
LINE
  5
2DB
330
2B5
100
AcDbEntity
  8
M-PIPE
100
AcDbLine
 10
1075.114353943097
 20
2034.002558850045
 30
0.0
 11
1075.114353943097
 21
2031.002558850045
 31
0.0
1001
REVIT
1002
{
1070
     3
1000
856288
1002
}
  0
LINE
  5
2DC
330
2B5
100
AcDbEntity
  8
M-PIPE
100
AcDbLine
 10
1059.114353943097
 20
2034.002558850045
 30
0.0
 11
1059.114353943097
 21
2050.002558850009
 31
0.0
1001
REVIT
1002
{
1070
     3
1000
856288
1002
}
  0
LINE
  5
2DD
330
2B5
100
AcDbEntity
  8
M-PIPE
100
AcDbLine
 10
1075.114353943097
 20
2031.002558850045
 30
0.0
 11
1067.114353943117
 21
2031.002558850045
 31
0.0
1001
REVIT
1002
{
1070
     3
1000
856288
1002
}
  0
LINE
  5
2DE
330
2B5
100
AcDbEntity
  8
M-PIPE
100
AcDbLine
 10
1067.114353943117
 20
2031.002558850045
 30
0.0
 11
1054.614353943114
 21
2031.002558850026
 31
0.0
1001
REVIT
1002
{
1070
     3
1000
856288
1002
}
  0
LINE
  5
2DF
330
2B5
100
AcDbEntity
  8
M-PIPE
100
AcDbLine
 10
1054.614353943114
 20
2034.002558850045
 30
0.0
 11
1067.114353943114
 21
2034.002558850045
 31
0.0
1001
REVIT
1002
{
1070
     3
1000
856288
1002
}
  0
LINE
  5
2E0
330
2B5
100
AcDbEntity
  8
M-PIPE
100
AcDbLine
 10
1067.114353943114
 20
2034.002558850045
 30
0.0
 11
1075.114353943097
 21
2034.002558850045
 31
0.0
1001
REVIT
1002
{
1070
     3
1000
856288
1002
}
  0
LINE
  5
2E1
330
2B5
100
AcDbEntity
  8
M-PIPE
100
AcDbLine
 10
1067.114353943114
 20
2034.002558850045
 30
0.0
 11
1067.114353943119
 21
2031.002558850031
 31
0.0
1001
REVIT
1002
{
1070
     3
1000
856288
1002
}
  0
LINE
  5
2E2
330
2B5
100
AcDbEntity
  8
M-PIPE
100
AcDbLine
 10
1054.614353943114
 20
2031.002558850008
 30
0.0
 11
1054.614353943114
 21
2034.002558850045
 31
0.0
1001
REVIT
1002
{
1070
     3
1000
856288
1002
}
  0
LINE
  5
2E3
330
2B5
100
AcDbEntity
  8
M-PIPE
100
AcDbLine
 10
1059.114353943097
 20
2050.002558850009
 30
0.0
 11
1075.114353943097
 21
2050.002558850009
 31
0.0
1001
REVIT
1002
{
1070
     3
1000
856288
1002
}
  0
LINE
  5
2E4
330
2B5
100
AcDbEntity
  8
P-SANR-FIXT
100
AcDbLine
 10
1063.114353943098
 20
2031.00255885003
 30
0.0
 11
1063.114353943098
 21
2029.982558850011
 31
0.0
  0
LINE
  5
2E5
330
2B5
100
AcDbEntity
  8
P-SANR-FIXT
100
AcDbLine
 10
1071.114353943098
 20
2029.982558850011
 30
0.0
 11
1071.114353943098
 21
2031.002558850039
 31
0.0
  0
LINE
  5
2E6
330
2B5
100
AcDbEntity
  8
P-SANR-FIXT
100
AcDbLine
 10
1085.614353943098
 20
1983.489851940543
 30
0.0
 11
1085.614353943098
 21
1985.025498790072
 31
0.0
  0
LINE
  5
2E7
330
2B5
100
AcDbEntity
  8
P-SANR-FIXT
100
AcDbLine
 10
1048.614353943098
 20
1985.025498789966
 30
0.0
 11
1048.614353943098
 21
1983.489851940543
 31
0.0
  0
LINE
  5
2E8
330
2B5
100
AcDbEntity
  8
P-SANR-FIXT
100
AcDbLine
 10
1084.864353943098
 20
1977.53939309256
 30
0.0
 11
1084.864353943098
 21
1983.489851940543
 31
0.0
  0
LINE
  5
2E9
330
2B5
100
AcDbEntity
  8
P-SANR-FIXT
100
AcDbLine
 10
1049.364353943098
 20
1983.489851940543
 30
0.0
 11
1049.364353943098
 21
1977.53939309256
 31
0.0
  0
LINE
  5
2EA
330
2B5
100
AcDbEntity
  8
P-SANR-FIXT
100
AcDbLine
 10
1086.114353943098
 20
1966.282558850011
 30
0.0
 11
1086.114353943098
 21
1972.018323213522
 31
0.0
  0
LINE
  5
2EB
330
2B5
100
AcDbEntity
  8
P-SANR-FIXT
100
AcDbLine
 10
1048.114353943098
 20
1972.018323213522
 30
0.0
 11
1048.114353943098
 21
1966.282558850011
 31
0.0
  0
LINE
  5
2EC
330
2B5
100
AcDbEntity
  8
P-SANR-FIXT
100
AcDbLine
 10
1086.114353943098
 20
1964.561829540958
 30
0.0
 11
1086.114353943098
 21
1966.282558850011
 31
0.0
  0
LINE
  5
2ED
330
2B5
100
AcDbEntity
  8
P-SANR-FIXT
100
AcDbLine
 10
1048.114353943098
 20
1966.282558850011
 30
0.0
 11
1048.114353943098
 21
1964.561829540959
 31
0.0
  0
LINE
  5
2EE
330
2B5
100
AcDbEntity
  8
P-SANR-FIXT
100
AcDbLine
 10
1076.614353943098
 20
1959.97321805015
 30
0.0
 11
1076.614353943098
 21
1964.561829540958
 31
0.0
  0
LINE
  5
2EF
330
2B5
100
AcDbEntity
  8
P-SANR-FIXT
100
AcDbLine
 10
1057.614353943098
 20
1964.561829540958
 30
0.0
 11
1057.614353943098
 21
1959.97321805015
 31
0.0
  0
LINE
  5
2F0
330
2B5
100
AcDbEntity
  8
P-SANR-FIXT
100
AcDbLine
 10
1079.614353943098
 20
2022.803855362553
 30
0.0
 11
1079.614353943098
 21
2024.482558850012
 31
0.0
  0
LINE
  5
2F1
330
2B5
100
AcDbEntity
  8
P-SANR-FIXT
100
AcDbLine
 10
1054.614353943098
 20
2024.482558850012
 30
0.0
 11
1054.614353943098
 21
2022.803855362589
 31
0.0
  0
LINE
  5
2F2
330
2B5
100
AcDbEntity
  8
P-SANR-FIXT
100
AcDbLine
 10
1041.614353943098
 20
1991.232558850011
 30
0.0
 11
1045.030706146555
 21
1991.232558850011
 31
0.0
  0
LINE
  5
2F3
330
2B5
100
AcDbEntity
  8
P-SANR-FIXT
100
AcDbLine
 10
1089.198001739581
 20
1991.232558850011
 30
0.0
 11
1092.614353943098
 21
1991.232558850011
 31
0.0
  0
LINE
  5
2F4
330
2B5
100
AcDbEntity
  8
P-SANR-FIXT
100
AcDbLine
 10
1092.614353943098
 20
2008.732558850012
 30
0.0
 11
1089.198001739561
 21
2008.732558850012
 31
0.0
  0
LINE
  5
2F5
330
2B5
100
AcDbEntity
  8
P-SANR-FIXT
100
AcDbLine
 10
1045.030706146574
 20
2008.732558850012
 30
0.0
 11
1041.614353943098
 21
2008.732558850012
 31
0.0
  0
LINE
  5
2F6
330
2B5
100
AcDbEntity
  8
P-SANR-FIXT
100
AcDbLine
 10
1076.114353943098
 20
2024.482558850012
 30
0.0
 11
1076.114353943098
 21
2029.982558850011
 31
0.0
  0
LINE
  5
2F7
330
2B5
100
AcDbEntity
  8
P-SANR-FIXT
100
AcDbLine
 10
1058.114353943098
 20
2029.982558850011
 30
0.0
 11
1058.114353943098
 21
2024.482558850012
 31
0.0
  0
ELLIPSE
  5
2F8
330
2B5
100
AcDbEntity
  8
P-SANR-FIXT
100
AcDbEllipse
 10
1067.114353943096
 20
1983.489851940542
 30
0.0
 11
18.49999999999988
 21
0.0
 31
0.0
210
0.0
220
0.0
230
1.0
 40
0.8191520442889938
 41
5.992192922345915
 42
6.372068094561835
  0
ELLIPSE
  5
2F9
330
2B5
100
AcDbEntity
  8
P-SANR-FIXT
100
AcDbEllipse
 10
1067.114353943096
 20
1983.489851940542
 30
0.0
 11
18.49999999999975
 21
0.0
 31
0.0
210
0.0
220
0.0
230
1.0
 40
0.8191520442889874
 41
3.052709866213146
 42
3.432585038423456
  0
ELLIPSE
  5
2FA
330
2B5
100
AcDbEntity
  8
P-SANR-FIXT
100
AcDbEllipse
 10
1067.114353943096
 20
1983.489851940542
 30
0.0
 11
17.75
 21
0.0
 31
0.0
210
0.0
220
0.0
230
1.0
 40
0.8191520442889819
 41
0.0000000000000156
 42
0.0155992005338556
  0
ELLIPSE
  5
2FB
330
2B5
100
AcDbEntity
  8
P-SANR-FIXT
100
AcDbEllipse
 10
1067.114353943096
 20
1983.489851940542
 30
0.0
 11
17.75
 21
0.0
 31
0.0
210
0.0
220
0.0
230
1.0
 40
0.8191520442890027
 41
3.125993453062991
 42
3.141592653589793
  0
ELLIPSE
  5
2FC
330
2B5
100
AcDbEntity
  8
P-SANR-FIXT
100
AcDbEllipse
 10
1067.114353943096
 20
1972.018323213521
 30
0.0
 11
18.99999999999986
 21
0.0
 31
0.0
210
0.0
220
0.0
230
1.0
 40
0.8191520442889942
 41
0.0058563955432362
 42
0.5781668998602064
  0
ELLIPSE
  5
2FD
330
2B5
100
AcDbEntity
  8
P-SANR-FIXT
100
AcDbEllipse
 10
1067.114353943096
 20
1972.018323213521
 30
0.0
 11
18.99999999999976
 21
0.0
 31
0.0
210
0.0
220
0.0
230
1.0
 40
0.8191520442890016
 41
2.563425753733139
 42
3.135736258046557
  0
ELLIPSE
  5
2FE
330
2B5
100
AcDbEntity
  8
P-SANR-FIXT
100
AcDbEllipse
 10
1067.114353943096
 20
1964.561829540957
 30
0.0
 11
18.99999999999963
 21
0.0
 31
0.0
210
0.0
220
0.0
230
1.0
 40
0.8191520442889929
 41
4.712388980384695
 42
7.192463533397646
  0
ELLIPSE
  5
2FF
330
2B5
100
AcDbEntity
  8
P-SANR-FIXT
100
AcDbEllipse
 10
1067.114353943096
 20
1964.561829540957
 30
0.0
 11
18.99999999999954
 21
0.0
 31
0.0
210
0.0
220
0.0
230
1.0
 40
0.8191520442889959
 41
2.232314427373188
 42
4.712388980384683
  0
ELLIPSE
  5
300
330
2B5
100
AcDbEntity
  8
P-SANR-FIXT
100
AcDbEllipse
 10
1067.114353943096
 20
1964.561829540957
 30
0.0
 11
9.499999999999772
 21
0.0
 31
0.0
210
0.0
220
0.0
230
1.0
 40
0.8191520442889959
 41
0.0
 42
1.570796326794896
  0
ELLIPSE
  5
301
330
2B5
100
AcDbEntity
  8
P-SANR-FIXT
100
AcDbEllipse
 10
1067.114353943096
 20
1964.561829540957
 30
0.0
 11
9.499999999999545
 21
0.0
 31
0.0
210
0.0
220
0.0
230
1.0
 40
0.8191520442890157
 41
1.570796326794896
 42
3.141592653589793
  0
ELLIPSE
  5
302
330
2B5
100
AcDbEntity
  8
P-SANR-FIXT
100
AcDbEllipse
 10
1067.114353943096
 20
1959.973218050149
 30
0.0
 11
9.499999999999772
 21
0.0
 31
0.0
210
0.0
220
0.0
230
1.0
 40
0.8191520442889721
 41
4.712388980384683
 42
7.853981633974482
  0
ELLIPSE
  5
303
330
2B5
100
AcDbEntity
  8
P-SANR-FIXT
100
AcDbEllipse
 10
1067.114353943096
 20
1959.973218050149
 30
0.0
 11
9.499999999999772
 21
0.0
 31
0.0
210
0.0
220
0.0
230
1.0
 40
0.8191520442889959
 41
1.570796326794896
 42
4.712388980384683
  0
LINE
  5
304
330
2B5
100
AcDbEntity
  8
P-SANR-FIXT
100
AcDbLine
 10
1067.114353943096
 20
2024.482558850011
 30
0.0
 11
1079.614353943096
 21
2024.482558850011
 31
0.0
  0
LINE
  5
305
330
2B5
100
AcDbEntity
  8
P-SANR-FIXT
100
AcDbLine
 10
1054.614353943096
 20
2024.482558850011
 30
0.0
 11
1067.114353943096
 21
2024.482558850011
 31
0.0
  0
LINE
  5
306
330
2B5
100
AcDbEntity
  8
P-SANR-FIXT
100
AcDbLine
 10
1041.614353943096
 20
1991.232558850011
 30
0.0
 11
1041.614353943096
 21
1997.290121953836
 31
0.0
  0
LINE
  5
307
330
2B5
100
AcDbEntity
  8
P-SANR-FIXT
100
AcDbLine
 10
1041.614353943096
 20
2002.674995746149
 30
0.0
 11
1041.614353943096
 21
2008.73255885001
 31
0.0
  0
LINE
  5
308
330
2B5
100
AcDbEntity
  8
P-SANR-FIXT
100
AcDbLine
 10
1092.614353943096
 20
2008.73255885001
 30
0.0
 11
1092.614353943096
 21
2002.674995746149
 31
0.0
  0
LINE
  5
309
330
2B5
100
AcDbEntity
  8
P-SANR-FIXT
100
AcDbLine
 10
1092.614353943096
 20
1997.290121953836
 30
0.0
 11
1092.614353943096
 21
1991.232558850011
 31
0.0
  0
LINE
  5
30A
330
2B5
100
AcDbEntity
  8
P-SANR-FIXT
100
AcDbLine
 10
1058.124597900012
 20
2029.982558850011
 30
0.0
 11
1058.114353943097
 21
2029.982558850011
 31
0.0
  0
LINE
  5
30B
330
2B5
100
AcDbEntity
  8
P-SANR-FIXT
100
AcDbLine
 10
1058.124597900012
 20
2029.982558850011
 30
0.0
 11
1062.24770352563
 21
2029.982558850011
 31
0.0
  0
LINE
  5
30C
330
2B5
100
AcDbEntity
  8
P-SANR-FIXT
100
AcDbLine
 10
1062.991248317479
 20
2029.982558850011
 30
0.0
 11
1062.24770352563
 21
2029.982558850011
 31
0.0
  0
LINE
  5
30D
330
2B5
100
AcDbEntity
  8
P-SANR-FIXT
100
AcDbLine
 10
1062.991248317479
 20
2029.982558850011
 30
0.0
 11
1071.237459568714
 21
2029.982558850011
 31
0.0
  0
LINE
  5
30E
330
2B5
100
AcDbEntity
  8
P-SANR-FIXT
100
AcDbLine
 10
1071.981004360563
 20
2029.982558850011
 30
0.0
 11
1071.237459568714
 21
2029.982558850011
 31
0.0
  0
LINE
  5
30F
330
2B5
100
AcDbEntity
  8
P-SANR-FIXT
100
AcDbLine
 10
1071.981004360563
 20
2029.982558850011
 30
0.0
 11
1076.104109986181
 21
2029.982558850011
 31
0.0
  0
LINE
  5
310
330
2B5
100
AcDbEntity
  8
P-SANR-FIXT
100
AcDbLine
 10
1076.114353943096
 20
2029.982558850011
 30
0.0
 11
1076.104109986181
 21
2029.982558850011
 31
0.0
  0
LINE
  5
311
330
2B5
100
AcDbEntity
  8
P-SANR-FIXT
100
AcDbLine
 10
1062.24770352563
 20
2029.982558850011
 30
0.0
 11
1062.24770352563
 21
2024.482558850011
 31
0.0
  0
LINE
  5
312
330
2B5
100
AcDbEntity
  8
P-SANR-FIXT
100
AcDbLine
 10
1058.124597900012
 20
2024.482558850011
 30
0.0
 11
1058.124597900012
 21
2029.982558850011
 31
0.0
  0
LINE
  5
313
330
2B5
100
AcDbEntity
  8
P-SANR-FIXT
100
AcDbLine
 10
1062.991248317479
 20
2024.482558850011
 30
0.0
 11
1062.991248317479
 21
2029.982558850011
 31
0.0
  0
LINE
  5
314
330
2B5
100
AcDbEntity
  8
P-SANR-FIXT
100
AcDbLine
 10
1071.237459568714
 20
2029.982558850011
 30
0.0
 11
1071.237459568714
 21
2024.482558850011
 31
0.0
  0
LINE
  5
315
330
2B5
100
AcDbEntity
  8
P-SANR-FIXT
100
AcDbLine
 10
1076.104109986181
 20
2029.982558850011
 30
0.0
 11
1076.104109986181
 21
2024.482558850011
 31
0.0
  0
LINE
  5
316
330
2B5
100
AcDbEntity
  8
P-SANR-FIXT
100
AcDbLine
 10
1071.981004360563
 20
2024.482558850011
 30
0.0
 11
1071.981004360563
 21
2029.982558850011
 31
0.0
  0
ARC
  5
317
330
2B5
100
AcDbEntity
  8
P-SANR-FIXT
100
AcDbCircle
 10
1067.114353943096
 20
1999.982558850011
 30
0.0
 40
16.74999999999934
100
AcDbArc
 50
202.2753121281225
 51
217.7246878718749
  0
LINE
  5
318
330
2B5
100
AcDbEntity
  8
P-SANR-FIXT
100
AcDbLine
 10
1053.865774581081
 20
1989.733771366198
 30
0.0
 11
1064.862933305132
 21
1983.384558816546
 31
0.0
  0
ARC
  5
319
330
2B5
100
AcDbEntity
  8
P-SANR-FIXT
100
AcDbCircle
 10
1067.114353943096
 20
1999.982558850011
 30
0.0
 40
16.74999999999916
100
AcDbArc
 50
262.275312128122
 51
277.7246878718742
  0
LINE
  5
31A
330
2B5
100
AcDbEntity
  8
P-SANR-FIXT
100
AcDbLine
 10
1069.36577458106
 20
1983.384558816546
 30
0.0
 11
1080.36293330511
 21
1989.733771366197
 31
0.0
  0
ARC
  5
31B
330
2B5
100
AcDbEntity
  8
P-SANR-FIXT
100
AcDbCircle
 10
1067.114353943096
 20
1999.982558850011
 30
0.0
 40
16.74999999999902
100
AcDbArc
 50
322.2753121281221
 51
337.7246878718747
  0
LINE
  5
31C
330
2B5
100
AcDbEntity
  8
P-SANR-FIXT
100
AcDbLine
 10
1082.614353943074
 20
1993.63334630036
 30
0.0
 11
1082.614353943074
 21
2006.331771399663
 31
0.0
  0
ARC
  5
31D
330
2B5
100
AcDbEntity
  8
P-SANR-FIXT
100
AcDbCircle
 10
1067.114353943096
 20
1999.982558850011
 30
0.0
 40
16.74999999999931
100
AcDbArc
 50
22.27531212812312
 51
37.72468787187618
  0
LINE
  5
31E
330
2B5
100
AcDbEntity
  8
P-SANR-FIXT
100
AcDbLine
 10
1080.36293330511
 20
2010.231346333826
 30
0.0
 11
1069.36577458106
 21
2016.580558883477
 31
0.0
  0
ARC
  5
31F
330
2B5
100
AcDbEntity
  8
P-SANR-FIXT
100
AcDbCircle
 10
1067.114353943096
 20
1999.982558850011
 30
0.0
 40
16.74999999999935
100
AcDbArc
 50
82.27531212812323
 51
97.724687871876
  0
LINE
  5
320
330
2B5
100
AcDbEntity
  8
P-SANR-FIXT
100
AcDbLine
 10
1064.862933305132
 20
2016.580558883477
 30
0.0
 11
1053.865774581082
 21
2010.231346333826
 31
0.0
  0
ARC
  5
321
330
2B5
100
AcDbEntity
  8
P-SANR-FIXT
100
AcDbCircle
 10
1067.114353943096
 20
1999.982558850011
 30
0.0
 40
16.74999999999934
100
AcDbArc
 50
142.2753121281231
 51
157.7246878718761
  0
LINE
  5
322
330
2B5
100
AcDbEntity
  8
P-SANR-FIXT
100
AcDbLine
 10
1051.614353943118
 20
2006.331771399663
 30
0.0
 11
1051.614353943118
 21
1993.63334630036
 31
0.0
  0
ARC
  5
323
330
2B5
100
AcDbEntity
  8
P-SANR-FIXT
100
AcDbCircle
 10
1067.114353943096
 20
1999.982558850011
 30
0.0
 40
9.549999999999727
100
AcDbArc
 50
269.9999999999997
 51
90.0
  0
ARC
  5
324
330
2B5
100
AcDbEntity
  8
P-SANR-FIXT
100
AcDbCircle
 10
1067.114353943096
 20
1999.982558850011
 30
0.0
 40
9.549999999999727
100
AcDbArc
 50
90.0
 51
269.9999999999997
  0
ENDBLK
  5
326
330
2B5
100
AcDbEntity
  8
0
100
AcDbBlockEnd
  0
ENDSEC
  0
SECTION
  2
ENTITIES
  0
INSERT
  5
19A
330
71
100
AcDbEntity
  8
P-SANR-FIXT
100
AcDbBlockReference
  2
Automatic flow rate regulator valve_Caleffi_121 DN15 - 1_2__-859151-Est - Idraulica
 10
0.0
 20
0.0
 30
0.0
1001
REVIT
1002
{
1070
     1
1000
863131
1002
}
1002
{
1070
     5
1000
859151
1002
}
1002
{
1070
     2
1000
-2001160
1002
}
  0
INSERT
  5
2B4
330
71
100
AcDbEntity
  8
P-SANR-FIXT
100
AcDbBlockReference
  2
Automatic flow rate regulator valve_Caleffi_121 DN15 - 1_2__-V1-Est - Idraulica
 10
0.0
 20
0.0
 30
0.0
1001
REVIT
1002
{
1070
     1
1000
863152
1002
}
1002
{
1070
     5
1000
859151
1002
}
1002
{
1070
     2
1000
-2001160
1002
}
  0
INSERT
  5
327
330
71
100
AcDbEntity
  8
P-SANR-FIXT
100
AcDbBlockReference
  2
Automatic flow rate regulator valve_Caleffi_121 DN15 - 1_2__-V2-Est - Idraulica
 10
0.0
 20
0.0
 30
0.0
1001
REVIT
1002
{
1070
     1
1000
863172
1002
}
1002
{
1070
     5
1000
859151
1002
}
1002
{
1070
     2
1000
-2001160
1002
}
  0
ENDSEC
  0
SECTION
  2
OBJECTS
  0
DICTIONARY
  5
C
330
0
100
AcDbDictionary
281
     1
  3
ACAD_CIP_PREVIOUS_PRODUCT_INFO
350
7A
  3
ACAD_COLOR
350
63
  3
ACAD_DETAILVIEWSTYLE
350
6B
  3
ACAD_GROUP
350
D
  3
ACAD_IMAGE_VARS
350
7B
  3
ACAD_LAYOUT
350
62
  3
ACAD_MATERIAL
350
10
  3
ACAD_MLEADERSTYLE
350
66
  3
ACAD_MLINESTYLE
350
5F
  3
ACAD_PLOTSETTINGS
350
61
  3
ACAD_PLOTSTYLENAME
350
E
  3
ACAD_SCALELIST
350
42
  3
ACAD_SECTIONVIEWSTYLE
350
68
  3
ACAD_TABLESTYLE
350
64
  3
ACAD_VISUALSTYLE
350
29
  3
ACDB_RECOMPOSE_DATA
350
332
  3
AcDbVariableDictionary
350
7C
  3
REVIT_DICTIONARY
350
329
  0
DICTIONARY
  5
32E
330
71
100
AcDbDictionary
280
     1
281
     1
  3
ACAD_SORTENTS
360
32F
  0
XRECORD
  5
7A
102
{ACAD_REACTORS
330
C
102
}
330
C
100
AcDbXrecord
280
     1
300
RVT
300
2013
300
RVT2013
  0
DICTIONARY
  5
63
102
{ACAD_REACTORS
330
C
102
}
330
C
100
AcDbDictionary
281
     1
  0
DICTIONARY
  5
6B
102
{ACAD_REACTORS
330
C
102
}
330
C
100
AcDbDictionary
281
     1
  3
Imperial24
350
6C
  0
DICTIONARY
  5
D
102
{ACAD_REACTORS
330
C
102
}
330
C
100
AcDbDictionary
281
     1
  0
RASTERVARIABLES
  5
7B
102
{ACAD_REACTORS
330
C
102
}
330
C
100
AcDbRasterVariables
 90
        0
 70
     0
 71
     1
 72
     1
  0
DICTIONARY
  5
62
102
{ACAD_REACTORS
330
C
102
}
330
C
100
AcDbDictionary
281
     1
  3
Layout1
350
70
  3
Layout2
350
78
  3
Model
350
74
  0
DICTIONARY
  5
10
102
{ACAD_REACTORS
330
C
102
}
330
C
100
AcDbDictionary
281
     1
  3
ByBlock
350
19
  3
ByLayer
350
11
  3
Global
350
21
  0
DICTIONARY
  5
66
102
{ACAD_REACTORS
330
C
102
}
330
C
100
AcDbDictionary
281
     1
  3
Standard
350
67
  0
DICTIONARY
  5
5F
102
{ACAD_REACTORS
330
C
102
}
330
C
100
AcDbDictionary
281
     1
  3
Standard
350
60
  0
DICTIONARY
  5
61
102
{ACAD_REACTORS
330
C
102
}
330
C
100
AcDbDictionary
281
     1
  0
ACDBDICTIONARYWDFLT
  5
E
102
{ACAD_REACTORS
330
C
102
}
330
C
100
AcDbDictionary
281
     1
  3
Normal
350
F
100
AcDbDictionaryWithDefault
340
F
  0
DICTIONARY
  5
42
102
{ACAD_REACTORS
330
C
102
}
330
C
100
AcDbDictionary
281
     1
  3
A0
350
43
  3
A1
350
44
  3
A2
350
45
  3
A3
350
46
  3
A4
350
47
  3
A5
350
48
  3
A6
350
49
  3
A7
350
4A
  3
A8
350
4B
  3
A9
350
4C
  3
B0
350
4D
  3
B1
350
4E
  3
B2
350
4F
  3
B3
350
50
  3
B4
350
51
  3
B5
350
52
  3
B6
350
53
  0
DICTIONARY
  5
68
102
{ACAD_REACTORS
330
C
102
}
330
C
100
AcDbDictionary
281
     1
  3
Imperial24
350
6A
  0
DICTIONARY
  5
64
102
{ACAD_REACTORS
330
C
102
}
330
C
100
AcDbDictionary
281
     1
  3
Standard
350
65
  0
DICTIONARY
  5
29
102
{ACAD_REACTORS
330
C
102
}
330
C
100
AcDbDictionary
281
     1
  3
2dWireframe
350
2F
  3
Basic
350
2E
  3
Brighten
350
35
  3
ColorChange
350
39
  3
Conceptual
350
32
  3
Dim
350
34
  3
EdgeColorOff
350
41
  3
Facepattern
350
38
  3
Flat
350
2A
  3
FlatWithEdges
350
2B
  3
Gouraud
350
2C
  3
GouraudWithEdges
350
2D
  3
Hidden
350
31
  3
JitterOff
350
3F
  3
Linepattern
350
37
  3
OverhangOff
350
40
  3
Realistic
350
33
  3
Shaded
350
3E
  3
Shaded with edges
350
3D
  3
Shades of Gray
350
3A
  3
Sketchy
350
3B
  3
Thicken
350
36
  3
Wireframe
350
30
  3
X-Ray
350
3C
  0
XRECORD
  5
332
102
{ACAD_REACTORS
330
C
102
}
330
C
100
AcDbXrecord
280
     1
 90
        1
330
65
  0
DICTIONARY
  5
7C
102
{ACAD_REACTORS
330
C
102
}
330
C
100
AcDbDictionary
281
     1
  3
CANNOSCALE
350
81
  3
CMLEADERSTYLE
350
7E
  3
CTABLESTYLE
350
7D
  3
CVIEWDETAILSTYLE
350
7F
  3
CVIEWSECTIONSTYLE
350
80
  0
DICTIONARY
  5
329
102
{ACAD_REACTORS
330
C
102
}
330
C
100
AcDbDictionary
281
     1
  3
DRAWING_TOOL
350
32D
  3
REVIT_CATEGORY_MAPPING
350
32B
  3
REVIT_SUB_CATEGORY_MAPPING
350
32C
  3
REVIT_TYPE_MAPPING
350
32A
  0
SORTENTSTABLE
  5
32F
102
{ACAD_REACTORS
330
32E
102
}
330
32E
100
AcDbSortentsTable
330
71
  0
ACDBDETAILVIEWSTYLE
  5
6C
102
{ACAD_REACTORS
330
6B
102
}
330
6B
100
AcDbModelDocViewStyle
 70
     0
  3
Imperial24
290
     1
100
AcDbDetailViewStyle
 70
     0
 71
     0
 90
        3
 71
     1
340
55
 62
   256
 40
0.24
340
0
 62
   256
 40
0.24
300

 40
0.36
280
     3
 71
     2
340
5D
 90
       25
 62
   256
 71
     3
340
55
 62
   256
 40
0.24
 90
        1
 40
0.75
 90
        1
300
%<\AcVar ViewType \f "%tc1">% %<\AcVar ViewDetailId>%\PSCALA %<\AcVar ViewScale \f "%sn">%
 71
     4
340
5D
 90
       25
 62
   256
340
5D
 90
       25
 62
   256
280
     0
  0
LAYOUT
  5
70
102
{ACAD_REACTORS
330
62
102
}
330
62
100
AcDbPlotSettings
  1

  2

  4

  6

 40
0.0
 41
0.0
 42
0.0
 43
0.0
 44
0.0
 45
0.0
 46
0.0
 47
0.0
 48
0.0
 49
0.0
140
0.0
141
0.0
142
1.0
143
1.0
 70
   688
 72
     0
 73
     0
 74
     5
  7

 75
    16
147
1.0
 76
     0
 77
     2
 78
   300
148
0.0
149
0.0
100
AcDbLayout
  1
Layout1
 70
     1
 71
     1
 10
0.0
 20
0.0
 11
12.0
 21
9.0
 12
0.0
 22
0.0
 32
0.0
 14
0.0
 24
0.0
 34
0.0
 15
0.0
 25
0.0
 35
0.0
146
0.0
 13
0.0
 23
0.0
 33
0.0
 16
1.0
 26
0.0
 36
0.0
 17
0.0
 27
1.0
 37
0.0
 76
     0
330
6D
  0
LAYOUT
  5
78
102
{ACAD_REACTORS
330
62
102
}
330
62
100
AcDbPlotSettings
  1

  2

  4

  6

 40
0.0
 41
0.0
 42
0.0
 43
0.0
 44
0.0
 45
0.0
 46
0.0
 47
0.0
 48
0.0
 49
0.0
140
0.0
141
0.0
142
1.0
143
1.0
 70
   688
 72
     0
 73
     0
 74
     5
  7

 75
    16
147
1.0
 76
     0
 77
     2
 78
   300
148
0.0
149
0.0
100
AcDbLayout
  1
Layout2
 70
     1
 71
     2
 10
0.0
 20
0.0
 11
12.0
 21
9.0
 12
0.0
 22
0.0
 32
0.0
 14
0.0
 24
0.0
 34
0.0
 15
0.0
 25
0.0
 35
0.0
146
0.0
 13
0.0
 23
0.0
 33
0.0
 16
1.0
 26
0.0
 36
0.0
 17
0.0
 27
1.0
 37
0.0
 76
     0
330
75
  0
LAYOUT
  5
74
102
{ACAD_REACTORS
330
62
102
}
330
62
100
AcDbPlotSettings
  1

  2

  4

  6

 40
0.0
 41
0.0
 42
0.0
 43
0.0
 44
0.0
 45
0.0
 46
0.0
 47
0.0
 48
0.0
 49
0.0
140
0.0
141
0.0
142
1.0
143
1.0
 70
  1712
 72
     0
 73
     0
 74
     0
  7

 75
     0
147
1.0
 76
     0
 77
     2
 78
   300
148
0.0
149
0.0
100
AcDbLayout
  1
Model
 70
     1
 71
     0
 10
0.0
 20
0.0
 11
12.0
 21
9.0
 12
0.0
 22
0.0
 32
0.0
 14
0.0
 24
0.0
 34
0.0
 15
0.0
 25
0.0
 35
0.0
146
0.0
 13
0.0
 23
0.0
 33
0.0
 16
1.0
 26
0.0
 36
0.0
 17
0.0
 27
1.0
 37
0.0
 76
     0
330
71
  0
MATERIAL
  5
19
102
{ACAD_XDICTIONARY
360
1A
102
}
102
{ACAD_REACTORS
330
10
102
}
330
10
100
AcDbMaterial
  1
ByBlock
 72
     0
 43
0.0208333333333333
 43
0.0
 43
0.0
 43
0.0
 43
0.0
 43
0.0208333333333333
 43
0.0
 43
0.0
 43
0.0
 43
0.0
 43
1.0
 43
0.0
 43
0.0
 43
0.0
 43
0.0
 43
1.0
 77
     0
 47
0.0208333333333333
 47
0.0
 47
0.0
 47
0.0
 47
0.0
 47
0.0208333333333333
 47
0.0
 47
0.0
 47
0.0
 47
0.0
 47
1.0
 47
0.0
 47
0.0
 47
0.0
 47
0.0
 47
1.0
171
     0
 49
0.0208333333333333
 49
0.0
 49
0.0
 49
0.0
 49
0.0
 49
0.0208333333333333
 49
0.0
 49
0.0
 49
0.0
 49
0.0
 49
1.0
 49
0.0
 49
0.0
 49
0.0
 49
0.0
 49
1.0
175
     0
142
0.0208333333333333
142
0.0
142
0.0
142
0.0
142
0.0
142
0.0208333333333333
142
0.0
142
0.0
142
0.0
142
0.0
142
1.0
142
0.0
142
0.0
142
0.0
142
0.0
142
1.0
179
     0
144
0.0208333333333333
144
0.0
144
0.0
144
0.0
144
0.0
144
0.0208333333333333
144
0.0
144
0.0
144
0.0
144
0.0
144
1.0
144
0.0
144
0.0
144
0.0
144
0.0
144
1.0
147
0.0208333333333333
147
0.0
147
0.0
147
0.0
147
0.0
147
0.0208333333333333
147
0.0
147
0.0
147
0.0
147
0.0
147
1.0
147
0.0
147
0.0
147
0.0
147
0.0
147
1.0
  0
MATERIAL
  5
11
102
{ACAD_XDICTIONARY
360
12
102
}
102
{ACAD_REACTORS
330
10
102
}
330
10
100
AcDbMaterial
  1
ByLayer
 72
     0
 43
0.0208333333333333
 43
0.0
 43
0.0
 43
0.0
 43
0.0
 43
0.0208333333333333
 43
0.0
 43
0.0
 43
0.0
 43
0.0
 43
1.0
 43
0.0
 43
0.0
 43
0.0
 43
0.0
 43
1.0
 77
     0
 47
0.0208333333333333
 47
0.0
 47
0.0
 47
0.0
 47
0.0
 47
0.0208333333333333
 47
0.0
 47
0.0
 47
0.0
 47
0.0
 47
1.0
 47
0.0
 47
0.0
 47
0.0
 47
0.0
 47
1.0
171
     0
 49
0.0208333333333333
 49
0.0
 49
0.0
 49
0.0
 49
0.0
 49
0.0208333333333333
 49
0.0
 49
0.0
 49
0.0
 49
0.0
 49
1.0
 49
0.0
 49
0.0
 49
0.0
 49
0.0
 49
1.0
175
     0
142
0.0208333333333333
142
0.0
142
0.0
142
0.0
142
0.0
142
0.0208333333333333
142
0.0
142
0.0
142
0.0
142
0.0
142
1.0
142
0.0
142
0.0
142
0.0
142
0.0
142
1.0
179
     0
144
0.0208333333333333
144
0.0
144
0.0
144
0.0
144
0.0
144
0.0208333333333333
144
0.0
144
0.0
144
0.0
144
0.0
144
1.0
144
0.0
144
0.0
144
0.0
144
0.0
144
1.0
147
0.0208333333333333
147
0.0
147
0.0
147
0.0
147
0.0
147
0.0208333333333333
147
0.0
147
0.0
147
0.0
147
0.0
147
1.0
147
0.0
147
0.0
147
0.0
147
0.0
147
1.0
  0
MATERIAL
  5
21
102
{ACAD_XDICTIONARY
360
22
102
}
102
{ACAD_REACTORS
330
10
102
}
330
10
100
AcDbMaterial
  1
Global
 72
     0
 43
0.0208333333333333
 43
0.0
 43
0.0
 43
0.0
 43
0.0
 43
0.0208333333333333
 43
0.0
 43
0.0
 43
0.0
 43
0.0
 43
1.0
 43
0.0
 43
0.0
 43
0.0
 43
0.0
 43
1.0
 77
     0
 47
0.0208333333333333
 47
0.0
 47
0.0
 47
0.0
 47
0.0
 47
0.0208333333333333
 47
0.0
 47
0.0
 47
0.0
 47
0.0
 47
1.0
 47
0.0
 47
0.0
 47
0.0
 47
0.0
 47
1.0
171
     0
 49
0.0208333333333333
 49
0.0
 49
0.0
 49
0.0
 49
0.0
 49
0.0208333333333333
 49
0.0
 49
0.0
 49
0.0
 49
0.0
 49
1.0
 49
0.0
 49
0.0
 49
0.0
 49
0.0
 49
1.0
175
     0
142
0.0208333333333333
142
0.0
142
0.0
142
0.0
142
0.0
142
0.0208333333333333
142
0.0
142
0.0
142
0.0
142
0.0
142
1.0
142
0.0
142
0.0
142
0.0
142
0.0
142
1.0
179
     0
144
0.0208333333333333
144
0.0
144
0.0
144
0.0
144
0.0
144
0.0208333333333333
144
0.0
144
0.0
144
0.0
144
0.0
144
1.0
144
0.0
144
0.0
144
0.0
144
0.0
144
1.0
147
0.0208333333333333
147
0.0
147
0.0
147
0.0
147
0.0
147
0.0208333333333333
147
0.0
147
0.0
147
0.0
147
0.0
147
1.0
147
0.0
147
0.0
147
0.0
147
0.0
147
1.0
  0
MLEADERSTYLE
  5
67
102
{ACAD_REACTORS
330
66
102
}
330
66
100
AcDbMLeaderStyle
179
     2
170
     2
171
     1
172
     0
 90
        2
 40
0.0
 41
0.0
173
     1
 91
-1056964608
340
5B
 92
       -2
290
     1
 42
0.09
291
     1
 43
0.36
  3
Standard
 44
0.18
300

342
55
174
     1
178
     6
175
     1
176
     0
 93
-1056964608
 45
0.18
292
     0
297
     0
 46
0.18
 94
-1056964608
 47
1.0
 49
1.0
140
1.0
293
     1
141
0.0
294
     1
177
     0
142
1.0
295
     1
296
     0
143
0.125
271
     0
272
     9
273
     9
298
     1
  0
MLINESTYLE
  5
60
102
{ACAD_REACTORS
330
5F
102
}
330
5F
100
AcDbMlineStyle
  2
STANDARD
 70
     0
  3

 62
   256
 51
90.0
 52
90.0
 71
     2
 49
0.5
 62
   256
  6
BYLAYER
 49
-0.5
 62
   256
  6
BYLAYER
  0
ACDBPLACEHOLDER
  5
F
102
{ACAD_REACTORS
330
E
102
}
330
E
  0
SCALE
  5
43
102
{ACAD_REACTORS
330
42
102
}
330
42
100
AcDbScale
 70
     0
300
1:1
140
1.0
141
1.0
290
     1
  0
SCALE
  5
44
102
{ACAD_REACTORS
330
42
102
}
330
42
100
AcDbScale
 70
     0
300
1/128" = 1'-0"
140
0.0078125
141
12.0
290
     0
  0
SCALE
  5
45
102
{ACAD_REACTORS
330
42
102
}
330
42
100
AcDbScale
 70
     0
300
1/64" = 1'-0"
140
0.015625
141
12.0
290
     0
  0
SCALE
  5
46
102
{ACAD_REACTORS
330
42
102
}
330
42
100
AcDbScale
 70
     0
300
1/32" = 1'-0"
140
0.03125
141
12.0
290
     0
  0
SCALE
  5
47
102
{ACAD_REACTORS
330
42
102
}
330
42
100
AcDbScale
 70
     0
300
1/16" = 1'-0"
140
0.0625
141
12.0
290
     0
  0
SCALE
  5
48
102
{ACAD_REACTORS
330
42
102
}
330
42
100
AcDbScale
 70
     0
300
3/32" = 1'-0"
140
0.09375
141
12.0
290
     0
  0
SCALE
  5
49
102
{ACAD_REACTORS
330
42
102
}
330
42
100
AcDbScale
 70
     0
300
1/8" = 1'-0"
140
0.125
141
12.0
290
     0
  0
SCALE
  5
4A
102
{ACAD_REACTORS
330
42
102
}
330
42
100
AcDbScale
 70
     0
300
3/16" = 1'-0"
140
0.1875
141
12.0
290
     0
  0
SCALE
  5
4B
102
{ACAD_REACTORS
330
42
102
}
330
42
100
AcDbScale
 70
     0
300
1/4" = 1'-0"
140
0.25
141
12.0
290
     0
  0
SCALE
  5
4C
102
{ACAD_REACTORS
330
42
102
}
330
42
100
AcDbScale
 70
     0
300
3/8" = 1'-0"
140
0.375
141
12.0
290
     0
  0
SCALE
  5
4D
102
{ACAD_REACTORS
330
42
102
}
330
42
100
AcDbScale
 70
     0
300
1/2" = 1'-0"
140
0.5
141
12.0
290
     0
  0
SCALE
  5
4E
102
{ACAD_REACTORS
330
42
102
}
330
42
100
AcDbScale
 70
     0
300
3/4" = 1'-0"
140
0.75
141
12.0
290
     0
  0
SCALE
  5
4F
102
{ACAD_REACTORS
330
42
102
}
330
42
100
AcDbScale
 70
     0
300
1" = 1'-0"
140
1.0
141
12.0
290
     0
  0
SCALE
  5
50
102
{ACAD_REACTORS
330
42
102
}
330
42
100
AcDbScale
 70
     0
300
1-1/2" = 1'-0"
140
1.5
141
12.0
290
     0
  0
SCALE
  5
51
102
{ACAD_REACTORS
330
42
102
}
330
42
100
AcDbScale
 70
     0
300
3" = 1'-0"
140
3.0
141
12.0
290
     0
  0
SCALE
  5
52
102
{ACAD_REACTORS
330
42
102
}
330
42
100
AcDbScale
 70
     0
300
6" = 1'-0"
140
6.0
141
12.0
290
     0
  0
SCALE
  5
53
102
{ACAD_REACTORS
330
42
102
}
330
42
100
AcDbScale
 70
     0
300
1'-0" = 1'-0"
140
12.0
141
12.0
290
     0
  0
ACDBSECTIONVIEWSTYLE
  5
6A
102
{ACAD_REACTORS
330
68
102
}
330
68
100
AcDbModelDocViewStyle
 70
     0
  3
Imperial24
290
     1
100
AcDbSectionViewStyle
 70
     0
 71
     0
 90
       78
 71
     1
340
55
 62
   256
 40
0.24
340
0
340
0
 62
   256
 40
0.24
300
I, O, Q, S, X, Z
 40
0.48
 90
        3
 40
0.18
 90
        1
 71
     2
340
69
 90
       25
 62
   256
340
5D
 90
       50
 62
   256
 40
0.24
 40
0.0
 40
0.24
 71
     3
340
55
 62
   256
 40
0.24
 90
        1
 40
0.75
 90
        1
300
%<\AcVar ViewType \f "%tc1">% %<\AcVar ViewSectionStartId>%-%<\AcVar ViewSectionEndId>%\PSCALA %<\AcVar ViewScale \f "%sn">%
 71
     4
 62
   256
 62
   257
300
ANSI31
 40
1.0
 90
        0
290
     0
290
     0
 90
        6
 40
0.0
 40
1.570796326794896
 40
0.2617993877991494
 40
1.308996938995747
 40
-0.2617993877991494
 40
1.832595714594046
  0
TABLESTYLE
  5
65
102
{ACAD_XDICTIONARY
360
330
102
}
102
{ACAD_REACTORS
330
64
102
}
330
64
100
AcDbTableStyle
280
     0
  3
Standard
 70
     0
 71
     0
 40
0.06
 41
0.06
280
     0
281
     0
  7
Standard
140
0.18
170
     2
 62
     0
 63
     7
283
     0
 90
      512
 91
        0
  1

274
    -2
284
     1
 64
     0
275
    -2
285
     1
 65
     0
276
    -2
286
     1
 66
     0
277
    -2
287
     1
 67
     0
278
    -2
288
     1
 68
     0
279
    -2
289
     1
 69
     0
  7
Standard
140
0.25
170
     5
 62
     0
 63
     7
283
     0
 90
      512
 91
        0
  1

274
    -2
284
     1
 64
     0
275
    -2
285
     1
 65
     0
276
    -2
286
     1
 66
     0
277
    -2
287
     1
 67
     0
278
    -2
288
     1
 68
     0
279
    -2
289
     1
 69
     0
  7
Standard
140
0.18
170
     5
 62
     0
 63
     7
283
     0
 90
      512
 91
        0
  1

274
    -2
284
     1
 64
     0
275
    -2
285
     1
 65
     0
276
    -2
286
     1
 66
     0
277
    -2
287
     1
 67
     0
278
    -2
288
     1
 68
     0
279
    -2
289
     1
 69
     0
  0
VISUALSTYLE
  5
2F
102
{ACAD_REACTORS
330
29
102
}
330
29
100
AcDbVisualStyle
  2
2dWireframe
 70
     4
177
     3
291
     0
 70
    58
 90
        0
176
     1
 90
        2
176
     1
 90
        0
176
     1
 90
        0
176
     1
 40
0.6
176
     1
 40
30.0
176
     1
 62
     7
420
 16777215
176
     1
 90
        1
176
     1
 90
        4
176
     1
 62
     7
176
     1
 62
   257
176
     1
 90
        1
176
     1
 90
        1
176
     1
 40
1.0
176
     1
 90
        0
176
     1
 62
   257
176
     1
 40
1.0
176
     1
 90
        1
176
     1
 90
        6
176
     1
 90
        2
176
     1
 62
     7
176
     1
 90
        5
176
     1
 90
        0
176
     1
 90
        0
176
     1
290
     0
176
     1
 90
        1
176
     1
 40
0.0
176
     1
 90
        0
176
     1
290
     1
176
     1
290
     1
176
     1
290
     0
176
     1
290
     0
176
     1
290
     0
176
     1
290
     0
176
     1
290
     0
176
     1
290
     0
176
     1
290
     0
176
     1
 90
       50
176
     1
 40
0.0
176
     1
 40
1.0
176
     1
 90
        0
176
     1
 62
    18
420
        0
176
     1
 90
       50
176
     1
 90
        3
176
     1
 62
     5
420
      255
176
     1
290
     0
176
     1
 90
       50
176
     1
 90
       50
176
     1
 90
       50
176
     1
290
     0
176
     1
 90
       50
176
     1
 62
   256
176
     0
 40
1.0
176
     0
 90
        2
176
     1
  1
strokes_ogs.tif
176
     1
290
     0
176
     1
 40
1.0
176
     1
 40
1.0
176
     1
  0
VISUALSTYLE
  5
2E
102
{ACAD_REACTORS
330
29
102
}
330
29
100
AcDbVisualStyle
  2
Basic
 70
     7
177
     3
291
     1
 70
    58
 90
        1
176
     1
 90
        0
176
     1
 90
        1
176
     1
 90
        0
176
     1
 40
0.6
176
     1
 40
30.0
176
     1
 62
     7
420
 16777215
176
     1
 90
        0
176
     1
 90
        4
176
     1
 62
     7
176
     1
 62
   257
176
     1
 90
        1
176
     1
 90
        1
176
     1
 40
1.0
176
     1
 90
        8
176
     1
 62
     7
176
     1
 40
1.0
176
     1
 90
        1
176
     1
 90
        6
176
     1
 90
        2
176
     1
 62
     7
176
     1
 90
        5
176
     1
 90
        0
176
     1
 90
        0
176
     1
290
     0
176
     1
 90
        1
176
     1
 40
0.0
176
     1
 90
        0
176
     1
290
     0
176
     1
290
     1
176
     1
290
     1
176
     1
290
     0
176
     1
290
     0
176
     1
290
     0
176
     1
290
     0
176
     1
290
     0
176
     1
290
     0
176
     1
 90
       50
176
     1
 40
0.0
176
     1
 40
1.0
176
     1
 90
        0
176
     1
 62
    18
420
        0
176
     1
 90
       50
176
     1
 90
        3
176
     1
 62
     5
420
      255
176
     1
290
     0
176
     1
 90
       50
176
     1
 90
       50
176
     1
 90
       50
176
     1
290
     0
176
     1
 90
       50
176
     1
 62
   256
176
     0
 40
1.0
176
     0
 90
        2
176
     1
  1
strokes_ogs.tif
176
     1
290
     0
176
     1
 40
1.0
176
     1
 40
1.0
176
     1
  0
VISUALSTYLE
  5
35
102
{ACAD_REACTORS
330
29
102
}
330
29
100
AcDbVisualStyle
  2
Brighten
 70
    12
177
     3
291
     1
 70
    58
 90
        2
176
     1
 90
        2
176
     1
 90
        0
176
     1
 90
        0
176
     1
 40
0.6
176
     1
 40
30.0
176
     1
 62
     7
420
 16777215
176
     1
 90
        1
176
     1
 90
        4
176
     1
 62
     7
176
     1
 62
   257
176
     1
 90
        1
176
     1
 90
        1
176
     1
 40
1.0
176
     1
 90
        8
176
     1
 62
     7
176
     1
 40
1.0
176
     1
 90
        1
176
     1
 90
        6
176
     1
 90
        2
176
     1
 62
     7
176
     1
 90
        5
176
     1
 90
        0
176
     1
 90
        0
176
     1
290
     0
176
     1
 90
        1
176
     1
 40
50.0
176
     1
 90
        0
176
     1
290
     0
176
     1
290
     1
176
     1
290
     1
176
     1
290
     0
176
     1
290
     0
176
     1
290
     0
176
     1
290
     0
176
     1
290
     0
176
     1
290
     0
176
     1
 90
       50
176
     1
 40
0.0
176
     1
 40
1.0
176
     1
 90
        0
176
     1
 62
    18
420
        0
176
     1
 90
       50
176
     1
 90
        3
176
     1
 62
     5
420
      255
176
     1
290
     0
176
     1
 90
       50
176
     1
 90
       50
176
     1
 90
       50
176
     1
290
     0
176
     1
 90
       50
176
     1
 62
   256
176
     0
 40
1.0
176
     0
 90
        2
176
     1
  1
strokes_ogs.tif
176
     1
290
     0
176
     1
 40
1.0
176
     1
 40
1.0
176
     1
  0
VISUALSTYLE
  5
39
102
{ACAD_REACTORS
330
29
102
}
330
29
100
AcDbVisualStyle
  2
ColorChange
 70
    16
177
     3
291
     1
 70
    58
 90
        2
176
     1
 90
        2
176
     1
 90
        3
176
     1
 90
        0
176
     1
 40
0.6
176
     1
 40
30.0
176
     1
 62
     8
420
  8421504
176
     1
 90
        1
176
     1
 90
        4
176
     1
 62
     7
176
     1
 62
   257
176
     1
 90
        1
176
     1
 90
        1
176
     1
 40
1.0
176
     1
 90
        8
176
     1
 62
     8
420
  8421504
176
     1
 40
1.0
176
     1
 90
        1
176
     1
 90
        6
176
     1
 90
        2
176
     1
 62
     7
176
     1
 90
        5
176
     1
 90
        0
176
     1
 90
        0
176
     1
290
     0
176
     1
 90
        1
176
     1
 40
0.0
176
     1
 90
        0
176
     1
290
     0
176
     1
290
     1
176
     1
290
     1
176
     1
290
     0
176
     1
290
     0
176
     1
290
     0
176
     1
290
     0
176
     1
290
     0
176
     1
290
     0
176
     1
 90
       50
176
     1
 40
0.0
176
     1
 40
1.0
176
     1
 90
        0
176
     1
 62
    18
420
        0
176
     1
 90
       50
176
     1
 90
        3
176
     1
 62
     5
420
      255
176
     1
290
     0
176
     1
 90
       50
176
     1
 90
       50
176
     1
 90
       50
176
     1
290
     0
176
     1
 90
       50
176
     1
 62
   256
176
     0
 40
1.0
176
     0
 90
        2
176
     1
  1
strokes_ogs.tif
176
     1
290
     0
176
     1
 40
1.0
176
     1
 40
1.0
176
     1
  0
VISUALSTYLE
  5
32
102
{ACAD_REACTORS
330
29
102
}
330
29
100
AcDbVisualStyle
  2
Conceptual
 70
     9
177
     3
291
     0
 70
    58
 90
        3
176
     1
 90
        2
176
     1
 90
        0
176
     1
 90
        0
176
     1
 40
0.6
176
     1
 40
30.0
176
     1
 62
     7
420
 16777215
176
     1
 90
        2
176
     1
 90
        2
176
     1
 62
     7
176
     1
 62
   257
176
     1
 90
        1
176
     1
 90
        1
176
     1
 40
179.0
176
     1
 90
        8
176
     1
 62
     7
176
     1
 40
1.0
176
     1
 90
        1
176
     1
 90
        6
176
     1
 90
        2
176
     1
 62
     7
176
     1
 90
        3
176
     1
 90
        0
176
     1
 90
        0
176
     1
290
     0
176
     1
 90
        1
176
     1
 40
0.0
176
     1
 90
        0
176
     1
290
     0
176
     1
290
     1
176
     1
290
     1
176
     1
290
     0
176
     1
290
     0
176
     1
290
     0
176
     1
290
     0
176
     1
290
     0
176
     1
290
     0
176
     1
 90
       50
176
     1
 40
0.0
176
     1
 40
1.0
176
     1
 90
        0
176
     1
 62
    18
420
        0
176
     1
 90
       50
176
     1
 90
        3
176
     1
 62
     5
420
      255
176
     1
290
     0
176
     1
 90
       50
176
     1
 90
       50
176
     1
 90
       50
176
     1
290
     0
176
     1
 90
       50
176
     1
 62
   256
176
     0
 40
1.0
176
     0
 90
        2
176
     1
  1
strokes_ogs.tif
176
     1
290
     0
176
     1
 40
1.0
176
     1
 40
1.0
176
     1
  0
VISUALSTYLE
  5
34
102
{ACAD_REACTORS
330
29
102
}
330
29
100
AcDbVisualStyle
  2
Dim
 70
    11
177
     3
291
     1
 70
    58
 90
        2
176
     1
 90
        2
176
     1
 90
        0
176
     1
 90
        0
176
     1
 40
0.6
176
     1
 40
30.0
176
     1
 62
     7
420
 16777215
176
     1
 90
        1
176
     1
 90
        4
176
     1
 62
     7
176
     1
 62
   257
176
     1
 90
        1
176
     1
 90
        1
176
     1
 40
1.0
176
     1
 90
        8
176
     1
 62
     7
176
     1
 40
1.0
176
     1
 90
        1
176
     1
 90
        6
176
     1
 90
        2
176
     1
 62
     7
176
     1
 90
        5
176
     1
 90
        0
176
     1
 90
        0
176
     1
290
     0
176
     1
 90
        1
176
     1
 40
-50.0
176
     1
 90
        0
176
     1
290
     0
176
     1
290
     1
176
     1
290
     1
176
     1
290
     0
176
     1
290
     0
176
     1
290
     0
176
     1
290
     0
176
     1
290
     0
176
     1
290
     0
176
     1
 90
       50
176
     1
 40
0.0
176
     1
 40
1.0
176
     1
 90
        0
176
     1
 62
    18
420
        0
176
     1
 90
       50
176
     1
 90
        3
176
     1
 62
     5
420
      255
176
     1
290
     0
176
     1
 90
       50
176
     1
 90
       50
176
     1
 90
       50
176
     1
290
     0
176
     1
 90
       50
176
     1
 62
   256
176
     0
 40
1.0
176
     0
 90
        2
176
     1
  1
strokes_ogs.tif
176
     1
290
     0
176
     1
 40
1.0
176
     1
 40
1.0
176
     1
  0
VISUALSTYLE
  5
41
102
{ACAD_REACTORS
330
29
102
}
330
29
100
AcDbVisualStyle
  2
EdgeColorOff
 70
    22
177
     3
291
     1
 70
    58
 90
        2
176
     0
 90
        2
176
     0
 90
        0
176
     0
 90
        0
176
     0
 40
0.6
176
     0
 40
30.0
176
     0
 62
     7
420
 16777215
176
     0
 90
        1
176
     0
 90
        4
176
     0
 62
     7
176
     0
 62
   257
176
     0
 90
        1
176
     0
 90
        1
176
     0
 40
1.0
176
     0
 90
        8
176
     2
 62
     7
176
     0
 40
1.0
176
     0
 90
        1
176
     0
 90
        6
176
     0
 90
        2
176
     0
 62
     7
176
     0
 90
        5
176
     0
 90
        0
176
     0
 90
        0
176
     0
290
     0
176
     0
 90
        1
176
     0
 40
0.0
176
     0
 90
        0
176
     0
290
     0
176
     0
290
     1
176
     0
290
     1
176
     0
290
     0
176
     0
290
     0
176
     0
290
     0
176
     0
290
     0
176
     0
290
     0
176
     0
290
     0
176
     0
 90
       50
176
     0
 40
0.0
176
     0
 40
1.0
176
     0
 90
        0
176
     0
 62
    18
420
        0
176
     0
 90
       50
176
     0
 90
        3
176
     0
 62
     5
420
      255
176
     0
290
     0
176
     0
 90
       50
176
     0
 90
       50
176
     0
 90
       50
176
     0
290
     0
176
     0
 90
       50
176
     0
 62
   256
176
     0
 40
1.0
176
     0
 90
        2
176
     0
  1
strokes_ogs.tif
176
     0
290
     0
176
     0
 40
1.0
176
     0
 40
1.0
176
     0
  0
VISUALSTYLE
  5
38
102
{ACAD_REACTORS
330
29
102
}
330
29
100
AcDbVisualStyle
  2
Facepattern
 70
    15
177
     3
291
     1
 70
    58
 90
        2
176
     1
 90
        2
176
     1
 90
        0
176
     1
 90
        0
176
     1
 40
0.6
176
     1
 40
30.0
176
     1
 62
     7
420
 16777215
176
     1
 90
        1
176
     1
 90
        4
176
     1
 62
     7
176
     1
 62
   257
176
     1
 90
        1
176
     1
 90
        1
176
     1
 40
1.0
176
     1
 90
        8
176
     1
 62
     7
176
     1
 40
1.0
176
     1
 90
        1
176
     1
 90
        6
176
     1
 90
        2
176
     1
 62
     7
176
     1
 90
        5
176
     1
 90
        0
176
     1
 90
        0
176
     1
290
     0
176
     1
 90
        1
176
     1
 40
0.0
176
     1
 90
        0
176
     1
290
     0
176
     1
290
     1
176
     1
290
     1
176
     1
290
     0
176
     1
290
     0
176
     1
290
     0
176
     1
290
     0
176
     1
290
     0
176
     1
290
     0
176
     1
 90
       50
176
     1
 40
0.0
176
     1
 40
1.0
176
     1
 90
        0
176
     1
 62
    18
420
        0
176
     1
 90
       50
176
     1
 90
        3
176
     1
 62
     5
420
      255
176
     1
290
     0
176
     1
 90
       50
176
     1
 90
       50
176
     1
 90
       50
176
     1
290
     0
176
     1
 90
       50
176
     1
 62
   256
176
     0
 40
1.0
176
     0
 90
        2
176
     1
  1
strokes_ogs.tif
176
     1
290
     0
176
     1
 40
1.0
176
     1
 40
1.0
176
     1
  0
VISUALSTYLE
  5
2A
102
{ACAD_REACTORS
330
29
102
}
330
29
100
AcDbVisualStyle
  2
Flat
 70
     0
177
     3
291
     1
 70
    58
 90
        2
176
     1
 90
        1
176
     1
 90
        1
176
     1
 90
        2
176
     1
 40
0.6
176
     1
 40
30.0
176
     1
 62
     7
420
 16777215
176
     1
 90
        0
176
     1
 90
        0
176
     1
 62
     7
176
     1
 62
   257
176
     1
 90
        1
176
     1
 90
        1
176
     1
 40
1.0
176
     1
 90
        8
176
     1
 62
     7
176
     1
 40
1.0
176
     1
 90
        1
176
     1
 90
        6
176
     1
 90
        2
176
     1
 62
     7
176
     1
 90
        5
176
     1
 90
        0
176
     1
 90
        0
176
     1
290
     0
176
     1
 90
       13
176
     1
 40
0.0
176
     1
 90
        0
176
     1
290
     0
176
     1
290
     1
176
     1
290
     1
176
     1
290
     0
176
     1
290
     0
176
     1
290
     0
176
     1
290
     0
176
     1
290
     0
176
     1
290
     0
176
     1
 90
       50
176
     1
 40
0.0
176
     1
 40
1.0
176
     1
 90
        0
176
     1
 62
    18
420
        0
176
     1
 90
       50
176
     1
 90
        3
176
     1
 62
     5
420
      255
176
     1
290
     0
176
     1
 90
       50
176
     1
 90
       50
176
     1
 90
       50
176
     1
290
     0
176
     1
 90
       50
176
     1
 62
   256
176
     0
 40
1.0
176
     0
 90
        2
176
     1
  1
strokes_ogs.tif
176
     1
290
     0
176
     1
 40
1.0
176
     1
 40
1.0
176
     1
  0
VISUALSTYLE
  5
2B
102
{ACAD_REACTORS
330
29
102
}
330
29
100
AcDbVisualStyle
  2
FlatWithEdges
 70
     1
177
     3
291
     1
 70
    58
 90
        2
176
     1
 90
        1
176
     1
 90
        1
176
     1
 90
        2
176
     1
 40
0.6
176
     1
 40
30.0
176
     1
 62
     7
420
 16777215
176
     1
 90
        1
176
     1
 90
        0
176
     1
 62
     7
176
     1
 62
   257
176
     1
 90
        1
176
     1
 90
        1
176
     1
 40
1.0
176
     1
 90
        0
176
     1
 62
   257
176
     1
 40
1.0
176
     1
 90
        1
176
     1
 90
        6
176
     1
 90
        2
176
     1
 62
     7
176
     1
 90
        5
176
     1
 90
        0
176
     1
 90
        0
176
     1
290
     0
176
     1
 90
       13
176
     1
 40
0.0
176
     1
 90
        0
176
     1
290
     0
176
     1
290
     1
176
     1
290
     1
176
     1
290
     0
176
     1
290
     0
176
     1
290
     0
176
     1
290
     0
176
     1
290
     0
176
     1
290
     0
176
     1
 90
       50
176
     1
 40
0.0
176
     1
 40
1.0
176
     1
 90
        0
176
     1
 62
    18
420
        0
176
     1
 90
       50
176
     1
 90
        3
176
     1
 62
     5
420
      255
176
     1
290
     0
176
     1
 90
       50
176
     1
 90
       50
176
     1
 90
       50
176
     1
290
     0
176
     1
 90
       50
176
     1
 62
   256
176
     0
 40
1.0
176
     0
 90
        2
176
     1
  1
strokes_ogs.tif
176
     1
290
     0
176
     1
 40
1.0
176
     1
 40
1.0
176
     1
  0
VISUALSTYLE
  5
2C
102
{ACAD_REACTORS
330
29
102
}
330
29
100
AcDbVisualStyle
  2
Gouraud
 70
     2
177
     3
291
     1
 70
    58
 90
        2
176
     1
 90
        2
176
     1
 90
        1
176
     1
 90
        2
176
     1
 40
0.6
176
     1
 40
30.0
176
     1
 62
     7
420
 16777215
176
     1
 90
        0
176
     1
 90
        0
176
     1
 62
     7
176
     1
 62
   257
176
     1
 90
        1
176
     1
 90
        1
176
     1
 40
1.0
176
     1
 90
        0
176
     1
 62
     7
176
     1
 40
1.0
176
     1
 90
        1
176
     1
 90
        6
176
     1
 90
        2
176
     1
 62
     7
176
     1
 90
        5
176
     1
 90
        0
176
     1
 90
        0
176
     1
290
     0
176
     1
 90
       13
176
     1
 40
0.0
176
     1
 90
        0
176
     1
290
     0
176
     1
290
     1
176
     1
290
     1
176
     1
290
     0
176
     1
290
     0
176
     1
290
     0
176
     1
290
     0
176
     1
290
     0
176
     1
290
     0
176
     1
 90
       50
176
     1
 40
0.0
176
     1
 40
1.0
176
     1
 90
        0
176
     1
 62
    18
420
        0
176
     1
 90
       50
176
     1
 90
        3
176
     1
 62
     5
420
      255
176
     1
290
     0
176
     1
 90
       50
176
     1
 90
       50
176
     1
 90
       50
176
     1
290
     0
176
     1
 90
       50
176
     1
 62
   256
176
     0
 40
1.0
176
     0
 90
        2
176
     1
  1
strokes_ogs.tif
176
     1
290
     0
176
     1
 40
1.0
176
     1
 40
1.0
176
     1
  0
VISUALSTYLE
  5
2D
102
{ACAD_REACTORS
330
29
102
}
330
29
100
AcDbVisualStyle
  2
GouraudWithEdges
 70
     3
177
     3
291
     1
 70
    58
 90
        2
176
     1
 90
        2
176
     1
 90
        1
176
     1
 90
        2
176
     1
 40
0.6
176
     1
 40
30.0
176
     1
 62
     7
420
 16777215
176
     1
 90
        1
176
     1
 90
        0
176
     1
 62
     7
176
     1
 62
   257
176
     1
 90
        1
176
     1
 90
        1
176
     1
 40
1.0
176
     1
 90
        0
176
     1
 62
   257
176
     1
 40
1.0
176
     1
 90
        1
176
     1
 90
        6
176
     1
 90
        2
176
     1
 62
     7
176
     1
 90
        5
176
     1
 90
        0
176
     1
 90
        0
176
     1
290
     0
176
     1
 90
       13
176
     1
 40
0.0
176
     1
 90
        0
176
     1
290
     0
176
     1
290
     1
176
     1
290
     1
176
     1
290
     0
176
     1
290
     0
176
     1
290
     0
176
     1
290
     0
176
     1
290
     0
176
     1
290
     0
176
     1
 90
       50
176
     1
 40
0.0
176
     1
 40
1.0
176
     1
 90
        0
176
     1
 62
    18
420
        0
176
     1
 90
       50
176
     1
 90
        3
176
     1
 62
     5
420
      255
176
     1
290
     0
176
     1
 90
       50
176
     1
 90
       50
176
     1
 90
       50
176
     1
290
     0
176
     1
 90
       50
176
     1
 62
   256
176
     0
 40
1.0
176
     0
 90
        2
176
     1
  1
strokes_ogs.tif
176
     1
290
     0
176
     1
 40
1.0
176
     1
 40
1.0
176
     1
  0
VISUALSTYLE
  5
31
102
{ACAD_REACTORS
330
29
102
}
330
29
100
AcDbVisualStyle
  2
Hidden
 70
     6
177
     3
291
     0
 70
    58
 90
        1
176
     1
 90
        2
176
     1
 90
        2
176
     1
 90
        0
176
     1
 40
0.6
176
     1
 40
30.0
176
     1
 62
     7
420
 16777215
176
     1
 90
        2
176
     1
 90
        2
176
     1
 62
     7
176
     1
 62
   257
176
     1
 90
        2
176
     1
 90
        1
176
     1
 40
40.0
176
     1
 90
        0
176
     1
 62
   257
176
     1
 40
1.0
176
     1
 90
        1
176
     1
 90
        6
176
     1
 90
        2
176
     1
 62
     7
176
     1
 90
        3
176
     1
 90
        0
176
     1
 90
        0
176
     1
290
     0
176
     1
 90
        1
176
     1
 40
0.0
176
     1
 90
        0
176
     1
290
     0
176
     1
290
     1
176
     1
290
     1
176
     1
290
     0
176
     1
290
     0
176
     1
290
     0
176
     1
290
     0
176
     1
290
     0
176
     1
290
     0
176
     1
 90
       50
176
     1
 40
0.0
176
     1
 40
1.0
176
     1
 90
        0
176
     1
 62
    18
420
        0
176
     1
 90
       50
176
     1
 90
        3
176
     1
 62
     5
420
      255
176
     1
290
     0
176
     1
 90
       50
176
     1
 90
       50
176
     1
 90
       50
176
     1
290
     0
176
     1
 90
       50
176
     1
 62
   256
176
     0
 40
1.0
176
     0
 90
        2
176
     1
  1
strokes_ogs.tif
176
     1
290
     0
176
     1
 40
1.0
176
     1
 40
1.0
176
     1
  0
VISUALSTYLE
  5
3F
102
{ACAD_REACTORS
330
29
102
}
330
29
100
AcDbVisualStyle
  2
JitterOff
 70
    20
177
     3
291
     1
 70
    58
 90
        2
176
     0
 90
        2
176
     0
 90
        0
176
     0
 90
        0
176
     0
 40
0.6
176
     0
 40
30.0
176
     0
 62
     7
420
 16777215
176
     0
 90
        1
176
     0
 90
        4
176
     0
 62
     7
176
     0
 62
   257
176
     0
 90
        1
176
     0
 90
        1
176
     0
 40
1.0
176
     0
 90
       10
176
     2
 62
     7
176
     0
 40
1.0
176
     0
 90
        1
176
     0
 90
        6
176
     0
 90
        2
176
     0
 62
     7
176
     0
 90
        5
176
     0
 90
        0
176
     0
 90
        0
176
     0
290
     0
176
     0
 90
        1
176
     0
 40
0.0
176
     0
 90
        0
176
     0
290
     0
176
     0
290
     1
176
     0
290
     1
176
     0
290
     0
176
     0
290
     0
176
     0
290
     0
176
     0
290
     0
176
     0
290
     0
176
     0
290
     0
176
     0
 90
       50
176
     0
 40
0.0
176
     0
 40
1.0
176
     0
 90
        0
176
     0
 62
    18
420
        0
176
     0
 90
       50
176
     0
 90
        3
176
     0
 62
     5
420
      255
176
     0
290
     0
176
     0
 90
       50
176
     0
 90
       50
176
     0
 90
       50
176
     0
290
     0
176
     0
 90
       50
176
     0
 62
   256
176
     0
 40
1.0
176
     0
 90
        2
176
     0
  1
strokes_ogs.tif
176
     0
290
     0
176
     0
 40
1.0
176
     0
 40
1.0
176
     0
  0
VISUALSTYLE
  5
37
102
{ACAD_REACTORS
330
29
102
}
330
29
100
AcDbVisualStyle
  2
Linepattern
 70
    14
177
     3
291
     1
 70
    58
 90
        2
176
     1
 90
        2
176
     1
 90
        0
176
     1
 90
        0
176
     1
 40
0.6
176
     1
 40
30.0
176
     1
 62
     7
420
 16777215
176
     1
 90
        1
176
     1
 90
        4
176
     1
 62
     7
176
     1
 62
   257
176
     1
 90
        7
176
     1
 90
        7
176
     1
 40
1.0
176
     1
 90
        8
176
     1
 62
     7
176
     1
 40
1.0
176
     1
 90
        1
176
     1
 90
        6
176
     1
 90
        2
176
     1
 62
     7
176
     1
 90
        5
176
     1
 90
        0
176
     1
 90
        0
176
     1
290
     0
176
     1
 90
        1
176
     1
 40
0.0
176
     1
 90
        0
176
     1
290
     0
176
     1
290
     1
176
     1
290
     1
176
     1
290
     0
176
     1
290
     0
176
     1
290
     0
176
     1
290
     0
176
     1
290
     0
176
     1
290
     0
176
     1
 90
       50
176
     1
 40
0.0
176
     1
 40
1.0
176
     1
 90
        0
176
     1
 62
    18
420
        0
176
     1
 90
       50
176
     1
 90
        3
176
     1
 62
     5
420
      255
176
     1
290
     0
176
     1
 90
       50
176
     1
 90
       50
176
     1
 90
       50
176
     1
290
     0
176
     1
 90
       50
176
     1
 62
   256
176
     0
 40
1.0
176
     0
 90
        2
176
     1
  1
strokes_ogs.tif
176
     1
290
     0
176
     1
 40
1.0
176
     1
 40
1.0
176
     1
  0
VISUALSTYLE
  5
40
102
{ACAD_REACTORS
330
29
102
}
330
29
100
AcDbVisualStyle
  2
OverhangOff
 70
    21
177
     3
291
     1
 70
    58
 90
        2
176
     0
 90
        2
176
     0
 90
        0
176
     0
 90
        0
176
     0
 40
0.6
176
     0
 40
30.0
176
     0
 62
     7
420
 16777215
176
     0
 90
        1
176
     0
 90
        4
176
     0
 62
     7
176
     0
 62
   257
176
     0
 90
        1
176
     0
 90
        1
176
     0
 40
1.0
176
     0
 90
        9
176
     2
 62
     7
176
     0
 40
1.0
176
     0
 90
        1
176
     0
 90
        6
176
     0
 90
        2
176
     0
 62
     7
176
     0
 90
        5
176
     0
 90
        0
176
     0
 90
        0
176
     0
290
     0
176
     0
 90
        1
176
     0
 40
0.0
176
     0
 90
        0
176
     0
290
     0
176
     0
290
     1
176
     0
290
     1
176
     0
290
     0
176
     0
290
     0
176
     0
290
     0
176
     0
290
     0
176
     0
290
     0
176
     0
290
     0
176
     0
 90
       50
176
     0
 40
0.0
176
     0
 40
1.0
176
     0
 90
        0
176
     0
 62
    18
420
        0
176
     0
 90
       50
176
     0
 90
        3
176
     0
 62
     5
420
      255
176
     0
290
     0
176
     0
 90
       50
176
     0
 90
       50
176
     0
 90
       50
176
     0
290
     0
176
     0
 90
       50
176
     0
 62
   256
176
     0
 40
1.0
176
     0
 90
        2
176
     0
  1
strokes_ogs.tif
176
     0
290
     0
176
     0
 40
1.0
176
     0
 40
1.0
176
     0
  0
VISUALSTYLE
  5
33
102
{ACAD_REACTORS
330
29
102
}
330
29
100
AcDbVisualStyle
  2
Realistic
 70
     8
177
     3
291
     0
 70
    58
 90
        2
176
     1
 90
        3
176
     1
 90
        0
176
     1
 90
        2
176
     1
 40
0.6
176
     1
 40
30.0
176
     1
 62
     7
420
 16777215
176
     1
 90
        0
176
     1
 90
        0
176
     1
 62
     7
176
     1
 62
   257
176
     1
 90
        1
176
     1
 90
        1
176
     1
 40
1.0
176
     1
 90
        8
176
     1
 62
   257
176
     1
 40
1.0
176
     1
 90
        1
176
     1
 90
        6
176
     1
 90
        2
176
     1
 62
     7
176
     1
 90
        3
176
     1
 90
        0
176
     1
 90
        0
176
     1
290
     0
176
     1
 90
       13
176
     1
 40
0.0
176
     1
 90
        0
176
     1
290
     0
176
     1
290
     1
176
     1
290
     1
176
     1
290
     0
176
     1
290
     0
176
     1
290
     0
176
     1
290
     0
176
     1
290
     0
176
     1
290
     0
176
     1
 90
       50
176
     1
 40
0.0
176
     1
 40
1.0
176
     1
 90
        0
176
     1
 62
    18
420
        0
176
     1
 90
       50
176
     1
 90
        3
176
     1
 62
     5
420
      255
176
     1
290
     0
176
     1
 90
       50
176
     1
 90
       50
176
     1
 90
       50
176
     1
290
     0
176
     1
 90
       50
176
     1
 62
   256
176
     0
 40
1.0
176
     0
 90
        2
176
     1
  1
strokes_ogs.tif
176
     1
290
     0
176
     1
 40
1.0
176
     1
 40
1.0
176
     1
  0
VISUALSTYLE
  5
3E
102
{ACAD_REACTORS
330
29
102
}
330
29
100
AcDbVisualStyle
  2
Shaded
 70
    27
177
     3
291
     0
 70
    58
 90
        2
176
     1
 90
        2
176
     1
 90
        1
176
     1
 90
        2
176
     1
 40
0.6
176
     1
 40
30.0
176
     1
 62
     7
420
 16777215
176
     1
 90
        0
176
     1
 90
        4
176
     1
 62
     7
176
     1
 62
   257
176
     1
 90
        1
176
     1
 90
        1
176
     1
 40
1.0
176
     1
 90
        8
176
     1
 62
   257
176
     1
 40
1.0
176
     1
 90
        1
176
     1
 90
        6
176
     1
 90
        2
176
     1
 62
     8
420
  7895160
176
     1
 90
        3
176
     1
 90
        0
176
     1
 90
        0
176
     1
290
     0
176
     1
 90
        5
176
     1
 40
0.0
176
     1
 90
        0
176
     1
290
     0
176
     1
290
     1
176
     1
290
     1
176
     1
290
     0
176
     1
290
     0
176
     1
290
     0
176
     1
290
     0
176
     1
290
     0
176
     1
290
     0
176
     1
 90
       50
176
     1
 40
0.0
176
     1
 40
1.0
176
     1
 90
        0
176
     1
 62
    18
420
        0
176
     1
 90
       50
176
     1
 90
        3
176
     1
 62
     5
420
      255
176
     1
290
     0
176
     1
 90
       50
176
     1
 90
       50
176
     1
 90
       50
176
     1
290
     0
176
     1
 90
       50
176
     1
 62
   256
176
     0
 40
1.0
176
     0
 90
        2
176
     1
  1
strokes_ogs.tif
176
     1
290
     0
176
     1
 40
1.0
176
     1
 40
1.0
176
     1
  0
VISUALSTYLE
  5
3D
102
{ACAD_REACTORS
330
29
102
}
330
29
100
AcDbVisualStyle
  2
Shaded with edges
 70
    26
177
     3
291
     0
 70
    58
 90
        2
176
     1
 90
        2
176
     1
 90
        1
176
     1
 90
        2
176
     1
 40
0.6
176
     1
 40
30.0
176
     1
 62
     7
420
 16777215
176
     1
 90
        1
176
     1
 90
       10
176
     1
 62
     7
176
     1
 62
   257
176
     1
 90
        2
176
     1
 90
        1
176
     1
 40
1.0
176
     1
 90
        8
176
     1
 62
   257
176
     1
 40
1.0
176
     1
 90
        1
176
     1
 90
        6
176
     1
 90
        2
176
     1
 62
     7
176
     1
 90
        3
176
     1
 90
        0
176
     1
 90
        0
176
     1
290
     0
176
     1
 90
        5
176
     1
 40
0.0
176
     1
 90
        0
176
     1
290
     0
176
     1
290
     1
176
     1
290
     1
176
     1
290
     0
176
     1
290
     0
176
     1
290
     0
176
     1
290
     0
176
     1
290
     0
176
     1
290
     0
176
     1
 90
       50
176
     1
 40
0.0
176
     1
 40
1.0
176
     1
 90
        0
176
     1
 62
    18
420
        0
176
     1
 90
       50
176
     1
 90
        3
176
     1
 62
     5
420
      255
176
     1
290
     0
176
     1
 90
       50
176
     1
 90
       50
176
     1
 90
       50
176
     1
290
     0
176
     1
 90
       50
176
     1
 62
   256
176
     0
 40
1.0
176
     0
 90
        2
176
     1
  1
strokes_ogs.tif
176
     1
290
     0
176
     1
 40
1.0
176
     1
 40
1.0
176
     1
  0
VISUALSTYLE
  5
3A
102
{ACAD_REACTORS
330
29
102
}
330
29
100
AcDbVisualStyle
  2
Shades of Gray
 70
    23
177
     3
291
     0
 70
    58
 90
        2
176
     1
 90
        2
176
     1
 90
        3
176
     1
 90
        0
176
     1
 40
0.6
176
     1
 40
30.0
176
     1
 62
     7
420
 16777215
176
     1
 90
        2
176
     1
 90
        2
176
     1
 62
     7
176
     1
 62
     7
176
     1
 90
        1
176
     1
 90
        1
176
     1
 40
40.0
176
     1
 90
        8
176
     1
 62
     7
176
     1
 40
1.0
176
     1
 90
        1
176
     1
 90
        6
176
     1
 90
        2
176
     1
 62
     7
176
     1
 90
        3
176
     1
 90
        0
176
     1
 90
        0
176
     1
290
     0
176
     1
 90
        1
176
     1
 40
0.0
176
     1
 90
        0
176
     1
290
     0
176
     1
290
     1
176
     1
290
     1
176
     1
290
     0
176
     1
290
     0
176
     1
290
     0
176
     1
290
     0
176
     1
290
     0
176
     1
290
     0
176
     1
 90
       50
176
     1
 40
0.0
176
     1
 40
1.0
176
     1
 90
        0
176
     1
 62
    18
420
        0
176
     1
 90
       50
176
     1
 90
        3
176
     1
 62
     5
420
      255
176
     1
290
     0
176
     1
 90
       50
176
     1
 90
       50
176
     1
 90
       50
176
     1
290
     0
176
     1
 90
       50
176
     1
 62
   256
176
     0
 40
1.0
176
     0
 90
        2
176
     1
  1
strokes_ogs.tif
176
     1
290
     0
176
     1
 40
1.0
176
     1
 40
1.0
176
     1
  0
VISUALSTYLE
  5
3B
102
{ACAD_REACTORS
330
29
102
}
330
29
100
AcDbVisualStyle
  2
Sketchy
 70
    24
177
     3
291
     0
 70
    58
 90
        1
176
     1
 90
        2
176
     1
 90
        2
176
     1
 90
        0
176
     1
 40
0.6
176
     1
 40
30.0
176
     1
 62
     7
420
 16777215
176
     1
 90
        2
176
     1
 90
        2
176
     1
 62
     7
176
     1
 62
     7
176
     1
 90
        1
176
     1
 90
        1
176
     1
 40
40.0
176
     1
 90
       11
176
     1
 62
     7
176
     1
 40
1.0
176
     1
 90
        1
176
     1
 90
        6
176
     1
 90
        2
176
     1
 62
     7
176
     1
 90
        6
176
     1
 90
        0
176
     1
 90
        0
176
     1
290
     0
176
     1
 90
        1
176
     1
 40
0.0
176
     1
 90
        0
176
     1
290
     0
176
     1
290
     1
176
     1
290
     1
176
     1
290
     0
176
     1
290
     0
176
     1
290
     0
176
     1
290
     0
176
     1
290
     0
176
     1
290
     0
176
     1
 90
       50
176
     1
 40
0.0
176
     1
 40
1.0
176
     1
 90
        0
176
     1
 62
    18
420
        0
176
     1
 90
       50
176
     1
 90
        3
176
     1
 62
     5
420
      255
176
     1
290
     0
176
     1
 90
       50
176
     1
 90
       50
176
     1
 90
       50
176
     1
290
     0
176
     1
 90
       50
176
     1
 62
   256
176
     0
 40
1.0
176
     0
 90
        2
176
     1
  1
strokes_ogs.tif
176
     1
290
     0
176
     1
 40
1.0
176
     1
 40
1.0
176
     1
  0
VISUALSTYLE
  5
36
102
{ACAD_REACTORS
330
29
102
}
330
29
100
AcDbVisualStyle
  2
Thicken
 70
    13
177
     3
291
     1
 70
    58
 90
        2
176
     1
 90
        2
176
     1
 90
        0
176
     1
 90
        0
176
     1
 40
0.6
176
     1
 40
30.0
176
     1
 62
     7
420
 16777215
176
     1
 90
        1
176
     1
 90
        4
176
     1
 62
     7
176
     1
 62
   257
176
     1
 90
        1
176
     1
 90
        1
176
     1
 40
1.0
176
     1
 90
       12
176
     1
 62
     7
176
     1
 40
1.0
176
     1
 90
        1
176
     1
 90
        6
176
     1
 90
        2
176
     1
 62
     7
176
     1
 90
        5
176
     1
 90
        0
176
     1
 90
        0
176
     1
290
     0
176
     1
 90
        1
176
     1
 40
0.0
176
     1
 90
        0
176
     1
290
     0
176
     1
290
     1
176
     1
290
     1
176
     1
290
     0
176
     1
290
     0
176
     1
290
     0
176
     1
290
     0
176
     1
290
     0
176
     1
290
     0
176
     1
 90
       50
176
     1
 40
0.0
176
     1
 40
1.0
176
     1
 90
        0
176
     1
 62
    18
420
        0
176
     1
 90
       50
176
     1
 90
        3
176
     1
 62
     5
420
      255
176
     1
290
     0
176
     1
 90
       50
176
     1
 90
       50
176
     1
 90
       50
176
     1
290
     0
176
     1
 90
       50
176
     1
 62
   256
176
     0
 40
1.0
176
     0
 90
        2
176
     1
  1
strokes_ogs.tif
176
     1
290
     0
176
     1
 40
1.0
176
     1
 40
1.0
176
     1
  0
VISUALSTYLE
  5
30
102
{ACAD_REACTORS
330
29
102
}
330
29
100
AcDbVisualStyle
  2
Wireframe
 70
     5
177
     3
291
     0
 70
    58
 90
        0
176
     1
 90
        2
176
     1
 90
        0
176
     1
 90
        0
176
     1
 40
0.6
176
     1
 40
30.0
176
     1
 62
     7
420
 16777215
176
     1
 90
        1
176
     1
 90
        4
176
     1
 62
     7
176
     1
 62
   257
176
     1
 90
        1
176
     1
 90
        1
176
     1
 40
1.0
176
     1
 90
        0
176
     1
 62
   257
176
     1
 40
1.0
176
     1
 90
        1
176
     1
 90
        6
176
     1
 90
        2
176
     1
 62
     7
176
     1
 90
        3
176
     1
 90
        0
176
     1
 90
        0
176
     1
290
     0
176
     1
 90
        1
176
     1
 40
0.0
176
     1
 90
        0
176
     1
290
     0
176
     1
290
     1
176
     1
290
     1
176
     1
290
     0
176
     1
290
     0
176
     1
290
     0
176
     1
290
     0
176
     1
290
     0
176
     1
290
     0
176
     1
 90
       50
176
     1
 40
0.0
176
     1
 40
1.0
176
     1
 90
        0
176
     1
 62
    18
420
        0
176
     1
 90
       50
176
     1
 90
        3
176
     1
 62
     5
420
      255
176
     1
290
     0
176
     1
 90
       50
176
     1
 90
       50
176
     1
 90
       50
176
     1
290
     0
176
     1
 90
       50
176
     1
 62
   256
176
     0
 40
1.0
176
     0
 90
        2
176
     1
  1
strokes_ogs.tif
176
     1
290
     0
176
     1
 40
1.0
176
     1
 40
1.0
176
     1
  0
VISUALSTYLE
  5
3C
102
{ACAD_REACTORS
330
29
102
}
330
29
100
AcDbVisualStyle
  2
X-Ray
 70
    25
177
     3
291
     0
 70
    58
 90
        2
176
     1
 90
        2
176
     1
 90
        1
176
     1
 90
        1
176
     1
 40
0.5
176
     1
 40
30.0
176
     1
 62
     7
420
 16777215
176
     1
 90
        1
176
     1
 90
        0
176
     1
 62
     7
176
     1
 62
   257
176
     1
 90
        1
176
     1
 90
        1
176
     1
 40
1.0
176
     1
 90
        8
176
     1
 62
     7
176
     1
 40
1.0
176
     1
 90
        1
176
     1
 90
        6
176
     1
 90
        2
176
     1
 62
     7
176
     1
 90
        3
176
     1
 90
        0
176
     1
 90
        0
176
     1
290
     0
176
     1
 90
       13
176
     1
 40
0.0
176
     1
 90
        0
176
     1
290
     0
176
     1
290
     1
176
     1
290
     1
176
     1
290
     0
176
     1
290
     0
176
     1
290
     0
176
     1
290
     0
176
     1
290
     0
176
     1
290
     0
176
     1
 90
       50
176
     1
 40
0.0
176
     1
 40
1.0
176
     1
 90
        0
176
     1
 62
    18
420
        0
176
     1
 90
       50
176
     1
 90
        3
176
     1
 62
     5
420
      255
176
     1
290
     0
176
     1
 90
       50
176
     1
 90
       50
176
     1
 90
       50
176
     1
290
     0
176
     1
 90
       50
176
     1
 62
   256
176
     0
 40
1.0
176
     0
 90
        2
176
     1
  1
strokes_ogs.tif
176
     1
290
     0
176
     1
 40
1.0
176
     1
 40
1.0
176
     1
  0
DICTIONARYVAR
  5
81
102
{ACAD_REACTORS
330
7C
102
}
330
7C
100
DictionaryVariables
280
     0
  1
1:1
  0
DICTIONARYVAR
  5
7E
102
{ACAD_REACTORS
330
7C
102
}
330
7C
100
DictionaryVariables
280
     0
  1
STANDARD
  0
DICTIONARYVAR
  5
7D
102
{ACAD_REACTORS
330
7C
102
}
330
7C
100
DictionaryVariables
280
     0
  1
STANDARD
  0
DICTIONARYVAR
  5
7F
102
{ACAD_REACTORS
330
7C
102
}
330
7C
100
DictionaryVariables
280
     0
  1
Imperial24
  0
DICTIONARYVAR
  5
80
102
{ACAD_REACTORS
330
7C
102
}
330
7C
100
DictionaryVariables
280
     0
  1
Imperial24
  0
XRECORD
  5
32D
102
{ACAD_REACTORS
330
329
102
}
330
329
100
AcDbXrecord
280
     1
  1
BUILDING_ID
  1
Progetto per test valvole
  1
FLOOR_ID
  1
694395
  0
XRECORD
  5
32B
102
{ACAD_REACTORS
330
329
102
}
330
329
100
AcDbXrecord
280
     1
  1
-2001160
  1
Apparecchi idraulici
  0
XRECORD
  5
32C
102
{ACAD_REACTORS
330
329
102
}
330
329
100
AcDbXrecord
280
     1
  1
790271
  1
Body
  1
856288
  1
Lever
  0
XRECORD
  5
32A
102
{ACAD_REACTORS
330
329
102
}
330
329
100
AcDbXrecord
280
     1
  1
859151
  1
Automatic flow rate regulator valve_Caleffi_121 DN15 : 1/2''
  0
DICTIONARY
  5
1A
330
19
100
AcDbDictionary
280
     1
281
     1
  3
BUMPTILE
360
1C
  3
DIFFUSETILE
360
1B
  3
OPACITYTILE
360
1F
  3
REFLECTIONTILE
360
1E
  3
REFRACTIONTILE
360
20
  3
SPECULARTILE
360
1D
  0
DICTIONARY
  5
12
330
11
100
AcDbDictionary
280
     1
281
     1
  3
BUMPTILE
360
14
  3
DIFFUSETILE
360
13
  3
OPACITYTILE
360
17
  3
REFLECTIONTILE
360
16
  3
REFRACTIONTILE
360
18
  3
SPECULARTILE
360
15
  0
DICTIONARY
  5
22
330
21
100
AcDbDictionary
280
     1
281
     1
  3
BUMPTILE
360
24
  3
DIFFUSETILE
360
23
  3
OPACITYTILE
360
27
  3
REFLECTIONTILE
360
26
  3
REFRACTIONTILE
360
28
  3
SPECULARTILE
360
25
  0
DICTIONARY
  5
330
330
65
100
AcDbDictionary
280
     1
281
     1
  3
ACAD_ROUNDTRIP_2008_TABLESTYLE_CELLSTYLEMAP
360
331
  0
XRECORD
  5
1C
102
{ACAD_REACTORS
330
1A
102
}
330
1A
100
AcDbXrecord
280
     1
270
     1
271
     1
  0
XRECORD
  5
1B
102
{ACAD_REACTORS
330
1A
102
}
330
1A
100
AcDbXrecord
280
     1
270
     1
271
     1
  0
XRECORD
  5
1F
102
{ACAD_REACTORS
330
1A
102
}
330
1A
100
AcDbXrecord
280
     1
270
     1
271
     1
  0
XRECORD
  5
1E
102
{ACAD_REACTORS
330
1A
102
}
330
1A
100
AcDbXrecord
280
     1
270
     1
271
     1
  0
XRECORD
  5
20
102
{ACAD_REACTORS
330
1A
102
}
330
1A
100
AcDbXrecord
280
     1
270
     1
271
     1
  0
XRECORD
  5
1D
102
{ACAD_REACTORS
330
1A
102
}
330
1A
100
AcDbXrecord
280
     1
270
     1
271
     1
  0
XRECORD
  5
14
102
{ACAD_REACTORS
330
12
102
}
330
12
100
AcDbXrecord
280
     1
270
     1
271
     1
  0
XRECORD
  5
13
102
{ACAD_REACTORS
330
12
102
}
330
12
100
AcDbXrecord
280
     1
270
     1
271
     1
  0
XRECORD
  5
17
102
{ACAD_REACTORS
330
12
102
}
330
12
100
AcDbXrecord
280
     1
270
     1
271
     1
  0
XRECORD
  5
16
102
{ACAD_REACTORS
330
12
102
}
330
12
100
AcDbXrecord
280
     1
270
     1
271
     1
  0
XRECORD
  5
18
102
{ACAD_REACTORS
330
12
102
}
330
12
100
AcDbXrecord
280
     1
270
     1
271
     1
  0
XRECORD
  5
15
102
{ACAD_REACTORS
330
12
102
}
330
12
100
AcDbXrecord
280
     1
270
     1
271
     1
  0
XRECORD
  5
24
102
{ACAD_REACTORS
330
22
102
}
330
22
100
AcDbXrecord
280
     1
270
     1
271
     1
  0
XRECORD
  5
23
102
{ACAD_REACTORS
330
22
102
}
330
22
100
AcDbXrecord
280
     1
270
     1
271
     1
  0
XRECORD
  5
27
102
{ACAD_REACTORS
330
22
102
}
330
22
100
AcDbXrecord
280
     1
270
     1
271
     1
  0
XRECORD
  5
26
102
{ACAD_REACTORS
330
22
102
}
330
22
100
AcDbXrecord
280
     1
270
     1
271
     1
  0
XRECORD
  5
28
102
{ACAD_REACTORS
330
22
102
}
330
22
100
AcDbXrecord
280
     1
270
     1
271
     1
  0
XRECORD
  5
25
102
{ACAD_REACTORS
330
22
102
}
330
22
100
AcDbXrecord
280
     1
270
     1
271
     1
  0
CELLSTYLEMAP
  5
331
102
{ACAD_REACTORS
330
330
102
}
330
330
100
AcDbCellStyleMap
 90
        3
300
CELLSTYLE
  1
TABLEFORMAT_BEGIN
 90
        5
170
     1
 91
        0
 92
    32768
 62
   257
 93
        1
300
CONTENTFORMAT
  1
CONTENTFORMAT_BEGIN
 90
        0
 91
        0
 92
      512
 93
        0
300

 40
0.0
140
1.0
 94
        5
 62
     0
340
55
144
0.25
309
CONTENTFORMAT_END
171
     0
 94
        0
309
TABLEFORMAT_END
  1
CELLSTYLE_BEGIN
 90
        1
 91
        1
300
_TITLE
309
CELLSTYLE_END
300
CELLSTYLE
  1
TABLEFORMAT_BEGIN
 90
        5
170
     1
 91
        0
 92
        0
 62
   257
 93
        1
300
CONTENTFORMAT
  1
CONTENTFORMAT_BEGIN
 90
        0
 91
        0
 92
      512
 93
        0
300

 40
0.0
140
1.0
 94
        5
 62
     0
340
55
144
0.18
309
CONTENTFORMAT_END
171
     0
 94
        0
309
TABLEFORMAT_END
  1
CELLSTYLE_BEGIN
 90
        2
 91
        1
300
_HEADER
309
CELLSTYLE_END
300
CELLSTYLE
  1
TABLEFORMAT_BEGIN
 90
        5
170
     1
 91
        0
 92
        0
 62
   257
 93
        1
300
CONTENTFORMAT
  1
CONTENTFORMAT_BEGIN
 90
        0
 91
        0
 92
      512
 93
        0
300

 40
0.0
140
1.0
 94
        2
 62
     0
340
55
144
0.18
309
CONTENTFORMAT_END
171
     0
 94
        0
309
TABLEFORMAT_END
  1
CELLSTYLE_BEGIN
 90
        3
 91
        2
300
_DATA
309
CELLSTYLE_END
  0
ENDSEC
  0
EOF
