  0
SECTION
  2
HEADER
  9
$ACADVER
  1
AC1027
  9
$ACADMAINTVER
 70
    20
  9
$DWGCODEPAGE
  3
ANSI_1252
  9
$REQUIREDVERSIONS
160
                 0
  9
$INSBASE
 10
0.0
 20
0.0
 30
0.0
  9
$EXTMIN
 10
626.0271471287511
 20
1780.745878730052
 30
-0.00000001
  9
$EXTMAX
 10
1092.614353943098
 20
2050.019999999991
 30
0.00000001
  9
$LIMMIN
 10
0.0
 20
0.0
  9
$LIMMAX
 10
12.0
 20
9.0
  9
$ORTHOMODE
 70
     0
  9
$REGENMODE
 70
     1
  9
$FILLMODE
 70
     1
  9
$QTEXTMODE
 70
     0
  9
$MIRRTEXT
 70
     0
  9
$LTSCALE
 40
1.0
  9
$ATTMODE
 70
     1
  9
$TEXTSIZE
 40
0.2
  9
$TRACEWID
 40
0.05
  9
$TEXTSTYLE
  7
Standard
  9
$CLAYER
  8
0
  9
$CELTYPE
  6
ByLayer
  9
$CECOLOR
 62
   256
  9
$CELTSCALE
 40
1.0
  9
$DISPSILH
 70
     0
  9
$DIMSCALE
 40
1.0
  9
$DIMASZ
 40
0.18
  9
$DIMEXO
 40
0.0625
  9
$DIMDLI
 40
0.38
  9
$DIMRND
 40
0.0
  9
$DIMDLE
 40
0.0
  9
$DIMEXE
 40
0.18
  9
$DIMTP
 40
0.0
  9
$DIMTM
 40
0.0
  9
$DIMTXT
 40
0.18
  9
$DIMCEN
 40
0.09
  9
$DIMTSZ
 40
0.0
  9
$DIMTOL
 70
     0
  9
$DIMLIM
 70
     0
  9
$DIMTIH
 70
     1
  9
$DIMTOH
 70
     1
  9
$DIMSE1
 70
     0
  9
$DIMSE2
 70
     0
  9
$DIMTAD
 70
     0
  9
$DIMZIN
 70
     0
  9
$DIMBLK
  1

  9
$DIMASO
 70
     1
  9
$DIMSHO
 70
     1
  9
$DIMPOST
  1

  9
$DIMAPOST
  1

  9
$DIMALT
 70
     0
  9
$DIMALTD
 70
     2
  9
$DIMALTF
 40
25.4
  9
$DIMLFAC
 40
1.0
  9
$DIMTOFL
 70
     0
  9
$DIMTVP
 40
0.0
  9
$DIMTIX
 70
     0
  9
$DIMSOXD
 70
     0
  9
$DIMSAH
 70
     0
  9
$DIMBLK1
  1

  9
$DIMBLK2
  1

  9
$DIMSTYLE
  2
Standard
  9
$DIMCLRD
 70
     0
  9
$DIMCLRE
 70
     0
  9
$DIMCLRT
 70
     0
  9
$DIMTFAC
 40
1.0
  9
$DIMGAP
 40
0.09
  9
$DIMJUST
 70
     0
  9
$DIMSD1
 70
     0
  9
$DIMSD2
 70
     0
  9
$DIMTOLJ
 70
     1
  9
$DIMTZIN
 70
     0
  9
$DIMALTZ
 70
     0
  9
$DIMALTTZ
 70
     0
  9
$DIMUPT
 70
     0
  9
$DIMDEC
 70
     4
  9
$DIMTDEC
 70
     4
  9
$DIMALTU
 70
     2
  9
$DIMALTTD
 70
     2
  9
$DIMTXSTY
  7
Standard
  9
$DIMAUNIT
 70
     0
  9
$DIMADEC
 70
     0
  9
$DIMALTRND
 40
0.0
  9
$DIMAZIN
 70
     0
  9
$DIMDSEP
 70
    46
  9
$DIMATFIT
 70
     3
  9
$DIMFRAC
 70
     0
  9
$DIMLDRBLK
  1

  9
$DIMLUNIT
 70
     2
  9
$DIMLWD
 70
    -2
  9
$DIMLWE
 70
    -2
  9
$DIMTMOVE
 70
     0
  9
$DIMFXL
 40
1.0
  9
$DIMFXLON
 70
     0
  9
$DIMJOGANG
 40
0.7853981633974483
  9
$DIMTFILL
 70
     0
  9
$DIMTFILLCLR
 70
     0
  9
$DIMARCSYM
 70
     0
  9
$DIMLTYPE
  6

  9
$DIMLTEX1
  6

  9
$DIMLTEX2
  6

  9
$DIMTXTDIRECTION
 70
     0
  9
$LUNITS
 70
     2
  9
$LUPREC
 70
     4
  9
$SKETCHINC
 40
0.1
  9
$FILLETRAD
 40
0.0
  9
$AUNITS
 70
     0
  9
$AUPREC
 70
     0
  9
$MENU
  1
.
  9
$ELEVATION
 40
0.0
  9
$PELEVATION
 40
0.0
  9
$THICKNESS
 40
0.0
  9
$LIMCHECK
 70
     0
  9
$CHAMFERA
 40
0.0
  9
$CHAMFERB
 40
0.0
  9
$CHAMFERC
 40
0.0
  9
$CHAMFERD
 40
0.0
  9
$SKPOLY
 70
     0
  9
$TDCREATE
 40
2457539.687575510
  9
$TDUCREATE
 40
2457539.604242176
  9
$TDUPDATE
 40
2457539.687575510
  9
$TDUUPDATE
 40
2457539.604242176
  9
$TDINDWG
 40
0.0000091667
  9
$TDUSRTIMER
 40
0.0000091667
  9
$USRTIMER
 70
     1
  9
$ANGBASE
 50
0.0
  9
$ANGDIR
 70
     0
  9
$PDMODE
 70
     0
  9
$PDSIZE
 40
0.0
  9
$PLINEWID
 40
0.0
  9
$SPLFRAME
 70
     0
  9
$SPLINETYPE
 70
     6
  9
$SPLINESEGS
 70
     8
  9
$HANDSEED
  5
324
  9
$SURFTAB1
 70
     6
  9
$SURFTAB2
 70
     6
  9
$SURFTYPE
 70
     6
  9
$SURFU
 70
     6
  9
$SURFV
 70
     6
  9
$UCSBASE
  2

  9
$UCSNAME
  2

  9
$UCSORG
 10
0.0
 20
0.0
 30
0.0
  9
$UCSXDIR
 10
1.0
 20
0.0
 30
0.0
  9
$UCSYDIR
 10
0.0
 20
1.0
 30
0.0
  9
$UCSORTHOREF
  2

  9
$UCSORTHOVIEW
 70
     0
  9
$UCSORGTOP
 10
0.0
 20
0.0
 30
0.0
  9
$UCSORGBOTTOM
 10
0.0
 20
0.0
 30
0.0
  9
$UCSORGLEFT
 10
0.0
 20
0.0
 30
0.0
  9
$UCSORGRIGHT
 10
0.0
 20
0.0
 30
0.0
  9
$UCSORGFRONT
 10
0.0
 20
0.0
 30
0.0
  9
$UCSORGBACK
 10
0.0
 20
0.0
 30
0.0
  9
$PUCSBASE
  2

  9
$PUCSNAME
  2

  9
$PUCSORG
 10
0.0
 20
0.0
 30
0.0
  9
$PUCSXDIR
 10
1.0
 20
0.0
 30
0.0
  9
$PUCSYDIR
 10
0.0
 20
1.0
 30
0.0
  9
$PUCSORTHOREF
  2

  9
$PUCSORTHOVIEW
 70
     0
  9
$PUCSORGTOP
 10
0.0
 20
0.0
 30
0.0
  9
$PUCSORGBOTTOM
 10
0.0
 20
0.0
 30
0.0
  9
$PUCSORGLEFT
 10
0.0
 20
0.0
 30
0.0
  9
$PUCSORGRIGHT
 10
0.0
 20
0.0
 30
0.0
  9
$PUCSORGFRONT
 10
0.0
 20
0.0
 30
0.0
  9
$PUCSORGBACK
 10
0.0
 20
0.0
 30
0.0
  9
$USERI1
 70
     0
  9
$USERI2
 70
     0
  9
$USERI3
 70
     0
  9
$USERI4
 70
     0
  9
$USERI5
 70
     0
  9
$USERR1
 40
0.0
  9
$USERR2
 40
0.0
  9
$USERR3
 40
0.0
  9
$USERR4
 40
0.0
  9
$USERR5
 40
0.0
  9
$WORLDVIEW
 70
     1
  9
$SHADEDGE
 70
     3
  9
$SHADEDIF
 70
    70
  9
$TILEMODE
 70
     1
  9
$MAXACTVP
 70
    64
  9
$PINSBASE
 10
0.0
 20
0.0
 30
0.0
  9
$PLIMCHECK
 70
     0
  9
$PEXTMIN
 10
1.000000000000000E+20
 20
1.000000000000000E+20
 30
1.000000000000000E+20
  9
$PEXTMAX
 10
-1.000000000000000E+20
 20
-1.000000000000000E+20
 30
-1.000000000000000E+20
  9
$PLIMMIN
 10
0.0
 20
0.0
  9
$PLIMMAX
 10
12.0
 20
9.0
  9
$UNITMODE
 70
     0
  9
$VISRETAIN
 70
     1
  9
$PLINEGEN
 70
     0
  9
$PSLTSCALE
 70
     1
  9
$TREEDEPTH
 70
  3020
  9
$CMLSTYLE
  2
Standard
  9
$CMLJUST
 70
     0
  9
$CMLSCALE
 40
1.0
  9
$PROXYGRAPHICS
 70
     1
  9
$MEASUREMENT
 70
     1
  9
$CELWEIGHT
370
    -1
  9
$ENDCAPS
280
     0
  9
$JOINSTYLE
280
     0
  9
$LWDISPLAY
290
     0
  9
$INSUNITS
 70
     4
  9
$HYPERLINKBASE
  1

  9
$STYLESHEET
  1

  9
$XEDIT
290
     1
  9
$CEPSNTYPE
380
     0
  9
$PSTYLEMODE
290
     1
  9
$FINGERPRINTGUID
  2
{1525D1ED-9E66-4783-8F8E-5BF5B22D9D02}
  9
$VERSIONGUID
  2
{4B869116-486E-4934-A195-E46E7C677058}
  9
$EXTNAMES
290
     1
  9
$PSVPSCALE
 40
0.0
  9
$OLESTARTUP
290
     0
  9
$SORTENTS
280
   127
  9
$INDEXCTL
280
     0
  9
$HIDETEXT
280
     1
  9
$XCLIPFRAME
280
     2
  9
$HALOGAP
280
     0
  9
$OBSCOLOR
 70
   257
  9
$OBSLTYPE
280
     0
  9
$INTERSECTIONDISPLAY
280
     0
  9
$INTERSECTIONCOLOR
 70
   257
  9
$DIMASSOC
280
     2
  9
$PROJECTNAME
  1

  9
$CAMERADISPLAY
290
     0
  9
$LENSLENGTH
 40
50.0
  9
$CAMERAHEIGHT
 40
0.0
  9
$STEPSPERSEC
 40
2.0
  9
$STEPSIZE
 40
6.0
  9
$3DDWFPREC
 40
2.0
  9
$PSOLWIDTH
 40
0.25
  9
$PSOLHEIGHT
 40
4.0
  9
$LOFTANG1
 40
1.570796326794896
  9
$LOFTANG2
 40
1.570796326794896
  9
$LOFTMAG1
 40
0.0
  9
$LOFTMAG2
 40
0.0
  9
$LOFTPARAM
 70
     7
  9
$LOFTNORMALS
280
     1
  9
$LATITUDE
 40
37.795
  9
$LONGITUDE
 40
-122.394
  9
$NORTHDIRECTION
 40
0.0
  9
$TIMEZONE
 70
 -8000
  9
$LIGHTGLYPHDISPLAY
280
     1
  9
$TILEMODELIGHTSYNCH
280
     1
  9
$CMATERIAL
347
11
  9
$SOLIDHIST
280
     0
  9
$SHOWHIST
280
     1
  9
$DWFFRAME
280
     2
  9
$DGNFRAME
280
     0
  9
$REALWORLDSCALE
290
     1
  9
$INTERFERECOLOR
 62
     1
  9
$INTERFEREOBJVS
345
33
  9
$INTERFEREVPVS
346
30
  9
$CSHADOW
280
     0
  9
$SHADOWPLANELOCATION
 40
0.0
  0
ENDSEC
  0
SECTION
  2
CLASSES
  0
CLASS
  1
ACDBDICTIONARYWDFLT
  2
AcDbDictionaryWithDefault
  3
ObjectDBX Classes
 90
        0
 91
        1
280
     0
281
     0
  0
CLASS
  1
MATERIAL
  2
AcDbMaterial
  3
ObjectDBX Classes
 90
     1153
 91
        3
280
     0
281
     0
  0
CLASS
  1
VISUALSTYLE
  2
AcDbVisualStyle
  3
ObjectDBX Classes
 90
     4095
 91
       24
280
     0
281
     0
  0
CLASS
  1
SCALE
  2
AcDbScale
  3
ObjectDBX Classes
 90
     1153
 91
       17
280
     0
281
     0
  0
CLASS
  1
TABLESTYLE
  2
AcDbTableStyle
  3
ObjectDBX Classes
 90
     4095
 91
        1
280
     0
281
     0
  0
CLASS
  1
MLEADERSTYLE
  2
AcDbMLeaderStyle
  3
ACDB_MLEADERSTYLE_CLASS
 90
     4095
 91
        1
280
     0
281
     0
  0
CLASS
  1
ACDBSECTIONVIEWSTYLE
  2
AcDbSectionViewStyle
  3
ObjectDBX Classes
 90
     1025
 91
        1
280
     0
281
     0
  0
CLASS
  1
ACDBDETAILVIEWSTYLE
  2
AcDbDetailViewStyle
  3
ObjectDBX Classes
 90
     1025
 91
        1
280
     0
281
     0
  0
CLASS
  1
RASTERVARIABLES
  2
AcDbRasterVariables
  3
ISM
 90
        0
 91
        1
280
     0
281
     0
  0
CLASS
  1
DICTIONARYVAR
  2
AcDbDictionaryVar
  3
ObjectDBX Classes
 90
        0
 91
        5
280
     0
281
     0
  0
CLASS
  1
CELLSTYLEMAP
  2
AcDbCellStyleMap
  3
ObjectDBX Classes
 90
     1152
 91
        2
280
     0
281
     0
  0
CLASS
  1
SORTENTSTABLE
  2
AcDbSortentsTable
  3
ObjectDBX Classes
 90
        0
 91
        1
280
     0
281
     0
  0
ENDSEC
  0
SECTION
  2
TABLES
  0
TABLE
  2
VPORT
  5
8
330
0
100
AcDbSymbolTable
 70
     1
  0
VPORT
  5
57
330
8
100
AcDbSymbolTableRecord
100
AcDbViewportTableRecord
  2
*Active
 70
     0
 10
0.0
 20
0.0
 11
1.0
 21
1.0
 12
859.3207505359243
 22
1915.382939365022
 13
0.0
 23
0.0
 14
1.0
 24
1.0
 15
0.0
 25
0.0
 16
0.0
 26
0.0
 36
1.0
 17
0.0
 27
0.0
 37
0.0
 40
269.2741212699389
 41
1.732759184632553
 42
50.0
 43
0.0
 44
0.0
 50
0.0
 51
0.0
 71
     0
 72
  1000
 73
     1
 74
     1
 75
     0
 76
     0
 77
     0
 78
     0
281
     0
 65
     1
110
0.0
120
0.0
130
0.0
111
1.0
121
0.0
131
0.0
112
0.0
122
1.0
132
0.0
 79
     0
146
0.0
 60
     3
 61
     5
292
     1
282
     1
141
0.0
142
0.0
 63
   250
421
  3355443
  0
ENDTAB
  0
TABLE
  2
LTYPE
  5
5
330
0
100
AcDbSymbolTable
 70
     3
  0
LTYPE
  5
5B
330
5
100
AcDbSymbolTableRecord
100
AcDbLinetypeTableRecord
  2
ByBlock
 70
     0
  3

 72
    65
 73
     0
 40
0.0
  0
LTYPE
  5
5C
330
5
100
AcDbSymbolTableRecord
100
AcDbLinetypeTableRecord
  2
ByLayer
 70
     0
  3

 72
    65
 73
     0
 40
0.0
  0
LTYPE
  5
5D
330
5
100
AcDbSymbolTableRecord
100
AcDbLinetypeTableRecord
  2
Continuous
 70
     0
  3
Solid line
 72
    65
 73
     0
 40
0.0
  0
LTYPE
  5
69
330
5
100
AcDbSymbolTableRecord
100
AcDbLinetypeTableRecord
  2
PHANTOM2
 70
     0
  3
___ _ _ ___ _ _ ___ _ _ ___ _ _
 72
    65
 73
     6
 40
1.25
 49
0.625
 74
     0
 49
-0.125
 74
     0
 49
0.125
 74
     0
 49
-0.125
 74
     0
 49
0.125
 74
     0
 49
-0.125
 74
     0
  0
LTYPE
  5
86
330
5
100
AcDbSymbolTableRecord
100
AcDbLinetypeTableRecord
  2
Nascosto 1_5 mm
 70
     0
  3

 72
    65
 73
     2
 40
2.2
 49
1.5
 74
     0
 49
-0.7000000000000001
 74
     0
  0
ENDTAB
  0
TABLE
  2
LAYER
  5
2
330
0
100
AcDbSymbolTable
 70
     4
  0
LAYER
  5
54
330
2
100
AcDbSymbolTableRecord
100
AcDbLayerTableRecord
  2
0
 70
     0
 62
     7
  6
Continuous
370
    -3
390
F
347
21
348
0
  0
LAYER
  5
85
330
2
100
AcDbSymbolTableRecord
100
AcDbLayerTableRecord
  2
P-SANR-FIXT
 70
     0
 62
     6
  6
Continuous
370
    18
390
F
347
21
348
0
  0
LAYER
  5
88
330
2
100
AcDbSymbolTableRecord
100
AcDbLayerTableRecord
  2
M-PIPE
 70
     0
 62
     3
  6
Continuous
370
    18
390
F
347
21
348
0
  0
ENDTAB
  0
TABLE
  2
STYLE
  5
3
330
0
100
AcDbSymbolTable
 70
     2
  0
STYLE
  5
55
330
3
100
AcDbSymbolTableRecord
100
AcDbTextStyleTableRecord
  2
Standard
 70
     0
 40
0.0
 41
1.0
 50
0.0
 71
     0
 42
0.2
  3
txt
  4

  0
STYLE
  5
5A
330
3
100
AcDbSymbolTableRecord
100
AcDbTextStyleTableRecord
  2
Annotative
 70
     0
 40
0.0
 41
1.0
 50
0.0
 71
     0
 42
0.2
  3
txt
  4

1001
AcadAnnotative
1000
AnnotativeData
1002
{
1070
     1
1070
     1
1002
}
  0
ENDTAB
  0
TABLE
  2
VIEW
  5
6
330
0
100
AcDbSymbolTable
 70
     0
  0
ENDTAB
  0
TABLE
  2
UCS
  5
7
330
0
100
AcDbSymbolTable
 70
     0
  0
ENDTAB
  0
TABLE
  2
APPID
  5
9
330
0
100
AcDbSymbolTable
 70
     3
  0
APPID
  5
56
330
9
100
AcDbSymbolTableRecord
100
AcDbRegAppTableRecord
  2
ACAD
 70
     0
  0
APPID
  5
5E
330
9
100
AcDbSymbolTableRecord
100
AcDbRegAppTableRecord
  2
AcadAnnotative
 70
     0
  0
APPID
  5
79
330
9
100
AcDbSymbolTableRecord
100
AcDbRegAppTableRecord
  2
REVIT
 70
     0
  0
ENDTAB
  0
TABLE
  2
DIMSTYLE
  5
A
330
0
100
AcDbSymbolTable
 70
     2
100
AcDbDimStyleTable
 71
     0
  0
DIMSTYLE
105
58
330
A
100
AcDbSymbolTableRecord
100
AcDbDimStyleTableRecord
  2
Standard
 70
     0
340
55
  0
DIMSTYLE
105
59
330
A
100
AcDbSymbolTableRecord
100
AcDbDimStyleTableRecord
  2
Annotative
 70
     0
340
55
1001
AcadAnnotative
1000
AnnotativeData
1002
{
1070
     1
1070
     1
1002
}
  0
ENDTAB
  0
TABLE
  2
BLOCK_RECORD
  5
1
330
0
100
AcDbSymbolTable
 70
     4
  0
BLOCK_RECORD
  5
71
102
{ACAD_XDICTIONARY
360
31F
102
}
330
1
100
AcDbSymbolTableRecord
100
AcDbBlockTableRecord
  2
*Model_Space
340
74
 70
     0
280
     1
281
     0
  0
BLOCK_RECORD
  5
6D
330
1
100
AcDbSymbolTableRecord
100
AcDbBlockTableRecord
  2
*Paper_Space
340
70
 70
     0
280
     1
281
     0
  0
BLOCK_RECORD
  5
75
330
1
100
AcDbSymbolTableRecord
100
AcDbBlockTableRecord
  2
*Paper_Space0
340
78
 70
     0
280
     1
281
     0
  0
BLOCK_RECORD
  5
87
330
1
100
AcDbSymbolTableRecord
100
AcDbBlockTableRecord
  2
Automatic flow rate regulator valve_Caleffi_121 DN15 - 1_2__-859151-Est - Idraulica
340
0
102
{BLKREFS
331
18D
102
}
 70
     0
280
     1
281
     0
  0
BLOCK_RECORD
  5
18E
330
1
100
AcDbSymbolTableRecord
100
AcDbBlockTableRecord
  2
Automatic flow rate regulator valve_Caleffi_121 DN15 - 1_2__-V1-Est - Idraulica
340
0
102
{BLKREFS
331
2A3
102
}
 70
     0
280
     1
281
     0
  0
BLOCK_RECORD
  5
2A4
330
1
100
AcDbSymbolTableRecord
100
AcDbBlockTableRecord
  2
Automatic flow rate regulator valve_Caleffi_121 DN15 - 1_2__-V2-Est - Idraulica
340
0
102
{BLKREFS
331
318
102
}
 70
     0
280
     1
281
     0
  0
ENDTAB
  0
ENDSEC
  0
SECTION
  2
BLOCKS
  0
BLOCK
  5
72
330
71
100
AcDbEntity
  8
0
100
AcDbBlockBegin
  2
*Model_Space
 70
     0
 10
0.0
 20
0.0
 30
0.0
  3
*Model_Space
  1

  0
ENDBLK
  5
73
330
71
100
AcDbEntity
  8
0
100
AcDbBlockEnd
  0
BLOCK
  5
6E
330
6D
100
AcDbEntity
 67
     1
  8
0
100
AcDbBlockBegin
  2
*Paper_Space
 70
     0
 10
0.0
 20
0.0
 30
0.0
  3
*Paper_Space
  1

  0
ENDBLK
  5
6F
330
6D
100
AcDbEntity
 67
     1
  8
0
100
AcDbBlockEnd
  0
BLOCK
  5
76
330
75
100
AcDbEntity
 67
     1
  8
0
100
AcDbBlockBegin
  2
*Paper_Space0
 70
     0
 10
0.0
 20
0.0
 30
0.0
  3
*Paper_Space0
  1

  0
ENDBLK
  5
77
330
75
100
AcDbEntity
 67
     1
  8
0
100
AcDbBlockEnd
  0
BLOCK
  5
18B
330
87
100
AcDbEntity
  8
0
100
AcDbBlockBegin
  2
Automatic flow rate regulator valve_Caleffi_121 DN15 - 1_2__-859151-Est - Idraulica
 70
     0
 10
0.0
 20
0.0
 30
0.0
  3
Automatic flow rate regulator valve_Caleffi_121 DN15 - 1_2__-859151-Est - Idraulica
  1

  0
LINE
  5
89
330
87
100
AcDbEntity
  8
M-PIPE
100
AcDbLine
 10
777.162665282568
 20
2047.019999999991
 30
0.0
 11
848.527147128799
 21
2047.019999999992
 31
0.0
1001
REVIT
1002
{
1070
     3
1000
856288
1002
}
  0
LINE
  5
8A
330
87
100
AcDbEntity
  8
M-PIPE
100
AcDbLine
 10
848.527147128799
 20
2047.019999999992
 30
0.0
 11
848.527147128799
 21
2050.019999999991
 31
0.0
1001
REVIT
1002
{
1070
     3
1000
856288
1002
}
  0
LINE
  5
8B
330
87
100
AcDbEntity
  8
M-PIPE
100
AcDbLine
 10
848.527147128799
 20
2050.019999999991
 30
0.0
 11
777.162665282568
 21
2050.019999999991
 31
0.0
1001
REVIT
1002
{
1070
     3
1000
856288
1002
}
  0
LINE
  5
8C
330
87
100
AcDbEntity
  8
M-PIPE
100
AcDbLine
 10
777.162665282568
 20
2050.019999999991
 30
0.0
 11
777.162665282568
 21
2047.019999999991
 31
0.0
1001
REVIT
1002
{
1070
     3
1000
856288
1002
}
  0
LINE
  5
8D
330
87
100
AcDbEntity
  8
M-PIPE
100
AcDbLine
 10
761.099186790881
 20
2031.020000000008
 30
0.0
 11
772.3025074022248
 21
2047.019999999991
 31
0.0
1001
REVIT
1002
{
1070
     3
1000
856288
1002
}
  0
LINE
  5
8E
330
87
100
AcDbEntity
  8
M-PIPE
100
AcDbLine
 10
772.3025074022248
 20
2047.019999999991
 30
0.0
 11
777.162665282568
 21
2047.019999999991
 31
0.0
1001
REVIT
1002
{
1070
     3
1000
856288
1002
}
  0
LINE
  5
8F
330
87
100
AcDbEntity
  8
M-PIPE
100
AcDbLine
 10
777.162665282568
 20
2047.019999999991
 30
0.0
 11
777.162665282568
 21
2050.019999999991
 31
0.0
1001
REVIT
1002
{
1070
     3
1000
856288
1002
}
  0
LINE
  5
90
330
87
100
AcDbEntity
  8
M-PIPE
100
AcDbLine
 10
777.162665282568
 20
2050.019999999991
 30
0.0
 11
770.7408062505695
 21
2050.019999999991
 31
0.0
1001
REVIT
1002
{
1070
     3
1000
856288
1002
}
  0
LINE
  5
91
330
87
100
AcDbEntity
  8
M-PIPE
100
AcDbLine
 10
770.7408062505695
 20
2050.019999999991
 30
0.0
 11
759.5374856392395
 21
2034.020000000028
 31
0.0
1001
REVIT
1002
{
1070
     3
1000
856288
1002
}
  0
LINE
  5
92
330
87
100
AcDbEntity
  8
M-PIPE
100
AcDbLine
 10
759.5374856392395
 20
2034.020000000028
 30
0.0
 11
736.0271471288034
 21
2034.020000000028
 31
0.0
1001
REVIT
1002
{
1070
     3
1000
856288
1002
}
  0
LINE
  5
93
330
87
100
AcDbEntity
  8
M-PIPE
100
AcDbLine
 10
736.0271471288034
 20
2034.020000000028
 30
0.0
 11
736.0271471287989
 21
2031.020000000028
 31
0.0
1001
REVIT
1002
{
1070
     3
1000
856288
1002
}
  0
LINE
  5
94
330
87
100
AcDbEntity
  8
M-PIPE
100
AcDbLine
 10
736.0271471287989
 20
2031.020000000028
 30
0.0
 11
761.099186790881
 21
2031.020000000008
 31
0.0
1001
REVIT
1002
{
1070
     3
1000
856288
1002
}
  0
LINE
  5
95
330
87
100
AcDbEntity
  8
M-PIPE
100
AcDbLine
 10
655.2649084048582
 20
2026.052558883245
 30
0.0
 11
643.0271471287449
 21
2026.052558883245
 31
0.0
1001
REVIT
1002
{
1070
     3
1000
790271
1002
}
  0
LINE
  5
96
330
87
100
AcDbEntity
  8
M-PIPE
100
AcDbLine
 10
643.0271471287452
 20
1973.947441116729
 30
0.0
 11
655.264908404849
 21
1973.947441116729
 31
0.0
1001
REVIT
1002
{
1070
     3
1000
790271
1002
}
  0
LINE
  5
97
330
87
100
AcDbEntity
  8
M-PIPE
100
AcDbLine
 10
643.0271471287449
 20
2026.052558883241
 30
0.0
 11
642.9106820020398
 21
2025.850835366478
 31
0.0
1001
REVIT
1002
{
1070
     3
1000
790271
1002
}
  0
LINE
  5
98
330
87
100
AcDbEntity
  8
M-PIPE
100
AcDbLine
 10
642.8876773746326
 20
2025.810990182999
 30
0.0
 11
639.0271471287443
 21
2019.124355652964
 31
0.0
1001
REVIT
1002
{
1070
     3
1000
790271
1002
}
  0
LINE
  5
99
330
87
100
AcDbEntity
  8
M-PIPE
100
AcDbLine
 10
639.0271471287445
 20
1980.875644347026
 30
0.0
 11
642.8876773746422
 21
1974.189009816976
 31
0.0
1001
REVIT
1002
{
1070
     3
1000
790271
1002
}
  0
LINE
  5
9A
330
87
100
AcDbEntity
  8
M-PIPE
100
AcDbLine
 10
642.9107131021137
 20
1974.149110766606
 30
0.0
 11
643.0271471287452
 21
1973.94744111675
 31
0.0
1001
REVIT
1002
{
1070
     3
1000
790271
1002
}
  0
LINE
  5
9B
330
87
100
AcDbEntity
  8
M-PIPE
100
AcDbLine
 10
657.0271471287441
 20
2022.999999999938
 30
0.0
 11
655.4645203419243
 21
2025.706548987978
 31
0.0
1001
REVIT
1002
{
1070
     3
1000
790271
1002
}
  0
LINE
  5
9C
330
87
100
AcDbEntity
  8
M-PIPE
100
AcDbLine
 10
655.3982232197512
 20
2025.821378971977
 30
0.0
 11
655.2649084048587
 21
2026.052287004773
 31
0.0
1001
REVIT
1002
{
1070
     3
1000
790271
1002
}
  0
LINE
  5
9D
330
87
100
AcDbEntity
  8
M-PIPE
100
AcDbLine
 10
655.2649084048496
 20
1973.947712995201
 30
0.0
 11
655.3982547204115
 21
1974.178675588757
 31
0.0
1001
REVIT
1002
{
1070
     3
1000
790271
1002
}
  0
LINE
  5
9E
330
87
100
AcDbEntity
  8
M-PIPE
100
AcDbLine
 10
655.4648742453667
 20
1974.294063990755
 30
0.0
 11
657.0271471287445
 21
1977.000000000053
 31
0.0
1001
REVIT
1002
{
1070
     3
1000
790271
1002
}
  0
LINE
  5
9F
330
87
100
AcDbEntity
  8
M-PIPE
100
AcDbLine
 10
639.0271471287438
 20
2009.562177826479
 30
0.0
 11
639.0271471287435
 21
2019.124355652964
 31
0.0
1001
REVIT
1002
{
1070
     3
1000
790271
1002
}
  0
LINE
  5
A0
330
87
100
AcDbEntity
  8
M-PIPE
100
AcDbLine
 10
639.0271471287437
 20
1980.875644347026
 30
0.0
 11
639.0271471287438
 21
2009.562177826479
 31
0.0
1001
REVIT
1002
{
1070
     3
1000
790271
1002
}
  0
LINE
  5
A1
330
87
100
AcDbEntity
  8
M-PIPE
100
AcDbLine
 10
657.0271471287435
 20
2022.999999999937
 30
0.0
 11
657.0271471287439
 21
2011.499999999966
 31
0.0
1001
REVIT
1002
{
1070
     3
1000
790271
1002
}
  0
LINE
  5
A2
330
87
100
AcDbEntity
  8
M-PIPE
100
AcDbLine
 10
657.0271471287439
 20
2011.499999999966
 30
0.0
 11
657.0271471287439
 21
1977.000000000053
 31
0.0
1001
REVIT
1002
{
1070
     3
1000
790271
1002
}
  0
SPLINE
  5
A3
330
87
100
AcDbEntity
  8
M-PIPE
100
AcDbSpline
210
0.0
220
0.0
230
1.0
 70
     8
 71
     3
 72
     9
 73
     5
 74
     0
 42
0.000000001
 43
0.0000000001
 40
0.0
 40
0.0
 40
0.0
 40
0.0
 40
0.5
 40
1.0
 40
1.0
 40
1.0
 40
1.0
 10
642.6258227484283
 20
2015.588457268106
 30
0.0
 10
642.7582555119603
 20
2015.286939826318
 30
0.0
 10
642.9575756722114
 20
2014.54413788253
 30
0.0
 10
643.0258050988376
 20
2013.562085542203
 30
0.0
 10
643.0271471287444
 20
2013.02627944161
 30
0.0
1001
REVIT
1002
{
1070
     3
1000
790271
1002
}
  0
SPLINE
  5
A4
330
87
100
AcDbEntity
  8
M-PIPE
100
AcDbSpline
210
0.0
220
0.0
230
1.0
 70
     8
 71
     3
 72
     9
 73
     5
 74
     0
 42
0.000000001
 43
0.0000000001
 40
0.0
 40
0.0
 40
0.0
 40
0.0
 40
0.5
 40
1.0
 40
1.0
 40
1.0
 40
1.0
 10
643.0271471287444
 20
2013.02627944161
 30
0.0
 10
643.0258050988377
 20
2012.490473341019
 30
0.0
 10
642.9575756722121
 20
2011.343435966067
 30
0.0
 10
642.7582555119621
 20
2010.12931432519
 30
0.0
 10
642.6258227484311
 20
2009.526279441615
 30
0.0
1001
REVIT
1002
{
1070
     3
1000
790271
1002
}
  0
SPLINE
  5
A5
330
87
100
AcDbEntity
  8
M-PIPE
100
AcDbSpline
210
0.0
220
0.0
230
1.0
 70
     8
 71
     3
 72
     9
 73
     5
 74
     0
 42
0.000000001
 43
0.0000000001
 40
0.0
 40
0.0
 40
0.0
 40
0.0
 40
0.5
 40
1.0
 40
1.0
 40
1.0
 40
1.0
 10
655.666075816065
 20
2009.526279441615
 30
0.0
 10
655.5336430525356
 20
2010.129314325194
 30
0.0
 10
655.3343228922849
 20
2011.343435966078
 30
0.0
 10
655.2660934656505
 20
2012.490473341037
 30
0.0
 10
655.2647514357374
 20
2013.02627944163
 30
0.0
1001
REVIT
1002
{
1070
     3
1000
790271
1002
}
  0
SPLINE
  5
A6
330
87
100
AcDbEntity
  8
M-PIPE
100
AcDbSpline
210
0.0
220
0.0
230
1.0
 70
     8
 71
     3
 72
     9
 73
     5
 74
     0
 42
0.000000001
 43
0.0000000001
 40
0.0
 40
0.0
 40
0.0
 40
0.0
 40
0.5
 40
1.0
 40
1.0
 40
1.0
 40
1.0
 10
655.2647514357374
 20
2013.02627944163
 30
0.0
 10
655.2660934656521
 20
2013.562085542218
 30
0.0
 10
655.3343228922886
 20
2014.544137882537
 30
0.0
 10
655.533643052539
 20
2015.28693982632
 30
0.0
 10
655.6660758160676
 20
2015.588457268106
 30
0.0
1001
REVIT
1002
{
1070
     3
1000
790271
1002
}
  0
SPLINE
  5
A7
330
87
100
AcDbEntity
  8
M-PIPE
100
AcDbSpline
210
0.0
220
0.0
230
1.0
 70
     8
 71
     3
 72
     9
 73
     5
 74
     0
 42
0.000000001
 43
0.0000000001
 40
0.0
 40
0.0
 40
0.0
 40
0.0
 40
0.5
 40
1.0
 40
1.0
 40
1.0
 40
1.0
 10
642.6258227484192
 20
2025.114736709735
 30
0.0
 10
641.9109323350401
 20
2023.550427687273
 30
0.0
 10
641.1960419216625
 20
2020.398405424538
 30
0.0
 10
641.9109323350462
 20
2017.199574726186
 30
0.0
 10
642.6258227484283
 20
2015.588457268106
 30
0.0
1001
REVIT
1002
{
1070
     3
1000
790271
1002
}
  0
SPLINE
  5
A8
330
87
100
AcDbEntity
  8
M-PIPE
100
AcDbSpline
210
0.0
220
0.0
230
1.0
 70
     8
 71
     3
 72
     9
 73
     5
 74
     0
 42
0.000000001
 43
0.0000000001
 40
0.0
 40
0.0
 40
0.0
 40
0.0
 40
0.5
 40
1.0
 40
1.0
 40
1.0
 40
1.0
 10
655.6660758160676
 20
2015.588457268106
 30
0.0
 10
656.3809662294499
 20
2017.199574726186
 30
0.0
 10
657.0958566428332
 20
2020.398405424538
 30
0.0
 10
656.3809662294556
 20
2023.550427687273
 30
0.0
 10
655.6660758160764
 20
2025.114736709735
 30
0.0
1001
REVIT
1002
{
1070
     3
1000
790271
1002
}
  0
SPLINE
  5
A9
330
87
100
AcDbEntity
  8
M-PIPE
100
AcDbSpline
210
0.0
220
0.0
230
1.0
 70
     8
 71
     3
 72
     9
 73
     5
 74
     0
 42
0.000000001
 43
0.0000000001
 40
0.0
 40
0.0
 40
0.0
 40
0.0
 40
0.5
 40
1.0
 40
1.0
 40
1.0
 40
1.0
 10
643.0271471287441
 20
2026.052558883244
 30
0.0
 10
643.0258050988314
 20
2026.052558883244
 30
0.0
 10
642.9575756721979
 20
2025.887573848614
 30
0.0
 10
642.7582555119482
 20
2025.416254151523
 30
0.0
 10
642.6258227484192
 20
2025.114736709735
 30
0.0
1001
REVIT
1002
{
1070
     3
1000
790271
1002
}
  0
SPLINE
  5
AA
330
87
100
AcDbEntity
  8
M-PIPE
100
AcDbSpline
210
0.0
220
0.0
230
1.0
 70
     8
 71
     3
 72
     9
 73
     5
 74
     0
 42
0.000000001
 43
0.0000000001
 40
0.0
 40
0.0
 40
0.0
 40
0.0
 40
0.4
 40
0.4998696284492291
 40
0.4998696284492291
 40
0.4998696284492291
 40
0.4998696284492291
 10
655.6660758160764
 20
2025.114736709735
 30
0.0
 10
655.4550236077773
 20
2025.596940252458
 30
0.0
 10
655.2916121187514
 20
2025.988315954325
 30
0.0
 10
655.2651254759939
 20
2026.052328749397
 30
0.0
 10
655.2652427435928
 20
2026.052206667849
 30
0.0
1001
REVIT
1002
{
1070
     3
1000
790271
1002
}
  0
SPLINE
  5
AB
330
87
100
AcDbEntity
  8
M-PIPE
100
AcDbSpline
210
0.0
220
0.0
230
1.0
 70
     8
 71
     3
 72
     8
 73
     4
 74
     0
 42
0.000000001
 43
0.0000000001
 40
0.4998697858345066
 40
0.4998697858345066
 40
0.4998697858345066
 40
0.4998697858345066
 40
0.5994778206846831
 40
0.5994778206846831
 40
0.5994778206846831
 40
0.5994778206846831
 10
655.2652427441473
 20
2026.052206667271
 30
0.0
 10
655.2653597215849
 20
2026.052084864911
 30
0.0
 10
655.2667094614756
 20
2026.048497619696
 30
0.0
 10
655.2754294954019
 20
2026.027596453458
 30
0.0
1001
REVIT
1002
{
1070
     3
1000
790271
1002
}
  0
SPLINE
  5
AC
330
87
100
AcDbEntity
  8
M-PIPE
100
AcDbSpline
210
0.0
220
0.0
230
1.0
 70
     8
 71
     3
 72
     8
 73
     4
 74
     0
 42
0.000000001
 43
0.0000000001
 40
0.4
 40
0.4
 40
0.4
 40
0.4
 40
0.4998696283905205
 40
0.4998696283905205
 40
0.4998696283905205
 40
0.4998696283905205
 10
655.2811746523965
 20
1973.98631686517
 30
0.0
 10
655.2704172781346
 20
1973.960460453408
 30
0.0
 10
655.260756416369
 20
1973.937682317966
 30
0.0
 10
655.2564989283255
 20
1973.927802444141
 30
0.0
1001
REVIT
1002
{
1070
     3
1000
790271
1002
}
  0
SPLINE
  5
AD
330
87
100
AcDbEntity
  8
M-PIPE
100
AcDbSpline
210
0.0
220
0.0
230
1.0
 70
     8
 71
     3
 72
     9
 73
     5
 74
     0
 42
0.000000001
 43
0.0000000001
 40
0.4998697845463722
 40
0.4998697845463722
 40
0.4998697845463722
 40
0.4998697845463722
 40
0.7
 40
1.0
 40
1.0
 40
1.0
 40
1.0
 10
655.2652427441334
 20
1973.947793332698
 30
0.0
 10
655.2654777722808
 20
1973.948038054585
 30
0.0
 10
655.3203465659679
 20
1974.078217790811
 30
0.0
 10
655.5080264912756
 20
1974.524355519475
 30
0.0
 10
655.6660758160672
 20
1974.885263290238
 30
0.0
1001
REVIT
1002
{
1070
     3
1000
790271
1002
}
  0
SPLINE
  5
AE
330
87
100
AcDbEntity
  8
M-PIPE
100
AcDbSpline
210
0.0
220
0.0
230
1.0
 70
     8
 71
     3
 72
     9
 73
     5
 74
     0
 42
0.000000001
 43
0.0000000001
 40
0.0
 40
0.0
 40
0.0
 40
0.0
 40
0.5
 40
1.0
 40
1.0
 40
1.0
 40
1.0
 10
642.6258227484288
 20
1974.885263290238
 30
0.0
 10
642.7582555119593
 20
1974.58374584845
 30
0.0
 10
642.9575756722091
 20
1974.11242615136
 30
0.0
 10
643.0258050988364
 20
1973.947441116729
 30
0.0
 10
643.0271471287444
 20
1973.947441116729
 30
0.0
1001
REVIT
1002
{
1070
     3
1000
790271
1002
}
  0
SPLINE
  5
AF
330
87
100
AcDbEntity
  8
M-PIPE
100
AcDbSpline
210
0.0
220
0.0
230
1.0
 70
     8
 71
     3
 72
     9
 73
     5
 74
     0
 42
0.000000001
 43
0.0000000001
 40
0.0
 40
0.0
 40
0.0
 40
0.0
 40
0.5
 40
1.0
 40
1.0
 40
1.0
 40
1.0
 10
642.6258227484344
 20
1984.411542731866
 30
0.0
 10
641.9109323350531
 20
1982.847233709404
 30
0.0
 10
641.1960419216711
 20
1979.69521144667
 30
0.0
 10
641.9109323350495
 20
1976.496380748318
 30
0.0
 10
642.6258227484289
 20
1974.885263290238
 30
0.0
1001
REVIT
1002
{
1070
     3
1000
790271
1002
}
  0
SPLINE
  5
B0
330
87
100
AcDbEntity
  8
M-PIPE
100
AcDbSpline
210
0.0
220
0.0
230
1.0
 70
     8
 71
     3
 72
     9
 73
     5
 74
     0
 42
0.000000001
 43
0.0000000001
 40
0.0
 40
0.0
 40
0.0
 40
0.0
 40
0.5
 40
1.0
 40
1.0
 40
1.0
 40
1.0
 10
655.6660758160672
 20
1974.885263290238
 30
0.0
 10
656.3809662294466
 20
1976.496380748318
 30
0.0
 10
657.0958566428251
 20
1979.69521144667
 30
0.0
 10
656.380966229443
 20
1982.847233709404
 30
0.0
 10
655.666075816062
 20
1984.411542731866
 30
0.0
1001
REVIT
1002
{
1070
     3
1000
790271
1002
}
  0
SPLINE
  5
B1
330
87
100
AcDbEntity
  8
M-PIPE
100
AcDbSpline
210
0.0
220
0.0
230
1.0
 70
     8
 71
     3
 72
     9
 73
     5
 74
     0
 42
0.000000001
 43
0.0000000001
 40
0.0
 40
0.0
 40
0.0
 40
0.0
 40
0.5
 40
1.0
 40
1.0
 40
1.0
 40
1.0
 10
643.0271471287445
 20
1986.973720558358
 30
0.0
 10
643.0258050988402
 20
1986.437914457766
 30
0.0
 10
642.9575756722173
 20
1985.455862117441
 30
0.0
 10
642.7582555119666
 20
1984.713060173654
 30
0.0
 10
642.6258227484344
 20
1984.411542731866
 30
0.0
1001
REVIT
1002
{
1070
     3
1000
790271
1002
}
  0
SPLINE
  5
B2
330
87
100
AcDbEntity
  8
M-PIPE
100
AcDbSpline
210
0.0
220
0.0
230
1.0
 70
     8
 71
     3
 72
    10
 73
     6
 74
     0
 42
0.000000001
 43
0.0000000001
 40
0.0
 40
0.0
 40
0.0
 40
0.0
 40
0.4
 40
0.7
 40
1.0
 40
1.0
 40
1.0
 40
1.0
 10
655.666075816062
 20
1984.411542731866
 30
0.0
 10
655.4550236077625
 20
1984.893746274588
 30
0.0
 10
655.2261878557816
 20
1986.058892301906
 30
0.0
 10
655.2828692188126
 20
1988.291273425874
 30
0.0
 10
655.5080264912698
 20
1989.751905016833
 30
0.0
 10
655.6660758160615
 20
1990.473720558357
 30
0.0
1001
REVIT
1002
{
1070
     3
1000
790271
1002
}
  0
SPLINE
  5
B3
330
87
100
AcDbEntity
  8
M-PIPE
100
AcDbSpline
210
0.0
220
0.0
230
1.0
 70
     8
 71
     3
 72
     9
 73
     5
 74
     0
 42
0.000000001
 43
0.0000000001
 40
0.0
 40
0.0
 40
0.0
 40
0.0
 40
0.5
 40
1.0
 40
1.0
 40
1.0
 40
1.0
 10
642.6258227484347
 20
1990.473720558357
 30
0.0
 10
642.7582555119669
 20
1989.870685674782
 30
0.0
 10
642.9575756722173
 20
1988.656564033904
 30
0.0
 10
643.0258050988402
 20
1987.50952665895
 30
0.0
 10
643.0271471287445
 20
1986.973720558358
 30
0.0
1001
REVIT
1002
{
1070
     3
1000
790271
1002
}
  0
SPLINE
  5
B4
330
87
100
AcDbEntity
  8
M-PIPE
100
AcDbSpline
210
0.0
220
0.0
230
1.0
 70
     8
 71
     3
 72
     9
 73
     5
 74
     0
 42
0.000000001
 43
0.0000000001
 40
0.0
 40
0.0
 40
0.0
 40
0.0
 40
0.5
 40
1.0
 40
1.0
 40
1.0
 40
1.0
 10
642.6258227484311
 20
2009.526279441615
 30
0.0
 10
641.9109323350515
 20
2006.304044525454
 30
0.0
 10
641.1960419216726
 20
1999.90638312875
 30
0.0
 10
641.910932335054
 20
1993.602338603282
 30
0.0
 10
642.6258227484347
 20
1990.473720558357
 30
0.0
1001
REVIT
1002
{
1070
     3
1000
790271
1002
}
  0
SPLINE
  5
B5
330
87
100
AcDbEntity
  8
M-PIPE
100
AcDbSpline
210
0.0
220
0.0
230
1.0
 70
     8
 71
     3
 72
     9
 73
     5
 74
     0
 42
0.000000001
 43
0.0000000001
 40
0.0
 40
0.0
 40
0.0
 40
0.0
 40
0.5
 40
1.0
 40
1.0
 40
1.0
 40
1.0
 10
655.6660758160615
 20
1990.473720558357
 30
0.0
 10
656.3809662294423
 20
1993.602338603282
 30
0.0
 10
657.0958566428237
 20
1999.90638312875
 30
0.0
 10
656.3809662294446
 20
2006.304044525454
 30
0.0
 10
655.666075816065
 20
2009.526279441615
 30
0.0
1001
REVIT
1002
{
1070
     3
1000
790271
1002
}
  0
LINE
  5
B6
330
87
100
AcDbEntity
  8
P-SANR-FIXT
100
AcDbLine
 10
718.4006342092409
 20
1975.522260712196
 30
0.0
 11
734.0784706916454
 21
1986.499999999995
 31
0.0
  0
LINE
  5
B7
330
87
100
AcDbEntity
  8
P-SANR-FIXT
100
AcDbLine
 10
734.0795912074552
 20
1986.499999999995
 30
0.0
 11
736.7771471288006
 21
1986.499999999995
 31
0.0
  0
LINE
  5
B8
330
87
100
AcDbEntity
  8
P-SANR-FIXT
100
AcDbLine
 10
736.7771471288006
 20
2013.499999999996
 30
0.0
 11
731.2771471288006
 21
2013.499999999996
 31
0.0
  0
LINE
  5
B9
330
87
100
AcDbEntity
  8
P-SANR-FIXT
100
AcDbLine
 10
739.5271471288005
 20
2026.499999999995
 30
0.0
 11
739.5271471288005
 21
2016.249999999996
 31
0.0
  0
LINE
  5
BA
330
87
100
AcDbEntity
  8
P-SANR-FIXT
100
AcDbLine
 10
757.5271471288015
 20
2016.249999999996
 30
0.0
 11
757.5271471288015
 21
2026.499999999995
 31
0.0
  0
LINE
  5
BB
330
87
100
AcDbEntity
  8
P-SANR-FIXT
100
AcDbLine
 10
739.5271471288006
 20
1983.749999999995
 30
0.0
 11
761.0281090231244
 21
1983.749999999995
 31
0.0
  0
LINE
  5
BC
330
87
100
AcDbEntity
  8
P-SANR-FIXT
100
AcDbLine
 10
761.0281090231243
 20
2016.249999999996
 30
0.0
 11
757.5271471288015
 21
2016.249999999996
 31
0.0
  0
LINE
  5
BD
330
87
100
AcDbEntity
  8
P-SANR-FIXT
100
AcDbLine
 10
761.0281090231244
 20
1983.749999999995
 30
0.0
 11
762.2757152907885
 21
1981.58908255656
 31
0.0
  0
LINE
  5
BE
330
87
100
AcDbEntity
  8
P-SANR-FIXT
100
AcDbLine
 10
762.2879401995094
 20
1981.567908393537
 30
0.0
 11
762.3271471288011
 21
1981.499999999996
 31
0.0
  0
LINE
  5
BF
330
87
100
AcDbEntity
  8
P-SANR-FIXT
100
AcDbLine
 10
762.327147128801
 20
2018.499999999995
 30
0.0
 11
762.2879401995093
 21
2018.432091606454
 31
0.0
  0
LINE
  5
C0
330
87
100
AcDbEntity
  8
P-SANR-FIXT
100
AcDbLine
 10
762.2757152907881
 20
2018.410917443432
 30
0.0
 11
761.0281090231243
 21
2016.249999999996
 31
0.0
  0
LINE
  5
C1
330
87
100
AcDbEntity
  8
P-SANR-FIXT
100
AcDbLine
 10
762.3271471288011
 20
1981.499999999996
 30
0.0
 11
764.8271471288011
 21
1981.499999999996
 31
0.0
  0
LINE
  5
C2
330
87
100
AcDbEntity
  8
P-SANR-FIXT
100
AcDbLine
 10
764.8271471288007
 20
2018.499999999995
 30
0.0
 11
762.327147128801
 21
2018.499999999995
 31
0.0
  0
LINE
  5
C3
330
87
100
AcDbEntity
  8
P-SANR-FIXT
100
AcDbLine
 10
739.5271471288005
 20
2016.249999999996
 30
0.0
 11
739.4677455249746
 21
2016.19059839617
 31
0.0
  0
LINE
  5
C4
330
87
100
AcDbEntity
  8
P-SANR-FIXT
100
AcDbLine
 10
739.4630640343526
 20
2016.185916905548
 30
0.0
 11
736.7771471288006
 21
2013.499999999996
 31
0.0
  0
LINE
  5
C5
330
87
100
AcDbEntity
  8
P-SANR-FIXT
100
AcDbLine
 10
736.7771471288006
 20
1986.499999999995
 30
0.0
 11
739.5271471288006
 21
1983.749999999995
 31
0.0
  0
LINE
  5
C6
330
87
100
AcDbEntity
  8
P-SANR-FIXT
100
AcDbLine
 10
711.2128725299652
 20
1968.35298027118
 30
0.0
 11
718.5852409285662
 21
1973.51516819834
 31
0.0
  0
LINE
  5
C7
330
87
100
AcDbEntity
  8
P-SANR-FIXT
100
AcDbLine
 10
731.2771471288006
 20
2013.499999999996
 30
0.0
 11
731.2771471288006
 21
2024.499999999996
 31
0.0
  0
LINE
  5
C8
330
87
100
AcDbEntity
  8
P-SANR-FIXT
100
AcDbLine
 10
713.7771471288007
 20
2024.499999999996
 30
0.0
 11
713.7771471288007
 21
2013.499999999996
 31
0.0
  0
LINE
  5
C9
330
87
100
AcDbEntity
  8
P-SANR-FIXT
100
AcDbLine
 10
717.581482164952
 20
1974.948684275846
 30
0.0
 11
718.4006342092409
 21
1975.522260712197
 31
0.0
  0
LINE
  5
CA
330
87
100
AcDbEntity
  8
P-SANR-FIXT
100
AcDbLine
 10
694.3996493169221
 20
1957.495815577376
 30
0.0
 11
710.7826902027021
 21
1968.967344304397
 31
0.0
  0
LINE
  5
CB
330
87
100
AcDbEntity
  8
P-SANR-FIXT
100
AcDbLine
 10
667.108766726279
 20
1983.249999999995
 30
0.0
 11
665.1291948381314
 21
1981.863888841486
 31
0.0
  0
LINE
  5
CC
330
87
100
AcDbEntity
  8
P-SANR-FIXT
100
AcDbLine
 10
686.9250994194709
 20
1950.736111158505
 30
0.0
 11
695.1166198623609
 21
1956.471875522015
 31
0.0
  0
LINE
  5
CD
330
87
100
AcDbEntity
  8
P-SANR-FIXT
100
AcDbLine
 10
657.0271471287448
 20
1983.249999999995
 30
0.0
 11
667.108766726279
 21
1983.249999999995
 31
0.0
  0
LINE
  5
CE
330
87
100
AcDbEntity
  8
P-SANR-FIXT
100
AcDbLine
 10
697.7251661648641
 20
2016.749999999996
 30
0.0
 11
695.0271471288012
 21
2016.749999999996
 31
0.0
  0
LINE
  5
CF
330
87
100
AcDbEntity
  8
P-SANR-FIXT
100
AcDbLine
 10
670.0271471288011
 20
2016.749999999996
 30
0.0
 11
657.0271471287445
 21
2016.749999999996
 31
0.0
  0
LWPOLYLINE
  5
D0
330
87
100
AcDbEntity
  8
P-SANR-FIXT
100
AcDbPolyline
 90
       34
 70
   128
 43
0.0
 10
697.7251661648641
 20
2016.749999999996
 10
697.8451341674241
 20
2016.747600319979
 10
697.9649102467715
 20
2016.740405118904
 10
698.0843027867308
 20
2016.728425907558
 10
698.2031207847069
 20
2016.711681850123
 10
698.3211741572495
 20
2016.69019973352
 10
698.4382740441455
 20
2016.664013924552
 10
698.5542331105565
 20
2016.633166314928
 10
698.6688658467126
 20
2016.597706254243
 10
698.7819888646894
 20
2016.55769047103
 10
698.8934211917901
 20
2016.513182982004
 10
699.0029845600623
 20
2016.464254989656
 10
699.1105036914887
 20
2016.410984768334
 10
699.2158065783954
 20
2016.353457539029
 10
699.3187247586269
 20
2016.291765333036
 10
699.4190935850493
 20
2016.226006844725
 10
699.5167524889512
 20
2016.156287273648
 10
699.6115452369195
 20
2016.082718156249
 10
699.7033201807786
 20
2016.005417187419
 10
699.7919305001959
 20
2015.924508032219
 10
699.8772344375628
 20
2015.840120128038
 10
699.9590955247768
 20
2015.75238847752
 10
700.0373828015612
 20
2015.661453432592
 10
700.1119710249732
 20
2015.567460469926
 10
700.1827408697671
 20
2015.470559958213
 10
700.2495791192878
 20
2015.3709069176
 10
700.3123788465943
 20
2015.268660771694
 10
700.371039585519
 20
2015.163985092517
 10
700.4254674913936
 20
2015.057047338826
 10
700.4755754911794
 20
2014.948018588215
 10
700.5212834227659
 20
2014.837073263426
 10
700.5625181632127
 20
2014.724388853312
 10
700.5992137457318
 20
2014.610145628892
 10
700.6229436437314
 20
2014.526457135303
  0
LINE
  5
D1
330
87
100
AcDbEntity
  8
P-SANR-FIXT
100
AcDbLine
 10
700.8979820042022
 20
2013.499999999996
 30
0.0
 11
700.6229436437314
 21
2014.526457135303
 31
0.0
  0
LINE
  5
D2
330
87
100
AcDbEntity
  8
P-SANR-FIXT
100
AcDbLine
 10
665.1291948381314
 20
1981.863888841486
 30
0.0
 11
662.6717387052645
 21
1980.143159532433
 31
0.0
  0
LINE
  5
D3
330
87
100
AcDbEntity
  8
P-SANR-FIXT
100
AcDbLine
 10
684.4676432866038
 20
1949.015381849451
 30
0.0
 11
686.9250994194709
 21
1950.736111158505
 31
0.0
  0
LINE
  5
D4
330
87
100
AcDbEntity
  8
P-SANR-FIXT
100
AcDbLine
 10
668.1207148505993
 20
1972.361215111688
 30
0.0
 11
661.5674984962872
 21
1967.772603620879
 31
0.0
  0
LINE
  5
D5
330
87
100
AcDbEntity
  8
P-SANR-FIXT
100
AcDbLine
 10
672.465450786957
 20
1952.208714779389
 30
0.0
 11
679.018667141269
 21
1956.797326270197
 31
0.0
  0
LINE
  5
D6
330
87
100
AcDbEntity
  8
P-SANR-FIXT
100
AcDbLine
 10
670.0271471288011
 20
2024.499999999996
 30
0.0
 11
670.0271471288011
 21
2016.749999999996
 31
0.0
  0
LINE
  5
D7
330
87
100
AcDbEntity
  8
P-SANR-FIXT
100
AcDbLine
 10
695.0271471288012
 20
2016.749999999996
 30
0.0
 11
695.0271471288012
 21
2024.499999999996
 31
0.0
  0
LINE
  5
D8
330
87
100
AcDbEntity
  8
P-SANR-FIXT
100
AcDbLine
 10
764.8271471288011
 20
1981.999999999995
 30
0.0
 11
767.5271471288011
 21
1981.999999999995
 31
0.0
  0
LINE
  5
D9
330
87
100
AcDbEntity
  8
P-SANR-FIXT
100
AcDbLine
 10
767.5271471288011
 20
2017.999999999996
 30
0.0
 11
764.8271471288007
 21
2017.999999999996
 31
0.0
  0
LWPOLYLINE
  5
DA
330
87
100
AcDbEntity
  8
P-SANR-FIXT
100
AcDbPolyline
 90
       16
 70
   128
 43
0.0
 10
726.387254002455
 20
2006.830632066627
 10
726.0897860221647
 20
2007.255460369749
 10
725.7967537191447
 20
2007.673953869218
 10
725.5086258825692
 20
2008.085443064711
 10
725.2258634555134
 20
2008.489269661291
 10
724.948918797541
 20
2008.884787622553
 10
724.6782349610261
 20
2009.271364204129
 10
724.4142449823645
 20
2009.648380965955
 10
724.1573711892069
 20
2010.015234761636
 10
723.9080245248261
 20
2010.37133870336
 10
723.6666038906936
 20
2010.716123100782
 10
723.4334955083241
 20
2011.049036372419
 10
723.2090723014015
 20
2011.369545928051
 10
722.9936932991831
 20
2011.677139020764
 10
722.7877030621275
 20
2011.971323567223
 10
722.777068551071
 20
2011.986511222991
  0
LINE
  5
DB
330
87
100
AcDbEntity
  8
P-SANR-FIXT
100
AcDbLine
 10
752.527147128801
 20
2026.499999999995
 30
0.0
 11
752.527147128801
 21
2031.020000000015
 31
0.0
  0
LINE
  5
DC
330
87
100
AcDbEntity
  8
P-SANR-FIXT
100
AcDbLine
 10
744.5271471288012
 20
2031.020000000022
 30
0.0
 11
744.5271471288012
 21
2026.499999999995
 31
0.0
  0
SPLINE
  5
DD
330
87
100
AcDbEntity
  8
P-SANR-FIXT
100
AcDbSpline
210
0.0
220
0.0
230
1.0
 70
     8
 71
     3
 72
    10
 73
     6
 74
     0
 42
0.000000001
 43
0.0000000001
 40
0.0
 40
0.0
 40
0.0
 40
0.0
 40
0.3333333333333333
 40
0.6666666666666666
 40
1.0
 40
1.0
 40
1.0
 40
1.0
 10
734.0784706916444
 20
1986.499999999995
 30
0.0
 10
734.0760713472665
 20
1986.498319960975
 30
0.0
 10
734.0859071516706
 20
1986.781589230269
 30
0.0
 10
734.1330153350578
 20
1988.020435095372
 30
0.0
 10
734.3107959587906
 20
1989.335599094669
 30
0.0
 10
734.4441825411597
 20
1990.093805246748
 30
0.0
  0
SPLINE
  5
DE
330
87
100
AcDbEntity
  8
P-SANR-FIXT
100
AcDbSpline
210
0.0
220
0.0
230
1.0
 70
     8
 71
     3
 72
     8
 73
     4
 74
     0
 42
0.000000001
 43
0.0000000001
 40
0.0
 40
0.0
 40
0.0
 40
0.0
 40
0.0082364773879189
 40
0.0082364773879189
 40
0.0082364773879189
 40
0.0082364773879189
 10
733.6899423618924
 20
1991.170971855373
 30
0.0
 10
733.6463785846214
 20
1991.159461701351
 30
0.0
 10
733.6028816477401
 20
1991.148224034082
 30
0.0
 10
733.5594488290219
 20
1991.137262652251
 30
0.0
  0
SPLINE
  5
DF
330
87
100
AcDbEntity
  8
P-SANR-FIXT
100
AcDbSpline
210
0.0
220
0.0
230
1.0
 70
     8
 71
     3
 72
     8
 73
     4
 74
     0
 42
0.000000001
 43
0.0000000001
 40
0.0625
 40
0.0625
 40
0.0625
 40
0.0625
 40
0.0799395397869744
 40
0.0799395397869744
 40
0.0799395397869744
 40
0.0799395397869744
 10
732.7085877149046
 20
1990.957677676043
 30
0.0
 10
732.6181637140423
 20
1990.942525767501
 30
0.0
 10
732.527946789301
 20
1990.928724731082
 30
0.0
 10
732.4379110779091
 20
1990.916310597341
 30
0.0
  0
SPLINE
  5
E0
330
87
100
AcDbEntity
  8
P-SANR-FIXT
100
AcDbSpline
210
0.0
220
0.0
230
1.0
 70
     8
 71
     3
 72
     8
 73
     4
 74
     0
 42
0.000000001
 43
0.0000000001
 40
0.125
 40
0.125
 40
0.125
 40
0.125
 40
0.1875
 40
0.1875
 40
0.1875
 40
0.1875
 10
731.7431887747988
 20
1990.848482017801
 30
0.0
 10
731.4232554575124
 20
1990.830539733816
 30
0.0
 10
731.1047907592496
 20
1990.83160559714
 30
0.0
 10
730.7890193327922
 20
1990.85020113815
 30
0.0
  0
SPLINE
  5
E1
330
87
100
AcDbEntity
  8
P-SANR-FIXT
100
AcDbSpline
210
0.0
220
0.0
230
1.0
 70
     8
 71
     3
 72
     8
 73
     4
 74
     0
 42
0.000000001
 43
0.0000000001
 40
0.2298077358178455
 40
0.2298077358178455
 40
0.2298077358178455
 40
0.2298077358178455
 40
0.25
 40
0.25
 40
0.25
 40
0.25
 10
730.1515411918859
 20
1990.911656966378
 30
0.0
 10
730.0507400343104
 20
1990.925140298525
 30
0.0
 10
729.9502396645472
 20
1990.940362879018
 30
0.0
 10
729.8500475744141
 20
1990.95727958867
 30
0.0
  0
SPLINE
  5
E2
330
87
100
AcDbEntity
  8
P-SANR-FIXT
100
AcDbSpline
210
0.0
220
0.0
230
1.0
 70
     8
 71
     3
 72
     8
 73
     4
 74
     0
 42
0.000000001
 43
0.0000000001
 40
0.3056082007294076
 40
0.3056082007294076
 40
0.3056082007294076
 40
0.3056082007294076
 40
0.3125
 40
0.3125
 40
0.3125
 40
0.3125
 10
729.0298632546215
 20
1991.13584081885
 30
0.0
 10
728.9963154059577
 20
1991.144829232026
 30
0.0
 10
728.9628116785575
 20
1991.15401834787
 30
0.0
 10
728.9293531538251
 20
1991.163408640615
 30
0.0
  0
SPLINE
  5
E3
330
87
100
AcDbEntity
  8
P-SANR-FIXT
100
AcDbSpline
210
0.0
220
0.0
230
1.0
 70
     8
 71
     3
 72
     8
 73
     4
 74
     0
 42
0.000000001
 43
0.0000000001
 40
0.375
 40
0.375
 40
0.375
 40
0.375
 40
0.381014826157624
 40
0.381014826157624
 40
0.381014826157624
 40
0.381014826157624
 10
728.0310314835587
 20
1991.468872674489
 30
0.0
 10
728.0026219902126
 20
1991.480285049482
 30
0.0
 10
727.9742545312829
 20
1991.491854021289
 30
0.0
 10
727.9459304162537
 20
1991.50357981391
 30
0.0
  0
SPLINE
  5
E4
330
87
100
AcDbEntity
  8
P-SANR-FIXT
100
AcDbSpline
210
0.0
220
0.0
230
1.0
 70
     8
 71
     3
 72
     8
 73
     4
 74
     0
 42
0.000000001
 43
0.0000000001
 40
0.4375
 40
0.4375
 40
0.4375
 40
0.4375
 40
0.4554371312869876
 40
0.4554371312869876
 40
0.4554371312869876
 40
0.4554371312869876
 10
727.1604391439596
 20
1991.875547703643
 30
0.0
 10
727.0787378259228
 20
1991.919352779836
 30
0.0
 10
726.9975385200906
 20
1991.964576743544
 30
0.0
 10
726.9168730298497
 20
1992.011223533179
 30
0.0
  0
SPLINE
  5
E5
330
87
100
AcDbEntity
  8
P-SANR-FIXT
100
AcDbSpline
210
0.0
220
0.0
230
1.0
 70
     8
 71
     3
 72
     9
 73
     5
 74
     0
 42
0.000000001
 43
0.0000000001
 40
0.5
 40
0.5
 40
0.5
 40
0.5
 40
0.5625
 40
0.625
 40
0.625
 40
0.625
 40
0.625
 10
726.3260310259877
 20
1992.385296601607
 30
0.0
 10
726.0549510718462
 20
1992.57259839151
 30
0.0
 10
725.5275360690433
 20
1992.981981331968
 30
0.0
 10
725.042580677823
 20
1993.457604567698
 30
0.0
 10
724.8113379138032
 20
1993.712027505234
 30
0.0
  0
SPLINE
  5
E6
330
87
100
AcDbEntity
  8
P-SANR-FIXT
100
AcDbSpline
210
0.0
220
0.0
230
1.0
 70
     8
 71
     3
 72
     8
 73
     4
 74
     0
 42
0.000000001
 43
0.0000000001
 40
0.6672045958330591
 40
0.6672045958330591
 40
0.6672045958330591
 40
0.6672045958330591
 40
0.6875
 40
0.6875
 40
0.6875
 40
0.6875
 10
724.3624668180055
 20
1994.250791729527
 30
0.0
 10
724.2935194140285
 20
1994.340585753315
 30
0.0
 10
724.2257094404396
 20
1994.431790840322
 30
0.0
 10
724.1602132916576
 20
1994.52474132472
 30
0.0
  0
SPLINE
  5
E7
330
87
100
AcDbEntity
  8
P-SANR-FIXT
100
AcDbSpline
210
0.0
220
0.0
230
1.0
 70
     8
 71
     3
 72
     8
 73
     4
 74
     0
 42
0.000000001
 43
0.0000000001
 40
0.7353248277606422
 40
0.7353248277606422
 40
0.7353248277606422
 40
0.7353248277606422
 40
0.75
 40
0.75
 40
0.75
 40
0.75
 10
723.7224134365361
 20
1995.20479053165
 30
0.0
 10
723.6806179393706
 20
1995.276814032558
 30
0.0
 10
723.6403083944037
 20
1995.34977514496
 30
0.0
 10
723.5999452912603
 20
1995.423138416728
 30
0.0
  0
SPLINE
  5
E8
330
87
100
AcDbEntity
  8
P-SANR-FIXT
100
AcDbSpline
210
0.0
220
0.0
230
1.0
 70
     8
 71
     3
 72
     8
 73
     4
 74
     0
 42
0.000000001
 43
0.0000000001
 40
0.8022630331148318
 40
0.8022630331148318
 40
0.8022630331148318
 40
0.8022630331148318
 40
0.8125
 40
0.8125
 40
0.8125
 40
0.8125
 10
723.2135426852354
 20
1996.235043044503
 30
0.0
 10
723.1909509589471
 20
1996.289583027802
 30
0.0
 10
723.1683386647059
 20
1996.344241412588
 30
0.0
 10
723.1459477904587
 20
1996.399059174438
 30
0.0
  0
SPLINE
  5
E9
330
87
100
AcDbEntity
  8
P-SANR-FIXT
100
AcDbSpline
210
0.0
220
0.0
230
1.0
 70
     8
 71
     3
 72
     8
 73
     4
 74
     0
 42
0.000000001
 43
0.0000000001
 40
0.8684662829584119
 40
0.8684662829584119
 40
0.8684662829584119
 40
0.8684662829584119
 40
0.875
 40
0.875
 40
0.875
 40
0.875
 10
722.8443290905793
 20
1997.320770135896
 30
0.0
 10
722.8345347642921
 20
1997.357211029384
 30
0.0
 10
722.8247520223174
 20
1997.393650696939
 30
0.0
 10
722.8156680512185
 20
1997.43024715463
 30
0.0
  0
SPLINE
  5
EA
330
87
100
AcDbEntity
  8
P-SANR-FIXT
100
AcDbSpline
210
0.0
220
0.0
230
1.0
 70
     8
 71
     3
 72
     8
 73
     4
 74
     0
 42
0.000000001
 43
0.0000000001
 40
0.9347553637689651
 40
0.9347553637689651
 40
0.9347553637689651
 40
0.9347553637689651
 40
0.9375
 40
0.9375
 40
0.9375
 40
0.9375
 10
722.6207813060549
 20
1998.445618258433
 30
0.0
 10
722.6187231530074
 20
1998.461371016905
 30
0.0
 10
722.6167882907925
 20
1998.477154788123
 30
0.0
 10
722.6149664965551
 20
1998.492966998533
 30
0.0
  0
SPLINE
  5
EB
330
87
100
AcDbEntity
  8
P-SANR-FIXT
100
AcDbSpline
210
0.0
220
0.0
230
1.0
 70
     8
 71
     3
 72
     9
 73
     5
 74
     0
 42
0.000000001
 43
0.0000000001
 40
0.2098874986631265
 40
0.2098874986631265
 40
0.2098874986631265
 40
0.2098874986631265
 40
0.3333333333333333
 40
0.4200180939342399
 40
0.4200180939342399
 40
0.4200180939342399
 40
0.4200180939342399
 10
722.6218026350815
 20
2000.737332836239
 30
0.0
 10
722.6511720887416
 20
2000.959917922818
 30
0.0
 10
722.7202075597388
 20
2001.334320894104
 30
0.0
 10
722.7992970185062
 20
2001.71175602089
 30
0.0
 10
722.8358990560845
 20
2001.866575964686
 30
0.0
  0
SPLINE
  5
EC
330
87
100
AcDbEntity
  8
P-SANR-FIXT
100
AcDbSpline
210
0.0
220
0.0
230
1.0
 70
     8
 71
     3
 72
     8
 73
     4
 74
     0
 42
0.000000001
 43
0.0000000001
 40
0.6284111988618322
 40
0.6284111988618322
 40
0.6284111988618322
 40
0.6284111988618322
 40
0.6666666666666666
 40
0.6666666666666666
 40
0.6666666666666666
 40
0.6666666666666666
 10
723.2146148060731
 20
2002.942332966121
 30
0.0
 10
723.2413427098678
 20
2003.006759331178
 30
0.0
 10
723.26814957578
 20
2003.071126484526
 30
0.0
 10
723.2970548770455
 20
2003.134470936625
 30
0.0
  0
SPLINE
  5
ED
330
87
100
AcDbEntity
  8
P-SANR-FIXT
100
AcDbSpline
210
0.0
220
0.0
230
1.0
 70
     8
 71
     3
 72
    10
 73
     6
 74
     0
 42
0.000000001
 43
0.0000000001
 40
0.0
 40
0.0
 40
0.0
 40
0.0
 40
0.25
 40
0.5
 40
1.0
 40
1.0
 40
1.0
 40
1.0
 10
717.770286625854
 20
2013.906596462817
 30
0.0
 10
717.3068733528317
 20
2013.762748009543
 30
0.0
 10
716.4415361755706
 20
2013.534343913403
 30
0.0
 10
714.9737483843994
 20
2013.27207563072
 30
0.0
 10
714.2675112815702
 20
2013.215332856616
 30
0.0
 10
714.0087846100994
 20
2013.196715830336
 30
0.0
  0
LINE
  5
EE
330
87
100
AcDbEntity
  8
P-SANR-FIXT
100
AcDbLine
 10
714.0087846100994
 20
2013.196715830336
 30
0.0
 11
702.9575881052745
 21
2005.458584731421
 31
0.0
  0
SPLINE
  5
EF
330
87
100
AcDbEntity
  8
P-SANR-FIXT
100
AcDbSpline
210
0.0
220
0.0
230
1.0
 70
     8
 71
     3
 72
    12
 73
     8
 74
     0
 42
0.000000001
 43
0.0000000001
 40
0.0
 40
0.0
 40
0.0
 40
0.0
 40
0.1666666666666666
 40
0.3333333333333333
 40
0.5
 40
0.6666666666666666
 40
1.0
 40
1.0
 40
1.0
 40
1.0
 10
702.9575881052745
 20
2005.458584731421
 30
0.0
 10
702.9198138408546
 20
2005.344059354828
 30
0.0
 10
702.8331119137192
 20
2005.029658586606
 30
0.0
 10
702.6714168231908
 20
2004.326375779754
 30
0.0
 10
702.4333146399336
 20
2003.374447941125
 30
0.0
 10
702.0715825740564
 20
2001.857685981068
 30
0.0
 10
701.7889650722923
 20
2000.533319295806
 30
0.0
 10
701.5594677588467
 20
1999.573939009538
 30
0.0
  0
LINE
  5
F0
330
87
100
AcDbEntity
  8
P-SANR-FIXT
100
AcDbLine
 10
764.8271471288002
 20
2018.499999999995
 30
0.0
 11
764.8271471288003
 21
1981.499999999995
 31
0.0
  0
SPLINE
  5
F1
330
87
100
AcDbEntity
  8
P-SANR-FIXT
100
AcDbSpline
210
0.0
220
0.0
230
1.0
 70
     8
 71
     3
 72
     8
 73
     4
 74
     0
 42
0.000000001
 43
0.0000000001
 40
0.0
 40
0.0
 40
0.0
 40
0.0
 40
0.0720256674491333
 40
0.0720256674491333
 40
0.0720256674491333
 40
0.0720256674491333
 10
736.7771471287999
 20
1992.766757664542
 30
0.0
 10
736.7284063426522
 20
1992.727207133407
 30
0.0
 10
736.6792539678004
 20
1992.68825986603
 30
0.0
 10
736.6296900042448
 20
1992.649908412552
 30
0.0
  0
SPLINE
  5
F2
330
87
100
AcDbEntity
  8
P-SANR-FIXT
100
AcDbSpline
210
0.0
220
0.0
230
1.0
 70
     8
 71
     3
 72
     8
 73
     4
 74
     0
 42
0.000000001
 43
0.0000000001
 40
0.5
 40
0.5
 40
0.5
 40
0.5
 40
0.5133550828642784
 40
0.5133550828642784
 40
0.5133550828642784
 40
0.5133550828642784
 10
735.7025714056987
 20
1992.027805172684
 30
0.0
 10
735.6924742484087
 20
1992.021958126031
 30
0.0
 10
735.6823353945591
 20
1992.016165231679
 30
0.0
 10
735.6721570514021
 20
1992.010423623819
 30
0.0
  0
SPLINE
  5
F3
330
87
100
AcDbEntity
  8
P-SANR-FIXT
100
AcDbSpline
210
0.0
220
0.0
230
1.0
 70
     8
 71
     3
 72
     8
 73
     4
 74
     0
 42
0.000000001
 43
0.0000000001
 40
0.9433705950309676
 40
0.9433705950309676
 40
0.9433705950309676
 40
0.9433705950309676
 40
1.0
 40
1.0
 40
1.0
 40
1.0
 10
734.650146706601
 20
1991.506477459488
 30
0.0
 10
734.6033477689492
 20
1991.486807910019
 30
0.0
 10
734.5562943986359
 20
1991.46745182211
 30
0.0
 10
734.5089865956611
 20
1991.448405684676
 30
0.0
  0
SPLINE
  5
F4
330
87
100
AcDbEntity
  8
P-SANR-FIXT
100
AcDbSpline
210
0.0
220
0.0
230
1.0
 70
     8
 71
     3
 72
    15
 73
    11
 74
     0
 42
0.000000001
 43
0.0000000001
 40
0.0
 40
0.0
 40
0.0
 40
0.0
 40
0.1666666666666666
 40
0.3333333333333333
 40
0.5
 40
0.6666666666666666
 40
0.75
 40
0.8333333333333332
 40
0.9166666666666666
 40
1.0
 40
1.0
 40
1.0
 40
1.0
 10
731.2771471287998
 20
2013.499999999995
 30
0.0
 10
731.2716398199903
 20
2013.499999999995
 30
0.0
 10
731.1045422525869
 20
2013.385488445325
 30
0.0
 10
730.3501895364903
 20
2012.911660414236
 30
0.0
 10
729.1985030023166
 20
2012.238868939435
 30
0.0
 10
727.9648394067058
 20
2011.612113184222
 30
0.0
 10
726.8337202518369
 20
2011.135665518594
 30
0.0
 10
725.9177345543864
 20
2010.811055286931
 30
0.0
 10
724.948385084981
 20
2010.554238603358
 30
0.0
 10
724.2607748283353
 20
2010.424975292138
 30
0.0
 10
723.9071088331747
 20
2010.372646446565
 30
0.0
  0
SPLINE
  5
F5
330
87
100
AcDbEntity
  8
P-SANR-FIXT
100
AcDbSpline
210
0.0
220
0.0
230
1.0
 70
     8
 71
     3
 72
     8
 73
     4
 74
     0
 42
0.000000001
 43
0.0000000001
 40
0.0569035202601422
 40
0.0569035202601422
 40
0.0569035202601422
 40
0.0569035202601422
 40
0.0833333333333333
 40
0.0833333333333333
 40
0.0833333333333333
 40
0.0833333333333333
 10
726.9135702613958
 20
2007.164147052858
 30
0.0
 10
726.9966743448157
 20
2007.212365772218
 30
0.0
 10
727.0805562842848
 20
2007.2590406323
 30
0.0
 10
727.165252408736
 20
2007.304231491674
 30
0.0
  0
SPLINE
  5
F6
330
87
100
AcDbEntity
  8
P-SANR-FIXT
100
AcDbSpline
210
0.0
220
0.0
230
1.0
 70
     8
 71
     3
 72
     8
 73
     4
 74
     0
 42
0.000000001
 43
0.0000000001
 40
0.1621521376356593
 40
0.1621521376356593
 40
0.1621521376356593
 40
0.1621521376356593
 40
0.1666666666666666
 40
0.1666666666666666
 40
0.1666666666666666
 40
0.1666666666666666
 10
727.9456792806089
 20
2007.670528631418
 30
0.0
 10
727.9610310718484
 20
2007.676826899966
 30
0.0
 10
727.9764097811653
 20
2007.683087093063
 30
0.0
 10
727.9918155862357
 20
2007.689309487739
 30
0.0
  0
SPLINE
  5
F7
330
87
100
AcDbEntity
  8
P-SANR-FIXT
100
AcDbSpline
210
0.0
220
0.0
230
1.0
 70
     8
 71
     3
 72
     8
 73
     4
 74
     0
 42
0.000000001
 43
0.0000000001
 40
0.25
 40
0.25
 40
0.25
 40
0.25
 40
0.2648425593802163
 40
0.2648425593802163
 40
0.2648425593802163
 40
0.2648425593802163
 10
728.8687115764746
 20
2007.992886327163
 30
0.0
 10
728.9219513120242
 20
2008.008334469471
 30
0.0
 10
728.9753595013072
 20
2008.023299334846
 30
0.0
 10
729.028936942924
 20
2008.037767588714
 30
0.0
  0
SPLINE
  5
F8
330
87
100
AcDbEntity
  8
P-SANR-FIXT
100
AcDbSpline
210
0.0
220
0.0
230
1.0
 70
     8
 71
     3
 72
     9
 73
     5
 74
     0
 42
0.000000001
 43
0.0000000001
 40
0.3333333333333333
 40
0.3333333333333333
 40
0.3333333333333333
 40
0.3333333333333333
 40
0.4166666666666666
 40
0.5
 40
0.5
 40
0.5
 40
0.5
 10
729.7815242941112
 20
2008.205024238614
 30
0.0
 10
730.0912035695525
 20
2008.258946686336
 30
0.0
 10
730.7214435804166
 20
2008.331588337586
 30
0.0
 10
731.3572071586421
 20
2008.34257172702
 30
0.0
 10
731.6734196970725
 20
2008.328874497294
 30
0.0
  0
SPLINE
  5
F9
330
87
100
AcDbEntity
  8
P-SANR-FIXT
100
AcDbSpline
210
0.0
220
0.0
230
1.0
 70
     8
 71
     3
 72
     8
 73
     4
 74
     0
 42
0.000000001
 43
0.0000000001
 40
0.5675424933582539
 40
0.5675424933582539
 40
0.5675424933582539
 40
0.5675424933582539
 40
0.5833333333333333
 40
0.5833333333333333
 40
0.5833333333333333
 40
0.5833333333333333
 10
732.438617158999
 20
2008.260629333058
 30
0.0
 10
732.4978829068785
 20
2008.252703537115
 30
0.0
 10
732.5570335533286
 20
2008.244175372321
 30
0.0
 10
732.6161010630776
 20
2008.235150613
 30
0.0
  0
SPLINE
  5
FA
330
87
100
AcDbEntity
  8
P-SANR-FIXT
100
AcDbSpline
210
0.0
220
0.0
230
1.0
 70
     8
 71
     3
 72
     8
 73
     4
 74
     0
 42
0.000000001
 43
0.0000000001
 40
0.6666666666666666
 40
0.6666666666666666
 40
0.6666666666666666
 40
0.6666666666666666
 40
0.6688260766595943
 40
0.6688260766595943
 40
0.6688260766595943
 40
0.6688260766595943
 10
733.5374887783068
 20
2008.044976822907
 30
0.0
 10
733.5452939687439
 20
2008.042922244745
 30
0.0
 10
733.553092262145
 20
2008.040853379689
 30
0.0
 10
733.5608838252765
 20
2008.038770519153
 30
0.0
  0
SPLINE
  5
FB
330
87
100
AcDbEntity
  8
P-SANR-FIXT
100
AcDbSpline
210
0.0
220
0.0
230
1.0
 70
     8
 71
     3
 72
     8
 73
     4
 74
     0
 42
0.000000001
 43
0.0000000001
 40
0.75
 40
0.75
 40
0.75
 40
0.75
 40
0.7722647769145197
 40
0.7722647769145197
 40
0.7722647769145197
 40
0.7722647769145197
 10
734.4198841846526
 20
2007.760031126029
 30
0.0
 10
734.496645865148
 20
2007.730588669714
 30
0.0
 10
734.5735034557223
 20
2007.700981095162
 30
0.0
 10
734.6499458556475
 20
2007.670549599098
 30
0.0
  0
SPLINE
  5
FC
330
87
100
AcDbEntity
  8
P-SANR-FIXT
100
AcDbSpline
210
0.0
220
0.0
230
1.0
 70
     8
 71
     3
 72
     8
 73
     4
 74
     0
 42
0.000000001
 43
0.0000000001
 40
0.8333333333333332
 40
0.8333333333333332
 40
0.8333333333333332
 40
0.8333333333333332
 40
0.9166666666666667
 40
0.9166666666666667
 40
0.9166666666666667
 40
0.9166666666666667
 10
735.2590349750611
 20
2007.387954490559
 30
0.0
 10
735.5301482348484
 20
2007.25101269234
 30
0.0
 10
735.7833096434607
 20
2007.087259950631
 30
0.0
 10
736.0318760520373
 20
2006.917037860523
 30
0.0
  0
SPLINE
  5
FD
330
87
100
AcDbEntity
  8
P-SANR-FIXT
100
AcDbSpline
210
0.0
220
0.0
230
1.0
 70
     8
 71
     3
 72
     8
 73
     4
 74
     0
 42
0.000000001
 43
0.0000000001
 40
0.9824627771828707
 40
0.9824627771828707
 40
0.9824627771828707
 40
0.9824627771828707
 40
1.0
 40
1.0
 40
1.0
 40
1.0
 10
736.6270509669952
 20
2006.526720614583
 30
0.0
 10
736.677438461098
 20
2006.487600916299
 30
0.0
 10
736.7274678547377
 20
2006.44780155873
 30
0.0
 10
736.7771471287998
 20
2006.407305140092
 30
0.0
  0
LINE
  5
FE
330
87
100
AcDbEntity
  8
P-SANR-FIXT
100
AcDbLine
 10
739.5271471287998
 20
2026.499999999995
 30
0.0
 11
757.5271471288007
 21
2026.499999999995
 31
0.0
  0
SPLINE
  5
FF
330
87
100
AcDbEntity
  8
P-SANR-FIXT
100
AcDbSpline
210
0.0
220
0.0
230
1.0
 70
     8
 71
     3
 72
    25
 73
    21
 74
     0
 42
0.000000001
 43
0.0000000001
 40
-1.0
 40
-1.0
 40
-1.0
 40
-1.0
 40
-0.861111111111111
 40
-0.7916666666666668
 40
-0.7222222222222223
 40
-0.6875
 40
-0.6527777777777777
 40
-0.6180555555555555
 40
-0.5833333333333333
 40
-0.5486111111111111
 40
-0.5138888888888889
 40
-0.4791666666666666
 40
-0.4444444444444445
 40
-0.3888888888888888
 40
-0.3611111111111111
 40
-0.3333333333333333
 40
-0.2777777777777778
 40
-0.2222222222222222
 40
-0.1111111111111111
 40
0.0
 40
0.0
 40
0.0
 40
0.0
 10
739.5271471287998
 20
2016.249999999995
 30
0.0
 10
739.5519941002246
 20
2016.249999999995
 30
0.0
 10
739.9721500034819
 20
2015.989568152161
 30
0.0
 10
741.3656902774115
 20
2015.297883758313
 30
0.0
 10
742.4658923513654
 20
2014.812646778818
 30
0.0
 10
743.5020585505262
 20
2014.423455596599
 30
0.0
 10
744.3202517526616
 20
2014.163853636939
 30
0.0
 10
745.2189535220129
 20
2013.922897492704
 30
0.0
 10
746.1681870776458
 20
2013.722543084846
 30
0.0
 10
747.119318369152
 20
2013.591544994567
 30
0.0
 10
748.1183932263109
 20
2013.531308863364
 30
0.0
 10
749.1433778105323
 20
2013.538608105406
 30
0.0
 10
750.3231384527732
 20
2013.625628982131
 30
0.0
 10
751.4013656171278
 20
2013.819706664913
 30
0.0
 10
752.3802821569447
 20
2014.066395190765
 30
0.0
 10
753.2922582509502
 20
2014.331645424639
 30
0.0
 10
754.347339382905
 20
2014.714141192174
 30
0.0
 10
755.7996813554774
 20
2015.341174629245
 30
0.0
 10
757.1452571109231
 20
2016.028437482618
 30
0.0
 10
757.5070959399663
 20
2016.249999999995
 30
0.0
 10
757.5271471288007
 20
2016.249999999995
 30
0.0
  0
LINE
  5
100
330
87
100
AcDbEntity
  8
P-SANR-FIXT
100
AcDbLine
 10
739.5271471287998
 20
2016.249999999995
 30
0.0
 11
739.5271471287998
 21
2002.554458354516
 31
0.0
  0
SPLINE
  5
101
330
87
100
AcDbEntity
  8
P-SANR-FIXT
100
AcDbSpline
210
0.0
220
0.0
230
1.0
 70
     8
 71
     3
 72
     8
 73
     4
 74
     0
 42
0.000000001
 43
0.0000000001
 40
0.5
 40
0.5
 40
0.5
 40
0.5
 40
0.6213640110451998
 40
0.6213640110451998
 40
0.6213640110451998
 40
0.6213640110451998
 10
739.9147326270963
 20
2001.095213687205
 30
0.0
 10
739.9357101305703
 20
2000.975009111831
 30
0.0
 10
739.9503511094734
 20
2000.853705713498
 30
0.0
 10
739.9614347327323
 20
2000.731781693473
 30
0.0
  0
SPLINE
  5
102
330
87
100
AcDbEntity
  8
P-SANR-FIXT
100
AcDbSpline
210
0.0
220
0.0
230
1.0
 70
     8
 71
     3
 72
     8
 73
     4
 74
     0
 42
0.000000001
 43
0.0000000001
 40
0.377815572416246
 40
0.377815572416246
 40
0.377815572416246
 40
0.377815572416246
 40
0.5
 40
0.5
 40
0.5
 40
0.5
 10
739.9698887096319
 20
1998.440245021052
 30
0.0
 10
739.9538548283394
 20
1998.318152353323
 30
0.0
 10
739.9373216093501
 20
1998.196097777195
 30
0.0
 10
739.9141589216799
 20
1998.075574139424
 30
0.0
  0
LINE
  5
103
330
87
100
AcDbEntity
  8
P-SANR-FIXT
100
AcDbLine
 10
739.5271471287998
 20
1996.619604450117
 30
0.0
 11
739.5271471287998
 21
1983.749999999995
 31
0.0
  0
LINE
  5
104
330
87
100
AcDbEntity
  8
P-SANR-FIXT
100
AcDbLine
 10
761.0281090231236
 20
1983.749999999995
 30
0.0
 11
761.0281090231234
 21
2016.249999999995
 31
0.0
  0
LINE
  5
105
330
87
100
AcDbEntity
  8
P-SANR-FIXT
100
AcDbLine
 10
762.3271471288002
 20
1981.499999999995
 30
0.0
 11
762.3271471288002
 21
2018.499999999995
 31
0.0
  0
LINE
  5
106
330
87
100
AcDbEntity
  8
P-SANR-FIXT
100
AcDbLine
 10
736.7771471287998
 20
2006.407305140091
 30
0.0
 11
736.7771471287998
 21
2013.499999999995
 31
0.0
  0
SPLINE
  5
107
330
87
100
AcDbEntity
  8
P-SANR-FIXT
100
AcDbSpline
210
0.0
220
0.0
230
1.0
 70
     8
 71
     3
 72
     8
 73
     4
 74
     0
 42
0.000000001
 43
0.0000000001
 40
-0.8333333333333332
 40
-0.8333333333333332
 40
-0.8333333333333332
 40
-0.8333333333333332
 40
-0.6666666666666666
 40
-0.6666666666666666
 40
-0.6666666666666666
 40
-0.6666666666666666
 10
737.2925557840613
 20
2005.958852763262
 30
0.0
 10
737.463803576036
 20
2005.79765889592
 30
0.0
 10
737.633747564583
 20
2005.623837310633
 30
0.0
 10
737.8006340345495
 20
2005.439228456573
 30
0.0
  0
SPLINE
  5
108
330
87
100
AcDbEntity
  8
P-SANR-FIXT
100
AcDbSpline
210
0.0
220
0.0
230
1.0
 70
     8
 71
     3
 72
     8
 73
     4
 74
     0
 42
0.000000001
 43
0.0000000001
 40
-0.5190626680221584
 40
-0.5190626680221584
 40
-0.5190626680221584
 40
-0.5190626680221584
 40
-0.5
 40
-0.5
 40
-0.5
 40
-0.5
 10
738.2340996232896
 20
2004.91816762292
 30
0.0
 10
738.2523362536922
 20
2004.89443069414
 30
0.0
 10
738.2705346191743
 20
2004.87055343685
 30
0.0
 10
738.288632923645
 20
2004.846428427198
 30
0.0
  0
SPLINE
  5
109
330
87
100
AcDbEntity
  8
P-SANR-FIXT
100
AcDbSpline
210
0.0
220
0.0
230
1.0
 70
     8
 71
     3
 72
     8
 73
     4
 74
     0
 42
0.000000001
 43
0.0000000001
 40
-0.3333333333333333
 40
-0.3333333333333333
 40
-0.3333333333333333
 40
-0.3333333333333333
 40
-0.2873659127862744
 40
-0.2873659127862744
 40
-0.2873659127862744
 40
-0.2873659127862744
 10
738.748313042045
 20
2004.17188888151
 30
0.0
 10
738.7889749182525
 20
2004.105778295123
 30
0.0
 10
738.829832539644
 20
2004.039451035096
 30
0.0
 10
738.8702433054848
 20
2003.972131019571
 30
0.0
  0
SPLINE
  5
10A
330
87
100
AcDbEntity
  8
P-SANR-FIXT
100
AcDbSpline
210
0.0
220
0.0
230
1.0
 70
     8
 71
     3
 72
     8
 73
     4
 74
     0
 42
0.000000001
 43
0.0000000001
 40
-0.1666666666666666
 40
-0.1666666666666666
 40
-0.1666666666666666
 40
-0.1666666666666666
 40
0.0
 40
0.0
 40
0.0
 40
0.0
 10
739.1676937720319
 20
2003.407249379364
 30
0.0
 10
739.2986233006174
 20
2003.137495464825
 30
0.0
 10
739.4194612120058
 20
2002.853172345357
 30
0.0
 10
739.5271471287998
 20
2002.554458354516
 30
0.0
  0
SPLINE
  5
10B
330
87
100
AcDbEntity
  8
P-SANR-FIXT
100
AcDbSpline
210
0.0
220
0.0
230
1.0
 70
     8
 71
     3
 72
     8
 73
     4
 74
     0
 42
0.000000001
 43
0.0000000001
 40
-1.0
 40
-1.0
 40
-1.0
 40
-1.0
 40
-0.8333333333333332
 40
-0.8333333333333332
 40
-0.8333333333333332
 40
-0.8333333333333332
 10
739.5271471287998
 20
1996.619604450117
 30
0.0
 10
739.418368723582
 20
1996.317859964791
 30
0.0
 10
739.29630319698
 20
1996.031160787022
 30
0.0
 10
739.1642025638092
 20
1995.75962773817
 30
0.0
  0
SPLINE
  5
10C
330
87
100
AcDbEntity
  8
P-SANR-FIXT
100
AcDbSpline
210
0.0
220
0.0
230
1.0
 70
     8
 71
     3
 72
     8
 73
     4
 74
     0
 42
0.000000001
 43
0.0000000001
 40
-0.7147699932637507
 40
-0.7147699932637507
 40
-0.7147699932637507
 40
-0.7147699932637507
 40
-0.6666666666666666
 40
-0.6666666666666666
 40
-0.6666666666666666
 40
-0.6666666666666666
 10
738.8684478190823
 20
1995.203485985402
 30
0.0
 10
738.8267688339604
 20
1995.131474881496
 30
0.0
 10
738.7844719269223
 20
1995.060842145249
 30
0.0
 10
738.7416888266015
 20
1994.991423740843
 30
0.0
  0
SPLINE
  5
10D
330
87
100
AcDbEntity
  8
P-SANR-FIXT
100
AcDbSpline
210
0.0
220
0.0
230
1.0
 70
     8
 71
     3
 72
     8
 73
     4
 74
     0
 42
0.000000001
 43
0.0000000001
 40
-0.5
 40
-0.5
 40
-0.5
 40
-0.5
 40
-0.4839503581638195
 40
-0.4839503581638195
 40
-0.4839503581638195
 40
-0.4839503581638195
 10
738.2803477234513
 20
1994.316636324556
 30
0.0
 10
738.2650705749512
 20
1994.29639044763
 30
0.0
 10
738.2497479449102
 20
1994.2763184221
 30
0.0
 10
738.2343825135831
 20
1994.256405849602
 30
0.0
  0
SPLINE
  5
10E
330
87
100
AcDbEntity
  8
P-SANR-FIXT
100
AcDbSpline
210
0.0
220
0.0
230
1.0
 70
     8
 71
     3
 72
     8
 73
     4
 74
     0
 42
0.000000001
 43
0.0000000001
 40
-0.3333333333333333
 40
-0.3333333333333333
 40
-0.3333333333333333
 40
-0.3333333333333333
 40
-0.1666666666666666
 40
-0.1666666666666666
 40
-0.1666666666666666
 40
-0.1666666666666666
 10
737.7927011446339
 20
1993.726028635544
 30
0.0
 10
737.6265698269606
 20
1993.541906561182
 30
0.0
 10
737.4570987761265
 20
1993.364063121002
 30
0.0
 10
737.2872300218208
 20
1993.210201872776
 30
0.0
  0
LINE
  5
10F
330
87
100
AcDbEntity
  8
P-SANR-FIXT
100
AcDbLine
 10
736.7771471287999
 20
1986.499999999995
 30
0.0
 11
736.7771471287999
 21
1992.766757664542
 31
0.0
  0
SPLINE
  5
110
330
87
100
AcDbEntity
  8
P-SANR-FIXT
100
AcDbSpline
210
0.0
220
0.0
230
1.0
 70
     8
 71
     3
 72
     9
 73
     5
 74
     0
 42
0.000000001
 43
0.0000000001
 40
0.0
 40
0.0
 40
0.0
 40
0.0
 40
0.5
 40
1.0
 40
1.0
 40
1.0
 40
1.0
 10
700.8352119505545
 20
1998.8648367029
 30
0.0
 10
700.8002799154194
 20
1998.685028989922
 30
0.0
 10
700.7300393384922
 20
1998.322573635617
 30
0.0
 10
700.6588367008324
 20
1997.954736975272
 30
0.0
 10
700.6229436437307
 20
1997.769546472741
 30
0.0
  0
SPLINE
  5
111
330
87
100
AcDbEntity
  8
P-SANR-FIXT
100
AcDbSpline
210
0.0
220
0.0
230
1.0
 70
     8
 71
     3
 72
    19
 73
    15
 74
     0
 42
0.000000001
 43
0.0000000001
 40
0.0
 40
0.0
 40
0.0
 40
0.0
 40
0.1666666666666666
 40
0.3333333333333333
 40
0.4166666666666666
 40
0.5
 40
0.5833333333333333
 40
0.625
 40
0.6666666666666666
 40
0.7083333333333333
 40
0.75
 40
0.8333333333333332
 40
0.9166666666666666
 40
1.0
 40
1.0
 40
1.0
 40
1.0
 10
700.6229436437307
 20
1997.769546472741
 30
0.0
 10
700.573662267551
 20
1997.513726481556
 30
0.0
 10
700.441032706014
 20
1997.000541019902
 30
0.0
 10
700.1871999174851
 20
1996.3518177438
 30
0.0
 10
699.9294130633471
 20
1995.844678332062
 30
0.0
 10
699.7072541197176
 20
1995.474179340628
 30
0.0
 10
699.496896209479
 20
1995.175898954209
 30
0.0
 10
699.3134225503061
 20
1994.944900804733
 30
0.0
 10
699.1678780568386
 20
1994.779441039118
 30
0.0
 10
699.0139119272086
 20
1994.619450295938
 30
0.0
 10
698.7976440716645
 20
1994.41171566423
 30
0.0
 10
698.5086067179699
 20
1994.174673859782
 30
0.0
 10
698.134015189824
 20
1993.938617752839
 30
0.0
 10
697.8646304429214
 20
1993.806962120288
 30
0.0
 10
697.7251661648633
 20
1993.748043367596
 30
0.0
  0
SPLINE
  5
112
330
87
100
AcDbEntity
  8
P-SANR-FIXT
100
AcDbSpline
210
0.0
220
0.0
230
1.0
 70
     8
 71
     3
 72
     9
 73
     5
 74
     0
 42
0.000000001
 43
0.0000000001
 40
0.0
 40
0.0
 40
0.0
 40
0.0
 40
0.5
 40
1.0
 40
1.0
 40
1.0
 40
1.0
 10
697.7251661648633
 20
1993.748043367596
 30
0.0
 10
697.1628211419358
 20
1993.524531398821
 30
0.0
 10
696.0374520031409
 20
1993.082997509606
 30
0.0
 10
694.9113071183879
 20
1992.651611906653
 30
0.0
 10
694.3482015878235
 20
1992.43822646156
 30
0.0
  0
LINE
  5
113
330
87
100
AcDbEntity
  8
P-SANR-FIXT
100
AcDbLine
 10
694.3482015878235
 20
1992.43822646156
 30
0.0
 11
711.2128725299644
 21
1968.35298027118
 31
0.0
  0
LINE
  5
114
330
87
100
AcDbEntity
  8
P-SANR-FIXT
100
AcDbLine
 10
718.5852409285652
 20
1973.51516819834
 30
0.0
 11
700.8352119505545
 21
1998.8648367029
 31
0.0
  0
ARC
  5
115
330
87
100
AcDbEntity
  8
P-SANR-FIXT
100
AcDbCircle
 10
731.2956905576115
 20
1999.587031402316
 30
0.0
 40
8.750000000000056
100
AcDbArc
 50
359.9999999999992
 51
179.9999999999996
  0
ARC
  5
116
330
87
100
AcDbEntity
  8
P-SANR-FIXT
100
AcDbCircle
 10
731.2956905576115
 20
1999.587031402316
 30
0.0
 40
8.75
100
AcDbArc
 50
180.0
 51
0.0
  0
LINE
  5
117
330
87
100
AcDbEntity
  8
P-SANR-FIXT
100
AcDbLine
 10
730.5271471287977
 20
2024.499999999995
 30
0.0
 11
731.2771471287998
 21
2024.499999999995
 31
0.0
  0
LINE
  5
118
330
87
100
AcDbEntity
  8
P-SANR-FIXT
100
AcDbLine
 10
723.4576398393451
 20
2024.499999999995
 30
0.0
 11
729.5966544182532
 21
2024.499999999995
 31
0.0
  0
LINE
  5
119
330
87
100
AcDbEntity
  8
P-SANR-FIXT
100
AcDbLine
 10
715.457639839349
 20
2024.499999999995
 30
0.0
 11
721.5966544182493
 21
2024.499999999995
 31
0.0
  0
LINE
  5
11A
330
87
100
AcDbEntity
  8
P-SANR-FIXT
100
AcDbLine
 10
713.7771471287997
 20
2024.499999999995
 30
0.0
 11
714.5271471287977
 21
2024.499999999995
 31
0.0
  0
LINE
  5
11B
330
87
100
AcDbEntity
  8
P-SANR-FIXT
100
AcDbLine
 10
714.0087846100994
 20
2013.499999999995
 30
0.0
 11
714.0087846100994
 21
2013.196715830336
 31
0.0
  0
SPLINE
  5
11C
330
87
100
AcDbEntity
  8
P-SANR-FIXT
100
AcDbSpline
210
0.0
220
0.0
230
1.0
 70
     8
 71
     3
 72
     9
 73
     5
 74
     0
 42
0.000000001
 43
0.0000000001
 40
0.0
 40
0.0
 40
0.0
 40
0.0
 40
0.5
 40
1.0
 40
1.0
 40
1.0
 40
1.0
 10
701.5594677588468
 20
1999.573939009538
 30
0.0
 10
701.5115598425697
 20
1999.358929318594
 30
0.0
 10
701.4151859151803
 20
1998.922561798879
 30
0.0
 10
701.3171053627717
 20
1998.474341232572
 30
0.0
 10
701.2674946289161
 20
1998.247473057449
 30
0.0
  0
SPLINE
  5
11D
330
87
100
AcDbEntity
  8
P-SANR-FIXT
100
AcDbSpline
210
0.0
220
0.0
230
1.0
 70
     8
 71
     3
 72
     9
 73
     5
 74
     0
 42
0.000000001
 43
0.0000000001
 40
0.0
 40
0.0
 40
0.0
 40
0.0
 40
0.5
 40
1.0
 40
1.0
 40
1.0
 40
1.0
 10
694.8077955820855
 20
1991.781858214744
 30
0.0
 10
691.3904071886213
 20
1990.505439432254
 30
0.0
 10
684.5846050283709
 20
1988.256687698079
 30
0.0
 10
678.1007667626266
 20
1986.239055642009
 30
0.0
 10
675.049036573887
 20
1985.131354595579
 30
0.0
  0
LINE
  5
11E
330
87
100
AcDbEntity
  8
P-SANR-FIXT
100
AcDbLine
 10
674.5835116248662
 20
1985.796193123611
 30
0.0
 11
695.11661986236
 21
1956.471875522015
 31
0.0
  0
SPLINE
  5
11F
330
87
100
AcDbEntity
  8
P-SANR-FIXT
100
AcDbSpline
210
0.0
220
0.0
230
1.0
 70
     8
 71
     3
 72
     9
 73
     5
 74
     0
 42
0.000000001
 43
0.0000000001
 40
0.0
 40
0.0
 40
0.0
 40
0.0
 40
0.5
 40
1.0
 40
1.0
 40
1.0
 40
1.0
 10
674.5835116248663
 20
1985.796193123611
 30
0.0
 10
672.6788727292083
 20
1985.015825772683
 30
0.0
 10
669.3926415674301
 20
1984.005037470837
 30
0.0
 10
667.5347316420737
 20
1983.548263845047
 30
0.0
 10
667.1087667262784
 20
1983.249999999995
 30
0.0
  0
SPLINE
  5
120
330
87
100
AcDbEntity
  8
P-SANR-FIXT
100
AcDbSpline
210
0.0
220
0.0
230
1.0
 70
     8
 71
     3
 72
    39
 73
    35
 74
     0
 42
0.000000001
 43
0.0000000001
 40
0.0
 40
0.0
 40
0.0
 40
0.0
 40
0.0555555555555556
 40
0.1111111111111111
 40
0.1666666666666666
 40
0.2222222222222222
 40
0.2777777777777778
 40
0.3055555555555556
 40
0.3194444444444444
 40
0.3333333333333333
 40
0.3472222222222222
 40
0.3611111111111111
 40
0.3888888888888888
 40
0.4166666666666666
 40
0.4444444444444445
 40
0.4583333333333333
 40
0.4722222222222223
 40
0.5
 40
0.5277777777777778
 40
0.5416666666666668
 40
0.5555555555555556
 40
0.5833333333333334
 40
0.6111111111111112
 40
0.6388888888888889
 40
0.6527777777777777
 40
0.6666666666666666
 40
0.6805555555555556
 40
0.6944444444444445
 40
0.7222222222222223
 40
0.7777777777777778
 40
0.8333333333333332
 40
0.8888888888888889
 40
0.9444444444444444
 40
1.0
 40
1.0
 40
1.0
 40
1.0
 10
695.0271471288004
 20
2016.749999999996
 30
0.0
 10
695.0068311201222
 20
2016.749999999996
 30
0.0
 10
694.8491324603383
 20
2016.638385169098
 30
0.0
 10
694.2831227163059
 20
2016.194752772604
 30
0.0
 10
693.3224366991368
 20
2015.510591165565
 30
0.0
 10
692.0685586510217
 20
2014.66625449771
 30
0.0
 10
690.8394873601604
 20
2013.88597254525
 30
0.0
 10
689.8666959010259
 20
2013.333795545658
 30
0.0
 10
689.286106233944
 20
2013.029238927344
 30
0.0
 10
688.8398142823938
 20
2012.810638528576
 30
0.0
 10
688.3785431108766
 20
2012.596322036896
 30
0.0
 10
687.7393336165225
 20
2012.310064960287
 30
0.0
 10
686.9043053729606
 20
2011.967045313415
 30
0.0
 10
685.8584989871025
 20
2011.611960235009
 30
0.0
 10
684.9733228540612
 20
2011.399431010352
 30
0.0
 10
684.2481832740165
 20
2011.289590839114
 30
0.0
 10
683.495957000895
 20
2011.20875167107
 30
0.0
 10
682.529288154035
 20
2011.168463664954
 30
0.0
 10
681.562548016066
 20
2011.20833242002
 30
0.0
 10
680.8101677315517
 20
2011.288923750611
 30
0.0
 10
680.0848399655759
 20
2011.398601620706
 30
0.0
 10
679.1991359393708
 20
2011.611142748361
 30
0.0
 10
678.1523697350707
 20
2011.966407240157
 30
0.0
 10
677.3165826728718
 20
2012.309567611826
 30
0.0
 10
676.6769467694746
 20
2012.595855578064
 30
0.0
 10
676.2154875369045
 20
2012.810141064056
 30
0.0
 10
675.7691818022123
 20
2013.02863197682
 30
0.0
 10
675.1887518236007
 20
2013.332966905666
 30
0.0
 10
674.2165696885733
 20
2013.884660028615
 30
0.0
 10
672.9883818798258
 20
2014.664568911802
 30
0.0
 10
671.733326479572
 20
2015.509723197965
 30
0.0
 10
670.771487516601
 20
2016.194483908266
 30
0.0
 10
670.2051918189972
 20
2016.638329302384
 30
0.0
 10
670.0474271828597
 20
2016.749999999996
 30
0.0
 10
670.0271471288004
 20
2016.749999999996
 30
0.0
  0
SPLINE
  5
121
330
87
100
AcDbEntity
  8
P-SANR-FIXT
100
AcDbSpline
210
0.0
220
0.0
230
1.0
 70
     8
 71
     3
 72
     8
 73
     4
 74
     0
 42
0.000000001
 43
0.0000000001
 40
0.037037037037037
 40
0.037037037037037
 40
0.037037037037037
 40
0.037037037037037
 40
0.0401883591845503
 40
0.0401883591845503
 40
0.0401883591845503
 40
0.0401883591845503
 10
691.2059341371793
 20
1998.946709659509
 30
0.0
 10
691.2023940423332
 20
1998.91744265692
 30
0.0
 10
691.1987230471757
 20
1998.888226717363
 30
0.0
 10
691.1949207587399
 20
1998.859061706715
 30
0.0
  0
SPLINE
  5
122
330
87
100
AcDbEntity
  8
P-SANR-FIXT
100
AcDbSpline
210
0.0
220
0.0
230
1.0
 70
     8
 71
     3
 72
     8
 73
     4
 74
     0
 42
0.000000001
 43
0.0000000001
 40
0.0740740740740741
 40
0.0740740740740741
 40
0.0740740740740741
 40
0.0740740740740741
 40
0.0815942729156419
 40
0.0815942729156419
 40
0.0815942729156419
 40
0.0815942729156419
 10
691.0262338708718
 20
1997.935739228217
 30
0.0
 10
691.0103137738031
 20
1997.868717609808
 30
0.0
 10
690.9936219339857
 20
1997.801977804679
 30
0.0
 10
690.9761530111282
 20
1997.735517990127
 30
0.0
  0
SPLINE
  5
123
330
87
100
AcDbEntity
  8
P-SANR-FIXT
100
AcDbSpline
210
0.0
220
0.0
230
1.0
 70
     8
 71
     3
 72
     8
 73
     4
 74
     0
 42
0.000000001
 43
0.0000000001
 40
0.1111111111111111
 40
0.1111111111111111
 40
0.1111111111111111
 40
0.1111111111111111
 40
0.1236459678828132
 40
0.1236459678828132
 40
0.1236459678828132
 40
0.1236459678828132
 10
690.7342186381121
 20
1996.965782268678
 30
0.0
 10
690.6947960432678
 20
1996.85862213757
 30
0.0
 10
690.6531562386155
 20
1996.752220029644
 30
0.0
 10
690.6093734160354
 20
1996.646666137097
 30
0.0
  0
SPLINE
  5
124
330
87
100
AcDbEntity
  8
P-SANR-FIXT
100
AcDbSpline
210
0.0
220
0.0
230
1.0
 70
     8
 71
     3
 72
     8
 73
     4
 74
     0
 42
0.000000001
 43
0.0000000001
 40
0.1481481481481481
 40
0.1481481481481481
 40
0.1481481481481481
 40
0.1481481481481481
 40
0.1851851851851852
 40
0.1851851851851852
 40
0.1851851851851852
 40
0.1851851851851852
 10
690.3286125416453
 20
1996.038076671455
 30
0.0
 10
690.175329297042
 20
1995.737010370387
 30
0.0
 10
690.0046027886526
 20
1995.444888496924
 30
0.0
 10
689.818346862309
 20
1995.164037639316
 30
0.0
  0
SPLINE
  5
125
330
87
100
AcDbEntity
  8
P-SANR-FIXT
100
AcDbSpline
210
0.0
220
0.0
230
1.0
 70
     8
 71
     3
 72
     8
 73
     4
 74
     0
 42
0.000000001
 43
0.0000000001
 40
0.207606942108512
 40
0.207606942108512
 40
0.207606942108512
 40
0.207606942108512
 40
0.2222222222222222
 40
0.2222222222222222
 40
0.2222222222222222
 40
0.2222222222222222
 10
689.4634261821123
 20
1994.666875375985
 30
0.0
 10
689.3827842863406
 20
1994.561769722284
 30
0.0
 10
689.299904582947
 20
1994.458638509143
 30
0.0
 10
689.2149046752467
 20
1994.357624702308
 30
0.0
  0
SPLINE
  5
126
330
87
100
AcDbEntity
  8
P-SANR-FIXT
100
AcDbSpline
210
0.0
220
0.0
230
1.0
 70
     8
 71
     3
 72
     8
 73
     4
 74
     0
 42
0.000000001
 43
0.0000000001
 40
0.2501178127202924
 40
0.2501178127202924
 40
0.2501178127202924
 40
0.2501178127202924
 40
0.2592592592592593
 40
0.2592592592592593
 40
0.2592592592592593
 40
0.2592592592592593
 10
688.7052740755847
 20
1993.802510884022
 30
0.0
 10
688.6471282326393
 20
1993.744433663323
 30
0.0
 10
688.5881796289955
 20
1993.687200697522
 30
0.0
 10
688.5284370127294
 20
1993.63081719505
 30
0.0
  0
SPLINE
  5
127
330
87
100
AcDbEntity
  8
P-SANR-FIXT
100
AcDbSpline
210
0.0
220
0.0
230
1.0
 70
     8
 71
     3
 72
     8
 73
     4
 74
     0
 42
0.000000001
 43
0.0000000001
 40
0.2917954686638131
 40
0.2917954686638131
 40
0.2917954686638131
 40
0.2917954686638131
 40
0.2962962962962963
 40
0.2962962962962963
 40
0.2962962962962963
 40
0.2962962962962963
 10
687.8608254235238
 20
1993.061417817811
 30
0.0
 10
687.8287072305237
 20
1993.036706348313
 30
0.0
 10
687.7964120025486
 20
1993.012217980364
 30
0.0
 10
687.763943318892
 20
1992.987957409239
 30
0.0
  0
SPLINE
  5
128
330
87
100
AcDbEntity
  8
P-SANR-FIXT
100
AcDbSpline
210
0.0
220
0.0
230
1.0
 70
     8
 71
     3
 72
     8
 73
     4
 74
     0
 42
0.000000001
 43
0.0000000001
 40
0.3333333333333333
 40
0.3333333333333333
 40
0.3333333333333333
 40
0.3333333333333333
 40
0.3344458362313214
 40
0.3344458362313214
 40
0.3344458362313214
 40
0.3344458362313214
 10
686.9291524379722
 20
1992.437933532552
 30
0.0
 10
686.9204812018079
 20
1992.432942136924
 30
0.0
 10
686.9118011676047
 20
1992.42796701952
 30
0.0
 10
686.9031121631746
 20
1992.423007976305
 30
0.0
  0
SPLINE
  5
129
330
87
100
AcDbEntity
  8
P-SANR-FIXT
100
AcDbSpline
210
0.0
220
0.0
230
1.0
 70
     8
 71
     3
 72
     8
 73
     4
 74
     0
 42
0.000000001
 43
0.0000000001
 40
0.3703703703703703
 40
0.3703703703703703
 40
0.3703703703703703
 40
0.3703703703703703
 40
0.3762884637864161
 40
0.3762884637864161
 40
0.3762884637864161
 40
0.3762884637864161
 10
686.0278027706224
 20
1991.986264845832
 30
0.0
 10
685.9777328523342
 20
1991.964434975741
 30
0.0
 10
685.9273726880705
 20
1991.942975622043
 30
0.0
 10
685.8767736573924
 20
1991.921921320474
 30
0.0
  0
SPLINE
  5
12A
330
87
100
AcDbEntity
  8
P-SANR-FIXT
100
AcDbSpline
210
0.0
220
0.0
230
1.0
 70
     8
 71
     3
 72
     8
 73
     4
 74
     0
 42
0.000000001
 43
0.0000000001
 40
0.4074074074074074
 40
0.4074074074074074
 40
0.4074074074074074
 40
0.4074074074074074
 40
0.4175497377435302
 40
0.4175497377435302
 40
0.4175497377435302
 40
0.4175497377435302
 10
685.0647478515424
 20
1991.627634924236
 30
0.0
 10
684.9753445052073
 20
1991.600062984632
 30
0.0
 10
684.8855855759738
 20
1991.573980633736
 30
0.0
 10
684.7954845887317
 20
1991.549433864701
 30
0.0
  0
SPLINE
  5
12B
330
87
100
AcDbEntity
  8
P-SANR-FIXT
100
AcDbSpline
210
0.0
220
0.0
230
1.0
 70
     8
 71
     3
 72
     8
 73
     4
 74
     0
 42
0.000000001
 43
0.0000000001
 40
0.4444444444444445
 40
0.4444444444444445
 40
0.4444444444444445
 40
0.4444444444444445
 40
0.4590398452912312
 40
0.4590398452912312
 40
0.4590398452912312
 40
0.4590398452912312
 10
684.0717509885174
 20
1991.387410440719
 30
0.0
 10
683.9396166978079
 20
1991.364271115179
 30
0.0
 10
683.8068483364262
 20
1991.344564397861
 30
0.0
 10
683.6732246727041
 20
1991.328043087037
 30
0.0
  0
SPLINE
  5
12C
330
87
100
AcDbEntity
  8
P-SANR-FIXT
100
AcDbSpline
210
0.0
220
0.0
230
1.0
 70
     8
 71
     3
 72
     9
 73
     5
 74
     0
 42
0.000000001
 43
0.0000000001
 40
0.4814814814814815
 40
0.4814814814814815
 40
0.4814814814814815
 40
0.4814814814814815
 40
0.5138888888888889
 40
0.5185185185185186
 40
0.5185185185185186
 40
0.5185185185185186
 40
0.5185185185185186
 10
683.0499860490959
 20
1991.273529461544
 30
0.0
 10
682.7463456278851
 20
1991.257314237708
 30
0.0
 10
682.3934976024956
 20
1991.254838337276
 30
0.0
 10
682.0453197064189
 20
1991.271178902347
 30
0.0
 10
682.0018783918432
 20
1991.27351871166
 30
0.0
  0
SPLINE
  5
12D
330
87
100
AcDbEntity
  8
P-SANR-FIXT
100
AcDbSpline
210
0.0
220
0.0
230
1.0
 70
     8
 71
     3
 72
     9
 73
     5
 74
     0
 42
0.000000001
 43
0.0000000001
 40
0.5408663698198023
 40
0.5408663698198023
 40
0.5408663698198023
 40
0.5408663698198023
 40
0.5486111111111111
 40
0.5555555555555556
 40
0.5555555555555556
 40
0.5555555555555556
 40
0.5555555555555556
 10
681.37933651642
 20
1991.328542346965
 30
0.0
 10
681.3082822562929
 20
1991.337383259052
 30
0.0
 10
681.1741502847983
 20
1991.355812898723
 30
0.0
 10
681.0413525695492
 20
1991.377445746088
 30
0.0
 10
680.9788119496566
 20
1991.388400009341
 30
0.0
  0
SPLINE
  5
12E
330
87
100
AcDbEntity
  8
P-SANR-FIXT
100
AcDbSpline
210
0.0
220
0.0
230
1.0
 70
     8
 71
     3
 72
     9
 73
     5
 74
     0
 42
0.000000001
 43
0.0000000001
 40
0.5823733029489424
 40
0.5823733029489424
 40
0.5823733029489424
 40
0.5823733029489424
 40
0.5833333333333333
 40
0.5925925925925926
 40
0.5925925925925926
 40
0.5925925925925926
 40
0.5925925925925926
 10
680.2617192965136
 20
1991.548487077588
 30
0.0
 10
680.2532114986533
 20
1991.550800666845
 30
0.0
 10
680.1626514588384
 20
1991.575584673442
 30
0.0
 10
680.0721162457542
 20
1991.602041717172
 30
0.0
 10
679.990252139735
 20
1991.627298326497
 30
0.0
  0
SPLINE
  5
12F
330
87
100
AcDbEntity
  8
P-SANR-FIXT
100
AcDbSpline
210
0.0
220
0.0
230
1.0
 70
     8
 71
     3
 72
     8
 73
     4
 74
     0
 42
0.000000001
 43
0.0000000001
 40
0.6236644130528046
 40
0.6236644130528046
 40
0.6236644130528046
 40
0.6236644130528046
 40
0.6296296296296296
 40
0.6296296296296296
 40
0.6296296296296296
 40
0.6296296296296296
 10
679.1772304810685
 20
1991.921661404705
 30
0.0
 10
679.126264454131
 20
1991.942862099366
 30
0.0
 10
679.0755539810613
 20
1991.964475601628
 30
0.0
 10
679.0251269143859
 20
1991.986485204985
 30
0.0
  0
SPLINE
  5
130
330
87
100
AcDbEntity
  8
P-SANR-FIXT
100
AcDbSpline
210
0.0
220
0.0
230
1.0
 70
     8
 71
     3
 72
     8
 73
     4
 74
     0
 42
0.000000001
 43
0.0000000001
 40
0.6655217994548934
 40
0.6655217994548934
 40
0.6655217994548934
 40
0.6655217994548934
 40
0.6666666666666666
 40
0.6666666666666666
 40
0.6666666666666666
 40
0.6666666666666666
 10
678.1508188652052
 20
1992.423444325135
 30
0.0
 10
678.1419214103824
 20
1992.428503573476
 30
0.0
 10
678.1330361066919
 20
1992.433578098376
 30
0.0
 10
678.1241626020194
 20
1992.438668074994
 30
0.0
  0
SPLINE
  5
131
330
87
100
AcDbEntity
  8
P-SANR-FIXT
100
AcDbSpline
210
0.0
220
0.0
230
1.0
 70
     8
 71
     3
 72
     8
 73
     4
 74
     0
 42
0.000000001
 43
0.0000000001
 40
0.7037037037037035
 40
0.7037037037037035
 40
0.7037037037037035
 40
0.7037037037037035
 40
0.7081383088987675
 40
0.7081383088987675
 40
0.7081383088987675
 40
0.7081383088987675
 10
677.2912529657357
 20
1992.986889826388
 30
0.0
 10
677.2590817043675
 20
1993.010997332807
 30
0.0
 10
677.2270257218109
 20
1993.035321924074
 30
0.0
 10
677.1951247171742
 20
1993.059863701663
 30
0.0
  0
SPLINE
  5
132
330
87
100
AcDbEntity
  8
P-SANR-FIXT
100
AcDbSpline
210
0.0
220
0.0
230
1.0
 70
     8
 71
     3
 72
     8
 73
     4
 74
     0
 42
0.000000001
 43
0.0000000001
 40
0.7407407407407405
 40
0.7407407407407405
 40
0.7407407407407405
 40
0.7407407407407405
 40
0.7497758405936628
 40
0.7497758405936628
 40
0.7497758405936628
 40
0.7497758405936628
 10
676.5236894590464
 20
1993.633141313343
 30
0.0
 10
676.4646897420553
 20
1993.688806008478
 30
0.0
 10
676.4069049034591
 20
1993.74543102443
 30
0.0
 10
676.3501238384137
 20
1993.802924589393
 30
0.0
  0
SPLINE
  5
133
330
87
100
AcDbEntity
  8
P-SANR-FIXT
100
AcDbSpline
210
0.0
220
0.0
230
1.0
 70
     8
 71
     3
 72
     9
 73
     5
 74
     0
 42
0.000000001
 43
0.0000000001
 40
0.7777777777777775
 40
0.7777777777777775
 40
0.7777777777777775
 40
0.7777777777777775
 40
0.7916666666666668
 40
0.7922772153956142
 40
0.7922772153956142
 40
0.7922772153956142
 40
0.7922772153956142
 10
675.8396638225828
 20
1994.356984764504
 30
0.0
 10
675.7592569251604
 20
1994.452518451997
 30
0.0
 10
675.6783801006235
 20
1994.554802750377
 30
0.0
 10
675.5971915044637
 20
1994.658194892532
 30
0.0
 10
675.5937723598026
 20
1994.662550577252
 30
0.0
  0
SPLINE
  5
134
330
87
100
AcDbEntity
  8
P-SANR-FIXT
100
AcDbSpline
210
0.0
220
0.0
230
1.0
 70
     8
 71
     3
 72
     8
 73
     4
 74
     0
 42
0.000000001
 43
0.0000000001
 40
0.8148148148148145
 40
0.8148148148148145
 40
0.8148148148148145
 40
0.8148148148148145
 40
0.8518518518518513
 40
0.8518518518518513
 40
0.8518518518518513
 40
0.8518518518518513
 10
675.2366265760156
 20
1995.162728294799
 30
0.0
 10
675.0496786673762
 20
1995.444377562746
 30
0.0
 10
674.8630653056578
 20
1995.732228209121
 30
0.0
 10
674.7154092337175
 20
1996.036051088899
 30
0.0
  0
SPLINE
  5
135
330
87
100
AcDbEntity
  8
P-SANR-FIXT
100
AcDbSpline
210
0.0
220
0.0
230
1.0
 70
     8
 71
     3
 72
     8
 73
     4
 74
     0
 42
0.000000001
 43
0.0000000001
 40
0.8763142123579775
 40
0.8763142123579775
 40
0.8763142123579775
 40
0.8763142123579775
 40
0.8888888888888883
 40
0.8888888888888883
 40
0.8888888888888883
 40
0.8888888888888883
 10
674.4446564169861
 20
1996.646636126194
 30
0.0
 10
674.40101199221
 20
1996.752270317807
 30
0.0
 10
674.363336524105
 20
1996.860181060691
 30
0.0
 10
674.3304613820375
 20
1996.96992229659
 30
0.0
  0
SPLINE
  5
136
330
87
100
AcDbEntity
  8
P-SANR-FIXT
100
AcDbSpline
210
0.0
220
0.0
230
1.0
 70
     8
 71
     3
 72
     8
 73
     4
 74
     0
 42
0.000000001
 43
0.0000000001
 40
0.9183896965017559
 40
0.9183896965017559
 40
0.9183896965017559
 40
0.9183896965017559
 40
0.9259259259259254
 40
0.9259259259259254
 40
0.9259259259259254
 40
0.9259259259259254
 10
674.0794367684913
 20
1997.73436374776
 30
0.0
 10
674.0619496382269
 20
1997.800938341434
 30
0.0
 10
674.046587835833
 20
1997.86833568402
 30
0.0
 10
674.032971897432
 20
1997.936408809872
 30
0.0
  0
SPLINE
  5
137
330
87
100
AcDbEntity
  8
P-SANR-FIXT
100
AcDbSpline
210
0.0
220
0.0
230
1.0
 70
     8
 71
     3
 72
     8
 73
     4
 74
     0
 42
0.000000001
 43
0.0000000001
 40
0.9598073742606437
 40
0.9598073742606437
 40
0.9598073742606437
 40
0.9598073742606437
 40
0.9629629629629622
 40
0.9629629629629622
 40
0.9629629629629622
 40
0.9629629629629622
 10
673.860108193269
 20
1998.858495041323
 30
0.0
 10
673.8562763741294
 20
1998.887716534017
 30
0.0
 10
673.8528150899956
 20
1998.917083625812
 30
0.0
 10
673.849667776672
 20
1998.946574085771
 30
0.0
  0
SPLINE
  5
138
330
87
100
AcDbEntity
  8
P-SANR-FIXT
100
AcDbSpline
210
0.0
220
0.0
230
1.0
 70
     8
 71
     3
 72
     8
 73
     4
 74
     0
 42
0.000000001
 43
0.0000000001
 40
0.037037037037037
 40
0.037037037037037
 40
0.037037037037037
 40
0.037037037037037
 40
0.0401926257393517
 40
0.0401926257393517
 40
0.0401926257393517
 40
0.0401926257393517
 10
673.8485033330997
 20
2001.053232447105
 30
0.0
 10
673.8520504180221
 20
2001.082536189601
 30
0.0
 10
673.8557285368224
 20
2001.111788564581
 30
0.0
 10
673.8595380682721
 20
2001.140989691266
 30
0.0
  0
SPLINE
  5
139
330
87
100
AcDbEntity
  8
P-SANR-FIXT
100
AcDbSpline
210
0.0
220
0.0
230
1.0
 70
     8
 71
     3
 72
     8
 73
     4
 74
     0
 42
0.000000001
 43
0.0000000001
 40
0.0740740740740741
 40
0.0740740740740741
 40
0.0740740740740741
 40
0.0740740740740741
 40
0.0816103034982412
 40
0.0816103034982412
 40
0.0816103034982412
 40
0.0816103034982412
 10
674.0281640447949
 20
2002.064007679543
 30
0.0
 10
674.0441057333387
 20
2002.131150881287
 30
0.0
 10
674.0608201399031
 20
2002.198009085252
 30
0.0
 10
674.0783124238784
 20
2002.264583915371
 30
0.0
  0
SPLINE
  5
13A
330
87
100
AcDbEntity
  8
P-SANR-FIXT
100
AcDbSpline
210
0.0
220
0.0
230
1.0
 70
     8
 71
     3
 72
     8
 73
     4
 74
     0
 42
0.000000001
 43
0.0000000001
 40
0.1111111111111111
 40
0.1111111111111111
 40
0.1111111111111111
 40
0.1111111111111111
 40
0.1236857876420192
 40
0.1236857876420192
 40
0.1236857876420192
 40
0.1236857876420192
 10
674.3198037449912
 20
2003.033482253156
 30
0.0
 10
674.3592842832809
 20
2003.140906304703
 30
0.0
 10
674.4009867424392
 20
2003.247559112449
 30
0.0
 10
674.4448392193395
 20
2003.353352716497
 30
0.0
  0
SPLINE
  5
13B
330
87
100
AcDbEntity
  8
P-SANR-FIXT
100
AcDbSpline
210
0.0
220
0.0
230
1.0
 70
     8
 71
     3
 72
     8
 73
     4
 74
     0
 42
0.000000001
 43
0.0000000001
 40
0.1481481481481481
 40
0.1481481481481481
 40
0.1481481481481481
 40
0.1481481481481481
 40
0.1851851851851852
 40
0.1851851851851852
 40
0.1851851851851852
 40
0.1851851851851852
 10
674.7246472607232
 20
2003.960372447599
 30
0.0
 10
674.8776458505333
 20
2004.261146817324
 30
0.0
 10
675.0480827780242
 20
2004.552982986209
 30
0.0
 10
675.2341208026948
 20
2004.833633437547
 30
0.0
  0
SPLINE
  5
13C
330
87
100
AcDbEntity
  8
P-SANR-FIXT
100
AcDbSpline
210
0.0
220
0.0
230
1.0
 70
     8
 71
     3
 72
     8
 73
     4
 74
     0
 42
0.000000001
 43
0.0000000001
 40
0.2077227846043816
 40
0.2077227846043816
 40
0.2077227846043816
 40
0.2077227846043816
 40
0.2222222222222222
 40
0.2222222222222222
 40
0.2222222222222222
 40
0.2222222222222222
 10
675.5906585354661
 20
2005.333041291182
 30
0.0
 10
675.6706563907354
 20
2005.437256451226
 30
0.0
 10
675.7528739324127
 20
2005.539547677872
 30
0.0
 10
675.837200927743
 20
2005.639780122213
 30
0.0
  0
SPLINE
  5
13D
330
87
100
AcDbEntity
  8
P-SANR-FIXT
100
AcDbSpline
210
0.0
220
0.0
230
1.0
 70
     8
 71
     3
 72
     8
 73
     4
 74
     0
 42
0.000000001
 43
0.0000000001
 40
0.2502241594063348
 40
0.2502241594063348
 40
0.2502241594063348
 40
0.2502241594063348
 40
0.2592592592592593
 40
0.2592592592592593
 40
0.2592592592592593
 40
0.2592592592592593
 10
676.3490797744054
 20
2006.197269960421
 30
0.0
 10
676.4066098199899
 20
2006.25471052778
 30
0.0
 10
676.4649285810007
 20
2006.311331494524
 30
0.0
 10
676.5240262555725
 20
2006.367126348553
 30
0.0
  0
SPLINE
  5
13E
330
87
100
AcDbEntity
  8
P-SANR-FIXT
100
AcDbSpline
210
0.0
220
0.0
230
1.0
 70
     8
 71
     3
 72
     8
 73
     4
 74
     0
 42
0.000000001
 43
0.0000000001
 40
0.2918616911012323
 40
0.2918616911012323
 40
0.2918616911012323
 40
0.2918616911012323
 40
0.2962962962962963
 40
0.2962962962962963
 40
0.2962962962962963
 40
0.2962962962962963
 10
677.1936602239001
 20
2006.938419974831
 30
0.0
 10
677.2253380181811
 20
2006.962798149783
 30
0.0
 10
677.2571870918235
 20
2006.986959309271
 30
0.0
 10
677.2892038161917
 20
2007.010898797581
 30
0.0
  0
SPLINE
  5
13F
330
87
100
AcDbEntity
  8
P-SANR-FIXT
100
AcDbSpline
210
0.0
220
0.0
230
1.0
 70
     8
 71
     3
 72
     8
 73
     4
 74
     0
 42
0.000000001
 43
0.0000000001
 40
0.3333333333333333
 40
0.3333333333333333
 40
0.3333333333333333
 40
0.3333333333333333
 40
0.3344782005451136
 40
0.3344782005451136
 40
0.3344782005451136
 40
0.3344782005451136
 10
678.1243663297962
 20
2007.561614988602
 30
0.0
 10
678.1332896008267
 20
2007.566755608642
 30
0.0
 10
678.1422220259079
 20
2007.571878862698
 30
0.0
 10
678.1511637963522
 20
2007.576984976738
 30
0.0
  0
SPLINE
  5
140
330
87
100
AcDbEntity
  8
P-SANR-FIXT
100
AcDbSpline
210
0.0
220
0.0
230
1.0
 70
     8
 71
     3
 72
     8
 73
     4
 74
     0
 42
0.000000001
 43
0.0000000001
 40
0.3703703703703703
 40
0.3703703703703703
 40
0.3703703703703703
 40
0.3703703703703703
 40
0.3763355869472009
 40
0.3763355869472009
 40
0.3763355869472009
 40
0.3763355869472009
 10
679.0253048843854
 20
2008.013396079709
 30
0.0
 10
679.0757369727302
 20
2008.035396804998
 30
0.0
 10
679.1264625827712
 20
2008.057020305012
 30
0.0
 10
679.1774295239682
 20
2008.078231396001
 30
0.0
  0
SPLINE
  5
141
330
87
100
AcDbEntity
  8
P-SANR-FIXT
100
AcDbSpline
210
0.0
220
0.0
230
1.0
 70
     8
 71
     3
 72
     8
 73
     4
 74
     0
 42
0.000000001
 43
0.0000000001
 40
0.4074074074074074
 40
0.4074074074074074
 40
0.4074074074074074
 40
0.4074074074074074
 40
0.4176266970510593
 40
0.4176266970510593
 40
0.4176266970510593
 40
0.4176266970510593
 10
679.9876184233357
 20
2008.371924319864
 30
0.0
 10
680.0776337327683
 20
2008.399696042467
 30
0.0
 10
680.1680121587643
 20
2008.425956650564
 30
0.0
 10
680.2587411022958
 20
2008.45066008767
 30
0.0
  0
SPLINE
  5
142
330
87
100
AcDbEntity
  8
P-SANR-FIXT
100
AcDbSpline
210
0.0
220
0.0
230
1.0
 70
     8
 71
     3
 72
     8
 73
     4
 74
     0
 42
0.000000001
 43
0.0000000001
 40
0.4444444444444445
 40
0.4444444444444445
 40
0.4444444444444445
 40
0.4444444444444445
 40
0.4591336301801977
 40
0.4591336301801977
 40
0.4591336301801977
 40
0.4591336301801977
 10
680.9800353461242
 20
2008.612139405039
 30
0.0
 10
681.1129686017882
 20
2008.635444727418
 30
0.0
 10
681.2465577325671
 20
2008.655283020204
 30
0.0
 10
681.3810237642249
 20
2008.671903084373
 30
0.0
  0
SPLINE
  5
143
330
87
100
AcDbEntity
  8
P-SANR-FIXT
100
AcDbSpline
210
0.0
220
0.0
230
1.0
 70
     8
 71
     3
 72
     9
 73
     5
 74
     0
 42
0.000000001
 43
0.0000000001
 40
0.4814814814814815
 40
0.4814814814814815
 40
0.4814814814814815
 40
0.4814814814814815
 40
0.5138888888888889
 40
0.5185185185185186
 40
0.5185185185185186
 40
0.5185185185185186
 40
0.5185185185185186
 10
682.0016093136128
 20
2008.726287648783
 30
0.0
 10
682.3052280725318
 20
2008.742605724631
 30
0.0
 10
682.6580686304842
 20
2008.74521047848
 30
0.0
 10
683.0062686855502
 20
2008.728989919989
 30
0.0
 10
683.049713285633
 20
2008.72666488051
 30
0.0
  0
SPLINE
  5
144
330
87
100
AcDbEntity
  8
P-SANR-FIXT
100
AcDbSpline
210
0.0
220
0.0
230
1.0
 70
     8
 71
     3
 72
     9
 73
     5
 74
     0
 42
0.000000001
 43
0.0000000001
 40
0.5409601547087627
 40
0.5409601547087627
 40
0.5409601547087627
 40
0.5409601547087627
 40
0.5486111111111111
 40
0.5555555555555556
 40
0.5555555555555556
 40
0.5555555555555556
 40
0.5555555555555556
 10
683.6749264387598
 20
2008.671507621543
 30
0.0
 10
683.7451280066158
 20
2008.662769920276
 30
0.0
 10
683.8784291652729
 20
2008.644466705614
 30
0.0
 10
684.01042158597
 20
2008.622992770392
 30
0.0
 10
684.0729845203441
 20
2008.612046648916
 30
0.0
  0
SPLINE
  5
145
330
87
100
AcDbEntity
  8
P-SANR-FIXT
100
AcDbSpline
210
0.0
220
0.0
230
1.0
 70
     8
 71
     3
 72
     9
 73
     5
 74
     0
 42
0.000000001
 43
0.0000000001
 40
0.5824502622564698
 40
0.5824502622564698
 40
0.5824502622564698
 40
0.5824502622564698
 40
0.5833333333333333
 40
0.5925925925925926
 40
0.5925925925925926
 40
0.5925925925925926
 40
0.5925925925925926
 10
684.7924826358088
 20
2008.451425815549
 30
0.0
 10
684.8003134826178
 20
2008.449295066895
 30
0.0
 10
684.8902505489595
 20
2008.424679744306
 30
0.0
 10
684.9801686410986
 20
2008.398413797996
 30
0.0
 10
685.0620946250053
 20
2008.37314840866
 30
0.0
  0
SPLINE
  5
146
330
87
100
AcDbEntity
  8
P-SANR-FIXT
100
AcDbSpline
210
0.0
220
0.0
230
1.0
 70
     8
 71
     3
 72
     8
 73
     4
 74
     0
 42
0.000000001
 43
0.0000000001
 40
0.6237115362135773
 40
0.6237115362135773
 40
0.6237115362135773
 40
0.6237115362135773
 40
0.6296296296296296
 40
0.6296296296296296
 40
0.6296296296296296
 40
0.6296296296296296
 10
685.8769778358078
 20
2008.078182879001
 30
0.0
 10
685.9275763293549
 20
2008.057138272285
 30
0.0
 10
685.9779219059707
 20
2008.035688232213
 30
0.0
 10
686.0279869372641
 20
2008.013849347336
 30
0.0
  0
SPLINE
  5
147
330
87
100
AcDbEntity
  8
P-SANR-FIXT
100
AcDbSpline
210
0.0
220
0.0
230
1.0
 70
     8
 71
     3
 72
     8
 73
     4
 74
     0
 42
0.000000001
 43
0.0000000001
 40
0.6655541637686783
 40
0.6655541637686783
 40
0.6655541637686783
 40
0.6655541637686783
 40
0.6666666666666666
 40
0.6666666666666666
 40
0.6666666666666666
 40
0.6666666666666666
 10
686.9034421551159
 20
2007.576576856639
 30
0.0
 10
686.9120880221501
 20
2007.571663340479
 30
0.0
 10
686.9207223034711
 20
2007.566735476373
 30
0.0
 10
686.9293453222171
 20
2007.561793104686
 30
0.0
  0
SPLINE
  5
148
330
87
100
AcDbEntity
  8
P-SANR-FIXT
100
AcDbSpline
210
0.0
220
0.0
230
1.0
 70
     8
 71
     3
 72
     8
 73
     4
 74
     0
 42
0.000000001
 43
0.0000000001
 40
0.7037037037037035
 40
0.7037037037037035
 40
0.7037037037037035
 40
0.7037037037037035
 40
0.7082045313361796
 40
0.7082045313361796
 40
0.7082045313361796
 40
0.7082045313361796
 10
687.7619037923492
 20
2007.014241140947
 30
0.0
 10
687.7945284094272
 20
2006.989811187495
 30
0.0
 10
687.8270333851711
 20
2006.965158322653
 30
0.0
 10
687.8593775502325
 20
2006.940282131987
 30
0.0
  0
SPLINE
  5
149
330
87
100
AcDbEntity
  8
P-SANR-FIXT
100
AcDbSpline
210
0.0
220
0.0
230
1.0
 70
     8
 71
     3
 72
     8
 73
     4
 74
     0
 42
0.000000001
 43
0.0000000001
 40
0.7407407407407405
 40
0.7407407407407405
 40
0.7407407407407405
 40
0.7407407407407405
 40
0.7498821872797074
 40
0.7498821872797074
 40
0.7498821872797074
 40
0.7498821872797074
 10
688.5287844000633
 20
2006.368906705388
 30
0.0
 10
688.5884310120296
 20
2006.312652058508
 30
0.0
 10
688.6468380109069
 20
2006.255409873242
 30
0.0
 10
688.704224868437
 20
2006.197274258924
 30
0.0
  0
SPLINE
  5
14A
330
87
100
AcDbEntity
  8
P-SANR-FIXT
100
AcDbSpline
210
0.0
220
0.0
230
1.0
 70
     8
 71
     3
 72
     9
 73
     5
 74
     0
 42
0.000000001
 43
0.0000000001
 40
0.7777777777777775
 40
0.7777777777777775
 40
0.7777777777777775
 40
0.7777777777777775
 40
0.7916666666666668
 40
0.7923930578914852
 40
0.7923930578914852
 40
0.7923930578914852
 40
0.7923930578914852
 10
689.212481452576
 20
2005.645576860406
 30
0.0
 10
689.2928866423548
 20
2005.550063385999
 30
0.0
 10
689.3744261174052
 20
2005.446963044958
 30
0.0
 10
689.456306942758
 20
2005.342709107693
 30
0.0
 10
689.4603771033992
 20
2005.337524689716
 30
0.0
  0
SPLINE
  5
14B
330
87
100
AcDbEntity
  8
P-SANR-FIXT
100
AcDbSpline
210
0.0
220
0.0
230
1.0
 70
     8
 71
     3
 72
     8
 73
     4
 74
     0
 42
0.000000001
 43
0.0000000001
 40
0.8148148148148145
 40
0.8148148148148145
 40
0.8148148148148145
 40
0.8148148148148145
 40
0.8518518518518513
 40
0.8518518518518513
 40
0.8518518518518513
 40
0.8518518518518513
 10
689.8159062948235
 20
2004.839545485699
 30
0.0
 10
690.003097310305
 20
2004.557670439149
 30
0.0
 10
690.190066054617
 20
2004.269473561332
 30
0.0
 10
690.3379900976501
 20
2003.965371848763
 30
0.0
  0
SPLINE
  5
14C
330
87
100
AcDbEntity
  8
P-SANR-FIXT
100
AcDbSpline
210
0.0
220
0.0
230
1.0
 70
     8
 71
     3
 72
     8
 73
     4
 74
     0
 42
0.000000001
 43
0.0000000001
 40
0.8763540321171829
 40
0.8763540321171829
 40
0.8763540321171829
 40
0.8763540321171829
 40
0.8888888888888883
 40
0.8888888888888883
 40
0.8888888888888883
 40
0.8888888888888883
 10
690.6096193902593
 20
2003.353287868377
 30
0.0
 10
690.653179642155
 20
2003.24790800986
 30
0.0
 10
690.6907927409376
 20
2003.140277624736
 30
0.0
 10
690.7236198401243
 20
2003.030836499658
 30
0.0
  0
SPLINE
  5
14D
330
87
100
AcDbEntity
  8
P-SANR-FIXT
100
AcDbSpline
210
0.0
220
0.0
230
1.0
 70
     8
 71
     3
 72
     8
 73
     4
 74
     0
 42
0.000000001
 43
0.0000000001
 40
0.9184057270843572
 40
0.9184057270843572
 40
0.9184057270843572
 40
0.9184057270843572
 40
0.9259259259259254
 40
0.9259259259259254
 40
0.9259259259259254
 40
0.9259259259259254
 10
690.9749963457889
 20
2002.265571215841
 30
0.0
 10
690.992458435835
 20
2002.199113159023
 30
0.0
 10
691.0077998219935
 20
2002.131838998768
 30
0.0
 10
691.021398431782
 20
2002.063894248592
 30
0.0
  0
SPLINE
  5
14E
330
87
100
AcDbEntity
  8
P-SANR-FIXT
100
AcDbSpline
210
0.0
220
0.0
230
1.0
 70
     8
 71
     3
 72
     8
 73
     4
 74
     0
 42
0.000000001
 43
0.0000000001
 40
0.9598116408154474
 40
0.9598116408154474
 40
0.9598116408154474
 40
0.9598116408154474
 40
0.9629629629629622
 40
0.9629629629629622
 40
0.9629629629629622
 40
0.9629629629629622
 10
691.194327989887
 20
2001.141477750767
 30
0.0
 10
691.1981533463327
 20
2001.11229152171
 30
0.0
 10
691.2016086194157
 20
2001.082960455738
 30
0.0
 10
691.2047502357036
 20
2001.05350664108
 30
0.0
  0
ARC
  5
14F
330
87
100
AcDbEntity
  8
P-SANR-FIXT
100
AcDbCircle
 10
-58.0043557578185
 20
1811.115937916196
 30
0.0
 40
785.3866209575024
100
AcDbArc
 50
14.32657165901925
 51
14.62972163825442
  0
LINE
  5
150
330
87
100
AcDbEntity
  8
P-SANR-FIXT
100
AcDbLine
 10
662.6717387052637
 20
1980.143159532432
 30
0.0
 11
684.467643286603
 21
1949.015381849451
 31
0.0
  0
LINE
  5
151
330
87
100
AcDbEntity
  8
P-SANR-FIXT
100
AcDbLine
 10
661.5674984962866
 20
1967.772603620878
 30
0.0
 11
672.4654507869562
 21
1952.208714779388
 31
0.0
  0
LINE
  5
152
330
87
100
AcDbEntity
  8
P-SANR-FIXT
100
AcDbLine
 10
670.0271471288004
 20
2024.499999999995
 30
0.0
 11
695.0271471288004
 21
2024.499999999995
 31
0.0
  0
ARC
  5
153
330
87
100
AcDbEntity
  8
P-SANR-FIXT
100
AcDbCircle
 10
682.5271471288001
 20
1999.999999999995
 30
0.0
 40
8.750000000000113
100
AcDbArc
 50
0.0
 51
180.0
  0
ARC
  5
154
330
87
100
AcDbEntity
  8
P-SANR-FIXT
100
AcDbCircle
 10
682.5271471288001
 20
1999.999999999995
 30
0.0
 40
8.75
100
AcDbArc
 50
180.0
 51
0.0
  0
LINE
  5
155
330
87
100
AcDbEntity
  8
P-SANR-FIXT
100
AcDbLine
 10
714.0087846100994
 20
2013.499999999995
 30
0.0
 11
700.8585012812549
 21
2013.499999999995
 31
0.0
  0
LINE
  5
156
330
87
100
AcDbEntity
  8
P-SANR-FIXT
100
AcDbLine
 10
767.5271471288002
 20
1981.999999999995
 30
0.0
 11
767.5271471288003
 21
2017.999999999995
 31
0.0
  0
LINE
  5
157
330
87
100
AcDbEntity
  8
P-SANR-FIXT
100
AcDbLine
 10
782.5271471288004
 20
2014.72243186433
 30
0.0
 11
782.5271471288004
 21
2007.361215932163
 31
0.0
  0
LINE
  5
158
330
87
100
AcDbEntity
  8
P-SANR-FIXT
100
AcDbLine
 10
782.5271471288004
 20
2007.361215932163
 30
0.0
 11
782.5271471288004
 21
1992.638784067827
 31
0.0
  0
LINE
  5
159
330
87
100
AcDbEntity
  8
P-SANR-FIXT
100
AcDbLine
 10
782.5271471288004
 20
1992.638784067827
 30
0.0
 11
782.5271471288004
 21
1985.27756813566
 31
0.0
  0
LINE
  5
15A
330
87
100
AcDbEntity
  8
P-SANR-FIXT
100
AcDbLine
 10
767.5271471288002
 20
1985.27756813566
 30
0.0
 11
782.5271471288004
 21
1985.27756813566
 31
0.0
  0
LINE
  5
15B
330
87
100
AcDbEntity
  8
P-SANR-FIXT
100
AcDbLine
 10
782.5271471288004
 20
1992.638784067827
 30
0.0
 11
767.5271471288002
 21
1992.638784067827
 31
0.0
  0
LINE
  5
15C
330
87
100
AcDbEntity
  8
P-SANR-FIXT
100
AcDbLine
 10
782.5271471288004
 20
2007.361215932163
 30
0.0
 11
767.5271471288002
 21
2007.361215932163
 31
0.0
  0
LINE
  5
15D
330
87
100
AcDbEntity
  8
P-SANR-FIXT
100
AcDbLine
 10
782.5271471288004
 20
2014.72243186433
 30
0.0
 11
767.5271471288003
 21
2014.72243186433
 31
0.0
  0
SPLINE
  5
15E
330
87
100
AcDbEntity
  8
P-SANR-FIXT
100
AcDbSpline
210
0.0
220
0.0
230
1.0
 70
     8
 71
     3
 72
     9
 73
     5
 74
     0
 42
0.000000001
 43
0.0000000001
 40
0.0
 40
0.0
 40
0.0
 40
0.0
 40
0.5
 40
1.0
 40
1.0
 40
1.0
 40
1.0
 10
734.5089865956611
 20
1991.448405684676
 30
0.0
 10
734.5255966059649
 20
1991.207994624675
 30
0.0
 10
734.5314059405184
 20
1990.741125111128
 30
0.0
 10
734.482393902964
 20
1990.304255736343
 30
0.0
 10
734.4441825411597
 20
1990.093805246748
 30
0.0
  0
SPLINE
  5
15F
330
87
100
AcDbEntity
  8
P-SANR-FIXT
100
AcDbSpline
210
0.0
220
0.0
230
1.0
 70
     8
 71
     3
 72
     8
 73
     4
 74
     0
 42
0.000000001
 43
0.0000000001
 40
0.2857142857142857
 40
0.2857142857142857
 40
0.2857142857142857
 40
0.2857142857142857
 40
0.4285714285714286
 40
0.4285714285714286
 40
0.4285714285714286
 40
0.4285714285714286
 10
726.1458760342679
 20
2006.661062104481
 30
0.0
 10
726.0673023517454
 20
2006.603700450446
 30
0.0
 10
725.9708141988717
 20
2006.532798069625
 30
0.0
 10
725.8597221044535
 20
2006.443615608485
 30
0.0
  0
SPLINE
  5
160
330
87
100
AcDbEntity
  8
P-SANR-FIXT
100
AcDbSpline
210
0.0
220
0.0
230
1.0
 70
     8
 71
     3
 72
     8
 73
     4
 74
     0
 42
0.000000001
 43
0.0000000001
 40
0.7014402189511429
 40
0.7014402189511429
 40
0.7014402189511429
 40
0.7014402189511429
 40
0.7142857142857143
 40
0.7142857142857143
 40
0.7142857142857143
 40
0.7142857142857143
 10
725.109358476624
 20
2005.774800572249
 30
0.0
 10
725.0963654754559
 20
2005.76181791798
 30
0.0
 10
725.0833340076609
 20
2005.748816233882
 30
0.0
 10
725.0702742251665
 20
2005.735757538102
 30
0.0
  0
SPLINE
  5
161
330
87
100
AcDbEntity
  8
P-SANR-FIXT
100
AcDbSpline
210
0.0
220
0.0
230
1.0
 70
     8
 71
     3
 72
     8
 73
     4
 74
     0
 42
0.000000001
 43
0.0000000001
 40
0.8571428571428569
 40
0.8571428571428569
 40
0.8571428571428569
 40
0.8571428571428569
 40
1.0
 40
1.0
 40
1.0
 40
1.0
 10
724.632987761351
 20
2005.259006997967
 30
0.0
 10
724.4879673024757
 20
2005.088622862972
 30
0.0
 10
724.3447526508307
 20
2004.907083759371
 30
0.0
 10
724.2060638505119
 20
2004.715354047586
 30
0.0
  0
SPLINE
  5
162
330
87
100
AcDbEntity
  8
P-SANR-FIXT
100
AcDbSpline
210
0.0
220
0.0
230
1.0
 70
     8
 71
     3
 72
    11
 73
     7
 74
     0
 42
0.000000001
 43
0.0000000001
 40
0.0
 40
0.0
 40
0.0
 40
0.0
 40
0.2857142857142857
 40
0.5714285714285714
 40
0.7857142857142857
 40
1.0
 40
1.0
 40
1.0
 40
1.0
 10
717.770286625854
 20
2013.906596462817
 30
0.0
 10
718.23755234022
 20
2014.049841178104
 30
0.0
 10
719.2568316224866
 20
2014.138404554547
 30
0.0
 10
720.7428765485197
 20
2013.736148499969
 30
0.0
 10
721.9523071815091
 20
2012.967947426456
 30
0.0
 10
722.5304283847138
 20
2012.338719287676
 30
0.0
 10
722.7770685510703
 20
2011.986511222991
 30
0.0
  0
LINE
  5
163
330
87
100
AcDbEntity
  8
P-SANR-FIXT
100
AcDbLine
 10
722.9564329145262
 20
2029.999999999995
 30
0.0
 11
730.0978613430692
 21
2029.999999999995
 31
0.0
  0
LINE
  5
164
330
87
100
AcDbEntity
  8
P-SANR-FIXT
100
AcDbLine
 10
730.5271471287977
 20
2029.999999999995
 30
0.0
 11
730.0978613430692
 21
2029.999999999995
 31
0.0
  0
LINE
  5
165
330
87
100
AcDbEntity
  8
P-SANR-FIXT
100
AcDbLine
 10
714.9564329145264
 20
2029.999999999995
 30
0.0
 11
714.5271471287977
 21
2029.999999999995
 31
0.0
  0
LINE
  5
166
330
87
100
AcDbEntity
  8
P-SANR-FIXT
100
AcDbLine
 10
714.9564329145264
 20
2029.999999999995
 30
0.0
 11
722.0978613430692
 21
2029.999999999995
 31
0.0
  0
LINE
  5
167
330
87
100
AcDbEntity
  8
P-SANR-FIXT
100
AcDbLine
 10
722.9564329145264
 20
2029.999999999995
 30
0.0
 11
722.0978613430692
 21
2029.999999999995
 31
0.0
  0
LINE
  5
168
330
87
100
AcDbEntity
  8
P-SANR-FIXT
100
AcDbLine
 10
730.0978613430692
 20
2024.499999999995
 30
0.0
 11
730.5271471287977
 21
2024.499999999995
 31
0.0
  0
LINE
  5
169
330
87
100
AcDbEntity
  8
P-SANR-FIXT
100
AcDbLine
 10
730.0978613430692
 20
2024.499999999995
 30
0.0
 11
729.5966544182532
 21
2024.499999999995
 31
0.0
  0
LINE
  5
16A
330
87
100
AcDbEntity
  8
P-SANR-FIXT
100
AcDbLine
 10
723.4576398393451
 20
2024.499999999995
 30
0.0
 11
722.9564329145262
 21
2024.499999999995
 31
0.0
  0
LINE
  5
16B
330
87
100
AcDbEntity
  8
P-SANR-FIXT
100
AcDbLine
 10
722.0978613430692
 20
2024.499999999995
 30
0.0
 11
722.9564329145262
 21
2024.499999999995
 31
0.0
  0
LINE
  5
16C
330
87
100
AcDbEntity
  8
P-SANR-FIXT
100
AcDbLine
 10
722.0978613430692
 20
2024.499999999995
 30
0.0
 11
721.5966544182496
 21
2024.499999999995
 31
0.0
  0
LINE
  5
16D
330
87
100
AcDbEntity
  8
P-SANR-FIXT
100
AcDbLine
 10
715.457639839349
 20
2024.499999999995
 30
0.0
 11
714.9564329145264
 21
2024.499999999995
 31
0.0
  0
LINE
  5
16E
330
87
100
AcDbEntity
  8
P-SANR-FIXT
100
AcDbLine
 10
714.5271471287977
 20
2024.499999999995
 30
0.0
 11
714.9564329145264
 21
2024.499999999995
 31
0.0
  0
LINE
  5
16F
330
87
100
AcDbEntity
  8
P-SANR-FIXT
100
AcDbLine
 10
730.0978613430692
 20
2029.999999999995
 30
0.0
 11
730.0978613430692
 21
2024.499999999995
 31
0.0
  0
LINE
  5
170
330
87
100
AcDbEntity
  8
P-SANR-FIXT
100
AcDbLine
 10
722.9564329145262
 20
2024.499999999995
 30
0.0
 11
722.9564329145262
 21
2029.999999999995
 31
0.0
  0
LINE
  5
171
330
87
100
AcDbEntity
  8
P-SANR-FIXT
100
AcDbLine
 10
730.5271471287977
 20
2024.499999999995
 30
0.0
 11
730.5271471287977
 21
2029.999999999995
 31
0.0
  0
LINE
  5
172
330
87
100
AcDbEntity
  8
P-SANR-FIXT
100
AcDbLine
 10
714.5271471287977
 20
2029.999999999995
 30
0.0
 11
714.5271471287977
 21
2024.499999999995
 31
0.0
  0
LINE
  5
173
330
87
100
AcDbEntity
  8
P-SANR-FIXT
100
AcDbLine
 10
722.0978613430692
 20
2029.999999999995
 30
0.0
 11
722.0978613430692
 21
2024.499999999995
 31
0.0
  0
LINE
  5
174
330
87
100
AcDbEntity
  8
P-SANR-FIXT
100
AcDbLine
 10
714.9564329145264
 20
2024.499999999995
 30
0.0
 11
714.9564329145264
 21
2029.999999999995
 31
0.0
  0
LINE
  5
175
330
87
100
AcDbEntity
  8
P-SANR-FIXT
100
AcDbLine
 10
682.9564329145288
 20
2029.999999999995
 30
0.0
 11
690.0978613430716
 21
2029.999999999995
 31
0.0
  0
LINE
  5
176
330
87
100
AcDbEntity
  8
P-SANR-FIXT
100
AcDbLine
 10
690.5271471288003
 20
2029.999999999995
 30
0.0
 11
690.0978613430718
 21
2029.999999999995
 31
0.0
  0
LINE
  5
177
330
87
100
AcDbEntity
  8
P-SANR-FIXT
100
AcDbLine
 10
674.9564329145288
 20
2029.999999999995
 30
0.0
 11
674.5271471288003
 21
2029.999999999995
 31
0.0
  0
LINE
  5
178
330
87
100
AcDbEntity
  8
P-SANR-FIXT
100
AcDbLine
 10
674.9564329145288
 20
2029.999999999995
 30
0.0
 11
682.0978613430716
 21
2029.999999999995
 31
0.0
  0
LINE
  5
179
330
87
100
AcDbEntity
  8
P-SANR-FIXT
100
AcDbLine
 10
682.9564329145289
 20
2029.999999999995
 30
0.0
 11
682.0978613430717
 21
2029.999999999995
 31
0.0
  0
LINE
  5
17A
330
87
100
AcDbEntity
  8
P-SANR-FIXT
100
AcDbLine
 10
690.0978613430716
 20
2029.999999999995
 30
0.0
 11
690.0978613430716
 21
2024.499999999995
 31
0.0
  0
LINE
  5
17B
330
87
100
AcDbEntity
  8
P-SANR-FIXT
100
AcDbLine
 10
682.9564329145288
 20
2024.499999999995
 30
0.0
 11
682.9564329145288
 21
2029.999999999995
 31
0.0
  0
LINE
  5
17C
330
87
100
AcDbEntity
  8
P-SANR-FIXT
100
AcDbLine
 10
690.5271471288003
 20
2024.499999999995
 30
0.0
 11
690.5271471288003
 21
2029.999999999995
 31
0.0
  0
LINE
  5
17D
330
87
100
AcDbEntity
  8
P-SANR-FIXT
100
AcDbLine
 10
674.5271471288003
 20
2029.999999999995
 30
0.0
 11
674.5271471288003
 21
2024.499999999995
 31
0.0
  0
LINE
  5
17E
330
87
100
AcDbEntity
  8
P-SANR-FIXT
100
AcDbLine
 10
682.0978613430717
 20
2029.999999999995
 30
0.0
 11
682.0978613430717
 21
2024.499999999995
 31
0.0
  0
LINE
  5
17F
330
87
100
AcDbEntity
  8
P-SANR-FIXT
100
AcDbLine
 10
674.9564329145288
 20
2024.499999999995
 30
0.0
 11
674.9564329145288
 21
2029.999999999995
 31
0.0
  0
LINE
  5
180
330
87
100
AcDbEntity
  8
P-SANR-FIXT
100
AcDbLine
 10
626.0271471287511
 20
1987.249999999951
 30
0.0
 11
626.0271471287511
 21
1988.113648078795
 31
0.0
  0
LINE
  5
181
330
87
100
AcDbEntity
  8
P-SANR-FIXT
100
AcDbLine
 10
626.0271471287511
 20
1988.113648078795
 30
0.0
 11
626.0271471287511
 21
1999.136351921158
 31
0.0
  0
LINE
  5
182
330
87
100
AcDbEntity
  8
P-SANR-FIXT
100
AcDbLine
 10
626.0271471287511
 20
1999.136351921158
 30
0.0
 11
626.0271471287511
 21
2000.863648078846
 31
0.0
  0
LINE
  5
183
330
87
100
AcDbEntity
  8
P-SANR-FIXT
100
AcDbLine
 10
626.0271471287511
 20
2000.863648078846
 30
0.0
 11
626.0271471287511
 21
2011.886351921209
 31
0.0
  0
LINE
  5
184
330
87
100
AcDbEntity
  8
P-SANR-FIXT
100
AcDbLine
 10
626.0271471287511
 20
2011.886351921209
 30
0.0
 11
626.0271471287511
 21
2012.750000000053
 31
0.0
  0
LINE
  5
185
330
87
100
AcDbEntity
  8
P-SANR-FIXT
100
AcDbLine
 10
639.027147128744
 20
1987.249999999951
 30
0.0
 11
626.0271471287511
 21
1987.249999999951
 31
0.0
  0
LINE
  5
186
330
87
100
AcDbEntity
  8
P-SANR-FIXT
100
AcDbLine
 10
639.027147128744
 20
1988.113648078795
 30
0.0
 11
626.0271471287511
 21
1988.113648078795
 31
0.0
  0
LINE
  5
187
330
87
100
AcDbEntity
  8
P-SANR-FIXT
100
AcDbLine
 10
639.027147128744
 20
1999.136351921158
 30
0.0
 11
626.0271471287511
 21
1999.136351921158
 31
0.0
  0
LINE
  5
188
330
87
100
AcDbEntity
  8
P-SANR-FIXT
100
AcDbLine
 10
639.027147128744
 20
2000.863648078846
 30
0.0
 11
626.0271471287511
 21
2000.863648078846
 31
0.0
  0
LINE
  5
189
330
87
100
AcDbEntity
  8
P-SANR-FIXT
100
AcDbLine
 10
639.027147128744
 20
2011.886351921209
 30
0.0
 11
626.0271471287511
 21
2011.886351921209
 31
0.0
  0
LINE
  5
18A
330
87
100
AcDbEntity
  8
P-SANR-FIXT
100
AcDbLine
 10
639.027147128744
 20
2012.750000000053
 30
0.0
 11
626.0271471287511
 21
2012.750000000053
 31
0.0
  0
ENDBLK
  5
18C
330
87
100
AcDbEntity
  8
0
100
AcDbBlockEnd
  0
BLOCK
  5
2A1
330
18E
100
AcDbEntity
  8
0
100
AcDbBlockBegin
  2
Automatic flow rate regulator valve_Caleffi_121 DN15 - 1_2__-V1-Est - Idraulica
 70
     0
 10
0.0
 20
0.0
 30
0.0
  3
Automatic flow rate regulator valve_Caleffi_121 DN15 - 1_2__-V1-Est - Idraulica
  1

  0
LINE
  5
18F
330
18E
100
AcDbEntity
  8
M-PIPE
100
AcDbLine
 10
848.527147128799
 20
1798.245878730052
 30
0.0
 11
777.162665282568
 21
1798.245878730052
 31
0.0
1001
REVIT
1002
{
1070
     3
1000
856288
1002
}
  0
LINE
  5
190
330
18E
100
AcDbEntity
  8
M-PIPE
100
AcDbLine
 10
777.1626652825678
 20
1814.245878730052
 30
0.0
 11
848.5271471287989
 21
1814.245878730052
 31
0.0
1001
REVIT
1002
{
1070
     3
1000
856288
1002
}
  0
LINE
  5
191
330
18E
100
AcDbEntity
  8
M-PIPE
100
AcDbLine
 10
848.5271471287989
 20
1814.245878730052
 30
0.0
 11
848.527147128799
 21
1798.245878730052
 31
0.0
1001
REVIT
1002
{
1070
     3
1000
856288
1002
}
  0
LINE
  5
192
330
18E
100
AcDbEntity
  8
M-PIPE
100
AcDbLine
 10
777.1626652825678
 20
1814.245878730052
 30
0.0
 11
777.162665282568
 21
1798.245878730052
 31
0.0
1001
REVIT
1002
{
1070
     3
1000
856288
1002
}
  0
LINE
  5
193
330
18E
100
AcDbEntity
  8
M-PIPE
100
AcDbLine
 10
777.162665282568
 20
1798.245878730052
 30
0.0
 11
770.7408062505695
 21
1798.245878730052
 31
0.0
1001
REVIT
1002
{
1070
     3
1000
856288
1002
}
  0
LINE
  5
194
330
18E
100
AcDbEntity
  8
M-PIPE
100
AcDbLine
 10
770.7408062505695
 20
1798.245878730052
 30
0.0
 11
759.5374856392395
 21
1798.245878730052
 31
0.0
1001
REVIT
1002
{
1070
     3
1000
856288
1002
}
  0
LINE
  5
195
330
18E
100
AcDbEntity
  8
M-PIPE
100
AcDbLine
 10
759.5374856392395
 20
1798.245878730052
 30
0.0
 11
736.0271471288034
 21
1798.245878730052
 31
0.0
1001
REVIT
1002
{
1070
     3
1000
856288
1002
}
  0
LINE
  5
196
330
18E
100
AcDbEntity
  8
M-PIPE
100
AcDbLine
 10
759.5374856392394
 20
1814.245878730052
 30
0.0
 11
770.7408062505694
 21
1814.245878730051
 31
0.0
1001
REVIT
1002
{
1070
     3
1000
856288
1002
}
  0
LINE
  5
197
330
18E
100
AcDbEntity
  8
M-PIPE
100
AcDbLine
 10
770.7408062505694
 20
1814.245878730051
 30
0.0
 11
777.1626652825678
 21
1814.245878730052
 31
0.0
1001
REVIT
1002
{
1070
     3
1000
856288
1002
}
  0
LINE
  5
198
330
18E
100
AcDbEntity
  8
M-PIPE
100
AcDbLine
 10
755.5271471288033
 20
1814.245878730052
 30
0.0
 11
759.5374856392394
 21
1814.245878730052
 31
0.0
1001
REVIT
1002
{
1070
     3
1000
856288
1002
}
  0
LINE
  5
199
330
18E
100
AcDbEntity
  8
M-PIPE
100
AcDbLine
 10
777.1626652825678
 20
1814.245878730052
 30
0.0
 11
777.162665282568
 21
1798.245878730052
 31
0.0
1001
REVIT
1002
{
1070
     3
1000
856288
1002
}
  0
ARC
  5
19A
330
18E
100
AcDbEntity
  8
M-PIPE
100
AcDbCircle
 10
748.5271471288111
 20
1806.245878730035
 30
0.0
 40
4.0
100
AcDbArc
 50
180.0
 51
0.0
1001
REVIT
1002
{
1070
     3
1000
856288
1002
}
  0
ARC
  5
19B
330
18E
100
AcDbEntity
  8
M-PIPE
100
AcDbCircle
 10
748.5271471288111
 20
1806.245878730035
 30
0.0
 40
4.0
100
AcDbArc
 50
0.0
 51
180.0
1001
REVIT
1002
{
1070
     3
1000
856288
1002
}
  0
LINE
  5
19C
330
18E
100
AcDbEntity
  8
M-PIPE
100
AcDbLine
 10
759.5374856392395
 20
1798.245878730052
 30
0.0
 11
759.5374856392394
 21
1814.245878730052
 31
0.0
1001
REVIT
1002
{
1070
     3
1000
856288
1002
}
  0
LINE
  5
19D
330
18E
100
AcDbEntity
  8
M-PIPE
100
AcDbLine
 10
755.5271471288033
 20
1814.245878730052
 30
0.0
 11
755.5271471288033
 21
1818.745878730035
 31
0.0
1001
REVIT
1002
{
1070
     3
1000
856288
1002
}
  0
LINE
  5
19E
330
18E
100
AcDbEntity
  8
M-PIPE
100
AcDbLine
 10
755.5271471288033
 20
1818.745878730035
 30
0.0
 11
748.5271471288034
 21
1818.745878730035
 31
0.0
1001
REVIT
1002
{
1070
     3
1000
856288
1002
}
  0
LINE
  5
19F
330
18E
100
AcDbEntity
  8
M-PIPE
100
AcDbLine
 10
748.5271471288034
 20
1818.745878730035
 30
0.0
 11
736.0271471288034
 21
1806.245878730035
 31
0.0
1001
REVIT
1002
{
1070
     3
1000
856288
1002
}
  0
LINE
  5
1A0
330
18E
100
AcDbEntity
  8
M-PIPE
100
AcDbLine
 10
736.0271471288034
 20
1806.245878730035
 30
0.0
 11
736.0271471288034
 21
1798.245878730052
 31
0.0
1001
REVIT
1002
{
1070
     3
1000
856288
1002
}
  0
LINE
  5
1A1
330
18E
100
AcDbEntity
  8
M-PIPE
100
AcDbLine
 10
770.7408062505694
 20
1814.245878730051
 30
0.0
 11
770.7408062505695
 21
1798.245878730052
 31
0.0
1001
REVIT
1002
{
1070
     3
1000
856288
1002
}
  0
LINE
  5
1A2
330
18E
100
AcDbEntity
  8
M-PIPE
100
AcDbLine
 10
642.6258227484318
 20
1782.745878730033
 30
0.0
 11
655.6660758160658
 21
1782.745878730033
 31
0.0
1001
REVIT
1002
{
1070
     3
1000
790271
1002
}
  0
LINE
  5
1A3
330
18E
100
AcDbEntity
  8
M-PIPE
100
AcDbLine
 10
655.6660758160857
 20
1829.745878730033
 30
0.0
 11
642.6258227484108
 21
1829.745878730033
 31
0.0
1001
REVIT
1002
{
1070
     3
1000
790271
1002
}
  0
LINE
  5
1A4
330
18E
100
AcDbEntity
  8
M-PIPE
100
AcDbLine
 10
641.5535516574709
 20
1829.746095387248
 30
0.0
 11
639.027147128744
 21
1825.370234383021
 31
0.0
1001
REVIT
1002
{
1070
     3
1000
790271
1002
}
  0
LINE
  5
1A5
330
18E
100
AcDbEntity
  8
M-PIPE
100
AcDbLine
 10
639.0271471287446
 20
1787.121523077084
 30
0.0
 11
641.5535516574935
 21
1782.745662072819
 31
0.0
1001
REVIT
1002
{
1070
     3
1000
790271
1002
}
  0
LINE
  5
1A6
330
18E
100
AcDbEntity
  8
M-PIPE
100
AcDbLine
 10
657.0271471287441
 20
1829.245878729995
 30
0.0
 11
656.7383469070257
 21
1829.746095387248
 31
0.0
1001
REVIT
1002
{
1070
     3
1000
790271
1002
}
  0
LINE
  5
1A7
330
18E
100
AcDbEntity
  8
M-PIPE
100
AcDbLine
 10
656.7383469070042
 20
1782.745662072819
 30
0.0
 11
657.0271471287448
 21
1783.24587873011
 31
0.0
1001
REVIT
1002
{
1070
     3
1000
790271
1002
}
  0
LINE
  5
1A8
330
18E
100
AcDbEntity
  8
M-PIPE
100
AcDbLine
 10
639.0271471287438
 20
1789.683700903572
 30
0.0
 11
639.0271471287433
 21
1825.370234383021
 31
0.0
1001
REVIT
1002
{
1070
     3
1000
790271
1002
}
  0
LINE
  5
1A9
330
18E
100
AcDbEntity
  8
M-PIPE
100
AcDbLine
 10
639.0271471287438
 20
1787.121523077083
 30
0.0
 11
639.0271471287438
 21
1789.683700903572
 31
0.0
1001
REVIT
1002
{
1070
     3
1000
790271
1002
}
  0
LINE
  5
1AA
330
18E
100
AcDbEntity
  8
M-PIPE
100
AcDbLine
 10
657.0271471287433
 20
1829.245878729994
 30
0.0
 11
657.0271471287439
 21
1786.32729444306
 31
0.0
1001
REVIT
1002
{
1070
     3
1000
790271
1002
}
  0
LINE
  5
1AB
330
18E
100
AcDbEntity
  8
M-PIPE
100
AcDbLine
 10
657.0271471287439
 20
1786.32729444306
 30
0.0
 11
657.027147128744
 21
1783.24587873011
 31
0.0
1001
REVIT
1002
{
1070
     3
1000
790271
1002
}
  0
SPLINE
  5
1AC
330
18E
100
AcDbEntity
  8
M-PIPE
100
AcDbSpline
210
0.0
220
0.0
230
1.0
 70
     8
 71
     3
 72
     9
 73
     5
 74
     0
 42
0.000000001
 43
0.0000000001
 40
0.0
 40
0.0
 40
0.0
 40
0.0
 40
0.5
 40
1.0
 40
1.0
 40
1.0
 40
1.0
 10
642.6258227484283
 20
1786.245878730032
 30
0.0
 10
642.7582555119603
 20
1785.723635201487
 30
0.0
 10
642.9575756722114
 20
1784.750545191306
 30
0.0
 10
643.0258050988376
 20
1783.993048699949
 30
0.0
 10
643.0271471287444
 20
1783.683700903539
 30
0.0
1001
REVIT
1002
{
1070
     3
1000
790271
1002
}
  0
SPLINE
  5
1AD
330
18E
100
AcDbEntity
  8
M-PIPE
100
AcDbSpline
210
0.0
220
0.0
230
1.0
 70
     8
 71
     3
 72
     9
 73
     5
 74
     0
 42
0.000000001
 43
0.0000000001
 40
0.0
 40
0.0
 40
0.0
 40
0.0
 40
0.5
 40
1.0
 40
1.0
 40
1.0
 40
1.0
 10
643.0271471287444
 20
1783.683700903539
 30
0.0
 10
643.0258050988377
 20
1783.37435310713
 30
0.0
 10
642.9575756722121
 20
1782.902619078242
 30
0.0
 10
642.7582555119621
 20
1782.745878730032
 30
0.0
 10
642.6258227484311
 20
1782.745878730033
 30
0.0
1001
REVIT
1002
{
1070
     3
1000
790271
1002
}
  0
SPLINE
  5
1AE
330
18E
100
AcDbEntity
  8
M-PIPE
100
AcDbSpline
210
0.0
220
0.0
230
1.0
 70
     8
 71
     3
 72
     9
 73
     5
 74
     0
 42
0.000000001
 43
0.0000000001
 40
0.0
 40
0.0
 40
0.0
 40
0.0
 40
0.5
 40
1.0
 40
1.0
 40
1.0
 40
1.0
 10
655.666075816065
 20
1782.745878730032
 30
0.0
 10
655.5336430525356
 20
1782.745878730032
 30
0.0
 10
655.3343228922849
 20
1782.902619078244
 30
0.0
 10
655.2660934656505
 20
1783.374353107137
 30
0.0
 10
655.2647514357374
 20
1783.68370090355
 30
0.0
1001
REVIT
1002
{
1070
     3
1000
790271
1002
}
  0
SPLINE
  5
1AF
330
18E
100
AcDbEntity
  8
M-PIPE
100
AcDbSpline
210
0.0
220
0.0
230
1.0
 70
     8
 71
     3
 72
     9
 73
     5
 74
     0
 42
0.000000001
 43
0.0000000001
 40
0.0
 40
0.0
 40
0.0
 40
0.0
 40
0.5
 40
1.0
 40
1.0
 40
1.0
 40
1.0
 10
655.2647514357374
 20
1783.68370090355
 30
0.0
 10
655.2660934656521
 20
1783.99304869996
 30
0.0
 10
655.3343228922886
 20
1784.750545191314
 30
0.0
 10
655.533643052539
 20
1785.72363520149
 30
0.0
 10
655.6660758160676
 20
1786.245878730032
 30
0.0
1001
REVIT
1002
{
1070
     3
1000
790271
1002
}
  0
SPLINE
  5
1B0
330
18E
100
AcDbEntity
  8
M-PIPE
100
AcDbSpline
210
0.0
220
0.0
230
1.0
 70
     8
 71
     3
 72
     9
 73
     5
 74
     0
 42
0.000000001
 43
0.0000000001
 40
0.0
 40
0.0
 40
0.0
 40
0.0
 40
0.5
 40
1.0
 40
1.0
 40
1.0
 40
1.0
 10
642.6258227484192
 20
1802.745878730032
 30
0.0
 10
641.9109323350401
 20
1800.036416024389
 30
0.0
 10
641.1960419216625
 20
1794.576953318745
 30
0.0
 10
641.9109323350462
 20
1789.036416024389
 30
0.0
 10
642.6258227484283
 20
1786.245878730032
 30
0.0
1001
REVIT
1002
{
1070
     3
1000
790271
1002
}
  0
SPLINE
  5
1B1
330
18E
100
AcDbEntity
  8
M-PIPE
100
AcDbSpline
210
0.0
220
0.0
230
1.0
 70
     8
 71
     3
 72
     9
 73
     5
 74
     0
 42
0.000000001
 43
0.0000000001
 40
0.0
 40
0.0
 40
0.0
 40
0.0
 40
0.5
 40
1.0
 40
1.0
 40
1.0
 40
1.0
 10
655.6660758160676
 20
1786.245878730032
 30
0.0
 10
656.3809662294499
 20
1789.036416024389
 30
0.0
 10
657.0958566428332
 20
1794.576953318745
 30
0.0
 10
656.3809662294556
 20
1800.036416024389
 30
0.0
 10
655.6660758160764
 20
1802.745878730032
 30
0.0
1001
REVIT
1002
{
1070
     3
1000
790271
1002
}
  0
SPLINE
  5
1B2
330
18E
100
AcDbEntity
  8
M-PIPE
100
AcDbSpline
210
0.0
220
0.0
230
1.0
 70
     8
 71
     3
 72
     9
 73
     5
 74
     0
 42
0.000000001
 43
0.0000000001
 40
0.0
 40
0.0
 40
0.0
 40
0.0
 40
0.5
 40
1.0
 40
1.0
 40
1.0
 40
1.0
 10
643.0271471287441
 20
1806.245878730025
 30
0.0
 10
643.0258050988314
 20
1805.627183137207
 30
0.0
 10
642.9575756721979
 20
1804.397952616964
 30
0.0
 10
642.7582555119482
 20
1803.268122258576
 30
0.0
 10
642.6258227484192
 20
1802.745878730032
 30
0.0
1001
REVIT
1002
{
1070
     3
1000
790271
1002
}
  0
SPLINE
  5
1B3
330
18E
100
AcDbEntity
  8
M-PIPE
100
AcDbSpline
210
0.0
220
0.0
230
1.0
 70
     8
 71
     3
 72
    10
 73
     6
 74
     0
 42
0.000000001
 43
0.0000000001
 40
0.0
 40
0.0
 40
0.0
 40
0.0
 40
0.4
 40
0.7
 40
1.0
 40
1.0
 40
1.0
 40
1.0
 10
655.6660758160764
 20
1802.745878730032
 30
0.0
 10
655.4550236077773
 20
1803.581079765617
 30
0.0
 10
655.2261878557973
 20
1805.242902230554
 30
0.0
 10
655.2828692188295
 20
1807.743188858574
 30
0.0
 10
655.5080264912872
 20
1809.120768134226
 30
0.0
 10
655.6660758160792
 20
1809.745878730032
 30
0.0
1001
REVIT
1002
{
1070
     3
1000
790271
1002
}
  0
SPLINE
  5
1B4
330
18E
100
AcDbEntity
  8
M-PIPE
100
AcDbSpline
210
0.0
220
0.0
230
1.0
 70
     8
 71
     3
 72
     9
 73
     5
 74
     0
 42
0.000000001
 43
0.0000000001
 40
0.0
 40
0.0
 40
0.0
 40
0.0
 40
0.5
 40
1.0
 40
1.0
 40
1.0
 40
1.0
 10
642.6258227484161
 20
1809.745878730032
 30
0.0
 10
642.7582555119461
 20
1809.223635201487
 30
0.0
 10
642.9575756721973
 20
1808.093804843094
 30
0.0
 10
643.0258050988314
 20
1806.864574322847
 30
0.0
 10
643.0271471287441
 20
1806.245878730025
 30
0.0
1001
REVIT
1002
{
1070
     3
1000
790271
1002
}
  0
SPLINE
  5
1B5
330
18E
100
AcDbEntity
  8
M-PIPE
100
AcDbSpline
210
0.0
220
0.0
230
1.0
 70
     8
 71
     3
 72
     9
 73
     5
 74
     0
 42
0.000000001
 43
0.0000000001
 40
0.0
 40
0.0
 40
0.0
 40
0.0
 40
0.5
 40
1.0
 40
1.0
 40
1.0
 40
1.0
 10
642.6258227484105
 20
1826.245878730033
 30
0.0
 10
641.9109323350303
 20
1823.536416024389
 30
0.0
 10
641.1960419216509
 20
1818.076953318746
 30
0.0
 10
641.910932335034
 20
1812.536416024389
 30
0.0
 10
642.6258227484161
 20
1809.745878730032
 30
0.0
1001
REVIT
1002
{
1070
     3
1000
790271
1002
}
  0
SPLINE
  5
1B6
330
18E
100
AcDbEntity
  8
M-PIPE
100
AcDbSpline
210
0.0
220
0.0
230
1.0
 70
     8
 71
     3
 72
     9
 73
     5
 74
     0
 42
0.000000001
 43
0.0000000001
 40
0.0
 40
0.0
 40
0.0
 40
0.0
 40
0.5
 40
1.0
 40
1.0
 40
1.0
 40
1.0
 10
655.6660758160792
 20
1809.745878730032
 30
0.0
 10
656.3809662294613
 20
1812.536416024389
 30
0.0
 10
657.0958566428442
 20
1818.076953318746
 30
0.0
 10
656.3809662294649
 20
1823.536416024389
 30
0.0
 10
655.6660758160846
 20
1826.245878730033
 30
0.0
1001
REVIT
1002
{
1070
     3
1000
790271
1002
}
  0
SPLINE
  5
1B7
330
18E
100
AcDbEntity
  8
M-PIPE
100
AcDbSpline
210
0.0
220
0.0
230
1.0
 70
     8
 71
     3
 72
     9
 73
     5
 74
     0
 42
0.000000001
 43
0.0000000001
 40
0.0
 40
0.0
 40
0.0
 40
0.0
 40
0.5
 40
1.0
 40
1.0
 40
1.0
 40
1.0
 10
643.0271471287437
 20
1828.808056556523
 30
0.0
 10
643.0258050988276
 20
1828.498708760114
 30
0.0
 10
642.9575756721891
 20
1827.741212268758
 30
0.0
 10
642.7582555119387
 20
1826.768122258578
 30
0.0
 10
642.6258227484105
 20
1826.245878730033
 30
0.0
1001
REVIT
1002
{
1070
     3
1000
790271
1002
}
  0
SPLINE
  5
1B8
330
18E
100
AcDbEntity
  8
M-PIPE
100
AcDbSpline
210
0.0
220
0.0
230
1.0
 70
     8
 71
     3
 72
    10
 73
     6
 74
     0
 42
0.000000001
 43
0.0000000001
 40
0.0
 40
0.0
 40
0.0
 40
0.0
 40
0.4
 40
0.7
 40
1.0
 40
1.0
 40
1.0
 40
1.0
 10
655.6660758160846
 20
1826.245878730033
 30
0.0
 10
655.4550236077854
 20
1827.081079765617
 30
0.0
 10
655.2261878558046
 20
1828.38663257794
 30
0.0
 10
655.282869218836
 20
1829.52060830541
 30
0.0
 10
655.5080264912931
 20
1829.745878730033
 30
0.0
 10
655.6660758160849
 20
1829.745878730033
 30
0.0
1001
REVIT
1002
{
1070
     3
1000
790271
1002
}
  0
SPLINE
  5
1B9
330
18E
100
AcDbEntity
  8
M-PIPE
100
AcDbSpline
210
0.0
220
0.0
230
1.0
 70
     8
 71
     3
 72
     9
 73
     5
 74
     0
 42
0.000000001
 43
0.0000000001
 40
0.0
 40
0.0
 40
0.0
 40
0.0
 40
0.5
 40
1.0
 40
1.0
 40
1.0
 40
1.0
 10
642.6258227484102
 20
1829.745878730033
 30
0.0
 10
642.7582555119385
 20
1829.745878730033
 30
0.0
 10
642.9575756721891
 20
1829.589138381823
 30
0.0
 10
643.0258050988276
 20
1829.117404352933
 30
0.0
 10
643.0271471287437
 20
1828.808056556523
 30
0.0
1001
REVIT
1002
{
1070
     3
1000
790271
1002
}
  0
SPLINE
  5
1BA
330
18E
100
AcDbEntity
  8
M-PIPE
100
AcDbSpline
210
0.0
220
0.0
230
1.0
 70
    24
 71
     3
 72
     8
 73
     4
 74
     0
 42
0.000000001
 43
0.0000000001
 40
0.5
 40
0.5
 40
0.5
 40
0.5
 40
1.0
 40
1.0
 40
1.0
 40
1.0
 10
641.5534871283401
 20
1829.745878730033
 30
0.0
 10
641.5534871283394
 20
1829.745878730033
 30
0.0
 10
641.9109323350295
 20
1829.745878730033
 30
0.0
 10
642.6258227484102
 20
1829.745878730033
 30
0.0
1001
REVIT
1002
{
1070
     3
1000
790271
1002
}
  0
SPLINE
  5
1BB
330
18E
100
AcDbEntity
  8
M-PIPE
100
AcDbSpline
210
0.0
220
0.0
230
1.0
 70
    24
 71
     3
 72
     8
 73
     4
 74
     0
 42
0.000000001
 43
0.0000000001
 40
0.0
 40
0.0
 40
0.0
 40
0.0
 40
0.5
 40
0.5
 40
0.5
 40
0.5
 10
655.6660758160849
 20
1829.745878730033
 30
0.0
 10
656.3809662294657
 20
1829.745878730033
 30
0.0
 10
656.7384114361557
 20
1829.745878730033
 30
0.0
 10
656.7384114361551
 20
1829.745878730033
 30
0.0
1001
REVIT
1002
{
1070
     3
1000
790271
1002
}
  0
SPLINE
  5
1BC
330
18E
100
AcDbEntity
  8
M-PIPE
100
AcDbSpline
210
0.0
220
0.0
230
1.0
 70
    24
 71
     3
 72
     8
 73
     4
 74
     0
 42
0.000000001
 43
0.0000000001
 40
0.0
 40
0.0
 40
0.0
 40
0.0
 40
0.5
 40
0.5
 40
0.5
 40
0.5
 10
642.6258227484311
 20
1782.745878730033
 30
0.0
 10
641.9109323350515
 20
1782.745878730033
 30
0.0
 10
641.5534871283621
 20
1782.745878730033
 30
0.0
 10
641.5534871283628
 20
1782.745878730033
 30
0.0
1001
REVIT
1002
{
1070
     3
1000
790271
1002
}
  0
SPLINE
  5
1BD
330
18E
100
AcDbEntity
  8
M-PIPE
100
AcDbSpline
210
0.0
220
0.0
230
1.0
 70
    24
 71
     3
 72
     8
 73
     4
 74
     0
 42
0.000000001
 43
0.0000000001
 40
0.5
 40
0.5
 40
0.5
 40
0.5
 40
1.0
 40
1.0
 40
1.0
 40
1.0
 10
656.7384114361336
 20
1782.745878730033
 30
0.0
 10
656.7384114361341
 20
1782.745878730033
 30
0.0
 10
656.3809662294446
 20
1782.745878730033
 30
0.0
 10
655.666075816065
 20
1782.745878730032
 30
0.0
1001
REVIT
1002
{
1070
     3
1000
790271
1002
}
  0
LINE
  5
1BE
330
18E
100
AcDbEntity
  8
P-SANR-FIXT
100
AcDbLine
 10
708.7932289003608
 20
1789.495878730052
 30
0.0
 11
722.5741690471567
 21
1789.495878730053
 31
0.0
  0
LINE
  5
1BF
330
18E
100
AcDbEntity
  8
P-SANR-FIXT
100
AcDbLine
 10
722.5741690471567
 20
1822.995878730053
 30
0.0
 11
708.7932289003608
 21
1822.995878730053
 31
0.0
  0
LINE
  5
1C0
330
18E
100
AcDbEntity
  8
P-SANR-FIXT
100
AcDbLine
 10
740.0355454211961
 20
1789.995878730052
 30
0.0
 11
761.0281090231244
 21
1789.995878730052
 31
0.0
  0
LINE
  5
1C1
330
18E
100
AcDbEntity
  8
P-SANR-FIXT
100
AcDbLine
 10
761.0281090231244
 20
1822.495878730053
 30
0.0
 11
740.035545421196
 21
1822.495878730053
 31
0.0
  0
LINE
  5
1C2
330
18E
100
AcDbEntity
  8
P-SANR-FIXT
100
AcDbLine
 10
761.0281090231244
 20
1789.995878730052
 30
0.0
 11
762.2757152907885
 21
1787.834961286617
 31
0.0
  0
LINE
  5
1C3
330
18E
100
AcDbEntity
  8
P-SANR-FIXT
100
AcDbLine
 10
762.2879401995094
 20
1787.813787123594
 30
0.0
 11
762.327147128801
 21
1787.745878730052
 31
0.0
  0
LINE
  5
1C4
330
18E
100
AcDbEntity
  8
P-SANR-FIXT
100
AcDbLine
 10
762.327147128801
 20
1824.745878730053
 30
0.0
 11
762.2879401995093
 21
1824.677970336511
 31
0.0
  0
LINE
  5
1C5
330
18E
100
AcDbEntity
  8
P-SANR-FIXT
100
AcDbLine
 10
762.2757152907881
 20
1824.656796173488
 30
0.0
 11
761.0281090231244
 21
1822.495878730053
 31
0.0
  0
LINE
  5
1C6
330
18E
100
AcDbEntity
  8
P-SANR-FIXT
100
AcDbLine
 10
762.327147128801
 20
1787.745878730052
 30
0.0
 11
764.8271471288011
 21
1787.745878730052
 31
0.0
  0
LINE
  5
1C7
330
18E
100
AcDbEntity
  8
P-SANR-FIXT
100
AcDbLine
 10
764.8271471288011
 20
1824.745878730053
 30
0.0
 11
762.327147128801
 21
1824.745878730053
 31
0.0
  0
LINE
  5
1C8
330
18E
100
AcDbEntity
  8
P-SANR-FIXT
100
AcDbLine
 10
700.6017084574708
 20
1787.745878730053
 30
0.0
 11
707.2881263750614
 21
1787.745878730053
 31
0.0
  0
LINE
  5
1C9
330
18E
100
AcDbEntity
  8
P-SANR-FIXT
100
AcDbLine
 10
707.412376662748
 20
1787.745878730053
 30
0.0
 11
707.9740768560718
 21
1787.745878730053
 31
0.0
  0
LINE
  5
1CA
330
18E
100
AcDbEntity
  8
P-SANR-FIXT
100
AcDbLine
 10
707.9740768560718
 20
1824.745878730053
 30
0.0
 11
707.4123766627478
 21
1824.745878730053
 31
0.0
  0
LINE
  5
1CB
330
18E
100
AcDbEntity
  8
P-SANR-FIXT
100
AcDbLine
 10
707.2881263750614
 20
1824.745878730053
 30
0.0
 11
700.6017084574709
 21
1824.745878730053
 31
0.0
  0
LINE
  5
1CC
330
18E
100
AcDbEntity
  8
P-SANR-FIXT
100
AcDbLine
 10
740.0456905576122
 20
1780.745878730053
 30
0.0
 11
740.0456905576122
 21
1790.00112705644
 31
0.0
  0
LINE
  5
1CD
330
18E
100
AcDbEntity
  8
P-SANR-FIXT
100
AcDbLine
 10
740.0456905576122
 20
1822.490630403665
 30
0.0
 11
740.0456905576122
 21
1831.745878730053
 31
0.0
  0
LINE
  5
1CE
330
18E
100
AcDbEntity
  8
P-SANR-FIXT
100
AcDbLine
 10
722.5456905576123
 20
1831.745878730053
 30
0.0
 11
722.5456905576123
 21
1822.985652969721
 31
0.0
  0
LINE
  5
1CF
330
18E
100
AcDbEntity
  8
P-SANR-FIXT
100
AcDbLine
 10
722.5456905576123
 20
1789.506104490384
 30
0.0
 11
722.5456905576123
 21
1780.745878730053
 31
0.0
  0
LINE
  5
1D0
330
18E
100
AcDbEntity
  8
P-SANR-FIXT
100
AcDbLine
 10
707.9740768560718
 20
1789.495878730053
 30
0.0
 11
708.7932289003608
 21
1789.495878730053
 31
0.0
  0
LINE
  5
1D1
330
18E
100
AcDbEntity
  8
P-SANR-FIXT
100
AcDbLine
 10
708.7932289003608
 20
1822.995878730053
 30
0.0
 11
707.974076856072
 21
1822.995878730053
 31
0.0
  0
LINE
  5
1D2
330
18E
100
AcDbEntity
  8
P-SANR-FIXT
100
AcDbLine
 10
691.2771471288009
 20
1788.495878730053
 30
0.0
 11
697.6357284054862
 21
1788.495878730053
 31
0.0
  0
LINE
  5
1D3
330
18E
100
AcDbEntity
  8
P-SANR-FIXT
100
AcDbLine
 10
697.6357284054865
 20
1823.995878730053
 30
0.0
 11
691.2771471288009
 21
1823.995878730053
 31
0.0
  0
LINE
  5
1D4
330
18E
100
AcDbEntity
  8
P-SANR-FIXT
100
AcDbLine
 10
657.0271471287445
 20
1789.495878730052
 30
0.0
 11
673.7771471288009
 21
1789.495878730052
 31
0.0
  0
LINE
  5
1D5
330
18E
100
AcDbEntity
  8
P-SANR-FIXT
100
AcDbLine
 10
691.2771471288009
 20
1789.495878730052
 30
0.0
 11
697.7251661648641
 21
1789.495878730052
 31
0.0
  0
LINE
  5
1D6
330
18E
100
AcDbEntity
  8
P-SANR-FIXT
100
AcDbLine
 10
697.7251661648641
 20
1822.995878730053
 30
0.0
 11
691.2771471288009
 21
1822.995878730053
 31
0.0
  0
LINE
  5
1D7
330
18E
100
AcDbEntity
  8
P-SANR-FIXT
100
AcDbLine
 10
673.7771471288009
 20
1822.995878730053
 30
0.0
 11
657.0271471287441
 21
1822.995878730053
 31
0.0
  0
LWPOLYLINE
  5
1D8
330
18E
100
AcDbEntity
  8
P-SANR-FIXT
100
AcDbPolyline
 90
       34
 70
   128
 43
0.0
 10
700.6229436437314
 20
1791.719421594745
 10
700.5895757269626
 20
1791.604162485634
 10
700.5516253659362
 20
1791.490329932292
 10
700.5091532731334
 20
1791.378106042521
 10
700.4622273948432
 20
1791.267670350605
 10
700.4109228024604
 20
1791.159199530091
 10
700.3553215723882
 20
1791.052867111155
 10
700.2955126547338
 20
1790.948843202983
 10
700.231591731007
 20
1790.847294221638
 10
700.16366106105
 20
1790.748382623826
 10
700.0918293194436
 20
1790.652266647005
 10
700.0162114216512
 20
1790.559100056235
 10
699.9369283401779
 20
1790.469031898185
 10
699.8541069110416
 20
1790.382206262695
 10
699.7678796308616
 20
1790.29876205226
 10
699.6783844448912
 20
1790.218832759817
 10
699.5857645263372
 20
1790.142546255181
 10
699.4901680473113
 20
1790.070024580488
 10
699.3917479417874
 20
1790.001383754947
 10
699.2906616609385
 20
1789.936733589235
 10
699.1870709212507
 20
1789.876177509827
 10
699.0811414458089
 20
1789.81981239353
 10
698.9730426991772
 20
1789.767728412509
 10
698.8629476162899
 20
1789.720008890022
 10
698.7510323257939
 20
1789.676730167125
 10
698.6374758682805
 20
1789.637961480541
 10
698.5224599098572
 20
1789.603764851901
 10
698.406168451522
 20
1789.574194988515
 10
698.2887875348011
 20
1789.549299195855
 10
698.1705049441211
 20
1789.52911730188
 10
698.0515099063946
 20
1789.513681593315
 10
697.9319927882983
 20
1789.503016764001
 10
697.812144791725
 20
1789.497139875389
 10
697.7251661648641
 20
1789.495878730052
  0
LWPOLYLINE
  5
1D9
330
18E
100
AcDbEntity
  8
P-SANR-FIXT
100
AcDbPolyline
 90
       34
 70
   128
 43
0.0
 10
697.7251661648641
 20
1822.995878730053
 10
697.8451341674241
 20
1822.993479050036
 10
697.9649102467715
 20
1822.986283848961
 10
698.0843027867308
 20
1822.974304637615
 10
698.2031207847069
 20
1822.95756058018
 10
698.3211741572495
 20
1822.936078463577
 10
698.4382740441455
 20
1822.909892654609
 10
698.5542331105565
 20
1822.879045044986
 10
698.6688658467126
 20
1822.8435849843
 10
698.7819888646894
 20
1822.803569201087
 10
698.8934211917901
 20
1822.759061712061
 10
699.0029845600623
 20
1822.710133719713
 10
699.1105036914887
 20
1822.656863498391
 10
699.2158065783954
 20
1822.599336269086
 10
699.3187247586269
 20
1822.537644063093
 10
699.4190935850493
 20
1822.471885574782
 10
699.5167524889512
 20
1822.402166003706
 10
699.6115452369195
 20
1822.328596886306
 10
699.7033201807786
 20
1822.251295917476
 10
699.7919305001959
 20
1822.170386762276
 10
699.8772344375628
 20
1822.085998858095
 10
699.9590955247768
 20
1821.998267207577
 10
700.0373828015612
 20
1821.907332162649
 10
700.1119710249732
 20
1821.813339199983
 10
700.1827408697671
 20
1821.71643868827
 10
700.2495791192878
 20
1821.616785647657
 10
700.3123788465943
 20
1821.514539501751
 10
700.371039585519
 20
1821.409863822574
 10
700.4254674913936
 20
1821.302926068883
 10
700.4755754911794
 20
1821.193897318272
 10
700.5212834227659
 20
1821.082951993483
 10
700.5625181632127
 20
1820.970267583369
 10
700.5992137457318
 20
1820.856024358949
 10
700.6229436437314
 20
1820.77233586536
  0
LINE
  5
1DA
330
18E
100
AcDbEntity
  8
P-SANR-FIXT
100
AcDbLine
 10
700.6229436437314
 20
1791.719421594745
 30
0.0
 11
701.661618128084
 21
1795.595807542874
 31
0.0
  0
LINE
  5
1DB
330
18E
100
AcDbEntity
  8
P-SANR-FIXT
100
AcDbLine
 10
701.661618128084
 20
1816.895949917231
 30
0.0
 11
700.6229436437314
 21
1820.77233586536
 31
0.0
  0
LINE
  5
1DC
330
18E
100
AcDbEntity
  8
P-SANR-FIXT
100
AcDbLine
 10
673.5696909959341
 20
1787.245878730053
 30
0.0
 11
673.7771471288009
 21
1787.245878730053
 31
0.0
  0
LINE
  5
1DD
330
18E
100
AcDbEntity
  8
P-SANR-FIXT
100
AcDbLine
 10
673.7771471288009
 20
1825.245878730052
 30
0.0
 11
673.5696909959341
 21
1825.245878730052
 31
0.0
  0
LINE
  5
1DE
330
18E
100
AcDbEntity
  8
P-SANR-FIXT
100
AcDbLine
 10
691.2771471288009
 20
1780.745878730053
 30
0.0
 11
691.2771471288009
 21
1789.495878730052
 31
0.0
  0
LINE
  5
1DF
330
18E
100
AcDbEntity
  8
P-SANR-FIXT
100
AcDbLine
 10
691.2771471288009
 20
1822.995878730053
 30
0.0
 11
691.2771471288009
 21
1831.745878730053
 31
0.0
  0
LINE
  5
1E0
330
18E
100
AcDbEntity
  8
P-SANR-FIXT
100
AcDbLine
 10
673.7771471288009
 20
1831.745878730053
 30
0.0
 11
673.7771471288009
 21
1822.995878730053
 31
0.0
  0
LINE
  5
1E1
330
18E
100
AcDbEntity
  8
P-SANR-FIXT
100
AcDbLine
 10
673.7771471288009
 20
1789.495878730052
 30
0.0
 11
673.7771471288009
 21
1780.745878730053
 31
0.0
  0
LINE
  5
1E2
330
18E
100
AcDbEntity
  8
P-SANR-FIXT
100
AcDbLine
 10
764.8271471288011
 20
1788.245878730053
 30
0.0
 11
767.5271471288011
 21
1788.245878730053
 31
0.0
  0
LINE
  5
1E3
330
18E
100
AcDbEntity
  8
P-SANR-FIXT
100
AcDbLine
 10
767.5271471288011
 20
1824.245878730053
 30
0.0
 11
764.8271471288011
 21
1824.245878730053
 31
0.0
  0
LINE
  5
1E4
330
18E
100
AcDbEntity
  8
P-SANR-FIXT
100
AcDbLine
 10
639.027147128744
 20
1820.495878730046
 30
0.0
 11
626.0271471287518
 21
1820.495878730046
 31
0.0
  0
LINE
  5
1E5
330
18E
100
AcDbEntity
  8
P-SANR-FIXT
100
AcDbLine
 10
626.0271471287518
 20
1791.995878730039
 30
0.0
 11
639.0271471287445
 21
1791.995878730039
 31
0.0
  0
SPLINE
  5
1E6
330
18E
100
AcDbEntity
  8
P-SANR-FIXT
100
AcDbSpline
210
0.0
220
0.0
230
1.0
 70
     8
 71
     3
 72
    10
 73
     6
 74
     0
 42
0.000000001
 43
0.0000000001
 40
0.1207469246031617
 40
0.1207469246031617
 40
0.1207469246031617
 40
0.1207469246031617
 40
0.3333333333333333
 40
0.6666666666666666
 40
1.0
 40
1.0
 40
1.0
 40
1.0
 10
722.5715382126423
 20
1789.532985864053
 30
0.0
 10
722.6009151878056
 20
1789.552990492981
 30
0.0
 10
722.7409148247696
 20
1789.622194170828
 30
0.0
 10
723.2404774588868
 20
1789.779276874573
 30
0.0
 10
723.84556517097
 20
1789.892411054604
 30
0.0
 10
724.2060638505119
 20
1789.940509770086
 30
0.0
  0
SPLINE
  5
1E7
330
18E
100
AcDbEntity
  8
P-SANR-FIXT
100
AcDbSpline
210
0.0
220
0.0
230
1.0
 70
     8
 71
     3
 72
     8
 73
     4
 74
     0
 42
0.000000001
 43
0.0000000001
 40
0.25
 40
0.25
 40
0.25
 40
0.25
 40
0.2997602782975268
 40
0.2997602782975268
 40
0.2997602782975268
 40
0.2997602782975268
 10
716.4743969959895
 20
1799.927119688138
 30
0.0
 10
716.3948188127425
 20
1800.003263088248
 30
0.0
 10
716.3148460204521
 20
1800.080096676001
 30
0.0
 10
716.2355782343195
 20
1800.158129613953
 30
0.0
  0
SPLINE
  5
1E8
330
18E
100
AcDbEntity
  8
P-SANR-FIXT
100
AcDbSpline
210
0.0
220
0.0
230
1.0
 70
     8
 71
     3
 72
    12
 73
     8
 74
     0
 42
0.000000001
 43
0.0000000001
 40
0.0
 40
0.0
 40
0.0
 40
0.0
 40
0.1666666666666666
 40
0.3333333333333333
 40
0.5
 40
0.6666666666666666
 40
0.9471915320023692
 40
0.9471915320023692
 40
0.9471915320023692
 40
0.9471915320023692
 10
702.9575881052745
 20
1804.245878730052
 30
0.0
 10
702.9198138408546
 20
1803.64596811971
 30
0.0
 10
702.8331119137192
 20
1802.46742455538
 30
0.0
 10
702.6714168231908
 20
1800.786289221457
 30
0.0
 10
702.4333146399336
 20
1799.19157252318
 30
0.0
 10
702.1002363483934
 20
1797.383155560764
 30
0.0
 10
701.8485372048574
 20
1796.239118487948
 30
0.0
 10
701.6655921598603
 20
1795.585295219708
 30
0.0
  0
SPLINE
  5
1E9
330
18E
100
AcDbEntity
  8
P-SANR-FIXT
100
AcDbSpline
210
0.0
220
0.0
230
1.0
 70
     8
 71
     3
 72
    12
 73
     8
 74
     0
 42
0.000000001
 43
0.0000000001
 40
0.0528084679976348
 40
0.0528084679976348
 40
0.0528084679976348
 40
0.0528084679976348
 40
0.3333333333333333
 40
0.5
 40
0.6666666666666666
 40
0.8333333333333332
 40
1.0
 40
1.0
 40
1.0
 40
1.0
 10
701.6655921598603
 20
1816.906462240397
 30
0.0
 10
701.8485372048574
 20
1816.252638972157
 30
0.0
 10
702.1002363483934
 20
1815.108601899341
 30
0.0
 10
702.4333146399336
 20
1813.300184936925
 30
0.0
 10
702.6714168231908
 20
1811.705468238647
 30
0.0
 10
702.8331119137192
 20
1810.024332904724
 30
0.0
 10
702.9198138408544
 20
1808.845789340394
 30
0.0
 10
702.9575881052745
 20
1808.245878730052
 30
0.0
  0
SPLINE
  5
1EA
330
18E
100
AcDbEntity
  8
P-SANR-FIXT
100
AcDbSpline
210
0.0
220
0.0
230
1.0
 70
     8
 71
     3
 72
     8
 73
     4
 74
     0
 42
0.000000001
 43
0.0000000001
 40
0.6993951889625634
 40
0.6993951889625634
 40
0.6993951889625634
 40
0.6993951889625634
 40
0.75
 40
0.75
 40
0.75
 40
0.75
 10
716.2355110599415
 20
1812.326899476534
 30
0.0
 10
716.3136533837646
 20
1812.407768387195
 30
0.0
 10
716.3921496999238
 20
1812.48832435427
 30
0.0
 10
716.4741668651442
 20
1812.564417321198
 30
0.0
  0
SPLINE
  5
1EB
330
18E
100
AcDbEntity
  8
P-SANR-FIXT
100
AcDbSpline
210
0.0
220
0.0
230
1.0
 70
     8
 71
     3
 72
    10
 73
     6
 74
     0
 42
0.000000001
 43
0.0000000001
 40
0.0
 40
0.0
 40
0.0
 40
0.0
 40
0.3333333333333333
 40
0.6666666666666666
 40
0.8792530753967565
 40
0.8792530753967565
 40
0.8792530753967565
 40
0.8792530753967565
 10
724.2060638505119
 20
1822.551247690018
 30
0.0
 10
723.84556517097
 20
1822.599346405501
 30
0.0
 10
723.240477458887
 20
1822.712480585531
 30
0.0
 10
722.7409148247696
 20
1822.869563289276
 30
0.0
 10
722.6009151878056
 20
1822.938766967123
 30
0.0
 10
722.5715382126423
 20
1822.958771596051
 30
0.0
  0
LINE
  5
1EC
330
18E
100
AcDbEntity
  8
P-SANR-FIXT
100
AcDbLine
 10
764.8271471288002
 20
1798.236452420145
 30
0.0
 11
764.8271471288002
 21
1787.745878730052
 31
0.0
  0
LINE
  5
1ED
330
18E
100
AcDbEntity
  8
P-SANR-FIXT
100
AcDbLine
 10
764.8271471288002
 20
1824.745878730053
 30
0.0
 11
764.8271471288002
 21
1814.255305039958
 31
0.0
  0
SPLINE
  5
1EE
330
18E
100
AcDbEntity
  8
P-SANR-FIXT
100
AcDbSpline
210
0.0
220
0.0
230
1.0
 70
     8
 71
     3
 72
     8
 73
     4
 74
     0
 42
0.000000001
 43
0.0000000001
 40
0.0
 40
0.0
 40
0.0
 40
0.0
 40
0.1666666666666666
 40
0.1666666666666666
 40
0.1666666666666666
 40
0.1666666666666666
 10
731.2771471287998
 20
1806.245878730052
 30
0.0
 10
731.2716398199903
 20
1805.523317486226
 30
0.0
 10
731.1880910362887
 20
1804.821912159802
 30
0.0
 10
731.0205911917551
 20
1804.142569920236
 30
0.0
  0
SPLINE
  5
1EF
330
18E
100
AcDbEntity
  8
P-SANR-FIXT
100
AcDbSpline
210
0.0
220
0.0
230
1.0
 70
     8
 71
     3
 72
     8
 73
     4
 74
     0
 42
0.000000001
 43
0.0000000001
 40
0.25
 40
0.25
 40
0.25
 40
0.25
 40
0.2855608565339283
 40
0.2855608565339283
 40
0.2855608565339283
 40
0.2855608565339283
 10
730.7085942240582
 20
1803.143374615943
 30
0.0
 10
730.6558890413519
 20
1803.004529881783
 30
0.0
 10
730.5997539028707
 20
1802.867298987739
 30
0.0
 10
730.5403759397713
 20
1802.731918391492
 30
0.0
  0
SPLINE
  5
1F0
330
18E
100
AcDbEntity
  8
P-SANR-FIXT
100
AcDbSpline
210
0.0
220
0.0
230
1.0
 70
     8
 71
     3
 72
     8
 73
     4
 74
     0
 42
0.000000001
 43
0.0000000001
 40
0.5
 40
0.5
 40
0.5
 40
0.5
 40
0.5833333333333333
 40
0.5833333333333333
 40
0.5833333333333333
 40
0.5833333333333333
 10
729.1437180388901
 20
1800.520191924808
 30
0.0
 10
728.9243778014812
 20
1800.266774339974
 30
0.0
 10
728.6909891220668
 20
1800.027385793109
 30
0.0
 10
728.4449205778661
 20
1799.801874072059
 30
0.0
  0
SPLINE
  5
1F1
330
18E
100
AcDbEntity
  8
P-SANR-FIXT
100
AcDbSpline
210
0.0
220
0.0
230
1.0
 70
     8
 71
     3
 72
     8
 73
     4
 74
     0
 42
0.000000001
 43
0.0000000001
 40
0.6380212770322328
 40
0.6380212770322328
 40
0.6380212770322328
 40
0.6380212770322328
 40
0.6666666666666666
 40
0.6666666666666666
 40
0.6666666666666666
 40
0.6666666666666666
 10
727.9449716143944
 20
1799.37502704218
 30
0.0
 10
727.8547715840339
 20
1799.303893704251
 30
0.0
 10
727.7630502482897
 20
1799.234590620348
 30
0.0
 10
727.6700439281236
 20
1799.166817174203
 30
0.0
  0
SPLINE
  5
1F2
330
18E
100
AcDbEntity
  8
P-SANR-FIXT
100
AcDbSpline
210
0.0
220
0.0
230
1.0
 70
     8
 71
     3
 72
     8
 73
     4
 74
     0
 42
0.000000001
 43
0.0000000001
 40
0.7389122691045497
 40
0.7389122691045497
 40
0.7389122691045497
 40
0.7389122691045497
 40
0.75
 40
0.75
 40
0.75
 40
0.75
 10
726.9392195134535
 20
1798.6889987068
 30
0.0
 10
726.9004957184071
 20
1798.666342202896
 30
0.0
 10
726.8616021263753
 20
1798.64391167951
 30
0.0
 10
726.822445863287
 20
1798.621873861445
 30
0.0
  0
SPLINE
  5
1F3
330
18E
100
AcDbEntity
  8
P-SANR-FIXT
100
AcDbSpline
210
0.0
220
0.0
230
1.0
 70
     8
 71
     3
 72
     8
 73
     4
 74
     0
 42
0.000000001
 43
0.0000000001
 40
0.8333333333333332
 40
0.8333333333333332
 40
0.8333333333333332
 40
0.8333333333333332
 40
0.8391747917839943
 40
0.8391747917839943
 40
0.8391747917839943
 40
0.8391747917839943
 10
725.908840592394
 20
1798.175770346747
 30
0.0
 10
725.8868143783084
 20
1798.166655491782
 30
0.0
 10
725.8647913748129
 20
1798.157559757244
 30
0.0
 10
725.8427612170074
 20
1798.148498288331
 30
0.0
  0
SPLINE
  5
1F4
330
18E
100
AcDbEntity
  8
P-SANR-FIXT
100
AcDbSpline
210
0.0
220
0.0
230
1.0
 70
     8
 71
     3
 72
     8
 73
     4
 74
     0
 42
0.000000001
 43
0.0000000001
 40
0.9166666666666666
 40
0.9166666666666666
 40
0.9166666666666666
 40
0.9166666666666666
 40
0.9381245920288973
 40
0.9381245920288973
 40
0.9381245920288973
 40
0.9381245920288973
 10
724.9380407657205
 20
1797.841321994378
 30
0.0
 10
724.8521762398953
 20
1797.817018358532
 30
0.0
 10
724.764637257365
 20
1797.795309651158
 30
0.0
 10
724.6761957431325
 20
1797.77499739495
 30
0.0
  0
SPLINE
  5
1F5
330
18E
100
AcDbEntity
  8
P-SANR-FIXT
100
AcDbSpline
210
0.0
220
0.0
230
1.0
 70
     8
 71
     3
 72
    17
 73
    13
 74
     0
 42
0.000000001
 43
0.0000000001
 40
0.0
 40
0.0
 40
0.0
 40
0.0
 40
0.1666666666666666
 40
0.25
 40
0.3333333333333333
 40
0.4166666666666666
 40
0.5
 40
0.5833333333333333
 40
0.6666666666666666
 40
0.75
 40
0.8333333333333332
 40
1.0
 40
1.0
 40
1.0
 40
1.0
 10
726.3872540024543
 20
1794.60146094425
 30
0.0
 10
726.891250009699
 20
1794.80544889987
 30
0.0
 10
727.688974709488
 20
1795.082858971354
 30
0.0
 10
728.8634055729939
 20
1795.375941680677
 30
0.0
 10
729.776064741508
 20
1795.538307648013
 30
0.0
 10
730.7214812256411
 20
1795.623531900368
 30
0.0
 10
731.6749571894689
 20
1795.636214147799
 30
0.0
 10
732.6192081989177
 20
1795.55992642491
 30
0.0
 10
733.5448163933251
 20
1795.415533717533
 30
0.0
 10
734.4264588976225
 20
1795.206915840446
 30
0.0
 10
735.5493845329255
 20
1794.866015916483
 30
0.0
 10
736.3050154180562
 20
1794.570791750864
 30
0.0
 10
736.7771471287998
 20
1794.36326787041
 30
0.0
  0
SPLINE
  5
1F6
330
18E
100
AcDbEntity
  8
P-SANR-FIXT
100
AcDbSpline
210
0.0
220
0.0
230
1.0
 70
     8
 71
     3
 72
    17
 73
    13
 74
     0
 42
0.000000001
 43
0.0000000001
 40
0.0
 40
0.0
 40
0.0
 40
0.0
 40
0.1666666666666666
 40
0.25
 40
0.3333333333333333
 40
0.4166666666666666
 40
0.5
 40
0.5833333333333333
 40
0.6666666666666666
 40
0.75
 40
0.8333333333333332
 40
1.0
 40
1.0
 40
1.0
 40
1.0
 10
736.7771471287998
 20
1818.128489589695
 30
0.0
 10
736.3050154180562
 20
1817.920965709241
 30
0.0
 10
735.5493845329255
 20
1817.625741543622
 30
0.0
 10
734.4264588976226
 20
1817.284841619659
 30
0.0
 10
733.5448163933251
 20
1817.076223742571
 30
0.0
 10
732.6192081989177
 20
1816.931831035194
 30
0.0
 10
731.674957189469
 20
1816.855543312306
 30
0.0
 10
730.7214812256411
 20
1816.868225559737
 30
0.0
 10
729.776064741508
 20
1816.953449812092
 30
0.0
 10
728.8634055729939
 20
1817.115815779428
 30
0.0
 10
727.688974709488
 20
1817.40889848875
 30
0.0
 10
726.891250009699
 20
1817.686308560234
 30
0.0
 10
726.3872540024543
 20
1817.890296515854
 30
0.0
  0
SPLINE
  5
1F7
330
18E
100
AcDbEntity
  8
P-SANR-FIXT
100
AcDbSpline
210
0.0
220
0.0
230
1.0
 70
     8
 71
     3
 72
     8
 73
     4
 74
     0
 42
0.000000001
 43
0.0000000001
 40
0.0587951438816582
 40
0.0587951438816582
 40
0.0587951438816582
 40
0.0587951438816582
 40
0.0833333333333333
 40
0.0833333333333333
 40
0.0833333333333333
 40
0.0833333333333333
 10
724.6407914930282
 20
1814.729735556408
 30
0.0
 10
724.7407632663593
 20
1814.704663530945
 30
0.0
 10
724.839853087723
 20
1814.67822997591
 30
0.0
 10
724.9380407657205
 20
1814.650435465726
 30
0.0
  0
SPLINE
  5
1F8
330
18E
100
AcDbEntity
  8
P-SANR-FIXT
100
AcDbSpline
210
0.0
220
0.0
230
1.0
 70
     8
 71
     3
 72
     8
 73
     4
 74
     0
 42
0.000000001
 43
0.0000000001
 40
0.1557963436144076
 40
0.1557963436144076
 40
0.1557963436144076
 40
0.1557963436144076
 40
0.1666666666666666
 40
0.1666666666666666
 40
0.1666666666666666
 40
0.1666666666666666
 10
725.7854181508238
 20
1814.365861182673
 30
0.0
 10
725.8267124469482
 20
1814.349570344207
 30
0.0
 10
725.8678501555117
 20
1814.332947364832
 30
0.0
 10
725.908840592394
 20
1814.315987113357
 30
0.0
  0
SPLINE
  5
1F9
330
18E
100
AcDbEntity
  8
P-SANR-FIXT
100
AcDbSpline
210
0.0
220
0.0
230
1.0
 70
     8
 71
     3
 72
     8
 73
     4
 74
     0
 42
0.000000001
 43
0.0000000001
 40
0.25
 40
0.25
 40
0.25
 40
0.25
 40
0.2550547557663955
 40
0.2550547557663955
 40
0.2550547557663955
 40
0.2550547557663955
 10
726.822445863287
 20
1813.869883598659
 30
0.0
 10
726.8402823278652
 20
1813.859811939058
 30
0.0
 10
726.858073987652
 20
1813.849679148101
 30
0.0
 10
726.8758212819274
 20
1813.839485901936
 30
0.0
  0
SPLINE
  5
1FA
330
18E
100
AcDbEntity
  8
P-SANR-FIXT
100
AcDbSpline
210
0.0
220
0.0
230
1.0
 70
     8
 71
     3
 72
     8
 73
     4
 74
     0
 42
0.000000001
 43
0.0000000001
 40
0.3333333333333333
 40
0.3333333333333333
 40
0.3333333333333333
 40
0.3333333333333333
 40
0.35663628395935
 40
0.35663628395935
 40
0.35663628395935
 40
0.35663628395935
 10
727.6700439281236
 20
1813.324940285902
 30
0.0
 10
727.7457591572458
 20
1813.269895400701
 30
0.0
 10
727.820717189357
 20
1813.213803085954
 30
0.0
 10
727.8948231502429
 20
1813.156631732675
 30
0.0
  0
SPLINE
  5
1FB
330
18E
100
AcDbEntity
  8
P-SANR-FIXT
100
AcDbSpline
210
0.0
220
0.0
230
1.0
 70
     8
 71
     3
 72
     8
 73
     4
 74
     0
 42
0.000000001
 43
0.0000000001
 40
0.4166666666666666
 40
0.4166666666666666
 40
0.4166666666666666
 40
0.4166666666666666
 40
0.5
 40
0.5
 40
0.5
 40
0.5
 10
728.4454488795893
 20
1812.690682205978
 30
0.0
 10
728.6913413232157
 20
1812.464904212284
 30
0.0
 10
728.9268962501207
 20
1812.226237341491
 30
0.0
 10
729.14371803889
 20
1811.971565535296
 30
0.0
  0
SPLINE
  5
1FC
330
18E
100
AcDbEntity
  8
P-SANR-FIXT
100
AcDbSpline
210
0.0
220
0.0
230
1.0
 70
     8
 71
     3
 72
     8
 73
     4
 74
     0
 42
0.000000001
 43
0.0000000001
 40
0.714439143466053
 40
0.714439143466053
 40
0.714439143466053
 40
0.714439143466053
 40
0.75
 40
0.75
 40
0.75
 40
0.75
 10
730.5403959900131
 20
1809.759862849278
 30
0.0
 10
730.5997655612816
 20
1809.624472299868
 30
0.0
 10
730.65909756063
 20
1809.488181766427
 30
0.0
 10
730.715340809576
 20
1809.350389225017
 30
0.0
  0
SPLINE
  5
1FD
330
18E
100
AcDbEntity
  8
P-SANR-FIXT
100
AcDbSpline
210
0.0
220
0.0
230
1.0
 70
     8
 71
     3
 72
     8
 73
     4
 74
     0
 42
0.000000001
 43
0.0000000001
 40
0.8333333333333332
 40
0.8333333333333332
 40
0.8333333333333332
 40
0.8333333333333332
 40
1.0
 40
1.0
 40
1.0
 40
1.0
 10
731.0205911917551
 20
1808.349187539868
 30
0.0
 10
731.1880910362887
 20
1807.669845300302
 30
0.0
 10
731.2716398199903
 20
1806.968439973879
 30
0.0
 10
731.2771471287998
 20
1806.245878730052
 30
0.0
  0
ARC
  5
1FE
330
18E
100
AcDbEntity
  8
P-SANR-FIXT
100
AcDbCircle
 10
748.5271471288002
 20
1806.245878730052
 30
0.0
 40
9.00000000000038
100
AcDbArc
 50
242.9639395157622
 51
297.0360604842384
  0
ARC
  5
1FF
330
18E
100
AcDbEntity
  8
P-SANR-FIXT
100
AcDbCircle
 10
748.5271471288002
 20
1806.245878730052
 30
0.0
 40
9.00000000000046
100
AcDbArc
 50
124.7514312267917
 51
145.2485687732035
  0
SPLINE
  5
200
330
18E
100
AcDbEntity
  8
P-SANR-FIXT
100
AcDbSpline
210
0.0
220
0.0
230
1.0
 70
     8
 71
     3
 72
     8
 73
     4
 74
     0
 42
0.000000001
 43
0.0000000001
 40
-0.6296296296296297
 40
-0.6296296296296297
 40
-0.6296296296296297
 40
-0.6296296296296297
 40
-0.6235577888017493
 40
-0.6235577888017493
 40
-0.6235577888017493
 40
-0.6235577888017493
 10
744.9223786288803
 20
1798.004994561515
 30
0.0
 10
744.9751574994728
 20
1797.98190648983
 30
0.0
 10
745.0282448318382
 20
1797.959235638937
 30
0.0
 10
745.081613911137
 20
1797.937004569825
 30
0.0
  0
SPLINE
  5
201
330
18E
100
AcDbEntity
  8
P-SANR-FIXT
100
AcDbSpline
210
0.0
220
0.0
230
1.0
 70
     8
 71
     3
 72
     9
 73
     5
 74
     0
 42
0.000000001
 43
0.0000000001
 40
-0.5925925925925926
 40
-0.5925925925925926
 40
-0.5925925925925926
 40
-0.5925925925925926
 40
-0.5833333333333333
 40
-0.5822967326334943
 40
-0.5822967326334943
 40
-0.5822967326334943
 40
-0.5822967326334943
 10
745.9153425700089
 20
1797.634501686011
 30
0.0
 10
745.9996045388968
 20
1797.608449470258
 30
0.0
 10
746.0934958109311
 20
1797.580961406677
 30
0.0
 10
746.1874148745335
 20
1797.555237480051
 30
0.0
 10
746.1968712551111
 20
1797.552665402784
 30
0.0
  0
SPLINE
  5
202
330
18E
100
AcDbEntity
  8
P-SANR-FIXT
100
AcDbSpline
210
0.0
220
0.0
230
1.0
 70
     8
 71
     3
 72
     9
 73
     5
 74
     0
 42
0.000000001
 43
0.0000000001
 40
-0.5555555555555556
 40
-0.5555555555555556
 40
-0.5555555555555556
 40
-0.5555555555555556
 40
-0.5486111111111111
 40
-0.5408519751379674
 40
-0.5408519751379674
 40
-0.5408519751379674
 40
-0.5408519751379674
 10
746.9331858254342
 20
1797.388523214614
 30
0.0
 10
746.9976148439541
 20
1797.37727561702
 30
0.0
 10
747.1345781263828
 20
1797.355055542617
 30
0.0
 10
747.2729744396604
 20
1797.336156148929
 30
0.0
 10
747.3463647556137
 20
1797.327090079661
 30
0.0
  0
SPLINE
  5
203
330
18E
100
AcDbEntity
  8
P-SANR-FIXT
100
AcDbSpline
210
0.0
220
0.0
230
1.0
 70
     8
 71
     3
 72
     9
 73
     5
 74
     0
 42
0.000000001
 43
0.0000000001
 40
-0.5185185185185186
 40
-0.5185185185185186
 40
-0.5185185185185186
 40
-0.5185185185185186
 40
-0.5138888888888889
 40
-0.4814814814814815
 40
-0.4814814814814815
 40
-0.4814814814814815
 40
-0.4814814814814815
 10
747.9880132314739
 20
1797.270935738816
 30
0.0
 10
748.0328300863216
 20
1797.26855583075
 30
0.0
 10
748.3920489569397
 20
1797.251956433087
 30
0.0
 10
748.7561772789803
 20
1797.254643230228
 30
0.0
 10
749.0693750917763
 20
1797.271342279932
 30
0.0
  0
SPLINE
  5
204
330
18E
100
AcDbEntity
  8
P-SANR-FIXT
100
AcDbSpline
210
0.0
220
0.0
230
1.0
 70
     8
 71
     3
 72
     8
 73
     4
 74
     0
 42
0.000000001
 43
0.0000000001
 40
-0.4592428264481747
 40
-0.4592428264481747
 40
-0.4592428264481747
 40
-0.4592428264481747
 40
-0.4444444444444445
 40
-0.4444444444444445
 40
-0.4444444444444445
 40
-0.4444444444444445
 10
749.7061973356941
 20
1797.326655521409
 30
0.0
 10
749.8458343741332
 20
1797.343773019101
 30
0.0
 10
749.9845101209605
 20
1797.364255406552
 30
0.0
 10
750.1224402740908
 20
1797.388393772086
 30
0.0
  0
SPLINE
  5
205
330
18E
100
AcDbEntity
  8
P-SANR-FIXT
100
AcDbSpline
210
0.0
220
0.0
230
1.0
 70
     8
 71
     3
 72
     8
 73
     4
 74
     0
 42
0.000000001
 43
0.0000000001
 40
-0.4177812908497756
 40
-0.4177812908497756
 40
-0.4177812908497756
 40
-0.4177812908497756
 40
-0.4074074074074075
 40
-0.4074074074074075
 40
-0.4074074074074075
 40
-0.4074074074074075
 10
750.8606358570069
 20
1797.553523156079
 30
0.0
 10
750.9553946996821
 20
1797.579320798789
 30
0.0
 10
751.0497592039214
 20
1797.606782973065
 30
0.0
 10
751.1437249082367
 20
1797.635853229011
 30
0.0
  0
SPLINE
  5
206
330
18E
100
AcDbEntity
  8
P-SANR-FIXT
100
AcDbSpline
210
0.0
220
0.0
230
1.0
 70
     8
 71
     3
 72
     8
 73
     4
 74
     0
 42
0.000000001
 43
0.0000000001
 40
-0.3764901893622019
 40
-0.3764901893622019
 40
-0.3764901893622019
 40
-0.3764901893622019
 40
-0.3703703703703705
 40
-0.3703703703703705
 40
-0.3703703703703705
 40
-0.3703703703703705
 10
751.9725500315056
 20
1797.936952530972
 30
0.0
 10
752.0263018303186
 20
1797.959357169772
 30
0.0
 10
752.0798001670284
 20
1797.982199650369
 30
0.0
 10
752.1329777709115
 20
1798.005445758815
 30
0.0
  0
LINE
  5
207
330
18E
100
AcDbEntity
  8
P-SANR-FIXT
100
AcDbLine
 10
739.5271471287998
 20
1798.239845922553
 30
0.0
 11
739.5271471287998
 21
1790.197911802275
 31
0.0
  0
SPLINE
  5
208
330
18E
100
AcDbEntity
  8
P-SANR-FIXT
100
AcDbSpline
210
0.0
220
0.0
230
1.0
 70
     8
 71
     3
 72
     9
 73
     5
 74
     0
 42
0.000000001
 43
0.0000000001
 40
0.0
 40
0.0
 40
0.0
 40
0.0
 40
0.5
 40
1.0
 40
1.0
 40
1.0
 40
1.0
 10
739.5271471287998
 20
1790.197911802275
 30
0.0
 10
739.6991135561956
 20
1790.121982776104
 30
0.0
 10
739.9575038883932
 20
1790.010577963522
 30
0.0
 10
740.0448091754033
 20
1789.988174159849
 30
0.0
 10
740.0456905576114
 20
1790.00112705644
 30
0.0
  0
SPLINE
  5
209
330
18E
100
AcDbEntity
  8
P-SANR-FIXT
100
AcDbSpline
210
0.0
220
0.0
230
1.0
 70
     8
 71
     3
 72
     9
 73
     5
 74
     0
 42
0.000000001
 43
0.0000000001
 40
0.0
 40
0.0
 40
0.0
 40
0.0
 40
0.5
 40
1.0
 40
1.0
 40
1.0
 40
1.0
 10
740.0456905576114
 20
1822.490630403665
 30
0.0
 10
740.0448091754033
 20
1822.503583300256
 30
0.0
 10
739.9575038883932
 20
1822.481179496582
 30
0.0
 10
739.6991135561956
 20
1822.369774684
 30
0.0
 10
739.5271471287998
 20
1822.293845657829
 30
0.0
  0
LINE
  5
20A
330
18E
100
AcDbEntity
  8
P-SANR-FIXT
100
AcDbLine
 10
739.5271471287998
 20
1822.293845657829
 30
0.0
 11
739.5271471287998
 21
1809.747684378731
 31
0.0
  0
SPLINE
  5
20B
330
18E
100
AcDbEntity
  8
P-SANR-FIXT
100
AcDbSpline
210
0.0
220
0.0
230
1.0
 70
     8
 71
     3
 72
     8
 73
     4
 74
     0
 42
0.000000001
 43
0.0000000001
 40
-0.2962962962962965
 40
-0.2962962962962965
 40
-0.2962962962962965
 40
-0.2962962962962965
 40
-0.2918109624153318
 40
-0.2918109624153318
 40
-0.2918109624153318
 40
-0.2918109624153318
 10
743.1397017296676
 20
1813.45819413366
 30
0.0
 10
743.1065089410423
 20
1813.433404780494
 30
0.0
 10
743.0735102883566
 20
1813.408373861677
 30
0.0
 10
743.0406977044232
 20
1813.383112830742
 30
0.0
  0
SPLINE
  5
20C
330
18E
100
AcDbEntity
  8
P-SANR-FIXT
100
AcDbSpline
210
0.0
220
0.0
230
1.0
 70
     8
 71
     3
 72
     8
 73
     4
 74
     0
 42
0.000000001
 43
0.0000000001
 40
-0.2592592592592595
 40
-0.2592592592592595
 40
-0.2592592592592595
 40
-0.2592592592592595
 40
-0.2500184495884828
 40
-0.2500184495884828
 40
-0.2500184495884828
 40
-0.2500184495884828
 10
742.3556564009684
 20
1812.798900697565
 30
0.0
 10
742.2937223382237
 20
1812.740426368717
 30
0.0
 10
742.2324461898729
 20
1812.681147937158
 30
0.0
 10
742.171960705525
 20
1812.621000960285
 30
0.0
  0
SPLINE
  5
20D
330
18E
100
AcDbEntity
  8
P-SANR-FIXT
100
AcDbSpline
210
0.0
220
0.0
230
1.0
 70
     8
 71
     3
 72
     8
 73
     4
 74
     0
 42
0.000000001
 43
0.0000000001
 40
-0.2222222222222222
 40
-0.2222222222222222
 40
-0.2222222222222222
 40
-0.2222222222222222
 40
-0.1890677828920024
 40
-0.1890677828920024
 40
-0.1890677828920024
 40
-0.1890677828920024
 10
741.6512168882357
 20
1812.052907516523
 30
0.0
 10
741.453135115432
 20
1811.817602854125
 30
0.0
 10
741.2705687703643
 20
1811.568982895789
 30
0.0
 10
741.1010070182286
 20
1811.310627233642
 30
0.0
  0
LINE
  5
20E
330
18E
100
AcDbEntity
  8
P-SANR-FIXT
100
AcDbLine
 10
761.0281090231236
 20
1789.995878730052
 30
0.0
 11
761.0281090231234
 21
1798.238466884125
 31
0.0
  0
LINE
  5
20F
330
18E
100
AcDbEntity
  8
P-SANR-FIXT
100
AcDbLine
 10
761.0281090231234
 20
1814.253290575978
 30
0.0
 11
761.0281090231236
 21
1822.495878730052
 31
0.0
  0
LINE
  5
210
330
18E
100
AcDbEntity
  8
P-SANR-FIXT
100
AcDbLine
 10
762.3271471288002
 20
1787.745878730052
 30
0.0
 11
762.3271471288002
 21
1798.236452420145
 31
0.0
  0
LINE
  5
211
330
18E
100
AcDbEntity
  8
P-SANR-FIXT
100
AcDbLine
 10
762.3271471288002
 20
1814.255305039958
 30
0.0
 11
762.3271471288002
 21
1824.745878730053
 31
0.0
  0
LINE
  5
212
330
18E
100
AcDbEntity
  8
P-SANR-FIXT
100
AcDbLine
 10
736.7771471287998
 20
1794.363267870409
 30
0.0
 11
736.7771471287998
 21
1798.243590826893
 31
0.0
  0
SPLINE
  5
213
330
18E
100
AcDbEntity
  8
P-SANR-FIXT
100
AcDbSpline
210
0.0
220
0.0
230
1.0
 70
     8
 71
     3
 72
    13
 73
     9
 74
     0
 42
0.000000001
 43
0.0000000001
 40
-1.0
 40
-1.0
 40
-1.0
 40
-1.0
 40
-0.8333333333333332
 40
-0.6666666666666666
 40
-0.5
 40
-0.3333333333333333
 40
-0.1666666666666666
 40
0.0
 40
0.0
 40
0.0
 40
0.0
 10
736.7771471287998
 20
1794.36326787041
 30
0.0
 10
736.9490383040799
 20
1794.086594542236
 30
0.0
 10
737.2935776800931
 20
1793.545111466701
 30
0.0
 10
737.804255367922
 20
1792.775940330485
 30
0.0
 10
738.2932050555167
 20
1792.027434467414
 30
0.0
 10
738.754721951881
 20
1791.333176183399
 30
0.0
 10
739.1777853892293
 20
1790.726747784351
 30
0.0
 10
739.4194612120058
 20
1790.366089972337
 30
0.0
 10
739.5271471287998
 20
1790.197911802275
 30
0.0
  0
SPLINE
  5
214
330
18E
100
AcDbEntity
  8
P-SANR-FIXT
100
AcDbSpline
210
0.0
220
0.0
230
1.0
 70
     8
 71
     3
 72
    13
 73
     9
 74
     0
 42
0.000000001
 43
0.0000000001
 40
-1.0
 40
-1.0
 40
-1.0
 40
-1.0
 40
-0.8333333333333332
 40
-0.6666666666666666
 40
-0.5
 40
-0.3333333333333333
 40
-0.1666666666666666
 40
0.0
 40
0.0
 40
0.0
 40
0.0
 10
739.5271471287998
 20
1822.293845657829
 30
0.0
 10
739.4194612120058
 20
1822.125667487767
 30
0.0
 10
739.1777853892293
 20
1821.765009675753
 30
0.0
 10
738.754721951881
 20
1821.158581276705
 30
0.0
 10
738.2932050555169
 20
1820.46432299269
 30
0.0
 10
737.804255367922
 20
1819.71581712962
 30
0.0
 10
737.2935776800931
 20
1818.946645993403
 30
0.0
 10
736.9490383040799
 20
1818.405162917869
 30
0.0
 10
736.7771471287998
 20
1818.128489589695
 30
0.0
  0
LINE
  5
215
330
18E
100
AcDbEntity
  8
P-SANR-FIXT
100
AcDbLine
 10
736.7771471287998
 20
1806.996497894136
 30
0.0
 11
736.7771471287998
 21
1818.128489589695
 31
0.0
  0
SPLINE
  5
216
330
18E
100
AcDbEntity
  8
P-SANR-FIXT
100
AcDbSpline
210
0.0
220
0.0
230
1.0
 70
     8
 71
     3
 72
     8
 73
     4
 74
     0
 42
0.000000001
 43
0.0000000001
 40
0.0
 40
0.0
 40
0.0
 40
0.0
 40
0.5
 40
0.5
 40
0.5
 40
0.5
 10
700.8352119505545
 20
1792.558609816469
 30
0.0
 10
700.8002799154194
 20
1792.442894364463
 30
0.0
 10
700.7651596269558
 20
1792.329461631348
 30
0.0
 10
700.7297988233091
 20
1792.218308245361
 30
0.0
  0
ELLIPSE
  5
217
330
18E
100
AcDbEntity
  8
P-SANR-FIXT
100
AcDbEllipse
 10
700.60170845747
 20
1806.245878730052
 30
0.0
 11
0.0
 21
18.49999999999987
 31
0.0
210
0.0
220
0.0
230
1.0
 40
0.5735764363510505
 41
2.703064189128554
 42
3.153326740349074
  0
ELLIPSE
  5
218
330
18E
100
AcDbEntity
  8
P-SANR-FIXT
100
AcDbEllipse
 10
700.60170845747
 20
1806.245878730052
 30
0.0
 11
0.0
 21
18.49999999999983
 31
0.0
210
0.0
220
0.0
230
1.0
 40
0.5735764363510532
 41
6.271451220420285
 42
6.721713771640834
  0
SPLINE
  5
219
330
18E
100
AcDbEntity
  8
P-SANR-FIXT
100
AcDbSpline
210
0.0
220
0.0
230
1.0
 70
     8
 71
     3
 72
     8
 73
     4
 74
     0
 42
0.000000001
 43
0.0000000001
 40
0.5
 40
0.5
 40
0.5
 40
0.5
 40
1.0
 40
1.0
 40
1.0
 40
1.0
 10
700.7297988233091
 20
1820.273449214743
 30
0.0
 10
700.7651596269558
 20
1820.162295828756
 30
0.0
 10
700.8002799154194
 20
1820.048863095641
 30
0.0
 10
700.8352119505545
 20
1819.933147643635
 30
0.0
  0
LINE
  5
21A
330
18E
100
AcDbEntity
  8
P-SANR-FIXT
100
AcDbLine
 10
717.7265508305945
 20
1798.955424116817
 30
0.0
 11
717.7230923497453
 21
1798.941377628132
 31
0.0
  0
ELLIPSE
  5
21B
330
18E
100
AcDbEntity
  8
P-SANR-FIXT
100
AcDbEllipse
 10
707.9740768560709
 20
1806.245878730052
 30
0.0
 11
0.0
 21
18.49999999999983
 31
0.0
210
0.0
220
0.0
230
1.0
 40
0.5735764363510489
 41
2.40450628667529
 42
3.580370746681126
  0
ELLIPSE
  5
21C
330
18E
100
AcDbEntity
  8
P-SANR-FIXT
100
AcDbEllipse
 10
707.9740768560709
 20
1806.245878730052
 30
0.0
 11
0.0
 21
18.50000000000024
 31
0.0
210
0.0
220
0.0
230
1.0
 40
0.5735764363510379
 41
5.844407214088241
 42
7.020271674094087
  0
LINE
  5
21D
330
18E
100
AcDbEntity
  8
P-SANR-FIXT
100
AcDbLine
 10
717.7230926875213
 20
1813.55037846167
 30
0.0
 11
717.7264981123755
 21
1813.536547696875
 31
0.0
  0
LINE
  5
21E
330
18E
100
AcDbEntity
  8
P-SANR-FIXT
100
AcDbLine
 10
722.5456905576114
 20
1831.745878730052
 30
0.0
 11
740.0456905576114
 21
1831.745878730052
 31
0.0
  0
LINE
  5
21F
330
18E
100
AcDbEntity
  8
P-SANR-FIXT
100
AcDbLine
 10
740.0456905576114
 20
1780.745878730052
 30
0.0
 11
722.5456905576114
 21
1780.745878730052
 31
0.0
  0
ARC
  5
220
330
18E
100
AcDbEntity
  8
P-SANR-FIXT
100
AcDbCircle
 10
722.5271471287998
 20
1806.245878730052
 30
0.0
 40
8.749999999999944
100
AcDbArc
 50
336.1044918138065
 51
0.0
  0
ARC
  5
221
330
18E
100
AcDbEntity
  8
P-SANR-FIXT
100
AcDbCircle
 10
722.5271471287998
 20
1806.245878730052
 30
0.0
 40
8.750000000000056
100
AcDbArc
 50
276.1044918138215
 51
323.8955081861756
  0
ARC
  5
222
330
18E
100
AcDbEntity
  8
P-SANR-FIXT
100
AcDbCircle
 10
722.5271471287998
 20
1806.245878730052
 30
0.0
 40
8.74999999999995
100
AcDbArc
 50
216.1044918138529
 51
263.8955081861441
  0
ARC
  5
223
330
18E
100
AcDbEntity
  8
P-SANR-FIXT
100
AcDbCircle
 10
722.5271471287998
 20
1806.245878730052
 30
0.0
 40
8.75
100
AcDbArc
 50
180.0
 51
203.895508186128
  0
ARC
  5
224
330
18E
100
AcDbEntity
  8
P-SANR-FIXT
100
AcDbCircle
 10
722.5271471287998
 20
1806.245878730052
 30
0.0
 40
8.75
100
AcDbArc
 50
180.0
 51
193.2129803601569
  0
ARC
  5
225
330
18E
100
AcDbEntity
  8
P-SANR-FIXT
100
AcDbCircle
 10
722.5271471287998
 20
1806.245878730052
 30
0.0
 40
8.749999999999905
100
AcDbArc
 50
166.7870196398413
 51
180.0
  0
ARC
  5
226
330
18E
100
AcDbEntity
  8
P-SANR-FIXT
100
AcDbCircle
 10
722.5271471287998
 20
1806.245878730052
 30
0.0
 40
8.750000000000083
100
AcDbArc
 50
156.1044918138688
 51
180.0
  0
ARC
  5
227
330
18E
100
AcDbEntity
  8
P-SANR-FIXT
100
AcDbCircle
 10
722.5271471287998
 20
1806.245878730052
 30
0.0
 40
8.750000000000101
100
AcDbArc
 50
96.10449181385252
 51
143.8955081861434
  0
ARC
  5
228
330
18E
100
AcDbEntity
  8
P-SANR-FIXT
100
AcDbCircle
 10
722.5271471287998
 20
1806.245878730052
 30
0.0
 40
8.749999999999969
100
AcDbArc
 50
36.10449181382101
 51
83.89550818617587
  0
ARC
  5
229
330
18E
100
AcDbEntity
  8
P-SANR-FIXT
100
AcDbCircle
 10
722.5271471287998
 20
1806.245878730052
 30
0.0
 40
8.75
100
AcDbArc
 50
0.0
 51
23.89550818619111
  0
ELLIPSE
  5
22A
330
18E
100
AcDbEntity
  8
P-SANR-FIXT
100
AcDbEllipse
 10
707.9740768560709
 20
1806.245878730052
 30
0.0
 11
0.0
 21
16.74999999999977
 31
0.0
210
0.0
220
0.0
230
1.0
 40
0.5735764363510468
 41
3.141592653589788
 42
3.150064817389223
  0
ELLIPSE
  5
22B
330
18E
100
AcDbEntity
  8
P-SANR-FIXT
100
AcDbEllipse
 10
707.9740768560709
 20
1806.245878730052
 30
0.0
 11
0.0
 21
16.74999999999992
 31
0.0
210
0.0
220
0.0
230
1.0
 40
0.5735764363510491
 41
2.371959437705118
 42
3.06326903055613
  0
ELLIPSE
  5
22C
330
18E
100
AcDbEntity
  8
P-SANR-FIXT
100
AcDbEllipse
 10
707.9740768560712
 20
1806.245878730052
 30
0.0
 11
0.0
 21
16.7500000000001
 31
0.0
210
0.0
220
0.0
230
1.0
 40
0.5735764363510442
 41
0.0783236230336706
 42
0.7696332158846835
  0
ELLIPSE
  5
22D
330
18E
100
AcDbEntity
  8
P-SANR-FIXT
100
AcDbEllipse
 10
707.9740768560712
 20
1806.245878730052
 30
0.0
 11
0.0
 21
16.75
 31
0.0
210
0.0
220
0.0
230
1.0
 40
0.5735764363510484
 41
6.274713143380171
 42
6.283185307179588
  0
SPLINE
  5
22E
330
18E
100
AcDbEntity
  8
P-SANR-FIXT
100
AcDbSpline
210
0.0
220
0.0
230
1.0
 70
     8
 71
     3
 72
     8
 73
     4
 74
     0
 42
0.000000001
 43
0.0000000001
 40
0.4690868730841723
 40
0.4690868730841723
 40
0.4690868730841723
 40
0.4690868730841723
 40
0.4701866146810994
 40
0.4701866146810994
 40
0.4701866146810994
 40
0.4701866146810994
 10
685.2822399418641
 20
1794.039953550019
 30
0.0
 10
685.2749110203372
 20
1794.042351297741
 30
0.0
 10
685.2675818305156
 20
1794.044748924413
 30
0.0
 10
685.2602524411866
 20
1794.047146590443
 30
0.0
  0
SPLINE
  5
22F
330
18E
100
AcDbEntity
  8
P-SANR-FIXT
100
AcDbSpline
210
0.0
220
0.0
230
1.0
 70
     8
 71
     3
 72
     8
 73
     4
 74
     0
 42
0.000000001
 43
0.0000000001
 40
0.5298133853189269
 40
0.5298133853189269
 40
0.5298133853189269
 40
0.5298133853189269
 40
0.5309131269158371
 40
0.5309131269158371
 40
0.5309131269158371
 40
0.5309131269158371
 10
685.2602542869412
 20
1818.444606545898
 30
0.0
 10
685.2675824684624
 20
1818.447007041272
 30
0.0
 10
685.2749114590464
 20
1818.449403810391
 30
0.0
 10
685.2822412549123
 20
1818.451796870671
 30
0.0
  0
SPLINE
  5
230
330
18E
100
AcDbEntity
  8
P-SANR-FIXT
100
AcDbSpline
210
0.0
220
0.0
230
1.0
 70
     8
 71
     3
 72
     8
 73
     4
 74
     0
 42
0.000000001
 43
0.0000000001
 40
0.0277777777777778
 40
0.0277777777777778
 40
0.0277777777777778
 40
0.0277777777777778
 40
0.0555555555555556
 40
0.0555555555555556
 40
0.0555555555555556
 40
0.0555555555555556
 10
694.9532260034754
 20
1805.081491705
 30
0.0
 10
694.9142542171321
 20
1804.698991042758
 30
0.0
 10
694.8611019790879
 20
1804.32250477923
 30
0.0
 10
694.7942221679455
 20
1803.953191072233
 30
0.0
  0
SPLINE
  5
231
330
18E
100
AcDbEntity
  8
P-SANR-FIXT
100
AcDbSpline
210
0.0
220
0.0
230
1.0
 70
     8
 71
     3
 72
     8
 73
     4
 74
     0
 42
0.000000001
 43
0.0000000001
 40
0.0795294410965249
 40
0.0795294410965249
 40
0.0795294410965249
 40
0.0795294410965249
 40
0.0833333333333333
 40
0.0833333333333333
 40
0.0833333333333333
 40
0.0833333333333333
 10
694.5895090281364
 20
1803.012719624498
 30
0.0
 10
694.576967058184
 20
1802.963796773499
 30
0.0
 10
694.564145671595
 20
1802.91500138156
 30
0.0
 10
694.551041379416
 20
1802.866332330862
 30
0.0
  0
SPLINE
  5
232
330
18E
100
AcDbEntity
  8
P-SANR-FIXT
100
AcDbSpline
210
0.0
220
0.0
230
1.0
 70
     8
 71
     3
 72
     8
 73
     4
 74
     0
 42
0.000000001
 43
0.0000000001
 40
0.1111111111111111
 40
0.1111111111111111
 40
0.1111111111111111
 40
0.1111111111111111
 40
0.1666666666666666
 40
0.1666666666666666
 40
0.1666666666666666
 40
0.1666666666666666
 10
694.2173433374499
 20
1801.819897188826
 30
0.0
 10
693.9628940439163
 20
1801.13516790728
 30
0.0
 10
693.6426653715265
 20
1800.475646532056
 30
0.0
 10
693.2735713606458
 20
1799.85749194979
 30
0.0
  0
SPLINE
  5
233
330
18E
100
AcDbEntity
  8
P-SANR-FIXT
100
AcDbSpline
210
0.0
220
0.0
230
1.0
 70
     8
 71
     3
 72
     8
 73
     4
 74
     0
 42
0.000000001
 43
0.0000000001
 40
0.1944444444444444
 40
0.1944444444444444
 40
0.1944444444444444
 40
0.1944444444444444
 40
0.2222222222222222
 40
0.2222222222222222
 40
0.2222222222222222
 40
0.2222222222222222
 10
692.6847851848322
 20
1798.961293537217
 30
0.0
 10
692.4773093545219
 20
1798.672908008671
 30
0.0
 10
692.2591210339644
 20
1798.394872544474
 30
0.0
 10
692.0317240675354
 20
1798.127195510733
 30
0.0
  0
SPLINE
  5
234
330
18E
100
AcDbEntity
  8
P-SANR-FIXT
100
AcDbSpline
210
0.0
220
0.0
230
1.0
 70
     8
 71
     3
 72
     8
 73
     4
 74
     0
 42
0.000000001
 43
0.0000000001
 40
0.2483464078708266
 40
0.2483464078708266
 40
0.2483464078708266
 40
0.2483464078708266
 40
0.25
 40
0.25
 40
0.25
 40
0.25
 10
691.3650848910531
 20
1797.399746840759
 30
0.0
 10
691.3504775107904
 20
1797.38499059546
 30
0.0
 10
691.3358349977751
 20
1797.370272231285
 30
0.0
 10
691.3211571937819
 20
1797.355591822517
 30
0.0
  0
SPLINE
  5
235
330
18E
100
AcDbEntity
  8
P-SANR-FIXT
100
AcDbSpline
210
0.0
220
0.0
230
1.0
 70
     8
 71
     3
 72
     8
 73
     4
 74
     0
 42
0.000000001
 43
0.0000000001
 40
0.2777777777777778
 40
0.2777777777777778
 40
0.2777777777777778
 40
0.2777777777777778
 40
0.3055555555555556
 40
0.3055555555555556
 40
0.3055555555555556
 40
0.3055555555555556
 10
690.5508382236903
 20
1796.648251446874
 30
0.0
 10
690.2836065263693
 20
1796.423416621513
 30
0.0
 10
690.0056661094737
 20
1796.209644469887
 30
0.0
 10
689.7194894148145
 20
1796.010020196236
 30
0.0
  0
SPLINE
  5
236
330
18E
100
AcDbEntity
  8
P-SANR-FIXT
100
AcDbSpline
210
0.0
220
0.0
230
1.0
 70
     8
 71
     3
 72
     8
 73
     4
 74
     0
 42
0.000000001
 43
0.0000000001
 40
0.3333333333333333
 40
0.3333333333333333
 40
0.3333333333333333
 40
0.3333333333333333
 40
0.3351198895315322
 40
0.3351198895315322
 40
0.3351198895315322
 40
0.3351198895315322
 10
688.8373177457326
 20
1795.455524389939
 30
0.0
 10
688.8178607954594
 20
1795.444505070092
 30
0.0
 10
688.7983625369828
 20
1795.433528249482
 30
0.0
 10
688.7788218505208
 20
1795.422591712273
 30
0.0
  0
SPLINE
  5
237
330
18E
100
AcDbEntity
  8
P-SANR-FIXT
100
AcDbSpline
210
0.0
220
0.0
230
1.0
 70
     8
 71
     3
 72
     8
 73
     4
 74
     0
 42
0.000000001
 43
0.0000000001
 40
0.3611111111111111
 40
0.3611111111111111
 40
0.3611111111111111
 40
0.3611111111111111
 40
0.3888888888888888
 40
0.3888888888888888
 40
0.3888888888888888
 40
0.3888888888888888
 10
687.8967348984032
 20
1794.966103875717
 30
0.0
 10
687.5723279678102
 20
1794.811149622589
 30
0.0
 10
687.2383166703853
 20
1794.666455120926
 30
0.0
 10
686.8970099573632
 20
1794.535767511528
 30
0.0
  0
SPLINE
  5
238
330
18E
100
AcDbEntity
  8
P-SANR-FIXT
100
AcDbSpline
210
0.0
220
0.0
230
1.0
 70
     8
 71
     3
 72
     8
 73
     4
 74
     0
 42
0.000000001
 43
0.0000000001
 40
0.4166666666666666
 40
0.4166666666666666
 40
0.4166666666666666
 40
0.4166666666666666
 40
0.4190192147863934
 40
0.4190192147863934
 40
0.4190192147863934
 40
0.4190192147863934
 10
685.8557648248039
 20
1794.190284902422
 30
0.0
 10
685.8260095457026
 20
1794.181975433866
 30
0.0
 10
685.796234655304
 20
1794.173799136581
 30
0.0
 10
685.7664383724757
 20
1794.165756543933
 30
0.0
  0
SPLINE
  5
239
330
18E
100
AcDbEntity
  8
P-SANR-FIXT
100
AcDbSpline
210
0.0
220
0.0
230
1.0
 70
     8
 71
     3
 72
     9
 73
     5
 74
     0
 42
0.000000001
 43
0.0000000001
 40
0.4444444444444445
 40
0.4444444444444445
 40
0.4444444444444445
 40
0.4444444444444445
 40
0.4583333333333333
 40
0.4722222222222223
 40
0.4722222222222223
 40
0.4722222222222223
 40
0.4722222222222223
 10
684.7906214029157
 20
1793.952519375896
 30
0.0
 10
684.6107530640388
 20
1793.922467677928
 30
0.0
 10
684.2481832740226
 20
1793.872086508036
 30
0.0
 10
683.8720701374437
 20
1793.835439618265
 30
0.0
 10
683.6822545021448
 20
1793.820825930805
 30
0.0
  0
SPLINE
  5
23A
330
18E
100
AcDbEntity
  8
P-SANR-FIXT
100
AcDbSpline
210
0.0
220
0.0
230
1.0
 70
     8
 71
     3
 72
     9
 73
     5
 74
     0
 42
0.000000001
 43
0.0000000001
 40
0.5277777777777778
 40
0.5277777777777778
 40
0.5277777777777778
 40
0.5277777777777778
 40
0.5416666666666668
 40
0.5555555555555556
 40
0.5555555555555556
 40
0.5555555555555556
 40
0.5555555555555556
 10
681.3762039304257
 20
1793.820397500299
 30
0.0
 10
681.1863578738088
 20
1793.834947474121
 30
0.0
 10
680.8101677328007
 20
1793.871478474908
 30
0.0
 10
680.4475038460655
 20
1793.921779051733
 30
0.0
 10
680.2675689524874
 20
1793.951802658011
 30
0.0
  0
SPLINE
  5
23B
330
18E
100
AcDbEntity
  8
P-SANR-FIXT
100
AcDbSpline
210
0.0
220
0.0
230
1.0
 70
     8
 71
     3
 72
     8
 73
     4
 74
     0
 42
0.000000001
 43
0.0000000001
 40
0.5810663034333409
 40
0.5810663034333409
 40
0.5810663034333409
 40
0.5810663034333409
 40
0.5833333333333334
 40
0.5833333333333334
 40
0.5833333333333334
 40
0.5833333333333334
 10
679.2879567622995
 20
1794.165868245781
 30
0.0
 10
679.259224175243
 20
1794.173628988723
 30
0.0
 10
679.2305110186307
 20
1794.181514058533
 30
0.0
 10
679.2018157105617
 20
1794.189522964614
 30
0.0
  0
SPLINE
  5
23C
330
18E
100
AcDbEntity
  8
P-SANR-FIXT
100
AcDbSpline
210
0.0
220
0.0
230
1.0
 70
     8
 71
     3
 72
     8
 73
     4
 74
     0
 42
0.000000001
 43
0.0000000001
 40
0.6111111111111112
 40
0.6111111111111112
 40
0.6111111111111112
 40
0.6111111111111112
 40
0.6388888888888889
 40
0.6388888888888889
 40
0.6388888888888889
 40
0.6388888888888889
 10
678.1596733566809
 20
1794.53511316323
 30
0.0
 10
677.8180549101912
 20
1794.665845915769
 30
0.0
 10
677.4837404207626
 20
1794.810586865353
 30
0.0
 10
677.1590898425525
 20
1794.96555892915
 30
0.0
  0
SPLINE
  5
23D
330
18E
100
AcDbEntity
  8
P-SANR-FIXT
100
AcDbSpline
210
0.0
220
0.0
230
1.0
 70
     8
 71
     3
 72
     8
 73
     4
 74
     0
 42
0.000000001
 43
0.0000000001
 40
0.6649116064030706
 40
0.6649116064030706
 40
0.6649116064030706
 40
0.6649116064030706
 40
0.6666666666666666
 40
0.6666666666666666
 40
0.6666666666666666
 40
0.6666666666666666
 10
676.2754897123151
 20
1795.422576891423
 30
0.0
 10
676.2562898216027
 20
1795.433317993339
 30
0.0
 10
676.2371313492028
 20
1795.444097783061
 30
0.0
 10
676.2180131198841
 20
1795.454918251136
 30
0.0
  0
SPLINE
  5
23E
330
18E
100
AcDbEntity
  8
P-SANR-FIXT
100
AcDbSpline
210
0.0
220
0.0
230
1.0
 70
     8
 71
     3
 72
     8
 73
     4
 74
     0
 42
0.000000001
 43
0.0000000001
 40
0.6944444444444445
 40
0.6944444444444445
 40
0.6944444444444445
 40
0.6944444444444445
 40
0.7222222222222223
 40
0.7222222222222223
 40
0.7222222222222223
 40
0.7222222222222223
 10
675.3359340957557
 20
1796.009012805322
 30
0.0
 10
675.049868661454
 20
1796.208450601453
 30
0.0
 10
674.7718878824779
 20
1796.421854275067
 30
0.0
 10
674.5050456003816
 20
1796.646602426472
 30
0.0
  0
SPLINE
  5
23F
330
18E
100
AcDbEntity
  8
P-SANR-FIXT
100
AcDbSpline
210
0.0
220
0.0
230
1.0
 70
     8
 71
     3
 72
     8
 73
     4
 74
     0
 42
0.000000001
 43
0.0000000001
 40
0.7500000000000002
 40
0.7500000000000002
 40
0.7500000000000002
 40
0.7500000000000002
 40
0.7517342623720747
 40
0.7517342623720747
 40
0.7517342623720747
 40
0.7517342623720747
 10
673.7352070665451
 20
1797.353304094869
 30
0.0
 10
673.7198213024186
 20
1797.368689234946
 30
0.0
 10
673.7044770309365
 20
1797.384118065825
 30
0.0
 10
673.6891735234969
 20
1797.399590181257
 30
0.0
  0
SPLINE
  5
240
330
18E
100
AcDbEntity
  8
P-SANR-FIXT
100
AcDbSpline
210
0.0
220
0.0
230
1.0
 70
     8
 71
     3
 72
     8
 73
     4
 74
     0
 42
0.000000001
 43
0.0000000001
 40
0.7777777777777778
 40
0.7777777777777778
 40
0.7777777777777778
 40
0.7777777777777778
 40
0.8055555555555557
 40
0.8055555555555557
 40
0.8055555555555557
 40
0.8055555555555557
 10
673.024843541533
 20
1798.124534842775
 30
0.0
 10
672.7974368106371
 20
1798.392161439378
 30
0.0
 10
672.577382237088
 20
1798.66929782287
 30
0.0
 10
672.3688756760691
 20
1798.957305057145
 30
0.0
  0
SPLINE
  5
241
330
18E
100
AcDbEntity
  8
P-SANR-FIXT
100
AcDbSpline
210
0.0
220
0.0
230
1.0
 70
     8
 71
     3
 72
     8
 73
     4
 74
     0
 42
0.000000001
 43
0.0000000001
 40
0.8333333333333332
 40
0.8333333333333332
 40
0.8333333333333332
 40
0.8333333333333332
 40
0.8888888888888889
 40
0.8888888888888889
 40
0.8888888888888889
 40
0.8888888888888889
 10
671.7821958857858
 20
1799.855300376208
 30
0.0
 10
671.4127134919149
 20
1800.47377113259
 30
0.0
 10
671.1077277746604
 20
1801.140464348723
 30
0.0
 10
670.8374113941622
 20
1801.818681145312
 30
0.0
  0
SPLINE
  5
242
330
18E
100
AcDbEntity
  8
P-SANR-FIXT
100
AcDbSpline
210
0.0
220
0.0
230
1.0
 70
     8
 71
     3
 72
     8
 73
     4
 74
     0
 42
0.000000001
 43
0.0000000001
 40
0.9166666666666669
 40
0.9166666666666669
 40
0.9166666666666669
 40
0.9166666666666669
 40
0.9204917155846171
 40
0.9204917155846171
 40
0.9204917155846171
 40
0.9204917155846171
 10
670.5034478346483
 20
1802.865477528884
 30
0.0
 10
670.4902621448487
 20
1802.914431711348
 30
0.0
 10
670.4771054299714
 20
1802.963399394812
 30
0.0
 10
670.4640804812749
 20
1803.012428860957
 30
0.0
  0
SPLINE
  5
243
330
18E
100
AcDbEntity
  8
P-SANR-FIXT
100
AcDbSpline
210
0.0
220
0.0
230
1.0
 70
     8
 71
     3
 72
     8
 73
     4
 74
     0
 42
0.000000001
 43
0.0000000001
 40
0.9444444444444444
 40
0.9444444444444444
 40
0.9444444444444444
 40
0.9444444444444444
 40
0.9722222222222224
 40
0.9722222222222224
 40
0.9722222222222224
 40
0.9722222222222224
 10
670.2601332762301
 20
1803.952630995035
 30
0.0
 10
670.1932213885794
 20
1804.322040758656
 30
0.0
 10
670.1544666308154
 20
1804.704054782984
 30
0.0
 10
670.1226939554175
 20
1805.08936532112
 30
0.0
  0
SPLINE
  5
244
330
18E
100
AcDbEntity
  8
P-SANR-FIXT
100
AcDbSpline
210
0.0
220
0.0
230
1.0
 70
     8
 71
     3
 72
    25
 73
    21
 74
     0
 42
0.000000001
 43
0.0000000001
 40
0.0
 40
0.0
 40
0.0
 40
0.0
 40
0.1111111111111111
 40
0.2222222222222222
 40
0.2777777777777778
 40
0.3333333333333333
 40
0.3611111111111111
 40
0.3888888888888888
 40
0.4444444444444445
 40
0.4791666666666666
 40
0.5138888888888889
 40
0.5486111111111111
 40
0.5833333333333333
 40
0.6180555555555555
 40
0.6527777777777777
 40
0.6875
 40
0.7222222222222223
 40
0.7916666666666668
 40
0.861111111111111
 40
1.0
 40
1.0
 40
1.0
 40
1.0
 10
673.7771471288001
 20
1789.495878730052
 30
0.0
 10
673.795575906437
 20
1789.495878730052
 30
0.0
 10
674.1463235405817
 20
1789.697743275337
 30
0.0
 10
675.4521591053094
 20
1790.325636433695
 30
0.0
 10
676.8684516855556
 20
1790.895999381586
 30
0.0
 10
677.8970843162866
 20
1791.243148798076
 30
0.0
 10
678.7846568829614
 20
1791.48261163654
 30
0.0
 10
679.7372010315532
 20
1791.704081343499
 30
0.0
 10
680.7856352219864
 20
1791.877675618179
 30
0.0
 10
681.930046140659
 20
1791.956053871736
 30
0.0
 10
682.9232227436127
 20
1791.962591308883
 30
0.0
 10
683.8919398684468
 20
1791.908394942905
 30
0.0
 10
684.8161508512401
 20
1791.790898553222
 30
0.0
 10
685.7393043024885
 20
1791.611558716548
 30
0.0
 10
686.6139471043925
 20
1791.39487993724
 30
0.0
 10
687.4105072117816
 20
1791.159738564524
 30
0.0
 10
688.420982431225
 20
1790.806545494388
 30
0.0
 10
689.4935074278857
 20
1790.364939543187
 30
0.0
 10
690.8468375967284
 20
1789.733218889283
 30
0.0
 10
691.2543405643837
 20
1789.495878730052
 30
0.0
 10
691.2771471288002
 20
1789.495878730052
 30
0.0
  0
SPLINE
  5
245
330
18E
100
AcDbEntity
  8
P-SANR-FIXT
100
AcDbSpline
210
0.0
220
0.0
230
1.0
 70
     8
 71
     3
 72
     8
 73
     4
 74
     0
 42
0.000000001
 43
0.0000000001
 40
0.0277777777777778
 40
0.0277777777777778
 40
0.0277777777777778
 40
0.0277777777777778
 40
0.0555555555555556
 40
0.0555555555555556
 40
0.0555555555555556
 40
0.0555555555555556
 10
670.1004919876209
 20
1807.410112436345
 30
0.0
 10
670.1392857726652
 20
1807.792566968367
 30
0.0
 10
670.1924622960079
 20
1808.169151554128
 30
0.0
 10
670.2601332762301
 20
1808.539126465069
 30
0.0
  0
SPLINE
  5
246
330
18E
100
AcDbEntity
  8
P-SANR-FIXT
100
AcDbSpline
210
0.0
220
0.0
230
1.0
 70
     8
 71
     3
 72
     8
 73
     4
 74
     0
 42
0.000000001
 43
0.0000000001
 40
0.07950828441538
 40
0.07950828441538
 40
0.07950828441538
 40
0.07950828441538
 40
0.0833333333333333
 40
0.0833333333333333
 40
0.0833333333333333
 40
0.0833333333333333
 10
670.4669503526498
 20
1809.480674283472
 30
0.0
 10
670.4796193987318
 20
1809.529923973552
 30
0.0
 10
670.492548672023
 20
1809.579028076979
 30
0.0
 10
670.5057358388835
 20
1809.62798335912
 30
0.0
  0
SPLINE
  5
247
330
18E
100
AcDbEntity
  8
P-SANR-FIXT
100
AcDbSpline
210
0.0
220
0.0
230
1.0
 70
     8
 71
     3
 72
     8
 73
     4
 74
     0
 42
0.000000001
 43
0.0000000001
 40
0.1111111111111111
 40
0.1111111111111111
 40
0.1111111111111111
 40
0.1111111111111111
 40
0.1666666666666666
 40
0.1666666666666666
 40
0.1666666666666666
 40
0.1666666666666666
 10
670.8374113941623
 20
1810.673076314792
 30
0.0
 10
671.0904965069511
 20
1811.356892216466
 30
0.0
 10
671.4122844310954
 20
1812.017666890093
 30
0.0
 10
671.7821958857858
 20
1812.636457083896
 30
0.0
  0
SPLINE
  5
248
330
18E
100
AcDbEntity
  8
P-SANR-FIXT
100
AcDbSpline
210
0.0
220
0.0
230
1.0
 70
     8
 71
     3
 72
     8
 73
     4
 74
     0
 42
0.000000001
 43
0.0000000001
 40
0.1944444444444444
 40
0.1944444444444444
 40
0.1944444444444444
 40
0.1944444444444444
 40
0.2222222222222222
 40
0.2222222222222222
 40
0.2222222222222222
 40
0.2222222222222222
 10
672.3717235532358
 20
1813.533197563669
 30
0.0
 10
672.5793088833588
 20
1813.821643969596
 30
0.0
 10
672.797492933623
 20
1814.099637804503
 30
0.0
 10
673.024843541533
 20
1814.367222617329
 30
0.0
  0
SPLINE
  5
249
330
18E
100
AcDbEntity
  8
P-SANR-FIXT
100
AcDbSpline
210
0.0
220
0.0
230
1.0
 70
     8
 71
     3
 72
     8
 73
     4
 74
     0
 42
0.000000001
 43
0.0000000001
 40
0.2482657376279241
 40
0.2482657376279241
 40
0.2482657376279241
 40
0.2482657376279241
 40
0.25
 40
0.25
 40
0.25
 40
0.25
 10
673.6891139717652
 20
1815.092133895535
 30
0.0
 10
673.7044232365792
 20
1815.107603238362
 30
0.0
 10
673.7197710185246
 20
1815.123030788607
 30
0.0
 10
673.7351575031555
 20
1815.138416465102
 30
0.0
  0
SPLINE
  5
24A
330
18E
100
AcDbEntity
  8
P-SANR-FIXT
100
AcDbSpline
210
0.0
220
0.0
230
1.0
 70
     8
 71
     3
 72
     8
 73
     4
 74
     0
 42
0.000000001
 43
0.0000000001
 40
0.2777777777777778
 40
0.2777777777777778
 40
0.2777777777777778
 40
0.2777777777777778
 40
0.3055555555555556
 40
0.3055555555555556
 40
0.3055555555555556
 40
0.3055555555555556
 10
674.5050456003816
 20
1815.845155033633
 30
0.0
 10
674.772112298694
 20
1816.069769660297
 30
0.0
 10
675.0498704845617
 20
1816.283308215962
 30
0.0
 10
675.3359340957557
 20
1816.482744654783
 30
0.0
  0
SPLINE
  5
24B
330
18E
100
AcDbEntity
  8
P-SANR-FIXT
100
AcDbSpline
210
0.0
220
0.0
230
1.0
 70
     8
 71
     3
 72
     8
 73
     4
 74
     0
 42
0.000000001
 43
0.0000000001
 40
0.3333333333333333
 40
0.3333333333333333
 40
0.3333333333333333
 40
0.3333333333333333
 40
0.3350883935969247
 40
0.3350883935969247
 40
0.3350883935969247
 40
0.3350883935969247
 10
676.2180131198841
 20
1817.036839208969
 30
0.0
 10
676.2371312982727
 20
1817.047659703278
 30
0.0
 10
676.256289806841
 20
1817.058439455775
 30
0.0
 10
676.2754896925949
 20
1817.069180554
 30
0.0
  0
SPLINE
  5
24C
330
18E
100
AcDbEntity
  8
P-SANR-FIXT
100
AcDbSpline
210
0.0
220
0.0
230
1.0
 70
     8
 71
     3
 72
     8
 73
     4
 74
     0
 42
0.000000001
 43
0.0000000001
 40
0.3611111111111111
 40
0.3611111111111111
 40
0.3611111111111111
 40
0.3611111111111111
 40
0.3888888888888888
 40
0.3888888888888888
 40
0.3888888888888888
 40
0.3888888888888888
 10
677.1590898425527
 20
1817.526198530954
 30
0.0
 10
677.4837400727824
 20
1817.681170839784
 30
0.0
 10
677.8180549068395
 20
1817.82591154184
 30
0.0
 10
678.1596733566809
 20
1817.956644296874
 30
0.0
  0
SPLINE
  5
24D
330
18E
100
AcDbEntity
  8
P-SANR-FIXT
100
AcDbSpline
210
0.0
220
0.0
230
1.0
 70
     8
 71
     3
 72
     8
 73
     4
 74
     0
 42
0.000000001
 43
0.0000000001
 40
0.4166666666666666
 40
0.4166666666666666
 40
0.4166666666666666
 40
0.4166666666666666
 40
0.4189336965666591
 40
0.4189336965666591
 40
0.4189336965666591
 40
0.4189336965666591
 10
679.2018157105617
 20
1818.30223449549
 30
0.0
 10
679.2305110182624
 20
1818.310243401774
 30
0.0
 10
679.2592241751103
 20
1818.318128471282
 30
0.0
 10
679.2879567621154
 20
1818.325889214186
 30
0.0
  0
SPLINE
  5
24E
330
18E
100
AcDbEntity
  8
P-SANR-FIXT
100
AcDbSpline
210
0.0
220
0.0
230
1.0
 70
     8
 71
     3
 72
     9
 73
     5
 74
     0
 42
0.000000001
 43
0.0000000001
 40
0.4444444444444445
 40
0.4444444444444445
 40
0.4444444444444445
 40
0.4444444444444445
 40
0.4583333333333333
 40
0.4722222222222223
 40
0.4722222222222223
 40
0.4722222222222223
 40
0.4722222222222223
 10
680.2675689524874
 20
1818.539954802093
 30
0.0
 10
680.4475038486444
 20
1818.56997840605
 30
0.0
 10
680.8101677315091
 20
1818.620278986352
 30
0.0
 10
681.1863578738133
 20
1818.656809985991
 30
0.0
 10
681.3762039304257
 20
1818.671359959805
 30
0.0
  0
SPLINE
  5
24F
330
18E
100
AcDbEntity
  8
P-SANR-FIXT
100
AcDbSpline
210
0.0
220
0.0
230
1.0
 70
     8
 71
     3
 72
     9
 73
     5
 74
     0
 42
0.000000001
 43
0.0000000001
 40
0.5277777777777778
 40
0.5277777777777778
 40
0.5277777777777778
 40
0.5277777777777778
 40
0.5416666666666668
 40
0.5555555555555556
 40
0.5555555555555556
 40
0.5555555555555556
 40
0.5555555555555556
 10
683.6822545021448
 20
1818.6709315293
 30
0.0
 10
683.8720701374561
 20
1818.656317841826
 30
0.0
 10
684.2481832727678
 20
1818.619670950884
 30
0.0
 10
684.6107530665359
 20
1818.569289784557
 30
0.0
 10
684.7906214029157
 20
1818.539238084208
 30
0.0
  0
SPLINE
  5
250
330
18E
100
AcDbEntity
  8
P-SANR-FIXT
100
AcDbSpline
210
0.0
220
0.0
230
1.0
 70
     8
 71
     3
 72
     8
 73
     4
 74
     0
 42
0.000000001
 43
0.0000000001
 40
0.5809807852136025
 40
0.5809807852136025
 40
0.5809807852136025
 40
0.5809807852136025
 40
0.5833333333333334
 40
0.5833333333333334
 40
0.5833333333333334
 40
0.5833333333333334
 10
685.7664383724755
 20
1818.326000916171
 30
0.0
 10
685.7962346553039
 20
1818.317958323524
 30
0.0
 10
685.826009545384
 20
1818.309782025963
 30
0.0
 10
685.8557648248039
 20
1818.301472557683
 30
0.0
  0
SPLINE
  5
251
330
18E
100
AcDbEntity
  8
P-SANR-FIXT
100
AcDbSpline
210
0.0
220
0.0
230
1.0
 70
     8
 71
     3
 72
     8
 73
     4
 74
     0
 42
0.000000001
 43
0.0000000001
 40
0.6111111111111112
 40
0.6111111111111112
 40
0.6111111111111112
 40
0.6111111111111112
 40
0.6388888888888889
 40
0.6388888888888889
 40
0.6388888888888889
 40
0.6388888888888889
 10
686.8970099573632
 20
1817.955989948576
 30
0.0
 10
687.2383166703854
 20
1817.825302339178
 30
0.0
 10
687.5723276326377
 20
1817.680607583224
 30
0.0
 10
687.8967348984031
 20
1817.525653584387
 30
0.0
  0
SPLINE
  5
252
330
18E
100
AcDbEntity
  8
P-SANR-FIXT
100
AcDbSpline
210
0.0
220
0.0
230
1.0
 70
     8
 71
     3
 72
     8
 73
     4
 74
     0
 42
0.000000001
 43
0.0000000001
 40
0.6648801104684683
 40
0.6648801104684683
 40
0.6648801104684683
 40
0.6648801104684683
 40
0.6666666666666666
 40
0.6666666666666666
 40
0.6666666666666666
 40
0.6666666666666666
 10
688.7788218505208
 20
1817.069165747831
 30
0.0
 10
688.7983625369828
 20
1817.058229210622
 30
0.0
 10
688.8178607513598
 20
1817.04725235652
 30
0.0
 10
688.8373177457326
 20
1817.036233070165
 30
0.0
  0
SPLINE
  5
253
330
18E
100
AcDbEntity
  8
P-SANR-FIXT
100
AcDbSpline
210
0.0
220
0.0
230
1.0
 70
     8
 71
     3
 72
     8
 73
     4
 74
     0
 42
0.000000001
 43
0.0000000001
 40
0.6944444444444445
 40
0.6944444444444445
 40
0.6944444444444445
 40
0.6944444444444445
 40
0.7222222222222223
 40
0.7222222222222223
 40
0.7222222222222223
 40
0.7222222222222223
 10
689.7194894148145
 20
1816.481737263868
 30
0.0
 10
690.0056661094737
 20
1816.282112990218
 30
0.0
 10
690.2838211120895
 20
1816.068481520124
 30
0.0
 10
690.5508382236903
 20
1815.843506013231
 30
0.0
  0
SPLINE
  5
254
330
18E
100
AcDbEntity
  8
P-SANR-FIXT
100
AcDbSpline
210
0.0
220
0.0
230
1.0
 70
     8
 71
     3
 72
     8
 73
     4
 74
     0
 42
0.000000001
 43
0.0000000001
 40
0.7500000000000002
 40
0.7500000000000002
 40
0.7500000000000002
 40
0.7500000000000002
 40
0.7516535921291722
 40
0.7516535921291722
 40
0.7516535921291722
 40
0.7516535921291722
 10
691.3211571937819
 20
1815.136165637587
 30
0.0
 10
691.335834997775
 20
1815.12148522882
 30
0.0
 10
691.350474913999
 20
1815.106765258488
 30
0.0
 10
691.3650775644344
 20
1815.092006087716
 30
0.0
  0
SPLINE
  5
255
330
18E
100
AcDbEntity
  8
P-SANR-FIXT
100
AcDbSpline
210
0.0
220
0.0
230
1.0
 70
     8
 71
     3
 72
     8
 73
     4
 74
     0
 42
0.000000001
 43
0.0000000001
 40
0.7777777777777778
 40
0.7777777777777778
 40
0.7777777777777778
 40
0.7777777777777778
 40
0.8055555555555557
 40
0.8055555555555557
 40
0.8055555555555557
 40
0.8055555555555557
 10
692.0317240675352
 20
1814.364561949372
 30
0.0
 10
692.2591210339644
 20
1814.096884915631
 30
0.0
 10
692.4790711208252
 20
1813.819786824409
 30
0.0
 10
692.6874278342872
 20
1813.531869982351
 30
0.0
  0
SPLINE
  5
256
330
18E
100
AcDbEntity
  8
P-SANR-FIXT
100
AcDbSpline
210
0.0
220
0.0
230
1.0
 70
     8
 71
     3
 72
     8
 73
     4
 74
     0
 42
0.000000001
 43
0.0000000001
 40
0.8333333333333332
 40
0.8333333333333332
 40
0.8333333333333332
 40
0.8333333333333332
 40
0.8888888888888889
 40
0.8888888888888889
 40
0.8888888888888889
 40
0.8888888888888889
 10
693.2735713606457
 20
1812.634265510315
 30
0.0
 10
693.6426653715265
 20
1812.016110928048
 30
0.0
 10
693.9472851582592
 20
1811.349788664681
 30
0.0
 10
694.2173433374497
 20
1810.671860271278
 30
0.0
  0
SPLINE
  5
257
330
18E
100
AcDbEntity
  8
P-SANR-FIXT
100
AcDbSpline
210
0.0
220
0.0
230
1.0
 70
     8
 71
     3
 72
     8
 73
     4
 74
     0
 42
0.000000001
 43
0.0000000001
 40
0.9166666666666669
 40
0.9166666666666669
 40
0.9166666666666669
 40
0.9166666666666669
 40
0.9204705589034743
 40
0.9204705589034743
 40
0.9204705589034743
 40
0.9204705589034743
 10
694.551041379416
 20
1809.625425129243
 30
0.0
 10
694.5641456715949
 20
1809.576756078545
 30
0.0
 10
694.5772215598371
 20
1809.528073558644
 30
0.0
 10
694.5901679786349
 20
1809.47933008159
 30
0.0
  0
SPLINE
  5
258
330
18E
100
AcDbEntity
  8
P-SANR-FIXT
100
AcDbSpline
210
0.0
220
0.0
230
1.0
 70
     8
 71
     3
 72
     8
 73
     4
 74
     0
 42
0.000000001
 43
0.0000000001
 40
0.9444444444444444
 40
0.9444444444444444
 40
0.9444444444444444
 40
0.9444444444444444
 40
0.9722222222222224
 40
0.9722222222222224
 40
0.9722222222222224
 40
0.9722222222222224
 10
694.7942221679455
 20
1808.538566387871
 30
0.0
 10
694.8611019790879
 20
1808.169252680874
 30
0.0
 10
694.8998473261299
 20
1807.787331097541
 30
0.0
 10
694.9316156669721
 20
1807.402112775396
 30
0.0
  0
SPLINE
  5
259
330
18E
100
AcDbEntity
  8
P-SANR-FIXT
100
AcDbSpline
210
0.0
220
0.0
230
1.0
 70
     8
 71
     3
 72
    25
 73
    21
 74
     0
 42
0.000000001
 43
0.0000000001
 40
0.0
 40
0.0
 40
0.0
 40
0.0
 40
0.1111111111111111
 40
0.2222222222222222
 40
0.2777777777777778
 40
0.3333333333333333
 40
0.3611111111111111
 40
0.3888888888888888
 40
0.4444444444444445
 40
0.4791666666666666
 40
0.5138888888888889
 40
0.5486111111111111
 40
0.5833333333333333
 40
0.6180555555555555
 40
0.6527777777777777
 40
0.6875
 40
0.7222222222222223
 40
0.7916666666666668
 40
0.861111111111111
 40
1.0
 40
1.0
 40
1.0
 40
1.0
 10
691.2771471288002
 20
1822.995878730052
 30
0.0
 10
691.2589018772672
 20
1822.995878730052
 30
0.0
 10
690.9084326254389
 20
1822.794181852462
 30
0.0
 10
689.5992761240201
 20
1822.164982669425
 30
0.0
 10
688.1843304774163
 20
1821.594988899168
 30
0.0
 10
687.1566321838137
 20
1821.248404992342
 30
0.0
 10
686.2686532875685
 20
1821.008980992851
 30
0.0
 10
685.3153512886706
 20
1820.787447814874
 30
0.0
 10
684.2661002951301
 20
1820.613743697328
 30
0.0
 10
683.1215373458668
 20
1820.53556967519
 30
0.0
 10
682.1283345321615
 20
1820.529256449441
 30
0.0
 10
681.1597474327384
 20
1820.583643611475
 30
0.0
 10
680.235956146835
 20
1820.70115076011
 30
0.0
 10
679.3136085410472
 20
1820.880390023656
 30
0.0
 10
678.4396062344996
 20
1821.097029334422
 30
0.0
 10
677.6430119447001
 20
1821.33234903735
 30
0.0
 10
676.6315452592031
 20
1821.686083133133
 30
0.0
 10
675.5581575312366
 20
1822.127860070657
 30
0.0
 10
674.207704134604
 20
1822.75841925881
 30
0.0
 10
673.8001831008463
 20
1822.995878730052
 30
0.0
 10
673.7771471288001
 20
1822.995878730052
 30
0.0
  0
ARC
  5
25A
330
18E
100
AcDbEntity
  8
P-SANR-FIXT
100
AcDbCircle
 10
649.9980267811069
 20
1806.250272563259
 30
0.0
 40
50.89995541273889
100
AcDbArc
 50
357.7431609041993
 51
359.9950540605204
  0
ARC
  5
25B
330
18E
100
AcDbEntity
  8
P-SANR-FIXT
100
AcDbCircle
 10
649.9980267811003
 20
1806.241484896845
 30
0.0
 40
50.89995541274547
100
AcDbArc
 50
0.0049459394789507
 51
2.256839095800032
  0
ELLIPSE
  5
25C
330
18E
100
AcDbEntity
  8
P-SANR-FIXT
100
AcDbEllipse
 10
673.5696909959333
 20
1806.245878730052
 30
0.0
 11
0.0
 21
18.99999999999965
 31
0.0
210
0.0
220
0.0
230
1.0
 40
0.57357643635105
 41
2.650718801466383
 42
3.141592653589788
  0
ELLIPSE
  5
25D
330
18E
100
AcDbEntity
  8
P-SANR-FIXT
100
AcDbEllipse
 10
673.5696909959333
 20
1806.245878730052
 30
0.0
 11
0.0
 21
18.99999999999977
 31
0.0
210
0.0
220
0.0
230
1.0
 40
0.5735764363510411
 41
0.0000000000000016
 42
0.4908738521234078
  0
ELLIPSE
  5
25E
330
18E
100
AcDbEntity
  8
P-SANR-FIXT
100
AcDbEllipse
 10
667.0164746416214
 20
1806.245878730052
 30
0.0
 11
0.0
 21
9.499999999999809
 31
0.0
210
0.0
220
0.0
230
1.0
 40
0.5735764363510353
 41
4.074197433972012
 42
4.077002077936551
  0
ELLIPSE
  5
25F
330
18E
100
AcDbEntity
  8
P-SANR-FIXT
100
AcDbEllipse
 10
667.0164746416214
 20
1806.245878730052
 30
0.0
 11
0.0
 21
9.499999999999905
 31
0.0
210
0.0
220
0.0
230
1.0
 40
0.573576436351038
 41
5.347775882832858
 42
5.350580526797378
  0
ARC
  5
260
330
18E
100
AcDbEntity
  8
P-SANR-FIXT
100
AcDbCircle
 10
682.5271471288004
 20
1806.245878730052
 30
0.0
 40
12.50000000000011
100
AcDbArc
 50
179.9999999999995
 51
359.9999999999992
  0
ARC
  5
261
330
18E
100
AcDbEntity
  8
P-SANR-FIXT
100
AcDbCircle
 10
682.5271471288004
 20
1806.245878730052
 30
0.0
 40
12.5
100
AcDbArc
 50
0.0
 51
180.0
  0
LINE
  5
262
330
18E
100
AcDbEntity
  8
P-SANR-FIXT
100
AcDbLine
 10
673.7771471288001
 20
1831.745878730052
 30
0.0
 11
691.2771471288002
 21
1831.745878730052
 31
0.0
  0
LINE
  5
263
330
18E
100
AcDbEntity
  8
P-SANR-FIXT
100
AcDbLine
 10
691.2771471288002
 20
1780.745878730052
 30
0.0
 11
673.7771471288001
 21
1780.745878730052
 31
0.0
  0
LINE
  5
264
330
18E
100
AcDbEntity
  8
P-SANR-FIXT
100
AcDbLine
 10
700.8585012812549
 20
1808.245878730052
 30
0.0
 11
714.0087846100994
 21
1808.245878730052
 31
0.0
  0
LINE
  5
265
330
18E
100
AcDbEntity
  8
P-SANR-FIXT
100
AcDbLine
 10
714.0087846100994
 20
1804.245878730052
 30
0.0
 11
700.8585012812549
 21
1804.245878730052
 31
0.0
  0
LINE
  5
266
330
18E
100
AcDbEntity
  8
P-SANR-FIXT
100
AcDbLine
 10
767.5271471288002
 20
1788.245878730052
 30
0.0
 11
767.5271471288003
 21
1798.23792954695
 31
0.0
  0
LINE
  5
267
330
18E
100
AcDbEntity
  8
P-SANR-FIXT
100
AcDbLine
 10
767.5271471288003
 20
1814.253827913153
 30
0.0
 11
767.5271471288002
 21
1824.245878730052
 31
0.0
  0
LINE
  5
268
330
18E
100
AcDbEntity
  8
P-SANR-FIXT
100
AcDbLine
 10
782.5271471288004
 20
1818.995878730052
 30
0.0
 11
782.5271471288004
 21
1814.245878730052
 31
0.0
  0
LINE
  5
269
330
18E
100
AcDbEntity
  8
P-SANR-FIXT
100
AcDbLine
 10
782.5271471288004
 20
1798.245878730052
 30
0.0
 11
782.5271471288004
 21
1793.495878730052
 31
0.0
  0
LINE
  5
26A
330
18E
100
AcDbEntity
  8
P-SANR-FIXT
100
AcDbLine
 10
782.5271471288004
 20
1793.495878730052
 30
0.0
 11
767.5271471288002
 21
1793.495878730052
 31
0.0
  0
LINE
  5
26B
330
18E
100
AcDbEntity
  8
P-SANR-FIXT
100
AcDbLine
 10
782.5271471288004
 20
1818.995878730052
 30
0.0
 11
767.5271471288002
 21
1818.995878730052
 31
0.0
  0
LINE
  5
26C
330
18E
100
AcDbEntity
  8
P-SANR-FIXT
100
AcDbLine
 10
726.3872540024543
 20
1794.60146094425
 30
0.0
 11
726.3872540024543
 21
1793.190611595541
 31
0.0
  0
LWPOLYLINE
  5
26D
330
18E
100
AcDbEntity
  8
P-SANR-FIXT
100
AcDbPolyline
 90
        3
 70
   128
 43
0.0
 10
723.9071088331747
 20
1797.605380729678
 10
725.0548717506934
 20
1795.951390781084
 10
726.3872540024543
 20
1794.60146094425
  0
LINE
  5
26E
330
18E
100
AcDbEntity
  8
P-SANR-FIXT
100
AcDbLine
 10
723.4645575912928
 20
1797.54623811597
 30
0.0
 11
723.9071088331747
 21
1797.605380729678
 31
0.0
  0
LINE
  5
26F
330
18E
100
AcDbEntity
  8
P-SANR-FIXT
100
AcDbLine
 10
726.3872540024543
 20
1819.301145864563
 30
0.0
 11
726.3872540024543
 21
1817.890296515854
 31
0.0
  0
LINE
  5
270
330
18E
100
AcDbEntity
  8
P-SANR-FIXT
100
AcDbLine
 10
723.9071088331747
 20
1814.886376730426
 30
0.0
 11
723.4645575912933
 21
1814.945519344135
 31
0.0
  0
LWPOLYLINE
  5
271
330
18E
100
AcDbEntity
  8
P-SANR-FIXT
100
AcDbPolyline
 90
        3
 70
   128
 43
0.0
 10
726.3872540024543
 20
1817.890296515854
 10
725.0548717506934
 20
1816.54036667902
 10
723.9071088331747
 20
1814.886376730426
  0
SPLINE
  5
272
330
18E
100
AcDbEntity
  8
P-SANR-FIXT
100
AcDbSpline
210
0.0
220
0.0
230
1.0
 70
     8
 71
     3
 72
    12
 73
     8
 74
     0
 42
0.000000001
 43
0.0000000001
 40
0.0
 40
0.0
 40
0.0
 40
0.0
 40
0.2857142857142857
 40
0.4285714285714286
 40
0.5714285714285714
 40
0.7857142857142857
 40
1.0
 40
1.0
 40
1.0
 40
1.0
 10
726.3872540024543
 20
1793.190611595541
 30
0.0
 10
726.3869130739167
 20
1792.716361545401
 30
0.0
 10
726.2610785620116
 20
1792.023370428236
 30
0.0
 10
725.8735261414791
 20
1791.213914551794
 30
0.0
 10
725.4377895143339
 20
1790.616138628751
 30
0.0
 10
724.8505297829146
 20
1790.127303661293
 30
0.0
 10
724.4140970509901
 20
1789.967843281708
 30
0.0
 10
724.2060638505119
 20
1789.940509770086
 30
0.0
  0
SPLINE
  5
273
330
18E
100
AcDbEntity
  8
P-SANR-FIXT
100
AcDbSpline
210
0.0
220
0.0
230
1.0
 70
     8
 71
     3
 72
     8
 73
     4
 74
     0
 42
0.000000001
 43
0.0000000001
 40
0.0
 40
0.0
 40
0.0
 40
0.0
 40
0.1428571428571428
 40
0.1428571428571428
 40
0.1428571428571428
 40
0.1428571428571428
 10
717.770286625854
 20
1798.901848626934
 30
0.0
 10
718.0039194830369
 20
1798.750520419543
 30
0.0
 10
718.2481458219117
 20
1798.608537740305
 30
0.0
 10
718.4995901723806
 20
1798.47812492944
 30
0.0
  0
SPLINE
  5
274
330
18E
100
AcDbEntity
  8
P-SANR-FIXT
100
AcDbSpline
210
0.0
220
0.0
230
1.0
 70
     8
 71
     3
 72
     8
 73
     4
 74
     0
 42
0.000000001
 43
0.0000000001
 40
0.273443589436174
 40
0.273443589436174
 40
0.273443589436174
 40
0.273443589436174
 40
0.2857142857142857
 40
0.2857142857142857
 40
0.2857142857142857
 40
0.2857142857142857
 10
719.2046455007901
 20
1798.151193793924
 30
0.0
 10
719.2271344872679
 20
1798.141968510397
 30
0.0
 10
719.2496673691817
 20
1798.132828588601
 30
0.0
 10
719.2722017884713
 20
1798.123820442187
 30
0.0
  0
SPLINE
  5
275
330
18E
100
AcDbEntity
  8
P-SANR-FIXT
100
AcDbSpline
210
0.0
220
0.0
230
1.0
 70
     8
 71
     3
 72
     8
 73
     4
 74
     0
 42
0.000000001
 43
0.0000000001
 40
0.4285714285714286
 40
0.4285714285714286
 40
0.4285714285714286
 40
0.4285714285714286
 40
0.5714285714285714
 40
0.5714285714285714
 40
0.5714285714285714
 40
0.5714285714285714
 10
720.0652794443244
 20
1797.850045948854
 30
0.0
 10
720.3295047515628
 20
1797.772574714719
 30
0.0
 10
720.5868926802099
 20
1797.711761188458
 30
0.0
 10
720.845624273277
 20
1797.658971202522
 30
0.0
  0
SPLINE
  5
276
330
18E
100
AcDbEntity
  8
P-SANR-FIXT
100
AcDbSpline
210
0.0
220
0.0
230
1.0
 70
     8
 71
     3
 72
     8
 73
     4
 74
     0
 42
0.000000001
 43
0.0000000001
 40
0.7142857142857143
 40
0.7142857142857143
 40
0.7142857142857143
 40
0.7142857142857143
 40
0.7181685026929006
 40
0.7181685026929006
 40
0.7181685026929006
 40
0.7181685026929006
 10
721.5778754104375
 20
1797.547570798217
 30
0.0
 10
721.5841893553508
 20
1797.546882024646
 30
0.0
 10
721.5905056340179
 20
1797.546195790669
 30
0.0
 10
721.5968221133659
 20
1797.545512923744
 30
0.0
  0
SPLINE
  5
277
330
18E
100
AcDbEntity
  8
P-SANR-FIXT
100
AcDbSpline
210
0.0
220
0.0
230
1.0
 70
     8
 71
     3
 72
    12
 73
     8
 74
     0
 42
0.000000001
 43
0.0000000001
 40
0.0
 40
0.0
 40
0.0
 40
0.0
 40
0.2857142857142857
 40
0.4285714285714286
 40
0.5714285714285714
 40
0.7857142857142857
 40
1.0
 40
1.0
 40
1.0
 40
1.0
 10
724.2060638505119
 20
1822.551247690018
 30
0.0
 10
724.4834414511494
 20
1822.514803007855
 30
0.0
 10
724.9305840011946
 20
1822.318999053751
 30
0.0
 10
725.4999913489282
 20
1821.789990788667
 30
0.0
 10
725.9360540529028
 20
1821.192692671268
 30
0.0
 10
726.2940386643448
 20
1820.350431355748
 30
0.0
 10
726.3869983060511
 20
1819.656833402168
 30
0.0
 10
726.3872540024543
 20
1819.301145864563
 30
0.0
  0
SPLINE
  5
278
330
18E
100
AcDbEntity
  8
P-SANR-FIXT
100
AcDbSpline
210
0.0
220
0.0
230
1.0
 70
     8
 71
     3
 72
     8
 73
     4
 74
     0
 42
0.000000001
 43
0.0000000001
 40
0.2818314973071365
 40
0.2818314973071365
 40
0.2818314973071365
 40
0.2818314973071365
 40
0.2857142857142857
 40
0.2857142857142857
 40
0.2857142857142857
 40
0.2857142857142857
 10
721.5963972258962
 20
1814.946254496123
 30
0.0
 10
721.5901206946262
 20
1814.945576837055
 30
0.0
 10
721.5838337750239
 20
1814.944892772252
 30
0.0
 10
721.5775364414813
 20
1814.944196932011
 30
0.0
  0
SPLINE
  5
279
330
18E
100
AcDbEntity
  8
P-SANR-FIXT
100
AcDbSpline
210
0.0
220
0.0
230
1.0
 70
     8
 71
     3
 72
     8
 73
     4
 74
     0
 42
0.000000001
 43
0.0000000001
 40
0.4285714285714286
 40
0.4285714285714286
 40
0.4285714285714286
 40
0.4285714285714286
 40
0.5714285714285714
 40
0.5714285714285714
 40
0.5714285714285714
 40
0.5714285714285714
 10
720.8462367699073
 20
1814.832299125841
 30
0.0
 10
720.5923466862138
 20
1814.782634188028
 30
0.0
 10
720.3319016892922
 20
1814.716110163495
 30
0.0
 10
720.0658956704714
 20
1814.642588875036
 30
0.0
  0
SPLINE
  5
27A
330
18E
100
AcDbEntity
  8
P-SANR-FIXT
100
AcDbSpline
210
0.0
220
0.0
230
1.0
 70
     8
 71
     3
 72
     8
 73
     4
 74
     0
 42
0.000000001
 43
0.0000000001
 40
0.7142857142857143
 40
0.7142857142857143
 40
0.7142857142857143
 40
0.7142857142857143
 40
0.7282542173547978
 40
0.7282542173547978
 40
0.7282542173547978
 40
0.7282542173547978
 10
719.2716567043783
 20
1814.367568454881
 30
0.0
 10
719.2459269484036
 20
1814.357260616387
 30
0.0
 10
719.2201626037938
 20
1814.346929875452
 30
0.0
 10
719.1944095006858
 20
1814.33651690941
 30
0.0
  0
SPLINE
  5
27B
330
18E
100
AcDbEntity
  8
P-SANR-FIXT
100
AcDbSpline
210
0.0
220
0.0
230
1.0
 70
     8
 71
     3
 72
     8
 73
     4
 74
     0
 42
0.000000001
 43
0.0000000001
 40
0.8571428571428569
 40
0.8571428571428569
 40
0.8571428571428569
 40
0.8571428571428569
 40
1.0
 40
1.0
 40
1.0
 40
1.0
 10
718.498376939288
 20
1814.013215736661
 30
0.0
 10
718.2473437598115
 20
1813.882976348528
 30
0.0
 10
718.0039194830369
 20
1813.741237040561
 30
0.0
 10
717.7702866258539
 20
1813.589908833171
 30
0.0
  0
LINE
  5
27C
330
18E
100
AcDbEntity
  8
P-SANR-FIXT
100
AcDbLine
 10
722.9564329145262
 20
1797.256122686968
 30
0.0
 11
730.0978613430692
 21
1801.379228312585
 31
0.0
  0
ARC
  5
27D
330
18E
100
AcDbEntity
  8
P-SANR-FIXT
100
AcDbCircle
 10
722.5271471287978
 20
1806.245878730052
 30
0.0
 40
8.999999999999895
100
AcDbArc
 50
327.2660444507323
 51
332.7339555492678
  0
LINE
  5
27E
330
18E
100
AcDbEntity
  8
P-SANR-FIXT
100
AcDbLine
 10
730.5271471287977
 20
1802.122773104434
 30
0.0
 11
730.527147128798
 21
1810.36898435567
 31
0.0
  0
ARC
  5
27F
330
18E
100
AcDbEntity
  8
P-SANR-FIXT
100
AcDbCircle
 10
722.5271471287978
 20
1806.245878730052
 30
0.0
 40
8.999999999999937
100
AcDbArc
 50
27.26604445073229
 51
32.73395554926674
  0
LINE
  5
280
330
18E
100
AcDbEntity
  8
P-SANR-FIXT
100
AcDbLine
 10
730.0978613430693
 20
1811.112529147519
 30
0.0
 11
722.9564329145266
 21
1815.235634773136
 31
0.0
  0
ARC
  5
281
330
18E
100
AcDbEntity
  8
P-SANR-FIXT
100
AcDbCircle
 10
722.5271471287978
 20
1806.245878730052
 30
0.0
 40
8.999999999999948
100
AcDbArc
 50
87.26604445073149
 51
92.7339555492656
  0
LINE
  5
282
330
18E
100
AcDbEntity
  8
P-SANR-FIXT
100
AcDbLine
 10
722.0978613430694
 20
1815.235634773136
 30
0.0
 11
714.9564329145265
 21
1811.112529147519
 31
0.0
  0
ARC
  5
283
330
18E
100
AcDbEntity
  8
P-SANR-FIXT
100
AcDbCircle
 10
722.5271471287978
 20
1806.245878730052
 30
0.0
 40
9.000000000000049
100
AcDbArc
 50
147.266044450731
 51
152.7339555492655
  0
LINE
  5
284
330
18E
100
AcDbEntity
  8
P-SANR-FIXT
100
AcDbLine
 10
714.5271471287978
 20
1810.36898435567
 30
0.0
 11
714.5271471287977
 21
1802.122773104435
 31
0.0
  0
ARC
  5
285
330
18E
100
AcDbEntity
  8
P-SANR-FIXT
100
AcDbCircle
 10
722.5271471287978
 20
1806.245878730052
 30
0.0
 40
9.0
100
AcDbArc
 50
207.2660444507312
 51
212.7339555492657
  0
LINE
  5
286
330
18E
100
AcDbEntity
  8
P-SANR-FIXT
100
AcDbLine
 10
714.9564329145264
 20
1801.379228312586
 30
0.0
 11
722.0978613430692
 21
1797.256122686968
 31
0.0
  0
ARC
  5
287
330
18E
100
AcDbEntity
  8
P-SANR-FIXT
100
AcDbCircle
 10
722.5271471287978
 20
1806.245878730052
 30
0.0
 40
8.999999999999957
100
AcDbArc
 50
267.2660444507319
 51
272.7339555492667
  0
LINE
  5
288
330
18E
100
AcDbEntity
  8
P-SANR-FIXT
100
AcDbLine
 10
682.9564329145288
 20
1797.256122686968
 30
0.0
 11
690.0978613430716
 21
1801.379228312585
 31
0.0
  0
ARC
  5
289
330
18E
100
AcDbEntity
  8
P-SANR-FIXT
100
AcDbCircle
 10
682.5271471288001
 20
1806.245878730052
 30
0.0
 40
9.000000000000097
100
AcDbArc
 50
327.2660444507345
 51
332.733955549267
  0
LINE
  5
28A
330
18E
100
AcDbEntity
  8
P-SANR-FIXT
100
AcDbLine
 10
690.5271471288003
 20
1802.122773104434
 30
0.0
 11
690.5271471288003
 21
1810.36898435567
 31
0.0
  0
ARC
  5
28B
330
18E
100
AcDbEntity
  8
P-SANR-FIXT
100
AcDbCircle
 10
682.5271471288001
 20
1806.245878730052
 30
0.0
 40
9.000000000000191
100
AcDbArc
 50
27.26604445073296
 51
32.73395554926669
  0
LINE
  5
28C
330
18E
100
AcDbEntity
  8
P-SANR-FIXT
100
AcDbLine
 10
690.0978613430716
 20
1811.112529147519
 30
0.0
 11
682.9564329145288
 21
1815.235634773136
 31
0.0
  0
ARC
  5
28D
330
18E
100
AcDbEntity
  8
P-SANR-FIXT
100
AcDbCircle
 10
682.5271471288001
 20
1806.245878730052
 30
0.0
 40
9.000000000000065
100
AcDbArc
 50
87.26604445073155
 51
92.73395554926629
  0
LINE
  5
28E
330
18E
100
AcDbEntity
  8
P-SANR-FIXT
100
AcDbLine
 10
682.0978613430717
 20
1815.235634773136
 30
0.0
 11
674.9564329145288
 21
1811.112529147519
 31
0.0
  0
ARC
  5
28F
330
18E
100
AcDbEntity
  8
P-SANR-FIXT
100
AcDbCircle
 10
682.5271471288001
 20
1806.245878730052
 30
0.0
 40
9.0
100
AcDbArc
 50
147.2660444507323
 51
152.7339555492663
  0
LINE
  5
290
330
18E
100
AcDbEntity
  8
P-SANR-FIXT
100
AcDbLine
 10
674.5271471288003
 20
1810.36898435567
 30
0.0
 11
674.5271471288003
 21
1802.122773104435
 31
0.0
  0
ARC
  5
291
330
18E
100
AcDbEntity
  8
P-SANR-FIXT
100
AcDbCircle
 10
682.5271471288001
 20
1806.245878730052
 30
0.0
 40
8.999999999999904
100
AcDbArc
 50
207.2660444507312
 51
212.7339555492667
  0
LINE
  5
292
330
18E
100
AcDbEntity
  8
P-SANR-FIXT
100
AcDbLine
 10
674.9564329145288
 20
1801.379228312585
 30
0.0
 11
682.0978613430716
 21
1797.256122686968
 31
0.0
  0
ARC
  5
293
330
18E
100
AcDbEntity
  8
P-SANR-FIXT
100
AcDbCircle
 10
682.5271471288001
 20
1806.245878730052
 30
0.0
 40
8.999999999999969
100
AcDbArc
 50
267.2660444507333
 51
272.7339555492681
  0
LINE
  5
294
330
18E
100
AcDbEntity
  8
P-SANR-FIXT
100
AcDbLine
 10
626.0271471287511
 20
1820.46968314363
 30
0.0
 11
626.0271471287511
 21
1820.495878730045
 31
0.0
  0
LINE
  5
295
330
18E
100
AcDbEntity
  8
P-SANR-FIXT
100
AcDbLine
 10
626.0271471287511
 20
1791.995878730039
 30
0.0
 11
626.0271471287511
 21
1792.022074316454
 31
0.0
  0
LINE
  5
296
330
18E
100
AcDbEntity
  8
P-SANR-FIXT
100
AcDbLine
 10
626.0271471287511
 20
1792.022074316454
 30
0.0
 11
626.0271471287511
 21
1798.386035347039
 31
0.0
  0
LINE
  5
297
330
18E
100
AcDbEntity
  8
P-SANR-FIXT
100
AcDbLine
 10
626.0271471287511
 20
1798.386035347039
 30
0.0
 11
626.0271471287511
 21
1799.881917699456
 31
0.0
  0
LINE
  5
298
330
18E
100
AcDbEntity
  8
P-SANR-FIXT
100
AcDbLine
 10
626.0271471287511
 20
1799.881917699456
 30
0.0
 11
626.0271471287511
 21
1812.609839760627
 31
0.0
  0
LINE
  5
299
330
18E
100
AcDbEntity
  8
P-SANR-FIXT
100
AcDbLine
 10
626.0271471287511
 20
1812.609839760627
 30
0.0
 11
626.0271471287511
 21
1814.105722113044
 31
0.0
  0
LINE
  5
29A
330
18E
100
AcDbEntity
  8
P-SANR-FIXT
100
AcDbLine
 10
626.0271471287511
 20
1814.105722113044
 30
0.0
 11
626.0271471287511
 21
1820.46968314363
 31
0.0
  0
LINE
  5
29B
330
18E
100
AcDbEntity
  8
P-SANR-FIXT
100
AcDbLine
 10
626.0271471287511
 20
1820.46968314363
 30
0.0
 11
639.027147128744
 21
1820.46968314363
 31
0.0
  0
LINE
  5
29C
330
18E
100
AcDbEntity
  8
P-SANR-FIXT
100
AcDbLine
 10
639.027147128744
 20
1792.022074316454
 30
0.0
 11
626.0271471287511
 21
1792.022074316454
 31
0.0
  0
LINE
  5
29D
330
18E
100
AcDbEntity
  8
P-SANR-FIXT
100
AcDbLine
 10
639.027147128744
 20
1798.386035347039
 30
0.0
 11
626.0271471287511
 21
1798.386035347039
 31
0.0
  0
LINE
  5
29E
330
18E
100
AcDbEntity
  8
P-SANR-FIXT
100
AcDbLine
 10
639.027147128744
 20
1799.881917699456
 30
0.0
 11
626.0271471287511
 21
1799.881917699456
 31
0.0
  0
LINE
  5
29F
330
18E
100
AcDbEntity
  8
P-SANR-FIXT
100
AcDbLine
 10
639.027147128744
 20
1812.609839760627
 30
0.0
 11
626.0271471287511
 21
1812.609839760627
 31
0.0
  0
LINE
  5
2A0
330
18E
100
AcDbEntity
  8
P-SANR-FIXT
100
AcDbLine
 10
639.027147128744
 20
1814.105722113044
 30
0.0
 11
626.0271471287511
 21
1814.105722113044
 31
0.0
  0
ENDBLK
  5
2A2
330
18E
100
AcDbEntity
  8
0
100
AcDbBlockEnd
  0
BLOCK
  5
316
330
2A4
100
AcDbEntity
  8
0
100
AcDbBlockBegin
  2
Automatic flow rate regulator valve_Caleffi_121 DN15 - 1_2__-V2-Est - Idraulica
 70
     0
 10
0.0
 20
0.0
 30
0.0
  3
Automatic flow rate regulator valve_Caleffi_121 DN15 - 1_2__-V2-Est - Idraulica
  1

  0
LINE
  5
2A5
330
2A4
100
AcDbEntity
  8
M-PIPE
100
AcDbLine
 10
1075.114353943097
 20
2050.002558850007
 30
0.0
 11
1075.114353943097
 21
2034.002558850043
 31
0.0
1001
REVIT
1002
{
1070
     3
1000
856288
1002
}
  0
LINE
  5
2A6
330
2A4
100
AcDbEntity
  8
M-PIPE
100
AcDbLine
 10
1075.114353943097
 20
2034.002558850043
 30
0.0
 11
1075.114353943097
 21
2031.002558850043
 31
0.0
1001
REVIT
1002
{
1070
     3
1000
856288
1002
}
  0
LINE
  5
2A7
330
2A4
100
AcDbEntity
  8
M-PIPE
100
AcDbLine
 10
1059.114353943097
 20
2034.002558850044
 30
0.0
 11
1059.114353943097
 21
2050.002558850007
 31
0.0
1001
REVIT
1002
{
1070
     3
1000
856288
1002
}
  0
LINE
  5
2A8
330
2A4
100
AcDbEntity
  8
M-PIPE
100
AcDbLine
 10
1075.114353943097
 20
2031.002558850043
 30
0.0
 11
1067.114353943117
 21
2031.002558850043
 31
0.0
1001
REVIT
1002
{
1070
     3
1000
856288
1002
}
  0
LINE
  5
2A9
330
2A4
100
AcDbEntity
  8
M-PIPE
100
AcDbLine
 10
1067.114353943117
 20
2031.002558850043
 30
0.0
 11
1054.614353943114
 21
2031.002558850024
 31
0.0
1001
REVIT
1002
{
1070
     3
1000
856288
1002
}
  0
LINE
  5
2AA
330
2A4
100
AcDbEntity
  8
M-PIPE
100
AcDbLine
 10
1054.614353943114
 20
2034.002558850044
 30
0.0
 11
1067.114353943114
 21
2034.002558850043
 31
0.0
1001
REVIT
1002
{
1070
     3
1000
856288
1002
}
  0
LINE
  5
2AB
330
2A4
100
AcDbEntity
  8
M-PIPE
100
AcDbLine
 10
1067.114353943114
 20
2034.002558850043
 30
0.0
 11
1075.114353943097
 21
2034.002558850043
 31
0.0
1001
REVIT
1002
{
1070
     3
1000
856288
1002
}
  0
LINE
  5
2AC
330
2A4
100
AcDbEntity
  8
M-PIPE
100
AcDbLine
 10
1067.114353943114
 20
2034.002558850043
 30
0.0
 11
1067.114353943119
 21
2031.002558850029
 31
0.0
1001
REVIT
1002
{
1070
     3
1000
856288
1002
}
  0
LINE
  5
2AD
330
2A4
100
AcDbEntity
  8
M-PIPE
100
AcDbLine
 10
1054.614353943114
 20
2031.002558850007
 30
0.0
 11
1054.614353943114
 21
2034.002558850043
 31
0.0
1001
REVIT
1002
{
1070
     3
1000
856288
1002
}
  0
LINE
  5
2AE
330
2A4
100
AcDbEntity
  8
M-PIPE
100
AcDbLine
 10
1059.114353943097
 20
2050.002558850007
 30
0.0
 11
1075.114353943097
 21
2050.002558850007
 31
0.0
1001
REVIT
1002
{
1070
     3
1000
856288
1002
}
  0
ARC
  5
2AF
330
2A4
100
AcDbEntity
  8
M-PIPE
100
AcDbCircle
 10
1067.114353943097
 20
1999.982558850011
 30
0.0
 40
19.12435565296886
100
AcDbArc
 50
29.99999999999912
 51
210.0
1001
REVIT
1002
{
1070
     3
1000
790271
1002
}
  0
ARC
  5
2B0
330
2A4
100
AcDbEntity
  8
M-PIPE
100
AcDbCircle
 10
1067.114353943097
 20
1999.982558850011
 30
0.0
 40
19.12435565296897
100
AcDbArc
 50
209.9999999999997
 51
29.99999999999832
1001
REVIT
1002
{
1070
     3
1000
790271
1002
}
  0
SPLINE
  5
2B1
330
2A4
100
AcDbEntity
  8
M-PIPE
100
AcDbSpline
210
0.0
220
0.0
230
1.0
 70
     8
 71
     3
 72
     9
 73
     5
 74
     0
 42
0.000000001
 43
0.0000000001
 40
0.0
 40
0.0
 40
0.0
 40
0.0
 40
0.5
 40
1.0
 40
1.0
 40
1.0
 40
1.0
 10
1087.114353943116
 20
2015.571016118122
 30
0.0
 10
1087.636597471661
 20
2015.269498676334
 30
0.0
 10
1088.609687481843
 20
2014.526696732545
 30
0.0
 10
1089.3671839732
 20
2013.544644392219
 30
0.0
 10
1089.67653176961
 20
2013.008838291625
 30
0.0
1001
REVIT
1002
{
1070
     3
1000
790271
1002
}
  0
SPLINE
  5
2B2
330
2A4
100
AcDbEntity
  8
M-PIPE
100
AcDbSpline
210
0.0
220
0.0
230
1.0
 70
     8
 71
     3
 72
     9
 73
     5
 74
     0
 42
0.000000001
 43
0.0000000001
 40
0.0
 40
0.0
 40
0.0
 40
0.0
 40
0.5
 40
1.0
 40
1.0
 40
1.0
 40
1.0
 10
1089.67653176961
 20
2013.008838291625
 30
0.0
 10
1089.985879566019
 20
2012.473032191035
 30
0.0
 10
1090.457613594907
 20
2011.325994816083
 30
0.0
 10
1090.614353943116
 20
2010.111873175206
 30
0.0
 10
1090.614353943116
 20
2009.508838291631
 30
0.0
1001
REVIT
1002
{
1070
     3
1000
790271
1002
}
  0
SPLINE
  5
2B3
330
2A4
100
AcDbEntity
  8
M-PIPE
100
AcDbSpline
210
0.0
220
0.0
230
1.0
 70
    24
 71
     3
 72
     9
 73
     5
 74
     0
 42
0.000000001
 43
0.0000000001
 40
0.0
 40
0.0
 40
0.0
 40
0.0
 40
0.5
 40
1.0
 40
1.0
 40
1.0
 40
1.0
 10
1070.614353943116
 20
2025.097295559751
 30
0.0
 10
1073.323816648759
 20
2023.532986537289
 30
0.0
 10
1078.783279354403
 20
2020.380964274554
 30
0.0
 10
1084.323816648759
 20
2017.182133576202
 30
0.0
 10
1087.114353943116
 20
2015.571016118122
 30
0.0
1001
REVIT
1002
{
1070
     3
1000
790271
1002
}
  0
SPLINE
  5
2B4
330
2A4
100
AcDbEntity
  8
M-PIPE
100
AcDbSpline
210
0.0
220
0.0
230
1.0
 70
     8
 71
     3
 72
     9
 73
     5
 74
     0
 42
0.000000001
 43
0.0000000001
 40
0.0
 40
0.0
 40
0.0
 40
0.0
 40
0.5
 40
1.0
 40
1.0
 40
1.0
 40
1.0
 10
1067.114353943123
 20
2026.03511773326
 30
0.0
 10
1067.733049535942
 20
2026.035117733259
 30
0.0
 10
1068.962280056184
 20
2025.87013269863
 30
0.0
 10
1070.092110414572
 20
2025.398813001539
 30
0.0
 10
1070.614353943116
 20
2025.097295559751
 30
0.0
1001
REVIT
1002
{
1070
     3
1000
790271
1002
}
  0
SPLINE
  5
2B5
330
2A4
100
AcDbEntity
  8
M-PIPE
100
AcDbSpline
210
0.0
220
0.0
230
1.0
 70
     8
 71
     3
 72
     8
 73
     4
 74
     0
 42
0.000000001
 43
0.0000000001
 40
0.2
 40
0.2
 40
0.2
 40
0.2
 40
0.2487864877484894
 40
0.2487864877484894
 40
0.2487864877484894
 40
0.2487864877484894
 10
1069.286437741352
 20
2025.688759853025
 30
0.0
 10
1069.173225716702
 20
2025.725719540131
 30
0.0
 10
1069.059121792689
 20
2025.758708165992
 30
0.0
 10
1068.944154060843
 20
2025.788497119096
 30
0.0
1001
REVIT
1002
{
1070
     3
1000
790271
1002
}
  0
SPLINE
  5
2B6
330
2A4
100
AcDbEntity
  8
M-PIPE
100
AcDbSpline
210
0.0
220
0.0
230
1.0
 70
     8
 71
     3
 72
     8
 73
     4
 74
     0
 42
0.000000001
 43
0.0000000001
 40
0.3741456496213353
 40
0.3741456496213353
 40
0.3741456496213353
 40
0.3741456496213353
 40
0.4
 40
0.4
 40
0.4
 40
0.4
 10
1068.040417254251
 20
2025.973544477619
 30
0.0
 10
1067.977437152723
 20
2025.981978760562
 30
0.0
 10
1067.914407262524
 20
2025.989169626574
 30
0.0
 10
1067.851069053832
 20
2025.996241984819
 30
0.0
1001
REVIT
1002
{
1070
     3
1000
790271
1002
}
  0
SPLINE
  5
2B7
330
2A4
100
AcDbEntity
  8
M-PIPE
100
AcDbSpline
210
0.0
220
0.0
230
1.0
 70
     8
 71
     3
 72
     8
 73
     4
 74
     0
 42
0.000000001
 43
0.0000000001
 40
0.6000000000000001
 40
0.6000000000000001
 40
0.6000000000000001
 40
0.6000000000000001
 40
0.6255875093980381
 40
0.6255875093980381
 40
0.6255875093980381
 40
0.6255875093980381
 10
1066.375609531734
 20
2025.99561909358
 30
0.0
 10
1066.312949052632
 20
2025.988994722574
 30
0.0
 10
1066.250106914801
 20
2025.982252282129
 30
0.0
 10
1066.187335534017
 20
2025.974842314433
 30
0.0
1001
REVIT
1002
{
1070
     3
1000
790271
1002
}
  0
SPLINE
  5
2B8
330
2A4
100
AcDbEntity
  8
M-PIPE
100
AcDbSpline
210
0.0
220
0.0
230
1.0
 70
     8
 71
     3
 72
     8
 73
     4
 74
     0
 42
0.000000001
 43
0.0000000001
 40
0.7509508168603001
 40
0.7509508168603001
 40
0.7509508168603001
 40
0.7509508168603001
 40
0.8
 40
0.8
 40
0.8
 40
0.8
 10
1065.283946433081
 20
2025.7915786961
 30
0.0
 10
1065.168178142572
 20
2025.760194580318
 30
0.0
 10
1065.055640329853
 20
2025.721566779403
 30
0.0
 10
1064.945141324455
 20
2025.67832340864
 30
0.0
1001
REVIT
1002
{
1070
     3
1000
790271
1002
}
  0
SPLINE
  5
2B9
330
2A4
100
AcDbEntity
  8
M-PIPE
100
AcDbSpline
210
0.0
220
0.0
230
1.0
 70
     8
 71
     3
 72
     9
 73
     5
 74
     0
 42
0.000000001
 43
0.0000000001
 40
0.0
 40
0.0
 40
0.0
 40
0.0
 40
0.5
 40
1.0
 40
1.0
 40
1.0
 40
1.0
 10
1063.614353943116
 20
2025.097295559751
 30
0.0
 10
1064.136597471662
 20
2025.39881300154
 30
0.0
 10
1065.266427830054
 20
2025.870132698632
 30
0.0
 10
1066.495658350302
 20
2026.035117733261
 30
0.0
 10
1067.114353943123
 20
2026.03511773326
 30
0.0
1001
REVIT
1002
{
1070
     3
1000
790271
1002
}
  0
SPLINE
  5
2BA
330
2A4
100
AcDbEntity
  8
M-PIPE
100
AcDbSpline
210
0.0
220
0.0
230
1.0
 70
    24
 71
     3
 72
     9
 73
     5
 74
     0
 42
0.000000001
 43
0.0000000001
 40
0.0
 40
0.0
 40
0.0
 40
0.0
 40
0.5
 40
1.0
 40
1.0
 40
1.0
 40
1.0
 10
1047.114353943116
 20
2015.571016118123
 30
0.0
 10
1049.823816648759
 20
2017.135325140586
 30
0.0
 10
1055.283279354403
 20
2020.287347403319
 30
0.0
 10
1060.82381664876
 20
2023.486178101671
 30
0.0
 10
1063.614353943116
 20
2025.097295559751
 30
0.0
1001
REVIT
1002
{
1070
     3
1000
790271
1002
}
  0
SPLINE
  5
2BB
330
2A4
100
AcDbEntity
  8
M-PIPE
100
AcDbSpline
210
0.0
220
0.0
230
1.0
 70
     8
 71
     3
 72
     9
 73
     5
 74
     0
 42
0.000000001
 43
0.0000000001
 40
0.0
 40
0.0
 40
0.0
 40
0.0
 40
0.5
 40
1.0
 40
1.0
 40
1.0
 40
1.0
 10
1044.552176116625
 20
2013.008838291633
 30
0.0
 10
1044.861523913035
 20
2013.544644392224
 30
0.0
 10
1045.619020404391
 20
2014.526696732548
 30
0.0
 10
1046.592110414571
 20
2015.269498676335
 30
0.0
 10
1047.114353943116
 20
2015.571016118123
 30
0.0
1001
REVIT
1002
{
1070
     3
1000
790271
1002
}
  0
SPLINE
  5
2BC
330
2A4
100
AcDbEntity
  8
M-PIPE
100
AcDbSpline
210
0.0
220
0.0
230
1.0
 70
     8
 71
     3
 72
     8
 73
     4
 74
     0
 42
0.000000001
 43
0.0000000001
 40
0.2
 40
0.2
 40
0.2
 40
0.2
 40
0.2460800750600105
 40
0.2460800750600105
 40
0.2460800750600105
 40
0.2460800750600105
 10
1045.938172738827
 20
2014.716739099935
 30
0.0
 10
1045.854474530252
 20
2014.641588273956
 30
0.0
 10
1045.773449138791
 20
2014.563974172105
 30
0.0
 10
1045.694543687489
 20
2014.484244258673
 30
0.0
1001
REVIT
1002
{
1070
     3
1000
790271
1002
}
  0
SPLINE
  5
2BD
330
2A4
100
AcDbEntity
  8
M-PIPE
100
AcDbSpline
210
0.0
220
0.0
230
1.0
 70
     8
 71
     3
 72
     8
 73
     4
 74
     0
 42
0.000000001
 43
0.0000000001
 40
0.3725383325889882
 40
0.3725383325889882
 40
0.3725383325889882
 40
0.3725383325889882
 40
0.4
 40
0.4
 40
0.4
 40
0.4
 10
1045.07577494065
 20
2013.789425435295
 30
0.0
 10
1045.034479478078
 20
2013.736045178851
 30
0.0
 10
1044.994367499663
 20
2013.681914374236
 30
0.0
 10
1044.954201057723
 20
2013.627414418643
 30
0.0
1001
REVIT
1002
{
1070
     3
1000
790271
1002
}
  0
SPLINE
  5
2BE
330
2A4
100
AcDbEntity
  8
M-PIPE
100
AcDbSpline
210
0.0
220
0.0
230
1.0
 70
     8
 71
     3
 72
     8
 73
     4
 74
     0
 42
0.000000001
 43
0.0000000001
 40
0.6000000000000001
 40
0.6000000000000001
 40
0.6000000000000001
 40
0.6000000000000001
 40
0.6243444675309807
 40
0.6243444675309807
 40
0.6243444675309807
 40
0.6243444675309807
 10
1044.217010736312
 20
2012.349317544632
 30
0.0
 10
1044.192660696715
 20
2012.294536921102
 30
0.0
 10
1044.168318769012
 20
2012.239561290996
 30
0.0
 10
1044.144505082423
 20
2012.184341700848
 30
0.0
1001
REVIT
1002
{
1070
     3
1000
790271
1002
}
  0
SPLINE
  5
2BF
330
2A4
100
AcDbEntity
  8
M-PIPE
100
AcDbSpline
210
0.0
220
0.0
230
1.0
 70
     8
 71
     3
 72
     8
 73
     4
 74
     0
 42
0.000000001
 43
0.0000000001
 40
0.7488314589065058
 40
0.7488314589065058
 40
0.7488314589065058
 40
0.7488314589065058
 40
0.8
 40
0.8
 40
0.8
 40
0.8
 10
1043.851880504405
 20
2011.316916042705
 30
0.0
 10
1043.819575351809
 20
2011.196013096182
 30
0.0
 10
1043.795810760729
 20
2011.074206995292
 30
0.0
 10
1043.777380992102
 20
2010.9518157976
 30
0.0
1001
REVIT
1002
{
1070
     3
1000
790271
1002
}
  0
SPLINE
  5
2C0
330
2A4
100
AcDbEntity
  8
M-PIPE
100
AcDbSpline
210
0.0
220
0.0
230
1.0
 70
     8
 71
     3
 72
     9
 73
     5
 74
     0
 42
0.000000001
 43
0.0000000001
 40
0.0
 40
0.0
 40
0.0
 40
0.0
 40
0.5
 40
1.0
 40
1.0
 40
1.0
 40
1.0
 10
1043.614353943116
 20
2009.508838291632
 30
0.0
 10
1043.614353943116
 20
2010.111873175208
 30
0.0
 10
1043.771094291326
 20
2011.325994816087
 30
0.0
 10
1044.242828320215
 20
2012.473032191041
 30
0.0
 10
1044.552176116625
 20
2013.008838291633
 30
0.0
1001
REVIT
1002
{
1070
     3
1000
790271
1002
}
  0
SPLINE
  5
2C1
330
2A4
100
AcDbEntity
  8
M-PIPE
100
AcDbSpline
210
0.0
220
0.0
230
1.0
 70
    24
 71
     3
 72
     9
 73
     5
 74
     0
 42
0.000000001
 43
0.0000000001
 40
0.0
 40
0.0
 40
0.0
 40
0.0
 40
0.5
 40
1.0
 40
1.0
 40
1.0
 40
1.0
 10
1043.614353943115
 20
1990.456279408374
 30
0.0
 10
1043.614353943115
 20
1993.584897453299
 30
0.0
 10
1043.614353943115
 20
1999.888941978767
 30
0.0
 10
1043.614353943116
 20
2006.286603375471
 30
0.0
 10
1043.614353943116
 20
2009.508838291631
 30
0.0
1001
REVIT
1002
{
1070
     3
1000
790271
1002
}
  0
SPLINE
  5
2C2
330
2A4
100
AcDbEntity
  8
M-PIPE
100
AcDbSpline
210
0.0
220
0.0
230
1.0
 70
     8
 71
     3
 72
     9
 73
     5
 74
     0
 42
0.000000001
 43
0.0000000001
 40
0.0
 40
0.0
 40
0.0
 40
0.0
 40
0.5
 40
1.0
 40
1.0
 40
1.0
 40
1.0
 10
1044.552176116627
 20
1986.956279408369
 30
0.0
 10
1044.242828320216
 20
1987.492085508961
 30
0.0
 10
1043.771094291326
 20
1988.639122883916
 30
0.0
 10
1043.614353943115
 20
1989.853244524798
 30
0.0
 10
1043.614353943115
 20
1990.456279408374
 30
0.0
1001
REVIT
1002
{
1070
     3
1000
790271
1002
}
  0
SPLINE
  5
2C3
330
2A4
100
AcDbEntity
  8
M-PIPE
100
AcDbSpline
210
0.0
220
0.0
230
1.0
 70
     8
 71
     3
 72
     9
 73
     5
 74
     0
 42
0.000000001
 43
0.0000000001
 40
0.0
 40
0.0
 40
0.0
 40
0.0
 40
0.5
 40
1.0
 40
1.0
 40
1.0
 40
1.0
 10
1047.114353943115
 20
1984.394101581883
 30
0.0
 10
1046.592110414571
 20
1984.695619023671
 30
0.0
 10
1045.619020404392
 20
1985.438420967456
 30
0.0
 10
1044.861523913037
 20
1986.420473307779
 30
0.0
 10
1044.552176116627
 20
1986.956279408369
 30
0.0
1001
REVIT
1002
{
1070
     3
1000
790271
1002
}
  0
SPLINE
  5
2C4
330
2A4
100
AcDbEntity
  8
M-PIPE
100
AcDbSpline
210
0.0
220
0.0
230
1.0
 70
    24
 71
     3
 72
     9
 73
     5
 74
     0
 42
0.000000001
 43
0.0000000001
 40
0.0
 40
0.0
 40
0.0
 40
0.0
 40
0.5
 40
1.0
 40
1.0
 40
1.0
 40
1.0
 10
1063.614353943115
 20
1974.867822140254
 30
0.0
 10
1060.904891237472
 20
1976.432131162716
 30
0.0
 10
1055.445428531828
 20
1979.58415342545
 30
0.0
 10
1049.904891237472
 20
1982.782984123802
 30
0.0
 10
1047.114353943115
 20
1984.394101581883
 30
0.0
1001
REVIT
1002
{
1070
     3
1000
790271
1002
}
  0
SPLINE
  5
2C5
330
2A4
100
AcDbEntity
  8
M-PIPE
100
AcDbSpline
210
0.0
220
0.0
230
1.0
 70
     8
 71
     3
 72
     9
 73
     5
 74
     0
 42
0.000000001
 43
0.0000000001
 40
0.0
 40
0.0
 40
0.0
 40
0.0
 40
0.5
 40
1.0
 40
1.0
 40
1.0
 40
1.0
 10
1067.114353943122
 20
1973.929999966745
 30
0.0
 10
1066.495658350301
 20
1973.929999966744
 30
0.0
 10
1065.266427830053
 20
1974.094985001373
 30
0.0
 10
1064.136597471661
 20
1974.566304698465
 30
0.0
 10
1063.614353943115
 20
1974.867822140254
 30
0.0
1001
REVIT
1002
{
1070
     3
1000
790271
1002
}
  0
SPLINE
  5
2C6
330
2A4
100
AcDbEntity
  8
M-PIPE
100
AcDbSpline
210
0.0
220
0.0
230
1.0
 70
     8
 71
     3
 72
     8
 73
     4
 74
     0
 42
0.000000001
 43
0.0000000001
 40
0.2
 40
0.2
 40
0.2
 40
0.2
 40
0.2487864877494091
 40
0.2487864877494091
 40
0.2487864877494091
 40
0.2487864877494091
 10
1064.942270144879
 20
1974.27635784698
 30
0.0
 10
1065.055482169531
 20
1974.239398159872
 30
0.0
 10
1065.169586093547
 20
1974.206409534012
 30
0.0
 10
1065.284553825394
 20
1974.176620580907
 30
0.0
1001
REVIT
1002
{
1070
     3
1000
790271
1002
}
  0
SPLINE
  5
2C7
330
2A4
100
AcDbEntity
  8
M-PIPE
100
AcDbSpline
210
0.0
220
0.0
230
1.0
 70
     8
 71
     3
 72
     8
 73
     4
 74
     0
 42
0.000000001
 43
0.0000000001
 40
0.3741456496227738
 40
0.3741456496227738
 40
0.3741456496227738
 40
0.3741456496227738
 40
0.4
 40
0.4
 40
0.4
 40
0.4
 10
1066.18829063199
 20
1973.991573222384
 30
0.0
 10
1066.251270733514
 20
1973.983138939441
 30
0.0
 10
1066.31430062371
 20
1973.97594807343
 30
0.0
 10
1066.377638832399
 20
1973.968875715186
 30
0.0
1001
REVIT
1002
{
1070
     3
1000
790271
1002
}
  0
SPLINE
  5
2C8
330
2A4
100
AcDbEntity
  8
M-PIPE
100
AcDbSpline
210
0.0
220
0.0
230
1.0
 70
     8
 71
     3
 72
     8
 73
     4
 74
     0
 42
0.000000001
 43
0.0000000001
 40
0.6000000000000001
 40
0.6000000000000001
 40
0.6000000000000001
 40
0.6000000000000001
 40
0.6255875093995947
 40
0.6255875093995947
 40
0.6255875093995947
 40
0.6255875093995947
 10
1067.853098354496
 20
1973.969498606425
 30
0.0
 10
1067.915758833603
 20
1973.976122977431
 30
0.0
 10
1067.978600971438
 20
1973.982865417876
 30
0.0
 10
1068.041372352225
 20
1973.990275385574
 30
0.0
1001
REVIT
1002
{
1070
     3
1000
790271
1002
}
  0
SPLINE
  5
2C9
330
2A4
100
AcDbEntity
  8
M-PIPE
100
AcDbSpline
210
0.0
220
0.0
230
1.0
 70
     8
 71
     3
 72
     8
 73
     4
 74
     0
 42
0.000000001
 43
0.0000000001
 40
0.7509508168612907
 40
0.7509508168612907
 40
0.7509508168612907
 40
0.7509508168612907
 40
0.8
 40
0.8
 40
0.8
 40
0.8
 10
1068.944761453156
 20
1974.173539003907
 30
0.0
 10
1069.060529743663
 20
1974.204923119688
 30
0.0
 10
1069.17306755638
 20
1974.243550920602
 30
0.0
 10
1069.283566561776
 20
1974.286794291365
 30
0.0
1001
REVIT
1002
{
1070
     3
1000
790271
1002
}
  0
SPLINE
  5
2CA
330
2A4
100
AcDbEntity
  8
M-PIPE
100
AcDbSpline
210
0.0
220
0.0
230
1.0
 70
     8
 71
     3
 72
     9
 73
     5
 74
     0
 42
0.000000001
 43
0.0000000001
 40
0.0
 40
0.0
 40
0.0
 40
0.0
 40
0.5
 40
1.0
 40
1.0
 40
1.0
 40
1.0
 10
1070.614353943115
 20
1974.867822140253
 30
0.0
 10
1070.092110414571
 20
1974.566304698466
 30
0.0
 10
1068.962280056183
 20
1974.094985001375
 30
0.0
 10
1067.733049535941
 20
1973.929999966745
 30
0.0
 10
1067.114353943122
 20
1973.929999966745
 30
0.0
1001
REVIT
1002
{
1070
     3
1000
790271
1002
}
  0
SPLINE
  5
2CB
330
2A4
100
AcDbEntity
  8
M-PIPE
100
AcDbSpline
210
0.0
220
0.0
230
1.0
 70
    24
 71
     3
 72
     9
 73
     5
 74
     0
 42
0.000000001
 43
0.0000000001
 40
0.0
 40
0.0
 40
0.0
 40
0.0
 40
0.5
 40
1.0
 40
1.0
 40
1.0
 40
1.0
 10
1087.114353943115
 20
1984.394101581882
 30
0.0
 10
1084.404891237472
 20
1982.829792559419
 30
0.0
 10
1078.945428531828
 20
1979.677770296686
 30
0.0
 10
1073.404891237472
 20
1976.478939598334
 30
0.0
 10
1070.614353943115
 20
1974.867822140253
 30
0.0
1001
REVIT
1002
{
1070
     3
1000
790271
1002
}
  0
SPLINE
  5
2CC
330
2A4
100
AcDbEntity
  8
M-PIPE
100
AcDbSpline
210
0.0
220
0.0
230
1.0
 70
     8
 71
     3
 72
     9
 73
     5
 74
     0
 42
0.000000001
 43
0.0000000001
 40
0.0
 40
0.0
 40
0.0
 40
0.0
 40
0.5
 40
1.0
 40
1.0
 40
1.0
 40
1.0
 10
1089.676531769607
 20
1986.956279408374
 30
0.0
 10
1089.367183973196
 20
1986.420473307781
 30
0.0
 10
1088.60968748184
 20
1985.438420967456
 30
0.0
 10
1087.63659747166
 20
1984.695619023669
 30
0.0
 10
1087.114353943115
 20
1984.394101581882
 30
0.0
1001
REVIT
1002
{
1070
     3
1000
790271
1002
}
  0
SPLINE
  5
2CD
330
2A4
100
AcDbEntity
  8
M-PIPE
100
AcDbSpline
210
0.0
220
0.0
230
1.0
 70
     8
 71
     3
 72
     8
 73
     4
 74
     0
 42
0.000000001
 43
0.0000000001
 40
0.2
 40
0.2
 40
0.2
 40
0.2
 40
0.2460800750600067
 40
0.2460800750600067
 40
0.2460800750600067
 40
0.2460800750600067
 10
1088.290535147404
 20
1985.248378600069
 30
0.0
 10
1088.37423335598
 20
1985.323529426048
 30
0.0
 10
1088.45525874744
 20
1985.4011435279
 30
0.0
 10
1088.534164198742
 20
1985.480873441332
 30
0.0
1001
REVIT
1002
{
1070
     3
1000
790271
1002
}
  0
SPLINE
  5
2CE
330
2A4
100
AcDbEntity
  8
M-PIPE
100
AcDbSpline
210
0.0
220
0.0
230
1.0
 70
     8
 71
     3
 72
     8
 73
     4
 74
     0
 42
0.000000001
 43
0.0000000001
 40
0.373539987190028
 40
0.373539987190028
 40
0.373539987190028
 40
0.373539987190028
 40
0.4
 40
0.4
 40
0.4
 40
0.4
 10
1089.157448613507
 20
1986.181535853092
 30
0.0
 10
1089.197184216436
 20
1986.233013288042
 30
0.0
 10
1089.235819180827
 20
1986.285187233806
 30
0.0
 10
1089.274506828508
 20
1986.337703281362
 30
0.0
1001
REVIT
1002
{
1070
     3
1000
790271
1002
}
  0
SPLINE
  5
2CF
330
2A4
100
AcDbEntity
  8
M-PIPE
100
AcDbSpline
210
0.0
220
0.0
230
1.0
 70
     8
 71
     3
 72
     8
 73
     4
 74
     0
 42
0.000000001
 43
0.0000000001
 40
0.6000000000000001
 40
0.6000000000000001
 40
0.6000000000000001
 40
0.6000000000000001
 40
0.6243444675313014
 40
0.6243444675313014
 40
0.6243444675313014
 40
0.6243444675313014
 10
1090.011697149919
 20
1987.615800155373
 30
0.0
 10
1090.036047189516
 20
1987.670580778904
 30
0.0
 10
1090.06038911722
 20
1987.72555640901
 30
0.0
 10
1090.084202803809
 20
1987.78077599916
 30
0.0
1001
REVIT
1002
{
1070
     3
1000
790271
1002
}
  0
SPLINE
  5
2D0
330
2A4
100
AcDbEntity
  8
M-PIPE
100
AcDbSpline
210
0.0
220
0.0
230
1.0
 70
     8
 71
     3
 72
     8
 73
     4
 74
     0
 42
0.000000001
 43
0.0000000001
 40
0.7488314589067429
 40
0.7488314589067429
 40
0.7488314589067429
 40
0.7488314589067429
 40
0.8
 40
0.8
 40
0.8
 40
0.8
 10
1090.376827381826
 20
1988.648201657302
 30
0.0
 10
1090.409132534422
 20
1988.769104603824
 30
0.0
 10
1090.432897125502
 20
1988.890910704714
 30
0.0
 10
1090.45132689413
 20
1989.013301902405
 30
0.0
1001
REVIT
1002
{
1070
     3
1000
790271
1002
}
  0
SPLINE
  5
2D1
330
2A4
100
AcDbEntity
  8
M-PIPE
100
AcDbSpline
210
0.0
220
0.0
230
1.0
 70
     8
 71
     3
 72
     9
 73
     5
 74
     0
 42
0.000000001
 43
0.0000000001
 40
0.0
 40
0.0
 40
0.0
 40
0.0
 40
0.5
 40
1.0
 40
1.0
 40
1.0
 40
1.0
 10
1090.614353943115
 20
1990.456279408373
 30
0.0
 10
1090.614353943115
 20
1989.853244524798
 30
0.0
 10
1090.457613594906
 20
1988.639122883919
 30
0.0
 10
1089.985879566017
 20
1987.492085508965
 30
0.0
 10
1089.676531769607
 20
1986.956279408374
 30
0.0
1001
REVIT
1002
{
1070
     3
1000
790271
1002
}
  0
SPLINE
  5
2D2
330
2A4
100
AcDbEntity
  8
M-PIPE
100
AcDbSpline
210
0.0
220
0.0
230
1.0
 70
    24
 71
     3
 72
     9
 73
     5
 74
     0
 42
0.000000001
 43
0.0000000001
 40
0.0
 40
0.0
 40
0.0
 40
0.0
 40
0.5
 40
1.0
 40
1.0
 40
1.0
 40
1.0
 10
1090.614353943116
 20
2009.508838291631
 30
0.0
 10
1090.614353943116
 20
2006.28660337547
 30
0.0
 10
1090.614353943116
 20
1999.888941978765
 30
0.0
 10
1090.614353943115
 20
1993.584897453297
 30
0.0
 10
1090.614353943115
 20
1990.456279408373
 30
0.0
1001
REVIT
1002
{
1070
     3
1000
790271
1002
}
  0
LINE
  5
2D3
330
2A4
100
AcDbEntity
  8
P-SANR-FIXT
100
AcDbLine
 10
1085.614353943098
 20
1983.489851940542
 30
0.0
 11
1085.614353943098
 21
1983.528076178087
 31
0.0
  0
LINE
  5
2D4
330
2A4
100
AcDbEntity
  8
P-SANR-FIXT
100
AcDbLine
 10
1048.614353943098
 20
1983.52807617811
 30
0.0
 11
1048.614353943098
 21
1983.489851940543
 31
0.0
  0
LINE
  5
2D5
330
2A4
100
AcDbEntity
  8
P-SANR-FIXT
100
AcDbLine
 10
1041.614353943098
 20
1990.819590252333
 30
0.0
 11
1043.614353943116
 21
1990.819590252333
 31
0.0
  0
LINE
  5
2D6
330
2A4
100
AcDbEntity
  8
P-SANR-FIXT
100
AcDbLine
 10
1090.614353943117
 20
1990.819590252333
 30
0.0
 11
1092.614353943098
 21
1990.819590252333
 31
0.0
  0
LINE
  5
2D7
330
2A4
100
AcDbEntity
  8
P-SANR-FIXT
100
AcDbLine
 10
1084.864353943097
 20
1977.53939309256
 30
0.0
 11
1084.864353943098
 21
1983.095063476195
 31
0.0
  0
LINE
  5
2D8
330
2A4
100
AcDbEntity
  8
P-SANR-FIXT
100
AcDbLine
 10
1049.364353943097
 20
1983.095063476217
 30
0.0
 11
1049.364353943097
 21
1977.53939309256
 31
0.0
  0
LINE
  5
2D9
330
2A4
100
AcDbEntity
  8
P-SANR-FIXT
100
AcDbLine
 10
1086.114353943097
 20
1966.282558850011
 30
0.0
 11
1086.114353943097
 21
1972.018323213521
 31
0.0
  0
LINE
  5
2DA
330
2A4
100
AcDbEntity
  8
P-SANR-FIXT
100
AcDbLine
 10
1048.114353943098
 20
1972.018323213521
 30
0.0
 11
1048.114353943098
 21
1966.282558850011
 31
0.0
  0
LINE
  5
2DB
330
2A4
100
AcDbEntity
  8
P-SANR-FIXT
100
AcDbLine
 10
1086.114353943097
 20
1964.561829540958
 30
0.0
 11
1086.114353943097
 21
1966.282558850011
 31
0.0
  0
LINE
  5
2DC
330
2A4
100
AcDbEntity
  8
P-SANR-FIXT
100
AcDbLine
 10
1048.114353943098
 20
1966.282558850011
 30
0.0
 11
1048.114353943098
 21
1964.561829540958
 31
0.0
  0
LINE
  5
2DD
330
2A4
100
AcDbEntity
  8
P-SANR-FIXT
100
AcDbLine
 10
1076.614353943097
 20
1959.973218050149
 30
0.0
 11
1076.614353943097
 21
1964.561829540958
 31
0.0
  0
LINE
  5
2DE
330
2A4
100
AcDbEntity
  8
P-SANR-FIXT
100
AcDbLine
 10
1057.614353943098
 20
1964.561829540958
 30
0.0
 11
1057.614353943098
 21
1959.97321805015
 31
0.0
  0
LINE
  5
2DF
330
2A4
100
AcDbEntity
  8
P-SANR-FIXT
100
AcDbLine
 10
1079.614353943098
 20
2019.901143137056
 30
0.0
 11
1079.614353943098
 21
2024.482558850011
 31
0.0
  0
LINE
  5
2E0
330
2A4
100
AcDbEntity
  8
P-SANR-FIXT
100
AcDbLine
 10
1054.614353943097
 20
2024.482558850011
 30
0.0
 11
1054.614353943097
 21
2019.901143137034
 31
0.0
  0
LINE
  5
2E1
330
2A4
100
AcDbEntity
  8
P-SANR-FIXT
100
AcDbLine
 10
1041.614353943097
 20
1991.232558850011
 30
0.0
 11
1043.614353943116
 21
1991.232558850011
 31
0.0
  0
LINE
  5
2E2
330
2A4
100
AcDbEntity
  8
P-SANR-FIXT
100
AcDbLine
 10
1090.614353943117
 20
1991.232558850011
 30
0.0
 11
1092.614353943098
 21
1991.232558850011
 31
0.0
  0
LINE
  5
2E3
330
2A4
100
AcDbEntity
  8
P-SANR-FIXT
100
AcDbLine
 10
1092.614353943098
 20
2008.732558850011
 30
0.0
 11
1090.614353943117
 21
2008.732558850011
 31
0.0
  0
LINE
  5
2E4
330
2A4
100
AcDbEntity
  8
P-SANR-FIXT
100
AcDbLine
 10
1043.614353943117
 20
2008.732558850011
 30
0.0
 11
1041.614353943097
 21
2008.732558850011
 31
0.0
  0
LINE
  5
2E5
330
2A4
100
AcDbEntity
  8
P-SANR-FIXT
100
AcDbLine
 10
1076.114353943098
 20
2024.482558850011
 30
0.0
 11
1076.114353943098
 21
2029.982558850011
 31
0.0
  0
LINE
  5
2E6
330
2A4
100
AcDbEntity
  8
P-SANR-FIXT
100
AcDbLine
 10
1058.114353943097
 20
2029.982558850011
 30
0.0
 11
1058.114353943097
 21
2024.482558850011
 31
0.0
  0
LINE
  5
2E7
330
2A4
100
AcDbEntity
  8
P-SANR-FIXT
100
AcDbLine
 10
1063.114353943098
 20
2031.002558850028
 30
0.0
 11
1063.114353943098
 21
2029.982558850011
 31
0.0
  0
LINE
  5
2E8
330
2A4
100
AcDbEntity
  8
P-SANR-FIXT
100
AcDbLine
 10
1071.114353943098
 20
2029.982558850011
 30
0.0
 11
1071.114353943098
 21
2031.002558850037
 31
0.0
  0
ELLIPSE
  5
2E9
330
2A4
100
AcDbEntity
  8
P-SANR-FIXT
100
AcDbEllipse
 10
1067.114353943096
 20
1983.489851940542
 30
0.0
 11
18.49999999999982
 21
0.0
 31
0.0
210
0.0
220
0.0
230
1.0
 40
0.8191520442889917
 41
5.992192922345914
 42
6.282492413870406
  0
ELLIPSE
  5
2EA
330
2A4
100
AcDbEntity
  8
P-SANR-FIXT
100
AcDbEllipse
 10
1067.114353943096
 20
1983.489851940542
 30
0.0
 11
18.49999999999975
 21
0.0
 31
0.0
210
0.0
220
0.0
230
1.0
 40
0.8191520442889874
 41
3.142285546897504
 42
3.432585038423456
  0
LINE
  5
2EB
330
2A4
100
AcDbEntity
  8
P-SANR-FIXT
100
AcDbLine
 10
1041.614353943096
 20
1990.819590252332
 30
0.0
 11
1041.614353943096
 21
1991.217282654018
 31
0.0
  0
LINE
  5
2EC
330
2A4
100
AcDbEntity
  8
P-SANR-FIXT
100
AcDbLine
 10
1092.614353943097
 20
1991.217282654018
 30
0.0
 11
1092.614353943097
 21
1990.819590252332
 31
0.0
  0
ELLIPSE
  5
2ED
330
2A4
100
AcDbEntity
  8
P-SANR-FIXT
100
AcDbEllipse
 10
1067.114353943096
 20
1972.018323213521
 30
0.0
 11
18.99999999999995
 21
0.0
 31
0.0
210
0.0
220
0.0
230
1.0
 40
0.8191520442889908
 41
0.0058563955432362
 42
0.6572291655680314
  0
ELLIPSE
  5
2EE
330
2A4
100
AcDbEntity
  8
P-SANR-FIXT
100
AcDbEllipse
 10
1067.114353943096
 20
1972.018323213521
 30
0.0
 11
18.99999999999976
 21
0.0
 31
0.0
210
0.0
220
0.0
230
1.0
 40
0.8191520442890016
 41
2.4843634880206
 42
3.135736258046557
  0
ELLIPSE
  5
2EF
330
2A4
100
AcDbEntity
  8
P-SANR-FIXT
100
AcDbEllipse
 10
1067.114353943096
 20
1964.561829540957
 30
0.0
 11
18.99999999999978
 21
0.0
 31
0.0
210
0.0
220
0.0
230
1.0
 40
0.8191520442889913
 41
4.712388980384695
 42
7.34970006262481
  0
ELLIPSE
  5
2F0
330
2A4
100
AcDbEntity
  8
P-SANR-FIXT
100
AcDbEllipse
 10
1067.114353943096
 20
1964.561829540957
 30
0.0
 11
18.99999999999954
 21
0.0
 31
0.0
210
0.0
220
0.0
230
1.0
 40
0.8191520442889959
 41
2.077172765626337
 42
4.712388980384683
  0
ELLIPSE
  5
2F1
330
2A4
100
AcDbEntity
  8
P-SANR-FIXT
100
AcDbEllipse
 10
1067.114353943096
 20
1964.561829540957
 30
0.0
 11
9.499999999999772
 21
0.0
 31
0.0
210
0.0
220
0.0
230
1.0
 40
0.8191520442889959
 41
0.0
 42
1.570796326794896
  0
ELLIPSE
  5
2F2
330
2A4
100
AcDbEntity
  8
P-SANR-FIXT
100
AcDbEllipse
 10
1067.114353943096
 20
1964.561829540957
 30
0.0
 11
9.499999999999545
 21
0.0
 31
0.0
210
0.0
220
0.0
230
1.0
 40
0.8191520442890157
 41
1.570796326794896
 42
3.141592653589793
  0
ELLIPSE
  5
2F3
330
2A4
100
AcDbEntity
  8
P-SANR-FIXT
100
AcDbEllipse
 10
1067.114353943096
 20
1959.973218050149
 30
0.0
 11
9.499999999999772
 21
0.0
 31
0.0
210
0.0
220
0.0
230
1.0
 40
0.8191520442889959
 41
4.712388980384683
 42
7.853981633974482
  0
ELLIPSE
  5
2F4
330
2A4
100
AcDbEntity
  8
P-SANR-FIXT
100
AcDbEllipse
 10
1067.114353943096
 20
1959.973218050149
 30
0.0
 11
9.499999999999772
 21
0.0
 31
0.0
210
0.0
220
0.0
230
1.0
 40
0.8191520442889721
 41
1.570796326794896
 42
4.712388980384683
  0
LINE
  5
2F5
330
2A4
100
AcDbEntity
  8
P-SANR-FIXT
100
AcDbLine
 10
1071.683476380725
 20
2024.482558850011
 30
0.0
 11
1079.614353943096
 21
2024.482558850011
 31
0.0
  0
LINE
  5
2F6
330
2A4
100
AcDbEntity
  8
P-SANR-FIXT
100
AcDbLine
 10
1054.614353943096
 20
2024.482558850011
 30
0.0
 11
1062.545231505506
 21
2024.482558850011
 31
0.0
  0
LINE
  5
2F7
330
2A4
100
AcDbEntity
  8
P-SANR-FIXT
100
AcDbLine
 10
1041.614353943096
 20
1991.232558850011
 30
0.0
 11
1041.614353943096
 21
1999.982558850011
 31
0.0
  0
LINE
  5
2F8
330
2A4
100
AcDbEntity
  8
P-SANR-FIXT
100
AcDbLine
 10
1041.614353943096
 20
1999.982558850011
 30
0.0
 11
1041.614353943096
 21
2008.73255885001
 31
0.0
  0
LINE
  5
2F9
330
2A4
100
AcDbEntity
  8
P-SANR-FIXT
100
AcDbLine
 10
1092.614353943096
 20
2008.73255885001
 30
0.0
 11
1092.614353943096
 21
1999.982558850011
 31
0.0
  0
LINE
  5
2FA
330
2A4
100
AcDbEntity
  8
P-SANR-FIXT
100
AcDbLine
 10
1092.614353943096
 20
1999.982558850011
 30
0.0
 11
1092.614353943096
 21
1991.232558850011
 31
0.0
  0
LINE
  5
2FB
330
2A4
100
AcDbEntity
  8
P-SANR-FIXT
100
AcDbLine
 10
1058.124597900012
 20
2029.982558850011
 30
0.0
 11
1058.114353943097
 21
2029.982558850011
 31
0.0
  0
LINE
  5
2FC
330
2A4
100
AcDbEntity
  8
P-SANR-FIXT
100
AcDbLine
 10
1058.124597900012
 20
2029.982558850011
 30
0.0
 11
1062.24770352563
 21
2029.982558850011
 31
0.0
  0
LINE
  5
2FD
330
2A4
100
AcDbEntity
  8
P-SANR-FIXT
100
AcDbLine
 10
1062.991248317479
 20
2029.982558850011
 30
0.0
 11
1062.24770352563
 21
2029.982558850011
 31
0.0
  0
LINE
  5
2FE
330
2A4
100
AcDbEntity
  8
P-SANR-FIXT
100
AcDbLine
 10
1062.991248317479
 20
2029.982558850011
 30
0.0
 11
1071.237459568714
 21
2029.982558850011
 31
0.0
  0
LINE
  5
2FF
330
2A4
100
AcDbEntity
  8
P-SANR-FIXT
100
AcDbLine
 10
1071.981004360563
 20
2029.982558850011
 30
0.0
 11
1071.237459568714
 21
2029.982558850011
 31
0.0
  0
LINE
  5
300
330
2A4
100
AcDbEntity
  8
P-SANR-FIXT
100
AcDbLine
 10
1071.981004360563
 20
2029.982558850011
 30
0.0
 11
1076.104109986181
 21
2029.982558850011
 31
0.0
  0
LINE
  5
301
330
2A4
100
AcDbEntity
  8
P-SANR-FIXT
100
AcDbLine
 10
1076.114353943096
 20
2029.982558850011
 30
0.0
 11
1076.104109986181
 21
2029.982558850011
 31
0.0
  0
LINE
  5
302
330
2A4
100
AcDbEntity
  8
P-SANR-FIXT
100
AcDbLine
 10
1062.24770352563
 20
2029.982558850011
 30
0.0
 11
1062.24770352563
 21
2024.482558850011
 31
0.0
  0
LINE
  5
303
330
2A4
100
AcDbEntity
  8
P-SANR-FIXT
100
AcDbLine
 10
1058.124597900012
 20
2024.482558850011
 30
0.0
 11
1058.124597900012
 21
2029.982558850011
 31
0.0
  0
LINE
  5
304
330
2A4
100
AcDbEntity
  8
P-SANR-FIXT
100
AcDbLine
 10
1062.991248317479
 20
2024.737545359056
 30
0.0
 11
1062.991248317479
 21
2029.982558850011
 31
0.0
  0
LINE
  5
305
330
2A4
100
AcDbEntity
  8
P-SANR-FIXT
100
AcDbLine
 10
1071.237459568714
 20
2029.982558850011
 30
0.0
 11
1071.237459568714
 21
2024.737545359078
 31
0.0
  0
LINE
  5
306
330
2A4
100
AcDbEntity
  8
P-SANR-FIXT
100
AcDbLine
 10
1076.104109986181
 20
2029.982558850011
 30
0.0
 11
1076.104109986181
 21
2024.482558850011
 31
0.0
  0
LINE
  5
307
330
2A4
100
AcDbEntity
  8
P-SANR-FIXT
100
AcDbLine
 10
1071.981004360563
 20
2024.482558850011
 30
0.0
 11
1071.981004360563
 21
2029.982558850011
 31
0.0
  0
ARC
  5
308
330
2A4
100
AcDbEntity
  8
P-SANR-FIXT
100
AcDbCircle
 10
1067.114353943106
 20
1999.982558850018
 30
0.0
 40
14.25000000000327
100
AcDbArc
 50
176.5253520161825
 51
183.4746479838153
  0
LINE
  5
309
330
2A4
100
AcDbEntity
  8
P-SANR-FIXT
100
AcDbLine
 10
1052.890549529519
 20
1999.118910771174
 30
0.0
 11
1059.254510560104
 21
1988.096206928811
 31
0.0
  0
ARC
  5
30A
330
2A4
100
AcDbEntity
  8
P-SANR-FIXT
100
AcDbCircle
 10
1067.114353943106
 20
1999.982558850018
 30
0.0
 40
14.2500000000035
100
AcDbArc
 50
236.5253520161829
 51
243.474647983816
  0
LINE
  5
30B
330
2A4
100
AcDbEntity
  8
P-SANR-FIXT
100
AcDbLine
 10
1060.750392912521
 20
1987.232558849967
 30
0.0
 11
1073.478314973692
 21
1987.232558849967
 31
0.0
  0
ARC
  5
30C
330
2A4
100
AcDbEntity
  8
P-SANR-FIXT
100
AcDbCircle
 10
1067.114353943106
 20
1999.982558850018
 30
0.0
 40
14.2500000000036
100
AcDbArc
 50
296.5253520161819
 51
303.4746479838151
  0
LINE
  5
30D
330
2A4
100
AcDbEntity
  8
P-SANR-FIXT
100
AcDbLine
 10
1074.974197326109
 20
1988.096206928811
 30
0.0
 11
1081.338158356695
 21
1999.118910771174
 31
0.0
  0
ARC
  5
30E
330
2A4
100
AcDbEntity
  8
P-SANR-FIXT
100
AcDbCircle
 10
1067.114353943106
 20
1999.982558850018
 30
0.0
 40
14.25000000000353
100
AcDbArc
 50
356.5253520161831
 51
3.474647983815652
  0
LINE
  5
30F
330
2A4
100
AcDbEntity
  8
P-SANR-FIXT
100
AcDbLine
 10
1081.338158356695
 20
2000.846206928862
 30
0.0
 11
1074.974197326109
 21
2011.868910771224
 31
0.0
  0
ARC
  5
310
330
2A4
100
AcDbEntity
  8
P-SANR-FIXT
100
AcDbCircle
 10
1067.114353943106
 20
1999.982558850018
 30
0.0
 40
14.25000000000325
100
AcDbArc
 50
56.52535201618218
 51
63.47464798381491
  0
LINE
  5
311
330
2A4
100
AcDbEntity
  8
P-SANR-FIXT
100
AcDbLine
 10
1073.478314973692
 20
2012.732558850068
 30
0.0
 11
1060.750392912521
 21
2012.732558850068
 31
0.0
  0
ARC
  5
312
330
2A4
100
AcDbEntity
  8
P-SANR-FIXT
100
AcDbCircle
 10
1067.114353943106
 20
1999.982558850018
 30
0.0
 40
14.25000000000309
100
AcDbArc
 50
116.5253520161824
 51
123.474647983816
  0
LINE
  5
313
330
2A4
100
AcDbEntity
  8
P-SANR-FIXT
100
AcDbLine
 10
1059.254510560104
 20
2011.868910771224
 30
0.0
 11
1052.890549529519
 21
2000.846206928862
 31
0.0
  0
ARC
  5
314
330
2A4
100
AcDbEntity
  8
P-SANR-FIXT
100
AcDbCircle
 10
1067.114353943096
 20
1999.982558850011
 30
0.0
 40
6.349999999999861
100
AcDbArc
 50
269.9999999999986
 51
89.99999999999898
  0
ARC
  5
315
330
2A4
100
AcDbEntity
  8
P-SANR-FIXT
100
AcDbCircle
 10
1067.114353943096
 20
1999.982558850011
 30
0.0
 40
6.350000000000183
100
AcDbArc
 50
90.00000000000104
 51
270.0000000000007
  0
ENDBLK
  5
317
330
2A4
100
AcDbEntity
  8
0
100
AcDbBlockEnd
  0
ENDSEC
  0
SECTION
  2
ENTITIES
  0
INSERT
  5
18D
330
71
100
AcDbEntity
  8
P-SANR-FIXT
100
AcDbBlockReference
  2
Automatic flow rate regulator valve_Caleffi_121 DN15 - 1_2__-859151-Est - Idraulica
 10
0.0
 20
0.0
 30
0.0
1001
REVIT
1002
{
1070
     1
1000
863131
1002
}
1002
{
1070
     5
1000
859151
1002
}
1002
{
1070
     2
1000
-2001160
1002
}
  0
INSERT
  5
2A3
330
71
100
AcDbEntity
  8
P-SANR-FIXT
100
AcDbBlockReference
  2
Automatic flow rate regulator valve_Caleffi_121 DN15 - 1_2__-V1-Est - Idraulica
 10
0.0
 20
0.0
 30
0.0
1001
REVIT
1002
{
1070
     1
1000
863152
1002
}
1002
{
1070
     5
1000
859151
1002
}
1002
{
1070
     2
1000
-2001160
1002
}
  0
INSERT
  5
318
330
71
100
AcDbEntity
  8
P-SANR-FIXT
100
AcDbBlockReference
  2
Automatic flow rate regulator valve_Caleffi_121 DN15 - 1_2__-V2-Est - Idraulica
 10
0.0
 20
0.0
 30
0.0
1001
REVIT
1002
{
1070
     1
1000
863172
1002
}
1002
{
1070
     5
1000
859151
1002
}
1002
{
1070
     2
1000
-2001160
1002
}
  0
ENDSEC
  0
SECTION
  2
OBJECTS
  0
DICTIONARY
  5
C
330
0
100
AcDbDictionary
281
     1
  3
ACAD_CIP_PREVIOUS_PRODUCT_INFO
350
7A
  3
ACAD_COLOR
350
63
  3
ACAD_DETAILVIEWSTYLE
350
6B
  3
ACAD_GROUP
350
D
  3
ACAD_IMAGE_VARS
350
7B
  3
ACAD_LAYOUT
350
62
  3
ACAD_MATERIAL
350
10
  3
ACAD_MLEADERSTYLE
350
66
  3
ACAD_MLINESTYLE
350
5F
  3
ACAD_PLOTSETTINGS
350
61
  3
ACAD_PLOTSTYLENAME
350
E
  3
ACAD_SCALELIST
350
42
  3
ACAD_SECTIONVIEWSTYLE
350
68
  3
ACAD_TABLESTYLE
350
64
  3
ACAD_VISUALSTYLE
350
29
  3
ACDB_RECOMPOSE_DATA
350
323
  3
AcDbVariableDictionary
350
7C
  3
REVIT_DICTIONARY
350
31A
  0
DICTIONARY
  5
31F
330
71
100
AcDbDictionary
280
     1
281
     1
  3
ACAD_SORTENTS
360
320
  0
XRECORD
  5
7A
102
{ACAD_REACTORS
330
C
102
}
330
C
100
AcDbXrecord
280
     1
300
RVT
300
2013
300
RVT2013
  0
DICTIONARY
  5
63
102
{ACAD_REACTORS
330
C
102
}
330
C
100
AcDbDictionary
281
     1
  0
DICTIONARY
  5
6B
102
{ACAD_REACTORS
330
C
102
}
330
C
100
AcDbDictionary
281
     1
  3
Imperial24
350
6C
  0
DICTIONARY
  5
D
102
{ACAD_REACTORS
330
C
102
}
330
C
100
AcDbDictionary
281
     1
  0
RASTERVARIABLES
  5
7B
102
{ACAD_REACTORS
330
C
102
}
330
C
100
AcDbRasterVariables
 90
        0
 70
     0
 71
     1
 72
     1
  0
DICTIONARY
  5
62
102
{ACAD_REACTORS
330
C
102
}
330
C
100
AcDbDictionary
281
     1
  3
Layout1
350
70
  3
Layout2
350
78
  3
Model
350
74
  0
DICTIONARY
  5
10
102
{ACAD_REACTORS
330
C
102
}
330
C
100
AcDbDictionary
281
     1
  3
ByBlock
350
19
  3
ByLayer
350
11
  3
Global
350
21
  0
DICTIONARY
  5
66
102
{ACAD_REACTORS
330
C
102
}
330
C
100
AcDbDictionary
281
     1
  3
Standard
350
67
  0
DICTIONARY
  5
5F
102
{ACAD_REACTORS
330
C
102
}
330
C
100
AcDbDictionary
281
     1
  3
Standard
350
60
  0
DICTIONARY
  5
61
102
{ACAD_REACTORS
330
C
102
}
330
C
100
AcDbDictionary
281
     1
  0
ACDBDICTIONARYWDFLT
  5
E
102
{ACAD_REACTORS
330
C
102
}
330
C
100
AcDbDictionary
281
     1
  3
Normal
350
F
100
AcDbDictionaryWithDefault
340
F
  0
DICTIONARY
  5
42
102
{ACAD_REACTORS
330
C
102
}
330
C
100
AcDbDictionary
281
     1
  3
A0
350
43
  3
A1
350
44
  3
A2
350
45
  3
A3
350
46
  3
A4
350
47
  3
A5
350
48
  3
A6
350
49
  3
A7
350
4A
  3
A8
350
4B
  3
A9
350
4C
  3
B0
350
4D
  3
B1
350
4E
  3
B2
350
4F
  3
B3
350
50
  3
B4
350
51
  3
B5
350
52
  3
B6
350
53
  0
DICTIONARY
  5
68
102
{ACAD_REACTORS
330
C
102
}
330
C
100
AcDbDictionary
281
     1
  3
Imperial24
350
6A
  0
DICTIONARY
  5
64
102
{ACAD_REACTORS
330
C
102
}
330
C
100
AcDbDictionary
281
     1
  3
Standard
350
65
  0
DICTIONARY
  5
29
102
{ACAD_REACTORS
330
C
102
}
330
C
100
AcDbDictionary
281
     1
  3
2dWireframe
350
2F
  3
Basic
350
2E
  3
Brighten
350
35
  3
ColorChange
350
39
  3
Conceptual
350
32
  3
Dim
350
34
  3
EdgeColorOff
350
41
  3
Facepattern
350
38
  3
Flat
350
2A
  3
FlatWithEdges
350
2B
  3
Gouraud
350
2C
  3
GouraudWithEdges
350
2D
  3
Hidden
350
31
  3
JitterOff
350
3F
  3
Linepattern
350
37
  3
OverhangOff
350
40
  3
Realistic
350
33
  3
Shaded
350
3E
  3
Shaded with edges
350
3D
  3
Shades of Gray
350
3A
  3
Sketchy
350
3B
  3
Thicken
350
36
  3
Wireframe
350
30
  3
X-Ray
350
3C
  0
XRECORD
  5
323
102
{ACAD_REACTORS
330
C
102
}
330
C
100
AcDbXrecord
280
     1
 90
        1
330
65
  0
DICTIONARY
  5
7C
102
{ACAD_REACTORS
330
C
102
}
330
C
100
AcDbDictionary
281
     1
  3
CANNOSCALE
350
81
  3
CMLEADERSTYLE
350
7E
  3
CTABLESTYLE
350
7D
  3
CVIEWDETAILSTYLE
350
7F
  3
CVIEWSECTIONSTYLE
350
80
  0
DICTIONARY
  5
31A
102
{ACAD_REACTORS
330
C
102
}
330
C
100
AcDbDictionary
281
     1
  3
DRAWING_TOOL
350
31E
  3
REVIT_CATEGORY_MAPPING
350
31C
  3
REVIT_SUB_CATEGORY_MAPPING
350
31D
  3
REVIT_TYPE_MAPPING
350
31B
  0
SORTENTSTABLE
  5
320
102
{ACAD_REACTORS
330
31F
102
}
330
31F
100
AcDbSortentsTable
330
71
  0
ACDBDETAILVIEWSTYLE
  5
6C
102
{ACAD_REACTORS
330
6B
102
}
330
6B
100
AcDbModelDocViewStyle
 70
     0
  3
Imperial24
290
     1
100
AcDbDetailViewStyle
 70
     0
 71
     0
 90
        3
 71
     1
340
55
 62
   256
 40
0.24
340
0
 62
   256
 40
0.24
300

 40
0.36
280
     3
 71
     2
340
5D
 90
       25
 62
   256
 71
     3
340
55
 62
   256
 40
0.24
 90
        1
 40
0.75
 90
        1
300
%<\AcVar ViewType \f "%tc1">% %<\AcVar ViewDetailId>%\PSCALA %<\AcVar ViewScale \f "%sn">%
 71
     4
340
5D
 90
       25
 62
   256
340
5D
 90
       25
 62
   256
280
     0
  0
LAYOUT
  5
70
102
{ACAD_REACTORS
330
62
102
}
330
62
100
AcDbPlotSettings
  1

  2

  4

  6

 40
0.0
 41
0.0
 42
0.0
 43
0.0
 44
0.0
 45
0.0
 46
0.0
 47
0.0
 48
0.0
 49
0.0
140
0.0
141
0.0
142
1.0
143
1.0
 70
   688
 72
     0
 73
     0
 74
     5
  7

 75
    16
147
1.0
 76
     0
 77
     2
 78
   300
148
0.0
149
0.0
100
AcDbLayout
  1
Layout1
 70
     1
 71
     1
 10
0.0
 20
0.0
 11
12.0
 21
9.0
 12
0.0
 22
0.0
 32
0.0
 14
0.0
 24
0.0
 34
0.0
 15
0.0
 25
0.0
 35
0.0
146
0.0
 13
0.0
 23
0.0
 33
0.0
 16
1.0
 26
0.0
 36
0.0
 17
0.0
 27
1.0
 37
0.0
 76
     0
330
6D
  0
LAYOUT
  5
78
102
{ACAD_REACTORS
330
62
102
}
330
62
100
AcDbPlotSettings
  1

  2

  4

  6

 40
0.0
 41
0.0
 42
0.0
 43
0.0
 44
0.0
 45
0.0
 46
0.0
 47
0.0
 48
0.0
 49
0.0
140
0.0
141
0.0
142
1.0
143
1.0
 70
   688
 72
     0
 73
     0
 74
     5
  7

 75
    16
147
1.0
 76
     0
 77
     2
 78
   300
148
0.0
149
0.0
100
AcDbLayout
  1
Layout2
 70
     1
 71
     2
 10
0.0
 20
0.0
 11
12.0
 21
9.0
 12
0.0
 22
0.0
 32
0.0
 14
0.0
 24
0.0
 34
0.0
 15
0.0
 25
0.0
 35
0.0
146
0.0
 13
0.0
 23
0.0
 33
0.0
 16
1.0
 26
0.0
 36
0.0
 17
0.0
 27
1.0
 37
0.0
 76
     0
330
75
  0
LAYOUT
  5
74
102
{ACAD_REACTORS
330
62
102
}
330
62
100
AcDbPlotSettings
  1

  2

  4

  6

 40
0.0
 41
0.0
 42
0.0
 43
0.0
 44
0.0
 45
0.0
 46
0.0
 47
0.0
 48
0.0
 49
0.0
140
0.0
141
0.0
142
1.0
143
1.0
 70
  1712
 72
     0
 73
     0
 74
     0
  7

 75
     0
147
1.0
 76
     0
 77
     2
 78
   300
148
0.0
149
0.0
100
AcDbLayout
  1
Model
 70
     1
 71
     0
 10
0.0
 20
0.0
 11
12.0
 21
9.0
 12
0.0
 22
0.0
 32
0.0
 14
0.0
 24
0.0
 34
0.0
 15
0.0
 25
0.0
 35
0.0
146
0.0
 13
0.0
 23
0.0
 33
0.0
 16
1.0
 26
0.0
 36
0.0
 17
0.0
 27
1.0
 37
0.0
 76
     0
330
71
  0
MATERIAL
  5
19
102
{ACAD_XDICTIONARY
360
1A
102
}
102
{ACAD_REACTORS
330
10
102
}
330
10
100
AcDbMaterial
  1
ByBlock
 72
     0
 43
0.0208333333333333
 43
0.0
 43
0.0
 43
0.0
 43
0.0
 43
0.0208333333333333
 43
0.0
 43
0.0
 43
0.0
 43
0.0
 43
1.0
 43
0.0
 43
0.0
 43
0.0
 43
0.0
 43
1.0
 77
     0
 47
0.0208333333333333
 47
0.0
 47
0.0
 47
0.0
 47
0.0
 47
0.0208333333333333
 47
0.0
 47
0.0
 47
0.0
 47
0.0
 47
1.0
 47
0.0
 47
0.0
 47
0.0
 47
0.0
 47
1.0
171
     0
 49
0.0208333333333333
 49
0.0
 49
0.0
 49
0.0
 49
0.0
 49
0.0208333333333333
 49
0.0
 49
0.0
 49
0.0
 49
0.0
 49
1.0
 49
0.0
 49
0.0
 49
0.0
 49
0.0
 49
1.0
175
     0
142
0.0208333333333333
142
0.0
142
0.0
142
0.0
142
0.0
142
0.0208333333333333
142
0.0
142
0.0
142
0.0
142
0.0
142
1.0
142
0.0
142
0.0
142
0.0
142
0.0
142
1.0
179
     0
144
0.0208333333333333
144
0.0
144
0.0
144
0.0
144
0.0
144
0.0208333333333333
144
0.0
144
0.0
144
0.0
144
0.0
144
1.0
144
0.0
144
0.0
144
0.0
144
0.0
144
1.0
147
0.0208333333333333
147
0.0
147
0.0
147
0.0
147
0.0
147
0.0208333333333333
147
0.0
147
0.0
147
0.0
147
0.0
147
1.0
147
0.0
147
0.0
147
0.0
147
0.0
147
1.0
  0
MATERIAL
  5
11
102
{ACAD_XDICTIONARY
360
12
102
}
102
{ACAD_REACTORS
330
10
102
}
330
10
100
AcDbMaterial
  1
ByLayer
 72
     0
 43
0.0208333333333333
 43
0.0
 43
0.0
 43
0.0
 43
0.0
 43
0.0208333333333333
 43
0.0
 43
0.0
 43
0.0
 43
0.0
 43
1.0
 43
0.0
 43
0.0
 43
0.0
 43
0.0
 43
1.0
 77
     0
 47
0.0208333333333333
 47
0.0
 47
0.0
 47
0.0
 47
0.0
 47
0.0208333333333333
 47
0.0
 47
0.0
 47
0.0
 47
0.0
 47
1.0
 47
0.0
 47
0.0
 47
0.0
 47
0.0
 47
1.0
171
     0
 49
0.0208333333333333
 49
0.0
 49
0.0
 49
0.0
 49
0.0
 49
0.0208333333333333
 49
0.0
 49
0.0
 49
0.0
 49
0.0
 49
1.0
 49
0.0
 49
0.0
 49
0.0
 49
0.0
 49
1.0
175
     0
142
0.0208333333333333
142
0.0
142
0.0
142
0.0
142
0.0
142
0.0208333333333333
142
0.0
142
0.0
142
0.0
142
0.0
142
1.0
142
0.0
142
0.0
142
0.0
142
0.0
142
1.0
179
     0
144
0.0208333333333333
144
0.0
144
0.0
144
0.0
144
0.0
144
0.0208333333333333
144
0.0
144
0.0
144
0.0
144
0.0
144
1.0
144
0.0
144
0.0
144
0.0
144
0.0
144
1.0
147
0.0208333333333333
147
0.0
147
0.0
147
0.0
147
0.0
147
0.0208333333333333
147
0.0
147
0.0
147
0.0
147
0.0
147
1.0
147
0.0
147
0.0
147
0.0
147
0.0
147
1.0
  0
MATERIAL
  5
21
102
{ACAD_XDICTIONARY
360
22
102
}
102
{ACAD_REACTORS
330
10
102
}
330
10
100
AcDbMaterial
  1
Global
 72
     0
 43
0.0208333333333333
 43
0.0
 43
0.0
 43
0.0
 43
0.0
 43
0.0208333333333333
 43
0.0
 43
0.0
 43
0.0
 43
0.0
 43
1.0
 43
0.0
 43
0.0
 43
0.0
 43
0.0
 43
1.0
 77
     0
 47
0.0208333333333333
 47
0.0
 47
0.0
 47
0.0
 47
0.0
 47
0.0208333333333333
 47
0.0
 47
0.0
 47
0.0
 47
0.0
 47
1.0
 47
0.0
 47
0.0
 47
0.0
 47
0.0
 47
1.0
171
     0
 49
0.0208333333333333
 49
0.0
 49
0.0
 49
0.0
 49
0.0
 49
0.0208333333333333
 49
0.0
 49
0.0
 49
0.0
 49
0.0
 49
1.0
 49
0.0
 49
0.0
 49
0.0
 49
0.0
 49
1.0
175
     0
142
0.0208333333333333
142
0.0
142
0.0
142
0.0
142
0.0
142
0.0208333333333333
142
0.0
142
0.0
142
0.0
142
0.0
142
1.0
142
0.0
142
0.0
142
0.0
142
0.0
142
1.0
179
     0
144
0.0208333333333333
144
0.0
144
0.0
144
0.0
144
0.0
144
0.0208333333333333
144
0.0
144
0.0
144
0.0
144
0.0
144
1.0
144
0.0
144
0.0
144
0.0
144
0.0
144
1.0
147
0.0208333333333333
147
0.0
147
0.0
147
0.0
147
0.0
147
0.0208333333333333
147
0.0
147
0.0
147
0.0
147
0.0
147
1.0
147
0.0
147
0.0
147
0.0
147
0.0
147
1.0
  0
MLEADERSTYLE
  5
67
102
{ACAD_REACTORS
330
66
102
}
330
66
100
AcDbMLeaderStyle
179
     2
170
     2
171
     1
172
     0
 90
        2
 40
0.0
 41
0.0
173
     1
 91
-1056964608
340
5B
 92
       -2
290
     1
 42
0.09
291
     1
 43
0.36
  3
Standard
 44
0.18
300

342
55
174
     1
178
     6
175
     1
176
     0
 93
-1056964608
 45
0.18
292
     0
297
     0
 46
0.18
 94
-1056964608
 47
1.0
 49
1.0
140
1.0
293
     1
141
0.0
294
     1
177
     0
142
1.0
295
     1
296
     0
143
0.125
271
     0
272
     9
273
     9
298
     1
  0
MLINESTYLE
  5
60
102
{ACAD_REACTORS
330
5F
102
}
330
5F
100
AcDbMlineStyle
  2
STANDARD
 70
     0
  3

 62
   256
 51
90.0
 52
90.0
 71
     2
 49
0.5
 62
   256
  6
BYLAYER
 49
-0.5
 62
   256
  6
BYLAYER
  0
ACDBPLACEHOLDER
  5
F
102
{ACAD_REACTORS
330
E
102
}
330
E
  0
SCALE
  5
43
102
{ACAD_REACTORS
330
42
102
}
330
42
100
AcDbScale
 70
     0
300
1:1
140
1.0
141
1.0
290
     1
  0
SCALE
  5
44
102
{ACAD_REACTORS
330
42
102
}
330
42
100
AcDbScale
 70
     0
300
1/128" = 1'-0"
140
0.0078125
141
12.0
290
     0
  0
SCALE
  5
45
102
{ACAD_REACTORS
330
42
102
}
330
42
100
AcDbScale
 70
     0
300
1/64" = 1'-0"
140
0.015625
141
12.0
290
     0
  0
SCALE
  5
46
102
{ACAD_REACTORS
330
42
102
}
330
42
100
AcDbScale
 70
     0
300
1/32" = 1'-0"
140
0.03125
141
12.0
290
     0
  0
SCALE
  5
47
102
{ACAD_REACTORS
330
42
102
}
330
42
100
AcDbScale
 70
     0
300
1/16" = 1'-0"
140
0.0625
141
12.0
290
     0
  0
SCALE
  5
48
102
{ACAD_REACTORS
330
42
102
}
330
42
100
AcDbScale
 70
     0
300
3/32" = 1'-0"
140
0.09375
141
12.0
290
     0
  0
SCALE
  5
49
102
{ACAD_REACTORS
330
42
102
}
330
42
100
AcDbScale
 70
     0
300
1/8" = 1'-0"
140
0.125
141
12.0
290
     0
  0
SCALE
  5
4A
102
{ACAD_REACTORS
330
42
102
}
330
42
100
AcDbScale
 70
     0
300
3/16" = 1'-0"
140
0.1875
141
12.0
290
     0
  0
SCALE
  5
4B
102
{ACAD_REACTORS
330
42
102
}
330
42
100
AcDbScale
 70
     0
300
1/4" = 1'-0"
140
0.25
141
12.0
290
     0
  0
SCALE
  5
4C
102
{ACAD_REACTORS
330
42
102
}
330
42
100
AcDbScale
 70
     0
300
3/8" = 1'-0"
140
0.375
141
12.0
290
     0
  0
SCALE
  5
4D
102
{ACAD_REACTORS
330
42
102
}
330
42
100
AcDbScale
 70
     0
300
1/2" = 1'-0"
140
0.5
141
12.0
290
     0
  0
SCALE
  5
4E
102
{ACAD_REACTORS
330
42
102
}
330
42
100
AcDbScale
 70
     0
300
3/4" = 1'-0"
140
0.75
141
12.0
290
     0
  0
SCALE
  5
4F
102
{ACAD_REACTORS
330
42
102
}
330
42
100
AcDbScale
 70
     0
300
1" = 1'-0"
140
1.0
141
12.0
290
     0
  0
SCALE
  5
50
102
{ACAD_REACTORS
330
42
102
}
330
42
100
AcDbScale
 70
     0
300
1-1/2" = 1'-0"
140
1.5
141
12.0
290
     0
  0
SCALE
  5
51
102
{ACAD_REACTORS
330
42
102
}
330
42
100
AcDbScale
 70
     0
300
3" = 1'-0"
140
3.0
141
12.0
290
     0
  0
SCALE
  5
52
102
{ACAD_REACTORS
330
42
102
}
330
42
100
AcDbScale
 70
     0
300
6" = 1'-0"
140
6.0
141
12.0
290
     0
  0
SCALE
  5
53
102
{ACAD_REACTORS
330
42
102
}
330
42
100
AcDbScale
 70
     0
300
1'-0" = 1'-0"
140
12.0
141
12.0
290
     0
  0
ACDBSECTIONVIEWSTYLE
  5
6A
102
{ACAD_REACTORS
330
68
102
}
330
68
100
AcDbModelDocViewStyle
 70
     0
  3
Imperial24
290
     1
100
AcDbSectionViewStyle
 70
     0
 71
     0
 90
       78
 71
     1
340
55
 62
   256
 40
0.24
340
0
340
0
 62
   256
 40
0.24
300
I, O, Q, S, X, Z
 40
0.48
 90
        3
 40
0.18
 90
        1
 71
     2
340
69
 90
       25
 62
   256
340
5D
 90
       50
 62
   256
 40
0.24
 40
0.0
 40
0.24
 71
     3
340
55
 62
   256
 40
0.24
 90
        1
 40
0.75
 90
        1
300
%<\AcVar ViewType \f "%tc1">% %<\AcVar ViewSectionStartId>%-%<\AcVar ViewSectionEndId>%\PSCALA %<\AcVar ViewScale \f "%sn">%
 71
     4
 62
   256
 62
   257
300
ANSI31
 40
1.0
 90
        0
290
     0
290
     0
 90
        6
 40
0.0
 40
1.570796326794896
 40
0.2617993877991494
 40
1.308996938995747
 40
-0.2617993877991494
 40
1.832595714594046
  0
TABLESTYLE
  5
65
102
{ACAD_XDICTIONARY
360
321
102
}
102
{ACAD_REACTORS
330
64
102
}
330
64
100
AcDbTableStyle
280
     0
  3
Standard
 70
     0
 71
     0
 40
0.06
 41
0.06
280
     0
281
     0
  7
Standard
140
0.18
170
     2
 62
     0
 63
     7
283
     0
 90
      512
 91
        0
  1

274
    -2
284
     1
 64
     0
275
    -2
285
     1
 65
     0
276
    -2
286
     1
 66
     0
277
    -2
287
     1
 67
     0
278
    -2
288
     1
 68
     0
279
    -2
289
     1
 69
     0
  7
Standard
140
0.25
170
     5
 62
     0
 63
     7
283
     0
 90
      512
 91
        0
  1

274
    -2
284
     1
 64
     0
275
    -2
285
     1
 65
     0
276
    -2
286
     1
 66
     0
277
    -2
287
     1
 67
     0
278
    -2
288
     1
 68
     0
279
    -2
289
     1
 69
     0
  7
Standard
140
0.18
170
     5
 62
     0
 63
     7
283
     0
 90
      512
 91
        0
  1

274
    -2
284
     1
 64
     0
275
    -2
285
     1
 65
     0
276
    -2
286
     1
 66
     0
277
    -2
287
     1
 67
     0
278
    -2
288
     1
 68
     0
279
    -2
289
     1
 69
     0
  0
VISUALSTYLE
  5
2F
102
{ACAD_REACTORS
330
29
102
}
330
29
100
AcDbVisualStyle
  2
2dWireframe
 70
     4
177
     3
291
     0
 70
    58
 90
        0
176
     1
 90
        2
176
     1
 90
        0
176
     1
 90
        0
176
     1
 40
0.6
176
     1
 40
30.0
176
     1
 62
     7
420
 16777215
176
     1
 90
        1
176
     1
 90
        4
176
     1
 62
     7
176
     1
 62
   257
176
     1
 90
        1
176
     1
 90
        1
176
     1
 40
1.0
176
     1
 90
        0
176
     1
 62
   257
176
     1
 40
1.0
176
     1
 90
        1
176
     1
 90
        6
176
     1
 90
        2
176
     1
 62
     7
176
     1
 90
        5
176
     1
 90
        0
176
     1
 90
        0
176
     1
290
     0
176
     1
 90
        1
176
     1
 40
0.0
176
     1
 90
        0
176
     1
290
     1
176
     1
290
     1
176
     1
290
     0
176
     1
290
     0
176
     1
290
     0
176
     1
290
     0
176
     1
290
     0
176
     1
290
     0
176
     1
290
     0
176
     1
 90
       50
176
     1
 40
0.0
176
     1
 40
1.0
176
     1
 90
        0
176
     1
 62
    18
420
        0
176
     1
 90
       50
176
     1
 90
        3
176
     1
 62
     5
420
      255
176
     1
290
     0
176
     1
 90
       50
176
     1
 90
       50
176
     1
 90
       50
176
     1
290
     0
176
     1
 90
       50
176
     1
 62
   256
176
     0
 40
1.0
176
     0
 90
        2
176
     1
  1
strokes_ogs.tif
176
     1
290
     0
176
     1
 40
1.0
176
     1
 40
1.0
176
     1
  0
VISUALSTYLE
  5
2E
102
{ACAD_REACTORS
330
29
102
}
330
29
100
AcDbVisualStyle
  2
Basic
 70
     7
177
     3
291
     1
 70
    58
 90
        1
176
     1
 90
        0
176
     1
 90
        1
176
     1
 90
        0
176
     1
 40
0.6
176
     1
 40
30.0
176
     1
 62
     7
420
 16777215
176
     1
 90
        0
176
     1
 90
        4
176
     1
 62
     7
176
     1
 62
   257
176
     1
 90
        1
176
     1
 90
        1
176
     1
 40
1.0
176
     1
 90
        8
176
     1
 62
     7
176
     1
 40
1.0
176
     1
 90
        1
176
     1
 90
        6
176
     1
 90
        2
176
     1
 62
     7
176
     1
 90
        5
176
     1
 90
        0
176
     1
 90
        0
176
     1
290
     0
176
     1
 90
        1
176
     1
 40
0.0
176
     1
 90
        0
176
     1
290
     0
176
     1
290
     1
176
     1
290
     1
176
     1
290
     0
176
     1
290
     0
176
     1
290
     0
176
     1
290
     0
176
     1
290
     0
176
     1
290
     0
176
     1
 90
       50
176
     1
 40
0.0
176
     1
 40
1.0
176
     1
 90
        0
176
     1
 62
    18
420
        0
176
     1
 90
       50
176
     1
 90
        3
176
     1
 62
     5
420
      255
176
     1
290
     0
176
     1
 90
       50
176
     1
 90
       50
176
     1
 90
       50
176
     1
290
     0
176
     1
 90
       50
176
     1
 62
   256
176
     0
 40
1.0
176
     0
 90
        2
176
     1
  1
strokes_ogs.tif
176
     1
290
     0
176
     1
 40
1.0
176
     1
 40
1.0
176
     1
  0
VISUALSTYLE
  5
35
102
{ACAD_REACTORS
330
29
102
}
330
29
100
AcDbVisualStyle
  2
Brighten
 70
    12
177
     3
291
     1
 70
    58
 90
        2
176
     1
 90
        2
176
     1
 90
        0
176
     1
 90
        0
176
     1
 40
0.6
176
     1
 40
30.0
176
     1
 62
     7
420
 16777215
176
     1
 90
        1
176
     1
 90
        4
176
     1
 62
     7
176
     1
 62
   257
176
     1
 90
        1
176
     1
 90
        1
176
     1
 40
1.0
176
     1
 90
        8
176
     1
 62
     7
176
     1
 40
1.0
176
     1
 90
        1
176
     1
 90
        6
176
     1
 90
        2
176
     1
 62
     7
176
     1
 90
        5
176
     1
 90
        0
176
     1
 90
        0
176
     1
290
     0
176
     1
 90
        1
176
     1
 40
50.0
176
     1
 90
        0
176
     1
290
     0
176
     1
290
     1
176
     1
290
     1
176
     1
290
     0
176
     1
290
     0
176
     1
290
     0
176
     1
290
     0
176
     1
290
     0
176
     1
290
     0
176
     1
 90
       50
176
     1
 40
0.0
176
     1
 40
1.0
176
     1
 90
        0
176
     1
 62
    18
420
        0
176
     1
 90
       50
176
     1
 90
        3
176
     1
 62
     5
420
      255
176
     1
290
     0
176
     1
 90
       50
176
     1
 90
       50
176
     1
 90
       50
176
     1
290
     0
176
     1
 90
       50
176
     1
 62
   256
176
     0
 40
1.0
176
     0
 90
        2
176
     1
  1
strokes_ogs.tif
176
     1
290
     0
176
     1
 40
1.0
176
     1
 40
1.0
176
     1
  0
VISUALSTYLE
  5
39
102
{ACAD_REACTORS
330
29
102
}
330
29
100
AcDbVisualStyle
  2
ColorChange
 70
    16
177
     3
291
     1
 70
    58
 90
        2
176
     1
 90
        2
176
     1
 90
        3
176
     1
 90
        0
176
     1
 40
0.6
176
     1
 40
30.0
176
     1
 62
     8
420
  8421504
176
     1
 90
        1
176
     1
 90
        4
176
     1
 62
     7
176
     1
 62
   257
176
     1
 90
        1
176
     1
 90
        1
176
     1
 40
1.0
176
     1
 90
        8
176
     1
 62
     8
420
  8421504
176
     1
 40
1.0
176
     1
 90
        1
176
     1
 90
        6
176
     1
 90
        2
176
     1
 62
     7
176
     1
 90
        5
176
     1
 90
        0
176
     1
 90
        0
176
     1
290
     0
176
     1
 90
        1
176
     1
 40
0.0
176
     1
 90
        0
176
     1
290
     0
176
     1
290
     1
176
     1
290
     1
176
     1
290
     0
176
     1
290
     0
176
     1
290
     0
176
     1
290
     0
176
     1
290
     0
176
     1
290
     0
176
     1
 90
       50
176
     1
 40
0.0
176
     1
 40
1.0
176
     1
 90
        0
176
     1
 62
    18
420
        0
176
     1
 90
       50
176
     1
 90
        3
176
     1
 62
     5
420
      255
176
     1
290
     0
176
     1
 90
       50
176
     1
 90
       50
176
     1
 90
       50
176
     1
290
     0
176
     1
 90
       50
176
     1
 62
   256
176
     0
 40
1.0
176
     0
 90
        2
176
     1
  1
strokes_ogs.tif
176
     1
290
     0
176
     1
 40
1.0
176
     1
 40
1.0
176
     1
  0
VISUALSTYLE
  5
32
102
{ACAD_REACTORS
330
29
102
}
330
29
100
AcDbVisualStyle
  2
Conceptual
 70
     9
177
     3
291
     0
 70
    58
 90
        3
176
     1
 90
        2
176
     1
 90
        0
176
     1
 90
        0
176
     1
 40
0.6
176
     1
 40
30.0
176
     1
 62
     7
420
 16777215
176
     1
 90
        2
176
     1
 90
        2
176
     1
 62
     7
176
     1
 62
   257
176
     1
 90
        1
176
     1
 90
        1
176
     1
 40
179.0
176
     1
 90
        8
176
     1
 62
     7
176
     1
 40
1.0
176
     1
 90
        1
176
     1
 90
        6
176
     1
 90
        2
176
     1
 62
     7
176
     1
 90
        3
176
     1
 90
        0
176
     1
 90
        0
176
     1
290
     0
176
     1
 90
        1
176
     1
 40
0.0
176
     1
 90
        0
176
     1
290
     0
176
     1
290
     1
176
     1
290
     1
176
     1
290
     0
176
     1
290
     0
176
     1
290
     0
176
     1
290
     0
176
     1
290
     0
176
     1
290
     0
176
     1
 90
       50
176
     1
 40
0.0
176
     1
 40
1.0
176
     1
 90
        0
176
     1
 62
    18
420
        0
176
     1
 90
       50
176
     1
 90
        3
176
     1
 62
     5
420
      255
176
     1
290
     0
176
     1
 90
       50
176
     1
 90
       50
176
     1
 90
       50
176
     1
290
     0
176
     1
 90
       50
176
     1
 62
   256
176
     0
 40
1.0
176
     0
 90
        2
176
     1
  1
strokes_ogs.tif
176
     1
290
     0
176
     1
 40
1.0
176
     1
 40
1.0
176
     1
  0
VISUALSTYLE
  5
34
102
{ACAD_REACTORS
330
29
102
}
330
29
100
AcDbVisualStyle
  2
Dim
 70
    11
177
     3
291
     1
 70
    58
 90
        2
176
     1
 90
        2
176
     1
 90
        0
176
     1
 90
        0
176
     1
 40
0.6
176
     1
 40
30.0
176
     1
 62
     7
420
 16777215
176
     1
 90
        1
176
     1
 90
        4
176
     1
 62
     7
176
     1
 62
   257
176
     1
 90
        1
176
     1
 90
        1
176
     1
 40
1.0
176
     1
 90
        8
176
     1
 62
     7
176
     1
 40
1.0
176
     1
 90
        1
176
     1
 90
        6
176
     1
 90
        2
176
     1
 62
     7
176
     1
 90
        5
176
     1
 90
        0
176
     1
 90
        0
176
     1
290
     0
176
     1
 90
        1
176
     1
 40
-50.0
176
     1
 90
        0
176
     1
290
     0
176
     1
290
     1
176
     1
290
     1
176
     1
290
     0
176
     1
290
     0
176
     1
290
     0
176
     1
290
     0
176
     1
290
     0
176
     1
290
     0
176
     1
 90
       50
176
     1
 40
0.0
176
     1
 40
1.0
176
     1
 90
        0
176
     1
 62
    18
420
        0
176
     1
 90
       50
176
     1
 90
        3
176
     1
 62
     5
420
      255
176
     1
290
     0
176
     1
 90
       50
176
     1
 90
       50
176
     1
 90
       50
176
     1
290
     0
176
     1
 90
       50
176
     1
 62
   256
176
     0
 40
1.0
176
     0
 90
        2
176
     1
  1
strokes_ogs.tif
176
     1
290
     0
176
     1
 40
1.0
176
     1
 40
1.0
176
     1
  0
VISUALSTYLE
  5
41
102
{ACAD_REACTORS
330
29
102
}
330
29
100
AcDbVisualStyle
  2
EdgeColorOff
 70
    22
177
     3
291
     1
 70
    58
 90
        2
176
     0
 90
        2
176
     0
 90
        0
176
     0
 90
        0
176
     0
 40
0.6
176
     0
 40
30.0
176
     0
 62
     7
420
 16777215
176
     0
 90
        1
176
     0
 90
        4
176
     0
 62
     7
176
     0
 62
   257
176
     0
 90
        1
176
     0
 90
        1
176
     0
 40
1.0
176
     0
 90
        8
176
     2
 62
     7
176
     0
 40
1.0
176
     0
 90
        1
176
     0
 90
        6
176
     0
 90
        2
176
     0
 62
     7
176
     0
 90
        5
176
     0
 90
        0
176
     0
 90
        0
176
     0
290
     0
176
     0
 90
        1
176
     0
 40
0.0
176
     0
 90
        0
176
     0
290
     0
176
     0
290
     1
176
     0
290
     1
176
     0
290
     0
176
     0
290
     0
176
     0
290
     0
176
     0
290
     0
176
     0
290
     0
176
     0
290
     0
176
     0
 90
       50
176
     0
 40
0.0
176
     0
 40
1.0
176
     0
 90
        0
176
     0
 62
    18
420
        0
176
     0
 90
       50
176
     0
 90
        3
176
     0
 62
     5
420
      255
176
     0
290
     0
176
     0
 90
       50
176
     0
 90
       50
176
     0
 90
       50
176
     0
290
     0
176
     0
 90
       50
176
     0
 62
   256
176
     0
 40
1.0
176
     0
 90
        2
176
     0
  1
strokes_ogs.tif
176
     0
290
     0
176
     0
 40
1.0
176
     0
 40
1.0
176
     0
  0
VISUALSTYLE
  5
38
102
{ACAD_REACTORS
330
29
102
}
330
29
100
AcDbVisualStyle
  2
Facepattern
 70
    15
177
     3
291
     1
 70
    58
 90
        2
176
     1
 90
        2
176
     1
 90
        0
176
     1
 90
        0
176
     1
 40
0.6
176
     1
 40
30.0
176
     1
 62
     7
420
 16777215
176
     1
 90
        1
176
     1
 90
        4
176
     1
 62
     7
176
     1
 62
   257
176
     1
 90
        1
176
     1
 90
        1
176
     1
 40
1.0
176
     1
 90
        8
176
     1
 62
     7
176
     1
 40
1.0
176
     1
 90
        1
176
     1
 90
        6
176
     1
 90
        2
176
     1
 62
     7
176
     1
 90
        5
176
     1
 90
        0
176
     1
 90
        0
176
     1
290
     0
176
     1
 90
        1
176
     1
 40
0.0
176
     1
 90
        0
176
     1
290
     0
176
     1
290
     1
176
     1
290
     1
176
     1
290
     0
176
     1
290
     0
176
     1
290
     0
176
     1
290
     0
176
     1
290
     0
176
     1
290
     0
176
     1
 90
       50
176
     1
 40
0.0
176
     1
 40
1.0
176
     1
 90
        0
176
     1
 62
    18
420
        0
176
     1
 90
       50
176
     1
 90
        3
176
     1
 62
     5
420
      255
176
     1
290
     0
176
     1
 90
       50
176
     1
 90
       50
176
     1
 90
       50
176
     1
290
     0
176
     1
 90
       50
176
     1
 62
   256
176
     0
 40
1.0
176
     0
 90
        2
176
     1
  1
strokes_ogs.tif
176
     1
290
     0
176
     1
 40
1.0
176
     1
 40
1.0
176
     1
  0
VISUALSTYLE
  5
2A
102
{ACAD_REACTORS
330
29
102
}
330
29
100
AcDbVisualStyle
  2
Flat
 70
     0
177
     3
291
     1
 70
    58
 90
        2
176
     1
 90
        1
176
     1
 90
        1
176
     1
 90
        2
176
     1
 40
0.6
176
     1
 40
30.0
176
     1
 62
     7
420
 16777215
176
     1
 90
        0
176
     1
 90
        0
176
     1
 62
     7
176
     1
 62
   257
176
     1
 90
        1
176
     1
 90
        1
176
     1
 40
1.0
176
     1
 90
        8
176
     1
 62
     7
176
     1
 40
1.0
176
     1
 90
        1
176
     1
 90
        6
176
     1
 90
        2
176
     1
 62
     7
176
     1
 90
        5
176
     1
 90
        0
176
     1
 90
        0
176
     1
290
     0
176
     1
 90
       13
176
     1
 40
0.0
176
     1
 90
        0
176
     1
290
     0
176
     1
290
     1
176
     1
290
     1
176
     1
290
     0
176
     1
290
     0
176
     1
290
     0
176
     1
290
     0
176
     1
290
     0
176
     1
290
     0
176
     1
 90
       50
176
     1
 40
0.0
176
     1
 40
1.0
176
     1
 90
        0
176
     1
 62
    18
420
        0
176
     1
 90
       50
176
     1
 90
        3
176
     1
 62
     5
420
      255
176
     1
290
     0
176
     1
 90
       50
176
     1
 90
       50
176
     1
 90
       50
176
     1
290
     0
176
     1
 90
       50
176
     1
 62
   256
176
     0
 40
1.0
176
     0
 90
        2
176
     1
  1
strokes_ogs.tif
176
     1
290
     0
176
     1
 40
1.0
176
     1
 40
1.0
176
     1
  0
VISUALSTYLE
  5
2B
102
{ACAD_REACTORS
330
29
102
}
330
29
100
AcDbVisualStyle
  2
FlatWithEdges
 70
     1
177
     3
291
     1
 70
    58
 90
        2
176
     1
 90
        1
176
     1
 90
        1
176
     1
 90
        2
176
     1
 40
0.6
176
     1
 40
30.0
176
     1
 62
     7
420
 16777215
176
     1
 90
        1
176
     1
 90
        0
176
     1
 62
     7
176
     1
 62
   257
176
     1
 90
        1
176
     1
 90
        1
176
     1
 40
1.0
176
     1
 90
        0
176
     1
 62
   257
176
     1
 40
1.0
176
     1
 90
        1
176
     1
 90
        6
176
     1
 90
        2
176
     1
 62
     7
176
     1
 90
        5
176
     1
 90
        0
176
     1
 90
        0
176
     1
290
     0
176
     1
 90
       13
176
     1
 40
0.0
176
     1
 90
        0
176
     1
290
     0
176
     1
290
     1
176
     1
290
     1
176
     1
290
     0
176
     1
290
     0
176
     1
290
     0
176
     1
290
     0
176
     1
290
     0
176
     1
290
     0
176
     1
 90
       50
176
     1
 40
0.0
176
     1
 40
1.0
176
     1
 90
        0
176
     1
 62
    18
420
        0
176
     1
 90
       50
176
     1
 90
        3
176
     1
 62
     5
420
      255
176
     1
290
     0
176
     1
 90
       50
176
     1
 90
       50
176
     1
 90
       50
176
     1
290
     0
176
     1
 90
       50
176
     1
 62
   256
176
     0
 40
1.0
176
     0
 90
        2
176
     1
  1
strokes_ogs.tif
176
     1
290
     0
176
     1
 40
1.0
176
     1
 40
1.0
176
     1
  0
VISUALSTYLE
  5
2C
102
{ACAD_REACTORS
330
29
102
}
330
29
100
AcDbVisualStyle
  2
Gouraud
 70
     2
177
     3
291
     1
 70
    58
 90
        2
176
     1
 90
        2
176
     1
 90
        1
176
     1
 90
        2
176
     1
 40
0.6
176
     1
 40
30.0
176
     1
 62
     7
420
 16777215
176
     1
 90
        0
176
     1
 90
        0
176
     1
 62
     7
176
     1
 62
   257
176
     1
 90
        1
176
     1
 90
        1
176
     1
 40
1.0
176
     1
 90
        0
176
     1
 62
     7
176
     1
 40
1.0
176
     1
 90
        1
176
     1
 90
        6
176
     1
 90
        2
176
     1
 62
     7
176
     1
 90
        5
176
     1
 90
        0
176
     1
 90
        0
176
     1
290
     0
176
     1
 90
       13
176
     1
 40
0.0
176
     1
 90
        0
176
     1
290
     0
176
     1
290
     1
176
     1
290
     1
176
     1
290
     0
176
     1
290
     0
176
     1
290
     0
176
     1
290
     0
176
     1
290
     0
176
     1
290
     0
176
     1
 90
       50
176
     1
 40
0.0
176
     1
 40
1.0
176
     1
 90
        0
176
     1
 62
    18
420
        0
176
     1
 90
       50
176
     1
 90
        3
176
     1
 62
     5
420
      255
176
     1
290
     0
176
     1
 90
       50
176
     1
 90
       50
176
     1
 90
       50
176
     1
290
     0
176
     1
 90
       50
176
     1
 62
   256
176
     0
 40
1.0
176
     0
 90
        2
176
     1
  1
strokes_ogs.tif
176
     1
290
     0
176
     1
 40
1.0
176
     1
 40
1.0
176
     1
  0
VISUALSTYLE
  5
2D
102
{ACAD_REACTORS
330
29
102
}
330
29
100
AcDbVisualStyle
  2
GouraudWithEdges
 70
     3
177
     3
291
     1
 70
    58
 90
        2
176
     1
 90
        2
176
     1
 90
        1
176
     1
 90
        2
176
     1
 40
0.6
176
     1
 40
30.0
176
     1
 62
     7
420
 16777215
176
     1
 90
        1
176
     1
 90
        0
176
     1
 62
     7
176
     1
 62
   257
176
     1
 90
        1
176
     1
 90
        1
176
     1
 40
1.0
176
     1
 90
        0
176
     1
 62
   257
176
     1
 40
1.0
176
     1
 90
        1
176
     1
 90
        6
176
     1
 90
        2
176
     1
 62
     7
176
     1
 90
        5
176
     1
 90
        0
176
     1
 90
        0
176
     1
290
     0
176
     1
 90
       13
176
     1
 40
0.0
176
     1
 90
        0
176
     1
290
     0
176
     1
290
     1
176
     1
290
     1
176
     1
290
     0
176
     1
290
     0
176
     1
290
     0
176
     1
290
     0
176
     1
290
     0
176
     1
290
     0
176
     1
 90
       50
176
     1
 40
0.0
176
     1
 40
1.0
176
     1
 90
        0
176
     1
 62
    18
420
        0
176
     1
 90
       50
176
     1
 90
        3
176
     1
 62
     5
420
      255
176
     1
290
     0
176
     1
 90
       50
176
     1
 90
       50
176
     1
 90
       50
176
     1
290
     0
176
     1
 90
       50
176
     1
 62
   256
176
     0
 40
1.0
176
     0
 90
        2
176
     1
  1
strokes_ogs.tif
176
     1
290
     0
176
     1
 40
1.0
176
     1
 40
1.0
176
     1
  0
VISUALSTYLE
  5
31
102
{ACAD_REACTORS
330
29
102
}
330
29
100
AcDbVisualStyle
  2
Hidden
 70
     6
177
     3
291
     0
 70
    58
 90
        1
176
     1
 90
        2
176
     1
 90
        2
176
     1
 90
        0
176
     1
 40
0.6
176
     1
 40
30.0
176
     1
 62
     7
420
 16777215
176
     1
 90
        2
176
     1
 90
        2
176
     1
 62
     7
176
     1
 62
   257
176
     1
 90
        2
176
     1
 90
        1
176
     1
 40
40.0
176
     1
 90
        0
176
     1
 62
   257
176
     1
 40
1.0
176
     1
 90
        1
176
     1
 90
        6
176
     1
 90
        2
176
     1
 62
     7
176
     1
 90
        3
176
     1
 90
        0
176
     1
 90
        0
176
     1
290
     0
176
     1
 90
        1
176
     1
 40
0.0
176
     1
 90
        0
176
     1
290
     0
176
     1
290
     1
176
     1
290
     1
176
     1
290
     0
176
     1
290
     0
176
     1
290
     0
176
     1
290
     0
176
     1
290
     0
176
     1
290
     0
176
     1
 90
       50
176
     1
 40
0.0
176
     1
 40
1.0
176
     1
 90
        0
176
     1
 62
    18
420
        0
176
     1
 90
       50
176
     1
 90
        3
176
     1
 62
     5
420
      255
176
     1
290
     0
176
     1
 90
       50
176
     1
 90
       50
176
     1
 90
       50
176
     1
290
     0
176
     1
 90
       50
176
     1
 62
   256
176
     0
 40
1.0
176
     0
 90
        2
176
     1
  1
strokes_ogs.tif
176
     1
290
     0
176
     1
 40
1.0
176
     1
 40
1.0
176
     1
  0
VISUALSTYLE
  5
3F
102
{ACAD_REACTORS
330
29
102
}
330
29
100
AcDbVisualStyle
  2
JitterOff
 70
    20
177
     3
291
     1
 70
    58
 90
        2
176
     0
 90
        2
176
     0
 90
        0
176
     0
 90
        0
176
     0
 40
0.6
176
     0
 40
30.0
176
     0
 62
     7
420
 16777215
176
     0
 90
        1
176
     0
 90
        4
176
     0
 62
     7
176
     0
 62
   257
176
     0
 90
        1
176
     0
 90
        1
176
     0
 40
1.0
176
     0
 90
       10
176
     2
 62
     7
176
     0
 40
1.0
176
     0
 90
        1
176
     0
 90
        6
176
     0
 90
        2
176
     0
 62
     7
176
     0
 90
        5
176
     0
 90
        0
176
     0
 90
        0
176
     0
290
     0
176
     0
 90
        1
176
     0
 40
0.0
176
     0
 90
        0
176
     0
290
     0
176
     0
290
     1
176
     0
290
     1
176
     0
290
     0
176
     0
290
     0
176
     0
290
     0
176
     0
290
     0
176
     0
290
     0
176
     0
290
     0
176
     0
 90
       50
176
     0
 40
0.0
176
     0
 40
1.0
176
     0
 90
        0
176
     0
 62
    18
420
        0
176
     0
 90
       50
176
     0
 90
        3
176
     0
 62
     5
420
      255
176
     0
290
     0
176
     0
 90
       50
176
     0
 90
       50
176
     0
 90
       50
176
     0
290
     0
176
     0
 90
       50
176
     0
 62
   256
176
     0
 40
1.0
176
     0
 90
        2
176
     0
  1
strokes_ogs.tif
176
     0
290
     0
176
     0
 40
1.0
176
     0
 40
1.0
176
     0
  0
VISUALSTYLE
  5
37
102
{ACAD_REACTORS
330
29
102
}
330
29
100
AcDbVisualStyle
  2
Linepattern
 70
    14
177
     3
291
     1
 70
    58
 90
        2
176
     1
 90
        2
176
     1
 90
        0
176
     1
 90
        0
176
     1
 40
0.6
176
     1
 40
30.0
176
     1
 62
     7
420
 16777215
176
     1
 90
        1
176
     1
 90
        4
176
     1
 62
     7
176
     1
 62
   257
176
     1
 90
        7
176
     1
 90
        7
176
     1
 40
1.0
176
     1
 90
        8
176
     1
 62
     7
176
     1
 40
1.0
176
     1
 90
        1
176
     1
 90
        6
176
     1
 90
        2
176
     1
 62
     7
176
     1
 90
        5
176
     1
 90
        0
176
     1
 90
        0
176
     1
290
     0
176
     1
 90
        1
176
     1
 40
0.0
176
     1
 90
        0
176
     1
290
     0
176
     1
290
     1
176
     1
290
     1
176
     1
290
     0
176
     1
290
     0
176
     1
290
     0
176
     1
290
     0
176
     1
290
     0
176
     1
290
     0
176
     1
 90
       50
176
     1
 40
0.0
176
     1
 40
1.0
176
     1
 90
        0
176
     1
 62
    18
420
        0
176
     1
 90
       50
176
     1
 90
        3
176
     1
 62
     5
420
      255
176
     1
290
     0
176
     1
 90
       50
176
     1
 90
       50
176
     1
 90
       50
176
     1
290
     0
176
     1
 90
       50
176
     1
 62
   256
176
     0
 40
1.0
176
     0
 90
        2
176
     1
  1
strokes_ogs.tif
176
     1
290
     0
176
     1
 40
1.0
176
     1
 40
1.0
176
     1
  0
VISUALSTYLE
  5
40
102
{ACAD_REACTORS
330
29
102
}
330
29
100
AcDbVisualStyle
  2
OverhangOff
 70
    21
177
     3
291
     1
 70
    58
 90
        2
176
     0
 90
        2
176
     0
 90
        0
176
     0
 90
        0
176
     0
 40
0.6
176
     0
 40
30.0
176
     0
 62
     7
420
 16777215
176
     0
 90
        1
176
     0
 90
        4
176
     0
 62
     7
176
     0
 62
   257
176
     0
 90
        1
176
     0
 90
        1
176
     0
 40
1.0
176
     0
 90
        9
176
     2
 62
     7
176
     0
 40
1.0
176
     0
 90
        1
176
     0
 90
        6
176
     0
 90
        2
176
     0
 62
     7
176
     0
 90
        5
176
     0
 90
        0
176
     0
 90
        0
176
     0
290
     0
176
     0
 90
        1
176
     0
 40
0.0
176
     0
 90
        0
176
     0
290
     0
176
     0
290
     1
176
     0
290
     1
176
     0
290
     0
176
     0
290
     0
176
     0
290
     0
176
     0
290
     0
176
     0
290
     0
176
     0
290
     0
176
     0
 90
       50
176
     0
 40
0.0
176
     0
 40
1.0
176
     0
 90
        0
176
     0
 62
    18
420
        0
176
     0
 90
       50
176
     0
 90
        3
176
     0
 62
     5
420
      255
176
     0
290
     0
176
     0
 90
       50
176
     0
 90
       50
176
     0
 90
       50
176
     0
290
     0
176
     0
 90
       50
176
     0
 62
   256
176
     0
 40
1.0
176
     0
 90
        2
176
     0
  1
strokes_ogs.tif
176
     0
290
     0
176
     0
 40
1.0
176
     0
 40
1.0
176
     0
  0
VISUALSTYLE
  5
33
102
{ACAD_REACTORS
330
29
102
}
330
29
100
AcDbVisualStyle
  2
Realistic
 70
     8
177
     3
291
     0
 70
    58
 90
        2
176
     1
 90
        3
176
     1
 90
        0
176
     1
 90
        2
176
     1
 40
0.6
176
     1
 40
30.0
176
     1
 62
     7
420
 16777215
176
     1
 90
        0
176
     1
 90
        0
176
     1
 62
     7
176
     1
 62
   257
176
     1
 90
        1
176
     1
 90
        1
176
     1
 40
1.0
176
     1
 90
        8
176
     1
 62
   257
176
     1
 40
1.0
176
     1
 90
        1
176
     1
 90
        6
176
     1
 90
        2
176
     1
 62
     7
176
     1
 90
        3
176
     1
 90
        0
176
     1
 90
        0
176
     1
290
     0
176
     1
 90
       13
176
     1
 40
0.0
176
     1
 90
        0
176
     1
290
     0
176
     1
290
     1
176
     1
290
     1
176
     1
290
     0
176
     1
290
     0
176
     1
290
     0
176
     1
290
     0
176
     1
290
     0
176
     1
290
     0
176
     1
 90
       50
176
     1
 40
0.0
176
     1
 40
1.0
176
     1
 90
        0
176
     1
 62
    18
420
        0
176
     1
 90
       50
176
     1
 90
        3
176
     1
 62
     5
420
      255
176
     1
290
     0
176
     1
 90
       50
176
     1
 90
       50
176
     1
 90
       50
176
     1
290
     0
176
     1
 90
       50
176
     1
 62
   256
176
     0
 40
1.0
176
     0
 90
        2
176
     1
  1
strokes_ogs.tif
176
     1
290
     0
176
     1
 40
1.0
176
     1
 40
1.0
176
     1
  0
VISUALSTYLE
  5
3E
102
{ACAD_REACTORS
330
29
102
}
330
29
100
AcDbVisualStyle
  2
Shaded
 70
    27
177
     3
291
     0
 70
    58
 90
        2
176
     1
 90
        2
176
     1
 90
        1
176
     1
 90
        2
176
     1
 40
0.6
176
     1
 40
30.0
176
     1
 62
     7
420
 16777215
176
     1
 90
        0
176
     1
 90
        4
176
     1
 62
     7
176
     1
 62
   257
176
     1
 90
        1
176
     1
 90
        1
176
     1
 40
1.0
176
     1
 90
        8
176
     1
 62
   257
176
     1
 40
1.0
176
     1
 90
        1
176
     1
 90
        6
176
     1
 90
        2
176
     1
 62
     8
420
  7895160
176
     1
 90
        3
176
     1
 90
        0
176
     1
 90
        0
176
     1
290
     0
176
     1
 90
        5
176
     1
 40
0.0
176
     1
 90
        0
176
     1
290
     0
176
     1
290
     1
176
     1
290
     1
176
     1
290
     0
176
     1
290
     0
176
     1
290
     0
176
     1
290
     0
176
     1
290
     0
176
     1
290
     0
176
     1
 90
       50
176
     1
 40
0.0
176
     1
 40
1.0
176
     1
 90
        0
176
     1
 62
    18
420
        0
176
     1
 90
       50
176
     1
 90
        3
176
     1
 62
     5
420
      255
176
     1
290
     0
176
     1
 90
       50
176
     1
 90
       50
176
     1
 90
       50
176
     1
290
     0
176
     1
 90
       50
176
     1
 62
   256
176
     0
 40
1.0
176
     0
 90
        2
176
     1
  1
strokes_ogs.tif
176
     1
290
     0
176
     1
 40
1.0
176
     1
 40
1.0
176
     1
  0
VISUALSTYLE
  5
3D
102
{ACAD_REACTORS
330
29
102
}
330
29
100
AcDbVisualStyle
  2
Shaded with edges
 70
    26
177
     3
291
     0
 70
    58
 90
        2
176
     1
 90
        2
176
     1
 90
        1
176
     1
 90
        2
176
     1
 40
0.6
176
     1
 40
30.0
176
     1
 62
     7
420
 16777215
176
     1
 90
        1
176
     1
 90
       10
176
     1
 62
     7
176
     1
 62
   257
176
     1
 90
        2
176
     1
 90
        1
176
     1
 40
1.0
176
     1
 90
        8
176
     1
 62
   257
176
     1
 40
1.0
176
     1
 90
        1
176
     1
 90
        6
176
     1
 90
        2
176
     1
 62
     7
176
     1
 90
        3
176
     1
 90
        0
176
     1
 90
        0
176
     1
290
     0
176
     1
 90
        5
176
     1
 40
0.0
176
     1
 90
        0
176
     1
290
     0
176
     1
290
     1
176
     1
290
     1
176
     1
290
     0
176
     1
290
     0
176
     1
290
     0
176
     1
290
     0
176
     1
290
     0
176
     1
290
     0
176
     1
 90
       50
176
     1
 40
0.0
176
     1
 40
1.0
176
     1
 90
        0
176
     1
 62
    18
420
        0
176
     1
 90
       50
176
     1
 90
        3
176
     1
 62
     5
420
      255
176
     1
290
     0
176
     1
 90
       50
176
     1
 90
       50
176
     1
 90
       50
176
     1
290
     0
176
     1
 90
       50
176
     1
 62
   256
176
     0
 40
1.0
176
     0
 90
        2
176
     1
  1
strokes_ogs.tif
176
     1
290
     0
176
     1
 40
1.0
176
     1
 40
1.0
176
     1
  0
VISUALSTYLE
  5
3A
102
{ACAD_REACTORS
330
29
102
}
330
29
100
AcDbVisualStyle
  2
Shades of Gray
 70
    23
177
     3
291
     0
 70
    58
 90
        2
176
     1
 90
        2
176
     1
 90
        3
176
     1
 90
        0
176
     1
 40
0.6
176
     1
 40
30.0
176
     1
 62
     7
420
 16777215
176
     1
 90
        2
176
     1
 90
        2
176
     1
 62
     7
176
     1
 62
     7
176
     1
 90
        1
176
     1
 90
        1
176
     1
 40
40.0
176
     1
 90
        8
176
     1
 62
     7
176
     1
 40
1.0
176
     1
 90
        1
176
     1
 90
        6
176
     1
 90
        2
176
     1
 62
     7
176
     1
 90
        3
176
     1
 90
        0
176
     1
 90
        0
176
     1
290
     0
176
     1
 90
        1
176
     1
 40
0.0
176
     1
 90
        0
176
     1
290
     0
176
     1
290
     1
176
     1
290
     1
176
     1
290
     0
176
     1
290
     0
176
     1
290
     0
176
     1
290
     0
176
     1
290
     0
176
     1
290
     0
176
     1
 90
       50
176
     1
 40
0.0
176
     1
 40
1.0
176
     1
 90
        0
176
     1
 62
    18
420
        0
176
     1
 90
       50
176
     1
 90
        3
176
     1
 62
     5
420
      255
176
     1
290
     0
176
     1
 90
       50
176
     1
 90
       50
176
     1
 90
       50
176
     1
290
     0
176
     1
 90
       50
176
     1
 62
   256
176
     0
 40
1.0
176
     0
 90
        2
176
     1
  1
strokes_ogs.tif
176
     1
290
     0
176
     1
 40
1.0
176
     1
 40
1.0
176
     1
  0
VISUALSTYLE
  5
3B
102
{ACAD_REACTORS
330
29
102
}
330
29
100
AcDbVisualStyle
  2
Sketchy
 70
    24
177
     3
291
     0
 70
    58
 90
        1
176
     1
 90
        2
176
     1
 90
        2
176
     1
 90
        0
176
     1
 40
0.6
176
     1
 40
30.0
176
     1
 62
     7
420
 16777215
176
     1
 90
        2
176
     1
 90
        2
176
     1
 62
     7
176
     1
 62
     7
176
     1
 90
        1
176
     1
 90
        1
176
     1
 40
40.0
176
     1
 90
       11
176
     1
 62
     7
176
     1
 40
1.0
176
     1
 90
        1
176
     1
 90
        6
176
     1
 90
        2
176
     1
 62
     7
176
     1
 90
        6
176
     1
 90
        0
176
     1
 90
        0
176
     1
290
     0
176
     1
 90
        1
176
     1
 40
0.0
176
     1
 90
        0
176
     1
290
     0
176
     1
290
     1
176
     1
290
     1
176
     1
290
     0
176
     1
290
     0
176
     1
290
     0
176
     1
290
     0
176
     1
290
     0
176
     1
290
     0
176
     1
 90
       50
176
     1
 40
0.0
176
     1
 40
1.0
176
     1
 90
        0
176
     1
 62
    18
420
        0
176
     1
 90
       50
176
     1
 90
        3
176
     1
 62
     5
420
      255
176
     1
290
     0
176
     1
 90
       50
176
     1
 90
       50
176
     1
 90
       50
176
     1
290
     0
176
     1
 90
       50
176
     1
 62
   256
176
     0
 40
1.0
176
     0
 90
        2
176
     1
  1
strokes_ogs.tif
176
     1
290
     0
176
     1
 40
1.0
176
     1
 40
1.0
176
     1
  0
VISUALSTYLE
  5
36
102
{ACAD_REACTORS
330
29
102
}
330
29
100
AcDbVisualStyle
  2
Thicken
 70
    13
177
     3
291
     1
 70
    58
 90
        2
176
     1
 90
        2
176
     1
 90
        0
176
     1
 90
        0
176
     1
 40
0.6
176
     1
 40
30.0
176
     1
 62
     7
420
 16777215
176
     1
 90
        1
176
     1
 90
        4
176
     1
 62
     7
176
     1
 62
   257
176
     1
 90
        1
176
     1
 90
        1
176
     1
 40
1.0
176
     1
 90
       12
176
     1
 62
     7
176
     1
 40
1.0
176
     1
 90
        1
176
     1
 90
        6
176
     1
 90
        2
176
     1
 62
     7
176
     1
 90
        5
176
     1
 90
        0
176
     1
 90
        0
176
     1
290
     0
176
     1
 90
        1
176
     1
 40
0.0
176
     1
 90
        0
176
     1
290
     0
176
     1
290
     1
176
     1
290
     1
176
     1
290
     0
176
     1
290
     0
176
     1
290
     0
176
     1
290
     0
176
     1
290
     0
176
     1
290
     0
176
     1
 90
       50
176
     1
 40
0.0
176
     1
 40
1.0
176
     1
 90
        0
176
     1
 62
    18
420
        0
176
     1
 90
       50
176
     1
 90
        3
176
     1
 62
     5
420
      255
176
     1
290
     0
176
     1
 90
       50
176
     1
 90
       50
176
     1
 90
       50
176
     1
290
     0
176
     1
 90
       50
176
     1
 62
   256
176
     0
 40
1.0
176
     0
 90
        2
176
     1
  1
strokes_ogs.tif
176
     1
290
     0
176
     1
 40
1.0
176
     1
 40
1.0
176
     1
  0
VISUALSTYLE
  5
30
102
{ACAD_REACTORS
330
29
102
}
330
29
100
AcDbVisualStyle
  2
Wireframe
 70
     5
177
     3
291
     0
 70
    58
 90
        0
176
     1
 90
        2
176
     1
 90
        0
176
     1
 90
        0
176
     1
 40
0.6
176
     1
 40
30.0
176
     1
 62
     7
420
 16777215
176
     1
 90
        1
176
     1
 90
        4
176
     1
 62
     7
176
     1
 62
   257
176
     1
 90
        1
176
     1
 90
        1
176
     1
 40
1.0
176
     1
 90
        0
176
     1
 62
   257
176
     1
 40
1.0
176
     1
 90
        1
176
     1
 90
        6
176
     1
 90
        2
176
     1
 62
     7
176
     1
 90
        3
176
     1
 90
        0
176
     1
 90
        0
176
     1
290
     0
176
     1
 90
        1
176
     1
 40
0.0
176
     1
 90
        0
176
     1
290
     0
176
     1
290
     1
176
     1
290
     1
176
     1
290
     0
176
     1
290
     0
176
     1
290
     0
176
     1
290
     0
176
     1
290
     0
176
     1
290
     0
176
     1
 90
       50
176
     1
 40
0.0
176
     1
 40
1.0
176
     1
 90
        0
176
     1
 62
    18
420
        0
176
     1
 90
       50
176
     1
 90
        3
176
     1
 62
     5
420
      255
176
     1
290
     0
176
     1
 90
       50
176
     1
 90
       50
176
     1
 90
       50
176
     1
290
     0
176
     1
 90
       50
176
     1
 62
   256
176
     0
 40
1.0
176
     0
 90
        2
176
     1
  1
strokes_ogs.tif
176
     1
290
     0
176
     1
 40
1.0
176
     1
 40
1.0
176
     1
  0
VISUALSTYLE
  5
3C
102
{ACAD_REACTORS
330
29
102
}
330
29
100
AcDbVisualStyle
  2
X-Ray
 70
    25
177
     3
291
     0
 70
    58
 90
        2
176
     1
 90
        2
176
     1
 90
        1
176
     1
 90
        1
176
     1
 40
0.5
176
     1
 40
30.0
176
     1
 62
     7
420
 16777215
176
     1
 90
        1
176
     1
 90
        0
176
     1
 62
     7
176
     1
 62
   257
176
     1
 90
        1
176
     1
 90
        1
176
     1
 40
1.0
176
     1
 90
        8
176
     1
 62
     7
176
     1
 40
1.0
176
     1
 90
        1
176
     1
 90
        6
176
     1
 90
        2
176
     1
 62
     7
176
     1
 90
        3
176
     1
 90
        0
176
     1
 90
        0
176
     1
290
     0
176
     1
 90
       13
176
     1
 40
0.0
176
     1
 90
        0
176
     1
290
     0
176
     1
290
     1
176
     1
290
     1
176
     1
290
     0
176
     1
290
     0
176
     1
290
     0
176
     1
290
     0
176
     1
290
     0
176
     1
290
     0
176
     1
 90
       50
176
     1
 40
0.0
176
     1
 40
1.0
176
     1
 90
        0
176
     1
 62
    18
420
        0
176
     1
 90
       50
176
     1
 90
        3
176
     1
 62
     5
420
      255
176
     1
290
     0
176
     1
 90
       50
176
     1
 90
       50
176
     1
 90
       50
176
     1
290
     0
176
     1
 90
       50
176
     1
 62
   256
176
     0
 40
1.0
176
     0
 90
        2
176
     1
  1
strokes_ogs.tif
176
     1
290
     0
176
     1
 40
1.0
176
     1
 40
1.0
176
     1
  0
DICTIONARYVAR
  5
81
102
{ACAD_REACTORS
330
7C
102
}
330
7C
100
DictionaryVariables
280
     0
  1
1:1
  0
DICTIONARYVAR
  5
7E
102
{ACAD_REACTORS
330
7C
102
}
330
7C
100
DictionaryVariables
280
     0
  1
STANDARD
  0
DICTIONARYVAR
  5
7D
102
{ACAD_REACTORS
330
7C
102
}
330
7C
100
DictionaryVariables
280
     0
  1
STANDARD
  0
DICTIONARYVAR
  5
7F
102
{ACAD_REACTORS
330
7C
102
}
330
7C
100
DictionaryVariables
280
     0
  1
Imperial24
  0
DICTIONARYVAR
  5
80
102
{ACAD_REACTORS
330
7C
102
}
330
7C
100
DictionaryVariables
280
     0
  1
Imperial24
  0
XRECORD
  5
31E
102
{ACAD_REACTORS
330
31A
102
}
330
31A
100
AcDbXrecord
280
     1
  1
BUILDING_ID
  1
Progetto per test valvole
  1
FLOOR_ID
  1
694395
  0
XRECORD
  5
31C
102
{ACAD_REACTORS
330
31A
102
}
330
31A
100
AcDbXrecord
280
     1
  1
-2001160
  1
Apparecchi idraulici
  0
XRECORD
  5
31D
102
{ACAD_REACTORS
330
31A
102
}
330
31A
100
AcDbXrecord
280
     1
  1
790271
  1
Body
  1
856288
  1
Lever
  0
XRECORD
  5
31B
102
{ACAD_REACTORS
330
31A
102
}
330
31A
100
AcDbXrecord
280
     1
  1
859151
  1
Automatic flow rate regulator valve_Caleffi_121 DN15 : 1/2''
  0
DICTIONARY
  5
1A
330
19
100
AcDbDictionary
280
     1
281
     1
  3
BUMPTILE
360
1C
  3
DIFFUSETILE
360
1B
  3
OPACITYTILE
360
1F
  3
REFLECTIONTILE
360
1E
  3
REFRACTIONTILE
360
20
  3
SPECULARTILE
360
1D
  0
DICTIONARY
  5
12
330
11
100
AcDbDictionary
280
     1
281
     1
  3
BUMPTILE
360
14
  3
DIFFUSETILE
360
13
  3
OPACITYTILE
360
17
  3
REFLECTIONTILE
360
16
  3
REFRACTIONTILE
360
18
  3
SPECULARTILE
360
15
  0
DICTIONARY
  5
22
330
21
100
AcDbDictionary
280
     1
281
     1
  3
BUMPTILE
360
24
  3
DIFFUSETILE
360
23
  3
OPACITYTILE
360
27
  3
REFLECTIONTILE
360
26
  3
REFRACTIONTILE
360
28
  3
SPECULARTILE
360
25
  0
DICTIONARY
  5
321
330
65
100
AcDbDictionary
280
     1
281
     1
  3
ACAD_ROUNDTRIP_2008_TABLESTYLE_CELLSTYLEMAP
360
322
  0
XRECORD
  5
1C
102
{ACAD_REACTORS
330
1A
102
}
330
1A
100
AcDbXrecord
280
     1
270
     1
271
     1
  0
XRECORD
  5
1B
102
{ACAD_REACTORS
330
1A
102
}
330
1A
100
AcDbXrecord
280
     1
270
     1
271
     1
  0
XRECORD
  5
1F
102
{ACAD_REACTORS
330
1A
102
}
330
1A
100
AcDbXrecord
280
     1
270
     1
271
     1
  0
XRECORD
  5
1E
102
{ACAD_REACTORS
330
1A
102
}
330
1A
100
AcDbXrecord
280
     1
270
     1
271
     1
  0
XRECORD
  5
20
102
{ACAD_REACTORS
330
1A
102
}
330
1A
100
AcDbXrecord
280
     1
270
     1
271
     1
  0
XRECORD
  5
1D
102
{ACAD_REACTORS
330
1A
102
}
330
1A
100
AcDbXrecord
280
     1
270
     1
271
     1
  0
XRECORD
  5
14
102
{ACAD_REACTORS
330
12
102
}
330
12
100
AcDbXrecord
280
     1
270
     1
271
     1
  0
XRECORD
  5
13
102
{ACAD_REACTORS
330
12
102
}
330
12
100
AcDbXrecord
280
     1
270
     1
271
     1
  0
XRECORD
  5
17
102
{ACAD_REACTORS
330
12
102
}
330
12
100
AcDbXrecord
280
     1
270
     1
271
     1
  0
XRECORD
  5
16
102
{ACAD_REACTORS
330
12
102
}
330
12
100
AcDbXrecord
280
     1
270
     1
271
     1
  0
XRECORD
  5
18
102
{ACAD_REACTORS
330
12
102
}
330
12
100
AcDbXrecord
280
     1
270
     1
271
     1
  0
XRECORD
  5
15
102
{ACAD_REACTORS
330
12
102
}
330
12
100
AcDbXrecord
280
     1
270
     1
271
     1
  0
XRECORD
  5
24
102
{ACAD_REACTORS
330
22
102
}
330
22
100
AcDbXrecord
280
     1
270
     1
271
     1
  0
XRECORD
  5
23
102
{ACAD_REACTORS
330
22
102
}
330
22
100
AcDbXrecord
280
     1
270
     1
271
     1
  0
XRECORD
  5
27
102
{ACAD_REACTORS
330
22
102
}
330
22
100
AcDbXrecord
280
     1
270
     1
271
     1
  0
XRECORD
  5
26
102
{ACAD_REACTORS
330
22
102
}
330
22
100
AcDbXrecord
280
     1
270
     1
271
     1
  0
XRECORD
  5
28
102
{ACAD_REACTORS
330
22
102
}
330
22
100
AcDbXrecord
280
     1
270
     1
271
     1
  0
XRECORD
  5
25
102
{ACAD_REACTORS
330
22
102
}
330
22
100
AcDbXrecord
280
     1
270
     1
271
     1
  0
CELLSTYLEMAP
  5
322
102
{ACAD_REACTORS
330
321
102
}
330
321
100
AcDbCellStyleMap
 90
        3
300
CELLSTYLE
  1
TABLEFORMAT_BEGIN
 90
        5
170
     1
 91
        0
 92
    32768
 62
   257
 93
        1
300
CONTENTFORMAT
  1
CONTENTFORMAT_BEGIN
 90
        0
 91
        0
 92
      512
 93
        0
300

 40
0.0
140
1.0
 94
        5
 62
     0
340
55
144
0.25
309
CONTENTFORMAT_END
171
     0
 94
        0
309
TABLEFORMAT_END
  1
CELLSTYLE_BEGIN
 90
        1
 91
        1
300
_TITLE
309
CELLSTYLE_END
300
CELLSTYLE
  1
TABLEFORMAT_BEGIN
 90
        5
170
     1
 91
        0
 92
        0
 62
   257
 93
        1
300
CONTENTFORMAT
  1
CONTENTFORMAT_BEGIN
 90
        0
 91
        0
 92
      512
 93
        0
300

 40
0.0
140
1.0
 94
        5
 62
     0
340
55
144
0.18
309
CONTENTFORMAT_END
171
     0
 94
        0
309
TABLEFORMAT_END
  1
CELLSTYLE_BEGIN
 90
        2
 91
        1
300
_HEADER
309
CELLSTYLE_END
300
CELLSTYLE
  1
TABLEFORMAT_BEGIN
 90
        5
170
     1
 91
        0
 92
        0
 62
   257
 93
        1
300
CONTENTFORMAT
  1
CONTENTFORMAT_BEGIN
 90
        0
 91
        0
 92
      512
 93
        0
300

 40
0.0
140
1.0
 94
        2
 62
     0
340
55
144
0.18
309
CONTENTFORMAT_END
171
     0
 94
        0
309
TABLEFORMAT_END
  1
CELLSTYLE_BEGIN
 90
        3
 91
        2
300
_DATA
309
CELLSTYLE_END
  0
ENDSEC
  0
EOF
