  0
SECTION
  2
HEADER
  9
$ACADVER
  1
AC1027
  9
$ACADMAINTVER
 70
    20
  9
$DWGCODEPAGE
  3
ANSI_1252
  9
$REQUIREDVERSIONS
160
                 0
  9
$INSBASE
 10
0.0
 20
0.0
 30
0.0
  9
$EXTMIN
 10
764.7255829007477
 20
1696.995878720055
 30
-0.00000001
  9
$EXTMAX
 10
1213.864353943101
 20
2089.999999999995
 30
0.00000001
  9
$LIMMIN
 10
0.0
 20
0.0
  9
$LIMMAX
 10
12.0
 20
9.0
  9
$ORTHOMODE
 70
     0
  9
$REGENMODE
 70
     1
  9
$FILLMODE
 70
     1
  9
$QTEXTMODE
 70
     0
  9
$MIRRTEXT
 70
     0
  9
$LTSCALE
 40
1.0
  9
$ATTMODE
 70
     1
  9
$TEXTSIZE
 40
0.2
  9
$TRACEWID
 40
0.05
  9
$TEXTSTYLE
  7
Standard
  9
$CLAYER
  8
0
  9
$CELTYPE
  6
ByLayer
  9
$CECOLOR
 62
   256
  9
$CELTSCALE
 40
1.0
  9
$DISPSILH
 70
     0
  9
$DIMSCALE
 40
1.0
  9
$DIMASZ
 40
0.18
  9
$DIMEXO
 40
0.0625
  9
$DIMDLI
 40
0.38
  9
$DIMRND
 40
0.0
  9
$DIMDLE
 40
0.0
  9
$DIMEXE
 40
0.18
  9
$DIMTP
 40
0.0
  9
$DIMTM
 40
0.0
  9
$DIMTXT
 40
0.18
  9
$DIMCEN
 40
0.09
  9
$DIMTSZ
 40
0.0
  9
$DIMTOL
 70
     0
  9
$DIMLIM
 70
     0
  9
$DIMTIH
 70
     1
  9
$DIMTOH
 70
     1
  9
$DIMSE1
 70
     0
  9
$DIMSE2
 70
     0
  9
$DIMTAD
 70
     0
  9
$DIMZIN
 70
     0
  9
$DIMBLK
  1

  9
$DIMASO
 70
     1
  9
$DIMSHO
 70
     1
  9
$DIMPOST
  1

  9
$DIMAPOST
  1

  9
$DIMALT
 70
     0
  9
$DIMALTD
 70
     2
  9
$DIMALTF
 40
25.4
  9
$DIMLFAC
 40
1.0
  9
$DIMTOFL
 70
     0
  9
$DIMTVP
 40
0.0
  9
$DIMTIX
 70
     0
  9
$DIMSOXD
 70
     0
  9
$DIMSAH
 70
     0
  9
$DIMBLK1
  1

  9
$DIMBLK2
  1

  9
$DIMSTYLE
  2
Standard
  9
$DIMCLRD
 70
     0
  9
$DIMCLRE
 70
     0
  9
$DIMCLRT
 70
     0
  9
$DIMTFAC
 40
1.0
  9
$DIMGAP
 40
0.09
  9
$DIMJUST
 70
     0
  9
$DIMSD1
 70
     0
  9
$DIMSD2
 70
     0
  9
$DIMTOLJ
 70
     1
  9
$DIMTZIN
 70
     0
  9
$DIMALTZ
 70
     0
  9
$DIMALTTZ
 70
     0
  9
$DIMUPT
 70
     0
  9
$DIMDEC
 70
     4
  9
$DIMTDEC
 70
     4
  9
$DIMALTU
 70
     2
  9
$DIMALTTD
 70
     2
  9
$DIMTXSTY
  7
Standard
  9
$DIMAUNIT
 70
     0
  9
$DIMADEC
 70
     0
  9
$DIMALTRND
 40
0.0
  9
$DIMAZIN
 70
     0
  9
$DIMDSEP
 70
    46
  9
$DIMATFIT
 70
     3
  9
$DIMFRAC
 70
     0
  9
$DIMLDRBLK
  1

  9
$DIMLUNIT
 70
     2
  9
$DIMLWD
 70
    -2
  9
$DIMLWE
 70
    -2
  9
$DIMTMOVE
 70
     0
  9
$DIMFXL
 40
1.0
  9
$DIMFXLON
 70
     0
  9
$DIMJOGANG
 40
0.7853981633974483
  9
$DIMTFILL
 70
     0
  9
$DIMTFILLCLR
 70
     0
  9
$DIMARCSYM
 70
     0
  9
$DIMLTYPE
  6

  9
$DIMLTEX1
  6

  9
$DIMLTEX2
  6

  9
$DIMTXTDIRECTION
 70
     0
  9
$LUNITS
 70
     2
  9
$LUPREC
 70
     4
  9
$SKETCHINC
 40
0.1
  9
$FILLETRAD
 40
0.0
  9
$AUNITS
 70
     0
  9
$AUPREC
 70
     0
  9
$MENU
  1
.
  9
$ELEVATION
 40
0.0
  9
$PELEVATION
 40
0.0
  9
$THICKNESS
 40
0.0
  9
$LIMCHECK
 70
     0
  9
$CHAMFERA
 40
0.0
  9
$CHAMFERB
 40
0.0
  9
$CHAMFERC
 40
0.0
  9
$CHAMFERD
 40
0.0
  9
$SKPOLY
 70
     0
  9
$TDCREATE
 40
2457561.684910023
  9
$TDUCREATE
 40
2457561.601576690
  9
$TDUPDATE
 40
2457561.684910023
  9
$TDUUPDATE
 40
2457561.601576690
  9
$TDINDWG
 40
0.0000065972
  9
$TDUSRTIMER
 40
0.0000065972
  9
$USRTIMER
 70
     1
  9
$ANGBASE
 50
0.0
  9
$ANGDIR
 70
     0
  9
$PDMODE
 70
     0
  9
$PDSIZE
 40
0.0
  9
$PLINEWID
 40
0.0
  9
$SPLFRAME
 70
     0
  9
$SPLINETYPE
 70
     6
  9
$SPLINESEGS
 70
     8
  9
$HANDSEED
  5
1AB
  9
$SURFTAB1
 70
     6
  9
$SURFTAB2
 70
     6
  9
$SURFTYPE
 70
     6
  9
$SURFU
 70
     6
  9
$SURFV
 70
     6
  9
$UCSBASE
  2

  9
$UCSNAME
  2

  9
$UCSORG
 10
0.0
 20
0.0
 30
0.0
  9
$UCSXDIR
 10
1.0
 20
0.0
 30
0.0
  9
$UCSYDIR
 10
0.0
 20
1.0
 30
0.0
  9
$UCSORTHOREF
  2

  9
$UCSORTHOVIEW
 70
     0
  9
$UCSORGTOP
 10
0.0
 20
0.0
 30
0.0
  9
$UCSORGBOTTOM
 10
0.0
 20
0.0
 30
0.0
  9
$UCSORGLEFT
 10
0.0
 20
0.0
 30
0.0
  9
$UCSORGRIGHT
 10
0.0
 20
0.0
 30
0.0
  9
$UCSORGFRONT
 10
0.0
 20
0.0
 30
0.0
  9
$UCSORGBACK
 10
0.0
 20
0.0
 30
0.0
  9
$PUCSBASE
  2

  9
$PUCSNAME
  2

  9
$PUCSORG
 10
0.0
 20
0.0
 30
0.0
  9
$PUCSXDIR
 10
1.0
 20
0.0
 30
0.0
  9
$PUCSYDIR
 10
0.0
 20
1.0
 30
0.0
  9
$PUCSORTHOREF
  2

  9
$PUCSORTHOVIEW
 70
     0
  9
$PUCSORGTOP
 10
0.0
 20
0.0
 30
0.0
  9
$PUCSORGBOTTOM
 10
0.0
 20
0.0
 30
0.0
  9
$PUCSORGLEFT
 10
0.0
 20
0.0
 30
0.0
  9
$PUCSORGRIGHT
 10
0.0
 20
0.0
 30
0.0
  9
$PUCSORGFRONT
 10
0.0
 20
0.0
 30
0.0
  9
$PUCSORGBACK
 10
0.0
 20
0.0
 30
0.0
  9
$USERI1
 70
     0
  9
$USERI2
 70
     0
  9
$USERI3
 70
     0
  9
$USERI4
 70
     0
  9
$USERI5
 70
     0
  9
$USERR1
 40
0.0
  9
$USERR2
 40
0.0
  9
$USERR3
 40
0.0
  9
$USERR4
 40
0.0
  9
$USERR5
 40
0.0
  9
$WORLDVIEW
 70
     1
  9
$SHADEDGE
 70
     3
  9
$SHADEDIF
 70
    70
  9
$TILEMODE
 70
     1
  9
$MAXACTVP
 70
    64
  9
$PINSBASE
 10
0.0
 20
0.0
 30
0.0
  9
$PLIMCHECK
 70
     0
  9
$PEXTMIN
 10
1.000000000000000E+20
 20
1.000000000000000E+20
 30
1.000000000000000E+20
  9
$PEXTMAX
 10
-1.000000000000000E+20
 20
-1.000000000000000E+20
 30
-1.000000000000000E+20
  9
$PLIMMIN
 10
0.0
 20
0.0
  9
$PLIMMAX
 10
12.0
 20
9.0
  9
$UNITMODE
 70
     0
  9
$VISRETAIN
 70
     1
  9
$PLINEGEN
 70
     0
  9
$PSLTSCALE
 70
     1
  9
$TREEDEPTH
 70
  3020
  9
$CMLSTYLE
  2
Standard
  9
$CMLJUST
 70
     0
  9
$CMLSCALE
 40
1.0
  9
$PROXYGRAPHICS
 70
     1
  9
$MEASUREMENT
 70
     1
  9
$CELWEIGHT
370
    -1
  9
$ENDCAPS
280
     0
  9
$JOINSTYLE
280
     0
  9
$LWDISPLAY
290
     0
  9
$INSUNITS
 70
     4
  9
$HYPERLINKBASE
  1

  9
$STYLESHEET
  1

  9
$XEDIT
290
     1
  9
$CEPSNTYPE
380
     0
  9
$PSTYLEMODE
290
     1
  9
$FINGERPRINTGUID
  2
{631486B3-BCE7-4874-A37C-050A1145F9CD}
  9
$VERSIONGUID
  2
{6DEB42F7-85B6-446F-8945-2C0B7F345CA9}
  9
$EXTNAMES
290
     1
  9
$PSVPSCALE
 40
0.0
  9
$OLESTARTUP
290
     0
  9
$SORTENTS
280
   127
  9
$INDEXCTL
280
     0
  9
$HIDETEXT
280
     1
  9
$XCLIPFRAME
280
     2
  9
$HALOGAP
280
     0
  9
$OBSCOLOR
 70
   257
  9
$OBSLTYPE
280
     0
  9
$INTERSECTIONDISPLAY
280
     0
  9
$INTERSECTIONCOLOR
 70
   257
  9
$DIMASSOC
280
     2
  9
$PROJECTNAME
  1

  9
$CAMERADISPLAY
290
     0
  9
$LENSLENGTH
 40
50.0
  9
$CAMERAHEIGHT
 40
0.0
  9
$STEPSPERSEC
 40
2.0
  9
$STEPSIZE
 40
6.0
  9
$3DDWFPREC
 40
2.0
  9
$PSOLWIDTH
 40
0.25
  9
$PSOLHEIGHT
 40
4.0
  9
$LOFTANG1
 40
1.570796326794896
  9
$LOFTANG2
 40
1.570796326794896
  9
$LOFTMAG1
 40
0.0
  9
$LOFTMAG2
 40
0.0
  9
$LOFTPARAM
 70
     7
  9
$LOFTNORMALS
280
     1
  9
$LATITUDE
 40
37.795
  9
$LONGITUDE
 40
-122.394
  9
$NORTHDIRECTION
 40
0.0
  9
$TIMEZONE
 70
 -8000
  9
$LIGHTGLYPHDISPLAY
280
     1
  9
$TILEMODELIGHTSYNCH
280
     1
  9
$CMATERIAL
347
11
  9
$SOLIDHIST
280
     0
  9
$SHOWHIST
280
     1
  9
$DWFFRAME
280
     2
  9
$DGNFRAME
280
     0
  9
$REALWORLDSCALE
290
     1
  9
$INTERFERECOLOR
 62
     1
  9
$INTERFEREOBJVS
345
33
  9
$INTERFEREVPVS
346
30
  9
$CSHADOW
280
     0
  9
$SHADOWPLANELOCATION
 40
0.0
  0
ENDSEC
  0
SECTION
  2
CLASSES
  0
CLASS
  1
ACDBDICTIONARYWDFLT
  2
AcDbDictionaryWithDefault
  3
ObjectDBX Classes
 90
        0
 91
        1
280
     0
281
     0
  0
CLASS
  1
MATERIAL
  2
AcDbMaterial
  3
ObjectDBX Classes
 90
     1153
 91
        3
280
     0
281
     0
  0
CLASS
  1
VISUALSTYLE
  2
AcDbVisualStyle
  3
ObjectDBX Classes
 90
     4095
 91
       24
280
     0
281
     0
  0
CLASS
  1
SCALE
  2
AcDbScale
  3
ObjectDBX Classes
 90
     1153
 91
       17
280
     0
281
     0
  0
CLASS
  1
TABLESTYLE
  2
AcDbTableStyle
  3
ObjectDBX Classes
 90
     4095
 91
        1
280
     0
281
     0
  0
CLASS
  1
MLEADERSTYLE
  2
AcDbMLeaderStyle
  3
ACDB_MLEADERSTYLE_CLASS
 90
     4095
 91
        1
280
     0
281
     0
  0
CLASS
  1
ACDBSECTIONVIEWSTYLE
  2
AcDbSectionViewStyle
  3
ObjectDBX Classes
 90
     1025
 91
        1
280
     0
281
     0
  0
CLASS
  1
ACDBDETAILVIEWSTYLE
  2
AcDbDetailViewStyle
  3
ObjectDBX Classes
 90
     1025
 91
        1
280
     0
281
     0
  0
CLASS
  1
RASTERVARIABLES
  2
AcDbRasterVariables
  3
ISM
 90
        0
 91
        1
280
     0
281
     0
  0
CLASS
  1
DICTIONARYVAR
  2
AcDbDictionaryVar
  3
ObjectDBX Classes
 90
        0
 91
        5
280
     0
281
     0
  0
CLASS
  1
CELLSTYLEMAP
  2
AcDbCellStyleMap
  3
ObjectDBX Classes
 90
     1152
 91
        2
280
     0
281
     0
  0
CLASS
  1
SORTENTSTABLE
  2
AcDbSortentsTable
  3
ObjectDBX Classes
 90
        0
 91
        1
280
     0
281
     0
  0
ENDSEC
  0
SECTION
  2
TABLES
  0
TABLE
  2
VPORT
  5
8
330
0
100
AcDbSymbolTable
 70
     1
  0
VPORT
  5
57
330
8
100
AcDbSymbolTableRecord
100
AcDbViewportTableRecord
  2
*Active
 70
     0
 10
0.0
 20
0.0
 11
1.0
 21
1.0
 12
989.2949684219244
 22
1893.497939360025
 13
0.0
 23
0.0
 14
1.0
 24
1.0
 15
0.0
 25
0.0
 16
0.0
 26
0.0
 36
1.0
 17
0.0
 27
0.0
 37
0.0
 40
393.0041212799397
 41
1.142834761069664
 42
50.0
 43
0.0
 44
0.0
 50
0.0
 51
0.0
 71
     0
 72
  1000
 73
     1
 74
     1
 75
     0
 76
     0
 77
     0
 78
     0
281
     0
 65
     1
110
0.0
120
0.0
130
0.0
111
1.0
121
0.0
131
0.0
112
0.0
122
1.0
132
0.0
 79
     0
146
0.0
 60
     3
 61
     5
292
     1
282
     1
141
0.0
142
0.0
 63
   250
421
  3355443
  0
ENDTAB
  0
TABLE
  2
LTYPE
  5
5
330
0
100
AcDbSymbolTable
 70
     3
  0
LTYPE
  5
5B
330
5
100
AcDbSymbolTableRecord
100
AcDbLinetypeTableRecord
  2
ByBlock
 70
     0
  3

 72
    65
 73
     0
 40
0.0
  0
LTYPE
  5
5C
330
5
100
AcDbSymbolTableRecord
100
AcDbLinetypeTableRecord
  2
ByLayer
 70
     0
  3

 72
    65
 73
     0
 40
0.0
  0
LTYPE
  5
5D
330
5
100
AcDbSymbolTableRecord
100
AcDbLinetypeTableRecord
  2
Continuous
 70
     0
  3
Solid line
 72
    65
 73
     0
 40
0.0
  0
LTYPE
  5
69
330
5
100
AcDbSymbolTableRecord
100
AcDbLinetypeTableRecord
  2
PHANTOM2
 70
     0
  3
___ _ _ ___ _ _ ___ _ _ ___ _ _
 72
    65
 73
     6
 40
1.25
 49
0.625
 74
     0
 49
-0.125
 74
     0
 49
0.125
 74
     0
 49
-0.125
 74
     0
 49
0.125
 74
     0
 49
-0.125
 74
     0
  0
LTYPE
  5
86
330
5
100
AcDbSymbolTableRecord
100
AcDbLinetypeTableRecord
  2
Nascosto 1_5 mm
 70
     0
  3

 72
    65
 73
     2
 40
2.2
 49
1.5
 74
     0
 49
-0.7000000000000001
 74
     0
  0
ENDTAB
  0
TABLE
  2
LAYER
  5
2
330
0
100
AcDbSymbolTable
 70
     3
  0
LAYER
  5
54
330
2
100
AcDbSymbolTableRecord
100
AcDbLayerTableRecord
  2
0
 70
     0
 62
     7
  6
Continuous
370
    -3
390
F
347
21
348
0
  0
LAYER
  5
85
330
2
100
AcDbSymbolTableRecord
100
AcDbLayerTableRecord
  2
P-SANR-FIXT
 70
     0
 62
     6
  6
Continuous
370
    18
390
F
347
21
348
0
  0
ENDTAB
  0
TABLE
  2
STYLE
  5
3
330
0
100
AcDbSymbolTable
 70
     2
  0
STYLE
  5
55
330
3
100
AcDbSymbolTableRecord
100
AcDbTextStyleTableRecord
  2
Standard
 70
     0
 40
0.0
 41
1.0
 50
0.0
 71
     0
 42
0.2
  3
txt
  4

  0
STYLE
  5
5A
330
3
100
AcDbSymbolTableRecord
100
AcDbTextStyleTableRecord
  2
Annotative
 70
     0
 40
0.0
 41
1.0
 50
0.0
 71
     0
 42
0.2
  3
txt
  4

1001
AcadAnnotative
1000
AnnotativeData
1002
{
1070
     1
1070
     1
1002
}
  0
ENDTAB
  0
TABLE
  2
VIEW
  5
6
330
0
100
AcDbSymbolTable
 70
     0
  0
ENDTAB
  0
TABLE
  2
UCS
  5
7
330
0
100
AcDbSymbolTable
 70
     0
  0
ENDTAB
  0
TABLE
  2
APPID
  5
9
330
0
100
AcDbSymbolTable
 70
     3
  0
APPID
  5
56
330
9
100
AcDbSymbolTableRecord
100
AcDbRegAppTableRecord
  2
ACAD
 70
     0
  0
APPID
  5
5E
330
9
100
AcDbSymbolTableRecord
100
AcDbRegAppTableRecord
  2
AcadAnnotative
 70
     0
  0
APPID
  5
79
330
9
100
AcDbSymbolTableRecord
100
AcDbRegAppTableRecord
  2
REVIT
 70
     0
  0
ENDTAB
  0
TABLE
  2
DIMSTYLE
  5
A
330
0
100
AcDbSymbolTable
 70
     2
100
AcDbDimStyleTable
 71
     0
  0
DIMSTYLE
105
58
330
A
100
AcDbSymbolTableRecord
100
AcDbDimStyleTableRecord
  2
Standard
 70
     0
340
55
  0
DIMSTYLE
105
59
330
A
100
AcDbSymbolTableRecord
100
AcDbDimStyleTableRecord
  2
Annotative
 70
     0
340
55
1001
AcadAnnotative
1000
AnnotativeData
1002
{
1070
     1
1070
     1
1002
}
  0
ENDTAB
  0
TABLE
  2
BLOCK_RECORD
  5
1
330
0
100
AcDbSymbolTable
 70
     4
  0
BLOCK_RECORD
  5
71
102
{ACAD_XDICTIONARY
360
1A6
102
}
330
1
100
AcDbSymbolTableRecord
100
AcDbBlockTableRecord
  2
*Model_Space
340
74
 70
     0
280
     1
281
     0
  0
BLOCK_RECORD
  5
6D
330
1
100
AcDbSymbolTableRecord
100
AcDbBlockTableRecord
  2
*Paper_Space
340
70
 70
     0
280
     1
281
     0
  0
BLOCK_RECORD
  5
75
330
1
100
AcDbSymbolTableRecord
100
AcDbBlockTableRecord
  2
*Paper_Space0
340
78
 70
     0
280
     1
281
     0
  0
BLOCK_RECORD
  5
87
330
1
100
AcDbSymbolTableRecord
100
AcDbBlockTableRecord
  2
Automatic flow rate regulator valve_Caleffi_121 DN15 - 1_2__-859151-Est - Idraulica
340
0
102
{BLKREFS
331
118
102
}
 70
     0
280
     1
281
     0
  0
BLOCK_RECORD
  5
119
330
1
100
AcDbSymbolTableRecord
100
AcDbBlockTableRecord
  2
Automatic flow rate regulator valve_Caleffi_121 DN15 - 1_2__-V1-Est - Idraulica
340
0
102
{BLKREFS
331
147
102
}
 70
     0
280
     1
281
     0
  0
BLOCK_RECORD
  5
148
330
1
100
AcDbSymbolTableRecord
100
AcDbBlockTableRecord
  2
Automatic flow rate regulator valve_Caleffi_121 DN15 - 1_2__-V2-Est - Idraulica
340
0
102
{BLKREFS
331
1A0
102
}
 70
     0
280
     1
281
     0
  0
ENDTAB
  0
ENDSEC
  0
SECTION
  2
BLOCKS
  0
BLOCK
  5
72
330
71
100
AcDbEntity
  8
0
100
AcDbBlockBegin
  2
*Model_Space
 70
     0
 10
0.0
 20
0.0
 30
0.0
  3
*Model_Space
  1

  0
ENDBLK
  5
73
330
71
100
AcDbEntity
  8
0
100
AcDbBlockEnd
  0
BLOCK
  5
6E
330
6D
100
AcDbEntity
 67
     1
  8
0
100
AcDbBlockBegin
  2
*Paper_Space
 70
     0
 10
0.0
 20
0.0
 30
0.0
  3
*Paper_Space
  1

  0
ENDBLK
  5
6F
330
6D
100
AcDbEntity
 67
     1
  8
0
100
AcDbBlockEnd
  0
BLOCK
  5
76
330
75
100
AcDbEntity
 67
     1
  8
0
100
AcDbBlockBegin
  2
*Paper_Space0
 70
     0
 10
0.0
 20
0.0
 30
0.0
  3
*Paper_Space0
  1

  0
ENDBLK
  5
77
330
75
100
AcDbEntity
 67
     1
  8
0
100
AcDbBlockEnd
  0
BLOCK
  5
116
330
87
100
AcDbEntity
  8
0
100
AcDbBlockBegin
  2
Automatic flow rate regulator valve_Caleffi_121 DN15 - 1_2__-859151-Est - Idraulica
 70
     0
 10
0.0
 20
0.0
 30
0.0
  3
Automatic flow rate regulator valve_Caleffi_121 DN15 - 1_2__-859151-Est - Idraulica
  1

  0
LINE
  5
88
330
87
100
AcDbEntity
  8
P-SANR-FIXT
100
AcDbLine
 10
771.975751317872
 20
2078.574337409363
 30
0.0
 11
764.7255829007495
 21
2078.574337409363
 31
0.0
  0
LINE
  5
89
330
87
100
AcDbEntity
  8
P-SANR-FIXT
100
AcDbLine
 10
764.7255829007495
 20
2073.574337409363
 30
0.0
 11
771.7626831360537
 21
2073.574337409363
 31
0.0
  0
LINE
  5
8A
330
87
100
AcDbEntity
  8
P-SANR-FIXT
100
AcDbLine
 10
771.962640348721
 20
2054.799999999995
 30
0.0
 11
771.962640348721
 21
2053.799999999995
 31
0.0
  0
LINE
  5
8B
330
87
100
AcDbEntity
  8
P-SANR-FIXT
100
AcDbLine
 10
771.962640348721
 20
2053.799999999995
 30
0.0
 11
770.9626403487211
 21
2053.799999999995
 31
0.0
  0
LINE
  5
8C
330
87
100
AcDbEntity
  8
P-SANR-FIXT
100
AcDbLine
 10
770.9626403487211
 20
2053.799999999995
 30
0.0
 11
770.962640348721
 21
2023.999999999995
 31
0.0
  0
ARC
  5
8D
330
87
100
AcDbEntity
  8
P-SANR-FIXT
100
AcDbCircle
 10
775.962640348721
 20
2023.999999999995
 30
0.0
 40
5.00000000000024
100
AcDbArc
 50
179.9999999999993
 51
269.999999999999
  0
LINE
  5
8E
330
87
100
AcDbEntity
  8
P-SANR-FIXT
100
AcDbLine
 10
775.9626403487209
 20
2018.999999999995
 30
0.0
 11
853.1626403487209
 21
2018.999999999995
 31
0.0
  0
ARC
  5
8F
330
87
100
AcDbEntity
  8
P-SANR-FIXT
100
AcDbCircle
 10
853.1626403487209
 20
2023.999999999995
 30
0.0
 40
5.000000000000043
100
AcDbArc
 50
269.9999999999984
 51
359.9999999999983
  0
LINE
  5
90
330
87
100
AcDbEntity
  8
P-SANR-FIXT
100
AcDbLine
 10
858.1626403487211
 20
2023.999999999995
 30
0.0
 11
858.1626403487211
 21
2053.799999999995
 31
0.0
  0
LINE
  5
91
330
87
100
AcDbEntity
  8
P-SANR-FIXT
100
AcDbLine
 10
858.1626403487211
 20
2053.799999999995
 30
0.0
 11
857.1626403487211
 21
2053.799999999995
 31
0.0
  0
LINE
  5
92
330
87
100
AcDbEntity
  8
P-SANR-FIXT
100
AcDbLine
 10
857.1626403487211
 20
2053.799999999995
 30
0.0
 11
857.1626403487211
 21
2054.799999999995
 31
0.0
  0
LINE
  5
93
330
87
100
AcDbEntity
  8
P-SANR-FIXT
100
AcDbLine
 10
857.1626403487211
 20
2054.799999999995
 30
0.0
 11
771.962640348721
 21
2054.799999999995
 31
0.0
  0
LINE
  5
94
330
87
100
AcDbEntity
  8
P-SANR-FIXT
100
AcDbLine
 10
764.7255829007478
 20
2073.574337409362
 30
0.0
 11
764.7255829007478
 21
2078.574337409362
 31
0.0
  0
LINE
  5
95
330
87
100
AcDbEntity
  8
P-SANR-FIXT
100
AcDbLine
 10
792.6664074431065
 20
1978.699999999995
 30
0.0
 11
797.3039213629666
 21
1978.699999999995
 31
0.0
  0
LINE
  5
96
330
87
100
AcDbEntity
  8
P-SANR-FIXT
100
AcDbLine
 10
797.3039213629667
 20
1978.699999999995
 30
0.0
 11
808.5288935232489
 21
1978.699999999995
 31
0.0
  0
LINE
  5
97
330
87
100
AcDbEntity
  8
P-SANR-FIXT
100
AcDbLine
 10
808.5288935232487
 20
1978.699999999995
 30
0.0
 11
817.8039213629689
 21
1978.699999999995
 31
0.0
  0
LINE
  5
98
330
87
100
AcDbEntity
  8
P-SANR-FIXT
100
AcDbLine
 10
817.8039213629689
 20
1978.699999999995
 30
0.0
 11
829.0288935232512
 21
1978.699999999995
 31
0.0
  0
LINE
  5
99
330
87
100
AcDbEntity
  8
P-SANR-FIXT
100
AcDbLine
 10
829.0288935232512
 20
1978.699999999995
 30
0.0
 11
833.6664074431112
 21
1978.699999999995
 31
0.0
  0
LINE
  5
9A
330
87
100
AcDbEntity
  8
P-SANR-FIXT
100
AcDbLine
 10
833.6664074431112
 20
1975.99999999997
 30
0.0
 11
829.0288935232512
 21
1975.99999999997
 31
0.0
  0
LINE
  5
9B
330
87
100
AcDbEntity
  8
P-SANR-FIXT
100
AcDbLine
 10
829.0288935232512
 20
1975.99999999997
 30
0.0
 11
817.8039213629689
 21
1975.99999999997
 31
0.0
  0
LINE
  5
9C
330
87
100
AcDbEntity
  8
P-SANR-FIXT
100
AcDbLine
 10
817.8039213629689
 20
1975.99999999997
 30
0.0
 11
808.5288935232489
 21
1975.99999999997
 31
0.0
  0
LINE
  5
9D
330
87
100
AcDbEntity
  8
P-SANR-FIXT
100
AcDbLine
 10
808.5288935232489
 20
1975.99999999997
 30
0.0
 11
797.3039213629667
 21
1975.99999999997
 31
0.0
  0
LINE
  5
9E
330
87
100
AcDbEntity
  8
P-SANR-FIXT
100
AcDbLine
 10
797.3039213629667
 20
1975.99999999997
 30
0.0
 11
792.6664074431065
 21
1975.99999999997
 31
0.0
  0
LINE
  5
9F
330
87
100
AcDbEntity
  8
P-SANR-FIXT
100
AcDbLine
 10
792.6664074431065
 20
1975.99999999997
 30
0.0
 11
792.6664074431065
 21
1978.699999999995
 31
0.0
  0
LINE
  5
A0
330
87
100
AcDbEntity
  8
P-SANR-FIXT
100
AcDbLine
 10
797.3039213629667
 20
1975.99999999997
 30
0.0
 11
797.3039213629667
 21
1978.699999999995
 31
0.0
  0
LINE
  5
A1
330
87
100
AcDbEntity
  8
P-SANR-FIXT
100
AcDbLine
 10
808.5288935232487
 20
1975.99999999997
 30
0.0
 11
808.5288935232487
 21
1978.699999999995
 31
0.0
  0
LINE
  5
A2
330
87
100
AcDbEntity
  8
P-SANR-FIXT
100
AcDbLine
 10
817.8039213629689
 20
1975.99999999997
 30
0.0
 11
817.8039213629689
 21
1978.699999999995
 31
0.0
  0
LINE
  5
A3
330
87
100
AcDbEntity
  8
P-SANR-FIXT
100
AcDbLine
 10
829.0288935232512
 20
1975.99999999997
 30
0.0
 11
829.0288935232512
 21
1978.699999999995
 31
0.0
  0
LINE
  5
A4
330
87
100
AcDbEntity
  8
P-SANR-FIXT
100
AcDbLine
 10
833.6664074431112
 20
1975.99999999997
 30
0.0
 11
833.6664074431112
 21
1978.699999999995
 31
0.0
  0
LINE
  5
A5
330
87
100
AcDbEntity
  8
P-SANR-FIXT
100
AcDbLine
 10
858.1626403487227
 20
2054.799999999996
 30
0.0
 11
856.724032905741
 21
2088.559321328632
 31
0.0
  0
LINE
  5
A6
330
87
100
AcDbEntity
  8
P-SANR-FIXT
100
AcDbLine
 10
772.4012477917043
 20
2088.559321328633
 30
0.0
 11
770.9626403487226
 21
2054.799999999996
 31
0.0
  0
LINE
  5
A7
330
87
100
AcDbEntity
  8
P-SANR-FIXT
100
AcDbLine
 10
852.1626403487211
 20
2089.999999999995
 30
0.0
 11
855.7408449053946
 21
2089.999999999995
 31
0.0
  0
LINE
  5
A8
330
87
100
AcDbEntity
  8
P-SANR-FIXT
100
AcDbLine
 10
773.3844357920477
 20
2089.999999999995
 30
0.0
 11
776.9626403487211
 21
2089.999999999995
 31
0.0
  0
LINE
  5
A9
330
87
100
AcDbEntity
  8
P-SANR-FIXT
100
AcDbLine
 10
776.9626403487211
 20
2089.999999999995
 30
0.0
 11
852.1626403487211
 21
2089.999999999995
 31
0.0
  0
LINE
  5
AA
330
87
100
AcDbEntity
  8
P-SANR-FIXT
100
AcDbLine
 10
858.1626403487211
 20
2054.799999999995
 30
0.0
 11
857.1791383225908
 21
2054.799999999995
 31
0.0
  0
SPLINE
  5
AB
330
87
100
AcDbEntity
  8
P-SANR-FIXT
100
AcDbSpline
210
0.0
220
0.0
230
1.0
 70
     8
 71
     3
 72
    11
 73
     7
 74
     0
 42
0.000000001
 43
0.0000000001
 40
-1.0
 40
-1.0
 40
-1.0
 40
-1.0
 40
-0.7857142857142857
 40
-0.5714285714285714
 40
-0.2857142857142857
 40
0.0
 40
0.0
 40
0.0
 40
0.0
 10
856.7240329057394
 20
2088.559321328631
 30
0.0
 10
856.7243148064161
 20
2088.55395468801
 30
0.0
 10
856.5531761777169
 20
2088.547029471146
 30
0.0
 10
855.7271984626524
 20
2088.548660698949
 30
0.0
 10
854.2418786112232
 20
2088.567849481743
 30
0.0
 10
852.8952611468904
 20
2088.591878664051
 30
0.0
 10
852.2220657745863
 20
2088.605483339691
 30
0.0
  0
LINE
  5
AC
330
87
100
AcDbEntity
  8
P-SANR-FIXT
100
AcDbLine
 10
771.9461423748513
 20
2054.799999999995
 30
0.0
 11
770.9626403487211
 21
2054.799999999995
 31
0.0
  0
LWPOLYLINE
  5
AD
330
87
100
AcDbEntity
  8
P-SANR-FIXT
100
AcDbPolyline
 90
        8
 70
   128
 43
0.0
 10
776.9032400411604
 20
2088.606072782573
 10
775.9016560354441
 20
2088.586501494928
 10
774.9500205966279
 20
2088.570368259295
 10
774.0961073449742
 20
2088.558106355346
 10
773.3829054000307
 20
2088.550530765528
 10
772.846388325393
 20
2088.548161789756
 10
772.5136048453463
 20
2088.551164776406
 10
772.4012477917027
 20
2088.559321328632
  0
LINE
  5
AE
330
87
100
AcDbEntity
  8
P-SANR-FIXT
100
AcDbLine
 10
853.6626403487211
 20
2054.799999999995
 30
0.0
 11
775.462640348721
 21
2054.799999999995
 31
0.0
  0
LINE
  5
AF
330
87
100
AcDbEntity
  8
P-SANR-FIXT
100
AcDbLine
 10
776.9032400411604
 20
2088.606072782573
 30
0.0
 11
852.2220657745863
 21
2088.606072782572
 31
0.0
  0
LINE
  5
B0
330
87
100
AcDbEntity
  8
P-SANR-FIXT
100
AcDbLine
 10
792.66640744311
 20
1986.599999999995
 30
0.0
 11
792.66640744311
 21
1979.199999999996
 31
0.0
  0
LINE
  5
B1
330
87
100
AcDbEntity
  8
P-SANR-FIXT
100
AcDbLine
 10
833.6664074431103
 20
1979.199999999996
 30
0.0
 11
833.6664074431103
 21
1986.599999999995
 31
0.0
  0
LINE
  5
B2
330
87
100
AcDbEntity
  8
P-SANR-FIXT
100
AcDbLine
 10
838.0652967432169
 20
2013.399999999996
 30
0.0
 11
832.2401212987344
 21
2013.399999999996
 31
0.0
  0
LINE
  5
B3
330
87
100
AcDbEntity
  8
P-SANR-FIXT
100
AcDbLine
 10
833.6664074431103
 20
1986.599999999995
 30
0.0
 11
838.0652967432169
 21
1986.599999999995
 31
0.0
  0
LINE
  5
B4
330
87
100
AcDbEntity
  8
P-SANR-FIXT
100
AcDbLine
 10
794.092693587486
 20
2013.399999999996
 30
0.0
 11
788.2675181430032
 21
2013.399999999996
 31
0.0
  0
LINE
  5
B5
330
87
100
AcDbEntity
  8
P-SANR-FIXT
100
AcDbLine
 10
788.2675181430032
 20
1986.599999999995
 30
0.0
 11
792.66640744311
 21
1986.599999999995
 31
0.0
  0
LINE
  5
B6
330
87
100
AcDbEntity
  8
P-SANR-FIXT
100
AcDbLine
 10
806.6664074431104
 20
2018.999999999996
 30
0.0
 11
806.6664074431104
 21
2016.479101644633
 31
0.0
  0
LINE
  5
B7
330
87
100
AcDbEntity
  8
P-SANR-FIXT
100
AcDbLine
 10
819.6664074431103
 20
2016.479101644633
 30
0.0
 11
819.6664074431103
 21
2018.999999999996
 31
0.0
  0
LINE
  5
B8
330
87
100
AcDbEntity
  8
P-SANR-FIXT
100
AcDbLine
 10
823.6664074431102
 20
2018.499999999996
 30
0.0
 11
823.6664074431102
 21
2016.499999999996
 31
0.0
  0
LINE
  5
B9
330
87
100
AcDbEntity
  8
P-SANR-FIXT
100
AcDbLine
 10
830.6664074431102
 20
2014.999999999996
 30
0.0
 11
830.6664074431102
 21
2018.499999999996
 31
0.0
  0
LINE
  5
BA
330
87
100
AcDbEntity
  8
P-SANR-FIXT
100
AcDbLine
 10
795.8664074431101
 20
2018.999999999996
 30
0.0
 11
795.8664074431101
 21
2015.144916598291
 31
0.0
  0
LWPOLYLINE
  5
BB
330
87
100
AcDbEntity
  8
P-SANR-FIXT
100
AcDbPolyline
 90
       10
 70
   128
 43
0.0
 10
794.092693587486
 20
2013.399999999996
 10
794.2735049811634
 20
2013.639364242431
 10
794.4637437616945
 20
2013.871306491756
 10
794.6631055876125
 20
2014.095455689851
 10
794.8712715225241
 20
2014.311453245815
 10
795.0879085453399
 20
2014.518953609635
 10
795.3126700830368
 20
2014.717624824994
 10
795.5451965651011
 20
2014.907149060327
 10
795.7851159987646
 20
2015.087223117289
 10
795.8664074431101
 20
2015.144916598291
  0
LWPOLYLINE
  5
BC
330
87
100
AcDbEntity
  8
P-SANR-FIXT
100
AcDbPolyline
 90
        9
 70
   128
 43
0.0
 10
830.6664074431102
 20
2014.999999999996
 10
830.9027439282044
 20
2014.815248636122
 10
831.1315032852871
 20
2014.62119411495
 10
831.352319548186
 20
2014.418146882319
 10
831.5648394579859
 20
2014.206431770486
 10
831.7687230281661
 20
2013.986387478466
 10
831.9636440885071
 20
2013.758366030186
 10
832.1492908068933
 20
2013.522732211322
 10
832.2401212987344
 20
2013.399999999996
  0
LWPOLYLINE
  5
BD
330
87
100
AcDbEntity
  8
P-SANR-FIXT
100
AcDbPolyline
 90
       15
 70
   128
 43
0.0
 10
806.6672350735313
 20
2016.499999999996
 10
806.2507347615159
 20
2016.499999999996
 10
805.8160686805345
 20
2016.499999999996
 10
805.3931615735846
 20
2016.499999999996
 10
804.9826900018226
 20
2016.499999999996
 10
804.5853106321992
 20
2016.499999999996
 10
804.2016591869373
 20
2016.499999999996
 10
803.8323494265075
 20
2016.499999999996
 10
803.4779721677448
 20
2016.499999999996
 10
803.1390943386668
 20
2016.499999999996
 10
802.81625807151
 20
2016.499999999996
 10
802.5099798354332
 20
2016.499999999996
 10
802.220749610279
 20
2016.499999999996
 10
801.9490301027081
 20
2016.499999999996
 10
801.8983518875545
 20
2016.499999999996
  0
LWPOLYLINE
  5
BE
330
87
100
AcDbEntity
  8
P-SANR-FIXT
100
AcDbPolyline
 90
       21
 70
   128
 43
0.0
 10
825.7646217288243
 20
2016.499999999996
 10
825.6262977848427
 20
2016.499999999996
 10
825.4680406742821
 20
2016.499999999996
 10
825.2901035747603
 20
2016.499999999996
 10
825.0927711476784
 20
2016.499999999996
 10
824.8763590828243
 20
2016.499999999996
 10
824.6412135933365
 20
2016.499999999996
 10
824.3877108618365
 20
2016.499999999996
 10
824.116256438617
 20
2016.499999999996
 10
823.8272845928477
 20
2016.499999999996
 10
823.5212576178382
 20
2016.499999999996
 10
823.1986650914659
 20
2016.499999999996
 10
822.860023092957
 20
2016.499999999996
 10
822.5058733772694
 20
2016.499999999996
 10
822.1367825084003
 20
2016.499999999996
 10
821.7533409530048
 20
2016.499999999996
 10
821.3561621357747
 20
2016.499999999996
 10
820.945881458091
 20
2016.499999999996
 10
820.523155281516
 20
2016.499999999996
 10
820.0886598777554
 20
2016.499999999996
 10
819.6655726922003
 20
2016.499999999996
  0
LWPOLYLINE
  5
BF
330
87
100
AcDbEntity
  8
P-SANR-FIXT
100
AcDbPolyline
 90
        9
 70
   128
 43
0.0
 10
838.3775125422035
 20
1986.550011207753
 10
838.3392724871976
 20
1986.561736602039
 10
838.3005941294461
 20
1986.571923422923
 10
838.261539346071
 20
1986.580555373661
 10
838.2221706163941
 20
1986.587618644977
 10
838.1825509219847
 20
1986.593101937141
 10
838.1427436459023
 20
1986.596996478056
 10
838.1028124712967
 20
1986.599296037287
 10
838.0652967432169
 20
1986.599999999995
  0
LWPOLYLINE
  5
C0
330
87
100
AcDbEntity
  8
P-SANR-FIXT
100
AcDbPolyline
 90
        9
 70
   128
 43
0.0
 10
838.0652967432169
 20
2013.399999999996
 10
838.1052860774039
 20
2013.400799893335
 10
838.1452114371862
 20
2013.403198293693
 10
838.1850089505061
 20
2013.407191364142
 10
838.2246149498314
 20
2013.41277271662
 10
838.2639660740123
 20
2013.419933422154
 10
838.3029993696442
 20
2013.428662025144
 10
838.3416523917812
 20
2013.438944561685
 10
838.3775125422035
 20
2013.449988792239
  0
LWPOLYLINE
  5
C1
330
87
100
AcDbEntity
  8
P-SANR-FIXT
100
AcDbPolyline
 90
        9
 70
   128
 43
0.0
 10
788.2675181430032
 20
1986.599999999995
 10
788.2275288088164
 20
1986.599200106657
 10
788.187603449034
 20
1986.596801706298
 10
788.1478059357143
 20
1986.592808635849
 10
788.1081999363888
 20
1986.587227283371
 10
788.0688488122081
 20
1986.580066577837
 10
788.029815516576
 20
1986.571337974847
 10
787.9911624944391
 20
1986.561055438306
 10
787.9606716537481
 20
1986.551759019933
  0
LWPOLYLINE
  5
C2
330
87
100
AcDbEntity
  8
P-SANR-FIXT
100
AcDbPolyline
 90
        9
 70
   128
 43
0.0
 10
787.9606716537481
 20
2013.448240980059
 10
787.9989773077243
 20
2013.436731698956
 10
788.0377125697513
 20
2013.426763441649
 10
788.0768154716729
 20
2013.418352155223
 10
788.1162234571877
 20
2013.411511295941
 10
788.1558734819253
 20
2013.406251807719
 10
788.1957021143043
 20
2013.402582104617
 10
788.2356456370094
 20
2013.400508057376
 10
788.2675181430032
 20
2013.399999999996
  0
LINE
  5
C3
330
87
100
AcDbEntity
  8
P-SANR-FIXT
100
AcDbLine
 10
833.1664074431103
 20
1978.699999999995
 30
0.0
 11
833.6664074431103
 21
1979.199999999996
 31
0.0
  0
LINE
  5
C4
330
87
100
AcDbEntity
  8
P-SANR-FIXT
100
AcDbLine
 10
792.66640744311
 20
1979.199999999996
 30
0.0
 11
793.1664074431099
 21
1978.699999999995
 31
0.0
  0
LINE
  5
C5
330
87
100
AcDbEntity
  8
P-SANR-FIXT
100
AcDbLine
 10
830.6664074431102
 20
2018.499999999996
 30
0.0
 11
830.1664074431101
 21
2018.999999999996
 31
0.0
  0
LINE
  5
C6
330
87
100
AcDbEntity
  8
P-SANR-FIXT
100
AcDbLine
 10
824.1664074431101
 20
2018.999999999996
 30
0.0
 11
823.6664074431102
 21
2018.499999999996
 31
0.0
  0
SPLINE
  5
C7
330
87
100
AcDbEntity
  8
P-SANR-FIXT
100
AcDbSpline
210
0.0
220
0.0
230
1.0
 70
     8
 71
     3
 72
    25
 73
    21
 74
     0
 42
0.000000001
 43
0.0000000001
 40
0.0
 40
0.0
 40
0.0
 40
0.0
 40
0.1
 40
0.15
 40
0.2
 40
0.225
 40
0.25
 40
0.3
 40
0.35
 40
0.375
 40
0.4
 40
0.45
 40
0.475
 40
0.5
 40
0.525
 40
0.55
 40
0.6000000000000001
 40
0.8
 40
0.9
 40
1.0
 40
1.0
 40
1.0
 40
1.0
 10
795.2306888904549
 20
2008.999999999995
 30
0.0
 10
795.610535876701
 20
2008.255247886398
 30
0.0
 10
796.1610793975049
 20
2007.04518972673
 30
0.0
 10
796.8174830419729
 20
2005.213993522565
 30
0.0
 10
797.1600383086172
 20
2004.000373068652
 30
0.0
 10
797.367936606553
 20
2002.992970600355
 30
0.0
 10
797.5419098927381
 20
2001.949474973512
 30
0.0
 10
797.669327435473
 20
2000.633079109027
 30
0.0
 10
797.6473198210582
 20
1999.300268980531
 30
0.0
 10
797.5541304253998
 20
1998.231278860879
 30
0.0
 10
797.4172896593604
 20
1997.193960846967
 30
0.0
 10
797.2017391400249
 20
1996.183073373473
 30
0.0
 10
796.9289106274918
 20
1995.201664236734
 30
0.0
 10
796.7083035451771
 20
1994.49320497585
 30
0.0
 10
796.4696452290732
 20
1993.810125270524
 30
0.0
 10
796.1236859532093
 20
1992.925672042372
 30
0.0
 10
795.1231805989525
 20
1990.639488334889
 30
0.0
 10
793.7723143066334
 20
1988.332304385366
 30
0.0
 10
792.8367431527242
 20
1986.854069161784
 30
0.0
 10
792.6664074431085
 20
1986.608406796315
 30
0.0
 10
792.6664074431085
 20
1986.599999999995
 30
0.0
  0
LINE
  5
C8
330
87
100
AcDbEntity
  8
P-SANR-FIXT
100
AcDbLine
 10
792.6664074431085
 20
1979.199999999995
 30
0.0
 11
833.6664074431086
 21
1979.199999999995
 31
0.0
  0
SPLINE
  5
C9
330
87
100
AcDbEntity
  8
P-SANR-FIXT
100
AcDbSpline
210
0.0
220
0.0
230
1.0
 70
     8
 71
     3
 72
    26
 73
    22
 74
     0
 42
0.000000001
 43
0.0000000001
 40
0.0
 40
0.0
 40
0.0
 40
0.0
 40
0.1
 40
0.2
 40
0.3
 40
0.4
 40
0.45
 40
0.475
 40
0.5
 40
0.525
 40
0.55
 40
0.6000000000000001
 40
0.6250000000000001
 40
0.6500000000000002
 40
0.7000000000000001
 40
0.75
 40
0.8
 40
0.825
 40
0.85
 40
0.9
 40
1.0
 40
1.0
 40
1.0
 40
1.0
 10
833.6664074431086
 20
1986.599999999995
 30
0.0
 10
833.6664074431086
 20
1986.608406796315
 30
0.0
 10
833.4962350664767
 20
1986.854349203763
 30
0.0
 10
832.7938217026169
 20
1987.961765432544
 30
0.0
 10
831.7907003127643
 20
1989.654335759394
 30
0.0
 10
830.8455418204726
 20
1991.47036092937
 30
0.0
 10
830.2091522405275
 20
1992.925712003364
 30
0.0
 10
829.8631652771742
 20
1993.810117762327
 30
0.0
 10
829.6245124752703
 20
1994.493206914944
 30
0.0
 10
829.4039041017729
 20
1995.201663988556
 30
0.0
 10
829.1310751232828
 20
1996.183072194354
 30
0.0
 10
828.9155302150348
 20
1997.193970093509
 30
0.0
 10
828.7786758872332
 20
1998.23126297421
 30
0.0
 10
828.6855415184867
 20
1999.300355054005
 30
0.0
 10
828.6631122387174
 20
2000.632383881111
 30
0.0
 10
828.8177585637354
 20
2002.215292724321
 30
0.0
 10
829.0598456126991
 20
2003.505655429526
 30
0.0
 10
829.3076686725877
 20
2004.48320251043
 30
0.0
 10
829.5985994493282
 20
2005.444389470821
 30
0.0
 10
830.1708226265676
 20
2007.044067409677
 30
0.0
 10
830.7222790095158
 20
2008.255247886398
 30
0.0
 10
831.1021259957621
 20
2008.999999999995
 30
0.0
  0
LINE
  5
CA
330
87
100
AcDbEntity
  8
P-SANR-FIXT
100
AcDbLine
 10
852.1664074431086
 20
2006.349999999995
 30
0.0
 11
852.1664074431086
 21
2005.909482513474
 31
0.0
  0
LINE
  5
CB
330
87
100
AcDbEntity
  8
P-SANR-FIXT
100
AcDbLine
 10
852.1664074431086
 20
1994.171676481205
 30
0.0
 11
852.1664074431086
 21
1993.649999999995
 31
0.0
  0
LINE
  5
CC
330
87
100
AcDbEntity
  8
P-SANR-FIXT
100
AcDbLine
 10
852.1664074431086
 20
1993.649999999995
 30
0.0
 11
852.1664074431086
 21
1994.171676481205
 31
0.0
  0
LINE
  5
CD
330
87
100
AcDbEntity
  8
P-SANR-FIXT
100
AcDbLine
 10
852.1664074431086
 20
2005.909482513474
 30
0.0
 11
852.1664074431086
 21
2006.349999999995
 31
0.0
  0
LINE
  5
CE
330
87
100
AcDbEntity
  8
P-SANR-FIXT
100
AcDbLine
 10
851.300382039324
 20
2012.412375826448
 30
0.0
 11
851.300382039324
 21
2013.499999999995
 31
0.0
  0
LINE
  5
CF
330
87
100
AcDbEntity
  8
P-SANR-FIXT
100
AcDbLine
 10
851.300382039324
 20
2013.499999999995
 30
0.0
 11
839.5664074431085
 21
2013.499999999995
 31
0.0
  0
LINE
  5
D0
330
87
100
AcDbEntity
  8
P-SANR-FIXT
100
AcDbLine
 10
839.5664074431085
 20
2012.412375826448
 30
0.0
 11
851.300382039324
 21
2012.412375826448
 31
0.0
  0
LINE
  5
D1
330
87
100
AcDbEntity
  8
P-SANR-FIXT
100
AcDbLine
 10
851.300382039324
 20
1986.499999999995
 30
0.0
 11
851.300382039324
 21
1987.587624173542
 31
0.0
  0
LINE
  5
D2
330
87
100
AcDbEntity
  8
P-SANR-FIXT
100
AcDbLine
 10
851.300382039324
 20
1987.587624173541
 30
0.0
 11
839.5664074431085
 21
1987.587624173541
 31
0.0
  0
LINE
  5
D3
330
87
100
AcDbEntity
  8
P-SANR-FIXT
100
AcDbLine
 10
839.5664074431085
 20
1986.499999999995
 30
0.0
 11
851.300382039324
 21
1986.499999999995
 31
0.0
  0
LINE
  5
D4
330
87
100
AcDbEntity
  8
P-SANR-FIXT
100
AcDbLine
 10
851.3003820393242
 20
1998.912375826448
 30
0.0
 11
851.3003820393242
 21
2001.087624173542
 31
0.0
  0
LINE
  5
D5
330
87
100
AcDbEntity
  8
P-SANR-FIXT
100
AcDbLine
 10
851.3003820393242
 20
2001.087624173541
 30
0.0
 11
839.5664074431085
 21
2001.087624173541
 31
0.0
  0
LINE
  5
D6
330
87
100
AcDbEntity
  8
P-SANR-FIXT
100
AcDbLine
 10
839.5664074431085
 20
1998.912375826448
 30
0.0
 11
851.3003820393242
 21
1998.912375826448
 31
0.0
  0
LINE
  5
D7
330
87
100
AcDbEntity
  8
P-SANR-FIXT
100
AcDbLine
 10
839.5664074431085
 20
2013.499999999995
 30
0.0
 11
839.5664074431085
 21
2012.412375826448
 31
0.0
  0
SPLINE
  5
D8
330
87
100
AcDbEntity
  8
P-SANR-FIXT
100
AcDbSpline
210
0.0
220
0.0
230
1.0
 70
    24
 71
     3
 72
     9
 73
     5
 74
     0
 42
0.000000001
 43
0.0000000001
 40
-1.0
 40
-1.0
 40
-1.0
 40
-1.0
 40
-0.5
 40
0.0
 40
0.0
 40
0.0
 40
0.0
 10
839.5664074431085
 20
2013.499999999995
 30
0.0
 10
839.4309503377323
 20
2013.499999999995
 30
0.0
 10
839.1896456830048
 20
2013.499999999995
 30
0.0
 10
839.0075601403264
 20
2013.499999999995
 30
0.0
 10
838.9313221469999
 20
2013.499999999995
 30
0.0
  0
SPLINE
  5
D9
330
87
100
AcDbEntity
  8
P-SANR-FIXT
100
AcDbSpline
210
0.0
220
0.0
230
1.0
 70
    24
 71
     3
 72
     9
 73
     5
 74
     0
 42
0.000000001
 43
0.0000000001
 40
-1.0
 40
-1.0
 40
-1.0
 40
-1.0
 40
-0.5
 40
0.0
 40
0.0
 40
0.0
 40
0.0
 10
838.9313221469999
 20
1986.499999999995
 30
0.0
 10
839.0075601403264
 20
1986.499999999995
 30
0.0
 10
839.1896456830044
 20
1986.499999999995
 30
0.0
 10
839.4309503377323
 20
1986.499999999995
 30
0.0
 10
839.5664074431085
 20
1986.499999999995
 30
0.0
  0
LINE
  5
DA
330
87
100
AcDbEntity
  8
P-SANR-FIXT
100
AcDbLine
 10
839.5664074431085
 20
1987.587624173542
 30
0.0
 11
839.5664074431085
 21
1986.499999999995
 31
0.0
  0
SPLINE
  5
DB
330
87
100
AcDbEntity
  8
P-SANR-FIXT
100
AcDbSpline
210
0.0
220
0.0
230
1.0
 70
     8
 71
     3
 72
     8
 73
     4
 74
     0
 42
0.000000001
 43
0.0000000001
 40
-1.0
 40
-1.0
 40
-1.0
 40
-1.0
 40
-0.6666666666666668
 40
-0.6666666666666668
 40
-0.6666666666666668
 40
-0.6666666666666668
 10
839.5664074431085
 20
1987.587624173542
 30
0.0
 10
839.1815303086836
 20
1988.826976344838
 30
0.0
 10
838.9249455524003
 20
1990.072646372106
 30
0.0
 10
838.7966531742588
 20
1991.324634255346
 30
0.0
  0
SPLINE
  5
DC
330
87
100
AcDbEntity
  8
P-SANR-FIXT
100
AcDbSpline
210
0.0
220
0.0
230
1.0
 70
     8
 71
     3
 72
     8
 73
     4
 74
     0
 42
0.000000001
 43
0.0000000001
 40
-0.2612827027652735
 40
-0.2612827027652735
 40
-0.2612827027652735
 40
-0.2612827027652735
 40
-0.2587578597209905
 40
-0.2587578597209905
 40
-0.2587578597209905
 40
-0.2587578597209905
 10
838.8978271859679
 20
1995.920489361942
 30
0.0
 10
838.899219033408
 20
1995.93008897801
 30
0.0
 10
838.9006328203391
 20
1995.939689674505
 30
0.0
 10
838.9020681241211
 20
1995.949291430613
 30
0.0
  0
SPLINE
  5
DD
330
87
100
AcDbEntity
  8
P-SANR-FIXT
100
AcDbSpline
210
0.0
220
0.0
230
1.0
 70
     8
 71
     3
 72
     8
 73
     4
 74
     0
 42
0.000000001
 43
0.0000000001
 40
-0.2483277035776942
 40
-0.2483277035776942
 40
-0.2483277035776942
 40
-0.2483277035776942
 40
0.0
 40
0.0
 40
0.0
 40
0.0
 10
838.9198332947549
 20
1996.068285218009
 30
0.0
 10
839.0641557621368
 20
1997.012809011799
 30
0.0
 10
839.2796804782548
 20
1997.960839214611
 30
0.0
 10
839.5664074431085
 20
1998.912375826448
 30
0.0
  0
LINE
  5
DE
330
87
100
AcDbEntity
  8
P-SANR-FIXT
100
AcDbLine
 10
839.5664074431085
 20
2001.087624173542
 30
0.0
 11
839.5664074431085
 21
1998.912375826448
 31
0.0
  0
SPLINE
  5
DF
330
87
100
AcDbEntity
  8
P-SANR-FIXT
100
AcDbSpline
210
0.0
220
0.0
230
1.0
 70
     8
 71
     3
 72
     8
 73
     4
 74
     0
 42
0.000000001
 43
0.0000000001
 40
-1.0
 40
-1.0
 40
-1.0
 40
-1.0
 40
-0.7467204290206398
 40
-0.7467204290206398
 40
-0.7467204290206398
 40
-0.7467204290206398
 10
839.5664074431085
 20
2001.087624173542
 30
0.0
 10
839.2739628966479
 20
2002.029331932257
 30
0.0
 10
839.0555885794501
 20
2002.974687335883
 30
0.0
 10
838.911284491515
 20
2003.92369038442
 30
0.0
  0
SPLINE
  5
E0
330
87
100
AcDbEntity
  8
P-SANR-FIXT
100
AcDbSpline
210
0.0
220
0.0
230
1.0
 70
     8
 71
     3
 72
     8
 73
     4
 74
     0
 42
0.000000001
 43
0.0000000001
 40
-0.6913144167942783
 40
-0.6913144167942783
 40
-0.6913144167942783
 40
-0.6913144167942783
 40
-0.6666666666666668
 40
-0.6666666666666668
 40
-0.6666666666666668
 40
-0.6666666666666668
 10
838.8272165964426
 20
2004.547009725375
 30
0.0
 10
838.8163273370926
 20
2004.639516691829
 30
0.0
 10
838.805463086931
 20
2004.73202488988
 30
0.0
 10
838.7948852918945
 20
2004.824547194631
 30
0.0
  0
SPLINE
  5
E1
330
87
100
AcDbEntity
  8
P-SANR-FIXT
100
AcDbSpline
210
0.0
220
0.0
230
1.0
 70
     8
 71
     3
 72
     8
 73
     4
 74
     0
 42
0.000000001
 43
0.0000000001
 40
-0.3387033619923678
 40
-0.3387033619923678
 40
-0.3387033619923678
 40
-0.3387033619923678
 40
-0.3333333333333334
 40
-0.3333333333333334
 40
-0.3333333333333334
 40
-0.3333333333333334
 10
838.7905526595696
 20
2008.538436807552
 30
0.0
 10
838.7925528681204
 20
2008.558806722991
 30
0.0
 10
838.7946519099033
 20
2008.579181505548
 30
0.0
 10
838.796846667722
 20
2008.599561001714
 30
0.0
  0
SPLINE
  5
E2
330
87
100
AcDbEntity
  8
P-SANR-FIXT
100
AcDbSpline
210
0.0
220
0.0
230
1.0
 70
     8
 71
     3
 72
     8
 73
     4
 74
     0
 42
0.000000001
 43
0.0000000001
 40
-0.2223308539086438
 40
-0.2223308539086438
 40
-0.2223308539086438
 40
-0.2223308539086438
 40
0.0
 40
0.0
 40
0.0
 40
0.0
 10
838.9675006700636
 20
2009.865040500508
 30
0.0
 10
839.1100616662537
 20
2010.711341593886
 30
0.0
 10
839.3096972572687
 20
2011.560453369199
 30
0.0
 10
839.5664074431085
 20
2012.412375826448
 30
0.0
  0
SPLINE
  5
E3
330
87
100
AcDbEntity
  8
P-SANR-FIXT
100
AcDbSpline
210
0.0
220
0.0
230
1.0
 70
    24
 71
     3
 72
     9
 73
     5
 74
     0
 42
0.000000001
 43
0.0000000001
 40
-1.0
 40
-1.0
 40
-1.0
 40
-1.0
 40
-0.5
 40
0.0
 40
0.0
 40
0.0
 40
0.0
 10
787.4014927392171
 20
2013.499999999995
 30
0.0
 10
787.3252547458905
 20
2013.499999999995
 30
0.0
 10
787.1431692032123
 20
2013.499999999995
 30
0.0
 10
786.9018645484847
 20
2013.499999999995
 30
0.0
 10
786.7664074431086
 20
2013.499999999995
 30
0.0
  0
SPLINE
  5
E4
330
87
100
AcDbEntity
  8
P-SANR-FIXT
100
AcDbSpline
210
0.0
220
0.0
230
1.0
 70
     8
 71
     3
 72
     8
 73
     4
 74
     0
 42
0.000000001
 43
0.0000000001
 40
-1.0
 40
-1.0
 40
-1.0
 40
-1.0
 40
-0.7867778627022708
 40
-0.7867778627022708
 40
-0.7867778627022708
 40
-0.7867778627022708
 10
786.7664074431086
 20
2012.412375826448
 30
0.0
 10
787.0126004187057
 20
2011.595355948401
 30
0.0
 10
787.2062996018585
 20
2010.780921167183
 30
0.0
 10
787.3475049925667
 20
2009.969071482797
 30
0.0
  0
SPLINE
  5
E5
330
87
100
AcDbEntity
  8
P-SANR-FIXT
100
AcDbSpline
210
0.0
220
0.0
230
1.0
 70
     8
 71
     3
 72
     8
 73
     4
 74
     0
 42
0.000000001
 43
0.0000000001
 40
-0.7776691460913555
 40
-0.7776691460913555
 40
-0.7776691460913555
 40
-0.7776691460913555
 40
-0.7541550642762609
 40
-0.7541550642762609
 40
-0.7541550642762609
 40
-0.7541550642762609
 10
787.3653142161535
 20
2009.865040500508
 30
0.0
 10
787.380391704811
 20
2009.775534285784
 30
0.0
 10
787.3954498901237
 20
2009.686029021667
 30
0.0
 10
787.4103314872558
 20
2009.59653245377
 30
0.0
  0
SPLINE
  5
E6
330
87
100
AcDbEntity
  8
P-SANR-FIXT
100
AcDbSpline
210
0.0
220
0.0
230
1.0
 70
     8
 71
     3
 72
     8
 73
     4
 74
     0
 42
0.000000001
 43
0.0000000001
 40
-0.3333333333333334
 40
-0.3333333333333334
 40
-0.3333333333333334
 40
-0.3333333333333334
 40
-0.2648895452655999
 40
-0.2648895452655999
 40
-0.2648895452655999
 40
-0.2648895452655999
 10
787.5361617119583
 20
2004.824634255346
 30
0.0
 10
787.5098192629376
 20
2004.567561875314
 30
0.0
 10
787.4694712672951
 20
2004.311179209104
 30
0.0
 10
787.4204131894738
 20
2004.055225477531
 30
0.0
  0
SPLINE
  5
E7
330
87
100
AcDbEntity
  8
P-SANR-FIXT
100
AcDbSpline
210
0.0
220
0.0
230
1.0
 70
     8
 71
     3
 72
     8
 73
     4
 74
     0
 42
0.000000001
 43
0.0000000001
 40
-0.25327957097937
 40
-0.25327957097937
 40
-0.25327957097937
 40
-0.25327957097937
 40
0.0
 40
0.0
 40
0.0
 40
0.0
 10
787.4215303947023
 20
2003.92369038442
 30
0.0
 10
787.2772263067671
 20
2002.974687335883
 30
0.0
 10
787.0588519895693
 20
2002.029331932257
 30
0.0
 10
786.7664074431087
 20
2001.087624173542
 30
0.0
  0
SPLINE
  5
E8
330
87
100
AcDbEntity
  8
P-SANR-FIXT
100
AcDbSpline
210
0.0
220
0.0
230
1.0
 70
     8
 71
     3
 72
     8
 73
     4
 74
     0
 42
0.000000001
 43
0.0000000001
 40
-1.0
 40
-1.0
 40
-1.0
 40
-1.0
 40
-0.7516722964222947
 40
-0.7516722964222947
 40
-0.7516722964222947
 40
-0.7516722964222947
 10
786.7664074431087
 20
1998.912375826448
 30
0.0
 10
787.0531344079624
 20
1997.960839214611
 30
0.0
 10
787.2686591240805
 20
1997.012809011798
 30
0.0
 10
787.4129815914624
 20
1996.068285218009
 30
0.0
  0
SPLINE
  5
E9
330
87
100
AcDbEntity
  8
P-SANR-FIXT
100
AcDbSpline
210
0.0
220
0.0
230
1.0
 70
     8
 71
     3
 72
     8
 73
     4
 74
     0
 42
0.000000001
 43
0.0000000001
 40
-0.2508654136481033
 40
-0.2508654136481033
 40
-0.2508654136481033
 40
-0.2508654136481033
 40
-0.2273671215228749
 40
-0.2273671215228749
 40
-0.2273671215228749
 40
-0.2273671215228749
 10
787.4173838638612
 20
1990.396554851265
 30
0.0
 10
787.4038648914299
 20
1990.308516495841
 30
0.0
 10
787.3885526991679
 20
1990.220566448894
 30
0.0
 10
787.3717720374003
 20
1990.132688717848
 30
0.0
  0
SPLINE
  5
EA
330
87
100
AcDbEntity
  8
P-SANR-FIXT
100
AcDbSpline
210
0.0
220
0.0
230
1.0
 70
     8
 71
     3
 72
     8
 73
     4
 74
     0
 42
0.000000001
 43
0.0000000001
 40
-0.2178573215633435
 40
-0.2178573215633435
 40
-0.2178573215633435
 40
-0.2178573215633435
 40
0.0
 40
0.0
 40
0.0
 40
0.0
 10
787.3566394601295
 20
1990.025737810342
 30
0.0
 10
787.2146963536926
 20
1989.210334552678
 30
0.0
 10
787.0179523480187
 20
1988.397630007079
 30
0.0
 10
786.7664074431086
 20
1987.587624173542
 30
0.0
  0
SPLINE
  5
EB
330
87
100
AcDbEntity
  8
P-SANR-FIXT
100
AcDbSpline
210
0.0
220
0.0
230
1.0
 70
    24
 71
     3
 72
     9
 73
     5
 74
     0
 42
0.000000001
 43
0.0000000001
 40
-1.0
 40
-1.0
 40
-1.0
 40
-1.0
 40
-0.5
 40
0.0
 40
0.0
 40
0.0
 40
0.0
 10
786.7664074431086
 20
1986.499999999995
 30
0.0
 10
786.9018645484848
 20
1986.499999999995
 30
0.0
 10
787.1431692032123
 20
1986.499999999995
 30
0.0
 10
787.3252547458905
 20
1986.499999999995
 30
0.0
 10
787.4014927392171
 20
1986.499999999995
 30
0.0
  0
LINE
  5
EC
330
87
100
AcDbEntity
  8
P-SANR-FIXT
100
AcDbLine
 10
786.7664074431086
 20
2013.499999999995
 30
0.0
 11
786.7664074431086
 21
2012.412375826448
 31
0.0
  0
LINE
  5
ED
330
87
100
AcDbEntity
  8
P-SANR-FIXT
100
AcDbLine
 10
786.7664074431086
 20
2013.499999999995
 30
0.0
 11
775.0901678738119
 21
2013.499999999995
 31
0.0
  0
LINE
  5
EE
330
87
100
AcDbEntity
  8
P-SANR-FIXT
100
AcDbLine
 10
775.0901678738119
 20
2012.412375826448
 30
0.0
 11
786.7664074431086
 21
2012.412375826448
 31
0.0
  0
LINE
  5
EF
330
87
100
AcDbEntity
  8
P-SANR-FIXT
100
AcDbLine
 10
786.7664074431087
 20
2001.087624173542
 30
0.0
 11
786.7664074431087
 21
1998.912375826448
 31
0.0
  0
LINE
  5
F0
330
87
100
AcDbEntity
  8
P-SANR-FIXT
100
AcDbLine
 10
786.7664074431087
 20
2001.087624173542
 30
0.0
 11
775.0901678738121
 21
2001.087624173542
 31
0.0
  0
LINE
  5
F1
330
87
100
AcDbEntity
  8
P-SANR-FIXT
100
AcDbLine
 10
775.0901678738121
 20
1998.912375826448
 30
0.0
 11
786.7664074431087
 21
1998.912375826448
 31
0.0
  0
LINE
  5
F2
330
87
100
AcDbEntity
  8
P-SANR-FIXT
100
AcDbLine
 10
786.7664074431086
 20
1987.587624173542
 30
0.0
 11
786.7664074431086
 21
1986.499999999995
 31
0.0
  0
LINE
  5
F3
330
87
100
AcDbEntity
  8
P-SANR-FIXT
100
AcDbLine
 10
786.7664074431086
 20
1987.587624173542
 30
0.0
 11
775.0901678738119
 21
1987.587624173542
 31
0.0
  0
LINE
  5
F4
330
87
100
AcDbEntity
  8
P-SANR-FIXT
100
AcDbLine
 10
775.0901678738119
 20
1986.499999999995
 30
0.0
 11
786.7664074431086
 21
1986.499999999995
 31
0.0
  0
LINE
  5
F5
330
87
100
AcDbEntity
  8
P-SANR-FIXT
100
AcDbLine
 10
774.1664074431085
 20
1986.599999999995
 30
0.0
 11
774.1664074431085
 21
2013.399999999995
 31
0.0
  0
LINE
  5
F6
330
87
100
AcDbEntity
  8
P-SANR-FIXT
100
AcDbLine
 10
830.6664074431084
 20
2018.499999999995
 30
0.0
 11
823.6664074431086
 21
2018.499999999995
 31
0.0
  0
SPLINE
  5
F7
330
87
100
AcDbEntity
  8
P-SANR-FIXT
100
AcDbSpline
210
0.0
220
0.0
230
1.0
 70
     8
 71
     3
 72
    19
 73
    15
 74
     0
 42
0.000000001
 43
0.0000000001
 40
0.0
 40
0.0
 40
0.0
 40
0.0
 40
0.125
 40
0.25
 40
0.3125
 40
0.375
 40
0.4375
 40
0.5
 40
0.5625
 40
0.625
 40
0.6875
 40
0.75
 40
0.875
 40
1.0
 40
1.0
 40
1.0
 40
1.0
 10
832.2401212987326
 20
2013.399999999995
 30
0.0
 10
832.2464257413207
 20
2013.399999999995
 30
0.0
 10
832.2532780888732
 20
2013.350219409272
 30
0.0
 10
832.2423598366199
 20
2013.164573571709
 30
0.0
 10
832.2311012395445
 20
2012.943310519343
 30
0.0
 10
832.2221328083216
 20
2012.74147367986
 30
0.0
 10
832.2033331875664
 20
2012.504415450009
 30
0.0
 10
832.1638855753638
 20
2012.233394001139
 30
0.0
 10
832.1090577733333
 20
2011.92821501916
 30
0.0
 10
832.0441804652039
 20
2011.5896046862
 30
0.0
 10
831.9584930237457
 20
2011.220411931682
 30
0.0
 10
831.8041935167718
 20
2010.692391783832
 30
0.0
 10
831.5380510820409
 20
2009.96985125122
 30
0.0
 10
831.2591122648825
 20
2009.331594884951
 30
0.0
 10
831.1021259957621
 20
2008.999999999995
 30
0.0
  0
SPLINE
  5
F8
330
87
100
AcDbEntity
  8
P-SANR-FIXT
100
AcDbSpline
210
0.0
220
0.0
230
1.0
 70
     8
 71
     3
 72
    30
 73
    26
 74
     0
 42
0.000000001
 43
0.0000000001
 40
0.0
 40
0.0
 40
0.0
 40
0.0
 40
0.125
 40
0.1875
 40
0.25
 40
0.28125
 40
0.3125
 40
0.34375
 40
0.375
 40
0.40625
 40
0.4375
 40
0.46875
 40
0.5
 40
0.53125
 40
0.5625
 40
0.59375
 40
0.625
 40
0.65625
 40
0.6875
 40
0.71875
 40
0.75
 40
0.78125
 40
0.8125
 40
0.875
 40
1.0
 40
1.0
 40
1.0
 40
1.0
 10
825.7646217288229
 20
2016.499999999995
 30
0.0
 10
826.0382672922613
 20
2016.499142680691
 30
0.0
 10
826.4687788447053
 20
2016.473960386728
 30
0.0
 10
827.0555745278022
 20
2016.385712623068
 30
0.0
 10
827.4209340074866
 20
2016.312222996507
 30
0.0
 10
827.7079027312217
 20
2016.244397807245
 30
0.0
 10
827.9199803460908
 20
2016.187569280864
 30
0.0
 10
828.1282436263509
 20
2016.126914218644
 30
0.0
 10
828.3322716322832
 20
2016.064466675592
 30
0.0
 10
828.5309750489574
 20
2015.999080892045
 30
0.0
 10
828.7236400239647
 20
2015.929774243061
 30
0.0
 10
828.9101463028979
 20
2015.858745275841
 30
0.0
 10
829.090429686833
 20
2015.788286830013
 30
0.0
 10
829.2634794276967
 20
2015.717133403345
 30
0.0
 10
829.4284654721385
 20
2015.644196786004
 30
0.0
 10
829.5854140954922
 20
2015.571890266603
 30
0.0
 10
829.7342304642324
 20
2015.502731793291
 30
0.0
 10
829.8740649843578
 20
2015.43531917763
 30
0.0
 10
830.0040709239894
 20
2015.368455651913
 30
0.0
 10
830.1240878859465
 20
2015.304833936386
 30
0.0
 10
830.2337401063095
 20
2015.247149361984
 30
0.0
 10
830.3324713098188
 20
2015.194197328932
 30
0.0
 10
830.4485117645207
 20
2015.127743279288
 30
0.0
 10
830.6086288162177
 20
2015.034531994953
 30
0.0
 10
830.6664074431084
 20
2015.003038139073
 30
0.0
 10
830.6664074431084
 20
2014.999999999995
 30
0.0
  0
SPLINE
  5
F9
330
87
100
AcDbEntity
  8
P-SANR-FIXT
100
AcDbSpline
210
0.0
220
0.0
230
1.0
 70
     8
 71
     3
 72
    49
 73
    45
 74
     0
 42
0.000000001
 43
0.0000000001
 40
0.0
 40
0.0
 40
0.0
 40
0.0
 40
0.0555555555555556
 40
0.0833333333333333
 40
0.1111111111111111
 40
0.1388888888888889
 40
0.1666666666666666
 40
0.1944444444444444
 40
0.2083333333333333
 40
0.2222222222222222
 40
0.2361111111111111
 40
0.25
 40
0.2777777777777778
 40
0.3055555555555556
 40
0.3194444444444444
 40
0.3333333333333333
 40
0.3472222222222222
 40
0.3611111111111111
 40
0.3888888888888888
 40
0.4166666666666666
 40
0.4444444444444445
 40
0.4722222222222223
 40
0.5
 40
0.5277777777777778
 40
0.5555555555555556
 40
0.5833333333333334
 40
0.6111111111111112
 40
0.6388888888888889
 40
0.6527777777777777
 40
0.6666666666666666
 40
0.6805555555555556
 40
0.6944444444444445
 40
0.7222222222222223
 40
0.75
 40
0.7638888888888889
 40
0.7777777777777778
 40
0.7916666666666668
 40
0.8055555555555555
 40
0.8333333333333332
 40
0.861111111111111
 40
0.8888888888888889
 40
0.9166666666666666
 40
0.9444444444444444
 40
1.0
 40
1.0
 40
1.0
 40
1.0
 10
806.6664074431084
 20
2016.479101644632
 30
0.0
 10
806.6664074431084
 20
2016.439695817403
 30
0.0
 10
806.7185570832778
 20
2016.363332677083
 30
0.0
 10
806.8868090679796
 20
2016.225833928789
 30
0.0
 10
807.0605412204374
 20
2016.10721411146
 30
0.0
 10
807.2789935661777
 20
2015.963719106723
 30
0.0
 10
807.5393995043032
 20
2015.796992689973
 30
0.0
 10
807.790102161881
 20
2015.650345077426
 30
0.0
 10
808.0101030127305
 20
2015.533147445109
 30
0.0
 10
808.1848642760789
 20
2015.447971375678
 30
0.0
 10
808.3685306096102
 20
2015.361994934704
 30
0.0
 10
808.6241034128626
 20
2015.241792317003
 30
0.0
 10
808.9637015580686
 20
2015.087839558818
 30
0.0
 10
809.3295572935115
 20
2014.938508864207
 30
0.0
 10
809.6379177483633
 20
2014.827523430628
 30
0.0
 10
809.8771694052349
 20
2014.751273530432
 30
0.0
 10
810.1239114744423
 20
2014.678422110243
 30
0.0
 10
810.4616060593789
 20
2014.581003101416
 30
0.0
 10
810.8991205592904
 20
2014.465817667536
 30
0.0
 10
811.4449128545997
 20
2014.348549042804
 30
0.0
 10
812.0059819298713
 20
2014.267467765405
 30
0.0
 10
812.5817158583098
 20
2014.224437053156
 30
0.0
 10
813.167379299845
 20
2014.208964977071
 30
0.0
 10
813.753060501892
 20
2014.224553639185
 30
0.0
 10
814.3288192916163
 20
2014.26770097162
 30
0.0
 10
814.8900013508658
 20
2014.34892755513
 30
0.0
 10
815.4359696958609
 20
2014.466361109741
 30
0.0
 10
815.8735808730883
 20
2014.581666666508
 30
0.0
 10
816.2112840727091
 20
2014.679155950564
 30
0.0
 10
816.4579859500546
 20
2014.752041771028
 30
0.0
 10
816.6971554870531
 20
2014.828307838125
 30
0.0
 10
817.0053744855064
 20
2014.939298407547
 30
0.0
 10
817.3709999041024
 20
2015.088606227251
 30
0.0
 10
817.7103342198877
 20
2015.242509449159
 30
0.0
 10
817.9656922947744
 20
2015.362662031802
 30
0.0
 10
818.1492034617587
 20
2015.448600036909
 30
0.0
 10
818.3238035786857
 20
2015.533727894021
 30
0.0
 10
818.5435750267613
 20
2015.650840182969
 30
0.0
 10
818.7939976248514
 20
2015.797360088491
 30
0.0
 10
819.0541315940665
 20
2015.963931881341
 30
0.0
 10
819.2724160767959
 20
2016.107316552423
 30
0.0
 10
819.4460619654584
 20
2016.225875806102
 30
0.0
 10
819.614254231795
 20
2016.363319030219
 30
0.0
 10
819.6664074431085
 20
2016.439680476739
 30
0.0
 10
819.6664074431085
 20
2016.479101644632
 30
0.0
  0
SPLINE
  5
FA
330
87
100
AcDbEntity
  8
P-SANR-FIXT
100
AcDbSpline
210
0.0
220
0.0
230
1.0
 70
     8
 71
     3
 72
    25
 73
    21
 74
     0
 42
0.000000001
 43
0.0000000001
 40
0.0
 40
0.0
 40
0.0
 40
0.0
 40
0.1666666666666666
 40
0.25
 40
0.2916666666666666
 40
0.3333333333333333
 40
0.375
 40
0.4166666666666666
 40
0.4583333333333333
 40
0.5
 40
0.5416666666666666
 40
0.5833333333333333
 40
0.625
 40
0.6666666666666666
 40
0.7083333333333333
 40
0.75
 40
0.7916666666666668
 40
0.8333333333333333
 40
0.9166666666666667
 40
1.0
 40
1.0
 40
1.0
 40
1.0
 10
795.8664074431085
 20
2015.14491659829
 30
0.0
 10
795.8664074431085
 20
2015.149362379244
 30
0.0
 10
795.9713408799544
 20
2015.190714249368
 30
0.0
 10
796.2665288614513
 20
2015.314138813913
 30
0.0
 10
796.4817108550014
 20
2015.401598459772
 30
0.0
 10
796.6656176830846
 20
2015.470159969982
 30
0.0
 10
796.8709034084814
 20
2015.544538269461
 30
0.0
 10
797.0966204453287
 20
2015.626527691471
 30
0.0
 10
797.3421385709269
 20
2015.711539415518
 30
0.0
 10
797.607056925925
 20
2015.794740617994
 30
0.0
 10
797.8900720902093
 20
2015.87865764149
 30
0.0
 10
798.1897498061483
 20
2015.965630042444
 30
0.0
 10
798.5056237112551
 20
2016.050744228041
 30
0.0
 10
798.8372302299504
 20
2016.128959549265
 30
0.0
 10
799.1833844290409
 20
2016.202996731169
 30
0.0
 10
799.5423533274277
 20
2016.275329303656
 30
0.0
 10
799.9131681896589
 20
2016.340506256735
 30
0.0
 10
800.4218448418368
 20
2016.411530870383
 30
0.0
 10
801.0808880100027
 20
2016.47148820593
 30
0.0
 10
801.6245318995679
 20
2016.494929118894
 30
0.0
 10
801.8983518875529
 20
2016.499999999995
 30
0.0
  0
SPLINE
  5
FB
330
87
100
AcDbEntity
  8
P-SANR-FIXT
100
AcDbSpline
210
0.0
220
0.0
230
1.0
 70
     8
 71
     3
 72
    19
 73
    15
 74
     0
 42
0.000000001
 43
0.0000000001
 40
0.0
 40
0.0
 40
0.0
 40
0.0
 40
0.125
 40
0.25
 40
0.3125
 40
0.375
 40
0.4375
 40
0.5
 40
0.5625
 40
0.625
 40
0.6875
 40
0.75
 40
0.875
 40
1.0
 40
1.0
 40
1.0
 40
1.0
 10
795.2306888904549
 20
2008.999999999995
 30
0.0
 10
795.0737026213345
 20
2009.331594884951
 30
0.0
 10
794.7947638041761
 20
2009.96985125122
 30
0.0
 10
794.5286213694453
 20
2010.692391783832
 30
0.0
 10
794.3743218624713
 20
2011.220411931682
 30
0.0
 10
794.2886344210128
 20
2011.5896046862
 30
0.0
 10
794.2237571128837
 20
2011.92821501916
 30
0.0
 10
794.1689293108532
 20
2012.233394001139
 30
0.0
 10
794.1294816986506
 20
2012.504415450009
 30
0.0
 10
794.1106820778955
 20
2012.74147367986
 30
0.0
 10
794.1017136466724
 20
2012.943310519343
 30
0.0
 10
794.0904550495969
 20
2013.164573571709
 30
0.0
 10
794.0795367973437
 20
2013.350219409272
 30
0.0
 10
794.0863891448963
 20
2013.399999999995
 30
0.0
 10
794.0926935874842
 20
2013.399999999995
 30
0.0
  0
LINE
  5
FC
330
87
100
AcDbEntity
  8
P-SANR-FIXT
100
AcDbLine
 10
852.1664074431086
 20
1992.40026742814
 30
0.0
 11
852.1664074431086
 21
1993.649671283335
 31
0.0
  0
LINE
  5
FD
330
87
100
AcDbEntity
  8
P-SANR-FIXT
100
AcDbLine
 10
852.1664074431086
 20
2006.350328716655
 30
0.0
 11
852.1664074431086
 21
2007.682086237636
 31
0.0
  0
SPLINE
  5
FE
330
87
100
AcDbEntity
  8
P-SANR-FIXT
100
AcDbSpline
210
0.0
220
0.0
230
1.0
 70
    24
 71
     3
 72
     8
 73
     4
 74
     0
 42
0.000000001
 43
0.0000000001
 40
-1.0
 40
-1.0
 40
-1.0
 40
-1.0
 40
-0.8023130377957436
 40
-0.8023130377957436
 40
-0.8023130377957436
 40
-0.8023130377957436
 10
852.1664074431086
 20
1986.499999999995
 30
0.0
 10
852.1631564502254
 20
1986.499999999995
 30
0.0
 10
852.1492666730107
 20
1986.499999999995
 30
0.0
 10
852.1247381114653
 20
1986.499999999995
 30
0.0
  0
SPLINE
  5
FF
330
87
100
AcDbEntity
  8
P-SANR-FIXT
100
AcDbSpline
210
0.0
220
0.0
230
1.0
 70
     8
 71
     3
 72
     8
 73
     4
 74
     0
 42
0.000000001
 43
0.0000000001
 40
-0.5
 40
-0.5
 40
-0.5
 40
-0.5
 40
-0.4920071564252498
 40
-0.4920071564252498
 40
-0.4920071564252498
 40
-0.4920071564252498
 10
852.1663555917799
 20
1993.207354472184
 30
0.0
 10
852.1663555917799
 20
1993.237526795013
 30
0.0
 10
852.1661366573436
 20
1993.267709899434
 30
0.0
 10
852.1657057504055
 20
1993.297903442603
 30
0.0
  0
SPLINE
  5
100
330
87
100
AcDbEntity
  8
P-SANR-FIXT
100
AcDbSpline
210
0.0
220
0.0
230
1.0
 70
     8
 71
     3
 72
     8
 73
     4
 74
     0
 42
0.000000001
 43
0.0000000001
 40
-0.5
 40
-0.5
 40
-0.5
 40
-0.5
 40
-0.492007156425254
 40
-0.492007156425254
 40
-0.492007156425254
 40
-0.492007156425254
 10
852.1663555917799
 20
2006.707354472185
 30
0.0
 10
852.1663555917799
 20
2006.737526795013
 30
0.0
 10
852.1661366573436
 20
2006.767709899435
 30
0.0
 10
852.1657057504055
 20
2006.797903442603
 30
0.0
  0
SPLINE
  5
101
330
87
100
AcDbEntity
  8
P-SANR-FIXT
100
AcDbSpline
210
0.0
220
0.0
230
1.0
 70
    24
 71
     3
 72
     8
 73
     4
 74
     0
 42
0.000000001
 43
0.0000000001
 40
-0.1976869622099425
 40
-0.1976869622099425
 40
-0.1976869622099425
 40
-0.1976869622099425
 40
0.0
 40
0.0
 40
0.0
 40
0.0
 10
852.124738111463
 20
2013.499999999995
 30
0.0
 10
852.14926667301
 20
2013.499999999995
 30
0.0
 10
852.1631564502254
 20
2013.499999999995
 30
0.0
 10
852.1664074431084
 20
2013.499999999995
 30
0.0
  0
LINE
  5
102
330
87
100
AcDbEntity
  8
P-SANR-FIXT
100
AcDbLine
 10
852.1664074431086
 20
2013.499999999995
 30
0.0
 11
852.1664074431086
 21
2007.773410584136
 31
0.0
  0
LINE
  5
103
330
87
100
AcDbEntity
  8
P-SANR-FIXT
100
AcDbLine
 10
852.1664074431086
 20
2007.682086237636
 30
0.0
 11
852.1664074431086
 21
1992.40026742814
 31
0.0
  0
LINE
  5
104
330
87
100
AcDbEntity
  8
P-SANR-FIXT
100
AcDbLine
 10
852.1664074431086
 20
1992.226589415854
 30
0.0
 11
852.1664074431086
 21
1986.499999999995
 31
0.0
  0
SPLINE
  5
105
330
87
100
AcDbEntity
  8
P-SANR-FIXT
100
AcDbSpline
210
0.0
220
0.0
230
1.0
 70
    24
 71
     3
 72
     9
 73
     5
 74
     0
 42
0.000000001
 43
0.0000000001
 40
-1.0
 40
-1.0
 40
-1.0
 40
-1.0
 40
-0.5
 40
0.0
 40
0.0
 40
0.0
 40
0.0
 10
852.1664074431086
 20
2013.499999999995
 30
0.0
 10
852.1581848652335
 20
2013.499999999995
 30
0.0
 10
852.0056247200612
 20
2013.499999999995
 30
0.0
 10
851.580834596044
 20
2013.499999999995
 30
0.0
 10
851.300382039324
 20
2013.499999999995
 30
0.0
  0
SPLINE
  5
106
330
87
100
AcDbEntity
  8
P-SANR-FIXT
100
AcDbSpline
210
0.0
220
0.0
230
1.0
 70
     8
 71
     3
 72
     8
 73
     4
 74
     0
 42
0.000000001
 43
0.0000000001
 40
-1.0
 40
-1.0
 40
-1.0
 40
-1.0
 40
-0.5833333333333302
 40
-0.5833333333333302
 40
-0.5833333333333302
 40
-0.5833333333333302
 10
851.300382039324
 20
2012.412375826448
 30
0.0
 10
851.7814784573552
 20
2010.863185612328
 30
0.0
 10
852.0621180345401
 20
2009.304123748251
 30
0.0
 10
852.1423007708785
 20
2007.735190234219
 30
0.0
  0
SPLINE
  5
107
330
87
100
AcDbEntity
  8
P-SANR-FIXT
100
AcDbSpline
210
0.0
220
0.0
230
1.0
 70
     8
 71
     3
 72
     9
 73
     5
 74
     0
 42
0.000000001
 43
0.0000000001
 40
-0.5666880771072994
 40
-0.5666880771072994
 40
-0.5666880771072994
 40
-0.5666880771072994
 40
-0.5
 40
0.0
 40
0.0
 40
0.0
 40
0.0
 10
852.1509506163482
 20
2007.547112809495
 30
0.0
 10
852.1612205999694
 20
2007.295876592185
 30
0.0
 10
852.2048556658061
 20
2005.158824854969
 30
0.0
 10
851.8776977409611
 20
2003.003513134233
 30
0.0
 10
851.3003820393242
 20
2001.087624173542
 30
0.0
  0
SPLINE
  5
108
330
87
100
AcDbEntity
  8
P-SANR-FIXT
100
AcDbSpline
210
0.0
220
0.0
230
1.0
 70
     8
 71
     3
 72
     9
 73
     5
 74
     0
 42
0.000000001
 43
0.0000000001
 40
-1.0
 40
-1.0
 40
-1.0
 40
-1.0
 40
-0.5
 40
-0.4257005858819354
 40
-0.4257005858819354
 40
-0.4257005858819354
 40
-0.4257005858819354
 10
851.3003820393242
 20
1998.912375826448
 30
0.0
 10
851.8776977409615
 20
1997.053347569504
 30
0.0
 10
852.2092498101729
 20
1994.901742357496
 30
0.0
 10
852.1599815611887
 20
1992.73138335858
 30
0.0
 10
852.1472335000062
 20
1992.450281432974
 30
0.0
  0
SPLINE
  5
109
330
87
100
AcDbEntity
  8
P-SANR-FIXT
100
AcDbSpline
210
0.0
220
0.0
230
1.0
 70
     8
 71
     3
 72
     8
 73
     4
 74
     0
 42
0.000000001
 43
0.0000000001
 40
-0.4166666666664665
 40
-0.4166666666664665
 40
-0.4166666666664665
 40
-0.4166666666664665
 40
0.0
 40
0.0
 40
0.0
 40
0.0
 10
852.1423007708783
 20
1992.347731625399
 30
0.0
 10
852.0621180345395
 20
1990.770900791403
 30
0.0
 10
851.7814784573548
 20
1989.184198307451
 30
0.0
 10
851.300382039324
 20
1987.587624173542
 30
0.0
  0
SPLINE
  5
10A
330
87
100
AcDbEntity
  8
P-SANR-FIXT
100
AcDbSpline
210
0.0
220
0.0
230
1.0
 70
    24
 71
     3
 72
     9
 73
     5
 74
     0
 42
0.000000001
 43
0.0000000001
 40
-1.0
 40
-1.0
 40
-1.0
 40
-1.0
 40
-0.5
 40
0.0
 40
0.0
 40
0.0
 40
0.0
 10
851.300382039324
 20
1986.499999999995
 30
0.0
 10
851.580834596044
 20
1986.499999999995
 30
0.0
 10
852.0056247200612
 20
1986.499999999995
 30
0.0
 10
852.1581848652335
 20
1986.499999999995
 30
0.0
 10
852.1664074431086
 20
1986.499999999995
 30
0.0
  0
LWPOLYLINE
  5
10B
330
87
100
AcDbEntity
  8
P-SANR-FIXT
100
AcDbPolyline
 90
        3
 70
   128
 43
0.0
 10
774.1664074431085
 20
1986.599999999995
 10
774.4525573498114
 20
1986.499999999995
 10
775.0901678738119
 20
1986.499999999995
  0
LINE
  5
10C
330
87
100
AcDbEntity
  8
P-SANR-FIXT
100
AcDbLine
 10
775.0901678738119
 20
1987.587624173542
 30
0.0
 11
775.0901678738119
 21
1986.499999999995
 31
0.0
  0
SPLINE
  5
10D
330
87
100
AcDbEntity
  8
P-SANR-FIXT
100
AcDbSpline
210
0.0
220
0.0
230
1.0
 70
     8
 71
     3
 72
     9
 73
     5
 74
     0
 42
0.000000001
 43
0.0000000001
 40
-1.0
 40
-1.0
 40
-1.0
 40
-1.0
 40
-0.5
 40
0.0
 40
0.0
 40
0.0
 40
0.0
 10
775.0901678738119
 20
1987.587624173542
 30
0.0
 10
774.5128521721746
 20
1989.446652430486
 30
0.0
 10
773.9355364705374
 20
1993.193139296248
 30
0.0
 10
774.5128521721747
 20
1996.996486865757
 30
0.0
 10
775.0901678738121
 20
1998.912375826448
 30
0.0
  0
LINE
  5
10E
330
87
100
AcDbEntity
  8
P-SANR-FIXT
100
AcDbLine
 10
775.0901678738121
 20
2001.087624173542
 30
0.0
 11
775.0901678738121
 21
1998.912375826448
 31
0.0
  0
SPLINE
  5
10F
330
87
100
AcDbEntity
  8
P-SANR-FIXT
100
AcDbSpline
210
0.0
220
0.0
230
1.0
 70
     8
 71
     3
 72
     9
 73
     5
 74
     0
 42
0.000000001
 43
0.0000000001
 40
-1.0
 40
-1.0
 40
-1.0
 40
-1.0
 40
-0.5
 40
0.0
 40
0.0
 40
0.0
 40
0.0
 10
775.0901678738121
 20
2001.087624173542
 30
0.0
 10
774.5128521721747
 20
2002.946652430486
 30
0.0
 10
773.9355364705374
 20
2006.693139296248
 30
0.0
 10
774.5128521721746
 20
2010.496486865757
 30
0.0
 10
775.0901678738119
 20
2012.412375826448
 30
0.0
  0
LINE
  5
110
330
87
100
AcDbEntity
  8
P-SANR-FIXT
100
AcDbLine
 10
775.0901678738119
 20
2013.499999999995
 30
0.0
 11
775.0901678738119
 21
2012.412375826448
 31
0.0
  0
LWPOLYLINE
  5
111
330
87
100
AcDbEntity
  8
P-SANR-FIXT
100
AcDbPolyline
 90
        3
 70
   128
 43
0.0
 10
775.0901678738119
 20
2013.499999999995
 10
774.4525573498114
 20
2013.499999999995
 10
774.1664074431085
 20
2013.399999999995
  0
LWPOLYLINE
  5
112
330
87
100
AcDbEntity
  8
P-SANR-FIXT
100
AcDbPolyline
 90
        3
 70
   128
 43
0.0
 10
838.3775125422019
 20
1986.550011207751
 10
838.6663741831213
 20
1986.499999999995
 10
838.9313221469999
 20
1986.499999999995
  0
LWPOLYLINE
  5
113
330
87
100
AcDbEntity
  8
P-SANR-FIXT
100
AcDbPolyline
 90
        3
 70
   128
 43
0.0
 10
838.9313221469999
 20
2013.499999999995
 10
838.6663741831213
 20
2013.499999999995
 10
838.3775125422019
 20
2013.449988792238
  0
LWPOLYLINE
  5
114
330
87
100
AcDbEntity
  8
P-SANR-FIXT
100
AcDbPolyline
 90
        3
 70
   128
 43
0.0
 10
787.9606716537463
 20
2013.448240980058
 10
787.6669062436525
 20
2013.499999999995
 10
787.4014927392171
 20
2013.499999999995
  0
LWPOLYLINE
  5
115
330
87
100
AcDbEntity
  8
P-SANR-FIXT
100
AcDbPolyline
 90
        3
 70
   128
 43
0.0
 10
787.4014927392171
 20
1986.499999999995
 10
787.6669062436525
 20
1986.499999999995
 10
787.9606716537463
 20
1986.551759019932
  0
ENDBLK
  5
117
330
87
100
AcDbEntity
  8
0
100
AcDbBlockEnd
  0
BLOCK
  5
145
330
119
100
AcDbEntity
  8
0
100
AcDbBlockBegin
  2
Automatic flow rate regulator valve_Caleffi_121 DN15 - 1_2__-V1-Est - Idraulica
 70
     0
 10
0.0
 20
0.0
 30
0.0
  3
Automatic flow rate regulator valve_Caleffi_121 DN15 - 1_2__-V1-Est - Idraulica
  1

  0
LINE
  5
11A
330
119
100
AcDbEntity
  8
P-SANR-FIXT
100
AcDbLine
 10
771.8845579560591
 20
1729.495878730057
 30
0.0
 11
764.7255829007494
 21
1729.495878730057
 31
0.0
  0
LINE
  5
11B
330
119
100
AcDbEntity
  8
P-SANR-FIXT
100
AcDbLine
 10
764.7255829007494
 20
1724.495878730058
 30
0.0
 11
771.8845579560591
 21
1724.495878730057
 31
0.0
  0
LINE
  5
11C
330
119
100
AcDbEntity
  8
P-SANR-FIXT
100
AcDbLine
 10
771.9626403487206
 20
1696.995878730057
 30
0.0
 11
770.9626403487207
 21
1696.995878730057
 31
0.0
  0
LINE
  5
11D
330
119
100
AcDbEntity
  8
P-SANR-FIXT
100
AcDbLine
 10
858.1626403487206
 20
1696.995878730056
 30
0.0
 11
857.1626403487206
 21
1696.995878730056
 31
0.0
  0
LINE
  5
11E
330
119
100
AcDbEntity
  8
P-SANR-FIXT
100
AcDbLine
 10
857.1626403487206
 20
1696.995878730056
 30
0.0
 11
771.9626403487206
 21
1696.995878730057
 31
0.0
  0
LINE
  5
11F
330
119
100
AcDbEntity
  8
P-SANR-FIXT
100
AcDbLine
 10
771.9626403487209
 20
1756.995878730057
 30
0.0
 11
857.1626403487208
 21
1756.995878730057
 31
0.0
  0
LINE
  5
120
330
119
100
AcDbEntity
  8
P-SANR-FIXT
100
AcDbLine
 10
857.1626403487208
 20
1756.995878730057
 30
0.0
 11
858.1626403487209
 21
1756.995878730057
 31
0.0
  0
LINE
  5
121
330
119
100
AcDbEntity
  8
P-SANR-FIXT
100
AcDbLine
 10
770.962640348721
 20
1756.995878730057
 30
0.0
 11
771.9626403487209
 21
1756.995878730057
 31
0.0
  0
LINE
  5
122
330
119
100
AcDbEntity
  8
P-SANR-FIXT
100
AcDbLine
 10
771.9626403487206
 20
1696.995878730057
 30
0.0
 11
771.9626403487206
 21
1698.70140607798
 31
0.0
  0
LINE
  5
123
330
119
100
AcDbEntity
  8
P-SANR-FIXT
100
AcDbLine
 10
771.9626403487209
 20
1755.290351382134
 30
0.0
 11
771.9626403487209
 21
1756.995878730057
 31
0.0
  0
LINE
  5
124
330
119
100
AcDbEntity
  8
P-SANR-FIXT
100
AcDbLine
 10
770.962640348721
 20
1756.995878730057
 30
0.0
 11
770.962640348721
 21
1752.495878730059
 31
0.0
  0
LINE
  5
125
330
119
100
AcDbEntity
  8
P-SANR-FIXT
100
AcDbLine
 10
770.9626403487207
 20
1701.495878730055
 30
0.0
 11
770.9626403487207
 21
1696.995878730057
 31
0.0
  0
LINE
  5
126
330
119
100
AcDbEntity
  8
P-SANR-FIXT
100
AcDbLine
 10
858.1626403487209
 20
1756.995878730057
 30
0.0
 11
858.1626403487209
 21
1752.495878730058
 31
0.0
  0
LINE
  5
127
330
119
100
AcDbEntity
  8
P-SANR-FIXT
100
AcDbLine
 10
858.1626403487206
 20
1701.495878730054
 30
0.0
 11
858.1626403487206
 21
1696.995878730056
 31
0.0
  0
LINE
  5
128
330
119
100
AcDbEntity
  8
P-SANR-FIXT
100
AcDbLine
 10
857.1626403487208
 20
1756.995878730057
 30
0.0
 11
857.1626403487208
 21
1755.290351382133
 31
0.0
  0
LINE
  5
129
330
119
100
AcDbEntity
  8
P-SANR-FIXT
100
AcDbLine
 10
857.1626403487206
 20
1698.70140607798
 30
0.0
 11
857.1626403487206
 21
1696.995878730056
 31
0.0
  0
LINE
  5
12A
330
119
100
AcDbEntity
  8
P-SANR-FIXT
100
AcDbLine
 10
764.7255829007477
 20
1726.995878730057
 30
0.0
 11
764.7255829007477
 21
1729.495878730057
 31
0.0
  0
LINE
  5
12B
330
119
100
AcDbEntity
  8
P-SANR-FIXT
100
AcDbLine
 10
764.7255829007477
 20
1724.495878730057
 30
0.0
 11
764.7255829007477
 21
1726.995878730057
 31
0.0
  0
ARC
  5
12C
330
119
100
AcDbEntity
  8
P-SANR-FIXT
100
AcDbCircle
 10
852.1626403487205
 20
1702.243003619116
 30
0.0
 40
3.578204556673165
100
AcDbArc
 50
269.9999999999978
 51
359.9999999999978
  0
LINE
  5
12D
330
119
100
AcDbEntity
  8
P-SANR-FIXT
100
AcDbLine
 10
855.7408449053941
 20
1702.243003619115
 30
0.0
 11
855.7408449053944
 21
1751.748753840998
 31
0.0
  0
ARC
  5
12E
330
119
100
AcDbEntity
  8
P-SANR-FIXT
100
AcDbCircle
 10
852.1626403487211
 20
1751.748753840998
 30
0.0
 40
3.578204556673128
100
AcDbArc
 50
359.9999999999978
 51
89.99999999999818
  0
LINE
  5
12F
330
119
100
AcDbEntity
  8
P-SANR-FIXT
100
AcDbLine
 10
852.1626403487211
 20
1755.326958397671
 30
0.0
 11
776.962640348721
 21
1755.326958397672
 31
0.0
  0
ARC
  5
130
330
119
100
AcDbEntity
  8
P-SANR-FIXT
100
AcDbCircle
 10
776.962640348721
 20
1751.748753840998
 30
0.0
 40
3.578204556673426
100
AcDbArc
 50
90.0
 51
180.0
  0
LINE
  5
131
330
119
100
AcDbEntity
  8
P-SANR-FIXT
100
AcDbLine
 10
773.3844357920475
 20
1751.748753840998
 30
0.0
 11
773.3844357920474
 21
1702.243003619116
 31
0.0
  0
ARC
  5
132
330
119
100
AcDbEntity
  8
P-SANR-FIXT
100
AcDbCircle
 10
776.9626403487206
 20
1702.243003619116
 30
0.0
 40
3.578204556673313
100
AcDbArc
 50
180.0
 51
269.9999999999997
  0
LINE
  5
133
330
119
100
AcDbEntity
  8
P-SANR-FIXT
100
AcDbLine
 10
776.9626403487206
 20
1698.664799062442
 30
0.0
 11
852.1626403487205
 21
1698.664799062442
 31
0.0
  0
ARC
  5
134
330
119
100
AcDbEntity
  8
P-SANR-FIXT
100
AcDbCircle
 10
853.6626403487206
 20
1701.495878730055
 30
0.0
 40
4.499999999999886
100
AcDbArc
 50
269.9999999999982
 51
359.9999999999982
  0
SPLINE
  5
135
330
119
100
AcDbEntity
  8
P-SANR-FIXT
100
AcDbSpline
210
0.0
220
0.0
230
1.0
 70
     8
 71
     3
 72
    11
 73
     7
 74
     0
 42
0.000000001
 43
0.0000000001
 40
-1.0
 40
-1.0
 40
-1.0
 40
-1.0
 40
-0.7857142857142857
 40
-0.5714285714285714
 40
-0.2857142857142857
 40
-0.0000029243439268
 40
-0.0000029243439268
 40
-0.0000029243439268
 40
-0.0000029243439268
 10
856.7240329057391
 20
1702.212425014214
 30
0.0
 10
856.7243148064155
 20
1701.708080907087
 30
0.0
 10
856.5531761777165
 20
1700.698127699896
 30
0.0
 10
855.7271984626522
 20
1699.202696460707
 30
0.0
 10
854.2418841394233
 20
1698.019409470899
 30
0.0
 10
852.895274929787
 20
1697.712953588664
 30
0.0
 10
852.2220864454613
 20
1697.713404795408
 30
0.0
  0
ARC
  5
136
330
119
100
AcDbEntity
  8
P-SANR-FIXT
100
AcDbCircle
 10
775.4626403487207
 20
1701.495878730055
 30
0.0
 40
4.499999999999886
100
AcDbArc
 50
179.9999999999986
 51
269.9999999999982
  0
LWPOLYLINE
  5
137
330
119
100
AcDbEntity
  8
P-SANR-FIXT
100
AcDbPolyline
 90
        8
 70
   128
 43
0.0
 10
776.90324004116
 20
1697.713417320318
 10
775.9016560354437
 20
1697.825690732076
 10
774.9500205966276
 20
1698.157924584095
 10
774.0961073449737
 20
1698.693666849296
 10
773.3829054000302
 20
1699.406190928046
 10
772.8463883253925
 20
1700.25976118809
 10
772.5136048453459
 20
1701.211432540217
 10
772.4012477902323
 20
1702.212421768875
  0
LINE
  5
138
330
119
100
AcDbEntity
  8
P-SANR-FIXT
100
AcDbLine
 10
853.6626403487206
 20
1696.995878730055
 30
0.0
 11
775.4626403487207
 21
1696.995878730055
 31
0.0
  0
LINE
  5
139
330
119
100
AcDbEntity
  8
P-SANR-FIXT
100
AcDbLine
 10
776.90324004116
 20
1697.713417320318
 30
0.0
 11
852.2220657745858
 21
1697.713417320318
 31
0.0
  0
LINE
  5
13A
330
119
100
AcDbEntity
  8
P-SANR-FIXT
100
AcDbLine
 10
858.1626403487211
 20
1752.495878730058
 30
0.0
 11
858.1626403487206
 21
1701.495878730054
 31
0.0
  0
LINE
  5
13B
330
119
100
AcDbEntity
  8
P-SANR-FIXT
100
AcDbLine
 10
856.724026080217
 20
1751.779332445899
 30
0.0
 11
856.7240260802169
 21
1702.212425014214
 31
0.0
  0
ARC
  5
13C
330
119
100
AcDbEntity
  8
P-SANR-FIXT
100
AcDbCircle
 10
853.6626403487209
 20
1752.495878730059
 30
0.0
 40
4.499999999999929
100
AcDbArc
 50
359.9999999999982
 51
89.99999999999856
  0
LWPOLYLINE
  5
13D
330
119
100
AcDbEntity
  8
P-SANR-FIXT
100
AcDbPolyline
 90
        8
 70
   128
 43
0.0
 10
852.2220406562817
 20
1756.278340139795
 10
853.2227711640242
 20
1756.166260848776
 10
854.1745264570268
 20
1755.834185442219
 10
855.0285706208704
 20
1755.298570594024
 10
855.7419067068396
 20
1754.586153628544
 10
856.2785629220806
 20
1753.732680282122
 10
856.6114992500693
 20
1752.781099699542
 10
856.7240329072093
 20
1751.77933569248
  0
LINE
  5
13E
330
119
100
AcDbEntity
  8
P-SANR-FIXT
100
AcDbLine
 10
775.462640348721
 20
1756.995878730059
 30
0.0
 11
853.6626403487211
 21
1756.995878730058
 31
0.0
  0
LINE
  5
13F
330
119
100
AcDbEntity
  8
P-SANR-FIXT
100
AcDbLine
 10
852.2220406562817
 20
1756.278340139795
 30
0.0
 11
776.9032149228558
 21
1756.278340139796
 31
0.0
  0
ARC
  5
140
330
119
100
AcDbEntity
  8
P-SANR-FIXT
100
AcDbCircle
 10
775.462640348721
 20
1752.495878730059
 30
0.0
 40
4.499999999999886
100
AcDbArc
 50
89.99999999999856
 51
179.9999999999985
  0
LWPOLYLINE
  5
141
330
119
100
AcDbEntity
  8
P-SANR-FIXT
100
AcDbPolyline
 90
        8
 70
   128
 43
0.0
 10
776.9031942492341
 20
1756.278352659622
 10
775.9016265042547
 20
1756.166060008302
 10
774.9499970664929
 20
1755.83382156547
 10
774.0960902621308
 20
1755.298077004496
 10
773.3828944387725
 20
1754.585552796315
 10
772.84638255133
 20
1753.731984281172
 10
772.5136028360461
 20
1752.780316101158
 10
772.401254617225
 20
1751.779329046221
  0
LINE
  5
142
330
119
100
AcDbEntity
  8
P-SANR-FIXT
100
AcDbLine
 10
770.9626403487207
 20
1701.495878730055
 30
0.0
 11
770.9626403487208
 21
1724.495878730057
 31
0.0
  0
LINE
  5
143
330
119
100
AcDbEntity
  8
P-SANR-FIXT
100
AcDbLine
 10
770.9626403487208
 20
1729.495878730057
 30
0.0
 11
770.962640348721
 21
1752.495878730059
 31
0.0
  0
LINE
  5
144
330
119
100
AcDbEntity
  8
P-SANR-FIXT
100
AcDbLine
 10
772.4012546172246
 20
1702.212425014215
 30
0.0
 11
772.401254617225
 21
1751.779329046221
 31
0.0
  0
ENDBLK
  5
146
330
119
100
AcDbEntity
  8
0
100
AcDbBlockEnd
  0
BLOCK
  5
19E
330
148
100
AcDbEntity
  8
0
100
AcDbBlockBegin
  2
Automatic flow rate regulator valve_Caleffi_121 DN15 - 1_2__-V2-Est - Idraulica
 70
     0
 10
0.0
 20
0.0
 30
0.0
  3
Automatic flow rate regulator valve_Caleffi_121 DN15 - 1_2__-V2-Est - Idraulica
  1

  0
LINE
  5
149
330
148
100
AcDbEntity
  8
P-SANR-FIXT
100
AcDbLine
 10
1153.864353943099
 20
2018.982558850012
 30
0.0
 11
1213.864353943099
 21
2018.982558850012
 31
0.0
  0
LINE
  5
14A
330
148
100
AcDbEntity
  8
P-SANR-FIXT
100
AcDbLine
 10
1213.864353943097
 20
2054.782558850011
 30
0.0
 11
1213.864353943097
 21
2053.782558850011
 31
0.0
  0
LINE
  5
14B
330
148
100
AcDbEntity
  8
P-SANR-FIXT
100
AcDbLine
 10
1213.864353943097
 20
2053.782558850011
 30
0.0
 11
1213.864353943097
 21
2023.982558850011
 31
0.0
  0
LINE
  5
14C
330
148
100
AcDbEntity
  8
P-SANR-FIXT
100
AcDbLine
 10
1213.864353943097
 20
2023.982558850011
 30
0.0
 11
1213.864353943097
 21
2018.98255885001
 31
0.0
  0
LINE
  5
14D
330
148
100
AcDbEntity
  8
P-SANR-FIXT
100
AcDbLine
 10
1153.864353943097
 20
2018.98255885001
 30
0.0
 11
1153.864353943097
 21
2023.982558850011
 31
0.0
  0
LINE
  5
14E
330
148
100
AcDbEntity
  8
P-SANR-FIXT
100
AcDbLine
 10
1153.864353943097
 20
2023.982558850011
 30
0.0
 11
1153.864353943097
 21
2053.782558850011
 31
0.0
  0
LINE
  5
14F
330
148
100
AcDbEntity
  8
P-SANR-FIXT
100
AcDbLine
 10
1153.864353943097
 20
2053.782558850011
 30
0.0
 11
1153.864353943097
 21
2054.782558850011
 31
0.0
  0
LINE
  5
150
330
148
100
AcDbEntity
  8
P-SANR-FIXT
100
AcDbLine
 10
1213.864353943097
 20
2054.782558850011
 30
0.0
 11
1212.158826595174
 21
2054.782558850011
 31
0.0
  0
LINE
  5
151
330
148
100
AcDbEntity
  8
P-SANR-FIXT
100
AcDbLine
 10
1155.56988129102
 20
2054.782558850011
 30
0.0
 11
1153.864353943097
 21
2054.782558850011
 31
0.0
  0
LINE
  5
152
330
148
100
AcDbEntity
  8
P-SANR-FIXT
100
AcDbLine
 10
1153.864353943097
 20
2053.782558850011
 30
0.0
 11
1213.864353943097
 21
2053.782558850011
 31
0.0
  0
ARC
  5
153
330
148
100
AcDbEntity
  8
P-SANR-FIXT
100
AcDbCircle
 10
1183.864353943097
 20
2076.056896259378
 30
0.0
 40
2.5
100
AcDbArc
 50
90.0
 51
269.9999999999997
  0
ARC
  5
154
330
148
100
AcDbEntity
  8
P-SANR-FIXT
100
AcDbCircle
 10
1183.864353943097
 20
2076.056896259378
 30
0.0
 40
2.5
100
AcDbArc
 50
269.9999999999997
 51
90.0
  0
LINE
  5
155
330
148
100
AcDbEntity
  8
P-SANR-FIXT
100
AcDbLine
 10
1205.364353943095
 20
1975.982558849987
 30
0.0
 11
1205.364353943095
 21
1978.682558850011
 31
0.0
  0
LINE
  5
156
330
148
100
AcDbEntity
  8
P-SANR-FIXT
100
AcDbLine
 10
1162.364353943104
 20
1978.682558850011
 30
0.0
 11
1162.364353943104
 21
1975.982558849987
 31
0.0
  0
LINE
  5
157
330
148
100
AcDbEntity
  8
P-SANR-FIXT
100
AcDbLine
 10
1169.351203514707
 20
1978.68255885001
 30
0.0
 11
1177.383613244713
 21
1978.68255885001
 31
0.0
  0
LINE
  5
158
330
148
100
AcDbEntity
  8
P-SANR-FIXT
100
AcDbLine
 10
1177.383613244713
 20
1978.68255885001
 30
0.0
 11
1190.345094641482
 21
1978.68255885001
 31
0.0
  0
LINE
  5
159
330
148
100
AcDbEntity
  8
P-SANR-FIXT
100
AcDbLine
 10
1190.345094641482
 20
1978.68255885001
 30
0.0
 11
1198.377504371488
 21
1978.68255885001
 31
0.0
  0
LINE
  5
15A
330
148
100
AcDbEntity
  8
P-SANR-FIXT
100
AcDbLine
 10
1198.377504371488
 20
1978.68255885001
 30
0.0
 11
1204.858245069873
 21
1978.68255885001
 31
0.0
  0
LINE
  5
15B
330
148
100
AcDbEntity
  8
P-SANR-FIXT
100
AcDbLine
 10
1204.858245069873
 20
1978.68255885001
 30
0.0
 11
1205.364353943093
 21
1978.68255885001
 31
0.0
  0
LINE
  5
15C
330
148
100
AcDbEntity
  8
P-SANR-FIXT
100
AcDbLine
 10
1162.364353943102
 20
1978.68255885001
 30
0.0
 11
1162.870462816322
 21
1978.68255885001
 31
0.0
  0
LINE
  5
15D
330
148
100
AcDbEntity
  8
P-SANR-FIXT
100
AcDbLine
 10
1162.870462816322
 20
1978.68255885001
 30
0.0
 11
1169.351203514707
 21
1978.68255885001
 31
0.0
  0
LINE
  5
15E
330
148
100
AcDbEntity
  8
P-SANR-FIXT
100
AcDbLine
 10
1169.351203514707
 20
1975.982558849986
 30
0.0
 11
1162.870462816322
 21
1975.982558849986
 31
0.0
  0
LINE
  5
15F
330
148
100
AcDbEntity
  8
P-SANR-FIXT
100
AcDbLine
 10
1162.870462816322
 20
1975.982558849986
 30
0.0
 11
1162.364353943102
 21
1975.982558849986
 31
0.0
  0
LINE
  5
160
330
148
100
AcDbEntity
  8
P-SANR-FIXT
100
AcDbLine
 10
1205.364353943093
 20
1975.982558849986
 30
0.0
 11
1204.858245069873
 21
1975.982558849986
 31
0.0
  0
LINE
  5
161
330
148
100
AcDbEntity
  8
P-SANR-FIXT
100
AcDbLine
 10
1204.858245069873
 20
1975.982558849986
 30
0.0
 11
1198.377504371488
 21
1975.982558849986
 31
0.0
  0
LINE
  5
162
330
148
100
AcDbEntity
  8
P-SANR-FIXT
100
AcDbLine
 10
1198.377504371488
 20
1975.982558849986
 30
0.0
 11
1190.345094641482
 21
1975.982558849986
 31
0.0
  0
LINE
  5
163
330
148
100
AcDbEntity
  8
P-SANR-FIXT
100
AcDbLine
 10
1190.345094641482
 20
1975.982558849986
 30
0.0
 11
1177.383613244713
 21
1975.982558849986
 31
0.0
  0
LINE
  5
164
330
148
100
AcDbEntity
  8
P-SANR-FIXT
100
AcDbLine
 10
1177.383613244713
 20
1975.982558849986
 30
0.0
 11
1169.351203514707
 21
1975.982558849986
 31
0.0
  0
LINE
  5
165
330
148
100
AcDbEntity
  8
P-SANR-FIXT
100
AcDbLine
 10
1169.351203514707
 20
1978.68255885001
 30
0.0
 11
1169.351203514707
 21
1975.982558849986
 31
0.0
  0
LINE
  5
166
330
148
100
AcDbEntity
  8
P-SANR-FIXT
100
AcDbLine
 10
1177.383613244713
 20
1975.982558849986
 30
0.0
 11
1177.383613244713
 21
1978.68255885001
 31
0.0
  0
LINE
  5
167
330
148
100
AcDbEntity
  8
P-SANR-FIXT
100
AcDbLine
 10
1190.345094641482
 20
1975.982558849986
 30
0.0
 11
1190.345094641482
 21
1978.68255885001
 31
0.0
  0
LINE
  5
168
330
148
100
AcDbEntity
  8
P-SANR-FIXT
100
AcDbLine
 10
1198.377504371488
 20
1975.982558849986
 30
0.0
 11
1198.377504371488
 21
1978.68255885001
 31
0.0
  0
LINE
  5
169
330
148
100
AcDbEntity
  8
P-SANR-FIXT
100
AcDbLine
 10
1204.858245069873
 20
1975.982558849986
 30
0.0
 11
1204.858245069873
 21
1978.68255885001
 31
0.0
  0
LINE
  5
16A
330
148
100
AcDbEntity
  8
P-SANR-FIXT
100
AcDbLine
 10
1162.870462816322
 20
1975.982558849986
 30
0.0
 11
1162.870462816322
 21
1978.68255885001
 31
0.0
  0
LINE
  5
16B
330
148
100
AcDbEntity
  8
P-SANR-FIXT
100
AcDbLine
 10
1213.864353943101
 20
2054.782558850012
 30
0.0
 11
1213.146815352838
 21
2088.588631632589
 31
0.0
  0
LINE
  5
16C
330
148
100
AcDbEntity
  8
P-SANR-FIXT
100
AcDbLine
 10
1154.581880022353
 20
2088.588042189708
 30
0.0
 11
1153.864353943097
 21
2054.782558850012
 31
0.0
  0
LINE
  5
16D
330
148
100
AcDbEntity
  8
P-SANR-FIXT
100
AcDbLine
 10
1155.533274275483
 20
2089.98255885001
 30
0.0
 11
1159.111478832156
 21
2089.982558850011
 31
0.0
  0
LINE
  5
16E
330
148
100
AcDbEntity
  8
P-SANR-FIXT
100
AcDbLine
 10
1159.111478832156
 20
2089.98255885001
 30
0.0
 11
1208.617229054039
 21
2089.982558850011
 31
0.0
  0
LINE
  5
16F
330
148
100
AcDbEntity
  8
P-SANR-FIXT
100
AcDbLine
 10
1208.617229054039
 20
2089.982558850011
 30
0.0
 11
1212.195433610712
 21
2089.98255885001
 31
0.0
  0
LINE
  5
170
330
148
100
AcDbEntity
  8
P-SANR-FIXT
100
AcDbLine
 10
1212.172243185888
 20
2054.782558850011
 30
0.0
 11
1209.364353943099
 21
2054.782558850011
 31
0.0
  0
LWPOLYLINE
  5
171
330
148
100
AcDbEntity
  8
P-SANR-FIXT
100
AcDbPolyline
 90
        8
 70
   128
 43
0.0
 10
1213.146815352836
 20
2088.588631632589
 10
1213.034541941079
 20
2088.569060344944
 10
1212.702308089059
 20
2088.55292710931
 10
1212.166565823858
 20
2088.540665205362
 10
1211.454041745108
 20
2088.533089615544
 10
1210.600471485064
 20
2088.530720639772
 10
1209.648800132937
 20
2088.533723626422
 10
1208.647807658939
 20
2088.541880178647
  0
LINE
  5
172
330
148
100
AcDbEntity
  8
P-SANR-FIXT
100
AcDbLine
 10
1158.364353943095
 20
2054.782558850011
 30
0.0
 11
1155.556464700306
 21
2054.782558850011
 31
0.0
  0
LWPOLYLINE
  5
173
330
148
100
AcDbEntity
  8
P-SANR-FIXT
100
AcDbPolyline
 90
        8
 70
   128
 43
0.0
 10
1154.581880022351
 20
2088.588042189707
 10
1154.694172664852
 20
2088.569059812988
 10
1155.026411107684
 20
2088.552926738328
 10
1155.562155668658
 20
2088.540664988477
 10
1156.27467987684
 20
2088.533089528038
 10
1157.128248391982
 20
2088.530720643998
 10
1158.079916571996
 20
2088.533723677004
 10
1159.080903626933
 20
2088.542040350903
  0
LINE
  5
174
330
148
100
AcDbEntity
  8
P-SANR-FIXT
100
AcDbLine
 10
1209.364353943099
 20
2054.782558850011
 30
0.0
 11
1158.364353943095
 21
2054.782558850011
 31
0.0
  0
LINE
  5
175
330
148
100
AcDbEntity
  8
P-SANR-FIXT
100
AcDbLine
 10
1208.64780765894
 20
2088.542040350904
 30
0.0
 11
1159.080903626933
 21
2088.542040350904
 31
0.0
  0
LINE
  5
176
330
148
100
AcDbEntity
  8
P-SANR-FIXT
100
AcDbLine
 10
1163.364353943099
 20
2008.982558850012
 30
0.0
 11
1163.364353943099
 21
1979.182558850012
 31
0.0
  0
LINE
  5
177
330
148
100
AcDbEntity
  8
P-SANR-FIXT
100
AcDbLine
 10
1204.3643539431
 20
1979.182558850012
 30
0.0
 11
1204.3643539431
 21
2008.982558850012
 31
0.0
  0
LINE
  5
178
330
148
100
AcDbEntity
  8
P-SANR-FIXT
100
AcDbLine
 10
1202.2643539431
 20
2014.196700561828
 30
0.0
 11
1202.2643539431
 21
2018.982558850012
 31
0.0
  0
LINE
  5
179
330
148
100
AcDbEntity
  8
P-SANR-FIXT
100
AcDbLine
 10
1177.364353943099
 20
2018.982558850011
 30
0.0
 11
1177.364353943099
 21
2016.482558850011
 31
0.0
  0
LINE
  5
17A
330
148
100
AcDbEntity
  8
P-SANR-FIXT
100
AcDbLine
 10
1190.3643539431
 20
2016.482558850011
 30
0.0
 11
1190.3643539431
 21
2018.982558850011
 31
0.0
  0
LWPOLYLINE
  5
17B
330
148
100
AcDbEntity
  8
P-SANR-FIXT
100
AcDbPolyline
 90
       41
 70
   128
 43
0.0
 10
1163.364353943099
 20
2008.982558850012
 10
1163.370353143142
 20
2009.282478856412
 10
1163.38834114583
 20
2009.581919054781
 10
1163.418289174195
 20
2009.880400404679
 10
1163.460149317782
 20
2010.177445399619
 10
1163.51385460929
 20
2010.472578830975
 10
1163.579319131709
 20
2010.765328548215
 10
1163.656438155769
 20
2011.055226214242
 10
1163.745088307481
 20
2011.341808054632
 10
1163.845127765515
 20
2011.624615599575
 10
1163.956396488078
 20
2011.903196417327
 10
1164.078716468949
 20
2012.177104838007
 10
1164.211892022255
 20
2012.445902666573
 10
1164.355710095517
 20
2012.70915988384
 10
1164.509940610499
 20
2012.966455334418
 10
1164.674336831277
 20
2013.217377400474
 10
1164.848635758967
 20
2013.461524660229
 10
1165.032558552467
 20
2013.69850653015
 10
1165.225810974543
 20
2013.927943889798
 10
1165.428083862543
 20
2014.149469688341
 10
1165.639053622996
 20
2014.362729531758
 10
1165.85838274929
 20
2014.567382249793
 10
1166.08572036161
 20
2014.763100441754
 10
1166.320702768273
 20
2014.949571000284
 10
1166.562954047556
 20
2015.126495612269
 10
1166.812086649088
 20
2015.293591236071
 10
1167.067702013854
 20
2015.450590554337
 10
1167.329391211797
 20
2015.597242401649
 10
1167.596735596024
 20
2015.733312166335
 10
1167.869307472552
 20
2015.8585821658
 10
1168.146670784524
 20
2015.972851994766
 10
1168.428381809809
 20
2016.075938845883
 10
1168.71398987086
 20
2016.167677802181
 10
1169.003038055707
 20
2016.247922100899
 10
1169.295063948914
 20
2016.316543368277
 10
1169.589600371347
 20
2016.373431824925
 10
1169.886176127563
 20
2016.418496461449
 10
1170.184316759617
 20
2016.451665184044
 10
1170.483545306097
 20
2016.472884929828
 10
1170.783383065163
 20
2016.482121751737
 10
1170.864353943099
 20
2016.482558850011
  0
LWPOLYLINE
  5
17C
330
148
100
AcDbEntity
  8
P-SANR-FIXT
100
AcDbPolyline
 90
       28
 70
   128
 43
0.0
 10
1177.381227845536
 20
2016.482558850011
 10
1176.935811615672
 20
2016.482558850011
 10
1176.501479575523
 20
2016.482558850011
 10
1176.078926563699
 20
2016.482558850011
 10
1175.668828574879
 20
2016.482558850011
 10
1175.271841678363
 20
2016.482558850011
 10
1174.888600968499
 20
2016.482558850011
 10
1174.519719548669
 20
2016.482558850011
 10
1174.165787550455
 20
2016.482558850011
 10
1173.827371189551
 20
2016.482558850011
 10
1173.505011859945
 20
2016.482558850011
 10
1173.199225267796
 20
2016.482558850011
 10
1172.910500606422
 20
2016.482558850011
 10
1172.639299773689
 20
2016.482558850011
 10
1172.386056633077
 20
2016.482558850011
 10
1172.151176319588
 20
2016.482558850011
 10
1171.935034591618
 20
2016.482558850011
 10
1171.737977229826
 20
2016.482558850011
 10
1171.560319483952
 20
2016.482558850011
 10
1171.402345568492
 20
2016.482558850011
 10
1171.264308208011
 20
2016.482558850011
 10
1171.14642823284
 20
2016.482558850011
 10
1171.048894225793
 20
2016.482558850011
 10
1170.971862220474
 20
2016.482558850011
 10
1170.91545545166
 20
2016.482558850011
 10
1170.879764158148
 20
2016.482558850011
 10
1170.864845438394
 20
2016.482558850011
 10
1170.864353943099
 20
2016.482558850011
  0
LWPOLYLINE
  5
17D
330
148
100
AcDbEntity
  8
P-SANR-FIXT
100
AcDbPolyline
 90
       28
 70
   128
 43
0.0
 10
1170.864353943099
 20
2016.482558850011
 10
1170.874752556507
 20
2016.482558850011
 10
1170.905931761166
 20
2016.482558850011
 10
1170.957841676999
 20
2016.482558850011
 10
1171.030399259216
 20
2016.482558850011
 10
1171.123488431163
 20
2016.482558850011
 10
1171.236960270023
 20
2016.482558850011
 10
1171.370633245059
 20
2016.482558850011
 10
1171.524293508028
 20
2016.482558850011
 10
1171.697695235286
 20
2016.482558850011
 10
1171.890561021062
 20
2016.482558850011
 10
1172.10258232124
 20
2016.482558850011
 10
1172.333419946969
 20
2016.482558850011
 10
1172.58270460729
 20
2016.482558850011
 10
1172.850037499925
 20
2016.482558850011
 10
1173.134990949274
 20
2016.482558850011
 10
1173.437109090603
 20
2016.482558850011
 10
1173.755908599337
 20
2016.482558850011
 10
1174.090879464268
 20
2016.482558850011
 10
1174.441485803468
 20
2016.482558850011
 10
1174.807166721586
 20
2016.482558850011
 10
1175.187337207162
 20
2016.482558850011
 10
1175.581389068518
 20
2016.482558850011
 10
1175.988691906734
 20
2016.482558850011
 10
1176.408594124158
 20
2016.482558850011
 10
1176.840423966814
 20
2016.482558850011
 10
1177.283490599074
 20
2016.482558850011
 10
1177.381227845536
 20
2016.482558850011
  0
LWPOLYLINE
  5
17E
330
148
100
AcDbEntity
  8
P-SANR-FIXT
100
AcDbPolyline
 90
       21
 70
   128
 43
0.0
 10
1202.258607823173
 20
2014.193319358547
 10
1202.462667838767
 20
2013.973438684827
 10
1202.657771746373
 20
2013.745573668036
 10
1202.843607421355
 20
2013.510088843592
 10
1203.019877566279
 20
2013.267360936979
 10
1203.186300186514
 20
2013.01777826107
 10
1203.342609041369
 20
2012.761740094903
 10
1203.488554070022
 20
2012.499656044928
 10
1203.623901791558
 20
2012.231945389714
 10
1203.748435678497
 20
2011.959036409203
 10
1203.861956503185
 20
2011.681365699544
 10
1203.964282656519
 20
2011.399377474642
 10
1204.055250438483
 20
2011.1135228555
 10
1204.13471432003
 20
2010.824259148531
 10
1204.202547175901
 20
2010.532049113959
 10
1204.258640487998
 20
2010.237360225506
 10
1204.302904518986
 20
2009.940663922528
 10
1204.335268455859
 20
2009.642434855819
 10
1204.355680523222
 20
2009.343150128267
 10
1204.364108066121
 20
2009.043288531592
 10
1204.3643539431
 20
2008.982558850012
  0
LWPOLYLINE
  5
17F
330
148
100
AcDbEntity
  8
P-SANR-FIXT
100
AcDbPolyline
 90
       15
 70
   128
 43
0.0
 10
1195.1399841952
 20
2016.482558850011
 10
1194.872236180889
 20
2016.482558850011
 10
1194.586877903221
 20
2016.482558850011
 10
1194.284365874566
 20
2016.482558850011
 10
1193.965184049638
 20
2016.482558850011
 10
1193.629843051269
 20
2016.482558850011
 10
1193.27887935352
 20
2016.482558850011
 10
1192.912854423439
 20
2016.482558850011
 10
1192.532353822833
 20
2016.482558850011
 10
1192.137986271494
 20
2016.482558850011
 10
1191.730382673378
 20
2016.482558850011
 10
1191.310195107289
 20
2016.482558850011
 10
1190.8780957837
 20
2016.482558850011
 10
1190.43477596935
 20
2016.482558850011
 10
1190.347480040663
 20
2016.482558850011
  0
LINE
  5
180
330
148
100
AcDbEntity
  8
P-SANR-FIXT
100
AcDbLine
 10
1163.364353943099
 20
1979.182558850012
 30
0.0
 11
1163.864353943099
 21
1978.682558850011
 31
0.0
  0
LINE
  5
181
330
148
100
AcDbEntity
  8
P-SANR-FIXT
100
AcDbLine
 10
1203.8643539431
 20
1978.682558850011
 30
0.0
 11
1204.3643539431
 21
1979.182558850012
 31
0.0
  0
LINE
  5
182
330
148
100
AcDbEntity
  8
P-SANR-FIXT
100
AcDbLine
 10
1163.364353943098
 20
1979.182558850011
 30
0.0
 11
1183.864353943097
 21
1979.182558850011
 31
0.0
  0
LINE
  5
183
330
148
100
AcDbEntity
  8
P-SANR-FIXT
100
AcDbLine
 10
1183.864353943097
 20
1979.182558850011
 30
0.0
 11
1204.364353943098
 21
1979.182558850011
 31
0.0
  0
ARC
  5
184
330
148
100
AcDbEntity
  8
P-SANR-FIXT
100
AcDbCircle
 10
1183.864353943097
 20
1999.982558850011
 30
0.0
 40
13.40000000000009
100
AcDbArc
 50
90.0
 51
269.9999999999997
  0
ARC
  5
185
330
148
100
AcDbEntity
  8
P-SANR-FIXT
100
AcDbCircle
 10
1183.864353943097
 20
1999.982558850011
 30
0.0
 40
6.350000000000136
100
AcDbArc
 50
90.0
 51
269.9999999999997
  0
ARC
  5
186
330
148
100
AcDbEntity
  8
P-SANR-FIXT
100
AcDbCircle
 10
1183.864353943097
 20
1999.982558850011
 30
0.0
 40
13.40000000000009
100
AcDbArc
 50
269.9999999999997
 51
89.99999999999904
  0
ARC
  5
187
330
148
100
AcDbEntity
  8
P-SANR-FIXT
100
AcDbCircle
 10
1183.864353943097
 20
1999.982558850011
 30
0.0
 40
6.350000000000136
100
AcDbArc
 50
269.9999999999997
 51
90.0
  0
SPLINE
  5
188
330
148
100
AcDbEntity
  8
P-SANR-FIXT
100
AcDbSpline
210
0.0
220
0.0
230
1.0
 70
     8
 71
     3
 72
    25
 73
    21
 74
     0
 42
0.000000001
 43
0.0000000001
 40
0.0
 40
0.0
 40
0.0
 40
0.0
 40
0.0833333333333333
 40
0.1666666666666666
 40
0.2083333333333333
 40
0.25
 40
0.2916666666666666
 40
0.3333333333333333
 40
0.375
 40
0.4166666666666666
 40
0.4583333333333333
 40
0.5
 40
0.5416666666666666
 40
0.5833333333333333
 40
0.625
 40
0.6666666666666666
 40
0.7083333333333333
 40
0.75
 40
0.8333333333333333
 40
1.0
 40
1.0
 40
1.0
 40
1.0
 10
1177.381227845534
 20
2016.482558850011
 30
0.0
 10
1177.400996544255
 20
2016.477487968909
 30
0.0
 10
1177.475160703485
 20
2016.454047055946
 30
0.0
 10
1177.651640466019
 20
2016.394089720398
 30
0.0
 10
1177.840515822316
 20
2016.323065106751
 30
0.0
 10
1178.005222070819
 20
2016.257888153671
 30
0.0
 10
1178.192239366564
 20
2016.185555581185
 30
0.0
 10
1178.400910157726
 20
2016.11151839928
 30
0.0
 10
1178.630015035488
 20
2016.033303078057
 30
0.0
 10
1178.878449195537
 20
2015.948188892459
 30
0.0
 10
1179.145646402474
 20
2015.861216491506
 30
0.0
 10
1179.431238753
 20
2015.777299468009
 30
0.0
 10
1179.733908358302
 20
2015.694098265534
 30
0.0
 10
1180.052110134379
 20
2015.609086541487
 30
0.0
 10
1180.385336537756
 20
2015.527097119476
 30
0.0
 10
1180.732978463469
 20
2015.452718819998
 30
0.0
 10
1181.093945246808
 20
2015.384157309787
 30
0.0
 10
1181.590626907959
 20
2015.296697663929
 30
0.0
 10
1182.495684461656
 20
2015.173273099383
 30
0.0
 10
1183.315324449076
 20
2015.13192122926
 30
0.0
 10
1183.864353943097
 20
2015.127475448306
 30
0.0
  0
SPLINE
  5
189
330
148
100
AcDbEntity
  8
P-SANR-FIXT
100
AcDbSpline
210
0.0
220
0.0
230
1.0
 70
     8
 71
     3
 72
    29
 73
    25
 74
     0
 42
0.000000001
 43
0.0000000001
 40
0.0
 40
0.0
 40
0.0
 40
0.0
 40
0.0555555555555556
 40
0.0833333333333333
 40
0.1111111111111111
 40
0.1388888888888889
 40
0.1666666666666666
 40
0.1944444444444444
 40
0.2083333333333333
 40
0.2222222222222222
 40
0.2361111111111111
 40
0.25
 40
0.2777777777777778
 40
0.3055555555555556
 40
0.3194444444444444
 40
0.3333333333333333
 40
0.3472222222222222
 40
0.3611111111111111
 40
0.3888888888888888
 40
0.4166666666666666
 40
0.4444444444444445
 40
0.4722222222222223
 40
0.5
 40
0.5185185185185186
 40
0.5185185185185186
 40
0.5185185185185186
 40
0.5185185185185186
 10
1195.764353943098
 20
2016.461660494648
 30
0.0
 10
1196.151899389916
 20
2016.422254667419
 30
0.0
 10
1196.72961682875
 20
2016.345891527099
 30
0.0
 10
1197.474725725589
 20
2016.208392778804
 30
0.0
 10
1198.017279867422
 20
2016.089772961477
 30
0.0
 10
1198.53809197959
 20
2015.946277956738
 30
0.0
 10
1199.034029848704
 20
2015.779551539989
 30
0.0
 10
1199.425737403182
 20
2015.632903927441
 30
0.0
 10
1199.725219550606
 20
2015.515706295126
 30
0.0
 10
1199.94289368437
 20
2015.430530225693
 30
0.0
 10
1200.152538440745
 20
2015.34455378472
 30
0.0
 10
1200.420238748688
 20
2015.224351167018
 30
0.0
 10
1200.733218938046
 20
2015.070398408834
 30
0.0
 10
1201.016878100382
 20
2014.921067714223
 30
0.0
 10
1201.225664456605
 20
2014.810082280643
 30
0.0
 10
1201.373042782396
 20
2014.733832380447
 30
0.0
 10
1201.510649308955
 20
2014.660980960259
 30
0.0
 10
1201.680150433766
 20
2014.563561951432
 30
0.0
 10
1201.865043281991
 20
2014.448376517552
 30
0.0
 10
1202.041000271103
 20
2014.331107892819
 30
0.0
 10
1202.168617190692
 20
2014.250026615421
 30
0.0
 10
1202.246778050556
 20
2014.206995903171
 30
0.0
 10
1202.270251636309
 20
2014.193242946651
 30
0.0
 10
1202.260389392605
 20
2014.199027320215
 30
0.0
 10
1202.252580099722
 20
2014.203468923439
 30
0.0
  0
SPLINE
  5
18A
330
148
100
AcDbEntity
  8
P-SANR-FIXT
100
AcDbSpline
210
0.0
220
0.0
230
1.0
 70
     8
 71
     3
 72
     8
 73
     4
 74
     0
 42
0.000000001
 43
0.0000000001
 40
0.5
 40
0.5
 40
0.5
 40
0.5
 40
1.0
 40
1.0
 40
1.0
 40
1.0
 10
1195.451978209542
 20
2016.477235620717
 30
0.0
 10
1195.556080102757
 20
2016.47375256149
 30
0.0
 10
1195.660245530636
 20
2016.4685608528
 30
0.0
 10
1195.764353943098
 20
2016.461660494648
 30
0.0
  0
SPLINE
  5
18B
330
148
100
AcDbEntity
  8
P-SANR-FIXT
100
AcDbSpline
210
0.0
220
0.0
230
1.0
 70
     8
 71
     3
 72
    25
 73
    21
 74
     0
 42
0.000000001
 43
0.0000000001
 40
0.0
 40
0.0
 40
0.0
 40
0.0
 40
0.1666666666666666
 40
0.25
 40
0.2916666666666666
 40
0.3333333333333333
 40
0.375
 40
0.4166666666666666
 40
0.4583333333333333
 40
0.5
 40
0.5416666666666666
 40
0.5833333333333333
 40
0.625
 40
0.6666666666666666
 40
0.7083333333333333
 40
0.75
 40
0.7916666666666668
 40
0.8333333333333333
 40
0.9166666666666667
 40
1.0
 40
1.0
 40
1.0
 40
1.0
 10
1183.864353943097
 20
2015.127475448306
 30
0.0
 10
1184.413383437119
 20
2015.13192122926
 30
0.0
 10
1185.233023424538
 20
2015.173273099383
 30
0.0
 10
1186.138080978236
 20
2015.296697663929
 30
0.0
 10
1186.634762639387
 20
2015.384157309787
 30
0.0
 10
1186.995729422726
 20
2015.452718819998
 30
0.0
 10
1187.343371348439
 20
2015.527097119476
 30
0.0
 10
1187.676597751815
 20
2015.609086541487
 30
0.0
 10
1187.994799527893
 20
2015.694098265534
 30
0.0
 10
1188.297469133195
 20
2015.777299468009
 30
0.0
 10
1188.58306148372
 20
2015.861216491506
 30
0.0
 10
1188.850258690657
 20
2015.948188892459
 30
0.0
 10
1189.098692850707
 20
2016.033303078057
 30
0.0
 10
1189.327797728468
 20
2016.11151839928
 30
0.0
 10
1189.536468519632
 20
2016.185555581185
 30
0.0
 10
1189.723485815376
 20
2016.257888153671
 30
0.0
 10
1189.888192063879
 20
2016.323065106751
 30
0.0
 10
1190.077067420176
 20
2016.394089720398
 30
0.0
 10
1190.25354718271
 20
2016.454047055946
 30
0.0
 10
1190.327711341939
 20
2016.477487968909
 30
0.0
 10
1190.347480040661
 20
2016.482558850011
 30
0.0
  0
LWPOLYLINE
  5
18C
330
148
100
AcDbEntity
  8
P-SANR-FIXT
100
AcDbPolyline
 90
        3
 70
   128
 43
0.0
 10
1183.864353943097
 20
2013.382558850011
 10
1180.572177330176
 20
2013.482558850011
 10
1177.326005527786
 20
2013.482558850011
  0
ARC
  5
18D
330
148
100
AcDbEntity
  8
P-SANR-FIXT
100
AcDbCircle
 10
1183.864353943097
 20
1999.982558850011
 30
0.0
 40
15.00000000000004
100
AcDbArc
 50
115.8419327631678
 51
124.1580672368338
  0
SPLINE
  5
18E
330
148
100
AcDbEntity
  8
P-SANR-FIXT
100
AcDbSpline
210
0.0
220
0.0
230
1.0
 70
    24
 71
     3
 72
     9
 73
     5
 74
     0
 42
0.000000001
 43
0.0000000001
 40
-1.0
 40
-1.0
 40
-1.0
 40
-1.0
 40
-0.5
 40
0.0
 40
0.0
 40
0.0
 40
0.0
 10
1175.442185199663
 20
2012.394934676464
 30
0.0
 10
1174.368874735085
 20
2010.535906419519
 30
0.0
 10
1172.205839534622
 20
2006.789419553757
 30
0.0
 10
1170.009975791544
 20
2002.986071984249
 30
0.0
 10
1168.903836784352
 20
2001.070183023557
 30
0.0
  0
ARC
  5
18F
330
148
100
AcDbEntity
  8
P-SANR-FIXT
100
AcDbCircle
 10
1183.864353943097
 20
1999.982558850011
 30
0.0
 40
15.00000000000006
100
AcDbArc
 50
175.8419327631683
 51
184.158067236833
  0
SPLINE
  5
190
330
148
100
AcDbEntity
  8
P-SANR-FIXT
100
AcDbSpline
210
0.0
220
0.0
230
1.0
 70
    24
 71
     3
 72
     9
 73
     5
 74
     0
 42
0.000000001
 43
0.0000000001
 40
-1.0
 40
-1.0
 40
-1.0
 40
-1.0
 40
-0.5
 40
0.0
 40
0.0
 40
0.0
 40
0.0
 10
1168.903836784352
 20
1998.894934676464
 30
0.0
 10
1169.97714724893
 20
1997.035906419519
 30
0.0
 10
1172.140182449393
 20
1993.289419553758
 30
0.0
 10
1174.33604619247
 20
1989.486071984249
 30
0.0
 10
1175.442185199663
 20
1987.570183023558
 30
0.0
  0
ARC
  5
191
330
148
100
AcDbEntity
  8
P-SANR-FIXT
100
AcDbCircle
 10
1183.864353943097
 20
1999.982558850011
 30
0.0
 40
15.0
100
AcDbArc
 50
235.8419327631667
 51
244.1580672368327
  0
LWPOLYLINE
  5
192
330
148
100
AcDbEntity
  8
P-SANR-FIXT
100
AcDbPolyline
 90
        3
 70
   128
 43
0.0
 10
1177.326005527786
 20
1986.482558850011
 10
1180.572177330176
 20
1986.482558850011
 10
1183.864353943097
 20
1986.582558850011
  0
LWPOLYLINE
  5
193
330
148
100
AcDbEntity
  8
P-SANR-FIXT
100
AcDbPolyline
 90
        3
 70
   128
 43
0.0
 10
1183.864353943097
 20
1986.582558850011
 10
1187.156530556018
 20
1986.482558850011
 10
1190.402702358408
 20
1986.482558850011
  0
ARC
  5
194
330
148
100
AcDbEntity
  8
P-SANR-FIXT
100
AcDbCircle
 10
1183.864353943097
 20
1999.982558850011
 30
0.0
 40
14.99999999999992
100
AcDbArc
 50
295.8419327631676
 51
304.1580672368328
  0
SPLINE
  5
195
330
148
100
AcDbEntity
  8
P-SANR-FIXT
100
AcDbSpline
210
0.0
220
0.0
230
1.0
 70
    24
 71
     3
 72
     9
 73
     5
 74
     0
 42
0.000000001
 43
0.0000000001
 40
-1.0
 40
-1.0
 40
-1.0
 40
-1.0
 40
-0.5
 40
0.0
 40
0.0
 40
0.0
 40
0.0
 10
1192.286522686532
 20
1987.570183023558
 30
0.0
 10
1193.359833151109
 20
1989.429211280502
 30
0.0
 10
1195.522868351573
 20
1993.175698146264
 30
0.0
 10
1197.71873209465
 20
1996.979045715772
 30
0.0
 10
1198.824871101843
 20
1998.894934676464
 30
0.0
  0
ARC
  5
196
330
148
100
AcDbEntity
  8
P-SANR-FIXT
100
AcDbCircle
 10
1183.864353943097
 20
1999.982558850011
 30
0.0
 40
15.00000000000004
100
AcDbArc
 50
355.8419327631672
 51
4.158067236833312
  0
SPLINE
  5
197
330
148
100
AcDbEntity
  8
P-SANR-FIXT
100
AcDbSpline
210
0.0
220
0.0
230
1.0
 70
    24
 71
     3
 72
     9
 73
     5
 74
     0
 42
0.000000001
 43
0.0000000001
 40
-1.0
 40
-1.0
 40
-1.0
 40
-1.0
 40
-0.5
 40
0.0
 40
0.0
 40
0.0
 40
0.0
 10
1198.824871101843
 20
2001.070183023558
 30
0.0
 10
1197.751560637265
 20
2002.929211280502
 30
0.0
 10
1195.588525436802
 20
2006.675698146263
 30
0.0
 10
1193.392661693724
 20
2010.479045715773
 30
0.0
 10
1192.286522686532
 20
2012.394934676464
 30
0.0
  0
ARC
  5
198
330
148
100
AcDbEntity
  8
P-SANR-FIXT
100
AcDbCircle
 10
1183.864353943097
 20
1999.982558850011
 30
0.0
 40
14.9999999999999
100
AcDbArc
 50
55.84193276316783
 51
64.15806723683347
  0
LWPOLYLINE
  5
199
330
148
100
AcDbEntity
  8
P-SANR-FIXT
100
AcDbPolyline
 90
        3
 70
   128
 43
0.0
 10
1190.402702358408
 20
2013.482558850011
 10
1187.156530556018
 20
2013.482558850011
 10
1183.864353943097
 20
2013.382558850011
  0
LWPOLYLINE
  5
19A
330
148
100
AcDbEntity
  8
P-SANR-FIXT
100
AcDbPolyline
 90
        3
 70
   128
 43
0.0
 10
1182.909012188099
 20
1986.496019091859
 10
1182.214356091907
 20
1986.482558850011
 10
1181.956100309854
 20
1986.479871136308
  0
LWPOLYLINE
  5
19B
330
148
100
AcDbEntity
  8
P-SANR-FIXT
100
AcDbPolyline
 90
        3
 70
   128
 43
0.0
 10
1181.956100315938
 20
2013.485246563663
 10
1182.214356091907
 20
2013.482558850011
 10
1182.909012191154
 20
2013.46909860808
  0
LWPOLYLINE
  5
19C
330
148
100
AcDbEntity
  8
P-SANR-FIXT
100
AcDbPolyline
 90
        3
 70
   128
 43
0.0
 10
1184.81969569218
 20
2013.469098608004
 10
1185.514351794287
 20
2013.482558850011
 10
1185.772607564561
 20
2013.485246563615
  0
LWPOLYLINE
  5
19D
330
148
100
AcDbEntity
  8
P-SANR-FIXT
100
AcDbPolyline
 90
        3
 70
   128
 43
0.0
 10
1185.772607563917
 20
1986.479871136412
 10
1185.514351794287
 20
1986.482558850011
 10
1184.819695691857
 20
1986.496019092027
  0
ENDBLK
  5
19F
330
148
100
AcDbEntity
  8
0
100
AcDbBlockEnd
  0
ENDSEC
  0
SECTION
  2
ENTITIES
  0
INSERT
  5
118
330
71
100
AcDbEntity
  8
P-SANR-FIXT
100
AcDbBlockReference
  2
Automatic flow rate regulator valve_Caleffi_121 DN15 - 1_2__-859151-Est - Idraulica
 10
0.0
 20
0.0
 30
0.0
1001
REVIT
1002
{
1070
     1
1000
863131
1002
}
1002
{
1070
     5
1000
859151
1002
}
1002
{
1070
     2
1000
-2001160
1002
}
  0
INSERT
  5
147
330
71
100
AcDbEntity
  8
P-SANR-FIXT
100
AcDbBlockReference
  2
Automatic flow rate regulator valve_Caleffi_121 DN15 - 1_2__-V1-Est - Idraulica
 10
0.0
 20
0.0
 30
0.0
1001
REVIT
1002
{
1070
     1
1000
863152
1002
}
1002
{
1070
     5
1000
859151
1002
}
1002
{
1070
     2
1000
-2001160
1002
}
  0
INSERT
  5
1A0
330
71
100
AcDbEntity
  8
P-SANR-FIXT
100
AcDbBlockReference
  2
Automatic flow rate regulator valve_Caleffi_121 DN15 - 1_2__-V2-Est - Idraulica
 10
0.0
 20
0.0
 30
0.0
1001
REVIT
1002
{
1070
     1
1000
863172
1002
}
1002
{
1070
     5
1000
859151
1002
}
1002
{
1070
     2
1000
-2001160
1002
}
  0
ENDSEC
  0
SECTION
  2
OBJECTS
  0
DICTIONARY
  5
C
330
0
100
AcDbDictionary
281
     1
  3
ACAD_CIP_PREVIOUS_PRODUCT_INFO
350
7A
  3
ACAD_COLOR
350
63
  3
ACAD_DETAILVIEWSTYLE
350
6B
  3
ACAD_GROUP
350
D
  3
ACAD_IMAGE_VARS
350
7B
  3
ACAD_LAYOUT
350
62
  3
ACAD_MATERIAL
350
10
  3
ACAD_MLEADERSTYLE
350
66
  3
ACAD_MLINESTYLE
350
5F
  3
ACAD_PLOTSETTINGS
350
61
  3
ACAD_PLOTSTYLENAME
350
E
  3
ACAD_SCALELIST
350
42
  3
ACAD_SECTIONVIEWSTYLE
350
68
  3
ACAD_TABLESTYLE
350
64
  3
ACAD_VISUALSTYLE
350
29
  3
ACDB_RECOMPOSE_DATA
350
1AA
  3
AcDbVariableDictionary
350
7C
  3
REVIT_DICTIONARY
350
1A2
  0
DICTIONARY
  5
1A6
330
71
100
AcDbDictionary
280
     1
281
     1
  3
ACAD_SORTENTS
360
1A7
  0
XRECORD
  5
7A
102
{ACAD_REACTORS
330
C
102
}
330
C
100
AcDbXrecord
280
     1
300
RVT
300
2013
300
RVT2013
  0
DICTIONARY
  5
63
102
{ACAD_REACTORS
330
C
102
}
330
C
100
AcDbDictionary
281
     1
  0
DICTIONARY
  5
6B
102
{ACAD_REACTORS
330
C
102
}
330
C
100
AcDbDictionary
281
     1
  3
Imperial24
350
6C
  0
DICTIONARY
  5
D
102
{ACAD_REACTORS
330
C
102
}
330
C
100
AcDbDictionary
281
     1
  0
RASTERVARIABLES
  5
7B
102
{ACAD_REACTORS
330
C
102
}
330
C
100
AcDbRasterVariables
 90
        0
 70
     0
 71
     1
 72
     1
  0
DICTIONARY
  5
62
102
{ACAD_REACTORS
330
C
102
}
330
C
100
AcDbDictionary
281
     1
  3
Layout1
350
70
  3
Layout2
350
78
  3
Model
350
74
  0
DICTIONARY
  5
10
102
{ACAD_REACTORS
330
C
102
}
330
C
100
AcDbDictionary
281
     1
  3
ByBlock
350
19
  3
ByLayer
350
11
  3
Global
350
21
  0
DICTIONARY
  5
66
102
{ACAD_REACTORS
330
C
102
}
330
C
100
AcDbDictionary
281
     1
  3
Standard
350
67
  0
DICTIONARY
  5
5F
102
{ACAD_REACTORS
330
C
102
}
330
C
100
AcDbDictionary
281
     1
  3
Standard
350
60
  0
DICTIONARY
  5
61
102
{ACAD_REACTORS
330
C
102
}
330
C
100
AcDbDictionary
281
     1
  0
ACDBDICTIONARYWDFLT
  5
E
102
{ACAD_REACTORS
330
C
102
}
330
C
100
AcDbDictionary
281
     1
  3
Normal
350
F
100
AcDbDictionaryWithDefault
340
F
  0
DICTIONARY
  5
42
102
{ACAD_REACTORS
330
C
102
}
330
C
100
AcDbDictionary
281
     1
  3
A0
350
43
  3
A1
350
44
  3
A2
350
45
  3
A3
350
46
  3
A4
350
47
  3
A5
350
48
  3
A6
350
49
  3
A7
350
4A
  3
A8
350
4B
  3
A9
350
4C
  3
B0
350
4D
  3
B1
350
4E
  3
B2
350
4F
  3
B3
350
50
  3
B4
350
51
  3
B5
350
52
  3
B6
350
53
  0
DICTIONARY
  5
68
102
{ACAD_REACTORS
330
C
102
}
330
C
100
AcDbDictionary
281
     1
  3
Imperial24
350
6A
  0
DICTIONARY
  5
64
102
{ACAD_REACTORS
330
C
102
}
330
C
100
AcDbDictionary
281
     1
  3
Standard
350
65
  0
DICTIONARY
  5
29
102
{ACAD_REACTORS
330
C
102
}
330
C
100
AcDbDictionary
281
     1
  3
2dWireframe
350
2F
  3
Basic
350
2E
  3
Brighten
350
35
  3
ColorChange
350
39
  3
Conceptual
350
32
  3
Dim
350
34
  3
EdgeColorOff
350
41
  3
Facepattern
350
38
  3
Flat
350
2A
  3
FlatWithEdges
350
2B
  3
Gouraud
350
2C
  3
GouraudWithEdges
350
2D
  3
Hidden
350
31
  3
JitterOff
350
3F
  3
Linepattern
350
37
  3
OverhangOff
350
40
  3
Realistic
350
33
  3
Shaded
350
3E
  3
Shaded with edges
350
3D
  3
Shades of Gray
350
3A
  3
Sketchy
350
3B
  3
Thicken
350
36
  3
Wireframe
350
30
  3
X-Ray
350
3C
  0
XRECORD
  5
1AA
102
{ACAD_REACTORS
330
C
102
}
330
C
100
AcDbXrecord
280
     1
 90
        1
330
65
  0
DICTIONARY
  5
7C
102
{ACAD_REACTORS
330
C
102
}
330
C
100
AcDbDictionary
281
     1
  3
CANNOSCALE
350
81
  3
CMLEADERSTYLE
350
7E
  3
CTABLESTYLE
350
7D
  3
CVIEWDETAILSTYLE
350
7F
  3
CVIEWSECTIONSTYLE
350
80
  0
DICTIONARY
  5
1A2
102
{ACAD_REACTORS
330
C
102
}
330
C
100
AcDbDictionary
281
     1
  3
DRAWING_TOOL
350
1A5
  3
REVIT_CATEGORY_MAPPING
350
1A4
  3
REVIT_TYPE_MAPPING
350
1A3
  0
SORTENTSTABLE
  5
1A7
102
{ACAD_REACTORS
330
1A6
102
}
330
1A6
100
AcDbSortentsTable
330
71
  0
ACDBDETAILVIEWSTYLE
  5
6C
102
{ACAD_REACTORS
330
6B
102
}
330
6B
100
AcDbModelDocViewStyle
 70
     0
  3
Imperial24
290
     1
100
AcDbDetailViewStyle
 70
     0
 71
     0
 90
        3
 71
     1
340
55
 62
   256
 40
0.24
340
0
 62
   256
 40
0.24
300

 40
0.36
280
     3
 71
     2
340
5D
 90
       25
 62
   256
 71
     3
340
55
 62
   256
 40
0.24
 90
        1
 40
0.75
 90
        1
300
%<\AcVar ViewType \f "%tc1">% %<\AcVar ViewDetailId>%\PSCALA %<\AcVar ViewScale \f "%sn">%
 71
     4
340
5D
 90
       25
 62
   256
340
5D
 90
       25
 62
   256
280
     0
  0
LAYOUT
  5
70
102
{ACAD_REACTORS
330
62
102
}
330
62
100
AcDbPlotSettings
  1

  2

  4

  6

 40
0.0
 41
0.0
 42
0.0
 43
0.0
 44
0.0
 45
0.0
 46
0.0
 47
0.0
 48
0.0
 49
0.0
140
0.0
141
0.0
142
1.0
143
1.0
 70
   688
 72
     0
 73
     0
 74
     5
  7

 75
    16
147
1.0
 76
     0
 77
     2
 78
   300
148
0.0
149
0.0
100
AcDbLayout
  1
Layout1
 70
     1
 71
     1
 10
0.0
 20
0.0
 11
12.0
 21
9.0
 12
0.0
 22
0.0
 32
0.0
 14
0.0
 24
0.0
 34
0.0
 15
0.0
 25
0.0
 35
0.0
146
0.0
 13
0.0
 23
0.0
 33
0.0
 16
1.0
 26
0.0
 36
0.0
 17
0.0
 27
1.0
 37
0.0
 76
     0
330
6D
  0
LAYOUT
  5
78
102
{ACAD_REACTORS
330
62
102
}
330
62
100
AcDbPlotSettings
  1

  2

  4

  6

 40
0.0
 41
0.0
 42
0.0
 43
0.0
 44
0.0
 45
0.0
 46
0.0
 47
0.0
 48
0.0
 49
0.0
140
0.0
141
0.0
142
1.0
143
1.0
 70
   688
 72
     0
 73
     0
 74
     5
  7

 75
    16
147
1.0
 76
     0
 77
     2
 78
   300
148
0.0
149
0.0
100
AcDbLayout
  1
Layout2
 70
     1
 71
     2
 10
0.0
 20
0.0
 11
12.0
 21
9.0
 12
0.0
 22
0.0
 32
0.0
 14
0.0
 24
0.0
 34
0.0
 15
0.0
 25
0.0
 35
0.0
146
0.0
 13
0.0
 23
0.0
 33
0.0
 16
1.0
 26
0.0
 36
0.0
 17
0.0
 27
1.0
 37
0.0
 76
     0
330
75
  0
LAYOUT
  5
74
102
{ACAD_REACTORS
330
62
102
}
330
62
100
AcDbPlotSettings
  1

  2

  4

  6

 40
0.0
 41
0.0
 42
0.0
 43
0.0
 44
0.0
 45
0.0
 46
0.0
 47
0.0
 48
0.0
 49
0.0
140
0.0
141
0.0
142
1.0
143
1.0
 70
  1712
 72
     0
 73
     0
 74
     0
  7

 75
     0
147
1.0
 76
     0
 77
     2
 78
   300
148
0.0
149
0.0
100
AcDbLayout
  1
Model
 70
     1
 71
     0
 10
0.0
 20
0.0
 11
12.0
 21
9.0
 12
0.0
 22
0.0
 32
0.0
 14
0.0
 24
0.0
 34
0.0
 15
0.0
 25
0.0
 35
0.0
146
0.0
 13
0.0
 23
0.0
 33
0.0
 16
1.0
 26
0.0
 36
0.0
 17
0.0
 27
1.0
 37
0.0
 76
     0
330
71
  0
MATERIAL
  5
19
102
{ACAD_XDICTIONARY
360
1A
102
}
102
{ACAD_REACTORS
330
10
102
}
330
10
100
AcDbMaterial
  1
ByBlock
 72
     0
 43
0.0208333333333333
 43
0.0
 43
0.0
 43
0.0
 43
0.0
 43
0.0208333333333333
 43
0.0
 43
0.0
 43
0.0
 43
0.0
 43
1.0
 43
0.0
 43
0.0
 43
0.0
 43
0.0
 43
1.0
 77
     0
 47
0.0208333333333333
 47
0.0
 47
0.0
 47
0.0
 47
0.0
 47
0.0208333333333333
 47
0.0
 47
0.0
 47
0.0
 47
0.0
 47
1.0
 47
0.0
 47
0.0
 47
0.0
 47
0.0
 47
1.0
171
     0
 49
0.0208333333333333
 49
0.0
 49
0.0
 49
0.0
 49
0.0
 49
0.0208333333333333
 49
0.0
 49
0.0
 49
0.0
 49
0.0
 49
1.0
 49
0.0
 49
0.0
 49
0.0
 49
0.0
 49
1.0
175
     0
142
0.0208333333333333
142
0.0
142
0.0
142
0.0
142
0.0
142
0.0208333333333333
142
0.0
142
0.0
142
0.0
142
0.0
142
1.0
142
0.0
142
0.0
142
0.0
142
0.0
142
1.0
179
     0
144
0.0208333333333333
144
0.0
144
0.0
144
0.0
144
0.0
144
0.0208333333333333
144
0.0
144
0.0
144
0.0
144
0.0
144
1.0
144
0.0
144
0.0
144
0.0
144
0.0
144
1.0
147
0.0208333333333333
147
0.0
147
0.0
147
0.0
147
0.0
147
0.0208333333333333
147
0.0
147
0.0
147
0.0
147
0.0
147
1.0
147
0.0
147
0.0
147
0.0
147
0.0
147
1.0
  0
MATERIAL
  5
11
102
{ACAD_XDICTIONARY
360
12
102
}
102
{ACAD_REACTORS
330
10
102
}
330
10
100
AcDbMaterial
  1
ByLayer
 72
     0
 43
0.0208333333333333
 43
0.0
 43
0.0
 43
0.0
 43
0.0
 43
0.0208333333333333
 43
0.0
 43
0.0
 43
0.0
 43
0.0
 43
1.0
 43
0.0
 43
0.0
 43
0.0
 43
0.0
 43
1.0
 77
     0
 47
0.0208333333333333
 47
0.0
 47
0.0
 47
0.0
 47
0.0
 47
0.0208333333333333
 47
0.0
 47
0.0
 47
0.0
 47
0.0
 47
1.0
 47
0.0
 47
0.0
 47
0.0
 47
0.0
 47
1.0
171
     0
 49
0.0208333333333333
 49
0.0
 49
0.0
 49
0.0
 49
0.0
 49
0.0208333333333333
 49
0.0
 49
0.0
 49
0.0
 49
0.0
 49
1.0
 49
0.0
 49
0.0
 49
0.0
 49
0.0
 49
1.0
175
     0
142
0.0208333333333333
142
0.0
142
0.0
142
0.0
142
0.0
142
0.0208333333333333
142
0.0
142
0.0
142
0.0
142
0.0
142
1.0
142
0.0
142
0.0
142
0.0
142
0.0
142
1.0
179
     0
144
0.0208333333333333
144
0.0
144
0.0
144
0.0
144
0.0
144
0.0208333333333333
144
0.0
144
0.0
144
0.0
144
0.0
144
1.0
144
0.0
144
0.0
144
0.0
144
0.0
144
1.0
147
0.0208333333333333
147
0.0
147
0.0
147
0.0
147
0.0
147
0.0208333333333333
147
0.0
147
0.0
147
0.0
147
0.0
147
1.0
147
0.0
147
0.0
147
0.0
147
0.0
147
1.0
  0
MATERIAL
  5
21
102
{ACAD_XDICTIONARY
360
22
102
}
102
{ACAD_REACTORS
330
10
102
}
330
10
100
AcDbMaterial
  1
Global
 72
     0
 43
0.0208333333333333
 43
0.0
 43
0.0
 43
0.0
 43
0.0
 43
0.0208333333333333
 43
0.0
 43
0.0
 43
0.0
 43
0.0
 43
1.0
 43
0.0
 43
0.0
 43
0.0
 43
0.0
 43
1.0
 77
     0
 47
0.0208333333333333
 47
0.0
 47
0.0
 47
0.0
 47
0.0
 47
0.0208333333333333
 47
0.0
 47
0.0
 47
0.0
 47
0.0
 47
1.0
 47
0.0
 47
0.0
 47
0.0
 47
0.0
 47
1.0
171
     0
 49
0.0208333333333333
 49
0.0
 49
0.0
 49
0.0
 49
0.0
 49
0.0208333333333333
 49
0.0
 49
0.0
 49
0.0
 49
0.0
 49
1.0
 49
0.0
 49
0.0
 49
0.0
 49
0.0
 49
1.0
175
     0
142
0.0208333333333333
142
0.0
142
0.0
142
0.0
142
0.0
142
0.0208333333333333
142
0.0
142
0.0
142
0.0
142
0.0
142
1.0
142
0.0
142
0.0
142
0.0
142
0.0
142
1.0
179
     0
144
0.0208333333333333
144
0.0
144
0.0
144
0.0
144
0.0
144
0.0208333333333333
144
0.0
144
0.0
144
0.0
144
0.0
144
1.0
144
0.0
144
0.0
144
0.0
144
0.0
144
1.0
147
0.0208333333333333
147
0.0
147
0.0
147
0.0
147
0.0
147
0.0208333333333333
147
0.0
147
0.0
147
0.0
147
0.0
147
1.0
147
0.0
147
0.0
147
0.0
147
0.0
147
1.0
  0
MLEADERSTYLE
  5
67
102
{ACAD_REACTORS
330
66
102
}
330
66
100
AcDbMLeaderStyle
179
     2
170
     2
171
     1
172
     0
 90
        2
 40
0.0
 41
0.0
173
     1
 91
-1056964608
340
5B
 92
       -2
290
     1
 42
0.09
291
     1
 43
0.36
  3
Standard
 44
0.18
300

342
55
174
     1
178
     6
175
     1
176
     0
 93
-1056964608
 45
0.18
292
     0
297
     0
 46
0.18
 94
-1056964608
 47
1.0
 49
1.0
140
1.0
293
     1
141
0.0
294
     1
177
     0
142
1.0
295
     1
296
     0
143
0.125
271
     0
272
     9
273
     9
298
     1
  0
MLINESTYLE
  5
60
102
{ACAD_REACTORS
330
5F
102
}
330
5F
100
AcDbMlineStyle
  2
STANDARD
 70
     0
  3

 62
   256
 51
90.0
 52
90.0
 71
     2
 49
0.5
 62
   256
  6
BYLAYER
 49
-0.5
 62
   256
  6
BYLAYER
  0
ACDBPLACEHOLDER
  5
F
102
{ACAD_REACTORS
330
E
102
}
330
E
  0
SCALE
  5
43
102
{ACAD_REACTORS
330
42
102
}
330
42
100
AcDbScale
 70
     0
300
1:1
140
1.0
141
1.0
290
     1
  0
SCALE
  5
44
102
{ACAD_REACTORS
330
42
102
}
330
42
100
AcDbScale
 70
     0
300
1/128" = 1'-0"
140
0.0078125
141
12.0
290
     0
  0
SCALE
  5
45
102
{ACAD_REACTORS
330
42
102
}
330
42
100
AcDbScale
 70
     0
300
1/64" = 1'-0"
140
0.015625
141
12.0
290
     0
  0
SCALE
  5
46
102
{ACAD_REACTORS
330
42
102
}
330
42
100
AcDbScale
 70
     0
300
1/32" = 1'-0"
140
0.03125
141
12.0
290
     0
  0
SCALE
  5
47
102
{ACAD_REACTORS
330
42
102
}
330
42
100
AcDbScale
 70
     0
300
1/16" = 1'-0"
140
0.0625
141
12.0
290
     0
  0
SCALE
  5
48
102
{ACAD_REACTORS
330
42
102
}
330
42
100
AcDbScale
 70
     0
300
3/32" = 1'-0"
140
0.09375
141
12.0
290
     0
  0
SCALE
  5
49
102
{ACAD_REACTORS
330
42
102
}
330
42
100
AcDbScale
 70
     0
300
1/8" = 1'-0"
140
0.125
141
12.0
290
     0
  0
SCALE
  5
4A
102
{ACAD_REACTORS
330
42
102
}
330
42
100
AcDbScale
 70
     0
300
3/16" = 1'-0"
140
0.1875
141
12.0
290
     0
  0
SCALE
  5
4B
102
{ACAD_REACTORS
330
42
102
}
330
42
100
AcDbScale
 70
     0
300
1/4" = 1'-0"
140
0.25
141
12.0
290
     0
  0
SCALE
  5
4C
102
{ACAD_REACTORS
330
42
102
}
330
42
100
AcDbScale
 70
     0
300
3/8" = 1'-0"
140
0.375
141
12.0
290
     0
  0
SCALE
  5
4D
102
{ACAD_REACTORS
330
42
102
}
330
42
100
AcDbScale
 70
     0
300
1/2" = 1'-0"
140
0.5
141
12.0
290
     0
  0
SCALE
  5
4E
102
{ACAD_REACTORS
330
42
102
}
330
42
100
AcDbScale
 70
     0
300
3/4" = 1'-0"
140
0.75
141
12.0
290
     0
  0
SCALE
  5
4F
102
{ACAD_REACTORS
330
42
102
}
330
42
100
AcDbScale
 70
     0
300
1" = 1'-0"
140
1.0
141
12.0
290
     0
  0
SCALE
  5
50
102
{ACAD_REACTORS
330
42
102
}
330
42
100
AcDbScale
 70
     0
300
1-1/2" = 1'-0"
140
1.5
141
12.0
290
     0
  0
SCALE
  5
51
102
{ACAD_REACTORS
330
42
102
}
330
42
100
AcDbScale
 70
     0
300
3" = 1'-0"
140
3.0
141
12.0
290
     0
  0
SCALE
  5
52
102
{ACAD_REACTORS
330
42
102
}
330
42
100
AcDbScale
 70
     0
300
6" = 1'-0"
140
6.0
141
12.0
290
     0
  0
SCALE
  5
53
102
{ACAD_REACTORS
330
42
102
}
330
42
100
AcDbScale
 70
     0
300
1'-0" = 1'-0"
140
12.0
141
12.0
290
     0
  0
ACDBSECTIONVIEWSTYLE
  5
6A
102
{ACAD_REACTORS
330
68
102
}
330
68
100
AcDbModelDocViewStyle
 70
     0
  3
Imperial24
290
     1
100
AcDbSectionViewStyle
 70
     0
 71
     0
 90
       78
 71
     1
340
55
 62
   256
 40
0.24
340
0
340
0
 62
   256
 40
0.24
300
I, O, Q, S, X, Z
 40
0.48
 90
        3
 40
0.18
 90
        1
 71
     2
340
69
 90
       25
 62
   256
340
5D
 90
       50
 62
   256
 40
0.24
 40
0.0
 40
0.24
 71
     3
340
55
 62
   256
 40
0.24
 90
        1
 40
0.75
 90
        1
300
%<\AcVar ViewType \f "%tc1">% %<\AcVar ViewSectionStartId>%-%<\AcVar ViewSectionEndId>%\PSCALA %<\AcVar ViewScale \f "%sn">%
 71
     4
 62
   256
 62
   257
300
ANSI31
 40
1.0
 90
        0
290
     0
290
     0
 90
        6
 40
0.0
 40
1.570796326794896
 40
0.2617993877991494
 40
1.308996938995747
 40
-0.2617993877991494
 40
1.832595714594046
  0
TABLESTYLE
  5
65
102
{ACAD_XDICTIONARY
360
1A8
102
}
102
{ACAD_REACTORS
330
64
102
}
330
64
100
AcDbTableStyle
280
     0
  3
Standard
 70
     0
 71
     0
 40
0.06
 41
0.06
280
     0
281
     0
  7
Standard
140
0.18
170
     2
 62
     0
 63
     7
283
     0
 90
      512
 91
        0
  1

274
    -2
284
     1
 64
     0
275
    -2
285
     1
 65
     0
276
    -2
286
     1
 66
     0
277
    -2
287
     1
 67
     0
278
    -2
288
     1
 68
     0
279
    -2
289
     1
 69
     0
  7
Standard
140
0.25
170
     5
 62
     0
 63
     7
283
     0
 90
      512
 91
        0
  1

274
    -2
284
     1
 64
     0
275
    -2
285
     1
 65
     0
276
    -2
286
     1
 66
     0
277
    -2
287
     1
 67
     0
278
    -2
288
     1
 68
     0
279
    -2
289
     1
 69
     0
  7
Standard
140
0.18
170
     5
 62
     0
 63
     7
283
     0
 90
      512
 91
        0
  1

274
    -2
284
     1
 64
     0
275
    -2
285
     1
 65
     0
276
    -2
286
     1
 66
     0
277
    -2
287
     1
 67
     0
278
    -2
288
     1
 68
     0
279
    -2
289
     1
 69
     0
  0
VISUALSTYLE
  5
2F
102
{ACAD_REACTORS
330
29
102
}
330
29
100
AcDbVisualStyle
  2
2dWireframe
 70
     4
177
     3
291
     0
 70
    58
 90
        0
176
     1
 90
        2
176
     1
 90
        0
176
     1
 90
        0
176
     1
 40
0.6
176
     1
 40
30.0
176
     1
 62
     7
420
 16777215
176
     1
 90
        1
176
     1
 90
        4
176
     1
 62
     7
176
     1
 62
   257
176
     1
 90
        1
176
     1
 90
        1
176
     1
 40
1.0
176
     1
 90
        0
176
     1
 62
   257
176
     1
 40
1.0
176
     1
 90
        1
176
     1
 90
        6
176
     1
 90
        2
176
     1
 62
     7
176
     1
 90
        5
176
     1
 90
        0
176
     1
 90
        0
176
     1
290
     0
176
     1
 90
        1
176
     1
 40
0.0
176
     1
 90
        0
176
     1
290
     1
176
     1
290
     1
176
     1
290
     0
176
     1
290
     0
176
     1
290
     0
176
     1
290
     0
176
     1
290
     0
176
     1
290
     0
176
     1
290
     0
176
     1
 90
       50
176
     1
 40
0.0
176
     1
 40
1.0
176
     1
 90
        0
176
     1
 62
    18
420
        0
176
     1
 90
       50
176
     1
 90
        3
176
     1
 62
     5
420
      255
176
     1
290
     0
176
     1
 90
       50
176
     1
 90
       50
176
     1
 90
       50
176
     1
290
     0
176
     1
 90
       50
176
     1
 62
   256
176
     0
 40
1.0
176
     0
 90
        2
176
     1
  1
strokes_ogs.tif
176
     1
290
     0
176
     1
 40
1.0
176
     1
 40
1.0
176
     1
  0
VISUALSTYLE
  5
2E
102
{ACAD_REACTORS
330
29
102
}
330
29
100
AcDbVisualStyle
  2
Basic
 70
     7
177
     3
291
     1
 70
    58
 90
        1
176
     1
 90
        0
176
     1
 90
        1
176
     1
 90
        0
176
     1
 40
0.6
176
     1
 40
30.0
176
     1
 62
     7
420
 16777215
176
     1
 90
        0
176
     1
 90
        4
176
     1
 62
     7
176
     1
 62
   257
176
     1
 90
        1
176
     1
 90
        1
176
     1
 40
1.0
176
     1
 90
        8
176
     1
 62
     7
176
     1
 40
1.0
176
     1
 90
        1
176
     1
 90
        6
176
     1
 90
        2
176
     1
 62
     7
176
     1
 90
        5
176
     1
 90
        0
176
     1
 90
        0
176
     1
290
     0
176
     1
 90
        1
176
     1
 40
0.0
176
     1
 90
        0
176
     1
290
     0
176
     1
290
     1
176
     1
290
     1
176
     1
290
     0
176
     1
290
     0
176
     1
290
     0
176
     1
290
     0
176
     1
290
     0
176
     1
290
     0
176
     1
 90
       50
176
     1
 40
0.0
176
     1
 40
1.0
176
     1
 90
        0
176
     1
 62
    18
420
        0
176
     1
 90
       50
176
     1
 90
        3
176
     1
 62
     5
420
      255
176
     1
290
     0
176
     1
 90
       50
176
     1
 90
       50
176
     1
 90
       50
176
     1
290
     0
176
     1
 90
       50
176
     1
 62
   256
176
     0
 40
1.0
176
     0
 90
        2
176
     1
  1
strokes_ogs.tif
176
     1
290
     0
176
     1
 40
1.0
176
     1
 40
1.0
176
     1
  0
VISUALSTYLE
  5
35
102
{ACAD_REACTORS
330
29
102
}
330
29
100
AcDbVisualStyle
  2
Brighten
 70
    12
177
     3
291
     1
 70
    58
 90
        2
176
     1
 90
        2
176
     1
 90
        0
176
     1
 90
        0
176
     1
 40
0.6
176
     1
 40
30.0
176
     1
 62
     7
420
 16777215
176
     1
 90
        1
176
     1
 90
        4
176
     1
 62
     7
176
     1
 62
   257
176
     1
 90
        1
176
     1
 90
        1
176
     1
 40
1.0
176
     1
 90
        8
176
     1
 62
     7
176
     1
 40
1.0
176
     1
 90
        1
176
     1
 90
        6
176
     1
 90
        2
176
     1
 62
     7
176
     1
 90
        5
176
     1
 90
        0
176
     1
 90
        0
176
     1
290
     0
176
     1
 90
        1
176
     1
 40
50.0
176
     1
 90
        0
176
     1
290
     0
176
     1
290
     1
176
     1
290
     1
176
     1
290
     0
176
     1
290
     0
176
     1
290
     0
176
     1
290
     0
176
     1
290
     0
176
     1
290
     0
176
     1
 90
       50
176
     1
 40
0.0
176
     1
 40
1.0
176
     1
 90
        0
176
     1
 62
    18
420
        0
176
     1
 90
       50
176
     1
 90
        3
176
     1
 62
     5
420
      255
176
     1
290
     0
176
     1
 90
       50
176
     1
 90
       50
176
     1
 90
       50
176
     1
290
     0
176
     1
 90
       50
176
     1
 62
   256
176
     0
 40
1.0
176
     0
 90
        2
176
     1
  1
strokes_ogs.tif
176
     1
290
     0
176
     1
 40
1.0
176
     1
 40
1.0
176
     1
  0
VISUALSTYLE
  5
39
102
{ACAD_REACTORS
330
29
102
}
330
29
100
AcDbVisualStyle
  2
ColorChange
 70
    16
177
     3
291
     1
 70
    58
 90
        2
176
     1
 90
        2
176
     1
 90
        3
176
     1
 90
        0
176
     1
 40
0.6
176
     1
 40
30.0
176
     1
 62
     8
420
  8421504
176
     1
 90
        1
176
     1
 90
        4
176
     1
 62
     7
176
     1
 62
   257
176
     1
 90
        1
176
     1
 90
        1
176
     1
 40
1.0
176
     1
 90
        8
176
     1
 62
     8
420
  8421504
176
     1
 40
1.0
176
     1
 90
        1
176
     1
 90
        6
176
     1
 90
        2
176
     1
 62
     7
176
     1
 90
        5
176
     1
 90
        0
176
     1
 90
        0
176
     1
290
     0
176
     1
 90
        1
176
     1
 40
0.0
176
     1
 90
        0
176
     1
290
     0
176
     1
290
     1
176
     1
290
     1
176
     1
290
     0
176
     1
290
     0
176
     1
290
     0
176
     1
290
     0
176
     1
290
     0
176
     1
290
     0
176
     1
 90
       50
176
     1
 40
0.0
176
     1
 40
1.0
176
     1
 90
        0
176
     1
 62
    18
420
        0
176
     1
 90
       50
176
     1
 90
        3
176
     1
 62
     5
420
      255
176
     1
290
     0
176
     1
 90
       50
176
     1
 90
       50
176
     1
 90
       50
176
     1
290
     0
176
     1
 90
       50
176
     1
 62
   256
176
     0
 40
1.0
176
     0
 90
        2
176
     1
  1
strokes_ogs.tif
176
     1
290
     0
176
     1
 40
1.0
176
     1
 40
1.0
176
     1
  0
VISUALSTYLE
  5
32
102
{ACAD_REACTORS
330
29
102
}
330
29
100
AcDbVisualStyle
  2
Conceptual
 70
     9
177
     3
291
     0
 70
    58
 90
        3
176
     1
 90
        2
176
     1
 90
        0
176
     1
 90
        0
176
     1
 40
0.6
176
     1
 40
30.0
176
     1
 62
     7
420
 16777215
176
     1
 90
        2
176
     1
 90
        2
176
     1
 62
     7
176
     1
 62
   257
176
     1
 90
        1
176
     1
 90
        1
176
     1
 40
179.0
176
     1
 90
        8
176
     1
 62
     7
176
     1
 40
1.0
176
     1
 90
        1
176
     1
 90
        6
176
     1
 90
        2
176
     1
 62
     7
176
     1
 90
        3
176
     1
 90
        0
176
     1
 90
        0
176
     1
290
     0
176
     1
 90
        1
176
     1
 40
0.0
176
     1
 90
        0
176
     1
290
     0
176
     1
290
     1
176
     1
290
     1
176
     1
290
     0
176
     1
290
     0
176
     1
290
     0
176
     1
290
     0
176
     1
290
     0
176
     1
290
     0
176
     1
 90
       50
176
     1
 40
0.0
176
     1
 40
1.0
176
     1
 90
        0
176
     1
 62
    18
420
        0
176
     1
 90
       50
176
     1
 90
        3
176
     1
 62
     5
420
      255
176
     1
290
     0
176
     1
 90
       50
176
     1
 90
       50
176
     1
 90
       50
176
     1
290
     0
176
     1
 90
       50
176
     1
 62
   256
176
     0
 40
1.0
176
     0
 90
        2
176
     1
  1
strokes_ogs.tif
176
     1
290
     0
176
     1
 40
1.0
176
     1
 40
1.0
176
     1
  0
VISUALSTYLE
  5
34
102
{ACAD_REACTORS
330
29
102
}
330
29
100
AcDbVisualStyle
  2
Dim
 70
    11
177
     3
291
     1
 70
    58
 90
        2
176
     1
 90
        2
176
     1
 90
        0
176
     1
 90
        0
176
     1
 40
0.6
176
     1
 40
30.0
176
     1
 62
     7
420
 16777215
176
     1
 90
        1
176
     1
 90
        4
176
     1
 62
     7
176
     1
 62
   257
176
     1
 90
        1
176
     1
 90
        1
176
     1
 40
1.0
176
     1
 90
        8
176
     1
 62
     7
176
     1
 40
1.0
176
     1
 90
        1
176
     1
 90
        6
176
     1
 90
        2
176
     1
 62
     7
176
     1
 90
        5
176
     1
 90
        0
176
     1
 90
        0
176
     1
290
     0
176
     1
 90
        1
176
     1
 40
-50.0
176
     1
 90
        0
176
     1
290
     0
176
     1
290
     1
176
     1
290
     1
176
     1
290
     0
176
     1
290
     0
176
     1
290
     0
176
     1
290
     0
176
     1
290
     0
176
     1
290
     0
176
     1
 90
       50
176
     1
 40
0.0
176
     1
 40
1.0
176
     1
 90
        0
176
     1
 62
    18
420
        0
176
     1
 90
       50
176
     1
 90
        3
176
     1
 62
     5
420
      255
176
     1
290
     0
176
     1
 90
       50
176
     1
 90
       50
176
     1
 90
       50
176
     1
290
     0
176
     1
 90
       50
176
     1
 62
   256
176
     0
 40
1.0
176
     0
 90
        2
176
     1
  1
strokes_ogs.tif
176
     1
290
     0
176
     1
 40
1.0
176
     1
 40
1.0
176
     1
  0
VISUALSTYLE
  5
41
102
{ACAD_REACTORS
330
29
102
}
330
29
100
AcDbVisualStyle
  2
EdgeColorOff
 70
    22
177
     3
291
     1
 70
    58
 90
        2
176
     0
 90
        2
176
     0
 90
        0
176
     0
 90
        0
176
     0
 40
0.6
176
     0
 40
30.0
176
     0
 62
     7
420
 16777215
176
     0
 90
        1
176
     0
 90
        4
176
     0
 62
     7
176
     0
 62
   257
176
     0
 90
        1
176
     0
 90
        1
176
     0
 40
1.0
176
     0
 90
        8
176
     2
 62
     7
176
     0
 40
1.0
176
     0
 90
        1
176
     0
 90
        6
176
     0
 90
        2
176
     0
 62
     7
176
     0
 90
        5
176
     0
 90
        0
176
     0
 90
        0
176
     0
290
     0
176
     0
 90
        1
176
     0
 40
0.0
176
     0
 90
        0
176
     0
290
     0
176
     0
290
     1
176
     0
290
     1
176
     0
290
     0
176
     0
290
     0
176
     0
290
     0
176
     0
290
     0
176
     0
290
     0
176
     0
290
     0
176
     0
 90
       50
176
     0
 40
0.0
176
     0
 40
1.0
176
     0
 90
        0
176
     0
 62
    18
420
        0
176
     0
 90
       50
176
     0
 90
        3
176
     0
 62
     5
420
      255
176
     0
290
     0
176
     0
 90
       50
176
     0
 90
       50
176
     0
 90
       50
176
     0
290
     0
176
     0
 90
       50
176
     0
 62
   256
176
     0
 40
1.0
176
     0
 90
        2
176
     0
  1
strokes_ogs.tif
176
     0
290
     0
176
     0
 40
1.0
176
     0
 40
1.0
176
     0
  0
VISUALSTYLE
  5
38
102
{ACAD_REACTORS
330
29
102
}
330
29
100
AcDbVisualStyle
  2
Facepattern
 70
    15
177
     3
291
     1
 70
    58
 90
        2
176
     1
 90
        2
176
     1
 90
        0
176
     1
 90
        0
176
     1
 40
0.6
176
     1
 40
30.0
176
     1
 62
     7
420
 16777215
176
     1
 90
        1
176
     1
 90
        4
176
     1
 62
     7
176
     1
 62
   257
176
     1
 90
        1
176
     1
 90
        1
176
     1
 40
1.0
176
     1
 90
        8
176
     1
 62
     7
176
     1
 40
1.0
176
     1
 90
        1
176
     1
 90
        6
176
     1
 90
        2
176
     1
 62
     7
176
     1
 90
        5
176
     1
 90
        0
176
     1
 90
        0
176
     1
290
     0
176
     1
 90
        1
176
     1
 40
0.0
176
     1
 90
        0
176
     1
290
     0
176
     1
290
     1
176
     1
290
     1
176
     1
290
     0
176
     1
290
     0
176
     1
290
     0
176
     1
290
     0
176
     1
290
     0
176
     1
290
     0
176
     1
 90
       50
176
     1
 40
0.0
176
     1
 40
1.0
176
     1
 90
        0
176
     1
 62
    18
420
        0
176
     1
 90
       50
176
     1
 90
        3
176
     1
 62
     5
420
      255
176
     1
290
     0
176
     1
 90
       50
176
     1
 90
       50
176
     1
 90
       50
176
     1
290
     0
176
     1
 90
       50
176
     1
 62
   256
176
     0
 40
1.0
176
     0
 90
        2
176
     1
  1
strokes_ogs.tif
176
     1
290
     0
176
     1
 40
1.0
176
     1
 40
1.0
176
     1
  0
VISUALSTYLE
  5
2A
102
{ACAD_REACTORS
330
29
102
}
330
29
100
AcDbVisualStyle
  2
Flat
 70
     0
177
     3
291
     1
 70
    58
 90
        2
176
     1
 90
        1
176
     1
 90
        1
176
     1
 90
        2
176
     1
 40
0.6
176
     1
 40
30.0
176
     1
 62
     7
420
 16777215
176
     1
 90
        0
176
     1
 90
        0
176
     1
 62
     7
176
     1
 62
   257
176
     1
 90
        1
176
     1
 90
        1
176
     1
 40
1.0
176
     1
 90
        8
176
     1
 62
     7
176
     1
 40
1.0
176
     1
 90
        1
176
     1
 90
        6
176
     1
 90
        2
176
     1
 62
     7
176
     1
 90
        5
176
     1
 90
        0
176
     1
 90
        0
176
     1
290
     0
176
     1
 90
       13
176
     1
 40
0.0
176
     1
 90
        0
176
     1
290
     0
176
     1
290
     1
176
     1
290
     1
176
     1
290
     0
176
     1
290
     0
176
     1
290
     0
176
     1
290
     0
176
     1
290
     0
176
     1
290
     0
176
     1
 90
       50
176
     1
 40
0.0
176
     1
 40
1.0
176
     1
 90
        0
176
     1
 62
    18
420
        0
176
     1
 90
       50
176
     1
 90
        3
176
     1
 62
     5
420
      255
176
     1
290
     0
176
     1
 90
       50
176
     1
 90
       50
176
     1
 90
       50
176
     1
290
     0
176
     1
 90
       50
176
     1
 62
   256
176
     0
 40
1.0
176
     0
 90
        2
176
     1
  1
strokes_ogs.tif
176
     1
290
     0
176
     1
 40
1.0
176
     1
 40
1.0
176
     1
  0
VISUALSTYLE
  5
2B
102
{ACAD_REACTORS
330
29
102
}
330
29
100
AcDbVisualStyle
  2
FlatWithEdges
 70
     1
177
     3
291
     1
 70
    58
 90
        2
176
     1
 90
        1
176
     1
 90
        1
176
     1
 90
        2
176
     1
 40
0.6
176
     1
 40
30.0
176
     1
 62
     7
420
 16777215
176
     1
 90
        1
176
     1
 90
        0
176
     1
 62
     7
176
     1
 62
   257
176
     1
 90
        1
176
     1
 90
        1
176
     1
 40
1.0
176
     1
 90
        0
176
     1
 62
   257
176
     1
 40
1.0
176
     1
 90
        1
176
     1
 90
        6
176
     1
 90
        2
176
     1
 62
     7
176
     1
 90
        5
176
     1
 90
        0
176
     1
 90
        0
176
     1
290
     0
176
     1
 90
       13
176
     1
 40
0.0
176
     1
 90
        0
176
     1
290
     0
176
     1
290
     1
176
     1
290
     1
176
     1
290
     0
176
     1
290
     0
176
     1
290
     0
176
     1
290
     0
176
     1
290
     0
176
     1
290
     0
176
     1
 90
       50
176
     1
 40
0.0
176
     1
 40
1.0
176
     1
 90
        0
176
     1
 62
    18
420
        0
176
     1
 90
       50
176
     1
 90
        3
176
     1
 62
     5
420
      255
176
     1
290
     0
176
     1
 90
       50
176
     1
 90
       50
176
     1
 90
       50
176
     1
290
     0
176
     1
 90
       50
176
     1
 62
   256
176
     0
 40
1.0
176
     0
 90
        2
176
     1
  1
strokes_ogs.tif
176
     1
290
     0
176
     1
 40
1.0
176
     1
 40
1.0
176
     1
  0
VISUALSTYLE
  5
2C
102
{ACAD_REACTORS
330
29
102
}
330
29
100
AcDbVisualStyle
  2
Gouraud
 70
     2
177
     3
291
     1
 70
    58
 90
        2
176
     1
 90
        2
176
     1
 90
        1
176
     1
 90
        2
176
     1
 40
0.6
176
     1
 40
30.0
176
     1
 62
     7
420
 16777215
176
     1
 90
        0
176
     1
 90
        0
176
     1
 62
     7
176
     1
 62
   257
176
     1
 90
        1
176
     1
 90
        1
176
     1
 40
1.0
176
     1
 90
        0
176
     1
 62
     7
176
     1
 40
1.0
176
     1
 90
        1
176
     1
 90
        6
176
     1
 90
        2
176
     1
 62
     7
176
     1
 90
        5
176
     1
 90
        0
176
     1
 90
        0
176
     1
290
     0
176
     1
 90
       13
176
     1
 40
0.0
176
     1
 90
        0
176
     1
290
     0
176
     1
290
     1
176
     1
290
     1
176
     1
290
     0
176
     1
290
     0
176
     1
290
     0
176
     1
290
     0
176
     1
290
     0
176
     1
290
     0
176
     1
 90
       50
176
     1
 40
0.0
176
     1
 40
1.0
176
     1
 90
        0
176
     1
 62
    18
420
        0
176
     1
 90
       50
176
     1
 90
        3
176
     1
 62
     5
420
      255
176
     1
290
     0
176
     1
 90
       50
176
     1
 90
       50
176
     1
 90
       50
176
     1
290
     0
176
     1
 90
       50
176
     1
 62
   256
176
     0
 40
1.0
176
     0
 90
        2
176
     1
  1
strokes_ogs.tif
176
     1
290
     0
176
     1
 40
1.0
176
     1
 40
1.0
176
     1
  0
VISUALSTYLE
  5
2D
102
{ACAD_REACTORS
330
29
102
}
330
29
100
AcDbVisualStyle
  2
GouraudWithEdges
 70
     3
177
     3
291
     1
 70
    58
 90
        2
176
     1
 90
        2
176
     1
 90
        1
176
     1
 90
        2
176
     1
 40
0.6
176
     1
 40
30.0
176
     1
 62
     7
420
 16777215
176
     1
 90
        1
176
     1
 90
        0
176
     1
 62
     7
176
     1
 62
   257
176
     1
 90
        1
176
     1
 90
        1
176
     1
 40
1.0
176
     1
 90
        0
176
     1
 62
   257
176
     1
 40
1.0
176
     1
 90
        1
176
     1
 90
        6
176
     1
 90
        2
176
     1
 62
     7
176
     1
 90
        5
176
     1
 90
        0
176
     1
 90
        0
176
     1
290
     0
176
     1
 90
       13
176
     1
 40
0.0
176
     1
 90
        0
176
     1
290
     0
176
     1
290
     1
176
     1
290
     1
176
     1
290
     0
176
     1
290
     0
176
     1
290
     0
176
     1
290
     0
176
     1
290
     0
176
     1
290
     0
176
     1
 90
       50
176
     1
 40
0.0
176
     1
 40
1.0
176
     1
 90
        0
176
     1
 62
    18
420
        0
176
     1
 90
       50
176
     1
 90
        3
176
     1
 62
     5
420
      255
176
     1
290
     0
176
     1
 90
       50
176
     1
 90
       50
176
     1
 90
       50
176
     1
290
     0
176
     1
 90
       50
176
     1
 62
   256
176
     0
 40
1.0
176
     0
 90
        2
176
     1
  1
strokes_ogs.tif
176
     1
290
     0
176
     1
 40
1.0
176
     1
 40
1.0
176
     1
  0
VISUALSTYLE
  5
31
102
{ACAD_REACTORS
330
29
102
}
330
29
100
AcDbVisualStyle
  2
Hidden
 70
     6
177
     3
291
     0
 70
    58
 90
        1
176
     1
 90
        2
176
     1
 90
        2
176
     1
 90
        0
176
     1
 40
0.6
176
     1
 40
30.0
176
     1
 62
     7
420
 16777215
176
     1
 90
        2
176
     1
 90
        2
176
     1
 62
     7
176
     1
 62
   257
176
     1
 90
        2
176
     1
 90
        1
176
     1
 40
40.0
176
     1
 90
        0
176
     1
 62
   257
176
     1
 40
1.0
176
     1
 90
        1
176
     1
 90
        6
176
     1
 90
        2
176
     1
 62
     7
176
     1
 90
        3
176
     1
 90
        0
176
     1
 90
        0
176
     1
290
     0
176
     1
 90
        1
176
     1
 40
0.0
176
     1
 90
        0
176
     1
290
     0
176
     1
290
     1
176
     1
290
     1
176
     1
290
     0
176
     1
290
     0
176
     1
290
     0
176
     1
290
     0
176
     1
290
     0
176
     1
290
     0
176
     1
 90
       50
176
     1
 40
0.0
176
     1
 40
1.0
176
     1
 90
        0
176
     1
 62
    18
420
        0
176
     1
 90
       50
176
     1
 90
        3
176
     1
 62
     5
420
      255
176
     1
290
     0
176
     1
 90
       50
176
     1
 90
       50
176
     1
 90
       50
176
     1
290
     0
176
     1
 90
       50
176
     1
 62
   256
176
     0
 40
1.0
176
     0
 90
        2
176
     1
  1
strokes_ogs.tif
176
     1
290
     0
176
     1
 40
1.0
176
     1
 40
1.0
176
     1
  0
VISUALSTYLE
  5
3F
102
{ACAD_REACTORS
330
29
102
}
330
29
100
AcDbVisualStyle
  2
JitterOff
 70
    20
177
     3
291
     1
 70
    58
 90
        2
176
     0
 90
        2
176
     0
 90
        0
176
     0
 90
        0
176
     0
 40
0.6
176
     0
 40
30.0
176
     0
 62
     7
420
 16777215
176
     0
 90
        1
176
     0
 90
        4
176
     0
 62
     7
176
     0
 62
   257
176
     0
 90
        1
176
     0
 90
        1
176
     0
 40
1.0
176
     0
 90
       10
176
     2
 62
     7
176
     0
 40
1.0
176
     0
 90
        1
176
     0
 90
        6
176
     0
 90
        2
176
     0
 62
     7
176
     0
 90
        5
176
     0
 90
        0
176
     0
 90
        0
176
     0
290
     0
176
     0
 90
        1
176
     0
 40
0.0
176
     0
 90
        0
176
     0
290
     0
176
     0
290
     1
176
     0
290
     1
176
     0
290
     0
176
     0
290
     0
176
     0
290
     0
176
     0
290
     0
176
     0
290
     0
176
     0
290
     0
176
     0
 90
       50
176
     0
 40
0.0
176
     0
 40
1.0
176
     0
 90
        0
176
     0
 62
    18
420
        0
176
     0
 90
       50
176
     0
 90
        3
176
     0
 62
     5
420
      255
176
     0
290
     0
176
     0
 90
       50
176
     0
 90
       50
176
     0
 90
       50
176
     0
290
     0
176
     0
 90
       50
176
     0
 62
   256
176
     0
 40
1.0
176
     0
 90
        2
176
     0
  1
strokes_ogs.tif
176
     0
290
     0
176
     0
 40
1.0
176
     0
 40
1.0
176
     0
  0
VISUALSTYLE
  5
37
102
{ACAD_REACTORS
330
29
102
}
330
29
100
AcDbVisualStyle
  2
Linepattern
 70
    14
177
     3
291
     1
 70
    58
 90
        2
176
     1
 90
        2
176
     1
 90
        0
176
     1
 90
        0
176
     1
 40
0.6
176
     1
 40
30.0
176
     1
 62
     7
420
 16777215
176
     1
 90
        1
176
     1
 90
        4
176
     1
 62
     7
176
     1
 62
   257
176
     1
 90
        7
176
     1
 90
        7
176
     1
 40
1.0
176
     1
 90
        8
176
     1
 62
     7
176
     1
 40
1.0
176
     1
 90
        1
176
     1
 90
        6
176
     1
 90
        2
176
     1
 62
     7
176
     1
 90
        5
176
     1
 90
        0
176
     1
 90
        0
176
     1
290
     0
176
     1
 90
        1
176
     1
 40
0.0
176
     1
 90
        0
176
     1
290
     0
176
     1
290
     1
176
     1
290
     1
176
     1
290
     0
176
     1
290
     0
176
     1
290
     0
176
     1
290
     0
176
     1
290
     0
176
     1
290
     0
176
     1
 90
       50
176
     1
 40
0.0
176
     1
 40
1.0
176
     1
 90
        0
176
     1
 62
    18
420
        0
176
     1
 90
       50
176
     1
 90
        3
176
     1
 62
     5
420
      255
176
     1
290
     0
176
     1
 90
       50
176
     1
 90
       50
176
     1
 90
       50
176
     1
290
     0
176
     1
 90
       50
176
     1
 62
   256
176
     0
 40
1.0
176
     0
 90
        2
176
     1
  1
strokes_ogs.tif
176
     1
290
     0
176
     1
 40
1.0
176
     1
 40
1.0
176
     1
  0
VISUALSTYLE
  5
40
102
{ACAD_REACTORS
330
29
102
}
330
29
100
AcDbVisualStyle
  2
OverhangOff
 70
    21
177
     3
291
     1
 70
    58
 90
        2
176
     0
 90
        2
176
     0
 90
        0
176
     0
 90
        0
176
     0
 40
0.6
176
     0
 40
30.0
176
     0
 62
     7
420
 16777215
176
     0
 90
        1
176
     0
 90
        4
176
     0
 62
     7
176
     0
 62
   257
176
     0
 90
        1
176
     0
 90
        1
176
     0
 40
1.0
176
     0
 90
        9
176
     2
 62
     7
176
     0
 40
1.0
176
     0
 90
        1
176
     0
 90
        6
176
     0
 90
        2
176
     0
 62
     7
176
     0
 90
        5
176
     0
 90
        0
176
     0
 90
        0
176
     0
290
     0
176
     0
 90
        1
176
     0
 40
0.0
176
     0
 90
        0
176
     0
290
     0
176
     0
290
     1
176
     0
290
     1
176
     0
290
     0
176
     0
290
     0
176
     0
290
     0
176
     0
290
     0
176
     0
290
     0
176
     0
290
     0
176
     0
 90
       50
176
     0
 40
0.0
176
     0
 40
1.0
176
     0
 90
        0
176
     0
 62
    18
420
        0
176
     0
 90
       50
176
     0
 90
        3
176
     0
 62
     5
420
      255
176
     0
290
     0
176
     0
 90
       50
176
     0
 90
       50
176
     0
 90
       50
176
     0
290
     0
176
     0
 90
       50
176
     0
 62
   256
176
     0
 40
1.0
176
     0
 90
        2
176
     0
  1
strokes_ogs.tif
176
     0
290
     0
176
     0
 40
1.0
176
     0
 40
1.0
176
     0
  0
VISUALSTYLE
  5
33
102
{ACAD_REACTORS
330
29
102
}
330
29
100
AcDbVisualStyle
  2
Realistic
 70
     8
177
     3
291
     0
 70
    58
 90
        2
176
     1
 90
        3
176
     1
 90
        0
176
     1
 90
        2
176
     1
 40
0.6
176
     1
 40
30.0
176
     1
 62
     7
420
 16777215
176
     1
 90
        0
176
     1
 90
        0
176
     1
 62
     7
176
     1
 62
   257
176
     1
 90
        1
176
     1
 90
        1
176
     1
 40
1.0
176
     1
 90
        8
176
     1
 62
   257
176
     1
 40
1.0
176
     1
 90
        1
176
     1
 90
        6
176
     1
 90
        2
176
     1
 62
     7
176
     1
 90
        3
176
     1
 90
        0
176
     1
 90
        0
176
     1
290
     0
176
     1
 90
       13
176
     1
 40
0.0
176
     1
 90
        0
176
     1
290
     0
176
     1
290
     1
176
     1
290
     1
176
     1
290
     0
176
     1
290
     0
176
     1
290
     0
176
     1
290
     0
176
     1
290
     0
176
     1
290
     0
176
     1
 90
       50
176
     1
 40
0.0
176
     1
 40
1.0
176
     1
 90
        0
176
     1
 62
    18
420
        0
176
     1
 90
       50
176
     1
 90
        3
176
     1
 62
     5
420
      255
176
     1
290
     0
176
     1
 90
       50
176
     1
 90
       50
176
     1
 90
       50
176
     1
290
     0
176
     1
 90
       50
176
     1
 62
   256
176
     0
 40
1.0
176
     0
 90
        2
176
     1
  1
strokes_ogs.tif
176
     1
290
     0
176
     1
 40
1.0
176
     1
 40
1.0
176
     1
  0
VISUALSTYLE
  5
3E
102
{ACAD_REACTORS
330
29
102
}
330
29
100
AcDbVisualStyle
  2
Shaded
 70
    27
177
     3
291
     0
 70
    58
 90
        2
176
     1
 90
        2
176
     1
 90
        1
176
     1
 90
        2
176
     1
 40
0.6
176
     1
 40
30.0
176
     1
 62
     7
420
 16777215
176
     1
 90
        0
176
     1
 90
        4
176
     1
 62
     7
176
     1
 62
   257
176
     1
 90
        1
176
     1
 90
        1
176
     1
 40
1.0
176
     1
 90
        8
176
     1
 62
   257
176
     1
 40
1.0
176
     1
 90
        1
176
     1
 90
        6
176
     1
 90
        2
176
     1
 62
     8
420
  7895160
176
     1
 90
        3
176
     1
 90
        0
176
     1
 90
        0
176
     1
290
     0
176
     1
 90
        5
176
     1
 40
0.0
176
     1
 90
        0
176
     1
290
     0
176
     1
290
     1
176
     1
290
     1
176
     1
290
     0
176
     1
290
     0
176
     1
290
     0
176
     1
290
     0
176
     1
290
     0
176
     1
290
     0
176
     1
 90
       50
176
     1
 40
0.0
176
     1
 40
1.0
176
     1
 90
        0
176
     1
 62
    18
420
        0
176
     1
 90
       50
176
     1
 90
        3
176
     1
 62
     5
420
      255
176
     1
290
     0
176
     1
 90
       50
176
     1
 90
       50
176
     1
 90
       50
176
     1
290
     0
176
     1
 90
       50
176
     1
 62
   256
176
     0
 40
1.0
176
     0
 90
        2
176
     1
  1
strokes_ogs.tif
176
     1
290
     0
176
     1
 40
1.0
176
     1
 40
1.0
176
     1
  0
VISUALSTYLE
  5
3D
102
{ACAD_REACTORS
330
29
102
}
330
29
100
AcDbVisualStyle
  2
Shaded with edges
 70
    26
177
     3
291
     0
 70
    58
 90
        2
176
     1
 90
        2
176
     1
 90
        1
176
     1
 90
        2
176
     1
 40
0.6
176
     1
 40
30.0
176
     1
 62
     7
420
 16777215
176
     1
 90
        1
176
     1
 90
       10
176
     1
 62
     7
176
     1
 62
   257
176
     1
 90
        2
176
     1
 90
        1
176
     1
 40
1.0
176
     1
 90
        8
176
     1
 62
   257
176
     1
 40
1.0
176
     1
 90
        1
176
     1
 90
        6
176
     1
 90
        2
176
     1
 62
     7
176
     1
 90
        3
176
     1
 90
        0
176
     1
 90
        0
176
     1
290
     0
176
     1
 90
        5
176
     1
 40
0.0
176
     1
 90
        0
176
     1
290
     0
176
     1
290
     1
176
     1
290
     1
176
     1
290
     0
176
     1
290
     0
176
     1
290
     0
176
     1
290
     0
176
     1
290
     0
176
     1
290
     0
176
     1
 90
       50
176
     1
 40
0.0
176
     1
 40
1.0
176
     1
 90
        0
176
     1
 62
    18
420
        0
176
     1
 90
       50
176
     1
 90
        3
176
     1
 62
     5
420
      255
176
     1
290
     0
176
     1
 90
       50
176
     1
 90
       50
176
     1
 90
       50
176
     1
290
     0
176
     1
 90
       50
176
     1
 62
   256
176
     0
 40
1.0
176
     0
 90
        2
176
     1
  1
strokes_ogs.tif
176
     1
290
     0
176
     1
 40
1.0
176
     1
 40
1.0
176
     1
  0
VISUALSTYLE
  5
3A
102
{ACAD_REACTORS
330
29
102
}
330
29
100
AcDbVisualStyle
  2
Shades of Gray
 70
    23
177
     3
291
     0
 70
    58
 90
        2
176
     1
 90
        2
176
     1
 90
        3
176
     1
 90
        0
176
     1
 40
0.6
176
     1
 40
30.0
176
     1
 62
     7
420
 16777215
176
     1
 90
        2
176
     1
 90
        2
176
     1
 62
     7
176
     1
 62
     7
176
     1
 90
        1
176
     1
 90
        1
176
     1
 40
40.0
176
     1
 90
        8
176
     1
 62
     7
176
     1
 40
1.0
176
     1
 90
        1
176
     1
 90
        6
176
     1
 90
        2
176
     1
 62
     7
176
     1
 90
        3
176
     1
 90
        0
176
     1
 90
        0
176
     1
290
     0
176
     1
 90
        1
176
     1
 40
0.0
176
     1
 90
        0
176
     1
290
     0
176
     1
290
     1
176
     1
290
     1
176
     1
290
     0
176
     1
290
     0
176
     1
290
     0
176
     1
290
     0
176
     1
290
     0
176
     1
290
     0
176
     1
 90
       50
176
     1
 40
0.0
176
     1
 40
1.0
176
     1
 90
        0
176
     1
 62
    18
420
        0
176
     1
 90
       50
176
     1
 90
        3
176
     1
 62
     5
420
      255
176
     1
290
     0
176
     1
 90
       50
176
     1
 90
       50
176
     1
 90
       50
176
     1
290
     0
176
     1
 90
       50
176
     1
 62
   256
176
     0
 40
1.0
176
     0
 90
        2
176
     1
  1
strokes_ogs.tif
176
     1
290
     0
176
     1
 40
1.0
176
     1
 40
1.0
176
     1
  0
VISUALSTYLE
  5
3B
102
{ACAD_REACTORS
330
29
102
}
330
29
100
AcDbVisualStyle
  2
Sketchy
 70
    24
177
     3
291
     0
 70
    58
 90
        1
176
     1
 90
        2
176
     1
 90
        2
176
     1
 90
        0
176
     1
 40
0.6
176
     1
 40
30.0
176
     1
 62
     7
420
 16777215
176
     1
 90
        2
176
     1
 90
        2
176
     1
 62
     7
176
     1
 62
     7
176
     1
 90
        1
176
     1
 90
        1
176
     1
 40
40.0
176
     1
 90
       11
176
     1
 62
     7
176
     1
 40
1.0
176
     1
 90
        1
176
     1
 90
        6
176
     1
 90
        2
176
     1
 62
     7
176
     1
 90
        6
176
     1
 90
        0
176
     1
 90
        0
176
     1
290
     0
176
     1
 90
        1
176
     1
 40
0.0
176
     1
 90
        0
176
     1
290
     0
176
     1
290
     1
176
     1
290
     1
176
     1
290
     0
176
     1
290
     0
176
     1
290
     0
176
     1
290
     0
176
     1
290
     0
176
     1
290
     0
176
     1
 90
       50
176
     1
 40
0.0
176
     1
 40
1.0
176
     1
 90
        0
176
     1
 62
    18
420
        0
176
     1
 90
       50
176
     1
 90
        3
176
     1
 62
     5
420
      255
176
     1
290
     0
176
     1
 90
       50
176
     1
 90
       50
176
     1
 90
       50
176
     1
290
     0
176
     1
 90
       50
176
     1
 62
   256
176
     0
 40
1.0
176
     0
 90
        2
176
     1
  1
strokes_ogs.tif
176
     1
290
     0
176
     1
 40
1.0
176
     1
 40
1.0
176
     1
  0
VISUALSTYLE
  5
36
102
{ACAD_REACTORS
330
29
102
}
330
29
100
AcDbVisualStyle
  2
Thicken
 70
    13
177
     3
291
     1
 70
    58
 90
        2
176
     1
 90
        2
176
     1
 90
        0
176
     1
 90
        0
176
     1
 40
0.6
176
     1
 40
30.0
176
     1
 62
     7
420
 16777215
176
     1
 90
        1
176
     1
 90
        4
176
     1
 62
     7
176
     1
 62
   257
176
     1
 90
        1
176
     1
 90
        1
176
     1
 40
1.0
176
     1
 90
       12
176
     1
 62
     7
176
     1
 40
1.0
176
     1
 90
        1
176
     1
 90
        6
176
     1
 90
        2
176
     1
 62
     7
176
     1
 90
        5
176
     1
 90
        0
176
     1
 90
        0
176
     1
290
     0
176
     1
 90
        1
176
     1
 40
0.0
176
     1
 90
        0
176
     1
290
     0
176
     1
290
     1
176
     1
290
     1
176
     1
290
     0
176
     1
290
     0
176
     1
290
     0
176
     1
290
     0
176
     1
290
     0
176
     1
290
     0
176
     1
 90
       50
176
     1
 40
0.0
176
     1
 40
1.0
176
     1
 90
        0
176
     1
 62
    18
420
        0
176
     1
 90
       50
176
     1
 90
        3
176
     1
 62
     5
420
      255
176
     1
290
     0
176
     1
 90
       50
176
     1
 90
       50
176
     1
 90
       50
176
     1
290
     0
176
     1
 90
       50
176
     1
 62
   256
176
     0
 40
1.0
176
     0
 90
        2
176
     1
  1
strokes_ogs.tif
176
     1
290
     0
176
     1
 40
1.0
176
     1
 40
1.0
176
     1
  0
VISUALSTYLE
  5
30
102
{ACAD_REACTORS
330
29
102
}
330
29
100
AcDbVisualStyle
  2
Wireframe
 70
     5
177
     3
291
     0
 70
    58
 90
        0
176
     1
 90
        2
176
     1
 90
        0
176
     1
 90
        0
176
     1
 40
0.6
176
     1
 40
30.0
176
     1
 62
     7
420
 16777215
176
     1
 90
        1
176
     1
 90
        4
176
     1
 62
     7
176
     1
 62
   257
176
     1
 90
        1
176
     1
 90
        1
176
     1
 40
1.0
176
     1
 90
        0
176
     1
 62
   257
176
     1
 40
1.0
176
     1
 90
        1
176
     1
 90
        6
176
     1
 90
        2
176
     1
 62
     7
176
     1
 90
        3
176
     1
 90
        0
176
     1
 90
        0
176
     1
290
     0
176
     1
 90
        1
176
     1
 40
0.0
176
     1
 90
        0
176
     1
290
     0
176
     1
290
     1
176
     1
290
     1
176
     1
290
     0
176
     1
290
     0
176
     1
290
     0
176
     1
290
     0
176
     1
290
     0
176
     1
290
     0
176
     1
 90
       50
176
     1
 40
0.0
176
     1
 40
1.0
176
     1
 90
        0
176
     1
 62
    18
420
        0
176
     1
 90
       50
176
     1
 90
        3
176
     1
 62
     5
420
      255
176
     1
290
     0
176
     1
 90
       50
176
     1
 90
       50
176
     1
 90
       50
176
     1
290
     0
176
     1
 90
       50
176
     1
 62
   256
176
     0
 40
1.0
176
     0
 90
        2
176
     1
  1
strokes_ogs.tif
176
     1
290
     0
176
     1
 40
1.0
176
     1
 40
1.0
176
     1
  0
VISUALSTYLE
  5
3C
102
{ACAD_REACTORS
330
29
102
}
330
29
100
AcDbVisualStyle
  2
X-Ray
 70
    25
177
     3
291
     0
 70
    58
 90
        2
176
     1
 90
        2
176
     1
 90
        1
176
     1
 90
        1
176
     1
 40
0.5
176
     1
 40
30.0
176
     1
 62
     7
420
 16777215
176
     1
 90
        1
176
     1
 90
        0
176
     1
 62
     7
176
     1
 62
   257
176
     1
 90
        1
176
     1
 90
        1
176
     1
 40
1.0
176
     1
 90
        8
176
     1
 62
     7
176
     1
 40
1.0
176
     1
 90
        1
176
     1
 90
        6
176
     1
 90
        2
176
     1
 62
     7
176
     1
 90
        3
176
     1
 90
        0
176
     1
 90
        0
176
     1
290
     0
176
     1
 90
       13
176
     1
 40
0.0
176
     1
 90
        0
176
     1
290
     0
176
     1
290
     1
176
     1
290
     1
176
     1
290
     0
176
     1
290
     0
176
     1
290
     0
176
     1
290
     0
176
     1
290
     0
176
     1
290
     0
176
     1
 90
       50
176
     1
 40
0.0
176
     1
 40
1.0
176
     1
 90
        0
176
     1
 62
    18
420
        0
176
     1
 90
       50
176
     1
 90
        3
176
     1
 62
     5
420
      255
176
     1
290
     0
176
     1
 90
       50
176
     1
 90
       50
176
     1
 90
       50
176
     1
290
     0
176
     1
 90
       50
176
     1
 62
   256
176
     0
 40
1.0
176
     0
 90
        2
176
     1
  1
strokes_ogs.tif
176
     1
290
     0
176
     1
 40
1.0
176
     1
 40
1.0
176
     1
  0
DICTIONARYVAR
  5
81
102
{ACAD_REACTORS
330
7C
102
}
330
7C
100
DictionaryVariables
280
     0
  1
1:1
  0
DICTIONARYVAR
  5
7E
102
{ACAD_REACTORS
330
7C
102
}
330
7C
100
DictionaryVariables
280
     0
  1
STANDARD
  0
DICTIONARYVAR
  5
7D
102
{ACAD_REACTORS
330
7C
102
}
330
7C
100
DictionaryVariables
280
     0
  1
STANDARD
  0
DICTIONARYVAR
  5
7F
102
{ACAD_REACTORS
330
7C
102
}
330
7C
100
DictionaryVariables
280
     0
  1
Imperial24
  0
DICTIONARYVAR
  5
80
102
{ACAD_REACTORS
330
7C
102
}
330
7C
100
DictionaryVariables
280
     0
  1
Imperial24
  0
XRECORD
  5
1A5
102
{ACAD_REACTORS
330
1A2
102
}
330
1A2
100
AcDbXrecord
280
     1
  1
BUILDING_ID
  1
Progetto per messa in tavola DXF, DWG
  1
FLOOR_ID
  1
694395
  0
XRECORD
  5
1A4
102
{ACAD_REACTORS
330
1A2
102
}
330
1A2
100
AcDbXrecord
280
     1
  1
-2001160
  1
Apparecchi idraulici
  0
XRECORD
  5
1A3
102
{ACAD_REACTORS
330
1A2
102
}
330
1A2
100
AcDbXrecord
280
     1
  1
859151
  1
Automatic flow rate regulator valve_Caleffi_121 DN15 : 1/2''
  0
DICTIONARY
  5
1A
330
19
100
AcDbDictionary
280
     1
281
     1
  3
BUMPTILE
360
1C
  3
DIFFUSETILE
360
1B
  3
OPACITYTILE
360
1F
  3
REFLECTIONTILE
360
1E
  3
REFRACTIONTILE
360
20
  3
SPECULARTILE
360
1D
  0
DICTIONARY
  5
12
330
11
100
AcDbDictionary
280
     1
281
     1
  3
BUMPTILE
360
14
  3
DIFFUSETILE
360
13
  3
OPACITYTILE
360
17
  3
REFLECTIONTILE
360
16
  3
REFRACTIONTILE
360
18
  3
SPECULARTILE
360
15
  0
DICTIONARY
  5
22
330
21
100
AcDbDictionary
280
     1
281
     1
  3
BUMPTILE
360
24
  3
DIFFUSETILE
360
23
  3
OPACITYTILE
360
27
  3
REFLECTIONTILE
360
26
  3
REFRACTIONTILE
360
28
  3
SPECULARTILE
360
25
  0
DICTIONARY
  5
1A8
330
65
100
AcDbDictionary
280
     1
281
     1
  3
ACAD_ROUNDTRIP_2008_TABLESTYLE_CELLSTYLEMAP
360
1A9
  0
XRECORD
  5
1C
102
{ACAD_REACTORS
330
1A
102
}
330
1A
100
AcDbXrecord
280
     1
270
     1
271
     1
  0
XRECORD
  5
1B
102
{ACAD_REACTORS
330
1A
102
}
330
1A
100
AcDbXrecord
280
     1
270
     1
271
     1
  0
XRECORD
  5
1F
102
{ACAD_REACTORS
330
1A
102
}
330
1A
100
AcDbXrecord
280
     1
270
     1
271
     1
  0
XRECORD
  5
1E
102
{ACAD_REACTORS
330
1A
102
}
330
1A
100
AcDbXrecord
280
     1
270
     1
271
     1
  0
XRECORD
  5
20
102
{ACAD_REACTORS
330
1A
102
}
330
1A
100
AcDbXrecord
280
     1
270
     1
271
     1
  0
XRECORD
  5
1D
102
{ACAD_REACTORS
330
1A
102
}
330
1A
100
AcDbXrecord
280
     1
270
     1
271
     1
  0
XRECORD
  5
14
102
{ACAD_REACTORS
330
12
102
}
330
12
100
AcDbXrecord
280
     1
270
     1
271
     1
  0
XRECORD
  5
13
102
{ACAD_REACTORS
330
12
102
}
330
12
100
AcDbXrecord
280
     1
270
     1
271
     1
  0
XRECORD
  5
17
102
{ACAD_REACTORS
330
12
102
}
330
12
100
AcDbXrecord
280
     1
270
     1
271
     1
  0
XRECORD
  5
16
102
{ACAD_REACTORS
330
12
102
}
330
12
100
AcDbXrecord
280
     1
270
     1
271
     1
  0
XRECORD
  5
18
102
{ACAD_REACTORS
330
12
102
}
330
12
100
AcDbXrecord
280
     1
270
     1
271
     1
  0
XRECORD
  5
15
102
{ACAD_REACTORS
330
12
102
}
330
12
100
AcDbXrecord
280
     1
270
     1
271
     1
  0
XRECORD
  5
24
102
{ACAD_REACTORS
330
22
102
}
330
22
100
AcDbXrecord
280
     1
270
     1
271
     1
  0
XRECORD
  5
23
102
{ACAD_REACTORS
330
22
102
}
330
22
100
AcDbXrecord
280
     1
270
     1
271
     1
  0
XRECORD
  5
27
102
{ACAD_REACTORS
330
22
102
}
330
22
100
AcDbXrecord
280
     1
270
     1
271
     1
  0
XRECORD
  5
26
102
{ACAD_REACTORS
330
22
102
}
330
22
100
AcDbXrecord
280
     1
270
     1
271
     1
  0
XRECORD
  5
28
102
{ACAD_REACTORS
330
22
102
}
330
22
100
AcDbXrecord
280
     1
270
     1
271
     1
  0
XRECORD
  5
25
102
{ACAD_REACTORS
330
22
102
}
330
22
100
AcDbXrecord
280
     1
270
     1
271
     1
  0
CELLSTYLEMAP
  5
1A9
102
{ACAD_REACTORS
330
1A8
102
}
330
1A8
100
AcDbCellStyleMap
 90
        3
300
CELLSTYLE
  1
TABLEFORMAT_BEGIN
 90
        5
170
     1
 91
        0
 92
    32768
 62
   257
 93
        1
300
CONTENTFORMAT
  1
CONTENTFORMAT_BEGIN
 90
        0
 91
        0
 92
      512
 93
        0
300

 40
0.0
140
1.0
 94
        5
 62
     0
340
55
144
0.25
309
CONTENTFORMAT_END
171
     0
 94
        0
309
TABLEFORMAT_END
  1
CELLSTYLE_BEGIN
 90
        1
 91
        1
300
_TITLE
309
CELLSTYLE_END
300
CELLSTYLE
  1
TABLEFORMAT_BEGIN
 90
        5
170
     1
 91
        0
 92
        0
 62
   257
 93
        1
300
CONTENTFORMAT
  1
CONTENTFORMAT_BEGIN
 90
        0
 91
        0
 92
      512
 93
        0
300

 40
0.0
140
1.0
 94
        5
 62
     0
340
55
144
0.18
309
CONTENTFORMAT_END
171
     0
 94
        0
309
TABLEFORMAT_END
  1
CELLSTYLE_BEGIN
 90
        2
 91
        1
300
_HEADER
309
CELLSTYLE_END
300
CELLSTYLE
  1
TABLEFORMAT_BEGIN
 90
        5
170
     1
 91
        0
 92
        0
 62
   257
 93
        1
300
CONTENTFORMAT
  1
CONTENTFORMAT_BEGIN
 90
        0
 91
        0
 92
      512
 93
        0
300

 40
0.0
140
1.0
 94
        2
 62
     0
340
55
144
0.18
309
CONTENTFORMAT_END
171
     0
 94
        0
309
TABLEFORMAT_END
  1
CELLSTYLE_BEGIN
 90
        3
 91
        2
300
_DATA
309
CELLSTYLE_END
  0
ENDSEC
  0
EOF
