  0
SECTION
  2
HEADER
  9
$ACADVER
  1
AC1027
  9
$ACADMAINTVER
 70
    20
  9
$DWGCODEPAGE
  3
ANSI_1252
  9
$REQUIREDVERSIONS
160
                 0
  9
$INSBASE
 10
0.0
 20
0.0
 30
0.0
  9
$EXTMIN
 10
776.6664074431877
 20
1717.495878720053
 30
-0.00000001
  9
$EXTMAX
 10
1095.864353943098
 20
2143.000000000554
 30
0.00000001
  9
$LIMMIN
 10
0.0
 20
0.0
  9
$LIMMAX
 10
12.0
 20
9.0
  9
$ORTHOMODE
 70
     0
  9
$REGENMODE
 70
     1
  9
$FILLMODE
 70
     1
  9
$QTEXTMODE
 70
     0
  9
$MIRRTEXT
 70
     0
  9
$LTSCALE
 40
1.0
  9
$ATTMODE
 70
     1
  9
$TEXTSIZE
 40
0.2
  9
$TRACEWID
 40
0.05
  9
$TEXTSTYLE
  7
Standard
  9
$CLAYER
  8
0
  9
$CELTYPE
  6
ByLayer
  9
$CECOLOR
 62
   256
  9
$CELTSCALE
 40
1.0
  9
$DISPSILH
 70
     0
  9
$DIMSCALE
 40
1.0
  9
$DIMASZ
 40
0.18
  9
$DIMEXO
 40
0.0625
  9
$DIMDLI
 40
0.38
  9
$DIMRND
 40
0.0
  9
$DIMDLE
 40
0.0
  9
$DIMEXE
 40
0.18
  9
$DIMTP
 40
0.0
  9
$DIMTM
 40
0.0
  9
$DIMTXT
 40
0.18
  9
$DIMCEN
 40
0.09
  9
$DIMTSZ
 40
0.0
  9
$DIMTOL
 70
     0
  9
$DIMLIM
 70
     0
  9
$DIMTIH
 70
     1
  9
$DIMTOH
 70
     1
  9
$DIMSE1
 70
     0
  9
$DIMSE2
 70
     0
  9
$DIMTAD
 70
     0
  9
$DIMZIN
 70
     0
  9
$DIMBLK
  1

  9
$DIMASO
 70
     1
  9
$DIMSHO
 70
     1
  9
$DIMPOST
  1

  9
$DIMAPOST
  1

  9
$DIMALT
 70
     0
  9
$DIMALTD
 70
     2
  9
$DIMALTF
 40
25.4
  9
$DIMLFAC
 40
1.0
  9
$DIMTOFL
 70
     0
  9
$DIMTVP
 40
0.0
  9
$DIMTIX
 70
     0
  9
$DIMSOXD
 70
     0
  9
$DIMSAH
 70
     0
  9
$DIMBLK1
  1

  9
$DIMBLK2
  1

  9
$DIMSTYLE
  2
Standard
  9
$DIMCLRD
 70
     0
  9
$DIMCLRE
 70
     0
  9
$DIMCLRT
 70
     0
  9
$DIMTFAC
 40
1.0
  9
$DIMGAP
 40
0.09
  9
$DIMJUST
 70
     0
  9
$DIMSD1
 70
     0
  9
$DIMSD2
 70
     0
  9
$DIMTOLJ
 70
     1
  9
$DIMTZIN
 70
     0
  9
$DIMALTZ
 70
     0
  9
$DIMALTTZ
 70
     0
  9
$DIMUPT
 70
     0
  9
$DIMDEC
 70
     4
  9
$DIMTDEC
 70
     4
  9
$DIMALTU
 70
     2
  9
$DIMALTTD
 70
     2
  9
$DIMTXSTY
  7
Standard
  9
$DIMAUNIT
 70
     0
  9
$DIMADEC
 70
     0
  9
$DIMALTRND
 40
0.0
  9
$DIMAZIN
 70
     0
  9
$DIMDSEP
 70
    46
  9
$DIMATFIT
 70
     3
  9
$DIMFRAC
 70
     0
  9
$DIMLDRBLK
  1

  9
$DIMLUNIT
 70
     2
  9
$DIMLWD
 70
    -2
  9
$DIMLWE
 70
    -2
  9
$DIMTMOVE
 70
     0
  9
$DIMFXL
 40
1.0
  9
$DIMFXLON
 70
     0
  9
$DIMJOGANG
 40
0.7853981633974483
  9
$DIMTFILL
 70
     0
  9
$DIMTFILLCLR
 70
     0
  9
$DIMARCSYM
 70
     0
  9
$DIMLTYPE
  6

  9
$DIMLTEX1
  6

  9
$DIMLTEX2
  6

  9
$DIMTXTDIRECTION
 70
     0
  9
$LUNITS
 70
     2
  9
$LUPREC
 70
     4
  9
$SKETCHINC
 40
0.1
  9
$FILLETRAD
 40
0.0
  9
$AUNITS
 70
     0
  9
$AUPREC
 70
     0
  9
$MENU
  1
.
  9
$ELEVATION
 40
0.0
  9
$PELEVATION
 40
0.0
  9
$THICKNESS
 40
0.0
  9
$LIMCHECK
 70
     0
  9
$CHAMFERA
 40
0.0
  9
$CHAMFERB
 40
0.0
  9
$CHAMFERC
 40
0.0
  9
$CHAMFERD
 40
0.0
  9
$SKPOLY
 70
     0
  9
$TDCREATE
 40
2457571.672692477
  9
$TDUCREATE
 40
2457571.589359144
  9
$TDUPDATE
 40
2457571.672692477
  9
$TDUUPDATE
 40
2457571.589359144
  9
$TDINDWG
 40
0.0000108102
  9
$TDUSRTIMER
 40
0.0000108102
  9
$USRTIMER
 70
     1
  9
$ANGBASE
 50
0.0
  9
$ANGDIR
 70
     0
  9
$PDMODE
 70
     0
  9
$PDSIZE
 40
0.0
  9
$PLINEWID
 40
0.0
  9
$SPLFRAME
 70
     0
  9
$SPLINETYPE
 70
     6
  9
$SPLINESEGS
 70
     8
  9
$HANDSEED
  5
26A
  9
$SURFTAB1
 70
     6
  9
$SURFTAB2
 70
     6
  9
$SURFTYPE
 70
     6
  9
$SURFU
 70
     6
  9
$SURFV
 70
     6
  9
$UCSBASE
  2

  9
$UCSNAME
  2

  9
$UCSORG
 10
0.0
 20
0.0
 30
0.0
  9
$UCSXDIR
 10
1.0
 20
0.0
 30
0.0
  9
$UCSYDIR
 10
0.0
 20
1.0
 30
0.0
  9
$UCSORTHOREF
  2

  9
$UCSORTHOVIEW
 70
     0
  9
$UCSORGTOP
 10
0.0
 20
0.0
 30
0.0
  9
$UCSORGBOTTOM
 10
0.0
 20
0.0
 30
0.0
  9
$UCSORGLEFT
 10
0.0
 20
0.0
 30
0.0
  9
$UCSORGRIGHT
 10
0.0
 20
0.0
 30
0.0
  9
$UCSORGFRONT
 10
0.0
 20
0.0
 30
0.0
  9
$UCSORGBACK
 10
0.0
 20
0.0
 30
0.0
  9
$PUCSBASE
  2

  9
$PUCSNAME
  2

  9
$PUCSORG
 10
0.0
 20
0.0
 30
0.0
  9
$PUCSXDIR
 10
1.0
 20
0.0
 30
0.0
  9
$PUCSYDIR
 10
0.0
 20
1.0
 30
0.0
  9
$PUCSORTHOREF
  2

  9
$PUCSORTHOVIEW
 70
     0
  9
$PUCSORGTOP
 10
0.0
 20
0.0
 30
0.0
  9
$PUCSORGBOTTOM
 10
0.0
 20
0.0
 30
0.0
  9
$PUCSORGLEFT
 10
0.0
 20
0.0
 30
0.0
  9
$PUCSORGRIGHT
 10
0.0
 20
0.0
 30
0.0
  9
$PUCSORGFRONT
 10
0.0
 20
0.0
 30
0.0
  9
$PUCSORGBACK
 10
0.0
 20
0.0
 30
0.0
  9
$USERI1
 70
     0
  9
$USERI2
 70
     0
  9
$USERI3
 70
     0
  9
$USERI4
 70
     0
  9
$USERI5
 70
     0
  9
$USERR1
 40
0.0
  9
$USERR2
 40
0.0
  9
$USERR3
 40
0.0
  9
$USERR4
 40
0.0
  9
$USERR5
 40
0.0
  9
$WORLDVIEW
 70
     1
  9
$SHADEDGE
 70
     3
  9
$SHADEDIF
 70
    70
  9
$TILEMODE
 70
     1
  9
$MAXACTVP
 70
    64
  9
$PINSBASE
 10
0.0
 20
0.0
 30
0.0
  9
$PLIMCHECK
 70
     0
  9
$PEXTMIN
 10
1.000000000000000E+20
 20
1.000000000000000E+20
 30
1.000000000000000E+20
  9
$PEXTMAX
 10
-1.000000000000000E+20
 20
-1.000000000000000E+20
 30
-1.000000000000000E+20
  9
$PLIMMIN
 10
0.0
 20
0.0
  9
$PLIMMAX
 10
12.0
 20
9.0
  9
$UNITMODE
 70
     0
  9
$VISRETAIN
 70
     1
  9
$PLINEGEN
 70
     0
  9
$PSLTSCALE
 70
     1
  9
$TREEDEPTH
 70
  3020
  9
$CMLSTYLE
  2
Standard
  9
$CMLJUST
 70
     0
  9
$CMLSCALE
 40
1.0
  9
$PROXYGRAPHICS
 70
     1
  9
$MEASUREMENT
 70
     1
  9
$CELWEIGHT
370
    -1
  9
$ENDCAPS
280
     0
  9
$JOINSTYLE
280
     0
  9
$LWDISPLAY
290
     0
  9
$INSUNITS
 70
     4
  9
$HYPERLINKBASE
  1

  9
$STYLESHEET
  1

  9
$XEDIT
290
     1
  9
$CEPSNTYPE
380
     0
  9
$PSTYLEMODE
290
     1
  9
$FINGERPRINTGUID
  2
{98E62100-4F52-4A17-893E-40230B9D1652}
  9
$VERSIONGUID
  2
{3F620B62-BF54-4C59-BEDC-51CB4225DE3B}
  9
$EXTNAMES
290
     1
  9
$PSVPSCALE
 40
0.0
  9
$OLESTARTUP
290
     0
  9
$SORTENTS
280
   127
  9
$INDEXCTL
280
     0
  9
$HIDETEXT
280
     1
  9
$XCLIPFRAME
280
     2
  9
$HALOGAP
280
     0
  9
$OBSCOLOR
 70
   257
  9
$OBSLTYPE
280
     0
  9
$INTERSECTIONDISPLAY
280
     0
  9
$INTERSECTIONCOLOR
 70
   257
  9
$DIMASSOC
280
     2
  9
$PROJECTNAME
  1

  9
$CAMERADISPLAY
290
     0
  9
$LENSLENGTH
 40
50.0
  9
$CAMERAHEIGHT
 40
0.0
  9
$STEPSPERSEC
 40
2.0
  9
$STEPSIZE
 40
6.0
  9
$3DDWFPREC
 40
2.0
  9
$PSOLWIDTH
 40
0.25
  9
$PSOLHEIGHT
 40
4.0
  9
$LOFTANG1
 40
1.570796326794896
  9
$LOFTANG2
 40
1.570796326794896
  9
$LOFTMAG1
 40
0.0
  9
$LOFTMAG2
 40
0.0
  9
$LOFTPARAM
 70
     7
  9
$LOFTNORMALS
280
     1
  9
$LATITUDE
 40
37.795
  9
$LONGITUDE
 40
-122.394
  9
$NORTHDIRECTION
 40
0.0
  9
$TIMEZONE
 70
 -8000
  9
$LIGHTGLYPHDISPLAY
280
     1
  9
$TILEMODELIGHTSYNCH
280
     1
  9
$CMATERIAL
347
11
  9
$SOLIDHIST
280
     0
  9
$SHOWHIST
280
     1
  9
$DWFFRAME
280
     2
  9
$DGNFRAME
280
     0
  9
$REALWORLDSCALE
290
     1
  9
$INTERFERECOLOR
 62
     1
  9
$INTERFEREOBJVS
345
33
  9
$INTERFEREVPVS
346
30
  9
$CSHADOW
280
     0
  9
$SHADOWPLANELOCATION
 40
0.0
  0
ENDSEC
  0
SECTION
  2
CLASSES
  0
CLASS
  1
ACDBDICTIONARYWDFLT
  2
AcDbDictionaryWithDefault
  3
ObjectDBX Classes
 90
        0
 91
        1
280
     0
281
     0
  0
CLASS
  1
MATERIAL
  2
AcDbMaterial
  3
ObjectDBX Classes
 90
     1153
 91
        3
280
     0
281
     0
  0
CLASS
  1
VISUALSTYLE
  2
AcDbVisualStyle
  3
ObjectDBX Classes
 90
     4095
 91
       24
280
     0
281
     0
  0
CLASS
  1
SCALE
  2
AcDbScale
  3
ObjectDBX Classes
 90
     1153
 91
       17
280
     0
281
     0
  0
CLASS
  1
TABLESTYLE
  2
AcDbTableStyle
  3
ObjectDBX Classes
 90
     4095
 91
        1
280
     0
281
     0
  0
CLASS
  1
MLEADERSTYLE
  2
AcDbMLeaderStyle
  3
ACDB_MLEADERSTYLE_CLASS
 90
     4095
 91
        1
280
     0
281
     0
  0
CLASS
  1
ACDBSECTIONVIEWSTYLE
  2
AcDbSectionViewStyle
  3
ObjectDBX Classes
 90
     1025
 91
        1
280
     0
281
     0
  0
CLASS
  1
ACDBDETAILVIEWSTYLE
  2
AcDbDetailViewStyle
  3
ObjectDBX Classes
 90
     1025
 91
        1
280
     0
281
     0
  0
CLASS
  1
RASTERVARIABLES
  2
AcDbRasterVariables
  3
ISM
 90
        0
 91
        1
280
     0
281
     0
  0
CLASS
  1
DICTIONARYVAR
  2
AcDbDictionaryVar
  3
ObjectDBX Classes
 90
        0
 91
        5
280
     0
281
     0
  0
CLASS
  1
CELLSTYLEMAP
  2
AcDbCellStyleMap
  3
ObjectDBX Classes
 90
     1152
 91
        2
280
     0
281
     0
  0
CLASS
  1
SORTENTSTABLE
  2
AcDbSortentsTable
  3
ObjectDBX Classes
 90
        0
 91
        1
280
     0
281
     0
  0
ENDSEC
  0
SECTION
  2
TABLES
  0
TABLE
  2
VPORT
  5
8
330
0
100
AcDbSymbolTable
 70
     1
  0
VPORT
  5
57
330
8
100
AcDbSymbolTableRecord
100
AcDbViewportTableRecord
  2
*Active
 70
     0
 10
0.0
 20
0.0
 11
1.0
 21
1.0
 12
936.265380693143
 22
1930.247939360303
 13
0.0
 23
0.0
 14
1.0
 24
1.0
 15
0.0
 25
0.0
 16
0.0
 26
0.0
 36
1.0
 17
0.0
 27
0.0
 37
0.0
 40
425.5041212805013
 41
0.7501641712407493
 42
50.0
 43
0.0
 44
0.0
 50
0.0
 51
0.0
 71
     0
 72
  1000
 73
     1
 74
     1
 75
     0
 76
     0
 77
     0
 78
     0
281
     0
 65
     1
110
0.0
120
0.0
130
0.0
111
1.0
121
0.0
131
0.0
112
0.0
122
1.0
132
0.0
 79
     0
146
0.0
 60
     3
 61
     5
292
     1
282
     1
141
0.0
142
0.0
 63
   250
421
  3355443
  0
ENDTAB
  0
TABLE
  2
LTYPE
  5
5
330
0
100
AcDbSymbolTable
 70
     3
  0
LTYPE
  5
5B
330
5
100
AcDbSymbolTableRecord
100
AcDbLinetypeTableRecord
  2
ByBlock
 70
     0
  3

 72
    65
 73
     0
 40
0.0
  0
LTYPE
  5
5C
330
5
100
AcDbSymbolTableRecord
100
AcDbLinetypeTableRecord
  2
ByLayer
 70
     0
  3

 72
    65
 73
     0
 40
0.0
  0
LTYPE
  5
5D
330
5
100
AcDbSymbolTableRecord
100
AcDbLinetypeTableRecord
  2
Continuous
 70
     0
  3
Solid line
 72
    65
 73
     0
 40
0.0
  0
LTYPE
  5
69
330
5
100
AcDbSymbolTableRecord
100
AcDbLinetypeTableRecord
  2
PHANTOM2
 70
     0
  3
___ _ _ ___ _ _ ___ _ _ ___ _ _
 72
    65
 73
     6
 40
1.25
 49
0.625
 74
     0
 49
-0.125
 74
     0
 49
0.125
 74
     0
 49
-0.125
 74
     0
 49
0.125
 74
     0
 49
-0.125
 74
     0
  0
LTYPE
  5
86
330
5
100
AcDbSymbolTableRecord
100
AcDbLinetypeTableRecord
  2
Nascosto 1_5 mm
 70
     0
  3

 72
    65
 73
     2
 40
2.2
 49
1.5
 74
     0
 49
-0.7000000000000001
 74
     0
  0
ENDTAB
  0
TABLE
  2
LAYER
  5
2
330
0
100
AcDbSymbolTable
 70
     3
  0
LAYER
  5
54
330
2
100
AcDbSymbolTableRecord
100
AcDbLayerTableRecord
  2
0
 70
     0
 62
     7
  6
Continuous
370
    -3
390
F
347
21
348
0
  0
LAYER
  5
85
330
2
100
AcDbSymbolTableRecord
100
AcDbLayerTableRecord
  2
P-SANR-FIXT
 70
     0
 62
     6
  6
Continuous
370
    18
390
F
347
21
348
0
  0
ENDTAB
  0
TABLE
  2
STYLE
  5
3
330
0
100
AcDbSymbolTable
 70
     2
  0
STYLE
  5
55
330
3
100
AcDbSymbolTableRecord
100
AcDbTextStyleTableRecord
  2
Standard
 70
     0
 40
0.0
 41
1.0
 50
0.0
 71
     0
 42
0.2
  3
txt
  4

  0
STYLE
  5
5A
330
3
100
AcDbSymbolTableRecord
100
AcDbTextStyleTableRecord
  2
Annotative
 70
     0
 40
0.0
 41
1.0
 50
0.0
 71
     0
 42
0.2
  3
txt
  4

1001
AcadAnnotative
1000
AnnotativeData
1002
{
1070
     1
1070
     1
1002
}
  0
ENDTAB
  0
TABLE
  2
VIEW
  5
6
330
0
100
AcDbSymbolTable
 70
     0
  0
ENDTAB
  0
TABLE
  2
UCS
  5
7
330
0
100
AcDbSymbolTable
 70
     0
  0
ENDTAB
  0
TABLE
  2
APPID
  5
9
330
0
100
AcDbSymbolTable
 70
     3
  0
APPID
  5
56
330
9
100
AcDbSymbolTableRecord
100
AcDbRegAppTableRecord
  2
ACAD
 70
     0
  0
APPID
  5
5E
330
9
100
AcDbSymbolTableRecord
100
AcDbRegAppTableRecord
  2
AcadAnnotative
 70
     0
  0
APPID
  5
79
330
9
100
AcDbSymbolTableRecord
100
AcDbRegAppTableRecord
  2
REVIT
 70
     0
  0
ENDTAB
  0
TABLE
  2
DIMSTYLE
  5
A
330
0
100
AcDbSymbolTable
 70
     2
100
AcDbDimStyleTable
 71
     0
  0
DIMSTYLE
105
58
330
A
100
AcDbSymbolTableRecord
100
AcDbDimStyleTableRecord
  2
Standard
 70
     0
340
55
  0
DIMSTYLE
105
59
330
A
100
AcDbSymbolTableRecord
100
AcDbDimStyleTableRecord
  2
Annotative
 70
     0
340
55
1001
AcadAnnotative
1000
AnnotativeData
1002
{
1070
     1
1070
     1
1002
}
  0
ENDTAB
  0
TABLE
  2
BLOCK_RECORD
  5
1
330
0
100
AcDbSymbolTable
 70
     4
  0
BLOCK_RECORD
  5
71
102
{ACAD_XDICTIONARY
360
265
102
}
330
1
100
AcDbSymbolTableRecord
100
AcDbBlockTableRecord
  2
*Model_Space
340
74
 70
     0
280
     1
281
     0
  0
BLOCK_RECORD
  5
6D
330
1
100
AcDbSymbolTableRecord
100
AcDbBlockTableRecord
  2
*Paper_Space
340
70
 70
     0
280
     1
281
     0
  0
BLOCK_RECORD
  5
75
330
1
100
AcDbSymbolTableRecord
100
AcDbBlockTableRecord
  2
*Paper_Space0
340
78
 70
     0
280
     1
281
     0
  0
BLOCK_RECORD
  5
87
330
1
100
AcDbSymbolTableRecord
100
AcDbBlockTableRecord
  2
Automatic flow rate regulator valve_Caleffi_121 DN15 - 1_2__-859151-Est - Idraulica
340
0
102
{BLKREFS
331
142
102
}
 70
     0
280
     1
281
     0
  0
BLOCK_RECORD
  5
143
330
1
100
AcDbSymbolTableRecord
100
AcDbBlockTableRecord
  2
Automatic flow rate regulator valve_Caleffi_121 DN15 - 1_2__-V1-Est - Idraulica
340
0
102
{BLKREFS
331
1CA
102
}
 70
     0
280
     1
281
     0
  0
BLOCK_RECORD
  5
1CB
330
1
100
AcDbSymbolTableRecord
100
AcDbBlockTableRecord
  2
Automatic flow rate regulator valve_Caleffi_121 DN15 - 1_2__-V2-Est - Idraulica
340
0
102
{BLKREFS
331
25F
102
}
 70
     0
280
     1
281
     0
  0
ENDTAB
  0
ENDSEC
  0
SECTION
  2
BLOCKS
  0
BLOCK
  5
72
330
71
100
AcDbEntity
  8
0
100
AcDbBlockBegin
  2
*Model_Space
 70
     0
 10
0.0
 20
0.0
 30
0.0
  3
*Model_Space
  1

  0
ENDBLK
  5
73
330
71
100
AcDbEntity
  8
0
100
AcDbBlockEnd
  0
BLOCK
  5
6E
330
6D
100
AcDbEntity
 67
     1
  8
0
100
AcDbBlockBegin
  2
*Paper_Space
 70
     0
 10
0.0
 20
0.0
 30
0.0
  3
*Paper_Space
  1

  0
ENDBLK
  5
6F
330
6D
100
AcDbEntity
 67
     1
  8
0
100
AcDbBlockEnd
  0
BLOCK
  5
76
330
75
100
AcDbEntity
 67
     1
  8
0
100
AcDbBlockBegin
  2
*Paper_Space0
 70
     0
 10
0.0
 20
0.0
 30
0.0
  3
*Paper_Space0
  1

  0
ENDBLK
  5
77
330
75
100
AcDbEntity
 67
     1
  8
0
100
AcDbBlockEnd
  0
BLOCK
  5
140
330
87
100
AcDbEntity
  8
0
100
AcDbBlockBegin
  2
Automatic flow rate regulator valve_Caleffi_121 DN15 - 1_2__-859151-Est - Idraulica
 70
     0
 10
0.0
 20
0.0
 30
0.0
  3
Automatic flow rate regulator valve_Caleffi_121 DN15 - 1_2__-859151-Est - Idraulica
  1

  0
LWPOLYLINE
  5
88
330
87
100
AcDbEntity
  8
P-SANR-FIXT
100
AcDbPolyline
 90
       41
 70
   128
 43
0.0
 10
841.1386413683457
 20
2125.000000000476
 10
841.2186200367189
 20
2124.998400213799
 10
841.298470756284
 20
2124.993603413082
 10
841.3780657829235
 20
2124.985617272184
 10
841.4572777815742
 20
2124.974454567228
 10
841.5359800299357
 20
2124.960133156159
 10
841.6140466211999
 20
2124.94267595018
 10
841.6913526654738
 20
2124.922110877098
 10
841.7677744895778
 20
2124.898470836641
 10
841.8431898348959
 20
2124.871793647832
 10
841.9174780529628
 20
2124.842121988482
 10
841.9905202984777
 20
2124.809503326916
 10
842.0621997194285
 20
2124.773989846035
 10
842.1324016440332
 20
2124.735638359831
 10
842.2010137641875
 20
2124.694510222503
 10
842.2679263151357
 20
2124.650671230295
 10
842.3330322510704
 20
2124.604191516245
 10
842.3962274163827
 20
2124.555145437978
 10
842.4574107122884
 20
2124.503611458758
 10
842.5164842585669
 20
2124.449672021958
 10
842.5733535501446
 20
2124.39341341917
 10
842.6279276082873
 20
2124.334925652159
 10
842.6801191261436
 20
2124.274302288874
 10
842.7298446084185
 20
2124.211640313763
 10
842.7770245049476
 20
2124.147039972621
 10
842.8215833379613
 20
2124.080604612212
 10
842.8634498228323
 20
2124.012440514942
 10
842.9025569821156
 20
2123.942656728824
 10
842.9388422526987
 20
2123.87136489303
 10
842.9722475858891
 20
2123.798679059289
 10
843.0027195402802
 20
2123.72471550943
 10
843.0302093672448
 20
2123.649592569354
 10
843.0546730889242
 20
2123.573430419741
 10
843.0760715685821
 20
2123.496350903781
 10
843.0943705732161
 20
2123.418477332259
 10
843.1095408283225
 20
2123.339934286277
 10
843.121558064729
 20
2123.260847417952
 10
843.130403057421
 20
2123.181343249405
 10
843.1360616562967
 20
2123.101548970344
 10
843.1385248088057
 20
2123.021592234593
 10
843.1386413683455
 20
2123.000000000476
  0
LWPOLYLINE
  5
89
330
87
100
AcDbEntity
  8
P-SANR-FIXT
100
AcDbPolyline
 90
       41
 70
   128
 43
0.0
 10
788.1941735180325
 20
2123.000000000476
 10
788.1957733047104
 20
2123.079978668849
 10
788.2005701054272
 20
2123.159829388415
 10
788.2085562463247
 20
2123.239424415054
 10
788.2197189512811
 20
2123.318636413705
 10
788.2340403623499
 20
2123.397338662067
 10
788.2514975683284
 20
2123.475405253331
 10
788.2720626414108
 20
2123.552711297604
 10
788.2957026818675
 20
2123.629133121708
 10
788.3223798706765
 20
2123.704548467026
 10
788.3520515300268
 20
2123.778836685094
 10
788.3846701915924
 20
2123.851878930608
 10
788.4201836724738
 20
2123.92355835156
 10
788.4585351586771
 20
2123.993760276164
 10
788.4996632960056
 20
2124.062372396318
 10
788.5435022882131
 20
2124.129284947266
 10
788.5899820022638
 20
2124.194390883201
 10
788.6390280805305
 20
2124.257586048513
 10
788.6905620597507
 20
2124.318769344419
 10
788.7445014965507
 20
2124.377842890697
 10
788.800760099338
 20
2124.434712182275
 10
788.8592478663498
 20
2124.489286240418
 10
788.9198712296352
 20
2124.541477758274
 10
788.9825332047454
 20
2124.591203240549
 10
789.0471335458876
 20
2124.638383137078
 10
789.1135689062961
 20
2124.682941970092
 10
789.1817330035669
 20
2124.724808454963
 10
789.2515167896849
 20
2124.763915614246
 10
789.3228086254789
 20
2124.800200884829
 10
789.3954944592199
 20
2124.83360621802
 10
789.4694580090791
 20
2124.864078172411
 10
789.544580949155
 20
2124.891567999375
 10
789.6207430987685
 20
2124.916031721054
 10
789.6978226147277
 20
2124.937430200713
 10
789.7756961862496
 20
2124.955729205347
 10
789.8542392322318
 20
2124.970899460453
 10
789.9333261005562
 20
2124.98291669686
 10
790.0128302691038
 20
2124.991761689551
 10
790.0926245481652
 20
2124.997420288428
 10
790.172581283916
 20
2124.999883440936
 10
790.1941735180324
 20
2125.000000000476
  0
LWPOLYLINE
  5
8A
330
87
100
AcDbEntity
  8
P-SANR-FIXT
100
AcDbPolyline
 90
        3
 70
   128
 43
0.0
 10
790.1941735180324
 20
2125.000000000476
 10
790.2145485882792
 20
2125.000000000476
 10
790.2756412032535
 20
2125.000000000476
  0
LWPOLYLINE
  5
8B
330
87
100
AcDbEntity
  8
P-SANR-FIXT
100
AcDbPolyline
 90
        4
 70
   128
 43
0.0
 10
841.0489430934593
 20
2125.000000000476
 10
841.0903402075776
 20
2125.000000000476
 10
841.1327034776386
 20
2125.000000000476
 10
841.1386413683457
 20
2125.000000000476
  0
LINE
  5
8C
330
87
100
AcDbEntity
  8
P-SANR-FIXT
100
AcDbLine
 10
788.1941735180325
 20
2123.000000000476
 30
0.0
 11
788.1941735180325
 21
2116.500000000497
 31
0.0
  0
LINE
  5
8D
330
87
100
AcDbEntity
  8
P-SANR-FIXT
100
AcDbLine
 10
843.1386413683455
 20
2116.500000000497
 30
0.0
 11
843.1386413683455
 21
2123.000000000476
 31
0.0
  0
LINE
  5
8E
330
87
100
AcDbEntity
  8
P-SANR-FIXT
100
AcDbLine
 10
789.9164074431885
 20
2098.500000000513
 30
0.0
 11
789.9164074431885
 21
2077.959135410558
 31
0.0
  0
LINE
  5
8F
330
87
100
AcDbEntity
  8
P-SANR-FIXT
100
AcDbLine
 10
841.4164074431896
 20
2077.959135410558
 30
0.0
 11
841.4164074431896
 21
2098.500000000513
 31
0.0
  0
LINE
  5
90
330
87
100
AcDbEntity
  8
P-SANR-FIXT
100
AcDbLine
 10
788.166407443189
 20
2066.767949192869
 30
0.0
 11
787.1664074440237
 21
2066.50000000045
 31
0.0
  0
LINE
  5
91
330
87
100
AcDbEntity
  8
P-SANR-FIXT
100
AcDbLine
 10
844.1664074423544
 20
2066.50000000045
 30
0.0
 11
843.1664074431891
 21
2066.767949192869
 31
0.0
  0
LINE
  5
92
330
87
100
AcDbEntity
  8
P-SANR-FIXT
100
AcDbLine
 10
787.1664074440237
 20
2066.50000000045
 30
0.0
 11
787.1664074440237
 21
2063.499999999996
 31
0.0
  0
LINE
  5
93
330
87
100
AcDbEntity
  8
P-SANR-FIXT
100
AcDbLine
 10
844.1664074423544
 20
2063.499999999996
 30
0.0
 11
844.1664074423544
 21
2066.50000000045
 31
0.0
  0
LWPOLYLINE
  5
94
330
87
100
AcDbEntity
  8
P-SANR-FIXT
100
AcDbPolyline
 90
       80
 70
   128
 43
0.0
 10
841.1386413683457
 20
2125.000000000476
 10
841.1182662980987
 20
2125.000000000476
 10
841.0571736831245
 20
2125.000000000476
 10
840.9554612585742
 20
2125.000000000476
 10
840.8132917426298
 20
2125.000000000476
 10
840.6308925761889
 20
2125.000000000476
 10
840.4085555590079
 20
2125.000000000476
 10
840.1466363828848
 20
2125.000000000476
 10
839.8455540626288
 20
2125.000000000476
 10
839.5057902657242
 20
2125.000000000476
 10
839.1278885417678
 20
2125.000000000476
 10
838.7124534529025
 20
2125.000000000476
 10
838.260149606649
 20
2125.000000000476
 10
837.7717005926756
 20
2125.000000000476
 10
837.2478878252072
 20
2125.000000000476
 10
836.6895492929314
 20
2125.000000000476
 10
836.0975782183935
 20
2125.000000000476
 10
835.4729216290326
 20
2125.000000000476
 10
834.8165788421388
 20
2125.000000000476
 10
834.1295998661587
 20
2125.000000000476
 10
833.4130837209063
 20
2125.000000000476
 10
832.6681766793649
 20
2125.000000000476
 10
831.8960704338964
 20
2125.000000000476
 10
831.0980001897863
 20
2125.000000000476
 10
830.2752426891792
 20
2125.000000000476
 10
829.4291141685638
 20
2125.000000000476
 10
828.5609682530752
 20
2125.000000000476
 10
827.672193790984
 20
2125.000000000476
 10
826.7642126318339
 20
2125.000000000476
 10
825.8384773517876
 20
2125.000000000476
 10
824.8964689298132
 20
2125.000000000476
 10
823.9396943784353
 20
2125.000000000476
 10
822.9696843328344
 20
2125.000000000476
 10
821.9879906021597
 20
2125.000000000476
 10
820.9961836869629
 20
2125.000000000476
 10
819.9958502667344
 20
2125.000000000476
 10
818.9885906615534
 20
2125.000000000476
 10
817.976016271918
 20
2125.000000000476
 10
816.9597470008465
 20
2125.000000000476
 10
815.9414086623806
 20
2125.000000000476
 10
814.9226303806278
 20
2125.000000000476
 10
813.9050419835111
 20
2125.000000000476
 10
812.8902713953918
 20
2125.000000000476
 10
811.8799420327386
 20
2125.000000000476
 10
810.8756702070055
 20
2125.000000000476
 10
809.8790625388812
 20
2125.000000000476
 10
808.8917133880357
 20
2125.000000000476
 10
807.9152023024878
 20
2125.000000000476
 10
806.9510914916627
 20
2125.000000000476
 10
806.0009233271916
 20
2125.000000000476
 10
805.0662178754462
 20
2125.000000000476
 10
804.1484704657561
 20
2125.000000000476
 10
803.2491492982012
 20
2125.000000000476
 10
802.3696930948043
 20
2125.000000000476
 10
801.5115087978836
 20
2125.000000000476
 10
800.6759693192448
 20
2125.000000000476
 10
799.8644113438148
 20
2125.000000000476
 10
799.0781331912311
 20
2125.000000000476
 10
798.3183927388072
 20
2125.000000000476
 10
797.5864054091982
 20
2125.000000000476
 10
796.883342225982
 20
2125.000000000476
 10
796.2103279402731
 20
2125.000000000476
 10
795.56843923136
 20
2125.000000000476
 10
794.9587029842481
 20
2125.000000000476
 10
794.3820946468622
 20
2125.000000000476
 10
793.8395366695394
 20
2125.000000000476
 10
793.3318970293036
 20
2125.000000000476
 10
792.8599878412885
 20
2125.000000000476
 10
792.4245640595265
 20
2125.000000000476
 10
792.0263222691828
 20
2125.000000000476
 10
791.6658995721683
 20
2125.000000000476
 10
791.3438725679124
 20
2125.000000000476
 10
791.0607564309258
 20
2125.000000000476
 10
790.8170040866337
 20
2125.000000000476
 10
790.6130054867884
 20
2125.000000000476
 10
790.4490869856328
 20
2125.000000000476
 10
790.325510817801
 20
2125.000000000476
 10
790.2424746788003
 20
2125.000000000476
 10
790.2001114087395
 20
2125.000000000476
 10
790.1941735180324
 20
2125.000000000476
  0
LINE
  5
95
330
87
100
AcDbEntity
  8
P-SANR-FIXT
100
AcDbLine
 10
788.1941735180325
 20
2116.500000000497
 30
0.0
 11
789.194173517975
 21
2115.500000000555
 31
0.0
  0
LINE
  5
96
330
87
100
AcDbEntity
  8
P-SANR-FIXT
100
AcDbLine
 10
842.1386413684031
 20
2115.500000000555
 30
0.0
 11
843.1386413683455
 21
2116.500000000497
 31
0.0
  0
LINE
  5
97
330
87
100
AcDbEntity
  8
P-SANR-FIXT
100
AcDbLine
 10
790.7414074431885
 20
2115.500000000555
 30
0.0
 11
790.7414074431885
 21
2098.976313972595
 31
0.0
  0
LINE
  5
98
330
87
100
AcDbEntity
  8
P-SANR-FIXT
100
AcDbLine
 10
840.5914074431894
 20
2098.976313972595
 30
0.0
 11
840.5914074431894
 21
2115.500000000555
 31
0.0
  0
LINE
  5
99
330
87
100
AcDbEntity
  8
P-SANR-FIXT
100
AcDbLine
 10
790.7414074431884
 20
2098.976313972595
 30
0.0
 11
789.9957860995605
 21
2098.545829289137
 31
0.0
  0
LINE
  5
9A
330
87
100
AcDbEntity
  8
P-SANR-FIXT
100
AcDbLine
 10
789.9805293213155
 20
2098.537020784111
 30
0.0
 11
789.9164074431885
 21
2098.500000000513
 31
0.0
  0
LINE
  5
9B
330
87
100
AcDbEntity
  8
P-SANR-FIXT
100
AcDbLine
 10
841.4164074431896
 20
2098.500000000513
 30
0.0
 11
841.3522855650626
 21
2098.53702078411
 31
0.0
  0
LINE
  5
9C
330
87
100
AcDbEntity
  8
P-SANR-FIXT
100
AcDbLine
 10
841.3370287868175
 20
2098.545829289137
 30
0.0
 11
840.5914074431896
 21
2098.976313972595
 31
0.0
  0
LINE
  5
9D
330
87
100
AcDbEntity
  8
P-SANR-FIXT
100
AcDbLine
 10
841.4164074431882
 20
2098.500000000512
 30
0.0
 11
789.9164074431872
 21
2098.500000000512
 31
0.0
  0
LINE
  5
9E
330
87
100
AcDbEntity
  8
P-SANR-FIXT
100
AcDbLine
 10
790.2084608354333
 20
2077.959135410557
 30
0.0
 11
794.9303774254219
 21
2077.959135410557
 31
0.0
  0
LINE
  5
9F
330
87
100
AcDbEntity
  8
P-SANR-FIXT
100
AcDbLine
 10
800.3994640981087
 20
2077.959135410557
 30
0.0
 11
811.7991791700452
 21
2077.959135410557
 31
0.0
  0
LINE
  5
A0
330
87
100
AcDbEntity
  8
P-SANR-FIXT
100
AcDbLine
 10
819.5336357163469
 20
2077.959135410557
 30
0.0
 11
830.9333507882852
 21
2077.959135410557
 31
0.0
  0
LINE
  5
A1
330
87
100
AcDbEntity
  8
P-SANR-FIXT
100
AcDbLine
 10
836.4024374609613
 20
2077.959135410557
 30
0.0
 11
841.1243540509463
 21
2077.959135410557
 31
0.0
  0
LINE
  5
A2
330
87
100
AcDbEntity
  8
P-SANR-FIXT
100
AcDbLine
 10
843.1664074431878
 20
2066.767949192868
 30
0.0
 11
788.1664074431878
 21
2066.767949192868
 31
0.0
  0
LINE
  5
A3
330
87
100
AcDbEntity
  8
P-SANR-FIXT
100
AcDbLine
 10
787.1664074440225
 20
2066.500000000449
 30
0.0
 11
844.1664074423529
 21
2066.500000000449
 31
0.0
  0
LINE
  5
A4
330
87
100
AcDbEntity
  8
P-SANR-FIXT
100
AcDbLine
 10
788.1941735180312
 20
2116.500000000496
 30
0.0
 11
843.1386413683444
 21
2116.500000000496
 31
0.0
  0
LINE
  5
A5
330
87
100
AcDbEntity
  8
P-SANR-FIXT
100
AcDbLine
 10
789.1941735179736
 20
2115.500000000554
 30
0.0
 11
842.1386413684018
 21
2115.500000000554
 31
0.0
  0
LINE
  5
A6
330
87
100
AcDbEntity
  8
P-SANR-FIXT
100
AcDbLine
 10
790.7414074431874
 20
2098.976313972594
 30
0.0
 11
840.5914074431882
 21
2098.976313972594
 31
0.0
  0
LINE
  5
A7
330
87
100
AcDbEntity
  8
P-SANR-FIXT
100
AcDbLine
 10
787.1664074440225
 20
2063.499999999995
 30
0.0
 11
844.1664074423529
 21
2063.499999999995
 31
0.0
  0
LINE
  5
A8
330
87
100
AcDbEntity
  8
P-SANR-FIXT
100
AcDbLine
 10
834.8005790614328
 20
2077.959135410557
 30
0.0
 11
836.4024374609615
 21
2077.959135410557
 31
0.0
  0
LINE
  5
A9
330
87
100
AcDbEntity
  8
P-SANR-FIXT
100
AcDbLine
 10
830.9333507882852
 20
2077.959135410557
 30
0.0
 11
834.8005790614328
 21
2077.959135410557
 31
0.0
  0
LINE
  5
AA
330
87
100
AcDbEntity
  8
P-SANR-FIXT
100
AcDbLine
 10
794.9303774254221
 20
2077.959135410557
 30
0.0
 11
796.5322358249559
 21
2077.959135410557
 31
0.0
  0
LINE
  5
AB
330
87
100
AcDbEntity
  8
P-SANR-FIXT
100
AcDbLine
 10
796.5322358249559
 20
2077.959135410557
 30
0.0
 11
800.3994640981089
 21
2077.959135410557
 31
0.0
  0
LINE
  5
AC
330
87
100
AcDbEntity
  8
P-SANR-FIXT
100
AcDbLine
 10
811.7991791700454
 20
2077.959135410557
 30
0.0
 11
815.6664074431974
 21
2077.959135410557
 31
0.0
  0
LINE
  5
AD
330
87
100
AcDbEntity
  8
P-SANR-FIXT
100
AcDbLine
 10
815.6664074431974
 20
2077.959135410557
 30
0.0
 11
819.5336357163473
 21
2077.959135410557
 31
0.0
  0
LINE
  5
AE
330
87
100
AcDbEntity
  8
P-SANR-FIXT
100
AcDbLine
 10
841.1243540509463
 20
2077.959135410557
 30
0.0
 11
842.7262124504739
 21
2077.959135410557
 31
0.0
  0
LINE
  5
AF
330
87
100
AcDbEntity
  8
P-SANR-FIXT
100
AcDbLine
 10
788.6066024358997
 20
2077.959135410557
 30
0.0
 11
790.2084608354333
 21
2077.959135410557
 31
0.0
  0
LINE
  5
B0
330
87
100
AcDbEntity
  8
P-SANR-FIXT
100
AcDbLine
 10
834.8005790614328
 20
2077.959135410557
 30
0.0
 11
834.8005790614328
 21
2066.767949192868
 31
0.0
  0
LINE
  5
B1
330
87
100
AcDbEntity
  8
P-SANR-FIXT
100
AcDbLine
 10
842.7262124504769
 20
2066.767949192868
 30
0.0
 11
842.7262124504739
 21
2077.959135410557
 31
0.0
  0
LINE
  5
B2
330
87
100
AcDbEntity
  8
P-SANR-FIXT
100
AcDbLine
 10
788.6066024358964
 20
2066.767949192868
 30
0.0
 11
788.6066024358997
 21
2077.959135410557
 31
0.0
  0
LINE
  5
B3
330
87
100
AcDbEntity
  8
P-SANR-FIXT
100
AcDbLine
 10
796.5322358249559
 20
2066.767949192868
 30
0.0
 11
796.5322358249559
 21
2077.959135410557
 31
0.0
  0
LINE
  5
B4
330
87
100
AcDbEntity
  8
P-SANR-FIXT
100
AcDbLine
 10
815.6664074431974
 20
2066.767949192868
 30
0.0
 11
815.6664074431974
 21
2077.959135410557
 31
0.0
  0
LINE
  5
B5
330
87
100
AcDbEntity
  8
P-SANR-FIXT
100
AcDbLine
 10
820.3886413683656
 20
2128.000000000539
 30
0.0
 11
820.3886413683656
 21
2125.000000000476
 31
0.0
  0
LINE
  5
B6
330
87
100
AcDbEntity
  8
P-SANR-FIXT
100
AcDbLine
 10
834.8886413683651
 20
2125.000000000476
 30
0.0
 11
834.8886413683651
 21
2128.00000000054
 31
0.0
  0
LINE
  5
B7
330
87
100
AcDbEntity
  8
P-SANR-FIXT
100
AcDbLine
 10
822.7758130819587
 20
2143.000000000554
 30
0.0
 11
822.1386413683653
 21
2142.362828286961
 31
0.0
  0
LINE
  5
B8
330
87
100
AcDbEntity
  8
P-SANR-FIXT
100
AcDbLine
 10
833.1386413683652
 20
2142.362828286962
 30
0.0
 11
832.5014696547718
 21
2143.000000000554
 31
0.0
  0
LINE
  5
B9
330
87
100
AcDbEntity
  8
P-SANR-FIXT
100
AcDbLine
 10
822.1386413683653
 20
2142.362828286962
 30
0.0
 11
822.1386413683653
 21
2138.500000000601
 31
0.0
  0
LINE
  5
BA
330
87
100
AcDbEntity
  8
P-SANR-FIXT
100
AcDbLine
 10
833.1386413683652
 20
2138.500000000601
 30
0.0
 11
833.1386413683652
 21
2142.362828286962
 31
0.0
  0
LINE
  5
BB
330
87
100
AcDbEntity
  8
P-SANR-FIXT
100
AcDbLine
 10
822.9268087625143
 20
2138.500000000601
 30
0.0
 11
822.9268087625143
 21
2136.5000000006
 31
0.0
  0
LINE
  5
BC
330
87
100
AcDbEntity
  8
P-SANR-FIXT
100
AcDbLine
 10
832.3504739742162
 20
2136.5000000006
 30
0.0
 11
832.3504739742162
 21
2138.500000000601
 31
0.0
  0
LINE
  5
BD
330
87
100
AcDbEntity
  8
P-SANR-FIXT
100
AcDbLine
 10
822.1386413683656
 20
2136.5000000006
 30
0.0
 11
822.1386413683656
 21
2132.134128486497
 31
0.0
  0
LINE
  5
BE
330
87
100
AcDbEntity
  8
P-SANR-FIXT
100
AcDbLine
 10
833.1386413683652
 20
2132.134128486497
 30
0.0
 11
833.1386413683652
 21
2136.5000000006
 31
0.0
  0
LWPOLYLINE
  5
BF
330
87
100
AcDbEntity
  8
P-SANR-FIXT
100
AcDbPolyline
 90
       80
 70
   128
 43
0.0
 10
822.7812117001453
 20
2131.491558154718
 10
822.7850971257817
 20
2131.491558154718
 10
822.7967471868385
 20
2131.491558154718
 10
822.8161432457037
 20
2131.491558154718
 10
822.8432542728203
 20
2131.491558154718
 10
822.8780368963283
 20
2131.491558154718
 10
822.9204354714504
 20
2131.491558154718
 10
822.9703821695103
 20
2131.491558154718
 10
823.0277970864463
 20
2131.491558154718
 10
823.0925883706392
 20
2131.491558154718
 10
823.1646523698554
 20
2131.491558154718
 10
823.2438737970692
 20
2131.491558154718
 10
823.3301259148968
 20
2131.491558154718
 10
823.4232707383489
 20
2131.491558154718
 10
823.5231592555777
 20
2131.491558154718
 10
823.6296316662643
 20
2131.491558154718
 10
823.7425176372646
 20
2131.491558154718
 10
823.861636575106
 20
2131.491558154718
 10
823.9867979148986
 20
2131.491558154718
 10
824.1178014251982
 20
2131.491558154718
 10
824.2544375283344
 20
2131.491558154718
 10
824.3964876356898
 20
2131.491558154718
 10
824.5437244973947
 20
2131.491558154718
 10
824.6959125658797
 20
2131.491558154718
 10
824.8528083726998
 20
2131.491558154718
 10
825.0141609180337
 20
2131.491558154718
 10
825.179712072229
 20
2131.491558154718
 10
825.3491969887543
 20
2131.491558154718
 10
825.522344527898
 20
2131.491558154718
 10
825.6988776905341
 20
2131.491558154718
 10
825.8785140612607
 20
2131.491558154718
 10
826.0609662602048
 20
2131.491558154718
 10
826.2459424027692
 20
2131.491558154718
 10
826.4331465665851
 20
2131.491558154718
 10
826.6222792649255
 20
2131.491558154718
 10
826.8130379258192
 20
2131.491558154718
 10
827.0051173761013
 20
2131.491558154718
 10
827.1982103296268
 20
2131.491558154718
 10
827.3920078788602
 20
2131.491558154718
 10
827.5861999890649
 20
2131.491558154718
 10
827.7804759942895
 20
2131.491558154718
 10
827.9745250943689
 20
2131.491558154718
 10
828.1680368521382
 20
2131.491558154718
 10
828.3607016900651
 20
2131.491558154718
 10
828.5522113855085
 20
2131.491558154718
 10
828.7422595638092
 20
2131.491558154718
 10
828.9305421884233
 20
2131.491558154718
 10
829.1167580473157
 20
2131.491558154718
 10
829.3006092348367
 20
2131.491558154718
 10
829.4818016283057
 20
2131.491558154718
 10
829.6600453585453
 20
2131.491558154718
 10
829.8350552736105
 20
2131.491558154718
 10
830.0065513949705
 20
2131.491558154718
 10
830.174259365415
 20
2131.491558154718
 10
830.3379108879676
 20
2131.491558154718
 10
830.497244155102
 20
2131.491558154718
 10
830.6520042675805
 20
2131.491558154718
 10
830.8019436422366
 20
2131.491558154718
 10
830.9468224080564
 20
2131.491558154718
 10
831.0864087899204
 20
2131.491558154718
 10
831.2204794793943
 20
2131.491558154718
 10
831.3488199919753
 20
2131.491558154718
 10
831.4712250102211
 20
2131.491558154718
 10
831.5874987122143
 20
2131.491558154718
 10
831.6974550848351
 20
2131.491558154718
 10
831.8009182213437
 20
2131.491558154718
 10
831.8977226027927
 20
2131.491558154718
 10
831.9877133628219
 20
2131.491558154718
 10
832.0707465354125
 20
2131.491558154718
 10
832.1466892852013
 20
2131.491558154718
 10
832.2154201199889
 20
2131.491558154718
 10
832.2768290851012
 20
2131.491558154718
 10
832.330817939294
 20
2131.491558154718
 10
832.3773003119175
 20
2131.491558154718
 10
832.4162018410914
 20
2131.491558154718
 10
832.4474602926676
 20
2131.491558154718
 10
832.4710256597914
 20
2131.491558154718
 10
832.4868602429024
 20
2131.491558154718
 10
832.494938710046
 20
2131.491558154718
 10
832.4960710365854
 20
2131.491558154718
  0
LWPOLYLINE
  5
C0
330
87
100
AcDbEntity
  8
P-SANR-FIXT
100
AcDbPolyline
 90
       41
 70
   128
 43
0.0
 10
833.1386413683652
 20
2132.134128486497
 10
833.1381273806369
 20
2132.108432526761
 10
833.136586239723
 20
2132.082777675079
 10
833.1340204111198
 20
2132.057204973742
 10
833.130433999606
 20
2132.031755333615
 10
833.125832742675
 20
2132.006469468694
 10
833.1202240013563
 20
2131.981387830969
 10
833.1136167484395
 20
2131.95655054571
 10
833.1060215541196
 20
2131.931997347275
 10
833.0974505690877
 20
2131.907767515544
 10
833.0879175050911
 20
2131.883899813079
 10
833.0774376129991
 20
2131.860432423112
 10
833.0660276584026
 20
2131.837402888461
 10
833.0537058947957
 20
2131.814848051468
 10
833.0404920343713
 20
2131.792803995063
 10
833.0264072164876
 20
2131.771305985031
 10
833.0114739738483
 20
2131.750388413604
 10
832.9957161964561
 20
2131.730084744432
 10
832.9791590933933
 20
2131.710427459058
 10
832.9618291524932
 20
2131.691448004942
 10
832.9437540979636
 20
2131.673176745164
 10
832.9249628460368
 20
2131.65564290984
 10
832.9054854587068
 20
2131.638874549367
 10
832.8853530956386
 20
2131.622898489546
 10
832.8645979643182
 20
2131.607740288663
 10
832.8432532685285
 20
2131.593424196606
 10
832.821353155229
 20
2131.579973116069
 10
832.7989326599295
 20
2131.567408565911
 10
832.7760276506399
 20
2131.555750646732
 10
832.7526747704887
 20
2131.545018008717
 10
832.7289113791024
 20
2131.535227821796
 10
832.7047754928381
 20
2131.526395748179
 10
832.6803057239647
 20
2131.518535917301
 10
832.6555412188932
 20
2131.511660903214
 10
832.6305215955482
 20
2131.505781704475
 10
832.6052868799903
 20
2131.500907726547
 10
832.5798774423812
 20
2131.497046766753
 10
832.5543339324003
 20
2131.494205001809
 10
832.528697214215
 20
2131.492386977931
 10
832.5030083011053
 20
2131.491595603568
 10
832.4960710365854
 20
2131.491558154718
  0
LWPOLYLINE
  5
C1
330
87
100
AcDbEntity
  8
P-SANR-FIXT
100
AcDbPolyline
 90
       41
 70
   128
 43
0.0
 10
822.7812117001453
 20
2131.491558154718
 10
822.7555157404093
 20
2131.492072142446
 10
822.7298608887275
 20
2131.493613283359
 10
822.7042881873897
 20
2131.496179111962
 10
822.6788385472625
 20
2131.499765523477
 10
822.6535526823418
 20
2131.504366780408
 10
822.628471044617
 20
2131.509975521726
 10
822.6036337593583
 20
2131.516582774644
 10
822.5790805609232
 20
2131.524177968963
 10
822.5548507291922
 20
2131.532748953995
 10
822.5309830267269
 20
2131.542282017991
 10
822.5075156367598
 20
2131.552761910084
 10
822.4844861021086
 20
2131.56417186468
 10
822.4619312651162
 20
2131.576493628287
 10
822.4398872087105
 20
2131.589707488711
 10
822.418389198679
 20
2131.603792306595
 10
822.3974716272515
 20
2131.618725549234
 10
822.3771679580808
 20
2131.634483326626
 10
822.3575106727061
 20
2131.651040429689
 10
822.3385312185904
 20
2131.66837037059
 10
822.3202599588116
 20
2131.686445425119
 10
822.302726123488
 20
2131.705236677046
 10
822.2859577630156
 20
2131.724714064376
 10
822.2699817031939
 20
2131.744846427444
 10
822.2548235023108
 20
2131.765601558764
 10
822.2405074102542
 20
2131.786946254554
 10
822.2270563297172
 20
2131.808846367853
 10
822.2144917795594
 20
2131.831266863153
 10
822.2028338603809
 20
2131.854171872443
 10
822.1921012223651
 20
2131.877524752594
 10
822.1823110354435
 20
2131.90128814398
 10
822.1734789618269
 20
2131.925424030244
 10
822.1656191309488
 20
2131.949893799117
 10
822.1587441168621
 20
2131.974658304189
 10
822.1528649181227
 20
2131.999677927534
 10
822.1479909401942
 20
2132.024912643093
 10
822.144129980402
 20
2132.050322080701
 10
822.1412882154575
 20
2132.075865590682
 10
822.1394701915789
 20
2132.101502308868
 10
822.1386788172166
 20
2132.127191221977
 10
822.1386413683656
 20
2132.134128486497
  0
LWPOLYLINE
  5
C2
330
87
100
AcDbEntity
  8
P-SANR-FIXT
100
AcDbPolyline
 90
        5
 70
   128
 43
0.0
 10
832.4960710365854
 20
2131.491558154718
 10
832.4921856109488
 20
2131.491558154718
 10
832.4805355498918
 20
2131.491558154718
 10
832.4611394910268
 20
2131.491558154718
 10
832.4340284639104
 20
2131.491558154718
  0
LWPOLYLINE
  5
C3
330
87
100
AcDbEntity
  8
P-SANR-FIXT
100
AcDbPolyline
 90
        5
 70
   128
 43
0.0
 10
822.8298224440631
 20
2131.491558154718
 10
822.8062570769392
 20
2131.491558154718
 10
822.790422493828
 20
2131.491558154718
 10
822.7823440266845
 20
2131.491558154718
 10
822.7812117001453
 20
2131.491558154718
  0
LINE
  5
C4
330
87
100
AcDbEntity
  8
P-SANR-FIXT
100
AcDbLine
 10
824.6386413683655
 20
2131.491558154718
 30
0.0
 11
824.6386413683655
 21
2128.00000000054
 31
0.0
  0
LINE
  5
C5
330
87
100
AcDbEntity
  8
P-SANR-FIXT
100
AcDbLine
 10
830.638641368365
 20
2128.00000000054
 30
0.0
 11
830.638641368365
 21
2131.491558154718
 31
0.0
  0
LINE
  5
C6
330
87
100
AcDbEntity
  8
P-SANR-FIXT
100
AcDbLine
 10
834.8886413683638
 20
2128.000000000538
 30
0.0
 11
820.8258726610189
 21
2128.000000000538
 31
0.0
  0
LINE
  5
C7
330
87
100
AcDbEntity
  8
P-SANR-FIXT
100
AcDbLine
 10
820.8258698676663
 20
2128.000000000538
 30
0.0
 11
820.3886413683644
 21
2128.000000000538
 31
0.0
  0
LINE
  5
C8
330
87
100
AcDbEntity
  8
P-SANR-FIXT
100
AcDbLine
 10
822.7758130819573
 20
2143.000000000554
 30
0.0
 11
832.5014696547707
 21
2143.000000000554
 31
0.0
  0
LINE
  5
C9
330
87
100
AcDbEntity
  8
P-SANR-FIXT
100
AcDbLine
 10
822.1386413683642
 20
2142.36282828696
 30
0.0
 11
833.1386413683638
 21
2142.36282828696
 31
0.0
  0
LINE
  5
CA
330
87
100
AcDbEntity
  8
P-SANR-FIXT
100
AcDbLine
 10
822.1386413683642
 20
2138.5000000006
 30
0.0
 11
833.1386413683638
 21
2138.5000000006
 31
0.0
  0
LINE
  5
CB
330
87
100
AcDbEntity
  8
P-SANR-FIXT
100
AcDbLine
 10
822.1386413683642
 20
2136.5000000006
 30
0.0
 11
833.1386413683638
 21
2136.5000000006
 31
0.0
  0
LINE
  5
CC
330
87
100
AcDbEntity
  8
P-SANR-FIXT
100
AcDbLine
 10
787.5164074431892
 20
2063.499999999996
 30
0.0
 11
786.9164074431893
 21
2062.899999999996
 31
0.0
  0
LINE
  5
CD
330
87
100
AcDbEntity
  8
P-SANR-FIXT
100
AcDbLine
 10
844.416407443189
 20
2062.899999999996
 30
0.0
 11
843.816407443189
 21
2063.499999999996
 31
0.0
  0
LINE
  5
CE
330
87
100
AcDbEntity
  8
P-SANR-FIXT
100
AcDbLine
 10
779.444781164775
 20
2017.104094816063
 30
0.0
 11
776.6664074431889
 21
2015.499999999996
 31
0.0
  0
LINE
  5
CF
330
87
100
AcDbEntity
  8
P-SANR-FIXT
100
AcDbLine
 10
776.6664074431891
 20
1984.499999999995
 30
0.0
 11
779.4447811647748
 21
1982.895905183928
 31
0.0
  0
LINE
  5
D0
330
87
100
AcDbEntity
  8
P-SANR-FIXT
100
AcDbLine
 10
783.1664074431889
 20
2017.104094816063
 30
0.0
 11
779.4447811647748
 21
2017.104094816063
 31
0.0
  0
LINE
  5
D1
330
87
100
AcDbEntity
  8
P-SANR-FIXT
100
AcDbLine
 10
779.444781164775
 20
1982.895905183928
 30
0.0
 11
783.166407443189
 21
1982.895905183928
 31
0.0
  0
LINE
  5
D2
330
87
100
AcDbEntity
  8
P-SANR-FIXT
100
AcDbLine
 10
785.944781164775
 20
2015.499999999996
 30
0.0
 11
783.1664074431889
 21
2017.104094816063
 31
0.0
  0
LINE
  5
D3
330
87
100
AcDbEntity
  8
P-SANR-FIXT
100
AcDbLine
 10
783.166407443189
 20
1982.895905183928
 30
0.0
 11
785.944781164775
 21
1984.499999999995
 31
0.0
  0
LINE
  5
D4
330
87
100
AcDbEntity
  8
P-SANR-FIXT
100
AcDbLine
 10
785.944781164775
 20
1984.499999999995
 30
0.0
 11
788.4143394545503
 21
1984.499999999995
 31
0.0
  0
LINE
  5
D5
330
87
100
AcDbEntity
  8
P-SANR-FIXT
100
AcDbLine
 10
788.4143394545502
 20
2015.499999999996
 30
0.0
 11
785.944781164775
 21
2015.499999999996
 31
0.0
  0
LINE
  5
D6
330
87
100
AcDbEntity
  8
P-SANR-FIXT
100
AcDbLine
 10
842.9184754318281
 20
1984.499999999996
 30
0.0
 11
845.388033721603
 21
1984.499999999996
 31
0.0
  0
LINE
  5
D7
330
87
100
AcDbEntity
  8
P-SANR-FIXT
100
AcDbLine
 10
845.388033721603
 20
2015.499999999995
 30
0.0
 11
842.9184754318281
 21
2015.499999999995
 31
0.0
  0
LINE
  5
D8
330
87
100
AcDbEntity
  8
P-SANR-FIXT
100
AcDbLine
 10
848.1664074431884
 20
2017.104094816063
 30
0.0
 11
845.388033721603
 21
2015.499999999996
 31
0.0
  0
LINE
  5
D9
330
87
100
AcDbEntity
  8
P-SANR-FIXT
100
AcDbLine
 10
845.388033721603
 20
1984.499999999995
 30
0.0
 11
848.166407443189
 21
1982.895905183928
 31
0.0
  0
LINE
  5
DA
330
87
100
AcDbEntity
  8
P-SANR-FIXT
100
AcDbLine
 10
851.8880337216037
 20
2017.104094816063
 30
0.0
 11
848.166407443189
 21
2017.104094816063
 31
0.0
  0
LINE
  5
DB
330
87
100
AcDbEntity
  8
P-SANR-FIXT
100
AcDbLine
 10
848.1664074431884
 20
1982.895905183928
 30
0.0
 11
851.8880337216032
 21
1982.895905183928
 31
0.0
  0
LINE
  5
DC
330
87
100
AcDbEntity
  8
P-SANR-FIXT
100
AcDbLine
 10
854.6664074431891
 20
2015.499999999996
 30
0.0
 11
851.8880337216037
 21
2017.104094816063
 31
0.0
  0
LINE
  5
DD
330
87
100
AcDbEntity
  8
P-SANR-FIXT
100
AcDbLine
 10
851.8880337216032
 20
1982.895905183928
 30
0.0
 11
854.6664074431889
 21
1984.499999999995
 31
0.0
  0
LINE
  5
DE
330
87
100
AcDbEntity
  8
P-SANR-FIXT
100
AcDbLine
 10
786.9164074431893
 20
2062.899999999996
 30
0.0
 11
786.9164074431893
 21
2050.057128970692
 31
0.0
  0
LINE
  5
DF
330
87
100
AcDbEntity
  8
P-SANR-FIXT
100
AcDbLine
 10
844.416407443189
 20
2050.057128970692
 30
0.0
 11
844.416407443189
 21
2062.899999999996
 31
0.0
  0
LWPOLYLINE
  5
E0
330
87
100
AcDbEntity
  8
P-SANR-FIXT
100
AcDbPolyline
 90
       21
 70
   128
 43
0.0
 10
844.416407443189
 20
2050.057128970692
 10
844.4152076031807
 20
2049.997144969412
 10
844.411610002643
 20
2049.937256929737
 10
844.4056203969699
 20
2049.877560659759
 10
844.3972483682525
 20
2049.81815166077
 10
844.3865073099511
 20
2049.759124974499
 10
844.3734144054671
 20
2049.700575031051
 10
844.3579906006551
 20
2049.642595497846
 10
844.3402605703129
 20
2049.585279129768
 10
844.3202526787059
 20
2049.528717620779
 10
844.2979989341935
 20
2049.473001457229
 10
844.2735349380189
 20
2049.418219773093
 10
844.2468998273579
 20
2049.364460207379
 10
844.2181362127055
 20
2049.311808763926
 10
844.1872901097092
 20
2049.26034967381
 10
844.1544108655536
 20
2049.210165260599
 10
844.1195510800154
 20
2049.161335808648
 10
844.0827665213156
 20
2049.113939434664
 10
844.0441160369005
 20
2049.068051962734
 10
844.0036614593005
 20
2049.023746803026
 10
843.977067614969
 20
2048.996468798912
  0
LWPOLYLINE
  5
E1
330
87
100
AcDbEntity
  8
P-SANR-FIXT
100
AcDbPolyline
 90
       21
 70
   128
 43
0.0
 10
787.3557472714095
 20
2048.996468798912
 10
787.3141805923482
 20
2049.039732307986
 10
787.2743772411189
 20
2049.084623434687
 10
787.2364008945928
 20
2049.13107036279
 10
787.2003123068233
 20
2049.178998787116
 10
787.1661692118521
 20
2049.228332032411
 10
787.1340262313477
 20
2049.278991176008
 10
787.1039347872223
 20
2049.330895174081
 10
787.0759430193673
 20
2049.383960991308
 10
787.0500957086398
 20
2049.438103733701
 10
787.0264342052232
 20
2049.49323678442
 10
787.0049963624755
 20
2049.549271942348
 10
786.9858164763721
 20
2049.606119563183
 10
786.9689252306393
 20
2049.66368870286
 10
786.9543496476666
 20
2049.721887263037
 10
786.9421130452779
 20
2049.780622138431
 10
786.9322349994264
 20
2049.839799365772
 10
786.9247313128782
 20
2049.899324274119
 10
786.9196139899315
 20
2049.959101636318
 10
786.9168912172108
 20
2050.019035821341
 10
786.9164074431893
 20
2050.057128970692
  0
LINE
  5
E2
330
87
100
AcDbEntity
  8
P-SANR-FIXT
100
AcDbLine
 10
787.3557472714095
 20
2048.996468798912
 30
0.0
 11
787.9749996263301
 21
2048.377216443991
 31
0.0
  0
LINE
  5
E3
330
87
100
AcDbEntity
  8
P-SANR-FIXT
100
AcDbLine
 10
843.3578152600484
 20
2048.377216443991
 30
0.0
 11
843.977067614969
 21
2048.996468798912
 31
0.0
  0
LWPOLYLINE
  5
E4
330
87
100
AcDbEntity
  8
P-SANR-FIXT
100
AcDbPolyline
 90
       21
 70
   128
 43
0.0
 10
843.3578152600484
 20
2048.377216443991
 10
843.3162485809869
 20
2048.333952934917
 10
843.2764452297575
 20
2048.289061808215
 10
843.2384688832316
 20
2048.242614880113
 10
843.2023802954621
 20
2048.194686455787
 10
843.1682372004908
 20
2048.145353210491
 10
843.1360942199866
 20
2048.094694066895
 10
843.1060027758611
 20
2048.042790068822
 10
843.0780110080061
 20
2047.989724251595
 10
843.0521636972786
 20
2047.935581509203
 10
843.0285021938621
 20
2047.880448458483
 10
843.0070643511143
 20
2047.824413300556
 10
842.987884465011
 20
2047.76756567972
 10
842.970993219278
 20
2047.709996540043
 10
842.9564176363056
 20
2047.651797979867
 10
842.9441810339167
 20
2047.593063104472
 10
842.934302988065
 20
2047.533885877131
 10
842.9267993015171
 20
2047.474360968784
 10
842.9216819785702
 20
2047.414583606585
 10
842.9189592058497
 20
2047.354649421562
 10
842.9184754318281
 20
2047.316556272211
  0
LWPOLYLINE
  5
E5
330
87
100
AcDbEntity
  8
P-SANR-FIXT
100
AcDbPolyline
 90
       21
 70
   128
 43
0.0
 10
788.4143394545502
 20
2047.316556272211
 10
788.4131396145416
 20
2047.376540273491
 10
788.4095420140043
 20
2047.436428313165
 10
788.4035524083311
 20
2047.496124583145
 10
788.3951803796136
 20
2047.555533582133
 10
788.3844393213121
 20
2047.614560268404
 10
788.3713464168282
 20
2047.673110211852
 10
788.3559226120163
 20
2047.731089745058
 10
788.3381925816739
 20
2047.788406113136
 10
788.3181846900671
 20
2047.844967622124
 10
788.2959309455547
 20
2047.900683785675
 10
788.2714669493801
 20
2047.95546546981
 10
788.2448318387191
 20
2048.009225035523
 10
788.2160682240668
 20
2048.061876478977
 10
788.1852221210704
 20
2048.113335569093
 10
788.1523428769147
 20
2048.163519982304
 10
788.1174830913766
 20
2048.212349434255
 10
788.0806985326767
 20
2048.259745808239
 10
788.0420480482617
 20
2048.305633280168
 10
788.0015934706616
 20
2048.349938439877
 10
787.9749996263301
 20
2048.377216443991
  0
LINE
  5
E6
330
87
100
AcDbEntity
  8
P-SANR-FIXT
100
AcDbLine
 10
788.4143394545502
 20
2047.316556272211
 30
0.0
 11
788.4143394545502
 21
2015.499999999996
 31
0.0
  0
LINE
  5
E7
330
87
100
AcDbEntity
  8
P-SANR-FIXT
100
AcDbLine
 10
788.4143394545503
 20
1984.499999999995
 30
0.0
 11
788.4143394545503
 21
1983.999999999996
 31
0.0
  0
LINE
  5
E8
330
87
100
AcDbEntity
  8
P-SANR-FIXT
100
AcDbLine
 10
842.9184754318283
 20
1983.999999999996
 30
0.0
 11
842.9184754318283
 21
1984.499999999996
 31
0.0
  0
LINE
  5
E9
330
87
100
AcDbEntity
  8
P-SANR-FIXT
100
AcDbLine
 10
842.9184754318281
 20
2015.499999999995
 30
0.0
 11
842.9184754318281
 21
2047.316556272211
 31
0.0
  0
LWPOLYLINE
  5
EA
330
87
100
AcDbEntity
  8
P-SANR-FIXT
100
AcDbPolyline
 90
       80
 70
   128
 43
0.0
 10
791.4143394545503
 20
1980.999999999995
 10
791.4337385221921
 20
1980.999999999995
 10
791.4919046907469
 20
1980.999999999995
 10
791.5887449067534
 20
1980.999999999995
 10
791.7241042465242
 20
1980.999999999995
 10
791.8977661639909
 20
1980.999999999995
 10
792.1094528371311
 20
1980.999999999995
 10
792.3588256124253
 20
1980.999999999995
 10
792.6454855466298
 20
1980.999999999995
 10
792.9689740450009
 20
1980.999999999995
 10
793.328773594948
 20
1980.999999999995
 10
793.7243085939447
 20
1980.999999999995
 10
794.1549462703687
 20
1980.999999999995
 10
794.6199976958021
 20
1980.999999999995
 10
795.1187188871703
 20
1980.999999999995
 10
795.6503119969546
 20
1980.999999999995
 10
796.2139265895808
 20
1980.999999999995
 10
796.808661001931
 20
1980.999999999995
 10
797.433563785816
 20
1980.999999999995
 10
798.087635230087
 20
1980.999999999995
 10
798.769828959961
 20
1980.999999999995
 10
799.479053610997
 20
1980.999999999995
 10
800.2141745750462
 20
1980.999999999995
 10
800.9740158153842
 20
1980.999999999995
 10
801.757361748117
 20
1980.999999999995
 10
802.562959186857
 20
1980.999999999995
 10
803.3895193475537
 20
1980.999999999995
 10
804.2357199102738
 20
1980.999999999995
 10
805.1002071346299
 20
1980.999999999995
 10
805.9815980254773
 20
1980.999999999995
 10
806.8784825454105
 20
1980.999999999995
 10
807.7894258705228
 20
1980.999999999995
 10
808.7129706858183
 20
1980.999999999995
 10
809.647639516605
 20
1980.999999999995
 10
810.5919370921386
 20
1980.999999999995
 10
811.5443527377379
 20
1980.999999999995
 10
812.5033627915414
 20
1980.999999999995
 10
813.4674330420406
 20
1980.999999999995
 10
814.4350211824921
 20
1980.999999999995
 10
815.404579278279
 20
1980.999999999995
 10
816.374556243276
 20
1980.999999999995
 10
817.3434003212566
 20
1980.999999999995
 10
818.3095615683718
 20
1980.999999999995
 10
819.2714943327294
 20
1980.999999999995
 10
820.227659727108
 20
1980.999999999995
 10
821.1765280908473
 20
1980.999999999995
 10
822.1165814369804
 20
1980.999999999995
 10
823.046315880687
 20
1980.999999999995
 10
823.9642440451902
 20
1980.999999999995
 10
824.8688974412408
 20
1980.999999999995
 10
825.7588288163876
 20
1980.999999999995
 10
826.6326144702727
 20
1980.999999999995
 10
827.4888565322468
 20
1980.999999999995
 10
828.3261851976668
 20
1980.999999999995
 10
829.1432609192879
 20
1980.999999999995
 10
829.938776550256
 20
1980.999999999995
 10
830.7114594352626
 20
1980.999999999995
 10
831.4600734465217
 20
1980.999999999995
 10
832.1834209613113
 20
1980.999999999995
 10
832.8803447779135
 20
1980.999999999995
 10
833.5497299668906
 20
1980.999999999995
 10
834.1905056547355
 20
1980.999999999995
 10
834.8016467370388
 20
1980.999999999995
 10
835.3821755184386
 20
1980.999999999995
 10
835.9311632767239
 20
1980.999999999995
 10
836.4477317485931
 20
1980.999999999995
 10
836.9310545346866
 20
1980.999999999995
 10
837.3803584216494
 20
1980.999999999995
 10
837.7949246191093
 20
1980.999999999995
 10
838.1740899095865
 20
1980.999999999995
 10
838.5172477095
 20
1980.999999999995
 10
838.8238490395735
 20
1980.999999999995
 10
839.0934034030838
 20
1980.999999999995
 10
839.3254795705505
 20
1980.999999999995
 10
839.5197062696132
 20
1980.999999999995
 10
839.6757727789857
 20
1980.999999999995
 10
839.793429425546
 20
1980.999999999995
 10
839.8724879837576
 20
1980.999999999995
 10
839.9128219767931
 20
1980.999999999995
 10
839.9184754318284
 20
1980.999999999995
  0
LWPOLYLINE
  5
EB
330
87
100
AcDbEntity
  8
P-SANR-FIXT
100
AcDbPolyline
 90
       41
 70
   128
 43
0.0
 10
842.9184754318281
 20
1983.999999999996
 10
842.9160757518111
 20
1983.880031997436
 10
842.908880550736
 20
1983.760255918088
 10
842.8969013393897
 20
1983.640863378129
 10
842.8801572819551
 20
1983.522045380153
 10
842.858675165352
 20
1983.403992007611
 10
842.8324893563843
 20
1983.286892120714
 10
842.8016417467604
 20
1983.170933054303
 10
842.7661816860757
 20
1983.056300318148
 10
842.7261659028621
 20
1982.943177300171
 10
842.681658413837
 20
1982.83174497307
 10
842.6327304214881
 20
1982.722181604798
 10
842.579460200166
 20
1982.614662473372
 10
842.521932970861
 20
1982.509359586465
 10
842.4602407648686
 20
1982.406441406233
 10
842.3944822765573
 20
1982.306072579811
 10
842.3247627054811
 20
1982.208413675909
 10
842.2511935880811
 20
1982.113620927941
 10
842.173892619251
 20
1982.021845984082
 10
842.0929834640512
 20
1981.933235664664
 10
842.0085955598699
 20
1981.847931727297
 10
841.9208639093522
 20
1981.766070640083
 10
841.829928864424
 20
1981.687783363299
 10
841.7359359017586
 20
1981.613195139887
 10
841.6390353900455
 20
1981.542425295093
 10
841.5393823494328
 20
1981.475587045572
 10
841.4371362035266
 20
1981.412787318266
 10
841.3324605243495
 20
1981.354126579341
 10
841.2255227706584
 20
1981.299698673466
 10
841.1164940200469
 20
1981.24959067368
 10
841.0055486952582
 20
1981.203882742094
 10
840.8928642851446
 20
1981.162648001647
 10
840.7786210607241
 20
1981.125952419128
 10
840.6630017867854
 20
1981.093854699641
 10
840.5461914295026
 20
1981.06640619269
 10
840.428376860529
 20
1981.04365081003
 10
840.3097465580428
 20
1981.025624955421
 10
840.190490305221
 20
1981.012357466383
 10
840.0707988866288
 20
1981.003869568069
 10
839.9508637830031
 20
1981.000174839306
 10
839.9184754318284
 20
1980.999999999995
  0
LWPOLYLINE
  5
EC
330
87
100
AcDbEntity
  8
P-SANR-FIXT
100
AcDbPolyline
 90
       41
 70
   128
 43
0.0
 10
791.3907877943646
 20
1981.000471096014
 10
791.2943714519903
 20
1981.002399680013
 10
791.1745953726429
 20
1981.009594881088
 10
791.0552028326836
 20
1981.021574092434
 10
790.9363848347075
 20
1981.038318149869
 10
790.8183314621652
 20
1981.059800266472
 10
790.701231575269
 20
1981.08598607544
 10
790.5852725088579
 20
1981.116833685063
 10
790.4706397727019
 20
1981.152293745748
 10
790.3575167547251
 20
1981.192309528962
 10
790.2460844276244
 20
1981.236817017987
 10
790.1365210593523
 20
1981.285745010336
 10
790.029001927926
 20
1981.339015231658
 10
789.9236990410192
 20
1981.396542460963
 10
789.8207808607877
 20
1981.458234666955
 10
789.7204120343652
 20
1981.523993155267
 10
789.6227531304632
 20
1981.593712726343
 10
789.527960382495
 20
1981.667281843743
 10
789.436185438636
 20
1981.744582812573
 10
789.3475751192187
 20
1981.825491967773
 10
789.2622711818518
 20
1981.909879871954
 10
789.1804100946379
 20
1981.997611522472
 10
789.1021228178535
 20
1982.0885465674
 10
789.0275345944411
 20
1982.182539530066
 10
788.9567647496472
 20
1982.279440041779
 10
788.8899265001267
 20
1982.379093082391
 10
788.8271267728204
 20
1982.481339228297
 10
788.7684660338956
 20
1982.586014907474
 10
788.714038128021
 20
1982.692952661166
 10
788.6639301282349
 20
1982.801981411777
 10
788.6182221966487
 20
1982.912926736566
 10
788.5769874562016
 20
1983.025611146679
 10
788.5402918736827
 20
1983.1398543711
 10
788.5081941541955
 20
1983.255473645039
 10
788.4807456472445
 20
1983.372284002322
 10
788.457990264585
 20
1983.490098571295
 10
788.4399644099752
 20
1983.608728873781
 10
788.4266969209374
 20
1983.727985126603
 10
788.4182090226236
 20
1983.847676545195
 10
788.4145142938605
 20
1983.967611648821
 10
788.4143394545503
 20
1983.999999999996
  0
LWPOLYLINE
  5
ED
330
87
100
AcDbEntity
  8
P-SANR-FIXT
100
AcDbPolyline
 90
        4
 70
   128
 43
0.0
 10
839.9184754318284
 20
1980.999999999995
 10
839.8990763641865
 20
1980.999999999995
 10
839.8409101956318
 20
1980.999999999995
 10
839.8106431133212
 20
1980.999999999995
  0
LWPOLYLINE
  5
EE
330
87
100
AcDbEntity
  8
P-SANR-FIXT
100
AcDbPolyline
 90
        4
 70
   128
 43
0.0
 10
791.5222750260656
 20
1980.999999999995
 10
791.4603269026208
 20
1980.999999999995
 10
791.4199929095855
 20
1980.999999999995
 10
791.4143394545503
 20
1980.999999999995
  0
LINE
  5
EF
330
87
100
AcDbEntity
  8
P-SANR-FIXT
100
AcDbLine
 10
776.6664074431877
 20
2000.524164109114
 30
0.0
 11
776.6664074431877
 21
1999.475875195294
 31
0.0
  0
LINE
  5
F0
330
87
100
AcDbEntity
  8
P-SANR-FIXT
100
AcDbLine
 10
776.6664074431877
 20
1999.475875195294
 30
0.0
 11
776.6664074431877
 21
2000.524164109114
 31
0.0
  0
LINE
  5
F1
330
87
100
AcDbEntity
  8
P-SANR-FIXT
100
AcDbLine
 10
776.6664074431878
 20
2013.423393758654
 30
0.0
 11
776.6664074431878
 21
2015.499999999995
 31
0.0
  0
SPLINE
  5
F2
330
87
100
AcDbEntity
  8
P-SANR-FIXT
100
AcDbSpline
210
0.0
220
0.0
230
1.0
 70
     8
 71
     3
 72
     9
 73
     5
 74
     0
 42
0.000000001
 43
0.0000000001
 40
-1.0
 40
-1.0
 40
-1.0
 40
-1.0
 40
-0.5
 40
0.0
 40
0.0
 40
0.0
 40
0.0
 10
776.6664074431877
 20
2013.423393758654
 30
0.0
 10
776.7297934064838
 20
2014.083067780773
 30
0.0
 10
777.256241656711
 20
2015.345398303296
 30
0.0
 10
778.5820425542079
 20
2016.493693782389
 30
0.0
 10
779.4447811647737
 20
2017.039332761078
 30
0.0
  0
SPLINE
  5
F3
330
87
100
AcDbEntity
  8
P-SANR-FIXT
100
AcDbSpline
210
0.0
220
0.0
230
1.0
 70
     8
 71
     3
 72
     9
 73
     5
 74
     0
 42
0.000000001
 43
0.0000000001
 40
-1.0
 40
-1.0
 40
-1.0
 40
-1.0
 40
-0.5
 40
0.0
 40
0.0
 40
0.0
 40
0.0
 10
779.4447811647737
 20
1982.960667238912
 30
0.0
 10
778.5820425542079
 20
1983.506306217601
 30
0.0
 10
777.256241656711
 20
1984.654601696694
 30
0.0
 10
776.7297934064838
 20
1985.916932219217
 30
0.0
 10
776.6664074431877
 20
1986.576606241336
 30
0.0
  0
LINE
  5
F4
330
87
100
AcDbEntity
  8
P-SANR-FIXT
100
AcDbLine
 10
776.6664074431877
 20
1984.499999999995
 30
0.0
 11
776.6664074431877
 21
1986.576606241336
 31
0.0
  0
SPLINE
  5
F5
330
87
100
AcDbEntity
  8
P-SANR-FIXT
100
AcDbSpline
210
0.0
220
0.0
230
1.0
 70
     8
 71
     3
 72
     9
 73
     5
 74
     0
 42
0.000000001
 43
0.0000000001
 40
-1.0
 40
-1.0
 40
-1.0
 40
-1.0
 40
-0.5
 40
0.0
 40
0.0
 40
0.0
 40
0.0
 10
779.4447811647737
 20
2009.807454756229
 30
0.0
 10
778.5820425542079
 20
2010.353093734918
 30
0.0
 10
777.256241656711
 20
2011.501389214012
 30
0.0
 10
776.7297934064838
 20
2012.763719736535
 30
0.0
 10
776.6664074431877
 20
2013.423393758654
 30
0.0
  0
LINE
  5
F6
330
87
100
AcDbEntity
  8
P-SANR-FIXT
100
AcDbLine
 10
776.6664074431877
 20
1999.999999999994
 30
0.0
 11
776.6664074431877
 21
2013.423393758654
 31
0.0
  0
SPLINE
  5
F7
330
87
100
AcDbEntity
  8
P-SANR-FIXT
100
AcDbSpline
210
0.0
220
0.0
230
1.0
 70
     8
 71
     3
 72
     9
 73
     5
 74
     0
 42
0.000000001
 43
0.0000000001
 40
-1.0
 40
-1.0
 40
-1.0
 40
-1.0
 40
-0.5
 40
0.0
 40
0.0
 40
0.0
 40
0.0
 10
776.6664074431878
 20
1999.999999999994
 30
0.0
 10
776.7450135799879
 20
2001.356119808959
 30
0.0
 10
777.2866820037188
 20
2003.917552618732
 30
0.0
 10
778.5972627277118
 20
2006.177371812192
 30
0.0
 10
779.4447811647737
 20
2007.231878004844
 30
0.0
  0
SPLINE
  5
F8
330
87
100
AcDbEntity
  8
P-SANR-FIXT
100
AcDbSpline
210
0.0
220
0.0
230
1.0
 70
     8
 71
     3
 72
     9
 73
     5
 74
     0
 42
0.000000001
 43
0.0000000001
 40
-1.0
 40
-1.0
 40
-1.0
 40
-1.0
 40
-0.5
 40
0.0
 40
0.0
 40
0.0
 40
0.0
 10
779.4447811647737
 20
1992.768121995146
 30
0.0
 10
778.5972627277119
 20
1993.822628187798
 30
0.0
 10
777.2866820037189
 20
1996.082447381258
 30
0.0
 10
776.7450135799879
 20
1998.64388019103
 30
0.0
 10
776.6664074431878
 20
1999.999999999994
 30
0.0
  0
LINE
  5
F9
330
87
100
AcDbEntity
  8
P-SANR-FIXT
100
AcDbLine
 10
776.6664074431878
 20
1986.576606241336
 30
0.0
 11
776.6664074431878
 21
1999.999999999994
 31
0.0
  0
SPLINE
  5
FA
330
87
100
AcDbEntity
  8
P-SANR-FIXT
100
AcDbSpline
210
0.0
220
0.0
230
1.0
 70
     8
 71
     3
 72
     9
 73
     5
 74
     0
 42
0.000000001
 43
0.0000000001
 40
-1.0
 40
-1.0
 40
-1.0
 40
-1.0
 40
-0.5
 40
0.0
 40
0.0
 40
0.0
 40
0.0
 10
776.6664074431877
 20
1986.576606241336
 30
0.0
 10
776.7297934064838
 20
1987.236280263455
 30
0.0
 10
777.256241656711
 20
1988.498610785978
 30
0.0
 10
778.5820425542079
 20
1989.646906265071
 30
0.0
 10
779.4447811647737
 20
1990.19254524376
 30
0.0
  0
LINE
  5
FB
330
87
100
AcDbEntity
  8
P-SANR-FIXT
100
AcDbLine
 10
776.6664074431877
 20
2013.774181557564
 30
0.0
 11
776.6664074431877
 21
2013.423393758654
 31
0.0
  0
LINE
  5
FC
330
87
100
AcDbEntity
  8
P-SANR-FIXT
100
AcDbLine
 10
776.6664074431878
 20
1986.576606241336
 30
0.0
 11
776.6664074431878
 21
1986.22640935026
 31
0.0
  0
LINE
  5
FD
330
87
100
AcDbEntity
  8
P-SANR-FIXT
100
AcDbLine
 10
776.6664074431877
 20
1986.821485595539
 30
0.0
 11
776.6664074431877
 21
1986.576606241336
 31
0.0
  0
LINE
  5
FE
330
87
100
AcDbEntity
  8
P-SANR-FIXT
100
AcDbLine
 10
776.6664074431878
 20
2013.423393758654
 30
0.0
 11
776.6664074431878
 21
2013.162115294345
 31
0.0
  0
LINE
  5
FF
330
87
100
AcDbEntity
  8
P-SANR-FIXT
100
AcDbLine
 10
779.4447811647737
 20
2007.231878004844
 30
0.0
 11
779.4447811647737
 21
2009.807454756229
 31
0.0
  0
LINE
  5
100
330
87
100
AcDbEntity
  8
P-SANR-FIXT
100
AcDbLine
 10
779.4447811647737
 20
2007.231878004844
 30
0.0
 11
783.1664074431877
 21
2007.231878004844
 31
0.0
  0
LINE
  5
101
330
87
100
AcDbEntity
  8
P-SANR-FIXT
100
AcDbLine
 10
783.1664074431877
 20
2009.807454756229
 30
0.0
 11
779.4447811647737
 21
2009.807454756229
 31
0.0
  0
LINE
  5
102
330
87
100
AcDbEntity
  8
P-SANR-FIXT
100
AcDbLine
 10
779.4447811647737
 20
1990.19254524376
 30
0.0
 11
779.4447811647737
 21
1992.768121995146
 31
0.0
  0
LINE
  5
103
330
87
100
AcDbEntity
  8
P-SANR-FIXT
100
AcDbLine
 10
779.4447811647737
 20
1990.19254524376
 30
0.0
 11
783.1664074431877
 21
1990.19254524376
 31
0.0
  0
LINE
  5
104
330
87
100
AcDbEntity
  8
P-SANR-FIXT
100
AcDbLine
 10
783.1664074431877
 20
1992.768121995146
 30
0.0
 11
779.4447811647737
 21
1992.768121995146
 31
0.0
  0
LINE
  5
105
330
87
100
AcDbEntity
  8
P-SANR-FIXT
100
AcDbLine
 10
779.4447811647736
 20
2017.039332761078
 30
0.0
 11
779.4447811647736
 21
2017.104094816062
 31
0.0
  0
LINE
  5
106
330
87
100
AcDbEntity
  8
P-SANR-FIXT
100
AcDbLine
 10
779.4447811647737
 20
2017.039332761078
 30
0.0
 11
783.1664074431877
 21
2017.039332761078
 31
0.0
  0
LINE
  5
107
330
87
100
AcDbEntity
  8
P-SANR-FIXT
100
AcDbLine
 10
783.1664074431877
 20
1982.960667238912
 30
0.0
 11
779.4447811647737
 21
1982.960667238912
 31
0.0
  0
LINE
  5
108
330
87
100
AcDbEntity
  8
P-SANR-FIXT
100
AcDbLine
 10
779.4447811647737
 20
1982.895905183928
 30
0.0
 11
779.4447811647737
 21
1982.960667238912
 31
0.0
  0
LINE
  5
109
330
87
100
AcDbEntity
  8
P-SANR-FIXT
100
AcDbLine
 10
783.1664074431879
 20
2017.039332761078
 30
0.0
 11
783.1664074431879
 21
2017.104094816062
 31
0.0
  0
SPLINE
  5
10A
330
87
100
AcDbEntity
  8
P-SANR-FIXT
100
AcDbSpline
210
0.0
220
0.0
230
1.0
 70
     8
 71
     3
 72
    11
 73
     7
 74
     0
 42
0.000000001
 43
0.0000000001
 40
-1.0
 40
-1.0
 40
-1.0
 40
-1.0
 40
-0.875
 40
-0.75
 40
-0.625
 40
-0.5
 40
-0.5
 40
-0.5
 40
-0.5
 10
783.1664074431877
 20
2017.039332761078
 30
0.0
 10
783.5927263051615
 20
2016.772493467852
 30
0.0
 10
784.3505176912424
 20
2016.220145648699
 30
0.0
 10
785.1797378452249
 20
2015.349045270616
 30
0.0
 10
785.770274808685
 20
2014.395079096924
 30
0.0
 10
785.9431114793732
 20
2013.746983756762
 30
0.0
 10
785.9447805806358
 20
2013.425010454199
 30
0.0
  0
SPLINE
  5
10B
330
87
100
AcDbEntity
  8
P-SANR-FIXT
100
AcDbSpline
210
0.0
220
0.0
230
1.0
 70
     8
 71
     3
 72
    11
 73
     7
 74
     0
 42
0.000000001
 43
0.0000000001
 40
-0.4997879730818959
 40
-0.4997879730818959
 40
-0.4997879730818959
 40
-0.4997879730818959
 40
-0.375
 40
-0.25
 40
-0.125
 40
0.0
 40
0.0
 40
0.0
 40
0.0
 10
785.9447883427354
 20
2013.423372063937
 30
0.0
 10
785.9461676781441
 20
2013.101951924091
 30
0.0
 10
785.7799596477652
 20
2012.462705412565
 30
0.0
 10
785.1970465567445
 20
2011.519015449617
 30
0.0
 10
784.3630556645072
 20
2010.641155413157
 30
0.0
 10
783.597825606657
 20
2010.080198890054
 30
0.0
 10
783.1664074431877
 20
2009.807454756229
 30
0.0
  0
LINE
  5
10C
330
87
100
AcDbEntity
  8
P-SANR-FIXT
100
AcDbLine
 10
783.1664074431877
 20
2007.231878004844
 30
0.0
 11
783.1664074431877
 21
2009.807454756229
 31
0.0
  0
SPLINE
  5
10D
330
87
100
AcDbEntity
  8
P-SANR-FIXT
100
AcDbSpline
210
0.0
220
0.0
230
1.0
 70
     8
 71
     3
 72
     9
 73
     5
 74
     0
 42
0.000000001
 43
0.0000000001
 40
-1.0
 40
-1.0
 40
-1.0
 40
-1.0
 40
-0.5
 40
0.0
 40
0.0
 40
0.0
 40
0.0
 10
783.1664074431877
 20
2007.231878004844
 30
0.0
 10
784.0291460537536
 20
2006.140600047465
 30
0.0
 10
785.3549469512507
 20
2003.844009089279
 30
0.0
 10
785.8813952014776
 20
2001.319348044233
 30
0.0
 10
785.9447811647736
 20
1999.999999999994
 30
0.0
  0
SPLINE
  5
10E
330
87
100
AcDbEntity
  8
P-SANR-FIXT
100
AcDbSpline
210
0.0
220
0.0
230
1.0
 70
     8
 71
     3
 72
     9
 73
     5
 74
     0
 42
0.000000001
 43
0.0000000001
 40
-1.0
 40
-1.0
 40
-1.0
 40
-1.0
 40
-0.5
 40
0.0
 40
0.0
 40
0.0
 40
0.0
 10
785.9447811647736
 20
1999.999999999994
 30
0.0
 10
785.8813952014775
 20
1998.680651955757
 30
0.0
 10
785.3549469512504
 20
1996.15599091071
 30
0.0
 10
784.0291460537536
 20
1993.859399952524
 30
0.0
 10
783.1664074431877
 20
1992.768121995146
 30
0.0
  0
LINE
  5
10F
330
87
100
AcDbEntity
  8
P-SANR-FIXT
100
AcDbLine
 10
783.1664074431877
 20
1990.19254524376
 30
0.0
 11
783.1664074431877
 21
1992.768121995146
 31
0.0
  0
SPLINE
  5
110
330
87
100
AcDbEntity
  8
P-SANR-FIXT
100
AcDbSpline
210
0.0
220
0.0
230
1.0
 70
     8
 71
     3
 72
    15
 73
    11
 74
     0
 42
0.000000001
 43
0.0000000001
 40
-1.0
 40
-1.0
 40
-1.0
 40
-1.0
 40
-0.875
 40
-0.75
 40
-0.625
 40
-0.5
 40
-0.375
 40
-0.25
 40
-0.125
 40
0.0
 40
0.0
 40
0.0
 40
0.0
 10
783.1664074431877
 20
1990.19254524376
 30
0.0
 10
783.5927263051615
 20
1989.925705950535
 30
0.0
 10
784.3505176912424
 20
1989.373358131382
 30
0.0
 10
785.1797378452249
 20
1988.502257753298
 30
0.0
 10
785.770274808685
 20
1987.548291579606
 30
0.0
 10
786.0295298147174
 20
1986.576148569363
 30
0.0
 10
785.7802894162611
 20
1985.616451764231
 30
0.0
 10
785.1970465567445
 20
1984.6722279323
 30
0.0
 10
784.3630556645072
 20
1983.794367895839
 30
0.0
 10
783.597825606657
 20
1983.233411372736
 30
0.0
 10
783.1664074431877
 20
1982.960667238912
 30
0.0
  0
LINE
  5
111
330
87
100
AcDbEntity
  8
P-SANR-FIXT
100
AcDbLine
 10
783.1664074431877
 20
1982.895905183928
 30
0.0
 11
783.1664074431877
 21
1982.960667238912
 31
0.0
  0
LINE
  5
112
330
87
100
AcDbEntity
  8
P-SANR-FIXT
100
AcDbLine
 10
785.9447811647736
 20
1984.499999999995
 30
0.0
 11
785.9447811647736
 21
1986.241585883751
 31
0.0
  0
LINE
  5
113
330
87
100
AcDbEntity
  8
P-SANR-FIXT
100
AcDbLine
 10
785.9447811647736
 20
1986.254096330394
 30
0.0
 11
785.9447811647736
 21
1986.885406515238
 31
0.0
  0
LINE
  5
114
330
87
100
AcDbEntity
  8
P-SANR-FIXT
100
AcDbLine
 10
785.9447811647736
 20
1986.904769738624
 30
0.0
 11
785.9447811647736
 21
1999.999999999994
 31
0.0
  0
SPLINE
  5
115
330
87
100
AcDbEntity
  8
P-SANR-FIXT
100
AcDbSpline
210
0.0
220
0.0
230
1.0
 70
     8
 71
     3
 72
    49
 73
    45
 74
     0
 42
0.000000001
 43
0.0000000001
 40
0.0
 40
0.0
 40
0.0
 40
0.0
 40
0.0555555555555556
 40
0.0833333333333333
 40
0.1111111111111111
 40
0.1388888888888889
 40
0.1666666666666666
 40
0.1944444444444444
 40
0.2083333333333333
 40
0.2222222222222222
 40
0.2361111111111111
 40
0.25
 40
0.2777777777777778
 40
0.3055555555555556
 40
0.3194444444444444
 40
0.3333333333333333
 40
0.3472222222222222
 40
0.3611111111111111
 40
0.3888888888888888
 40
0.4166666666666666
 40
0.4444444444444445
 40
0.4722222222222223
 40
0.5
 40
0.5277777777777778
 40
0.5555555555555556
 40
0.5833333333333334
 40
0.6111111111111112
 40
0.6388888888888889
 40
0.6527777777777777
 40
0.6666666666666666
 40
0.6805555555555556
 40
0.6944444444444445
 40
0.7222222222222223
 40
0.75
 40
0.7638888888888889
 40
0.7777777777777778
 40
0.7916666666666668
 40
0.8055555555555555
 40
0.8333333333333332
 40
0.861111111111111
 40
0.8888888888888889
 40
0.9166666666666666
 40
0.9444444444444444
 40
1.0
 40
1.0
 40
1.0
 40
1.0
 10
788.4143394545492
 20
1984.499999999995
 30
0.0
 10
788.4354023652381
 20
1984.499999999995
 30
0.0
 10
788.5180344365591
 20
1984.625770734447
 30
0.0
 10
788.7330923225639
 20
1985.031193876861
 30
0.0
 10
788.9412138718515
 20
1985.449534126305
 30
0.0
 10
789.2186145986077
 20
1985.975634036077
 30
0.0
 10
789.561372542516
 20
1986.602870528479
 30
0.0
 10
789.8735354395081
 20
1987.20606038118
 30
0.0
 10
790.1279154230912
 20
1987.734477456411
 30
0.0
 10
790.3144167451223
 20
1988.153623203764
 30
0.0
 10
790.5060274792349
 20
1988.593435918956
 30
0.0
 10
790.7796110459323
 20
1989.204647244607
 30
0.0
 10
791.1374021738162
 20
1990.015353509512
 30
0.0
 10
791.4896796835939
 20
1990.88713387141
 30
0.0
 10
791.7523807610693
 20
1991.621212650579
 30
0.0
 10
791.9323043369153
 20
1992.190582081286
 30
0.0
 10
792.1047511852569
 20
1992.77740097838
 30
0.0
 10
792.3378720240345
 20
1993.579755684011
 30
0.0
 10
792.6162311473712
 20
1994.618221014976
 30
0.0
 10
792.9019260344891
 20
1995.912623554447
 30
0.0
 10
793.0989748981755
 20
1997.243258867315
 30
0.0
 10
793.2024973367346
 20
1998.608783267965
 30
0.0
 10
793.2402281247743
 20
1999.9974917171
 30
0.0
 10
793.2028471560428
 20
2001.386336381963
 30
0.0
 10
793.0995639261952
 20
2002.752129683244
 30
0.0
 10
792.9025244041176
 20
2004.083554790661
 30
0.0
 10
792.6167225486397
 20
2005.379145399533
 30
0.0
 10
792.3382789089315
 20
2006.418439198088
 30
0.0
 10
792.1051547633866
 20
2007.221160762482
 30
0.0
 10
791.9327489456452
 20
2007.808072728094
 30
0.0
 10
791.7529403498479
 20
2008.377269989614
 30
0.0
 10
791.4904793798172
 20
2009.110836684653
 30
0.0
 10
791.1385947947493
 20
2009.981714498871
 30
0.0
 10
790.7811612636549
 20
2010.791714110937
 30
0.0
 10
790.507745461956
 20
2011.402720819635
 30
0.0
 10
790.3161767842142
 20
2011.842608414744
 30
0.0
 10
790.129611409415
 20
2012.262058334707
 30
0.0
 10
789.8750374659806
 20
2012.791054593178
 30
0.0
 10
789.562487800242
 20
2013.395146702371
 30
0.0
 10
789.2192079938996
 20
2014.023351085933
 30
0.0
 10
788.9414548855586
 20
2014.550013655595
 30
0.0
 10
788.7331788030873
 20
2014.968607963895
 30
0.0
 10
788.517971176278
 20
2015.374231836039
 30
0.0
 10
788.4353484985321
 20
2015.499999999995
 30
0.0
 10
788.4143394545491
 20
2015.499999999995
 30
0.0
  0
LINE
  5
116
330
87
100
AcDbEntity
  8
P-SANR-FIXT
100
AcDbLine
 10
785.9447811647736
 20
1999.999999999994
 30
0.0
 11
785.9447811647736
 21
2015.499999999995
 31
0.0
  0
SPLINE
  5
117
330
87
100
AcDbEntity
  8
P-SANR-FIXT
100
AcDbSpline
210
0.0
220
0.0
230
1.0
 70
     8
 71
     3
 72
    49
 73
    45
 74
     0
 42
0.000000001
 43
0.0000000001
 40
0.0
 40
0.0
 40
0.0
 40
0.0
 40
0.0555555555555556
 40
0.0833333333333333
 40
0.1111111111111111
 40
0.1388888888888889
 40
0.1666666666666666
 40
0.1944444444444444
 40
0.2083333333333333
 40
0.2222222222222222
 40
0.2361111111111111
 40
0.25
 40
0.2777777777777778
 40
0.3055555555555556
 40
0.3194444444444444
 40
0.3333333333333333
 40
0.3472222222222222
 40
0.3611111111111111
 40
0.3888888888888888
 40
0.4166666666666666
 40
0.4444444444444445
 40
0.4722222222222223
 40
0.5
 40
0.5277777777777778
 40
0.5555555555555556
 40
0.5833333333333334
 40
0.6111111111111112
 40
0.6388888888888889
 40
0.6527777777777777
 40
0.6666666666666666
 40
0.6805555555555556
 40
0.6944444444444445
 40
0.7222222222222223
 40
0.75
 40
0.7638888888888889
 40
0.7777777777777778
 40
0.7916666666666668
 40
0.8055555555555555
 40
0.8333333333333332
 40
0.861111111111111
 40
0.8888888888888889
 40
0.9166666666666666
 40
0.9444444444444444
 40
1.0
 40
1.0
 40
1.0
 40
1.0
 10
842.9184754318269
 20
2015.499999999995
 30
0.0
 10
842.8974125211379
 20
2015.499999999995
 30
0.0
 10
842.814780449817
 20
2015.374229265542
 30
0.0
 10
842.5997225638122
 20
2014.968806123129
 30
0.0
 10
842.3916010145244
 20
2014.550465873684
 30
0.0
 10
842.1142002877683
 20
2014.024365963912
 30
0.0
 10
841.7714423438601
 20
2013.397129471511
 30
0.0
 10
841.4592794468681
 20
2012.79393961881
 30
0.0
 10
841.2048994632851
 20
2012.265522543579
 30
0.0
 10
841.018398141254
 20
2011.846376796226
 30
0.0
 10
840.8267874071412
 20
2011.406564081034
 30
0.0
 10
840.5532038404439
 20
2010.795352755383
 30
0.0
 10
840.19541271256
 20
2009.984646490478
 30
0.0
 10
839.8431352027824
 20
2009.112866128579
 30
0.0
 10
839.580434125307
 20
2008.378787349411
 30
0.0
 10
839.400510549461
 20
2007.809417918703
 30
0.0
 10
839.2280637011193
 20
2007.22259902161
 30
0.0
 10
838.9949428623417
 20
2006.420244315979
 30
0.0
 10
838.716583739005
 20
2005.381778985014
 30
0.0
 10
838.4308888518871
 20
2004.087376445543
 30
0.0
 10
838.2338399882009
 20
2002.756741132674
 30
0.0
 10
838.1303175496418
 20
2001.391216732026
 30
0.0
 10
838.0925867616021
 20
2000.00250828289
 30
0.0
 10
838.1299677303337
 20
1998.613663618027
 30
0.0
 10
838.2332509601811
 20
1997.247870316746
 30
0.0
 10
838.4302904822586
 20
1995.91644520933
 30
0.0
 10
838.7160923377367
 20
1994.620854600458
 30
0.0
 10
838.9945359774447
 20
1993.581560801902
 30
0.0
 10
839.2276601229896
 20
1992.778839237508
 30
0.0
 10
839.4000659407311
 20
1992.191927271896
 30
0.0
 10
839.5798745365283
 20
1991.622730010376
 30
0.0
 10
839.842335506559
 20
1990.889163315337
 30
0.0
 10
840.1942200916268
 20
1990.018285501119
 30
0.0
 10
840.5516536227214
 20
1989.208285889053
 30
0.0
 10
840.82506942442
 20
1988.597279180355
 30
0.0
 10
841.0166381021621
 20
1988.157391585246
 30
0.0
 10
841.2032034769612
 20
1987.737941665283
 30
0.0
 10
841.4577774203955
 20
1987.208945406812
 30
0.0
 10
841.7703270861341
 20
1986.604853297619
 30
0.0
 10
842.1136068924765
 20
1985.976648914057
 30
0.0
 10
842.3913600008175
 20
1985.449986344395
 30
0.0
 10
842.5996360832886
 20
1985.031392036096
 30
0.0
 10
842.8148437100979
 20
1984.625768163951
 30
0.0
 10
842.897466387844
 20
1984.499999999995
 30
0.0
 10
842.9184754318269
 20
1984.499999999995
 30
0.0
  0
LINE
  5
118
330
87
100
AcDbEntity
  8
P-SANR-FIXT
100
AcDbLine
 10
845.3880337216018
 20
1999.999999999994
 30
0.0
 11
845.3880337216018
 21
2015.499999999995
 31
0.0
  0
SPLINE
  5
119
330
87
100
AcDbEntity
  8
P-SANR-FIXT
100
AcDbSpline
210
0.0
220
0.0
230
1.0
 70
     8
 71
     3
 72
     9
 73
     5
 74
     0
 42
0.000000001
 43
0.0000000001
 40
0.0
 40
0.0
 40
0.0
 40
0.0
 40
0.5
 40
1.0
 40
1.0
 40
1.0
 40
1.0
 10
848.1664074431872
 20
2007.231878004843
 30
0.0
 10
847.3188890061255
 20
2006.177371812191
 30
0.0
 10
846.0083082821329
 20
2003.917552618731
 30
0.0
 10
845.466639858402
 20
2001.356119808959
 30
0.0
 10
845.3880337216018
 20
1999.999999999994
 30
0.0
  0
SPLINE
  5
11A
330
87
100
AcDbEntity
  8
P-SANR-FIXT
100
AcDbSpline
210
0.0
220
0.0
230
1.0
 70
     8
 71
     3
 72
    11
 73
     7
 74
     0
 42
0.000000001
 43
0.0000000001
 40
0.0
 40
0.0
 40
0.0
 40
0.0
 40
0.125
 40
0.25
 40
0.375
 40
0.5
 40
0.5
 40
0.5
 40
0.5
 10
848.1664074431874
 20
2017.039332761078
 30
0.0
 10
847.7400885812135
 20
2016.772493467852
 30
0.0
 10
846.9822971951327
 20
2016.220145648699
 30
0.0
 10
846.1530770411503
 20
2015.349045270616
 30
0.0
 10
845.5625400776906
 20
2014.395079096924
 30
0.0
 10
845.3897034070022
 20
2013.746983756762
 30
0.0
 10
845.3880343057397
 20
2013.425010454199
 30
0.0
  0
SPLINE
  5
11B
330
87
100
AcDbEntity
  8
P-SANR-FIXT
100
AcDbSpline
210
0.0
220
0.0
230
1.0
 70
     8
 71
     3
 72
    11
 73
     7
 74
     0
 42
0.000000001
 43
0.0000000001
 40
0.5002120269181376
 40
0.5002120269181376
 40
0.5002120269181376
 40
0.5002120269181376
 40
0.625
 40
0.75
 40
0.875
 40
1.0
 40
1.0
 40
1.0
 40
1.0
 10
845.3880265436401
 20
2013.423372063937
 30
0.0
 10
845.3866472082317
 20
2013.101951924091
 30
0.0
 10
845.5528552386105
 20
2012.462705412565
 30
0.0
 10
846.1357683296309
 20
2011.519015449618
 30
0.0
 10
846.9697592218679
 20
2010.641155413157
 30
0.0
 10
847.734989279718
 20
2010.080198890054
 30
0.0
 10
848.1664074431874
 20
2009.80745475623
 30
0.0
  0
SPLINE
  5
11C
330
87
100
AcDbEntity
  8
P-SANR-FIXT
100
AcDbSpline
210
0.0
220
0.0
230
1.0
 70
     8
 71
     3
 72
    15
 73
    11
 74
     0
 42
0.000000001
 43
0.0000000001
 40
0.0
 40
0.0
 40
0.0
 40
0.0
 40
0.125
 40
0.25
 40
0.375
 40
0.5
 40
0.625
 40
0.75
 40
0.875
 40
1.0
 40
1.0
 40
1.0
 40
1.0
 10
848.1664074431874
 20
1990.19254524376
 30
0.0
 10
847.7400885812135
 20
1989.925705950534
 30
0.0
 10
846.9822971951327
 20
1989.373358131381
 30
0.0
 10
846.1530770411503
 20
1988.502257753298
 30
0.0
 10
845.5625400776906
 20
1987.548291579606
 30
0.0
 10
845.3032850716581
 20
1986.576148569363
 30
0.0
 10
845.5525254701143
 20
1985.616451764231
 30
0.0
 10
846.1357683296309
 20
1984.6722279323
 30
0.0
 10
846.9697592218679
 20
1983.794367895839
 30
0.0
 10
847.734989279718
 20
1983.233411372737
 30
0.0
 10
848.1664074431874
 20
1982.960667238912
 30
0.0
  0
SPLINE
  5
11D
330
87
100
AcDbEntity
  8
P-SANR-FIXT
100
AcDbSpline
210
0.0
220
0.0
230
1.0
 70
     8
 71
     3
 72
     9
 73
     5
 74
     0
 42
0.000000001
 43
0.0000000001
 40
0.0
 40
0.0
 40
0.0
 40
0.0
 40
0.5
 40
1.0
 40
1.0
 40
1.0
 40
1.0
 10
845.3880337216018
 20
1999.999999999994
 30
0.0
 10
845.466639858402
 20
1998.64388019103
 30
0.0
 10
846.0083082821329
 20
1996.082447381258
 30
0.0
 10
847.3188890061255
 20
1993.822628187799
 30
0.0
 10
848.1664074431872
 20
1992.768121995147
 30
0.0
  0
LINE
  5
11E
330
87
100
AcDbEntity
  8
P-SANR-FIXT
100
AcDbLine
 10
845.3880337216018
 20
1984.499999999995
 30
0.0
 11
845.3880337216018
 21
1986.241585883751
 31
0.0
  0
LINE
  5
11F
330
87
100
AcDbEntity
  8
P-SANR-FIXT
100
AcDbLine
 10
845.3880337216018
 20
1986.254096330394
 30
0.0
 11
845.3880337216018
 21
1986.885406515238
 31
0.0
  0
LINE
  5
120
330
87
100
AcDbEntity
  8
P-SANR-FIXT
100
AcDbLine
 10
845.3880337216018
 20
1986.904769738624
 30
0.0
 11
845.3880337216018
 21
1999.999999999994
 31
0.0
  0
LINE
  5
121
330
87
100
AcDbEntity
  8
P-SANR-FIXT
100
AcDbLine
 10
848.1664074431874
 20
2007.231878004843
 30
0.0
 11
848.1664074431874
 21
2009.80745475623
 31
0.0
  0
LINE
  5
122
330
87
100
AcDbEntity
  8
P-SANR-FIXT
100
AcDbLine
 10
851.8880337216023
 20
2007.231878004843
 30
0.0
 11
848.1664074431872
 21
2007.231878004843
 31
0.0
  0
LINE
  5
123
330
87
100
AcDbEntity
  8
P-SANR-FIXT
100
AcDbLine
 10
848.1664074431874
 20
2009.80745475623
 30
0.0
 11
851.8880337216025
 21
2009.80745475623
 31
0.0
  0
LINE
  5
124
330
87
100
AcDbEntity
  8
P-SANR-FIXT
100
AcDbLine
 10
848.1664074431872
 20
1990.19254524376
 30
0.0
 11
848.1664074431872
 21
1992.768121995147
 31
0.0
  0
LINE
  5
125
330
87
100
AcDbEntity
  8
P-SANR-FIXT
100
AcDbLine
 10
851.8880337216025
 20
1990.19254524376
 30
0.0
 11
848.1664074431874
 21
1990.19254524376
 31
0.0
  0
LINE
  5
126
330
87
100
AcDbEntity
  8
P-SANR-FIXT
100
AcDbLine
 10
848.1664074431872
 20
1992.768121995147
 30
0.0
 11
851.8880337216025
 21
1992.768121995147
 31
0.0
  0
LINE
  5
127
330
87
100
AcDbEntity
  8
P-SANR-FIXT
100
AcDbLine
 10
848.1664074431877
 20
2017.039332761078
 30
0.0
 11
848.1664074431877
 21
2017.104094816062
 31
0.0
  0
LINE
  5
128
330
87
100
AcDbEntity
  8
P-SANR-FIXT
100
AcDbLine
 10
851.8880337216023
 20
2017.039332761078
 30
0.0
 11
848.1664074431874
 21
2017.039332761078
 31
0.0
  0
LINE
  5
129
330
87
100
AcDbEntity
  8
P-SANR-FIXT
100
AcDbLine
 10
848.1664074431874
 20
1982.960667238912
 30
0.0
 11
851.8880337216025
 21
1982.960667238912
 31
0.0
  0
LINE
  5
12A
330
87
100
AcDbEntity
  8
P-SANR-FIXT
100
AcDbLine
 10
848.1664074431874
 20
1982.895905183928
 30
0.0
 11
848.1664074431874
 21
1982.960667238912
 31
0.0
  0
LINE
  5
12B
330
87
100
AcDbEntity
  8
P-SANR-FIXT
100
AcDbLine
 10
851.8880337216023
 20
2007.231878004843
 30
0.0
 11
851.8880337216023
 21
2009.80745475623
 31
0.0
  0
SPLINE
  5
12C
330
87
100
AcDbEntity
  8
P-SANR-FIXT
100
AcDbSpline
210
0.0
220
0.0
230
1.0
 70
     8
 71
     3
 72
     9
 73
     5
 74
     0
 42
0.000000001
 43
0.0000000001
 40
0.0
 40
0.0
 40
0.0
 40
0.0
 40
0.5
 40
1.0
 40
1.0
 40
1.0
 40
1.0
 10
854.6664074431877
 20
1999.999999999994
 30
0.0
 10
854.6030214798916
 20
2001.319348044233
 30
0.0
 10
854.0765732296648
 20
2003.844009089278
 30
0.0
 10
852.7507723321681
 20
2006.140600047464
 30
0.0
 10
851.8880337216023
 20
2007.231878004843
 30
0.0
  0
SPLINE
  5
12D
330
87
100
AcDbEntity
  8
P-SANR-FIXT
100
AcDbSpline
210
0.0
220
0.0
230
1.0
 70
     8
 71
     3
 72
     9
 73
     5
 74
     0
 42
0.000000001
 43
0.0000000001
 40
0.0
 40
0.0
 40
0.0
 40
0.0
 40
0.5
 40
1.0
 40
1.0
 40
1.0
 40
1.0
 10
851.8880337216025
 20
2009.80745475623
 30
0.0
 10
852.7507723321681
 20
2010.353093734919
 30
0.0
 10
854.0765732296648
 20
2011.501389214013
 30
0.0
 10
854.6030214798916
 20
2012.763719736535
 30
0.0
 10
854.6664074431877
 20
2013.423393758654
 30
0.0
  0
LINE
  5
12E
330
87
100
AcDbEntity
  8
P-SANR-FIXT
100
AcDbLine
 10
851.8880337216023
 20
1990.19254524376
 30
0.0
 11
851.8880337216023
 21
1992.768121995147
 31
0.0
  0
SPLINE
  5
12F
330
87
100
AcDbEntity
  8
P-SANR-FIXT
100
AcDbSpline
210
0.0
220
0.0
230
1.0
 70
     8
 71
     3
 72
     9
 73
     5
 74
     0
 42
0.000000001
 43
0.0000000001
 40
0.0
 40
0.0
 40
0.0
 40
0.0
 40
0.5
 40
1.0
 40
1.0
 40
1.0
 40
1.0
 10
854.6664074431877
 20
1986.576606241336
 30
0.0
 10
854.6030214798916
 20
1987.236280263455
 30
0.0
 10
854.0765732296648
 20
1988.498610785978
 30
0.0
 10
852.7507723321681
 20
1989.646906265071
 30
0.0
 10
851.8880337216025
 20
1990.19254524376
 30
0.0
  0
SPLINE
  5
130
330
87
100
AcDbEntity
  8
P-SANR-FIXT
100
AcDbSpline
210
0.0
220
0.0
230
1.0
 70
     8
 71
     3
 72
     9
 73
     5
 74
     0
 42
0.000000001
 43
0.0000000001
 40
0.0
 40
0.0
 40
0.0
 40
0.0
 40
0.5
 40
1.0
 40
1.0
 40
1.0
 40
1.0
 10
851.8880337216025
 20
1992.768121995147
 30
0.0
 10
852.7507723321681
 20
1993.859399952525
 30
0.0
 10
854.0765732296646
 20
1996.155990910711
 30
0.0
 10
854.6030214798916
 20
1998.680651955757
 30
0.0
 10
854.6664074431877
 20
1999.999999999994
 30
0.0
  0
LINE
  5
131
330
87
100
AcDbEntity
  8
P-SANR-FIXT
100
AcDbLine
 10
851.8880337216019
 20
2017.039332761078
 30
0.0
 11
851.8880337216019
 21
2017.104094816062
 31
0.0
  0
SPLINE
  5
132
330
87
100
AcDbEntity
  8
P-SANR-FIXT
100
AcDbSpline
210
0.0
220
0.0
230
1.0
 70
     8
 71
     3
 72
     9
 73
     5
 74
     0
 42
0.000000001
 43
0.0000000001
 40
0.0
 40
0.0
 40
0.0
 40
0.0
 40
0.5
 40
1.0
 40
1.0
 40
1.0
 40
1.0
 10
854.6664074431877
 20
2013.423393758654
 30
0.0
 10
854.6030214798916
 20
2014.083067780773
 30
0.0
 10
854.0765732296648
 20
2015.345398303296
 30
0.0
 10
852.7507723321681
 20
2016.493693782388
 30
0.0
 10
851.8880337216023
 20
2017.039332761078
 30
0.0
  0
SPLINE
  5
133
330
87
100
AcDbEntity
  8
P-SANR-FIXT
100
AcDbSpline
210
0.0
220
0.0
230
1.0
 70
     8
 71
     3
 72
     9
 73
     5
 74
     0
 42
0.000000001
 43
0.0000000001
 40
0.0
 40
0.0
 40
0.0
 40
0.0
 40
0.5
 40
1.0
 40
1.0
 40
1.0
 40
1.0
 10
851.8880337216025
 20
1982.960667238912
 30
0.0
 10
852.7507723321681
 20
1983.506306217601
 30
0.0
 10
854.0765732296648
 20
1984.654601696695
 30
0.0
 10
854.6030214798916
 20
1985.916932219217
 30
0.0
 10
854.6664074431877
 20
1986.576606241336
 30
0.0
  0
LINE
  5
134
330
87
100
AcDbEntity
  8
P-SANR-FIXT
100
AcDbLine
 10
851.8880337216023
 20
1982.895905183928
 30
0.0
 11
851.8880337216023
 21
1982.960667238912
 31
0.0
  0
LINE
  5
135
330
87
100
AcDbEntity
  8
P-SANR-FIXT
100
AcDbLine
 10
854.6664074431877
 20
1999.999999999994
 30
0.0
 11
854.6664074431877
 21
2013.423393758654
 31
0.0
  0
LINE
  5
136
330
87
100
AcDbEntity
  8
P-SANR-FIXT
100
AcDbLine
 10
854.6664074431879
 20
1986.576606241336
 30
0.0
 11
854.6664074431879
 21
1999.999999999994
 31
0.0
  0
LINE
  5
137
330
87
100
AcDbEntity
  8
P-SANR-FIXT
100
AcDbLine
 10
854.6664074431877
 20
1984.499999999995
 30
0.0
 11
854.6664074431877
 21
1986.576606241336
 31
0.0
  0
LINE
  5
138
330
87
100
AcDbEntity
  8
P-SANR-FIXT
100
AcDbLine
 10
854.6664074431877
 20
1999.376013313329
 30
0.0
 11
854.6664074431877
 21
2000.524164407146
 31
0.0
  0
LINE
  5
139
330
87
100
AcDbEntity
  8
P-SANR-FIXT
100
AcDbLine
 10
854.6664074431879
 20
2013.423393758654
 30
0.0
 11
854.6664074431879
 21
2015.499999999995
 31
0.0
  0
LINE
  5
13A
330
87
100
AcDbEntity
  8
P-SANR-FIXT
100
AcDbLine
 10
854.6664074431877
 20
1986.821447114685
 30
0.0
 11
854.6664074431877
 21
1986.576606241336
 31
0.0
  0
LINE
  5
13B
330
87
100
AcDbEntity
  8
P-SANR-FIXT
100
AcDbLine
 10
854.6664074431879
 20
2013.423393758654
 30
0.0
 11
854.6664074431879
 21
2013.162132699758
 31
0.0
  0
LINE
  5
13C
330
87
100
AcDbEntity
  8
P-SANR-FIXT
100
AcDbLine
 10
854.6664074431877
 20
2013.774403513324
 30
0.0
 11
854.6664074431877
 21
2013.423393758654
 31
0.0
  0
LINE
  5
13D
330
87
100
AcDbEntity
  8
P-SANR-FIXT
100
AcDbLine
 10
854.6664074431877
 20
2000.524164407146
 30
0.0
 11
854.6664074431877
 21
1999.376013313329
 31
0.0
  0
LINE
  5
13E
330
87
100
AcDbEntity
  8
P-SANR-FIXT
100
AcDbLine
 10
854.6664074431879
 20
1986.576606241336
 30
0.0
 11
854.6664074431879
 21
1986.22646465157
 31
0.0
  0
LINE
  5
13F
330
87
100
AcDbEntity
  8
P-SANR-FIXT
100
AcDbLine
 10
786.9164074431881
 20
2062.899999999995
 30
0.0
 11
844.4164074431878
 21
2062.899999999995
 31
0.0
  0
ENDBLK
  5
141
330
87
100
AcDbEntity
  8
0
100
AcDbBlockEnd
  0
BLOCK
  5
1C8
330
143
100
AcDbEntity
  8
0
100
AcDbBlockBegin
  2
Automatic flow rate regulator valve_Caleffi_121 DN15 - 1_2__-V1-Est - Idraulica
 70
     0
 10
0.0
 20
0.0
 30
0.0
  3
Automatic flow rate regulator valve_Caleffi_121 DN15 - 1_2__-V1-Est - Idraulica
  1

  0
LWPOLYLINE
  5
144
330
143
100
AcDbEntity
  8
P-SANR-FIXT
100
AcDbPolyline
 90
       80
 70
   128
 43
0.0
 10
843.1386413683455
 20
1746.245878730054
 10
843.116666511421
 20
1747.34447507334
 10
843.05077709573
 20
1748.441313896832
 10
842.941078530282
 20
1749.534640492392
 10
842.787746309381
 20
1750.622705770697
 10
842.5910257318713
 20
1751.70376905941
 10
842.3512315087119
 20
1752.776100887884
 10
842.0687472595064
 20
1753.837985753946
 10
841.7440248987936
 20
1754.887724868332
 10
841.3775839130803
 20
1755.923638872392
 10
840.9700105297735
 20
1756.944070524704
 10
840.5219567793423
 20
1757.947387352303
 10
840.0341394522078
 20
1758.931984262295
 10
839.5073389520309
 20
1759.896286109661
 10
838.9423980472342
 20
1760.838750217151
 10
838.3402205227506
 20
1761.757868843242
 10
837.7017697341619
 20
1762.652171594199
 10
837.0280670665344
 20
1763.520227776396
 10
836.3201903004204
 20
1764.360648685117
 10
835.5792718876404
 20
1765.172089826188
 10
834.8064971396002
 20
1765.953253066881
 10
834.0031023310473
 20
1766.702888712652
 10
833.1703727222933
 20
1767.41979750638
 10
832.3096405030732
 20
1768.102832546927
 10
831.422282661324
 20
1768.750901123935
 10
830.5097187802999
 20
1769.362966465928
 10
829.5734087675407
 20
1769.938049398927
 10
828.6148505193311
 20
1770.475229912915
 10
827.6355775243871
 20
1770.973648633663
 10
826.6371564106002
 20
1771.432508197543
 10
825.6211844387665
 20
1771.851074527135
 10
824.5892869473125
 20
1772.228678005602
 10
823.5431147520982
 20
1772.56471454793
 10
822.4843415054643
 20
1772.858646567334
 10
821.4146610187455
 20
1773.110003835287
 10
820.3357845525347
 20
1773.318384233779
 10
819.2494380790297
 20
1773.483454398625
 10
818.1573595208462
 20
1773.604950252774
 10
817.0612959707135
 20
1773.682677428778
 10
815.9630008964969
 20
1773.716511579735
 10
814.864231336025
 20
1773.706398578222
 10
813.7667450862027
 20
1773.652354602883
 10
812.6722978909119
 20
1773.554466112551
 10
811.5826406321955
 20
1773.412889707928
 10
810.4995165292196
 20
1773.227851881061
 10
809.4246583494948
 20
1772.999648652999
 10
808.3597856368175
 20
1772.728645100227
 10
807.3066019603679
 20
1772.415274770619
 10
806.2667921893606
 20
1772.060038989852
 10
805.2420197976152
 20
1771.663506059396
 10
804.2339242023516
 20
1771.226310347352
 10
803.2441181414743
 20
1770.749151273594
 10
802.2741850935322
 20
1770.232792190853
 10
801.3256767444945
 20
1769.67805916351
 10
800.4001105053822
 20
1769.085839646072
 10
799.4989670847339
 20
1768.457081063433
 10
798.6236881197893
 20
1767.792789295198
 10
797.7756738701757
 20
1767.094027066488
 10
796.9562809777929
 20
1766.361912247807
 10
796.1668202964738
 20
1765.59761606669
 10
795.4085547948993
 20
1764.802361233985
 10
794.6826975361175
 20
1763.977419987779
 10
793.9904097369008
 20
1763.124112058086
 10
793.332798910048
 20
1762.243802555568
 10
792.7109170925993
 20
1761.337899787636
 10
792.1257591628013
 20
1760.407853005472
 10
791.5782612485148
 20
1759.455150085527
 10
791.0692992296094
 20
1758.481315149241
 10
790.5996873367426
 20
1757.487906124772
 10
790.170176848764
 20
1756.476512254642
 10
789.781454890831
 20
1755.448751553292
 10
789.4341433351529
 20
1754.4062682186
 10
789.1287978061299
 20
1753.350730001515
 10
788.8659067914714
 20
1752.283825538018
 10
788.6458908607203
 20
1751.207261647654
 10
788.4691019924318
 20
1750.122760602994
 10
788.3358230110821
 20
1749.032057374362
 10
788.24626713461
 20
1747.936896854251
 10
788.2005776333136
 20
1746.839031065873
 10
788.1941735180325
 20
1746.245878730054
  0
LWPOLYLINE
  5
145
330
143
100
AcDbEntity
  8
P-SANR-FIXT
100
AcDbPolyline
 90
       80
 70
   128
 43
0.0
 10
788.1941735180325
 20
1746.245878730054
 10
788.2161483749572
 20
1745.147282386767
 10
788.2820377906481
 20
1744.050443563275
 10
788.391736356096
 20
1742.957116967716
 10
788.5450685769971
 20
1741.869051689411
 10
788.7417891545068
 20
1740.787988400697
 10
788.9815833776662
 20
1739.715656572223
 10
789.2640676268715
 20
1738.653771706162
 10
789.5887899875844
 20
1737.604032591776
 10
789.9552309732978
 20
1736.568118587715
 10
790.3628043566044
 20
1735.547686935403
 10
790.8108581070359
 20
1734.544370107804
 10
791.2986754341704
 20
1733.559773197812
 10
791.8254759343471
 20
1732.595471350446
 10
792.3904168391441
 20
1731.653007242957
 10
792.9925943636275
 20
1730.733888616866
 10
793.631045152216
 20
1729.839585865908
 10
794.3047478198437
 20
1728.971529683711
 10
795.0126245859576
 20
1728.131108774991
 10
795.7535429987378
 20
1727.31966763392
 10
796.5263177467777
 20
1726.538504393226
 10
797.3297125553306
 20
1725.788868747456
 10
798.1624421640845
 20
1725.071959953728
 10
799.0231743833049
 20
1724.388924913181
 10
799.9105322250541
 20
1723.740856336173
 10
800.823096106078
 20
1723.128790994179
 10
801.7594061188372
 20
1722.553708061181
 10
802.7179643670468
 20
1722.016527547192
 10
803.6972373619908
 20
1721.518108826443
 10
804.6956584757781
 20
1721.059249262565
 10
805.7116304476116
 20
1720.640682932973
 10
806.7435279390656
 20
1720.263079454506
 10
807.7897001342796
 20
1719.927042912178
 10
808.8484733809137
 20
1719.633110892773
 10
809.9181538676322
 20
1719.38175362482
 10
810.9970303338434
 20
1719.173373226328
 10
812.0833768073485
 20
1719.008303061482
 10
813.1754553655316
 20
1718.886807207333
 10
814.2715189156644
 20
1718.80908003133
 10
815.3698139898811
 20
1718.775245880373
 10
816.4685835503529
 20
1718.785358881886
 10
817.5660698001752
 20
1718.839402857225
 10
818.660516995466
 20
1718.937291347556
 10
819.7501742541824
 20
1719.078867752179
 10
820.8332983571583
 20
1719.263905579047
 10
821.9081565368833
 20
1719.492108807108
 10
822.9730292495602
 20
1719.763112359881
 10
824.0262129260099
 20
1720.076482689489
 10
825.0660226970174
 20
1720.431718470256
 10
826.0907950887629
 20
1720.828251400712
 10
827.0988906840262
 20
1721.265447112756
 10
828.0886967449037
 20
1721.742606186513
 10
829.0586297928458
 20
1722.258965269254
 10
830.0071381418833
 20
1722.813698296597
 10
830.9327043809958
 20
1723.405917814036
 10
831.8338478016441
 20
1724.034676396674
 10
832.7091267665888
 20
1724.698968164909
 10
833.5571410162021
 20
1725.397730393619
 10
834.3765339085852
 20
1726.129845212299
 10
835.1659945899044
 20
1726.894141393417
 10
835.9242600914786
 20
1727.689396226122
 10
836.6501173502605
 20
1728.514337472329
 10
837.3424051494771
 20
1729.367645402021
 10
838.0000159763298
 20
1730.24795490454
 10
838.6218977937787
 20
1731.153857672471
 10
839.2070557235767
 20
1732.083904454636
 10
839.7545536378631
 20
1733.03660737458
 10
840.2635156567686
 20
1734.010442310866
 10
840.7331275496355
 20
1735.003851335335
 10
841.1626380376139
 20
1736.015245205465
 10
841.551359995547
 20
1737.043005906815
 10
841.898671551225
 20
1738.085489241508
 10
842.2040170802482
 20
1739.141027458592
 10
842.4669080949067
 20
1740.207931922089
 10
842.6869240256577
 20
1741.284495812453
 10
842.8637128939463
 20
1742.368996857113
 10
842.9969918752959
 20
1743.459700085746
 10
843.0865477517681
 20
1744.554860605856
 10
843.1322372530644
 20
1745.652726394234
 10
843.1386413683455
 20
1746.245878730054
  0
LINE
  5
146
330
143
100
AcDbEntity
  8
P-SANR-FIXT
100
AcDbLine
 10
840.1753869967272
 20
1733.773512425129
 30
0.0
 11
840.1690868583679
 21
1733.761139987215
 31
0.0
  0
LINE
  5
147
330
143
100
AcDbEntity
  8
P-SANR-FIXT
100
AcDbLine
 10
839.1226979360407
 20
1731.891352046289
 30
0.0
 11
839.1140119629254
 21
1731.877168200364
 31
0.0
  0
LINE
  5
148
330
143
100
AcDbEntity
  8
P-SANR-FIXT
100
AcDbLine
 10
837.9259094176319
 20
1730.097672270829
 30
0.0
 11
837.9143747884988
 21
1730.08178429201
 31
0.0
  0
LINE
  5
149
330
143
100
AcDbEntity
  8
P-SANR-FIXT
100
AcDbLine
 10
836.5924808070021
 20
1728.403528728658
 30
0.0
 11
836.5775714971887
 21
1728.386057400973
 31
0.0
  0
ARC
  5
14A
330
143
100
AcDbEntity
  8
P-SANR-FIXT
100
AcDbCircle
 10
815.6664074431878
 20
1746.245878730053
 30
0.0
 40
27.50000000000002
100
AcDbArc
 50
314.9442796009219
 51
315.0557203990778
  0
LINE
  5
14B
330
143
100
AcDbEntity
  8
P-SANR-FIXT
100
AcDbLine
 10
833.5262287722681
 20
1725.334714676052
 30
0.0
 11
833.5087574445825
 21
1725.319805366239
 31
0.0
  0
LINE
  5
14C
330
143
100
AcDbEntity
  8
P-SANR-FIXT
100
AcDbLine
 10
831.8305018812308
 20
1723.997911384742
 30
0.0
 11
831.8146139024118
 21
1723.986376755609
 31
0.0
  0
LINE
  5
14D
330
143
100
AcDbEntity
  8
P-SANR-FIXT
100
AcDbLine
 10
830.0351179728764
 20
1722.798274210315
 30
0.0
 11
830.0209341269519
 21
1722.7895882372
 31
0.0
  0
LINE
  5
14E
330
143
100
AcDbEntity
  8
P-SANR-FIXT
100
AcDbLine
 10
828.1511461860254
 20
1721.743199314873
 30
0.0
 11
828.1387737481113
 21
1721.736899176514
 31
0.0
  0
LINE
  5
14F
330
143
100
AcDbEntity
  8
P-SANR-FIXT
100
AcDbLine
 10
815.6664074431878
 20
1718.745878730053
 30
0.0
 11
815.6622299202235
 21
1718.745879047357
 31
0.0
  0
LINE
  5
150
330
143
100
AcDbEntity
  8
P-SANR-FIXT
100
AcDbLine
 10
803.1940411382644
 20
1721.736899176514
 30
0.0
 11
803.1816687003503
 21
1721.743199314873
 31
0.0
  0
LINE
  5
151
330
143
100
AcDbEntity
  8
P-SANR-FIXT
100
AcDbLine
 10
801.3118807594235
 20
1722.7895882372
 30
0.0
 11
801.2976969134992
 21
1722.798274210315
 31
0.0
  0
LINE
  5
152
330
143
100
AcDbEntity
  8
P-SANR-FIXT
100
AcDbLine
 10
799.518200983964
 20
1723.986376755609
 30
0.0
 11
799.5023130051447
 21
1723.997911384742
 31
0.0
  0
LINE
  5
153
330
143
100
AcDbEntity
  8
P-SANR-FIXT
100
AcDbLine
 10
797.8240574417932
 20
1725.319805366239
 30
0.0
 11
797.8065861141077
 21
1725.334714676052
 31
0.0
  0
ARC
  5
154
330
143
100
AcDbEntity
  8
P-SANR-FIXT
100
AcDbCircle
 10
815.6664074431878
 20
1746.245878730053
 30
0.0
 40
27.50000000000002
100
AcDbArc
 50
224.9442796009216
 51
225.0557203990773
  0
LINE
  5
155
330
143
100
AcDbEntity
  8
P-SANR-FIXT
100
AcDbLine
 10
794.7552433891869
 20
1728.386057400973
 30
0.0
 11
794.7403340793735
 21
1728.403528728658
 31
0.0
  0
LINE
  5
156
330
143
100
AcDbEntity
  8
P-SANR-FIXT
100
AcDbLine
 10
793.4184400978767
 20
1730.08178429201
 30
0.0
 11
793.4069054687437
 21
1730.097672270829
 31
0.0
  0
LINE
  5
157
330
143
100
AcDbEntity
  8
P-SANR-FIXT
100
AcDbLine
 10
792.2188029234503
 20
1731.877168200364
 30
0.0
 11
792.2101169503349
 21
1731.891352046289
 31
0.0
  0
LINE
  5
158
330
143
100
AcDbEntity
  8
P-SANR-FIXT
100
AcDbLine
 10
791.1637280280078
 20
1733.761139987215
 30
0.0
 11
791.1574278896483
 21
1733.773512425129
 31
0.0
  0
ARC
  5
159
330
143
100
AcDbEntity
  8
P-SANR-FIXT
100
AcDbCircle
 10
815.6664074431878
 20
1746.245878730053
 30
0.0
 40
28.49999999916537
100
AcDbArc
 50
179.9999999999999
 51
359.9999999999991
  0
LINE
  5
15A
330
143
100
AcDbEntity
  8
P-SANR-FIXT
100
AcDbLine
 10
840.1753869967272
 20
1758.718245034976
 30
0.0
 11
840.1690868583679
 21
1758.73061747289
 31
0.0
  0
LINE
  5
15B
330
143
100
AcDbEntity
  8
P-SANR-FIXT
100
AcDbLine
 10
839.1226979360407
 20
1760.600405413817
 30
0.0
 11
839.1140119629254
 21
1760.614589259741
 31
0.0
  0
LINE
  5
15C
330
143
100
AcDbEntity
  8
P-SANR-FIXT
100
AcDbLine
 10
837.9259094176319
 20
1762.394085189277
 30
0.0
 11
837.9143747884988
 21
1762.409973168096
 31
0.0
  0
LINE
  5
15D
330
143
100
AcDbEntity
  8
P-SANR-FIXT
100
AcDbLine
 10
836.5924808070019
 20
1764.088228731448
 30
0.0
 11
836.5775714971887
 21
1764.105700059133
 31
0.0
  0
ARC
  5
15E
330
143
100
AcDbEntity
  8
P-SANR-FIXT
100
AcDbCircle
 10
815.6664074431878
 20
1746.245878730053
 30
0.0
 40
27.50000000000011
100
AcDbArc
 50
44.94427960092279
 51
45.05572039907755
  0
LINE
  5
15F
330
143
100
AcDbEntity
  8
P-SANR-FIXT
100
AcDbLine
 10
833.5262287722677
 20
1767.157042784054
 30
0.0
 11
833.5087574445823
 21
1767.171952093867
 31
0.0
  0
LINE
  5
160
330
143
100
AcDbEntity
  8
P-SANR-FIXT
100
AcDbLine
 10
831.8305018812308
 20
1768.493846075364
 30
0.0
 11
831.8146139024118
 21
1768.505380704497
 31
0.0
  0
LINE
  5
161
330
143
100
AcDbEntity
  8
P-SANR-FIXT
100
AcDbLine
 10
830.0351179728764
 20
1769.69348324979
 30
0.0
 11
830.0209341269519
 21
1769.702169222906
 31
0.0
  0
LINE
  5
162
330
143
100
AcDbEntity
  8
P-SANR-FIXT
100
AcDbLine
 10
828.1511461860254
 20
1770.748558145233
 30
0.0
 11
828.1387737481113
 21
1770.754858283592
 31
0.0
  0
LINE
  5
163
330
143
100
AcDbEntity
  8
P-SANR-FIXT
100
AcDbLine
 10
820.0007092631087
 20
1773.402163964485
 30
0.0
 11
819.9683552317942
 21
1773.407308096419
 31
0.0
  0
LINE
  5
164
330
143
100
AcDbEntity
  8
P-SANR-FIXT
100
AcDbLine
 10
815.6664074431878
 20
1773.745878730053
 30
0.0
 11
815.6622299202236
 21
1773.745878412749
 31
0.0
  0
LINE
  5
165
330
143
100
AcDbEntity
  8
P-SANR-FIXT
100
AcDbLine
 10
811.3644596545816
 20
1773.407308096419
 30
0.0
 11
811.3321056232674
 21
1773.402163964485
 31
0.0
  0
LINE
  5
166
330
143
100
AcDbEntity
  8
P-SANR-FIXT
100
AcDbLine
 10
803.1940411382644
 20
1770.754858283592
 30
0.0
 11
803.1816687003503
 21
1770.748558145233
 31
0.0
  0
LINE
  5
167
330
143
100
AcDbEntity
  8
P-SANR-FIXT
100
AcDbLine
 10
801.3118807594235
 20
1769.702169222906
 30
0.0
 11
801.2976969134992
 21
1769.69348324979
 31
0.0
  0
LINE
  5
168
330
143
100
AcDbEntity
  8
P-SANR-FIXT
100
AcDbLine
 10
799.518200983964
 20
1768.505380704497
 30
0.0
 11
799.5023130051447
 21
1768.493846075364
 31
0.0
  0
LINE
  5
169
330
143
100
AcDbEntity
  8
P-SANR-FIXT
100
AcDbLine
 10
797.8240574417933
 20
1767.171952093867
 30
0.0
 11
797.8065861141077
 21
1767.157042784054
 31
0.0
  0
ARC
  5
16A
330
143
100
AcDbEntity
  8
P-SANR-FIXT
100
AcDbCircle
 10
815.6664074431878
 20
1746.245878730053
 30
0.0
 40
27.50000000000002
100
AcDbArc
 50
134.9442796009222
 51
135.0557203990769
  0
LINE
  5
16B
330
143
100
AcDbEntity
  8
P-SANR-FIXT
100
AcDbLine
 10
794.7552433891869
 20
1764.105700059133
 30
0.0
 11
794.7403340793737
 21
1764.088228731448
 31
0.0
  0
LINE
  5
16C
330
143
100
AcDbEntity
  8
P-SANR-FIXT
100
AcDbLine
 10
793.4184400978767
 20
1762.409973168096
 30
0.0
 11
793.4069054687438
 21
1762.394085189277
 31
0.0
  0
LINE
  5
16D
330
143
100
AcDbEntity
  8
P-SANR-FIXT
100
AcDbLine
 10
792.2188029234503
 20
1760.614589259741
 30
0.0
 11
792.2101169503349
 21
1760.600405413817
 31
0.0
  0
LINE
  5
16E
330
143
100
AcDbEntity
  8
P-SANR-FIXT
100
AcDbLine
 10
791.1637280280078
 20
1758.73061747289
 30
0.0
 11
791.1574278896485
 21
1758.718245034976
 31
0.0
  0
ARC
  5
16F
330
143
100
AcDbEntity
  8
P-SANR-FIXT
100
AcDbCircle
 10
815.6664074431878
 20
1746.245878730053
 30
0.0
 40
28.4999999991652
100
AcDbArc
 50
0.0
 51
180.0
  0
ARC
  5
170
330
143
100
AcDbEntity
  8
P-SANR-FIXT
100
AcDbCircle
 10
827.638641368364
 20
1746.245878730053
 30
0.0
 40
7.249999999999886
100
AcDbArc
 50
200.0000645443158
 51
0.0
  0
ARC
  5
171
330
143
100
AcDbEntity
  8
P-SANR-FIXT
100
AcDbCircle
 10
827.638641368364
 20
1746.245878730053
 30
0.0
 40
7.249999999999779
100
AcDbArc
 50
180.0
 51
199.9999999999979
  0
ARC
  5
172
330
143
100
AcDbEntity
  8
P-SANR-FIXT
100
AcDbCircle
 10
827.638641368364
 20
1746.245878730053
 30
0.0
 40
7.249999999999658
100
AcDbArc
 50
160.0000000000004
 51
180.0
  0
ARC
  5
173
330
143
100
AcDbEntity
  8
P-SANR-FIXT
100
AcDbCircle
 10
827.638641368364
 20
1746.245878730053
 30
0.0
 40
7.249999999999764
100
AcDbArc
 50
0.0
 51
159.9999354556834
  0
ARC
  5
174
330
143
100
AcDbEntity
  8
P-SANR-FIXT
100
AcDbCircle
 10
827.638641368364
 20
1746.245878730053
 30
0.0
 40
4.862828286406625
100
AcDbArc
 50
180.0
 51
0.0
  0
ARC
  5
175
330
143
100
AcDbEntity
  8
P-SANR-FIXT
100
AcDbCircle
 10
827.638641368364
 20
1746.245878730053
 30
0.0
 40
4.862828286406738
100
AcDbArc
 50
0.0
 51
180.0
  0
ARC
  5
176
330
143
100
AcDbEntity
  8
P-SANR-FIXT
100
AcDbCircle
 10
827.638641368364
 20
1746.245878730053
 30
0.0
 40
5.499999999999772
100
AcDbArc
 50
180.0
 51
0.0
  0
ARC
  5
177
330
143
100
AcDbEntity
  8
P-SANR-FIXT
100
AcDbCircle
 10
827.638641368364
 20
1746.245878730053
 30
0.0
 40
5.499999999999886
100
AcDbArc
 50
0.0
 51
180.0
  0
LINE
  5
178
330
143
100
AcDbEntity
  8
P-SANR-FIXT
100
AcDbLine
 10
785.944781164775
 20
1730.745878730053
 30
0.0
 11
791.4725032012661
 21
1730.745878730053
 31
0.0
  0
LINE
  5
179
330
143
100
AcDbEntity
  8
P-SANR-FIXT
100
AcDbLine
 10
791.4725032012658
 20
1761.745878730054
 30
0.0
 11
785.944781164775
 21
1761.745878730054
 31
0.0
  0
LINE
  5
17A
330
143
100
AcDbEntity
  8
P-SANR-FIXT
100
AcDbLine
 10
839.8603116851125
 20
1730.745878730054
 30
0.0
 11
845.388033721603
 21
1730.745878730054
 31
0.0
  0
LINE
  5
17B
330
143
100
AcDbEntity
  8
P-SANR-FIXT
100
AcDbLine
 10
845.388033721603
 20
1761.745878730053
 30
0.0
 11
839.8603116851125
 21
1761.745878730053
 31
0.0
  0
LINE
  5
17C
330
143
100
AcDbEntity
  8
P-SANR-FIXT
100
AcDbLine
 10
776.6664074431877
 20
1739.019896174296
 30
0.0
 11
776.6664074431877
 21
1738.04734208941
 31
0.0
  0
LINE
  5
17D
330
143
100
AcDbEntity
  8
P-SANR-FIXT
100
AcDbLine
 10
776.6664074431877
 20
1738.04734208941
 30
0.0
 11
776.6664074431877
 21
1739.019896174296
 31
0.0
  0
ARC
  5
17E
330
143
100
AcDbEntity
  8
P-SANR-FIXT
100
AcDbCircle
 10
815.666407443188
 20
1746.245878730053
 30
0.0
 40
28.74999999999976
100
AcDbArc
 50
0.0000000000005534
 51
180.0000000000001
  0
LINE
  5
17F
330
143
100
AcDbEntity
  8
P-SANR-FIXT
100
AcDbLine
 10
776.6664074431877
 20
1753.471861285946
 30
0.0
 11
776.6664074431877
 21
1754.4547147845
 31
0.0
  0
LINE
  5
180
330
143
100
AcDbEntity
  8
P-SANR-FIXT
100
AcDbLine
 10
776.6664074431877
 20
1754.4547147845
 30
0.0
 11
776.6664074431877
 21
1753.471861285946
 31
0.0
  0
LINE
  5
181
330
143
100
AcDbEntity
  8
P-SANR-FIXT
100
AcDbLine
 10
776.6664074431878
 20
1738.495878730052
 30
0.0
 11
776.6664074431878
 21
1746.245878730053
 31
0.0
  0
SPLINE
  5
182
330
143
100
AcDbEntity
  8
P-SANR-FIXT
100
AcDbSpline
210
0.0
220
0.0
230
1.0
 70
     8
 71
     3
 72
     9
 73
     5
 74
     0
 42
0.000000001
 43
0.0000000001
 40
-1.0
 40
-1.0
 40
-1.0
 40
-1.0
 40
-0.5
 40
0.0
 40
0.0
 40
0.0
 40
0.0
 10
776.6664074431877
 20
1738.495878730053
 30
0.0
 10
776.7297934064838
 20
1739.638467652796
 30
0.0
 10
777.256241656711
 20
1741.824888253751
 30
0.0
 10
778.5820425542079
 20
1743.813794365642
 30
0.0
 10
779.4447811647737
 20
1744.758868799322
 30
0.0
  0
SPLINE
  5
183
330
143
100
AcDbEntity
  8
P-SANR-FIXT
100
AcDbSpline
210
0.0
220
0.0
230
1.0
 70
     8
 71
     3
 72
     9
 73
     5
 74
     0
 42
0.000000001
 43
0.0000000001
 40
-1.0
 40
-1.0
 40
-1.0
 40
-1.0
 40
-0.5
 40
0.0
 40
0.0
 40
0.0
 40
0.0
 10
779.4447811647737
 20
1732.232888660784
 30
0.0
 10
778.5820425542079
 20
1733.177963094463
 30
0.0
 10
777.256241656711
 20
1735.166869206355
 30
0.0
 10
776.7297934064838
 20
1737.353289807309
 30
0.0
 10
776.6664074431877
 20
1738.495878730053
 30
0.0
  0
LINE
  5
184
330
143
100
AcDbEntity
  8
P-SANR-FIXT
100
AcDbLine
 10
776.6664074431877
 20
1730.745878730053
 30
0.0
 11
776.6664074431877
 21
1738.495878730053
 31
0.0
  0
SPLINE
  5
185
330
143
100
AcDbEntity
  8
P-SANR-FIXT
100
AcDbSpline
210
0.0
220
0.0
230
1.0
 70
    24
 71
     3
 72
     9
 73
     5
 74
     0
 42
0.000000001
 43
0.0000000001
 40
-1.0
 40
-1.0
 40
-1.0
 40
-1.0
 40
-0.5
 40
0.0
 40
0.0
 40
0.0
 40
0.0
 10
776.6664074431878
 20
1730.745878730053
 30
0.0
 10
776.7450135799879
 20
1730.745878730053
 30
0.0
 10
777.2866820037188
 20
1730.745878730053
 30
0.0
 10
778.5972627277118
 20
1730.745878730053
 30
0.0
 10
779.4447811647737
 20
1730.745878730053
 30
0.0
  0
SPLINE
  5
186
330
143
100
AcDbEntity
  8
P-SANR-FIXT
100
AcDbSpline
210
0.0
220
0.0
230
1.0
 70
     8
 71
     3
 72
     9
 73
     5
 74
     0
 42
0.000000001
 43
0.0000000001
 40
-1.0
 40
-1.0
 40
-1.0
 40
-1.0
 40
-0.5
 40
0.0
 40
0.0
 40
0.0
 40
0.0
 10
779.4447811647737
 20
1747.732888660784
 30
0.0
 10
778.5820425542079
 20
1748.677963094463
 30
0.0
 10
777.2562416567109
 20
1750.666869206354
 30
0.0
 10
776.7297934064838
 20
1752.853289807309
 30
0.0
 10
776.6664074431877
 20
1753.995878730053
 30
0.0
  0
LINE
  5
187
330
143
100
AcDbEntity
  8
P-SANR-FIXT
100
AcDbLine
 10
776.6664074431877
 20
1746.245878730053
 30
0.0
 11
776.6664074431877
 21
1753.995878730053
 31
0.0
  0
LINE
  5
188
330
143
100
AcDbEntity
  8
P-SANR-FIXT
100
AcDbLine
 10
776.6664074431877
 20
1761.745878730053
 30
0.0
 11
776.6664074431877
 21
1761.737679547112
 31
0.0
  0
SPLINE
  5
189
330
143
100
AcDbEntity
  8
P-SANR-FIXT
100
AcDbSpline
210
0.0
220
0.0
230
1.0
 70
    24
 71
     3
 72
     9
 73
     5
 74
     0
 42
0.000000001
 43
0.0000000001
 40
-1.0
 40
-1.0
 40
-1.0
 40
-1.0
 40
-0.5
 40
0.0
 40
0.0
 40
0.0
 40
0.0
 10
779.4447811647737
 20
1761.745878730053
 30
0.0
 10
778.5972627277118
 20
1761.745878730053
 30
0.0
 10
777.2866820037188
 20
1761.745878730053
 30
0.0
 10
776.7450135799879
 20
1761.745878730053
 30
0.0
 10
776.6664074431878
 20
1761.745878730053
 30
0.0
  0
LINE
  5
18A
330
143
100
AcDbEntity
  8
P-SANR-FIXT
100
AcDbLine
 10
776.6664074431878
 20
1753.995878730053
 30
0.0
 11
776.6664074431878
 21
1761.745878730053
 31
0.0
  0
SPLINE
  5
18B
330
143
100
AcDbEntity
  8
P-SANR-FIXT
100
AcDbSpline
210
0.0
220
0.0
230
1.0
 70
     8
 71
     3
 72
     9
 73
     5
 74
     0
 42
0.000000001
 43
0.0000000001
 40
-1.0
 40
-1.0
 40
-1.0
 40
-1.0
 40
-0.5
 40
0.0
 40
0.0
 40
0.0
 40
0.0
 10
776.6664074431877
 20
1753.995878730053
 30
0.0
 10
776.7297934064838
 20
1755.138467652796
 30
0.0
 10
777.256241656711
 20
1757.324888253751
 30
0.0
 10
778.5820425542079
 20
1759.313794365642
 30
0.0
 10
779.4447811647737
 20
1760.258868799321
 30
0.0
  0
LINE
  5
18C
330
143
100
AcDbEntity
  8
P-SANR-FIXT
100
AcDbLine
 10
779.4447811647737
 20
1730.745878730053
 30
0.0
 11
779.4447811647737
 21
1732.232888660784
 31
0.0
  0
LINE
  5
18D
330
143
100
AcDbEntity
  8
P-SANR-FIXT
100
AcDbLine
 10
779.4447811647737
 20
1730.745878730053
 30
0.0
 11
783.1664074431877
 21
1730.745878730053
 31
0.0
  0
LINE
  5
18E
330
143
100
AcDbEntity
  8
P-SANR-FIXT
100
AcDbLine
 10
783.1664074431877
 20
1732.232888660784
 30
0.0
 11
779.4447811647737
 21
1732.232888660784
 31
0.0
  0
LINE
  5
18F
330
143
100
AcDbEntity
  8
P-SANR-FIXT
100
AcDbLine
 10
779.4447811647736
 20
1744.758868799322
 30
0.0
 11
779.4447811647736
 21
1746.245878730053
 31
0.0
  0
LINE
  5
190
330
143
100
AcDbEntity
  8
P-SANR-FIXT
100
AcDbLine
 10
779.4447811647737
 20
1744.758868799322
 30
0.0
 11
783.1664074431877
 21
1744.758868799322
 31
0.0
  0
LINE
  5
191
330
143
100
AcDbEntity
  8
P-SANR-FIXT
100
AcDbLine
 10
779.4447811647737
 20
1760.258868799321
 30
0.0
 11
779.4447811647737
 21
1761.745878730053
 31
0.0
  0
LINE
  5
192
330
143
100
AcDbEntity
  8
P-SANR-FIXT
100
AcDbLine
 10
779.4447811647737
 20
1760.258868799322
 30
0.0
 11
783.1664074431877
 21
1760.258868799322
 31
0.0
  0
LINE
  5
193
330
143
100
AcDbEntity
  8
P-SANR-FIXT
100
AcDbLine
 10
783.1664074431877
 20
1761.745878730053
 30
0.0
 11
779.4447811647737
 21
1761.745878730053
 31
0.0
  0
LINE
  5
194
330
143
100
AcDbEntity
  8
P-SANR-FIXT
100
AcDbLine
 10
783.1664074431877
 20
1747.732888660784
 30
0.0
 11
779.4447811647737
 21
1747.732888660784
 31
0.0
  0
LINE
  5
195
330
143
100
AcDbEntity
  8
P-SANR-FIXT
100
AcDbLine
 10
779.4447811647737
 20
1746.245878730053
 30
0.0
 11
779.4447811647737
 21
1747.732888660784
 31
0.0
  0
LINE
  5
196
330
143
100
AcDbEntity
  8
P-SANR-FIXT
100
AcDbLine
 10
783.1664074431879
 20
1744.758868799322
 30
0.0
 11
783.1664074431879
 21
1746.245878730053
 31
0.0
  0
SPLINE
  5
197
330
143
100
AcDbEntity
  8
P-SANR-FIXT
100
AcDbSpline
210
0.0
220
0.0
230
1.0
 70
     8
 71
     3
 72
    15
 73
    11
 74
     0
 42
0.000000001
 43
0.0000000001
 40
-1.0
 40
-1.0
 40
-1.0
 40
-1.0
 40
-0.875
 40
-0.75
 40
-0.625
 40
-0.5
 40
-0.375
 40
-0.25
 40
-0.125
 40
0.0
 40
0.0
 40
0.0
 40
0.0
 10
783.1664074431877
 20
1744.758868799322
 30
0.0
 10
783.5927263051615
 20
1744.296689585999
 30
0.0
 10
784.3505176912424
 20
1743.339995099775
 30
0.0
 10
785.1797378452249
 20
1741.831204986443
 30
0.0
 10
785.770274808685
 20
1740.178887104907
 30
0.0
 10
786.0295298147174
 20
1738.495086018942
 30
0.0
 10
785.7802894162611
 20
1736.832842392592
 30
0.0
 10
785.1970465567445
 20
1735.197398741969
 30
0.0
 10
784.3630556645072
 20
1733.676900556886
 30
0.0
 10
783.597825606657
 20
1732.705295358034
 30
0.0
 10
783.1664074431877
 20
1732.232888660784
 30
0.0
  0
LINE
  5
198
330
143
100
AcDbEntity
  8
P-SANR-FIXT
100
AcDbLine
 10
783.1664074431877
 20
1730.745878730053
 30
0.0
 11
783.1664074431877
 21
1732.232888660784
 31
0.0
  0
SPLINE
  5
199
330
143
100
AcDbEntity
  8
P-SANR-FIXT
100
AcDbSpline
210
0.0
220
0.0
230
1.0
 70
    24
 71
     3
 72
     9
 73
     5
 74
     0
 42
0.000000001
 43
0.0000000001
 40
-1.0
 40
-1.0
 40
-1.0
 40
-1.0
 40
-0.5
 40
0.0
 40
0.0
 40
0.0
 40
0.0
 10
783.1664074431877
 20
1730.745878730053
 30
0.0
 10
784.0291460537536
 20
1730.745878730053
 30
0.0
 10
785.3549469512507
 20
1730.745878730053
 30
0.0
 10
785.8813952014776
 20
1730.745878730053
 30
0.0
 10
785.9447811647736
 20
1730.745878730053
 30
0.0
  0
SPLINE
  5
19A
330
143
100
AcDbEntity
  8
P-SANR-FIXT
100
AcDbSpline
210
0.0
220
0.0
230
1.0
 70
    24
 71
     3
 72
     9
 73
     5
 74
     0
 42
0.000000001
 43
0.0000000001
 40
-1.0
 40
-1.0
 40
-1.0
 40
-1.0
 40
-0.5
 40
0.0
 40
0.0
 40
0.0
 40
0.0
 10
785.9447811647736
 20
1761.745878730053
 30
0.0
 10
785.8813952014775
 20
1761.745878730053
 30
0.0
 10
785.3549469512504
 20
1761.745878730053
 30
0.0
 10
784.0291460537536
 20
1761.745878730053
 30
0.0
 10
783.1664074431877
 20
1761.745878730053
 30
0.0
  0
LINE
  5
19B
330
143
100
AcDbEntity
  8
P-SANR-FIXT
100
AcDbLine
 10
783.1664074431877
 20
1760.258868799321
 30
0.0
 11
783.1664074431877
 21
1761.745878730053
 31
0.0
  0
SPLINE
  5
19C
330
143
100
AcDbEntity
  8
P-SANR-FIXT
100
AcDbSpline
210
0.0
220
0.0
230
1.0
 70
     8
 71
     3
 72
    15
 73
    11
 74
     0
 42
0.000000001
 43
0.0000000001
 40
-1.0
 40
-1.0
 40
-1.0
 40
-1.0
 40
-0.875
 40
-0.75
 40
-0.625
 40
-0.5
 40
-0.375
 40
-0.25
 40
-0.125
 40
0.0
 40
0.0
 40
0.0
 40
0.0
 10
783.1664074431877
 20
1760.258868799321
 30
0.0
 10
783.5927263051615
 20
1759.796689585999
 30
0.0
 10
784.3505176912424
 20
1758.839995099776
 30
0.0
 10
785.1797378452249
 20
1757.331204986442
 30
0.0
 10
785.770274808685
 20
1755.678887104907
 30
0.0
 10
786.0295298147174
 20
1753.995086018942
 30
0.0
 10
785.7802894162611
 20
1752.332842392592
 30
0.0
 10
785.1970465567445
 20
1750.69739874197
 30
0.0
 10
784.3630556645072
 20
1749.176900556886
 30
0.0
 10
783.597825606657
 20
1748.205295358034
 30
0.0
 10
783.1664074431877
 20
1747.732888660784
 30
0.0
  0
LINE
  5
19D
330
143
100
AcDbEntity
  8
P-SANR-FIXT
100
AcDbLine
 10
783.1664074431877
 20
1746.245878730053
 30
0.0
 11
783.1664074431877
 21
1747.732888660784
 31
0.0
  0
SPLINE
  5
19E
330
143
100
AcDbEntity
  8
P-SANR-FIXT
100
AcDbSpline
210
0.0
220
0.0
230
1.0
 70
    24
 71
     3
 72
     8
 73
     4
 74
     0
 42
0.000000001
 43
0.0000000001
 40
-0.1414849141747628
 40
-0.1414849141747628
 40
-0.1414849141747628
 40
-0.1414849141747628
 40
0.0
 40
0.0
 40
0.0
 40
0.0
 10
785.8429679411429
 20
1761.745878730053
 30
0.0
 10
785.8929071084097
 20
1761.745878730053
 30
0.0
 10
785.9268448496201
 20
1761.745878730053
 30
0.0
 10
785.9447811647736
 20
1761.745878730053
 30
0.0
  0
LINE
  5
19F
330
143
100
AcDbEntity
  8
P-SANR-FIXT
100
AcDbLine
 10
785.9447811647736
 20
1730.745878730053
 30
0.0
 11
785.9447811647736
 21
1746.245878730053
 31
0.0
  0
LINE
  5
1A0
330
143
100
AcDbEntity
  8
P-SANR-FIXT
100
AcDbLine
 10
785.9447811647736
 20
1746.245878730053
 30
0.0
 11
785.9447811647736
 21
1761.745878730053
 31
0.0
  0
LINE
  5
1A1
330
143
100
AcDbEntity
  8
P-SANR-FIXT
100
AcDbLine
 10
845.3880337216018
 20
1730.745878730053
 30
0.0
 11
845.3880337216018
 21
1746.245878730053
 31
0.0
  0
SPLINE
  5
1A2
330
143
100
AcDbEntity
  8
P-SANR-FIXT
100
AcDbSpline
210
0.0
220
0.0
230
1.0
 70
    24
 71
     3
 72
     9
 73
     5
 74
     0
 42
0.000000001
 43
0.0000000001
 40
0.0
 40
0.0
 40
0.0
 40
0.0
 40
0.5
 40
1.0
 40
1.0
 40
1.0
 40
1.0
 10
848.1664074431872
 20
1730.745878730053
 30
0.0
 10
847.3188890061255
 20
1730.745878730053
 30
0.0
 10
846.0083082821329
 20
1730.745878730053
 30
0.0
 10
845.466639858402
 20
1730.745878730053
 30
0.0
 10
845.3880337216018
 20
1730.745878730053
 30
0.0
  0
SPLINE
  5
1A3
330
143
100
AcDbEntity
  8
P-SANR-FIXT
100
AcDbSpline
210
0.0
220
0.0
230
1.0
 70
     8
 71
     3
 72
    15
 73
    11
 74
     0
 42
0.000000001
 43
0.0000000001
 40
0.0
 40
0.0
 40
0.0
 40
0.0
 40
0.125
 40
0.25
 40
0.375
 40
0.5
 40
0.625
 40
0.75
 40
0.875
 40
1.0
 40
1.0
 40
1.0
 40
1.0
 10
848.1664074431874
 20
1744.758868799321
 30
0.0
 10
847.7400885812135
 20
1744.296689585998
 30
0.0
 10
846.9822971951327
 20
1743.339995099775
 30
0.0
 10
846.1530770411503
 20
1741.831204986442
 30
0.0
 10
845.5625400776906
 20
1740.178887104907
 30
0.0
 10
845.3032850716583
 20
1738.495086018942
 30
0.0
 10
845.5525254701143
 20
1736.832842392592
 30
0.0
 10
846.1357683296307
 20
1735.19739874197
 30
0.0
 10
846.9697592218679
 20
1733.676900556887
 30
0.0
 10
847.734989279718
 20
1732.705295358035
 30
0.0
 10
848.1664074431874
 20
1732.232888660784
 30
0.0
  0
SPLINE
  5
1A4
330
143
100
AcDbEntity
  8
P-SANR-FIXT
100
AcDbSpline
210
0.0
220
0.0
230
1.0
 70
     8
 71
     3
 72
    15
 73
    11
 74
     0
 42
0.000000001
 43
0.0000000001
 40
0.0
 40
0.0
 40
0.0
 40
0.0
 40
0.125
 40
0.25
 40
0.375
 40
0.5
 40
0.625
 40
0.75
 40
0.875
 40
1.0
 40
1.0
 40
1.0
 40
1.0
 10
848.1664074431874
 20
1760.258868799321
 30
0.0
 10
847.7400885812135
 20
1759.796689585998
 30
0.0
 10
846.9822971951327
 20
1758.839995099775
 30
0.0
 10
846.1530770411503
 20
1757.331204986442
 30
0.0
 10
845.5625400776906
 20
1755.678887104906
 30
0.0
 10
845.3032850716581
 20
1753.995086018942
 30
0.0
 10
845.5525254701143
 20
1752.332842392592
 30
0.0
 10
846.1357683296309
 20
1750.69739874197
 30
0.0
 10
846.9697592218679
 20
1749.176900556886
 30
0.0
 10
847.734989279718
 20
1748.205295358035
 30
0.0
 10
848.1664074431874
 20
1747.732888660785
 30
0.0
  0
SPLINE
  5
1A5
330
143
100
AcDbEntity
  8
P-SANR-FIXT
100
AcDbSpline
210
0.0
220
0.0
230
1.0
 70
    24
 71
     3
 72
     9
 73
     5
 74
     0
 42
0.000000001
 43
0.0000000001
 40
0.0
 40
0.0
 40
0.0
 40
0.0
 40
0.5
 40
1.0
 40
1.0
 40
1.0
 40
1.0
 10
845.3880337216018
 20
1761.745878730053
 30
0.0
 10
845.466639858402
 20
1761.745878730053
 30
0.0
 10
846.0083082821327
 20
1761.745878730053
 30
0.0
 10
847.3188890061255
 20
1761.745878730053
 30
0.0
 10
848.1664074431872
 20
1761.745878730053
 30
0.0
  0
LINE
  5
1A6
330
143
100
AcDbEntity
  8
P-SANR-FIXT
100
AcDbLine
 10
845.3880337216018
 20
1746.245878730053
 30
0.0
 11
845.3880337216018
 21
1761.745878730053
 31
0.0
  0
SPLINE
  5
1A7
330
143
100
AcDbEntity
  8
P-SANR-FIXT
100
AcDbSpline
210
0.0
220
0.0
230
1.0
 70
    24
 71
     3
 72
     8
 73
     4
 74
     0
 42
0.000000001
 43
0.0000000001
 40
0.8588944976883794
 40
0.8588944976883794
 40
0.8588944976883794
 40
0.8588944976883794
 40
1.0
 40
1.0
 40
1.0
 40
1.0
 10
845.5005131633429
 20
1761.745878730053
 30
0.0
 10
845.4477103856847
 20
1761.745878730053
 30
0.0
 10
845.4102172384377
 20
1761.745878730053
 30
0.0
 10
845.3880337216018
 20
1761.745878730053
 30
0.0
  0
LINE
  5
1A8
330
143
100
AcDbEntity
  8
P-SANR-FIXT
100
AcDbLine
 10
848.1664074431874
 20
1730.745878730053
 30
0.0
 11
848.1664074431874
 21
1732.232888660784
 31
0.0
  0
LINE
  5
1A9
330
143
100
AcDbEntity
  8
P-SANR-FIXT
100
AcDbLine
 10
851.8880337216023
 20
1730.745878730053
 30
0.0
 11
848.1664074431872
 21
1730.745878730053
 31
0.0
  0
LINE
  5
1AA
330
143
100
AcDbEntity
  8
P-SANR-FIXT
100
AcDbLine
 10
848.1664074431874
 20
1732.232888660784
 30
0.0
 11
851.8880337216025
 21
1732.232888660784
 31
0.0
  0
LINE
  5
1AB
330
143
100
AcDbEntity
  8
P-SANR-FIXT
100
AcDbLine
 10
848.1664074431877
 20
1744.758868799321
 30
0.0
 11
848.1664074431877
 21
1746.245878730053
 31
0.0
  0
LINE
  5
1AC
330
143
100
AcDbEntity
  8
P-SANR-FIXT
100
AcDbLine
 10
851.8880337216023
 20
1744.758868799321
 30
0.0
 11
848.1664074431874
 21
1744.758868799321
 31
0.0
  0
LINE
  5
1AD
330
143
100
AcDbEntity
  8
P-SANR-FIXT
100
AcDbLine
 10
848.1664074431872
 20
1760.258868799321
 30
0.0
 11
848.1664074431872
 21
1761.745878730053
 31
0.0
  0
LINE
  5
1AE
330
143
100
AcDbEntity
  8
P-SANR-FIXT
100
AcDbLine
 10
851.8880337216023
 20
1760.258868799321
 30
0.0
 11
848.1664074431874
 21
1760.258868799321
 31
0.0
  0
LINE
  5
1AF
330
143
100
AcDbEntity
  8
P-SANR-FIXT
100
AcDbLine
 10
848.1664074431872
 20
1761.745878730053
 30
0.0
 11
851.8880337216025
 21
1761.745878730053
 31
0.0
  0
LINE
  5
1B0
330
143
100
AcDbEntity
  8
P-SANR-FIXT
100
AcDbLine
 10
848.1664074431872
 20
1747.732888660785
 30
0.0
 11
851.8880337216025
 21
1747.732888660785
 31
0.0
  0
LINE
  5
1B1
330
143
100
AcDbEntity
  8
P-SANR-FIXT
100
AcDbLine
 10
848.1664074431872
 20
1746.245878730053
 30
0.0
 11
848.1664074431872
 21
1747.732888660785
 31
0.0
  0
LINE
  5
1B2
330
143
100
AcDbEntity
  8
P-SANR-FIXT
100
AcDbLine
 10
851.8880337216023
 20
1730.745878730053
 30
0.0
 11
851.8880337216023
 21
1732.232888660784
 31
0.0
  0
SPLINE
  5
1B3
330
143
100
AcDbEntity
  8
P-SANR-FIXT
100
AcDbSpline
210
0.0
220
0.0
230
1.0
 70
    24
 71
     3
 72
     9
 73
     5
 74
     0
 42
0.000000001
 43
0.0000000001
 40
0.0
 40
0.0
 40
0.0
 40
0.0
 40
0.5
 40
1.0
 40
1.0
 40
1.0
 40
1.0
 10
854.6664074431877
 20
1730.745878730053
 30
0.0
 10
854.6030214798916
 20
1730.745878730053
 30
0.0
 10
854.0765732296648
 20
1730.745878730053
 30
0.0
 10
852.7507723321681
 20
1730.745878730053
 30
0.0
 10
851.8880337216023
 20
1730.745878730053
 30
0.0
  0
SPLINE
  5
1B4
330
143
100
AcDbEntity
  8
P-SANR-FIXT
100
AcDbSpline
210
0.0
220
0.0
230
1.0
 70
     8
 71
     3
 72
     9
 73
     5
 74
     0
 42
0.000000001
 43
0.0000000001
 40
0.0
 40
0.0
 40
0.0
 40
0.0
 40
0.5
 40
1.0
 40
1.0
 40
1.0
 40
1.0
 10
851.8880337216025
 20
1732.232888660784
 30
0.0
 10
852.7507723321681
 20
1733.177963094464
 30
0.0
 10
854.0765732296648
 20
1735.166869206355
 30
0.0
 10
854.6030214798916
 20
1737.353289807309
 30
0.0
 10
854.6664074431877
 20
1738.495878730053
 30
0.0
  0
LINE
  5
1B5
330
143
100
AcDbEntity
  8
P-SANR-FIXT
100
AcDbLine
 10
851.8880337216019
 20
1744.758868799321
 30
0.0
 11
851.8880337216019
 21
1746.245878730053
 31
0.0
  0
SPLINE
  5
1B6
330
143
100
AcDbEntity
  8
P-SANR-FIXT
100
AcDbSpline
210
0.0
220
0.0
230
1.0
 70
     8
 71
     3
 72
     9
 73
     5
 74
     0
 42
0.000000001
 43
0.0000000001
 40
0.0
 40
0.0
 40
0.0
 40
0.0
 40
0.5
 40
1.0
 40
1.0
 40
1.0
 40
1.0
 10
854.6664074431877
 20
1738.495878730053
 30
0.0
 10
854.6030214798916
 20
1739.638467652796
 30
0.0
 10
854.0765732296648
 20
1741.82488825375
 30
0.0
 10
852.7507723321681
 20
1743.813794365641
 30
0.0
 10
851.8880337216023
 20
1744.758868799321
 30
0.0
  0
SPLINE
  5
1B7
330
143
100
AcDbEntity
  8
P-SANR-FIXT
100
AcDbSpline
210
0.0
220
0.0
230
1.0
 70
    24
 71
     3
 72
     8
 73
     4
 74
     0
 42
0.000000001
 43
0.0000000001
 40
0.0
 40
0.0
 40
0.0
 40
0.0
 40
0.1414849121130144
 40
0.1414849121130144
 40
0.1414849121130144
 40
0.1414849121130144
 10
854.6664074431877
 20
1761.745878730053
 30
0.0
 10
854.6484711282955
 20
1761.745878730053
 30
0.0
 10
854.6145333878129
 20
1761.745878730053
 30
0.0
 10
854.5645942217401
 20
1761.745878730053
 30
0.0
  0
LINE
  5
1B8
330
143
100
AcDbEntity
  8
P-SANR-FIXT
100
AcDbLine
 10
851.8880337216025
 20
1760.258868799321
 30
0.0
 11
851.8880337216025
 21
1761.745878730053
 31
0.0
  0
SPLINE
  5
1B9
330
143
100
AcDbEntity
  8
P-SANR-FIXT
100
AcDbSpline
210
0.0
220
0.0
230
1.0
 70
     8
 71
     3
 72
     9
 73
     5
 74
     0
 42
0.000000001
 43
0.0000000001
 40
0.0
 40
0.0
 40
0.0
 40
0.0
 40
0.5
 40
1.0
 40
1.0
 40
1.0
 40
1.0
 10
854.6664074431877
 20
1753.995878730053
 30
0.0
 10
854.6030214798916
 20
1755.138467652796
 30
0.0
 10
854.0765732296646
 20
1757.32488825375
 30
0.0
 10
852.7507723321681
 20
1759.313794365641
 30
0.0
 10
851.8880337216025
 20
1760.258868799321
 30
0.0
  0
SPLINE
  5
1BA
330
143
100
AcDbEntity
  8
P-SANR-FIXT
100
AcDbSpline
210
0.0
220
0.0
230
1.0
 70
    24
 71
     3
 72
     9
 73
     5
 74
     0
 42
0.000000001
 43
0.0000000001
 40
0.0
 40
0.0
 40
0.0
 40
0.0
 40
0.5
 40
1.0
 40
1.0
 40
1.0
 40
1.0
 10
851.8880337216025
 20
1761.745878730053
 30
0.0
 10
852.7507723321681
 20
1761.745878730053
 30
0.0
 10
854.0765732296646
 20
1761.745878730053
 30
0.0
 10
854.6030214798916
 20
1761.745878730053
 30
0.0
 10
854.6664074431877
 20
1761.745878730053
 30
0.0
  0
SPLINE
  5
1BB
330
143
100
AcDbEntity
  8
P-SANR-FIXT
100
AcDbSpline
210
0.0
220
0.0
230
1.0
 70
     8
 71
     3
 72
     9
 73
     5
 74
     0
 42
0.000000001
 43
0.0000000001
 40
0.0
 40
0.0
 40
0.0
 40
0.0
 40
0.5
 40
1.0
 40
1.0
 40
1.0
 40
1.0
 10
851.8880337216025
 20
1747.732888660785
 30
0.0
 10
852.7507723321681
 20
1748.677963094464
 30
0.0
 10
854.0765732296648
 20
1750.666869206355
 30
0.0
 10
854.6030214798916
 20
1752.853289807309
 30
0.0
 10
854.6664074431877
 20
1753.995878730053
 30
0.0
  0
LINE
  5
1BC
330
143
100
AcDbEntity
  8
P-SANR-FIXT
100
AcDbLine
 10
851.8880337216025
 20
1746.245878730053
 30
0.0
 11
851.8880337216025
 21
1747.732888660785
 31
0.0
  0
LINE
  5
1BD
330
143
100
AcDbEntity
  8
P-SANR-FIXT
100
AcDbLine
 10
854.6664074431877
 20
1730.745878730053
 30
0.0
 11
854.6664074431877
 21
1738.495878730052
 31
0.0
  0
LINE
  5
1BE
330
143
100
AcDbEntity
  8
P-SANR-FIXT
100
AcDbLine
 10
854.6664074431879
 20
1730.761090595146
 30
0.0
 11
854.6664074431879
 21
1730.745878730053
 31
0.0
  0
LINE
  5
1BF
330
143
100
AcDbEntity
  8
P-SANR-FIXT
100
AcDbLine
 10
854.6664074431877
 20
1739.019896174296
 30
0.0
 11
854.6664074431877
 21
1738.047344657382
 31
0.0
  0
LINE
  5
1C0
330
143
100
AcDbEntity
  8
P-SANR-FIXT
100
AcDbLine
 10
854.6664074431877
 20
1738.047344657382
 30
0.0
 11
854.6664074431877
 21
1739.019896174296
 31
0.0
  0
LINE
  5
1C1
330
143
100
AcDbEntity
  8
P-SANR-FIXT
100
AcDbLine
 10
854.6664074431879
 20
1738.495878730052
 30
0.0
 11
854.6664074431879
 21
1746.245878730053
 31
0.0
  0
LINE
  5
1C2
330
143
100
AcDbEntity
  8
P-SANR-FIXT
100
AcDbLine
 10
854.6664074431877
 20
1761.745878730053
 30
0.0
 11
854.6664074431877
 21
1761.703810320742
 31
0.0
  0
LINE
  5
1C3
330
143
100
AcDbEntity
  8
P-SANR-FIXT
100
AcDbLine
 10
854.6664074431879
 20
1753.995878730053
 30
0.0
 11
854.6664074431879
 21
1761.745878730053
 31
0.0
  0
LINE
  5
1C4
330
143
100
AcDbEntity
  8
P-SANR-FIXT
100
AcDbLine
 10
854.6664074431877
 20
1746.245878730053
 30
0.0
 11
854.6664074431877
 21
1753.995878730053
 31
0.0
  0
LINE
  5
1C5
330
143
100
AcDbEntity
  8
P-SANR-FIXT
100
AcDbLine
 10
854.6664074431877
 20
1753.471861285946
 30
0.0
 11
854.6664074431877
 21
1754.4547147845
 31
0.0
  0
LINE
  5
1C6
330
143
100
AcDbEntity
  8
P-SANR-FIXT
100
AcDbLine
 10
854.6664074431877
 20
1754.4547147845
 30
0.0
 11
854.6664074431877
 21
1753.471861285946
 31
0.0
  0
ARC
  5
1C7
330
143
100
AcDbEntity
  8
P-SANR-FIXT
100
AcDbCircle
 10
815.666407443188
 20
1746.245878730053
 30
0.0
 40
28.75000000000002
100
AcDbArc
 50
179.9999999999999
 51
359.9999999999991
  0
ENDBLK
  5
1C9
330
143
100
AcDbEntity
  8
0
100
AcDbBlockEnd
  0
BLOCK
  5
25D
330
1CB
100
AcDbEntity
  8
0
100
AcDbBlockBegin
  2
Automatic flow rate regulator valve_Caleffi_121 DN15 - 1_2__-V2-Est - Idraulica
 70
     0
 10
0.0
 20
0.0
 30
0.0
  3
Automatic flow rate regulator valve_Caleffi_121 DN15 - 1_2__-V2-Est - Idraulica
  1

  0
LWPOLYLINE
  5
1CC
330
1CB
100
AcDbEntity
  8
P-SANR-FIXT
100
AcDbPolyline
 90
       41
 70
   128
 43
0.0
 10
1039.642120017941
 20
2122.982558850492
 10
1039.64371980462
 20
2123.062537518865
 10
1039.648516605336
 20
2123.142388238431
 10
1039.656502746234
 20
2123.22198326507
 10
1039.66766545119
 20
2123.30119526372
 10
1039.681986862259
 20
2123.379897512082
 10
1039.699444068238
 20
2123.457964103346
 10
1039.72000914132
 20
2123.53527014762
 10
1039.743649181777
 20
2123.611691971724
 10
1039.770326370586
 20
2123.687107317042
 10
1039.799998029936
 20
2123.76139553511
 10
1039.832616691501
 20
2123.834437780624
 10
1039.868130172383
 20
2123.906117201575
 10
1039.906481658586
 20
2123.97631912618
 10
1039.947609795915
 20
2124.044931246334
 10
1039.991448788122
 20
2124.111843797282
 10
1040.037928502173
 20
2124.176949733217
 10
1040.086974580439
 20
2124.240144898529
 10
1040.13850855966
 20
2124.301328194435
 10
1040.19244799646
 20
2124.360401740713
 10
1040.248706599247
 20
2124.417271032291
 10
1040.307194366259
 20
2124.471845090434
 10
1040.367817729545
 20
2124.52403660829
 10
1040.430479704655
 20
2124.573762090565
 10
1040.495080045797
 20
2124.620941987094
 10
1040.561515406205
 20
2124.665500820108
 10
1040.629679503476
 20
2124.707367304979
 10
1040.699463289594
 20
2124.746474464262
 10
1040.770755125388
 20
2124.782759734845
 10
1040.843440959129
 20
2124.816165068036
 10
1040.917404508988
 20
2124.846637022427
 10
1040.992527449064
 20
2124.874126849391
 10
1041.068689598678
 20
2124.898590571071
 10
1041.145769114637
 20
2124.919989050729
 10
1041.223642686159
 20
2124.938288055362
 10
1041.302185732141
 20
2124.953458310469
 10
1041.381272600465
 20
2124.965475546876
 10
1041.460776769013
 20
2124.974320539567
 10
1041.540571048074
 20
2124.979979138443
 10
1041.620527783825
 20
2124.982442290952
 10
1041.642120017941
 20
2124.982558850492
  0
LWPOLYLINE
  5
1CD
330
1CB
100
AcDbEntity
  8
P-SANR-FIXT
100
AcDbPolyline
 90
       41
 70
   128
 43
0.0
 10
1067.114353943098
 20
2124.982558850492
 10
1066.095736268185
 20
2124.982558850492
 10
1065.078748164258
 20
2124.982558850492
 10
1064.065016595338
 20
2124.982558850492
 10
1063.056163315684
 20
2124.982558850492
 10
1062.053802275332
 20
2124.982558850492
 10
1061.059537038122
 20
2124.982558850492
 10
1060.074958216335
 20
2124.982558850492
 10
1059.101640926052
 20
2124.982558850492
 10
1058.14114226731
 20
2124.982558850492
 10
1057.194998833065
 20
2124.982558850492
 10
1056.264724250981
 20
2124.982558850492
 10
1055.35180676194
 20
2124.982558850492
 10
1054.457706839178
 20
2124.982558850492
 10
1053.583854851843
 20
2124.982558850492
 10
1052.731648776701
 20
2124.982558850492
 10
1051.902451961678
 20
2124.982558850492
 10
1051.097590944793
 20
2124.982558850492
 10
1050.318353331978
 20
2124.982558850492
 10
1049.565985737185
 20
2124.982558850492
 10
1048.84169178807
 20
2124.982558850492
 10
1048.146630200442
 20
2124.982558850492
 10
1047.481912924571
 20
2124.982558850492
 10
1046.848603366298
 20
2124.982558850492
 10
1046.247714685819
 20
2124.982558850492
 10
1045.68020817684
 20
2124.982558850492
 10
1045.146991728712
 20
2124.982558850492
 10
1044.648918374007
 20
2124.982558850492
 10
1044.186784923841
 20
2124.982558850492
 10
1043.761330693153
 20
2124.982558850492
 10
1043.373236317952
 20
2124.982558850492
 10
1043.023122666449
 20
2124.982558850492
 10
1042.711549845801
 20
2124.982558850492
 10
1042.439016306054
 20
2124.982558850492
 10
1042.205958042736
 20
2124.982558850492
 10
1042.01274789935
 20
2124.982558850492
 10
1041.85969497091
 20
2124.982558850492
 10
1041.747044109453
 20
2124.982558850492
 10
1041.674975532325
 20
2124.982558850492
 10
1041.643604533877
 20
2124.982558850492
 10
1041.642120017941
 20
2124.982558850492
  0
LWPOLYLINE
  5
1CE
330
1CB
100
AcDbEntity
  8
P-SANR-FIXT
100
AcDbPolyline
 90
       34
 70
   128
 43
0.0
 10
1041.642120017941
 20
2124.982558850492
 10
1041.662495088188
 20
2124.982558850492
 10
1041.723587703162
 20
2124.982558850492
 10
1041.825300127713
 20
2124.982558850492
 10
1041.967469643657
 20
2124.982558850492
 10
1042.149868810098
 20
2124.982558850492
 10
1042.372205827279
 20
2124.982558850492
 10
1042.634125003402
 20
2124.982558850492
 10
1042.935207323658
 20
2124.982558850492
 10
1043.274971120562
 20
2124.982558850492
 10
1043.652872844519
 20
2124.982558850492
 10
1044.068307933385
 20
2124.982558850492
 10
1044.520611779638
 20
2124.982558850492
 10
1045.009060793611
 20
2124.982558850492
 10
1045.53287356108
 20
2124.982558850492
 10
1046.091212093356
 20
2124.982558850492
 10
1046.683183167893
 20
2124.982558850492
 10
1047.307839757254
 20
2124.982558850492
 10
1047.964182544148
 20
2124.982558850492
 10
1048.651161520128
 20
2124.982558850492
 10
1049.367677665381
 20
2124.982558850492
 10
1050.112584706922
 20
2124.982558850492
 10
1050.884690952391
 20
2124.982558850492
 10
1051.682761196501
 20
2124.982558850492
 10
1052.505518697108
 20
2124.982558850492
 10
1053.351647217723
 20
2124.982558850492
 10
1054.219793133212
 20
2124.982558850492
 10
1055.108567595303
 20
2124.982558850492
 10
1056.016548754453
 20
2124.982558850492
 10
1056.942284034499
 20
2124.982558850492
 10
1057.884292456474
 20
2124.982558850492
 10
1058.841067007852
 20
2124.982558850492
 10
1059.811077053453
 20
2124.982558850492
 10
1059.864353943098
 20
2124.982558850492
  0
LINE
  5
1CF
330
1CB
100
AcDbEntity
  8
P-SANR-FIXT
100
AcDbLine
 10
1094.586587868255
 20
2116.482558850513
 30
0.0
 11
1094.586587868255
 21
2122.982558850492
 31
0.0
  0
LINE
  5
1D0
330
1CB
100
AcDbEntity
  8
P-SANR-FIXT
100
AcDbLine
 10
1092.864353943099
 20
2077.941694260573
 30
0.0
 11
1092.864353943099
 21
2098.482558850529
 31
0.0
  0
LINE
  5
1D1
330
1CB
100
AcDbEntity
  8
P-SANR-FIXT
100
AcDbLine
 10
1095.614353942264
 20
2066.482558850465
 30
0.0
 11
1094.614353943098
 21
2066.750508042884
 31
0.0
  0
LINE
  5
1D2
330
1CB
100
AcDbEntity
  8
P-SANR-FIXT
100
AcDbLine
 10
1095.614353942264
 20
2063.482558850012
 30
0.0
 11
1095.614353942264
 21
2066.482558850465
 31
0.0
  0
LWPOLYLINE
  5
1D3
330
1CB
100
AcDbEntity
  8
P-SANR-FIXT
100
AcDbPolyline
 90
       41
 70
   128
 43
0.0
 10
1092.586587868255
 20
2124.982558850492
 10
1092.666566536628
 20
2124.980959063814
 10
1092.746417256193
 20
2124.976162263097
 10
1092.826012282833
 20
2124.9681761222
 10
1092.905224281484
 20
2124.957013417243
 10
1092.983926529845
 20
2124.942692006175
 10
1093.061993121109
 20
2124.925234800196
 10
1093.139299165383
 20
2124.904669727114
 10
1093.215720989487
 20
2124.881029686657
 10
1093.291136334805
 20
2124.854352497848
 10
1093.365424552872
 20
2124.824680838498
 10
1093.438466798387
 20
2124.792062176932
 10
1093.510146219338
 20
2124.75654869605
 10
1093.580348143942
 20
2124.718197209848
 10
1093.648960264097
 20
2124.677069072519
 10
1093.715872815045
 20
2124.633230080311
 10
1093.78097875098
 20
2124.586750366261
 10
1093.844173916292
 20
2124.537704287994
 10
1093.905357212198
 20
2124.486170308774
 10
1093.964430758476
 20
2124.432230871974
 10
1094.021300050054
 20
2124.375972269186
 10
1094.075874108197
 20
2124.317484502174
 10
1094.128065626053
 20
2124.256861138889
 10
1094.177791108327
 20
2124.194199163779
 10
1094.224971004857
 20
2124.129598822637
 10
1094.269529837871
 20
2124.063163462228
 10
1094.311396322741
 20
2123.994999364958
 10
1094.350503482025
 20
2123.925215578839
 10
1094.386788752608
 20
2123.853923743046
 10
1094.420194085798
 20
2123.781237909305
 10
1094.45066604019
 20
2123.707274359445
 10
1094.478155867154
 20
2123.63215141937
 10
1094.502619588833
 20
2123.555989269755
 10
1094.524018068491
 20
2123.478909753797
 10
1094.542317073125
 20
2123.401036182275
 10
1094.557487328232
 20
2123.322493136293
 10
1094.569504564638
 20
2123.243406267969
 10
1094.57834955733
 20
2123.163902099421
 10
1094.584008156206
 20
2123.084107820359
 10
1094.586471308715
 20
2123.004151084609
 10
1094.586587868255
 20
2122.982558850492
  0
LWPOLYLINE
  5
1D4
330
1CB
100
AcDbEntity
  8
P-SANR-FIXT
100
AcDbPolyline
 90
       34
 70
   128
 43
0.0
 10
1074.364353943098
 20
2124.982558850492
 10
1075.127066960144
 20
2124.982558850492
 10
1076.087565618887
 20
2124.982558850492
 10
1077.033709053131
 20
2124.982558850492
 10
1077.963983635215
 20
2124.982558850492
 10
1078.876901124257
 20
2124.982558850492
 10
1079.771001047018
 20
2124.982558850492
 10
1080.644853034354
 20
2124.982558850492
 10
1081.497059109496
 20
2124.982558850492
 10
1082.326255924518
 20
2124.982558850492
 10
1083.131116941403
 20
2124.982558850492
 10
1083.910354554218
 20
2124.982558850492
 10
1084.662722149011
 20
2124.982558850492
 10
1085.387016098127
 20
2124.982558850492
 10
1086.082077685754
 20
2124.982558850492
 10
1086.746794961626
 20
2124.982558850492
 10
1087.380104519898
 20
2124.982558850492
 10
1087.980993200377
 20
2124.982558850492
 10
1088.548499709357
 20
2124.982558850492
 10
1089.081716157484
 20
2124.982558850492
 10
1089.57978951219
 20
2124.982558850492
 10
1090.041922962355
 20
2124.982558850492
 10
1090.467377193043
 20
2124.982558850492
 10
1090.855471568245
 20
2124.982558850492
 10
1091.205585219747
 20
2124.982558850492
 10
1091.517158040396
 20
2124.982558850492
 10
1091.789691580142
 20
2124.982558850492
 10
1092.022749843461
 20
2124.982558850492
 10
1092.215959986847
 20
2124.982558850492
 10
1092.369012915286
 20
2124.982558850492
 10
1092.481663776744
 20
2124.982558850492
 10
1092.553732353871
 20
2124.982558850492
 10
1092.585103352319
 20
2124.982558850492
 10
1092.586587868255
 20
2124.982558850492
  0
LWPOLYLINE
  5
1D5
330
1CB
100
AcDbEntity
  8
P-SANR-FIXT
100
AcDbPolyline
 90
       41
 70
   128
 43
0.0
 10
1092.586587868255
 20
2124.982558850492
 10
1092.566212798008
 20
2124.982558850492
 10
1092.505120183034
 20
2124.982558850492
 10
1092.403407758483
 20
2124.982558850492
 10
1092.261238242539
 20
2124.982558850492
 10
1092.078839076098
 20
2124.982558850492
 10
1091.856502058917
 20
2124.982558850492
 10
1091.594582882794
 20
2124.982558850492
 10
1091.293500562538
 20
2124.982558850492
 10
1090.953736765634
 20
2124.982558850492
 10
1090.575835041677
 20
2124.982558850492
 10
1090.160399952812
 20
2124.982558850492
 10
1089.708096106558
 20
2124.982558850492
 10
1089.219647092585
 20
2124.982558850492
 10
1088.695834325116
 20
2124.982558850492
 10
1088.13749579284
 20
2124.982558850492
 10
1087.545524718303
 20
2124.982558850492
 10
1086.920868128942
 20
2124.982558850492
 10
1086.264525342048
 20
2124.982558850492
 10
1085.577546366068
 20
2124.982558850492
 10
1084.861030220815
 20
2124.982558850492
 10
1084.116123179274
 20
2124.982558850492
 10
1083.344016933805
 20
2124.982558850492
 10
1082.545946689695
 20
2124.982558850492
 10
1081.723189189088
 20
2124.982558850492
 10
1080.877060668473
 20
2124.982558850492
 10
1080.008914752984
 20
2124.982558850492
 10
1079.120140290893
 20
2124.982558850492
 10
1078.212159131743
 20
2124.982558850492
 10
1077.286423851697
 20
2124.982558850492
 10
1076.344415429723
 20
2124.982558850492
 10
1075.387640878344
 20
2124.982558850492
 10
1074.417630832743
 20
2124.982558850492
 10
1073.435937102069
 20
2124.982558850492
 10
1072.444130186872
 20
2124.982558850492
 10
1071.443796766643
 20
2124.982558850492
 10
1070.436537161463
 20
2124.982558850492
 10
1069.423962771827
 20
2124.982558850492
 10
1068.407693500756
 20
2124.982558850492
 10
1067.38935516229
 20
2124.982558850492
 10
1067.114353943098
 20
2124.982558850492
  0
LINE
  5
1D6
330
1CB
100
AcDbEntity
  8
P-SANR-FIXT
100
AcDbLine
 10
1039.642120017941
 20
2122.982558850492
 30
0.0
 11
1039.642120017941
 21
2116.482558850513
 31
0.0
  0
LINE
  5
1D7
330
1CB
100
AcDbEntity
  8
P-SANR-FIXT
100
AcDbLine
 10
1093.586587868312
 20
2115.482558850571
 30
0.0
 11
1094.586587868255
 21
2116.482558850513
 31
0.0
  0
LINE
  5
1D8
330
1CB
100
AcDbEntity
  8
P-SANR-FIXT
100
AcDbLine
 10
1039.642120017941
 20
2116.482558850513
 30
0.0
 11
1040.642120017884
 21
2115.482558850571
 31
0.0
  0
LINE
  5
1D9
330
1CB
100
AcDbEntity
  8
P-SANR-FIXT
100
AcDbLine
 10
1092.039353943099
 20
2098.95887282261
 30
0.0
 11
1092.039353943099
 21
2115.482558850571
 31
0.0
  0
LINE
  5
1DA
330
1CB
100
AcDbEntity
  8
P-SANR-FIXT
100
AcDbLine
 10
1042.189353943098
 20
2115.482558850571
 30
0.0
 11
1042.189353943098
 21
2098.95887282261
 31
0.0
  0
LINE
  5
1DB
330
1CB
100
AcDbEntity
  8
P-SANR-FIXT
100
AcDbLine
 10
1092.864353943099
 20
2098.482558850529
 30
0.0
 11
1092.800232064972
 21
2098.519579634126
 31
0.0
  0
LINE
  5
1DC
330
1CB
100
AcDbEntity
  8
P-SANR-FIXT
100
AcDbLine
 10
1092.784975286727
 20
2098.528388139153
 30
0.0
 11
1092.039353943099
 21
2098.95887282261
 31
0.0
  0
LINE
  5
1DD
330
1CB
100
AcDbEntity
  8
P-SANR-FIXT
100
AcDbLine
 10
1042.189353943098
 20
2098.95887282261
 30
0.0
 11
1041.44373259947
 21
2098.528388139153
 31
0.0
  0
LINE
  5
1DE
330
1CB
100
AcDbEntity
  8
P-SANR-FIXT
100
AcDbLine
 10
1041.428475821225
 20
2098.519579634126
 30
0.0
 11
1041.364353943097
 21
2098.482558850529
 31
0.0
  0
LINE
  5
1DF
330
1CB
100
AcDbEntity
  8
P-SANR-FIXT
100
AcDbLine
 10
1041.364353943097
 20
2098.482558850529
 30
0.0
 11
1041.364353943097
 21
2077.941694260573
 31
0.0
  0
LINE
  5
1E0
330
1CB
100
AcDbEntity
  8
P-SANR-FIXT
100
AcDbLine
 10
1039.614353943098
 20
2066.750508042884
 30
0.0
 11
1038.614353943933
 21
2066.482558850465
 31
0.0
  0
LINE
  5
1E1
330
1CB
100
AcDbEntity
  8
P-SANR-FIXT
100
AcDbLine
 10
1038.614353943933
 20
2066.482558850465
 30
0.0
 11
1038.614353943933
 21
2063.482558850012
 31
0.0
  0
LINE
  5
1E2
330
1CB
100
AcDbEntity
  8
P-SANR-FIXT
100
AcDbLine
 10
1092.864353943097
 20
2098.482558850528
 30
0.0
 11
1067.114353943097
 21
2098.482558850528
 31
0.0
  0
LINE
  5
1E3
330
1CB
100
AcDbEntity
  8
P-SANR-FIXT
100
AcDbLine
 10
1070.981582216259
 20
2077.941694260573
 30
0.0
 11
1082.381297288191
 21
2077.941694260573
 31
0.0
  0
LINE
  5
1E4
330
1CB
100
AcDbEntity
  8
P-SANR-FIXT
100
AcDbLine
 10
1087.850383960874
 20
2077.941694260573
 30
0.0
 11
1092.572300550854
 21
2077.941694260573
 31
0.0
  0
LINE
  5
1E5
330
1CB
100
AcDbEntity
  8
P-SANR-FIXT
100
AcDbLine
 10
1094.614353943097
 20
2066.750508042884
 30
0.0
 11
1067.114353943097
 21
2066.750508042884
 31
0.0
  0
LINE
  5
1E6
330
1CB
100
AcDbEntity
  8
P-SANR-FIXT
100
AcDbLine
 10
1067.114353943096
 20
2066.482558850465
 30
0.0
 11
1095.614353942262
 21
2066.482558850465
 31
0.0
  0
LINE
  5
1E7
330
1CB
100
AcDbEntity
  8
P-SANR-FIXT
100
AcDbLine
 10
1067.114353943096
 20
2116.482558850512
 30
0.0
 11
1094.586587868253
 21
2116.482558850512
 31
0.0
  0
LINE
  5
1E8
330
1CB
100
AcDbEntity
  8
P-SANR-FIXT
100
AcDbLine
 10
1039.64212001794
 20
2116.482558850512
 30
0.0
 11
1067.114353943096
 21
2116.482558850512
 31
0.0
  0
LINE
  5
1E9
330
1CB
100
AcDbEntity
  8
P-SANR-FIXT
100
AcDbLine
 10
1067.114353943096
 20
2115.48255885057
 30
0.0
 11
1093.586587868311
 21
2115.48255885057
 31
0.0
  0
LINE
  5
1EA
330
1CB
100
AcDbEntity
  8
P-SANR-FIXT
100
AcDbLine
 10
1040.642120017882
 20
2115.48255885057
 30
0.0
 11
1067.114353943096
 21
2115.48255885057
 31
0.0
  0
LINE
  5
1EB
330
1CB
100
AcDbEntity
  8
P-SANR-FIXT
100
AcDbLine
 10
1067.114353943096
 20
2098.95887282261
 30
0.0
 11
1092.039353943097
 21
2098.95887282261
 31
0.0
  0
LINE
  5
1EC
330
1CB
100
AcDbEntity
  8
P-SANR-FIXT
100
AcDbLine
 10
1042.189353943096
 20
2098.95887282261
 30
0.0
 11
1067.114353943096
 21
2098.95887282261
 31
0.0
  0
LINE
  5
1ED
330
1CB
100
AcDbEntity
  8
P-SANR-FIXT
100
AcDbLine
 10
1041.364353943096
 20
2098.482558850528
 30
0.0
 11
1067.114353943096
 21
2098.482558850528
 31
0.0
  0
LINE
  5
1EE
330
1CB
100
AcDbEntity
  8
P-SANR-FIXT
100
AcDbLine
 10
1041.656407335341
 20
2077.941694260573
 30
0.0
 11
1046.378323925335
 21
2077.941694260573
 31
0.0
  0
LINE
  5
1EF
330
1CB
100
AcDbEntity
  8
P-SANR-FIXT
100
AcDbLine
 10
1051.847410598015
 20
2077.941694260573
 30
0.0
 11
1063.247125669957
 21
2077.941694260573
 31
0.0
  0
LINE
  5
1F0
330
1CB
100
AcDbEntity
  8
P-SANR-FIXT
100
AcDbLine
 10
1067.114353943096
 20
2063.482558850011
 30
0.0
 11
1095.614353942262
 21
2063.482558850011
 31
0.0
  0
LINE
  5
1F1
330
1CB
100
AcDbEntity
  8
P-SANR-FIXT
100
AcDbLine
 10
1067.114353943097
 20
2063.482558850011
 30
0.0
 11
1038.614353943931
 21
2063.482558850011
 31
0.0
  0
LINE
  5
1F2
330
1CB
100
AcDbEntity
  8
P-SANR-FIXT
100
AcDbLine
 10
1039.614353943097
 20
2066.750508042884
 30
0.0
 11
1067.114353943096
 21
2066.750508042884
 31
0.0
  0
LINE
  5
1F3
330
1CB
100
AcDbEntity
  8
P-SANR-FIXT
100
AcDbLine
 10
1038.614353943931
 20
2066.482558850465
 30
0.0
 11
1067.114353943096
 21
2066.482558850465
 31
0.0
  0
LINE
  5
1F4
330
1CB
100
AcDbEntity
  8
P-SANR-FIXT
100
AcDbLine
 10
1082.381297288192
 20
2077.941694260573
 30
0.0
 11
1086.248525561343
 21
2077.941694260573
 31
0.0
  0
LINE
  5
1F5
330
1CB
100
AcDbEntity
  8
P-SANR-FIXT
100
AcDbLine
 10
1086.248525561343
 20
2077.941694260573
 30
0.0
 11
1087.850383960874
 21
2077.941694260573
 31
0.0
  0
LINE
  5
1F6
330
1CB
100
AcDbEntity
  8
P-SANR-FIXT
100
AcDbLine
 10
1092.572300550854
 20
2077.941694260573
 30
0.0
 11
1094.174158950385
 21
2077.941694260573
 31
0.0
  0
LINE
  5
1F7
330
1CB
100
AcDbEntity
  8
P-SANR-FIXT
100
AcDbLine
 10
1040.05454893581
 20
2077.941694260573
 30
0.0
 11
1041.656407335341
 21
2077.941694260573
 31
0.0
  0
LINE
  5
1F8
330
1CB
100
AcDbEntity
  8
P-SANR-FIXT
100
AcDbLine
 10
1046.378323925335
 20
2077.941694260573
 30
0.0
 11
1047.980182324867
 21
2077.941694260573
 31
0.0
  0
LINE
  5
1F9
330
1CB
100
AcDbEntity
  8
P-SANR-FIXT
100
AcDbLine
 10
1047.980182324867
 20
2077.941694260573
 30
0.0
 11
1051.847410598016
 21
2077.941694260573
 31
0.0
  0
LINE
  5
1FA
330
1CB
100
AcDbEntity
  8
P-SANR-FIXT
100
AcDbLine
 10
1063.247125669957
 20
2077.941694260573
 30
0.0
 11
1067.114353943108
 21
2077.941694260573
 31
0.0
  0
LINE
  5
1FB
330
1CB
100
AcDbEntity
  8
P-SANR-FIXT
100
AcDbLine
 10
1067.114353943108
 20
2077.941694260573
 30
0.0
 11
1070.981582216259
 21
2077.941694260573
 31
0.0
  0
LINE
  5
1FC
330
1CB
100
AcDbEntity
  8
P-SANR-FIXT
100
AcDbLine
 10
1040.05454893581
 20
2066.750508042883
 30
0.0
 11
1040.05454893581
 21
2077.941694260573
 31
0.0
  0
LINE
  5
1FD
330
1CB
100
AcDbEntity
  8
P-SANR-FIXT
100
AcDbLine
 10
1047.980182324867
 20
2066.750508042883
 30
0.0
 11
1047.980182324867
 21
2077.941694260573
 31
0.0
  0
LINE
  5
1FE
330
1CB
100
AcDbEntity
  8
P-SANR-FIXT
100
AcDbLine
 10
1067.1143539431
 20
2066.750508042883
 30
0.0
 11
1067.114353943108
 21
2077.941694260573
 31
0.0
  0
LINE
  5
1FF
330
1CB
100
AcDbEntity
  8
P-SANR-FIXT
100
AcDbLine
 10
1086.248525561343
 20
2066.750508042883
 30
0.0
 11
1086.248525561343
 21
2077.941694260573
 31
0.0
  0
LINE
  5
200
330
1CB
100
AcDbEntity
  8
P-SANR-FIXT
100
AcDbLine
 10
1094.174158950385
 20
2066.750508042883
 30
0.0
 11
1094.174158950385
 21
2077.941694260573
 31
0.0
  0
LINE
  5
201
330
1CB
100
AcDbEntity
  8
P-SANR-FIXT
100
AcDbLine
 10
1074.364353943098
 20
2124.982558850492
 30
0.0
 11
1074.364353943098
 21
2127.982558850555
 31
0.0
  0
LINE
  5
202
330
1CB
100
AcDbEntity
  8
P-SANR-FIXT
100
AcDbLine
 10
1059.864353943098
 20
2127.982558850555
 30
0.0
 11
1059.864353943098
 21
2124.982558850492
 31
0.0
  0
LINE
  5
203
330
1CB
100
AcDbEntity
  8
P-SANR-FIXT
100
AcDbLine
 10
1072.614353943098
 20
2142.345387136977
 30
0.0
 11
1071.977182229505
 21
2142.98255885057
 31
0.0
  0
LINE
  5
204
330
1CB
100
AcDbEntity
  8
P-SANR-FIXT
100
AcDbLine
 10
1062.251525656692
 20
2142.98255885057
 30
0.0
 11
1061.614353943098
 21
2142.345387136977
 31
0.0
  0
LINE
  5
205
330
1CB
100
AcDbEntity
  8
P-SANR-FIXT
100
AcDbLine
 10
1072.614353943098
 20
2138.482558850616
 30
0.0
 11
1072.614353943098
 21
2142.345387136977
 31
0.0
  0
LINE
  5
206
330
1CB
100
AcDbEntity
  8
P-SANR-FIXT
100
AcDbLine
 10
1061.614353943098
 20
2142.345387136977
 30
0.0
 11
1061.614353943098
 21
2138.482558850616
 31
0.0
  0
LINE
  5
207
330
1CB
100
AcDbEntity
  8
P-SANR-FIXT
100
AcDbLine
 10
1071.826186548949
 20
2136.482558850616
 30
0.0
 11
1071.826186548949
 21
2138.482558850616
 31
0.0
  0
LINE
  5
208
330
1CB
100
AcDbEntity
  8
P-SANR-FIXT
100
AcDbLine
 10
1062.402521337247
 20
2138.482558850616
 30
0.0
 11
1062.402521337247
 21
2136.482558850616
 31
0.0
  0
LINE
  5
209
330
1CB
100
AcDbEntity
  8
P-SANR-FIXT
100
AcDbLine
 10
1072.614353943098
 20
2132.116687336513
 30
0.0
 11
1072.614353943098
 21
2136.482558850616
 31
0.0
  0
LINE
  5
20A
330
1CB
100
AcDbEntity
  8
P-SANR-FIXT
100
AcDbLine
 10
1061.614353943098
 20
2136.482558850616
 30
0.0
 11
1061.614353943098
 21
2132.116687336513
 31
0.0
  0
LWPOLYLINE
  5
20B
330
1CB
100
AcDbEntity
  8
P-SANR-FIXT
100
AcDbPolyline
 90
       41
 70
   128
 43
0.0
 10
1072.614353943098
 20
2132.116687336513
 10
1072.61383995537
 20
2132.090991376777
 10
1072.612298814456
 20
2132.065336525095
 10
1072.609732985853
 20
2132.039763823757
 10
1072.606146574339
 20
2132.01431418363
 10
1072.601545317408
 20
2131.989028318709
 10
1072.595936576089
 20
2131.963946680984
 10
1072.589329323172
 20
2131.939109395726
 10
1072.581734128853
 20
2131.914556197291
 10
1072.57316314382
 20
2131.89032636556
 10
1072.563630079824
 20
2131.866458663095
 10
1072.553150187732
 20
2131.842991273127
 10
1072.541740233136
 20
2131.819961738476
 10
1072.529418469529
 20
2131.797406901483
 10
1072.516204609104
 20
2131.775362845079
 10
1072.50211979122
 20
2131.753864835046
 10
1072.487186548581
 20
2131.732947263619
 10
1072.471428771189
 20
2131.712643594449
 10
1072.454871668126
 20
2131.692986309074
 10
1072.437541727226
 20
2131.674006854958
 10
1072.419466672697
 20
2131.655735595179
 10
1072.400675420769
 20
2131.638201759856
 10
1072.38119803344
 20
2131.621433399383
 10
1072.361065670372
 20
2131.605457339562
 10
1072.340310539051
 20
2131.590299138679
 10
1072.318965843261
 20
2131.575983046622
 10
1072.297065729962
 20
2131.562531966085
 10
1072.274645234663
 20
2131.549967415927
 10
1072.251740225373
 20
2131.538309496749
 10
1072.228387345222
 20
2131.527576858733
 10
1072.204623953835
 20
2131.517786671811
 10
1072.180488067571
 20
2131.508954598194
 10
1072.156018298697
 20
2131.501094767317
 10
1072.131253793626
 20
2131.49421975323
 10
1072.106234170281
 20
2131.48834055449
 10
1072.080999454724
 20
2131.483466576562
 10
1072.055590017114
 20
2131.47960561677
 10
1072.030046507133
 20
2131.476763851825
 10
1072.004409788948
 20
2131.474945827946
 10
1071.978720875838
 20
2131.474154453584
 10
1071.971783611318
 20
2131.474117004733
  0
LWPOLYLINE
  5
20C
330
1CB
100
AcDbEntity
  8
P-SANR-FIXT
100
AcDbPolyline
 90
       41
 70
   128
 43
0.0
 10
1067.114353943098
 20
2131.474117004733
 10
1067.308599321389
 20
2131.474117004733
 10
1067.502533948511
 20
2131.474117004733
 10
1067.695847570432
 20
2131.474117004733
 10
1067.888230926594
 20
2131.474117004733
 10
1068.079376244668
 20
2131.474117004733
 10
1068.268977732919
 20
2131.474117004733
 10
1068.456732069414
 20
2131.474117004733
 10
1068.642338887265
 20
2131.474117004733
 10
1068.825501255158
 20
2131.474117004733
 10
1069.005926152377
 20
2131.474117004733
 10
1069.183324937576
 20
2131.474117004733
 10
1069.35741381054
 20
2131.474117004733
 10
1069.52791426621
 20
2131.474117004733
 10
1069.694553540228
 20
2131.474117004733
 10
1069.857065045304
 20
2131.474117004733
 10
1070.015188797698
 20
2131.474117004733
 10
1070.168671833135
 20
2131.474117004733
 10
1070.317268611502
 20
2131.474117004733
 10
1070.460741409651
 20
2131.474117004733
 10
1070.598860701712
 20
2131.474117004733
 10
1070.731405526281
 20
2131.474117004733
 10
1070.858163839913
 20
2131.474117004733
 10
1070.978932856347
 20
2131.474117004733
 10
1071.093519370919
 20
2131.474117004733
 10
1071.20174006965
 20
2131.474117004733
 10
1071.303421822508
 20
2131.474117004733
 10
1071.398401960379
 20
2131.474117004733
 10
1071.486528535304
 20
2131.474117004733
 10
1071.567660563562
 20
2131.474117004733
 10
1071.641668251216
 20
2131.474117004733
 10
1071.708433201752
 20
2131.474117004733
 10
1071.767848605492
 20
2131.474117004733
 10
1071.819819410465
 20
2131.474117004733
 10
1071.86426247447
 20
2131.474117004733
 10
1071.901106698084
 20
2131.474117004733
 10
1071.930293138409
 20
2131.474117004733
 10
1071.951775103367
 20
2131.474117004733
 10
1071.965518226398
 20
2131.474117004733
 10
1071.971500521434
 20
2131.474117004733
 10
1071.971783611318
 20
2131.474117004733
  0
LWPOLYLINE
  5
20D
330
1CB
100
AcDbEntity
  8
P-SANR-FIXT
100
AcDbPolyline
 90
       24
 70
   128
 43
0.0
 10
1071.971783611318
 20
2131.474117004733
 10
1071.967898185682
 20
2131.474117004733
 10
1071.956248124625
 20
2131.474117004733
 10
1071.93685206576
 20
2131.474117004733
 10
1071.909741038643
 20
2131.474117004733
 10
1071.874958415135
 20
2131.474117004733
 10
1071.832559840014
 20
2131.474117004733
 10
1071.782613141953
 20
2131.474117004733
 10
1071.725198225017
 20
2131.474117004733
 10
1071.660406940824
 20
2131.474117004733
 10
1071.588342941608
 20
2131.474117004733
 10
1071.509121514394
 20
2131.474117004733
 10
1071.422869396567
 20
2131.474117004733
 10
1071.329724573115
 20
2131.474117004733
 10
1071.229836055886
 20
2131.474117004733
 10
1071.123363645199
 20
2131.474117004733
 10
1071.010477674199
 20
2131.474117004733
 10
1070.891358736357
 20
2131.474117004733
 10
1070.766197396565
 20
2131.474117004733
 10
1070.635193886265
 20
2131.474117004733
 10
1070.498557783129
 20
2131.474117004733
 10
1070.356507675774
 20
2131.474117004733
 10
1070.209270814069
 20
2131.474117004733
 10
1070.114353943098
 20
2131.474117004733
  0
LWPOLYLINE
  5
20E
330
1CB
100
AcDbEntity
  8
P-SANR-FIXT
100
AcDbPolyline
 90
       41
 70
   128
 43
0.0
 10
1062.256924274878
 20
2131.474117004733
 10
1062.231228315142
 20
2131.474630992461
 10
1062.20557346346
 20
2131.476172133375
 10
1062.180000762123
 20
2131.478737961979
 10
1062.154551121996
 20
2131.482324373493
 10
1062.129265257075
 20
2131.486925630423
 10
1062.10418361935
 20
2131.492534371742
 10
1062.079346334091
 20
2131.499141624659
 10
1062.054793135656
 20
2131.506736818979
 10
1062.030563303925
 20
2131.51530780401
 10
1062.00669560146
 20
2131.524840868007
 10
1061.983228211492
 20
2131.535320760099
 10
1061.960198676841
 20
2131.546730714696
 10
1061.937643839849
 20
2131.559052478303
 10
1061.915599783443
 20
2131.572266338727
 10
1061.894101773412
 20
2131.586351156611
 10
1061.873184201985
 20
2131.60128439925
 10
1061.852880532814
 20
2131.617042176642
 10
1061.833223247439
 20
2131.633599279705
 10
1061.814243793324
 20
2131.650929220605
 10
1061.795972533545
 20
2131.669004275134
 10
1061.778438698221
 20
2131.687795527062
 10
1061.761670337749
 20
2131.707272914391
 10
1061.745694277927
 20
2131.72740527746
 10
1061.730536077043
 20
2131.74816040878
 10
1061.716219984987
 20
2131.76950510457
 10
1061.70276890445
 20
2131.791405217869
 10
1061.690204354293
 20
2131.813825713169
 10
1061.678546435114
 20
2131.836730722458
 10
1061.667813797098
 20
2131.860083602609
 10
1061.658023610177
 20
2131.883846993996
 10
1061.64919153656
 20
2131.90798288026
 10
1061.641331705682
 20
2131.932452649134
 10
1061.634456691595
 20
2131.957217154205
 10
1061.628577492855
 20
2131.98223677755
 10
1061.623703514927
 20
2132.007471493108
 10
1061.619842555135
 20
2132.032880930717
 10
1061.617000790191
 20
2132.058424440698
 10
1061.615182766312
 20
2132.084061158883
 10
1061.61439139195
 20
2132.109750071993
 10
1061.614353943098
 20
2132.116687336513
  0
LWPOLYLINE
  5
20F
330
1CB
100
AcDbEntity
  8
P-SANR-FIXT
100
AcDbPolyline
 90
       25
 70
   128
 43
0.0
 10
1064.114353943098
 20
2131.474117004733
 10
1064.060036053061
 20
2131.474117004733
 10
1063.911439274695
 20
2131.474117004733
 10
1063.767966476545
 20
2131.474117004733
 10
1063.629847184484
 20
2131.474117004733
 10
1063.497302359916
 20
2131.474117004733
 10
1063.370544046284
 20
2131.474117004733
 10
1063.249775029849
 20
2131.474117004733
 10
1063.135188515277
 20
2131.474117004733
 10
1063.026967816546
 20
2131.474117004733
 10
1062.925286063688
 20
2131.474117004733
 10
1062.830305925817
 20
2131.474117004733
 10
1062.742179350892
 20
2131.474117004733
 10
1062.661047322634
 20
2131.474117004733
 10
1062.58703963498
 20
2131.474117004733
 10
1062.520274684444
 20
2131.474117004733
 10
1062.460859280704
 20
2131.474117004733
 10
1062.408888475731
 20
2131.474117004733
 10
1062.364445411727
 20
2131.474117004733
 10
1062.327601188113
 20
2131.474117004733
 10
1062.298414747788
 20
2131.474117004733
 10
1062.276932782829
 20
2131.474117004733
 10
1062.263189659799
 20
2131.474117004733
 10
1062.257207364762
 20
2131.474117004733
 10
1062.256924274878
 20
2131.474117004733
  0
LWPOLYLINE
  5
210
330
1CB
100
AcDbEntity
  8
P-SANR-FIXT
100
AcDbPolyline
 90
       41
 70
   128
 43
0.0
 10
1062.256924274878
 20
2131.474117004733
 10
1062.260809700515
 20
2131.474117004733
 10
1062.272459761571
 20
2131.474117004733
 10
1062.291855820436
 20
2131.474117004733
 10
1062.318966847553
 20
2131.474117004733
 10
1062.353749471061
 20
2131.474117004733
 10
1062.396148046183
 20
2131.474117004733
 10
1062.446094744243
 20
2131.474117004733
 10
1062.503509661179
 20
2131.474117004733
 10
1062.568300945372
 20
2131.474117004733
 10
1062.640364944589
 20
2131.474117004733
 10
1062.719586371802
 20
2131.474117004733
 10
1062.80583848963
 20
2131.474117004733
 10
1062.898983313082
 20
2131.474117004733
 10
1062.99887183031
 20
2131.474117004733
 10
1063.105344240997
 20
2131.474117004733
 10
1063.218230211998
 20
2131.474117004733
 10
1063.337349149839
 20
2131.474117004733
 10
1063.462510489632
 20
2131.474117004733
 10
1063.593513999931
 20
2131.474117004733
 10
1063.730150103067
 20
2131.474117004733
 10
1063.872200210423
 20
2131.474117004733
 10
1064.019437072128
 20
2131.474117004733
 10
1064.171625140613
 20
2131.474117004733
 10
1064.328520947433
 20
2131.474117004733
 10
1064.489873492767
 20
2131.474117004733
 10
1064.655424646962
 20
2131.474117004733
 10
1064.824909563487
 20
2131.474117004733
 10
1064.998057102631
 20
2131.474117004733
 10
1065.174590265267
 20
2131.474117004733
 10
1065.354226635994
 20
2131.474117004733
 10
1065.536678834938
 20
2131.474117004733
 10
1065.721654977502
 20
2131.474117004733
 10
1065.908859141318
 20
2131.474117004733
 10
1066.097991839658
 20
2131.474117004733
 10
1066.288750500552
 20
2131.474117004733
 10
1066.480829950834
 20
2131.474117004733
 10
1066.67392290436
 20
2131.474117004733
 10
1066.867720453593
 20
2131.474117004733
 10
1067.061912563798
 20
2131.474117004733
 10
1067.114353943098
 20
2131.474117004733
  0
LINE
  5
211
330
1CB
100
AcDbEntity
  8
P-SANR-FIXT
100
AcDbLine
 10
1070.114353943098
 20
2127.982558850555
 30
0.0
 11
1070.114353943098
 21
2131.474117004733
 31
0.0
  0
LINE
  5
212
330
1CB
100
AcDbEntity
  8
P-SANR-FIXT
100
AcDbLine
 10
1064.114353943098
 20
2131.474117004733
 30
0.0
 11
1064.114353943098
 21
2127.982558850555
 31
0.0
  0
LINE
  5
213
330
1CB
100
AcDbEntity
  8
P-SANR-FIXT
100
AcDbLine
 10
1074.364353943096
 20
2127.982558850554
 30
0.0
 11
1067.114353943097
 21
2127.982558850554
 31
0.0
  0
LINE
  5
214
330
1CB
100
AcDbEntity
  8
P-SANR-FIXT
100
AcDbLine
 10
1067.114353943097
 20
2127.982558850554
 30
0.0
 11
1059.864353943097
 21
2127.982558850554
 31
0.0
  0
LINE
  5
215
330
1CB
100
AcDbEntity
  8
P-SANR-FIXT
100
AcDbLine
 10
1067.114353943097
 20
2142.982558850569
 30
0.0
 11
1071.977182229503
 21
2142.982558850569
 31
0.0
  0
LINE
  5
216
330
1CB
100
AcDbEntity
  8
P-SANR-FIXT
100
AcDbLine
 10
1062.25152565669
 20
2142.982558850569
 30
0.0
 11
1067.114353943097
 21
2142.982558850569
 31
0.0
  0
LINE
  5
217
330
1CB
100
AcDbEntity
  8
P-SANR-FIXT
100
AcDbLine
 10
1067.114353943097
 20
2142.345387136975
 30
0.0
 11
1072.614353943096
 21
2142.345387136975
 31
0.0
  0
LINE
  5
218
330
1CB
100
AcDbEntity
  8
P-SANR-FIXT
100
AcDbLine
 10
1061.614353943097
 20
2142.345387136975
 30
0.0
 11
1067.114353943097
 21
2142.345387136975
 31
0.0
  0
LINE
  5
219
330
1CB
100
AcDbEntity
  8
P-SANR-FIXT
100
AcDbLine
 10
1067.114353943097
 20
2138.482558850616
 30
0.0
 11
1072.614353943096
 21
2138.482558850616
 31
0.0
  0
LINE
  5
21A
330
1CB
100
AcDbEntity
  8
P-SANR-FIXT
100
AcDbLine
 10
1061.614353943097
 20
2138.482558850616
 30
0.0
 11
1067.114353943097
 21
2138.482558850616
 31
0.0
  0
LINE
  5
21B
330
1CB
100
AcDbEntity
  8
P-SANR-FIXT
100
AcDbLine
 10
1067.114353943097
 20
2136.482558850615
 30
0.0
 11
1072.614353943096
 21
2136.482558850615
 31
0.0
  0
LINE
  5
21C
330
1CB
100
AcDbEntity
  8
P-SANR-FIXT
100
AcDbLine
 10
1061.614353943097
 20
2136.482558850615
 30
0.0
 11
1067.114353943097
 21
2136.482558850615
 31
0.0
  0
LINE
  5
21D
330
1CB
100
AcDbEntity
  8
P-SANR-FIXT
100
AcDbLine
 10
1095.864353943098
 20
2062.882558850012
 30
0.0
 11
1095.264353943098
 21
2063.482558850012
 31
0.0
  0
LINE
  5
21E
330
1CB
100
AcDbEntity
  8
P-SANR-FIXT
100
AcDbLine
 10
1038.364353943098
 20
2062.882558850012
 30
0.0
 11
1038.364353943098
 21
2050.039687820707
 31
0.0
  0
LINE
  5
21F
330
1CB
100
AcDbEntity
  8
P-SANR-FIXT
100
AcDbLine
 10
1038.803693771318
 20
2048.979027648928
 30
0.0
 11
1039.422946126239
 21
2048.359775294007
 31
0.0
  0
LINE
  5
220
330
1CB
100
AcDbEntity
  8
P-SANR-FIXT
100
AcDbLine
 10
1038.964353943098
 20
2063.482558850012
 30
0.0
 11
1038.364353943098
 21
2062.882558850012
 31
0.0
  0
LINE
  5
221
330
1CB
100
AcDbEntity
  8
P-SANR-FIXT
100
AcDbLine
 10
1095.864353943098
 20
2050.039687820707
 30
0.0
 11
1095.864353943098
 21
2062.882558850012
 31
0.0
  0
LWPOLYLINE
  5
222
330
1CB
100
AcDbEntity
  8
P-SANR-FIXT
100
AcDbPolyline
 90
       21
 70
   128
 43
0.0
 10
1095.864353943098
 20
2050.039687820707
 10
1095.863154103089
 20
2049.979703819428
 10
1095.859556502552
 20
2049.919815779754
 10
1095.853566896879
 20
2049.860119509774
 10
1095.845194868162
 20
2049.800710510786
 10
1095.83445380986
 20
2049.741683824514
 10
1095.821360905376
 20
2049.683133881067
 10
1095.805937100564
 20
2049.625154347861
 10
1095.788207070222
 20
2049.567837979783
 10
1095.768199178615
 20
2049.511276470795
 10
1095.745945434102
 20
2049.455560307245
 10
1095.721481437928
 20
2049.400778623108
 10
1095.694846327267
 20
2049.347019057395
 10
1095.666082712615
 20
2049.294367613942
 10
1095.635236609618
 20
2049.242908523826
 10
1095.602357365462
 20
2049.192724110615
 10
1095.567497579924
 20
2049.143894658664
 10
1095.530713021225
 20
2049.096498284679
 10
1095.49206253681
 20
2049.05061081275
 10
1095.451607959209
 20
2049.006305653042
 10
1095.425014114878
 20
2048.979027648928
  0
LWPOLYLINE
  5
223
330
1CB
100
AcDbEntity
  8
P-SANR-FIXT
100
AcDbPolyline
 90
       21
 70
   128
 43
0.0
 10
1038.803693771318
 20
2048.979027648928
 10
1038.762127092257
 20
2049.022291158001
 10
1038.722323741028
 20
2049.067182284703
 10
1038.684347394502
 20
2049.113629212806
 10
1038.648258806732
 20
2049.161557637131
 10
1038.614115711761
 20
2049.210890882427
 10
1038.581972731257
 20
2049.261550026023
 10
1038.551881287131
 20
2049.313454024098
 10
1038.523889519276
 20
2049.366519841324
 10
1038.498042208549
 20
2049.420662583716
 10
1038.474380705132
 20
2049.475795634436
 10
1038.452942862384
 20
2049.531830792363
 10
1038.433762976281
 20
2049.588678413199
 10
1038.416871730548
 20
2049.646247552876
 10
1038.402296147576
 20
2049.704446113052
 10
1038.390059545187
 20
2049.763180988446
 10
1038.380181499335
 20
2049.822358215788
 10
1038.372677812787
 20
2049.881883124135
 10
1038.367560489841
 20
2049.941660486334
 10
1038.36483771712
 20
2050.001594671356
 10
1038.364353943098
 20
2050.039687820707
  0
LINE
  5
224
330
1CB
100
AcDbEntity
  8
P-SANR-FIXT
100
AcDbLine
 10
1094.805761759958
 20
2048.359775294007
 30
0.0
 11
1095.425014114878
 21
2048.979027648928
 31
0.0
  0
LWPOLYLINE
  5
225
330
1CB
100
AcDbEntity
  8
P-SANR-FIXT
100
AcDbPolyline
 90
       21
 70
   128
 43
0.0
 10
1094.805761759958
 20
2048.359775294007
 10
1094.764195080896
 20
2048.316511784932
 10
1094.724391729667
 20
2048.271620658232
 10
1094.686415383141
 20
2048.225173730129
 10
1094.650326795371
 20
2048.177245305803
 10
1094.6161837004
 20
2048.127912060508
 10
1094.584040719896
 20
2048.077252916911
 10
1094.55394927577
 20
2048.025348918837
 10
1094.525957507915
 20
2047.972283101611
 10
1094.500110197188
 20
2047.918140359218
 10
1094.476448693771
 20
2047.863007308499
 10
1094.455010851024
 20
2047.806972150571
 10
1094.43583096492
 20
2047.750124529736
 10
1094.418939719187
 20
2047.692555390058
 10
1094.404364136214
 20
2047.634356829882
 10
1094.392127533825
 20
2047.575621954488
 10
1094.382249487974
 20
2047.516444727147
 10
1094.374745801426
 20
2047.456919818799
 10
1094.369628478479
 20
2047.397142456601
 10
1094.366905705759
 20
2047.337208271578
 10
1094.366421931737
 20
2047.299115122227
  0
LWPOLYLINE
  5
226
330
1CB
100
AcDbEntity
  8
P-SANR-FIXT
100
AcDbPolyline
 90
       21
 70
   128
 43
0.0
 10
1039.862285954459
 20
2047.299115122227
 10
1039.861086114451
 20
2047.359099123507
 10
1039.857488513913
 20
2047.418987163181
 10
1039.85149890824
 20
2047.478683433161
 10
1039.843126879523
 20
2047.538092432148
 10
1039.832385821221
 20
2047.597119118419
 10
1039.819292916737
 20
2047.655669061867
 10
1039.803869111925
 20
2047.713648595073
 10
1039.786139081583
 20
2047.770964963151
 10
1039.766131189976
 20
2047.82752647214
 10
1039.743877445464
 20
2047.88324263569
 10
1039.719413449289
 20
2047.938024319826
 10
1039.692778338628
 20
2047.991783885539
 10
1039.664014723976
 20
2048.044435328993
 10
1039.633168620979
 20
2048.095894419108
 10
1039.600289376824
 20
2048.146078832319
 10
1039.565429591286
 20
2048.194908284271
 10
1039.528645032586
 20
2048.242304658255
 10
1039.489994548171
 20
2048.288192130184
 10
1039.449539970571
 20
2048.332497289893
 10
1039.422946126239
 20
2048.359775294007
  0
LINE
  5
227
330
1CB
100
AcDbEntity
  8
P-SANR-FIXT
100
AcDbLine
 10
1094.366421931737
 20
1983.982558850011
 30
0.0
 11
1094.366421931737
 21
2047.299115122227
 31
0.0
  0
LINE
  5
228
330
1CB
100
AcDbEntity
  8
P-SANR-FIXT
100
AcDbLine
 10
1039.862285954459
 20
2047.299115122227
 30
0.0
 11
1039.862285954459
 21
1983.982558850011
 31
0.0
  0
LWPOLYLINE
  5
229
330
1CB
100
AcDbEntity
  8
P-SANR-FIXT
100
AcDbPolyline
 90
       41
 70
   128
 43
0.0
 10
1094.366421931737
 20
1983.982558850011
 10
1094.36402225172
 20
1983.862590847451
 10
1094.356827050645
 20
1983.742814768104
 10
1094.344847839299
 20
1983.623422228145
 10
1094.328103781864
 20
1983.504604230169
 10
1094.306621665261
 20
1983.386550857626
 10
1094.280435856293
 20
1983.26945097073
 10
1094.249588246669
 20
1983.153491904319
 10
1094.214128185984
 20
1983.038859168163
 10
1094.174112402771
 20
1982.925736150186
 10
1094.129604913746
 20
1982.814303823086
 10
1094.080676921397
 20
1982.704740454813
 10
1094.027406700075
 20
1982.597221323387
 10
1093.96987947077
 20
1982.49191843648
 10
1093.908187264777
 20
1982.389000256249
 10
1093.842428776466
 20
1982.288631429826
 10
1093.77270920539
 20
1982.190972525924
 10
1093.69914008799
 20
1982.096179777956
 10
1093.62183911916
 20
1982.004404834097
 10
1093.54092996396
 20
1981.91579451468
 10
1093.456542059779
 20
1981.830490577313
 10
1093.368810409261
 20
1981.748629490098
 10
1093.277875364333
 20
1981.670342213314
 10
1093.183882401667
 20
1981.595753989902
 10
1093.086981889955
 20
1981.524984145108
 10
1092.987328849341
 20
1981.458145895588
 10
1092.885082703435
 20
1981.395346168281
 10
1092.780407024259
 20
1981.336685429357
 10
1092.673469270567
 20
1981.282257523482
 10
1092.564440519956
 20
1981.232149523696
 10
1092.453495195167
 20
1981.186441592109
 10
1092.340810785054
 20
1981.145206851663
 10
1092.226567560633
 20
1981.108511269144
 10
1092.110948286694
 20
1981.076413549657
 10
1091.994137929411
 20
1981.048965042706
 10
1091.876323360438
 20
1981.026209660046
 10
1091.757693057951
 20
1981.008183805436
 10
1091.63843680513
 20
1980.994916316399
 10
1091.518745386538
 20
1980.986428418085
 10
1091.398810282912
 20
1980.982733689321
 10
1091.366421931737
 20
1980.982558850012
  0
LWPOLYLINE
  5
22A
330
1CB
100
AcDbEntity
  8
P-SANR-FIXT
100
AcDbPolyline
 90
       41
 70
   128
 43
0.0
 10
1067.114353943098
 20
1980.982558850012
 10
1068.084177994613
 20
1980.982558850012
 10
1069.05245053453
 20
1980.982558850012
 10
1070.017622533339
 20
1980.982558850012
 10
1070.978149921735
 20
1980.982558850012
 10
1071.932496060797
 20
1980.982558850012
 10
1072.879134200287
 20
1980.982558850012
 10
1073.816549921119
 20
1980.982558850012
 10
1074.743243558113
 20
1980.982558850012
 10
1075.657732599131
 20
1980.982558850012
 10
1076.558554056791
 20
1980.982558850012
 10
1077.444266808923
 20
1980.982558850012
 10
1078.313453904068
 20
1980.982558850012
 10
1079.164724828289
 20
1980.982558850012
 10
1079.996717729702
 20
1980.982558850012
 10
1080.808101597148
 20
1980.982558850012
 10
1081.597578389524
 20
1980.982558850012
 10
1082.363885112376
 20
1980.982558850012
 10
1083.105795838417
 20
1980.982558850012
 10
1083.822123668751
 20
1980.982558850012
 10
1084.511722631658
 20
1980.982558850012
 10
1085.173489515904
 20
1980.982558850012
 10
1085.806365635643
 20
1980.982558850012
 10
1086.409338524091
 20
1980.982558850012
 10
1086.981443553254
 20
1980.982558850012
 10
1087.521765477126
 20
1980.982558850012
 10
1088.029439895893
 20
1980.982558850012
 10
1088.503654638783
 20
1980.982558850012
 10
1088.943651063367
 20
1980.982558850012
 10
1089.348725269227
 20
1980.982558850012
 10
1089.718229224044
 20
1980.982558850012
 10
1090.051571800315
 20
1980.982558850012
 10
1090.348219721027
 20
1980.982558850012
 10
1090.607698412788
 20
1980.982558850012
 10
1090.829592765043
 20
1980.982558850012
 10
1091.013547794164
 20
1980.982558850012
 10
1091.159269211346
 20
1980.982558850012
 10
1091.266523893408
 20
1980.982558850012
 10
1091.335140255738
 20
1980.982558850012
 10
1091.365008526792
 20
1980.982558850012
 10
1091.366421931737
 20
1980.982558850012
  0
LWPOLYLINE
  5
22B
330
1CB
100
AcDbEntity
  8
P-SANR-FIXT
100
AcDbPolyline
 90
       41
 70
   128
 43
0.0
 10
1091.366421931737
 20
1980.982558850012
 10
1091.347022864096
 20
1980.982558850012
 10
1091.288856695541
 20
1980.982558850012
 10
1091.192016479534
 20
1980.982558850012
 10
1091.056657139763
 20
1980.982558850012
 10
1090.882995222297
 20
1980.982558850012
 10
1090.671308549156
 20
1980.982558850012
 10
1090.421935773862
 20
1980.982558850012
 10
1090.135275839658
 20
1980.982558850012
 10
1089.811787341287
 20
1980.982558850012
 10
1089.451987791339
 20
1980.982558850012
 10
1089.056452792343
 20
1980.982558850012
 10
1088.625815115919
 20
1980.982558850012
 10
1088.160763690485
 20
1980.982558850012
 10
1087.662042499117
 20
1980.982558850012
 10
1087.130449389333
 20
1980.982558850012
 10
1086.566834796707
 20
1980.982558850012
 10
1085.972100384357
 20
1980.982558850012
 10
1085.347197600472
 20
1980.982558850012
 10
1084.6931261562
 20
1980.982558850012
 10
1084.010932426326
 20
1980.982558850012
 10
1083.301707775291
 20
1980.982558850012
 10
1082.566586811241
 20
1980.982558850012
 10
1081.806745570903
 20
1980.982558850012
 10
1081.023399638171
 20
1980.982558850012
 10
1080.217802199431
 20
1980.982558850012
 10
1079.391242038734
 20
1980.982558850012
 10
1078.545041476014
 20
1980.982558850012
 10
1077.680554251658
 20
1980.982558850012
 10
1076.79916336081
 20
1980.982558850012
 10
1075.902278840877
 20
1980.982558850012
 10
1074.991335515765
 20
1980.982558850012
 10
1074.067790700469
 20
1980.982558850012
 10
1073.133121869683
 20
1980.982558850012
 10
1072.188824294149
 20
1980.982558850012
 10
1071.236408648549
 20
1980.982558850012
 10
1070.277398594746
 20
1980.982558850012
 10
1069.313328344247
 20
1980.982558850012
 10
1068.345740203795
 20
1980.982558850012
 10
1067.376182108008
 20
1980.982558850012
 10
1067.114353943098
 20
1980.982558850012
  0
LWPOLYLINE
  5
22C
330
1CB
100
AcDbEntity
  8
P-SANR-FIXT
100
AcDbPolyline
 90
       41
 70
   128
 43
0.0
 10
1042.862285954459
 20
1980.982558850012
 10
1042.742317951899
 20
1980.984958530029
 10
1042.622541872552
 20
1980.992153731104
 10
1042.503149332593
 20
1981.00413294245
 10
1042.384331334616
 20
1981.020876999885
 10
1042.266277962074
 20
1981.042359116488
 10
1042.149178075178
 20
1981.068544925456
 10
1042.033219008767
 20
1981.09939253508
 10
1041.918586272611
 20
1981.134852595764
 10
1041.805463254634
 20
1981.174868378978
 10
1041.694030927533
 20
1981.219375868003
 10
1041.584467559261
 20
1981.268303860352
 10
1041.476948427835
 20
1981.321574081674
 10
1041.371645540928
 20
1981.379101310978
 10
1041.268727360696
 20
1981.440793516971
 10
1041.168358534274
 20
1981.506552005282
 10
1041.070699630372
 20
1981.576271576359
 10
1040.975906882404
 20
1981.649840693759
 10
1040.884131938545
 20
1981.727141662589
 10
1040.795521619127
 20
1981.808050817789
 10
1040.710217681761
 20
1981.89243872197
 10
1040.628356594547
 20
1981.980170372487
 10
1040.550069317762
 20
1982.071105417416
 10
1040.47548109435
 20
1982.165098380081
 10
1040.404711249556
 20
1982.261998891794
 10
1040.337873000035
 20
1982.361651932407
 10
1040.275073272729
 20
1982.463898078313
 10
1040.216412533804
 20
1982.56857375749
 10
1040.16198462793
 20
1982.675511511181
 10
1040.111876628144
 20
1982.784540261793
 10
1040.066168696558
 20
1982.895485586581
 10
1040.024933956111
 20
1983.008169996695
 10
1039.988238373592
 20
1983.122413221115
 10
1039.956140654105
 20
1983.238032495054
 10
1039.928692147153
 20
1983.354842852337
 10
1039.905936764494
 20
1983.472657421311
 10
1039.887910909884
 20
1983.591287723797
 10
1039.874643420846
 20
1983.710543976618
 10
1039.866155522532
 20
1983.830235395211
 10
1039.86246079377
 20
1983.950170498837
 10
1039.862285954459
 20
1983.982558850011
  0
LWPOLYLINE
  5
22D
330
1CB
100
AcDbEntity
  8
P-SANR-FIXT
100
AcDbPolyline
 90
       41
 70
   128
 43
0.0
 10
1067.114353943098
 20
1980.982558850012
 10
1066.144529891583
 20
1980.982558850012
 10
1065.176257351666
 20
1980.982558850012
 10
1064.211085352857
 20
1980.982558850012
 10
1063.250557964461
 20
1980.982558850012
 10
1062.296211825399
 20
1980.982558850012
 10
1061.349573685909
 20
1980.982558850012
 10
1060.412157965077
 20
1980.982558850012
 10
1059.485464328084
 20
1980.982558850012
 10
1058.570975287065
 20
1980.982558850012
 10
1057.670153829406
 20
1980.982558850012
 10
1056.784441077273
 20
1980.982558850012
 10
1055.915253982129
 20
1980.982558850012
 10
1055.063983057908
 20
1980.982558850012
 10
1054.231990156494
 20
1980.982558850012
 10
1053.420606289048
 20
1980.982558850012
 10
1052.631129496672
 20
1980.982558850012
 10
1051.86482277382
 20
1980.982558850012
 10
1051.122912047779
 20
1980.982558850012
 10
1050.406584217445
 20
1980.982558850012
 10
1049.716985254538
 20
1980.982558850012
 10
1049.055218370293
 20
1980.982558850012
 10
1048.422342250553
 20
1980.982558850012
 10
1047.819369362105
 20
1980.982558850012
 10
1047.247264332942
 20
1980.982558850012
 10
1046.70694240907
 20
1980.982558850012
 10
1046.199267990303
 20
1980.982558850012
 10
1045.725053247413
 20
1980.982558850012
 10
1045.285056822829
 20
1980.982558850012
 10
1044.879982616969
 20
1980.982558850012
 10
1044.510478662152
 20
1980.982558850012
 10
1044.177136085881
 20
1980.982558850012
 10
1043.880488165169
 20
1980.982558850012
 10
1043.621009473409
 20
1980.982558850012
 10
1043.399115121153
 20
1980.982558850012
 10
1043.215160092032
 20
1980.982558850012
 10
1043.06943867485
 20
1980.982558850012
 10
1042.962183992788
 20
1980.982558850012
 10
1042.893567630459
 20
1980.982558850012
 10
1042.863699359404
 20
1980.982558850012
 10
1042.862285954459
 20
1980.982558850012
  0
LWPOLYLINE
  5
22E
330
1CB
100
AcDbEntity
  8
P-SANR-FIXT
100
AcDbPolyline
 90
       41
 70
   128
 43
0.0
 10
1042.862285954459
 20
1980.982558850012
 10
1042.881685022101
 20
1980.982558850012
 10
1042.939851190656
 20
1980.982558850012
 10
1043.036691406662
 20
1980.982558850012
 10
1043.172050746433
 20
1980.982558850012
 10
1043.3457126639
 20
1980.982558850012
 10
1043.55739933704
 20
1980.982558850012
 10
1043.806772112334
 20
1980.982558850012
 10
1044.093432046539
 20
1980.982558850012
 10
1044.41692054491
 20
1980.982558850012
 10
1044.776720094857
 20
1980.982558850012
 10
1045.172255093854
 20
1980.982558850012
 10
1045.602892770277
 20
1980.982558850012
 10
1046.067944195711
 20
1980.982558850012
 10
1046.566665387079
 20
1980.982558850012
 10
1047.098258496863
 20
1980.982558850012
 10
1047.661873089489
 20
1980.982558850012
 10
1048.25660750184
 20
1980.982558850012
 10
1048.881510285725
 20
1980.982558850012
 10
1049.535581729996
 20
1980.982558850012
 10
1050.21777545987
 20
1980.982558850012
 10
1050.927000110906
 20
1980.982558850012
 10
1051.662121074955
 20
1980.982558850012
 10
1052.421962315293
 20
1980.982558850012
 10
1053.205308248026
 20
1980.982558850012
 10
1054.010905686766
 20
1980.982558850012
 10
1054.837465847463
 20
1980.982558850012
 10
1055.683666410183
 20
1980.982558850012
 10
1056.548153634539
 20
1980.982558850012
 10
1057.429544525386
 20
1980.982558850012
 10
1058.326429045319
 20
1980.982558850012
 10
1059.237372370432
 20
1980.982558850012
 10
1060.160917185728
 20
1980.982558850012
 10
1061.095586016514
 20
1980.982558850012
 10
1062.039883592047
 20
1980.982558850012
 10
1062.992299237647
 20
1980.982558850012
 10
1063.95130929145
 20
1980.982558850012
 10
1064.915379541949
 20
1980.982558850012
 10
1065.882967682401
 20
1980.982558850012
 10
1066.852525778188
 20
1980.982558850012
 10
1067.114353943098
 20
1980.982558850012
  0
ARC
  5
22F
330
1CB
100
AcDbEntity
  8
P-SANR-FIXT
100
AcDbCircle
 10
1067.114353943096
 20
1999.982558850011
 30
0.0
 40
9.550000000000409
100
AcDbArc
 50
269.9999999999997
 51
90.0
  0
LINE
  5
230
330
1CB
100
AcDbEntity
  8
P-SANR-FIXT
100
AcDbLine
 10
1067.114353943097
 20
2062.882558850011
 30
0.0
 11
1038.364353943097
 21
2062.882558850011
 31
0.0
  0
ARC
  5
231
330
1CB
100
AcDbEntity
  8
P-SANR-FIXT
100
AcDbCircle
 10
1067.114353943096
 20
1999.982558850011
 30
0.0
 40
9.550000000000181
100
AcDbArc
 50
90.0
 51
269.9999999999997
  0
ARC
  5
232
330
1CB
100
AcDbEntity
  8
P-SANR-FIXT
100
AcDbCircle
 10
1067.114353943096
 20
1999.982558850011
 30
0.0
 40
15.50000000000012
100
AcDbArc
 50
59.9999999999985
 51
89.99999999999916
  0
SPLINE
  5
233
330
1CB
100
AcDbEntity
  8
P-SANR-FIXT
100
AcDbSpline
210
0.0
220
0.0
230
1.0
 70
    24
 71
     3
 72
     9
 73
     5
 74
     0
 42
0.000000001
 43
0.0000000001
 40
-0.8401397415586192
 40
-0.8401397415586192
 40
-0.8401397415586192
 40
-0.8401397415586192
 40
-0.5
 40
0.0
 40
0.0
 40
0.0
 40
0.0
 10
1073.783569207592
 20
2014.029943966649
 30
0.0
 10
1073.027769038155
 20
2014.466305397927
 30
0.0
 10
1071.217397374336
 20
2015.511523965367
 30
0.0
 10
1069.546438307507
 20
2016.476252632405
 30
0.0
 10
1068.601363873828
 20
2017.021891611094
 30
0.0
  0
SPLINE
  5
234
330
1CB
100
AcDbEntity
  8
P-SANR-FIXT
100
AcDbSpline
210
0.0
220
0.0
230
1.0
 70
    24
 71
     3
 72
     9
 73
     5
 74
     0
 42
0.000000001
 43
0.0000000001
 40
-1.0
 40
-1.0
 40
-1.0
 40
-1.0
 40
-0.5
 40
-0.1595492105169572
 40
-0.1595492105169572
 40
-0.1595492105169572
 40
-0.1595492105169572
 10
1068.601363873827
 20
1982.943226088927
 30
0.0
 10
1069.546438307507
 20
1983.488865067617
 30
0.0
 10
1071.218016019453
 20
1984.45395090958
 30
0.0
 10
1073.029109577944
 20
1985.499586263102
 30
0.0
 10
1073.785642736897
 20
1985.936370886075
 30
0.0
  0
ARC
  5
235
330
1CB
100
AcDbEntity
  8
P-SANR-FIXT
100
AcDbCircle
 10
1067.114353943096
 20
1999.982558850011
 30
0.0
 40
15.50000000000023
100
AcDbArc
 50
269.9999999999997
 51
299.9999999999986
  0
SPLINE
  5
236
330
1CB
100
AcDbEntity
  8
P-SANR-FIXT
100
AcDbSpline
210
0.0
220
0.0
230
1.0
 70
    24
 71
     3
 72
     9
 73
     5
 74
     0
 42
0.000000001
 43
0.0000000001
 40
-1.0
 40
-1.0
 40
-1.0
 40
-1.0
 40
-0.5
 40
0.0
 40
0.0
 40
0.0
 40
0.0
 10
1081.127344012365
 20
2009.790013606245
 30
0.0
 10
1080.182269578686
 20
2010.335652584934
 30
0.0
 10
1078.193363466795
 20
2011.483948064027
 30
0.0
 10
1076.00694286584
 20
2012.746278586551
 30
0.0
 10
1074.864353943097
 20
2013.405952608669
 30
0.0
  0
ARC
  5
237
330
1CB
100
AcDbEntity
  8
P-SANR-FIXT
100
AcDbCircle
 10
1067.114353943096
 20
1999.982558850011
 30
0.0
 40
15.50000000000023
100
AcDbArc
 50
359.999999999998
 51
59.99999999999868
  0
SPLINE
  5
238
330
1CB
100
AcDbEntity
  8
P-SANR-FIXT
100
AcDbSpline
210
0.0
220
0.0
230
1.0
 70
    24
 71
     3
 72
     9
 73
     5
 74
     0
 42
0.000000001
 43
0.0000000001
 40
-1.0
 40
-1.0
 40
-1.0
 40
-1.0
 40
-0.5
 40
0.0
 40
0.0
 40
0.0
 40
0.0
 10
1082.614353943096
 20
1999.98255885001
 30
0.0
 10
1082.614353943096
 20
2001.338678658975
 30
0.0
 10
1082.614353943096
 20
2003.900111468747
 30
0.0
 10
1082.614353943096
 20
2006.159930662207
 30
0.0
 10
1082.614353943097
 20
2007.214436854859
 30
0.0
  0
SPLINE
  5
239
330
1CB
100
AcDbEntity
  8
P-SANR-FIXT
100
AcDbSpline
210
0.0
220
0.0
230
1.0
 70
    24
 71
     3
 72
     9
 73
     5
 74
     0
 42
0.000000001
 43
0.0000000001
 40
-1.0
 40
-1.0
 40
-1.0
 40
-1.0
 40
-0.5
 40
0.0
 40
0.0
 40
0.0
 40
0.0
 10
1082.614353943096
 20
1992.750680845162
 30
0.0
 10
1082.614353943096
 20
1993.805187037814
 30
0.0
 10
1082.614353943096
 20
1996.065006231274
 30
0.0
 10
1082.614353943096
 20
1998.626439041046
 30
0.0
 10
1082.614353943096
 20
1999.98255885001
 30
0.0
  0
ARC
  5
23A
330
1CB
100
AcDbEntity
  8
P-SANR-FIXT
100
AcDbCircle
 10
1067.114353943096
 20
1999.982558850011
 30
0.0
 40
15.50000000000029
100
AcDbArc
 50
299.9999999999989
 51
359.999999999998
  0
SPLINE
  5
23B
330
1CB
100
AcDbEntity
  8
P-SANR-FIXT
100
AcDbSpline
210
0.0
220
0.0
230
1.0
 70
    24
 71
     3
 72
     9
 73
     5
 74
     0
 42
0.000000001
 43
0.0000000001
 40
-1.0
 40
-1.0
 40
-1.0
 40
-1.0
 40
-0.5
 40
0.0
 40
0.0
 40
0.0
 40
0.0
 10
1074.864353943096
 20
1986.559165091352
 30
0.0
 10
1076.00694286584
 20
1987.218839113471
 30
0.0
 10
1078.193363466795
 20
1988.481169635994
 30
0.0
 10
1080.182269578686
 20
1989.629465115087
 30
0.0
 10
1081.127344012365
 20
1990.175104093776
 30
0.0
  0
SPLINE
  5
23C
330
1CB
100
AcDbEntity
  8
P-SANR-FIXT
100
AcDbSpline
210
0.0
220
0.0
230
1.0
 70
    24
 71
     3
 72
     9
 73
     5
 74
     0
 42
0.000000001
 43
0.0000000001
 40
-1.0
 40
-1.0
 40
-1.0
 40
-1.0
 40
-0.5
 40
-0.1595492105169572
 40
-0.1595492105169572
 40
-0.1595492105169572
 40
-0.1595492105169572
 10
1065.627344012366
 20
2017.021891611094
 30
0.0
 10
1064.682269578686
 20
2016.476252632405
 30
0.0
 10
1063.010691866739
 20
2015.511166790441
 30
0.0
 10
1061.199598308249
 20
2014.465531436919
 30
0.0
 10
1060.443065149296
 20
2014.028746813947
 30
0.0
  0
ARC
  5
23D
330
1CB
100
AcDbEntity
  8
P-SANR-FIXT
100
AcDbCircle
 10
1067.114353943096
 20
1999.982558850011
 30
0.0
 40
15.5
100
AcDbArc
 50
90.0
 51
119.9999999999991
  0
ARC
  5
23E
330
1CB
100
AcDbEntity
  8
P-SANR-FIXT
100
AcDbCircle
 10
1067.114353943096
 20
1999.982558850011
 30
0.0
 40
15.50000000000009
100
AcDbArc
 50
239.9999999999996
 51
269.9999999999997
  0
SPLINE
  5
23F
330
1CB
100
AcDbEntity
  8
P-SANR-FIXT
100
AcDbSpline
210
0.0
220
0.0
230
1.0
 70
    24
 71
     3
 72
     9
 73
     5
 74
     0
 42
0.000000001
 43
0.0000000001
 40
-0.8401397415586192
 40
-0.8401397415586192
 40
-0.8401397415586192
 40
-0.8401397415586192
 40
-0.5
 40
0.0
 40
0.0
 40
0.0
 40
0.0
 10
1060.445138678601
 20
1985.935173733372
 30
0.0
 10
1061.200938848038
 20
1985.498812302094
 30
0.0
 10
1063.011310511857
 20
1984.453593734655
 30
0.0
 10
1064.682269578686
 20
1983.488865067617
 30
0.0
 10
1065.627344012365
 20
1982.943226088927
 30
0.0
  0
SPLINE
  5
240
330
1CB
100
AcDbEntity
  8
P-SANR-FIXT
100
AcDbSpline
210
0.0
220
0.0
230
1.0
 70
    24
 71
     3
 72
     9
 73
     5
 74
     0
 42
0.000000001
 43
0.0000000001
 40
-1.0
 40
-1.0
 40
-1.0
 40
-1.0
 40
-0.5
 40
0.0
 40
0.0
 40
0.0
 40
0.0
 10
1053.101363873828
 20
1990.175104093776
 30
0.0
 10
1054.046438307507
 20
1989.629465115087
 30
0.0
 10
1056.035344419398
 20
1988.481169635994
 30
0.0
 10
1058.221765020353
 20
1987.218839113471
 30
0.0
 10
1059.364353943096
 20
1986.559165091352
 30
0.0
  0
ARC
  5
241
330
1CB
100
AcDbEntity
  8
P-SANR-FIXT
100
AcDbCircle
 10
1067.114353943096
 20
1999.982558850011
 30
0.0
 40
15.5
100
AcDbArc
 50
179.9999999999991
 51
239.9999999999998
  0
SPLINE
  5
242
330
1CB
100
AcDbEntity
  8
P-SANR-FIXT
100
AcDbSpline
210
0.0
220
0.0
230
1.0
 70
    24
 71
     3
 72
     9
 73
     5
 74
     0
 42
0.000000001
 43
0.0000000001
 40
-1.0
 40
-1.0
 40
-1.0
 40
-1.0
 40
-0.5
 40
0.0
 40
0.0
 40
0.0
 40
0.0
 10
1051.614353943096
 20
1999.982558850011
 30
0.0
 10
1051.614353943096
 20
1998.626439041046
 30
0.0
 10
1051.614353943096
 20
1996.065006231274
 30
0.0
 10
1051.614353943096
 20
1993.805187037814
 30
0.0
 10
1051.614353943096
 20
1992.750680845162
 30
0.0
  0
SPLINE
  5
243
330
1CB
100
AcDbEntity
  8
P-SANR-FIXT
100
AcDbSpline
210
0.0
220
0.0
230
1.0
 70
    24
 71
     3
 72
     9
 73
     5
 74
     0
 42
0.000000001
 43
0.0000000001
 40
-1.0
 40
-1.0
 40
-1.0
 40
-1.0
 40
-0.5
 40
0.0
 40
0.0
 40
0.0
 40
0.0
 10
1051.614353943097
 20
2007.21443685486
 30
0.0
 10
1051.614353943097
 20
2006.159930662208
 30
0.0
 10
1051.614353943096
 20
2003.900111468748
 30
0.0
 10
1051.614353943096
 20
2001.338678658975
 30
0.0
 10
1051.614353943096
 20
1999.982558850011
 30
0.0
  0
ARC
  5
244
330
1CB
100
AcDbEntity
  8
P-SANR-FIXT
100
AcDbCircle
 10
1067.114353943096
 20
1999.982558850011
 30
0.0
 40
15.49999999999998
100
AcDbArc
 50
119.9999999999992
 51
179.9999999999991
  0
SPLINE
  5
245
330
1CB
100
AcDbEntity
  8
P-SANR-FIXT
100
AcDbSpline
210
0.0
220
0.0
230
1.0
 70
    24
 71
     3
 72
     9
 73
     5
 74
     0
 42
0.000000001
 43
0.0000000001
 40
-1.0
 40
-1.0
 40
-1.0
 40
-1.0
 40
-0.5
 40
0.0
 40
0.0
 40
0.0
 40
0.0
 10
1059.364353943097
 20
2013.40595260867
 30
0.0
 10
1058.221765020353
 20
2012.746278586551
 30
0.0
 10
1056.035344419398
 20
2011.483948064028
 30
0.0
 10
1054.046438307507
 20
2010.335652584934
 30
0.0
 10
1053.101363873828
 20
2009.790013606245
 30
0.0
  0
ARC
  5
246
330
1CB
100
AcDbEntity
  8
P-SANR-FIXT
100
AcDbCircle
 10
1067.114353943096
 20
1999.982558850011
 30
0.0
 40
17.10409481606718
100
AcDbArc
 50
25.0124757442803
 51
34.98752425571752
  0
ARC
  5
247
330
1CB
100
AcDbEntity
  8
P-SANR-FIXT
100
AcDbCircle
 10
1067.114353943096
 20
1999.982558850011
 30
0.0
 40
17.10409481606734
100
AcDbArc
 50
325.0124757442798
 51
334.9875242557171
  0
ARC
  5
248
330
1CB
100
AcDbEntity
  8
P-SANR-FIXT
100
AcDbCircle
 10
1067.114353943096
 20
1999.982558850011
 30
0.0
 40
17.10409481606718
100
AcDbArc
 50
85.01247574428035
 51
89.99999999999923
  0
ARC
  5
249
330
1CB
100
AcDbEntity
  8
P-SANR-FIXT
100
AcDbCircle
 10
1067.114353943096
 20
1999.982558850011
 30
0.0
 40
17.10409481606734
100
AcDbArc
 50
269.9999999999997
 51
274.9875242557177
  0
ARC
  5
24A
330
1CB
100
AcDbEntity
  8
P-SANR-FIXT
100
AcDbCircle
 10
1067.114353943096
 20
1999.982558850011
 30
0.0
 40
17.10409481606707
100
AcDbArc
 50
205.0124757442793
 51
214.9875242557174
  0
ARC
  5
24B
330
1CB
100
AcDbEntity
  8
P-SANR-FIXT
100
AcDbCircle
 10
1067.114353943096
 20
1999.982558850011
 30
0.0
 40
17.10409481606703
100
AcDbArc
 50
145.0124757442809
 51
154.9875242557176
  0
ARC
  5
24C
330
1CB
100
AcDbEntity
  8
P-SANR-FIXT
100
AcDbCircle
 10
1067.114353943096
 20
1999.982558850011
 30
0.0
 40
17.10409481606712
100
AcDbArc
 50
90.0
 51
94.9875242557173
  0
ARC
  5
24D
330
1CB
100
AcDbEntity
  8
P-SANR-FIXT
100
AcDbCircle
 10
1067.114353943096
 20
1999.982558850011
 30
0.0
 40
17.10409481606717
100
AcDbArc
 50
265.0124757442807
 51
269.9999999999997
  0
SPLINE
  5
24E
330
1CB
100
AcDbEntity
  8
P-SANR-FIXT
100
AcDbSpline
210
0.0
220
0.0
230
1.0
 70
    24
 71
     3
 72
     8
 73
     4
 74
     0
 42
0.000000001
 43
0.0000000001
 40
-0.4997879730818827
 40
-0.4997879730818827
 40
-0.4997879730818827
 40
-0.4997879730818827
 40
-0.4403531192237313
 40
-0.4403531192237313
 40
-0.4403531192237313
 40
-0.4403531192237313
 10
1074.864391519448
 20
2013.405930913953
 30
0.0
 10
1075.129547960758
 20
2013.252842771185
 30
0.0
 10
1075.394221632072
 20
2013.100033355804
 30
0.0
 10
1075.657847297858
 20
2012.947829006698
 30
0.0
  0
SPLINE
  5
24F
330
1CB
100
AcDbEntity
  8
P-SANR-FIXT
100
AcDbSpline
210
0.0
220
0.0
230
1.0
 70
    24
 71
     3
 72
     8
 73
     4
 74
     0
 42
0.000000001
 43
0.0000000001
 40
-0.1190991244512284
 40
-0.1190991244512284
 40
-0.1190991244512284
 40
-0.1190991244512284
 40
0.0
 40
0.0
 40
0.0
 40
0.0
 10
1082.614353943096
 20
2000.915652781651
 30
0.0
 10
1082.614353943096
 20
2000.607856554387
 30
0.0
 10
1082.614353943096
 20
2000.29682524384
 30
0.0
 10
1082.614353943096
 20
1999.98255885001
 30
0.0
  0
SPLINE
  5
250
330
1CB
100
AcDbEntity
  8
P-SANR-FIXT
100
AcDbSpline
210
0.0
220
0.0
230
1.0
 70
    24
 71
     3
 72
     8
 73
     4
 74
     0
 42
0.000000001
 43
0.0000000001
 40
-1.0
 40
-1.0
 40
-1.0
 40
-1.0
 40
-0.8784546155116686
 40
-0.8784546155116686
 40
-0.8784546155116686
 40
-0.8784546155116686
 10
1082.614353943096
 20
1999.98255885001
 30
0.0
 10
1082.614353943096
 20
1999.661837519388
 30
0.0
 10
1082.614353943096
 20
1999.344485532132
 30
0.0
 10
1082.614353943096
 20
1999.030502888239
 30
0.0
  0
SPLINE
  5
251
330
1CB
100
AcDbEntity
  8
P-SANR-FIXT
100
AcDbSpline
210
0.0
220
0.0
230
1.0
 70
    24
 71
     3
 72
     8
 73
     4
 74
     0
 42
0.000000001
 43
0.0000000001
 40
-0.5576341462583211
 40
-0.5576341462583211
 40
-0.5576341462583211
 40
-0.5576341462583211
 40
-0.5
 40
-0.5
 40
-0.5
 40
-0.5
 10
1075.639964799542
 20
1987.006964228107
 30
0.0
 10
1075.382175100705
 20
1986.858129276089
 30
0.0
 10
1075.124398376733
 20
1986.709301815113
 30
0.0
 10
1074.867154141921
 20
1986.560781786897
 30
0.0
  0
SPLINE
  5
252
330
1CB
100
AcDbEntity
  8
P-SANR-FIXT
100
AcDbSpline
210
0.0
220
0.0
230
1.0
 70
    24
 71
     3
 72
     8
 73
     4
 74
     0
 42
0.000000001
 43
0.0000000001
 40
-1.0
 40
-1.0
 40
-1.0
 40
-1.0
 40
-0.8784546155117274
 40
-0.8784546155117274
 40
-0.8784546155117274
 40
-0.8784546155117274
 10
1051.614353943096
 20
1999.982558850011
 30
0.0
 10
1051.614353943096
 20
2000.303280180633
 30
0.0
 10
1051.614353943096
 20
2000.620632167889
 30
0.0
 10
1051.614353943096
 20
2000.934614811782
 30
0.0
  0
SPLINE
  5
253
330
1CB
100
AcDbEntity
  8
P-SANR-FIXT
100
AcDbSpline
210
0.0
220
0.0
230
1.0
 70
    24
 71
     3
 72
     8
 73
     4
 74
     0
 42
0.000000001
 43
0.0000000001
 40
-0.5576341462582829
 40
-0.5576341462582829
 40
-0.5576341462582829
 40
-0.5576341462582829
 40
-0.5
 40
-0.5
 40
-0.5
 40
-0.5
 10
1058.588743086652
 20
2012.958153471915
 30
0.0
 10
1058.846532785489
 20
2013.106988423932
 30
0.0
 10
1059.10430950946
 20
2013.255815884908
 30
0.0
 10
1059.361553744271
 20
2013.404335913124
 30
0.0
  0
SPLINE
  5
254
330
1CB
100
AcDbEntity
  8
P-SANR-FIXT
100
AcDbSpline
210
0.0
220
0.0
230
1.0
 70
    24
 71
     3
 72
     8
 73
     4
 74
     0
 42
0.000000001
 43
0.0000000001
 40
-0.4997879730818827
 40
-0.4997879730818827
 40
-0.4997879730818827
 40
-0.4997879730818827
 40
-0.4391211751891421
 40
-0.4391211751891421
 40
-0.4391211751891421
 40
-0.4391211751891421
 10
1059.364316366745
 20
1986.559186786069
 30
0.0
 10
1059.093663859156
 20
1986.715448084181
 30
0.0
 10
1058.823514675413
 20
1986.871418788137
 30
0.0
 10
1058.554469446826
 20
1987.026752123286
 30
0.0
  0
SPLINE
  5
255
330
1CB
100
AcDbEntity
  8
P-SANR-FIXT
100
AcDbSpline
210
0.0
220
0.0
230
1.0
 70
    24
 71
     3
 72
     8
 73
     4
 74
     0
 42
0.000000001
 43
0.0000000001
 40
-0.1214924259181522
 40
-0.1214924259181522
 40
-0.1214924259181522
 40
-0.1214924259181522
 40
0.0
 40
0.0
 40
0.0
 40
0.0
 10
1051.614353943096
 20
1999.03091330653
 30
0.0
 10
1051.614353943096
 20
1999.344762079801
 30
0.0
 10
1051.614353943096
 20
1999.661977260961
 30
0.0
 10
1051.614353943096
 20
1999.982558850011
 30
0.0
  0
ARC
  5
256
330
1CB
100
AcDbEntity
  8
P-SANR-FIXT
100
AcDbCircle
 10
1067.114353943096
 20
1999.982558850011
 30
0.0
 40
15.50000000000034
100
AcDbArc
 50
298.1249999999991
 51
300.0364491215087
  0
SPLINE
  5
257
330
1CB
100
AcDbEntity
  8
P-SANR-FIXT
100
AcDbSpline
210
0.0
220
0.0
230
1.0
 70
     8
 71
     3
 72
     8
 73
     4
 74
     0
 42
0.000000001
 43
0.0000000001
 40
0.1649357744010163
 40
0.1649357744010163
 40
0.1649357744010163
 40
0.1649357744010163
 40
0.1666666666666666
 40
0.1666666666666666
 40
0.1666666666666666
 40
0.1666666666666666
 10
1074.865146489017
 20
1986.559621797414
 30
0.0
 10
1074.889228696008
 20
1986.57352787982
 30
0.0
 10
1074.913269832768
 20
1986.587496652989
 30
0.0
 10
1074.937269743167
 20
1986.601527933634
 30
0.0
  0
SPLINE
  5
258
330
1CB
100
AcDbEntity
  8
P-SANR-FIXT
100
AcDbSpline
210
0.0
220
0.0
230
1.0
 70
     8
 71
     3
 72
     8
 73
     4
 74
     0
 42
0.000000001
 43
0.0000000001
 40
0.8333333333333332
 40
0.8333333333333332
 40
0.8333333333333332
 40
0.8333333333333332
 40
0.8351428676576123
 40
0.8351428676576123
 40
0.8351428676576123
 40
0.8351428676576123
 10
1074.940692979921
 20
2013.361587861142
 30
0.0
 10
1074.915579284282
 20
2013.376278908438
 30
0.0
 10
1074.890419215534
 20
2013.390898459681
 30
0.0
 10
1074.86521319172
 20
2013.405446897584
 30
0.0
  0
ARC
  5
259
330
1CB
100
AcDbEntity
  8
P-SANR-FIXT
100
AcDbCircle
 10
1067.114353943096
 20
1999.982558850011
 30
0.0
 40
15.50000000000004
100
AcDbArc
 50
118.1249999999993
 51
120.0364491215113
  0
SPLINE
  5
25A
330
1CB
100
AcDbEntity
  8
P-SANR-FIXT
100
AcDbSpline
210
0.0
220
0.0
230
1.0
 70
     8
 71
     3
 72
     8
 73
     4
 74
     0
 42
0.000000001
 43
0.0000000001
 40
0.164857132342388
 40
0.164857132342388
 40
0.164857132342388
 40
0.164857132342388
 40
0.1666666666666666
 40
0.1666666666666666
 40
0.1666666666666666
 40
0.1666666666666666
 10
1059.363491668474
 20
2013.405455587137
 30
0.0
 10
1059.338287591706
 20
2013.390901558036
 30
0.0
 10
1059.313128601911
 20
2013.376278908438
 30
0.0
 10
1059.288014906272
 20
2013.361587861142
 30
0.0
  0
SPLINE
  5
25B
330
1CB
100
AcDbEntity
  8
P-SANR-FIXT
100
AcDbSpline
210
0.0
220
0.0
230
1.0
 70
     8
 71
     3
 72
     8
 73
     4
 74
     0
 42
0.000000001
 43
0.0000000001
 40
0.8333333333333332
 40
0.8333333333333332
 40
0.8333333333333332
 40
0.8333333333333332
 40
0.8350642255989763
 40
0.8350642255989763
 40
0.8350642255989763
 40
0.8350642255989763
 10
1059.291438143026
 20
1986.601527933634
 30
0.0
 10
1059.315438053425
 20
1986.587496652989
 30
0.0
 10
1059.339480182784
 20
1986.573530711577
 30
0.0
 10
1059.363564189421
 20
1986.559629763325
 30
0.0
  0
LINE
  5
25C
330
1CB
100
AcDbEntity
  8
P-SANR-FIXT
100
AcDbLine
 10
1067.114353943096
 20
2062.882558850011
 30
0.0
 11
1095.864353943096
 21
2062.882558850011
 31
0.0
  0
ENDBLK
  5
25E
330
1CB
100
AcDbEntity
  8
0
100
AcDbBlockEnd
  0
ENDSEC
  0
SECTION
  2
ENTITIES
  0
INSERT
  5
142
330
71
100
AcDbEntity
  8
P-SANR-FIXT
100
AcDbBlockReference
  2
Automatic flow rate regulator valve_Caleffi_121 DN15 - 1_2__-859151-Est - Idraulica
 10
0.0
 20
0.0
 30
0.0
1001
REVIT
1002
{
1070
     1
1000
863131
1002
}
1002
{
1070
     5
1000
859151
1002
}
1002
{
1070
     2
1000
-2001160
1002
}
  0
INSERT
  5
1CA
330
71
100
AcDbEntity
  8
P-SANR-FIXT
100
AcDbBlockReference
  2
Automatic flow rate regulator valve_Caleffi_121 DN15 - 1_2__-V1-Est - Idraulica
 10
0.0
 20
0.0
 30
0.0
1001
REVIT
1002
{
1070
     1
1000
863152
1002
}
1002
{
1070
     5
1000
859151
1002
}
1002
{
1070
     2
1000
-2001160
1002
}
  0
INSERT
  5
25F
330
71
100
AcDbEntity
  8
P-SANR-FIXT
100
AcDbBlockReference
  2
Automatic flow rate regulator valve_Caleffi_121 DN15 - 1_2__-V2-Est - Idraulica
 10
0.0
 20
0.0
 30
0.0
1001
REVIT
1002
{
1070
     1
1000
863172
1002
}
1002
{
1070
     5
1000
859151
1002
}
1002
{
1070
     2
1000
-2001160
1002
}
  0
ENDSEC
  0
SECTION
  2
OBJECTS
  0
DICTIONARY
  5
C
330
0
100
AcDbDictionary
281
     1
  3
ACAD_CIP_PREVIOUS_PRODUCT_INFO
350
7A
  3
ACAD_COLOR
350
63
  3
ACAD_DETAILVIEWSTYLE
350
6B
  3
ACAD_GROUP
350
D
  3
ACAD_IMAGE_VARS
350
7B
  3
ACAD_LAYOUT
350
62
  3
ACAD_MATERIAL
350
10
  3
ACAD_MLEADERSTYLE
350
66
  3
ACAD_MLINESTYLE
350
5F
  3
ACAD_PLOTSETTINGS
350
61
  3
ACAD_PLOTSTYLENAME
350
E
  3
ACAD_SCALELIST
350
42
  3
ACAD_SECTIONVIEWSTYLE
350
68
  3
ACAD_TABLESTYLE
350
64
  3
ACAD_VISUALSTYLE
350
29
  3
ACDB_RECOMPOSE_DATA
350
269
  3
AcDbVariableDictionary
350
7C
  3
REVIT_DICTIONARY
350
261
  0
DICTIONARY
  5
265
330
71
100
AcDbDictionary
280
     1
281
     1
  3
ACAD_SORTENTS
360
266
  0
XRECORD
  5
7A
102
{ACAD_REACTORS
330
C
102
}
330
C
100
AcDbXrecord
280
     1
300
RVT
300
2013
300
RVT2013
  0
DICTIONARY
  5
63
102
{ACAD_REACTORS
330
C
102
}
330
C
100
AcDbDictionary
281
     1
  0
DICTIONARY
  5
6B
102
{ACAD_REACTORS
330
C
102
}
330
C
100
AcDbDictionary
281
     1
  3
Imperial24
350
6C
  0
DICTIONARY
  5
D
102
{ACAD_REACTORS
330
C
102
}
330
C
100
AcDbDictionary
281
     1
  0
RASTERVARIABLES
  5
7B
102
{ACAD_REACTORS
330
C
102
}
330
C
100
AcDbRasterVariables
 90
        0
 70
     0
 71
     1
 72
     1
  0
DICTIONARY
  5
62
102
{ACAD_REACTORS
330
C
102
}
330
C
100
AcDbDictionary
281
     1
  3
Layout1
350
70
  3
Layout2
350
78
  3
Model
350
74
  0
DICTIONARY
  5
10
102
{ACAD_REACTORS
330
C
102
}
330
C
100
AcDbDictionary
281
     1
  3
ByBlock
350
19
  3
ByLayer
350
11
  3
Global
350
21
  0
DICTIONARY
  5
66
102
{ACAD_REACTORS
330
C
102
}
330
C
100
AcDbDictionary
281
     1
  3
Standard
350
67
  0
DICTIONARY
  5
5F
102
{ACAD_REACTORS
330
C
102
}
330
C
100
AcDbDictionary
281
     1
  3
Standard
350
60
  0
DICTIONARY
  5
61
102
{ACAD_REACTORS
330
C
102
}
330
C
100
AcDbDictionary
281
     1
  0
ACDBDICTIONARYWDFLT
  5
E
102
{ACAD_REACTORS
330
C
102
}
330
C
100
AcDbDictionary
281
     1
  3
Normal
350
F
100
AcDbDictionaryWithDefault
340
F
  0
DICTIONARY
  5
42
102
{ACAD_REACTORS
330
C
102
}
330
C
100
AcDbDictionary
281
     1
  3
A0
350
43
  3
A1
350
44
  3
A2
350
45
  3
A3
350
46
  3
A4
350
47
  3
A5
350
48
  3
A6
350
49
  3
A7
350
4A
  3
A8
350
4B
  3
A9
350
4C
  3
B0
350
4D
  3
B1
350
4E
  3
B2
350
4F
  3
B3
350
50
  3
B4
350
51
  3
B5
350
52
  3
B6
350
53
  0
DICTIONARY
  5
68
102
{ACAD_REACTORS
330
C
102
}
330
C
100
AcDbDictionary
281
     1
  3
Imperial24
350
6A
  0
DICTIONARY
  5
64
102
{ACAD_REACTORS
330
C
102
}
330
C
100
AcDbDictionary
281
     1
  3
Standard
350
65
  0
DICTIONARY
  5
29
102
{ACAD_REACTORS
330
C
102
}
330
C
100
AcDbDictionary
281
     1
  3
2dWireframe
350
2F
  3
Basic
350
2E
  3
Brighten
350
35
  3
ColorChange
350
39
  3
Conceptual
350
32
  3
Dim
350
34
  3
EdgeColorOff
350
41
  3
Facepattern
350
38
  3
Flat
350
2A
  3
FlatWithEdges
350
2B
  3
Gouraud
350
2C
  3
GouraudWithEdges
350
2D
  3
Hidden
350
31
  3
JitterOff
350
3F
  3
Linepattern
350
37
  3
OverhangOff
350
40
  3
Realistic
350
33
  3
Shaded
350
3E
  3
Shaded with edges
350
3D
  3
Shades of Gray
350
3A
  3
Sketchy
350
3B
  3
Thicken
350
36
  3
Wireframe
350
30
  3
X-Ray
350
3C
  0
XRECORD
  5
269
102
{ACAD_REACTORS
330
C
102
}
330
C
100
AcDbXrecord
280
     1
 90
        1
330
65
  0
DICTIONARY
  5
7C
102
{ACAD_REACTORS
330
C
102
}
330
C
100
AcDbDictionary
281
     1
  3
CANNOSCALE
350
81
  3
CMLEADERSTYLE
350
7E
  3
CTABLESTYLE
350
7D
  3
CVIEWDETAILSTYLE
350
7F
  3
CVIEWSECTIONSTYLE
350
80
  0
DICTIONARY
  5
261
102
{ACAD_REACTORS
330
C
102
}
330
C
100
AcDbDictionary
281
     1
  3
DRAWING_TOOL
350
264
  3
REVIT_CATEGORY_MAPPING
350
263
  3
REVIT_TYPE_MAPPING
350
262
  0
SORTENTSTABLE
  5
266
102
{ACAD_REACTORS
330
265
102
}
330
265
100
AcDbSortentsTable
330
71
  0
ACDBDETAILVIEWSTYLE
  5
6C
102
{ACAD_REACTORS
330
6B
102
}
330
6B
100
AcDbModelDocViewStyle
 70
     0
  3
Imperial24
290
     1
100
AcDbDetailViewStyle
 70
     0
 71
     0
 90
        3
 71
     1
340
55
 62
   256
 40
0.24
340
0
 62
   256
 40
0.24
300

 40
0.36
280
     3
 71
     2
340
5D
 90
       25
 62
   256
 71
     3
340
55
 62
   256
 40
0.24
 90
        1
 40
0.75
 90
        1
300
%<\AcVar ViewType \f "%tc1">% %<\AcVar ViewDetailId>%\PSCALA %<\AcVar ViewScale \f "%sn">%
 71
     4
340
5D
 90
       25
 62
   256
340
5D
 90
       25
 62
   256
280
     0
  0
LAYOUT
  5
70
102
{ACAD_REACTORS
330
62
102
}
330
62
100
AcDbPlotSettings
  1

  2

  4

  6

 40
0.0
 41
0.0
 42
0.0
 43
0.0
 44
0.0
 45
0.0
 46
0.0
 47
0.0
 48
0.0
 49
0.0
140
0.0
141
0.0
142
1.0
143
1.0
 70
   688
 72
     0
 73
     0
 74
     5
  7

 75
    16
147
1.0
 76
     0
 77
     2
 78
   300
148
0.0
149
0.0
100
AcDbLayout
  1
Layout1
 70
     1
 71
     1
 10
0.0
 20
0.0
 11
12.0
 21
9.0
 12
0.0
 22
0.0
 32
0.0
 14
0.0
 24
0.0
 34
0.0
 15
0.0
 25
0.0
 35
0.0
146
0.0
 13
0.0
 23
0.0
 33
0.0
 16
1.0
 26
0.0
 36
0.0
 17
0.0
 27
1.0
 37
0.0
 76
     0
330
6D
  0
LAYOUT
  5
78
102
{ACAD_REACTORS
330
62
102
}
330
62
100
AcDbPlotSettings
  1

  2

  4

  6

 40
0.0
 41
0.0
 42
0.0
 43
0.0
 44
0.0
 45
0.0
 46
0.0
 47
0.0
 48
0.0
 49
0.0
140
0.0
141
0.0
142
1.0
143
1.0
 70
   688
 72
     0
 73
     0
 74
     5
  7

 75
    16
147
1.0
 76
     0
 77
     2
 78
   300
148
0.0
149
0.0
100
AcDbLayout
  1
Layout2
 70
     1
 71
     2
 10
0.0
 20
0.0
 11
12.0
 21
9.0
 12
0.0
 22
0.0
 32
0.0
 14
0.0
 24
0.0
 34
0.0
 15
0.0
 25
0.0
 35
0.0
146
0.0
 13
0.0
 23
0.0
 33
0.0
 16
1.0
 26
0.0
 36
0.0
 17
0.0
 27
1.0
 37
0.0
 76
     0
330
75
  0
LAYOUT
  5
74
102
{ACAD_REACTORS
330
62
102
}
330
62
100
AcDbPlotSettings
  1

  2

  4

  6

 40
0.0
 41
0.0
 42
0.0
 43
0.0
 44
0.0
 45
0.0
 46
0.0
 47
0.0
 48
0.0
 49
0.0
140
0.0
141
0.0
142
1.0
143
1.0
 70
  1712
 72
     0
 73
     0
 74
     0
  7

 75
     0
147
1.0
 76
     0
 77
     2
 78
   300
148
0.0
149
0.0
100
AcDbLayout
  1
Model
 70
     1
 71
     0
 10
0.0
 20
0.0
 11
12.0
 21
9.0
 12
0.0
 22
0.0
 32
0.0
 14
0.0
 24
0.0
 34
0.0
 15
0.0
 25
0.0
 35
0.0
146
0.0
 13
0.0
 23
0.0
 33
0.0
 16
1.0
 26
0.0
 36
0.0
 17
0.0
 27
1.0
 37
0.0
 76
     0
330
71
  0
MATERIAL
  5
19
102
{ACAD_XDICTIONARY
360
1A
102
}
102
{ACAD_REACTORS
330
10
102
}
330
10
100
AcDbMaterial
  1
ByBlock
 72
     0
 43
0.0208333333333333
 43
0.0
 43
0.0
 43
0.0
 43
0.0
 43
0.0208333333333333
 43
0.0
 43
0.0
 43
0.0
 43
0.0
 43
1.0
 43
0.0
 43
0.0
 43
0.0
 43
0.0
 43
1.0
 77
     0
 47
0.0208333333333333
 47
0.0
 47
0.0
 47
0.0
 47
0.0
 47
0.0208333333333333
 47
0.0
 47
0.0
 47
0.0
 47
0.0
 47
1.0
 47
0.0
 47
0.0
 47
0.0
 47
0.0
 47
1.0
171
     0
 49
0.0208333333333333
 49
0.0
 49
0.0
 49
0.0
 49
0.0
 49
0.0208333333333333
 49
0.0
 49
0.0
 49
0.0
 49
0.0
 49
1.0
 49
0.0
 49
0.0
 49
0.0
 49
0.0
 49
1.0
175
     0
142
0.0208333333333333
142
0.0
142
0.0
142
0.0
142
0.0
142
0.0208333333333333
142
0.0
142
0.0
142
0.0
142
0.0
142
1.0
142
0.0
142
0.0
142
0.0
142
0.0
142
1.0
179
     0
144
0.0208333333333333
144
0.0
144
0.0
144
0.0
144
0.0
144
0.0208333333333333
144
0.0
144
0.0
144
0.0
144
0.0
144
1.0
144
0.0
144
0.0
144
0.0
144
0.0
144
1.0
147
0.0208333333333333
147
0.0
147
0.0
147
0.0
147
0.0
147
0.0208333333333333
147
0.0
147
0.0
147
0.0
147
0.0
147
1.0
147
0.0
147
0.0
147
0.0
147
0.0
147
1.0
  0
MATERIAL
  5
11
102
{ACAD_XDICTIONARY
360
12
102
}
102
{ACAD_REACTORS
330
10
102
}
330
10
100
AcDbMaterial
  1
ByLayer
 72
     0
 43
0.0208333333333333
 43
0.0
 43
0.0
 43
0.0
 43
0.0
 43
0.0208333333333333
 43
0.0
 43
0.0
 43
0.0
 43
0.0
 43
1.0
 43
0.0
 43
0.0
 43
0.0
 43
0.0
 43
1.0
 77
     0
 47
0.0208333333333333
 47
0.0
 47
0.0
 47
0.0
 47
0.0
 47
0.0208333333333333
 47
0.0
 47
0.0
 47
0.0
 47
0.0
 47
1.0
 47
0.0
 47
0.0
 47
0.0
 47
0.0
 47
1.0
171
     0
 49
0.0208333333333333
 49
0.0
 49
0.0
 49
0.0
 49
0.0
 49
0.0208333333333333
 49
0.0
 49
0.0
 49
0.0
 49
0.0
 49
1.0
 49
0.0
 49
0.0
 49
0.0
 49
0.0
 49
1.0
175
     0
142
0.0208333333333333
142
0.0
142
0.0
142
0.0
142
0.0
142
0.0208333333333333
142
0.0
142
0.0
142
0.0
142
0.0
142
1.0
142
0.0
142
0.0
142
0.0
142
0.0
142
1.0
179
     0
144
0.0208333333333333
144
0.0
144
0.0
144
0.0
144
0.0
144
0.0208333333333333
144
0.0
144
0.0
144
0.0
144
0.0
144
1.0
144
0.0
144
0.0
144
0.0
144
0.0
144
1.0
147
0.0208333333333333
147
0.0
147
0.0
147
0.0
147
0.0
147
0.0208333333333333
147
0.0
147
0.0
147
0.0
147
0.0
147
1.0
147
0.0
147
0.0
147
0.0
147
0.0
147
1.0
  0
MATERIAL
  5
21
102
{ACAD_XDICTIONARY
360
22
102
}
102
{ACAD_REACTORS
330
10
102
}
330
10
100
AcDbMaterial
  1
Global
 72
     0
 43
0.0208333333333333
 43
0.0
 43
0.0
 43
0.0
 43
0.0
 43
0.0208333333333333
 43
0.0
 43
0.0
 43
0.0
 43
0.0
 43
1.0
 43
0.0
 43
0.0
 43
0.0
 43
0.0
 43
1.0
 77
     0
 47
0.0208333333333333
 47
0.0
 47
0.0
 47
0.0
 47
0.0
 47
0.0208333333333333
 47
0.0
 47
0.0
 47
0.0
 47
0.0
 47
1.0
 47
0.0
 47
0.0
 47
0.0
 47
0.0
 47
1.0
171
     0
 49
0.0208333333333333
 49
0.0
 49
0.0
 49
0.0
 49
0.0
 49
0.0208333333333333
 49
0.0
 49
0.0
 49
0.0
 49
0.0
 49
1.0
 49
0.0
 49
0.0
 49
0.0
 49
0.0
 49
1.0
175
     0
142
0.0208333333333333
142
0.0
142
0.0
142
0.0
142
0.0
142
0.0208333333333333
142
0.0
142
0.0
142
0.0
142
0.0
142
1.0
142
0.0
142
0.0
142
0.0
142
0.0
142
1.0
179
     0
144
0.0208333333333333
144
0.0
144
0.0
144
0.0
144
0.0
144
0.0208333333333333
144
0.0
144
0.0
144
0.0
144
0.0
144
1.0
144
0.0
144
0.0
144
0.0
144
0.0
144
1.0
147
0.0208333333333333
147
0.0
147
0.0
147
0.0
147
0.0
147
0.0208333333333333
147
0.0
147
0.0
147
0.0
147
0.0
147
1.0
147
0.0
147
0.0
147
0.0
147
0.0
147
1.0
  0
MLEADERSTYLE
  5
67
102
{ACAD_REACTORS
330
66
102
}
330
66
100
AcDbMLeaderStyle
179
     2
170
     2
171
     1
172
     0
 90
        2
 40
0.0
 41
0.0
173
     1
 91
-1056964608
340
5B
 92
       -2
290
     1
 42
0.09
291
     1
 43
0.36
  3
Standard
 44
0.18
300

342
55
174
     1
178
     6
175
     1
176
     0
 93
-1056964608
 45
0.18
292
     0
297
     0
 46
0.18
 94
-1056964608
 47
1.0
 49
1.0
140
1.0
293
     1
141
0.0
294
     1
177
     0
142
1.0
295
     1
296
     0
143
0.125
271
     0
272
     9
273
     9
298
     1
  0
MLINESTYLE
  5
60
102
{ACAD_REACTORS
330
5F
102
}
330
5F
100
AcDbMlineStyle
  2
STANDARD
 70
     0
  3

 62
   256
 51
90.0
 52
90.0
 71
     2
 49
0.5
 62
   256
  6
BYLAYER
 49
-0.5
 62
   256
  6
BYLAYER
  0
ACDBPLACEHOLDER
  5
F
102
{ACAD_REACTORS
330
E
102
}
330
E
  0
SCALE
  5
43
102
{ACAD_REACTORS
330
42
102
}
330
42
100
AcDbScale
 70
     0
300
1:1
140
1.0
141
1.0
290
     1
  0
SCALE
  5
44
102
{ACAD_REACTORS
330
42
102
}
330
42
100
AcDbScale
 70
     0
300
1/128" = 1'-0"
140
0.0078125
141
12.0
290
     0
  0
SCALE
  5
45
102
{ACAD_REACTORS
330
42
102
}
330
42
100
AcDbScale
 70
     0
300
1/64" = 1'-0"
140
0.015625
141
12.0
290
     0
  0
SCALE
  5
46
102
{ACAD_REACTORS
330
42
102
}
330
42
100
AcDbScale
 70
     0
300
1/32" = 1'-0"
140
0.03125
141
12.0
290
     0
  0
SCALE
  5
47
102
{ACAD_REACTORS
330
42
102
}
330
42
100
AcDbScale
 70
     0
300
1/16" = 1'-0"
140
0.0625
141
12.0
290
     0
  0
SCALE
  5
48
102
{ACAD_REACTORS
330
42
102
}
330
42
100
AcDbScale
 70
     0
300
3/32" = 1'-0"
140
0.09375
141
12.0
290
     0
  0
SCALE
  5
49
102
{ACAD_REACTORS
330
42
102
}
330
42
100
AcDbScale
 70
     0
300
1/8" = 1'-0"
140
0.125
141
12.0
290
     0
  0
SCALE
  5
4A
102
{ACAD_REACTORS
330
42
102
}
330
42
100
AcDbScale
 70
     0
300
3/16" = 1'-0"
140
0.1875
141
12.0
290
     0
  0
SCALE
  5
4B
102
{ACAD_REACTORS
330
42
102
}
330
42
100
AcDbScale
 70
     0
300
1/4" = 1'-0"
140
0.25
141
12.0
290
     0
  0
SCALE
  5
4C
102
{ACAD_REACTORS
330
42
102
}
330
42
100
AcDbScale
 70
     0
300
3/8" = 1'-0"
140
0.375
141
12.0
290
     0
  0
SCALE
  5
4D
102
{ACAD_REACTORS
330
42
102
}
330
42
100
AcDbScale
 70
     0
300
1/2" = 1'-0"
140
0.5
141
12.0
290
     0
  0
SCALE
  5
4E
102
{ACAD_REACTORS
330
42
102
}
330
42
100
AcDbScale
 70
     0
300
3/4" = 1'-0"
140
0.75
141
12.0
290
     0
  0
SCALE
  5
4F
102
{ACAD_REACTORS
330
42
102
}
330
42
100
AcDbScale
 70
     0
300
1" = 1'-0"
140
1.0
141
12.0
290
     0
  0
SCALE
  5
50
102
{ACAD_REACTORS
330
42
102
}
330
42
100
AcDbScale
 70
     0
300
1-1/2" = 1'-0"
140
1.5
141
12.0
290
     0
  0
SCALE
  5
51
102
{ACAD_REACTORS
330
42
102
}
330
42
100
AcDbScale
 70
     0
300
3" = 1'-0"
140
3.0
141
12.0
290
     0
  0
SCALE
  5
52
102
{ACAD_REACTORS
330
42
102
}
330
42
100
AcDbScale
 70
     0
300
6" = 1'-0"
140
6.0
141
12.0
290
     0
  0
SCALE
  5
53
102
{ACAD_REACTORS
330
42
102
}
330
42
100
AcDbScale
 70
     0
300
1'-0" = 1'-0"
140
12.0
141
12.0
290
     0
  0
ACDBSECTIONVIEWSTYLE
  5
6A
102
{ACAD_REACTORS
330
68
102
}
330
68
100
AcDbModelDocViewStyle
 70
     0
  3
Imperial24
290
     1
100
AcDbSectionViewStyle
 70
     0
 71
     0
 90
       78
 71
     1
340
55
 62
   256
 40
0.24
340
0
340
0
 62
   256
 40
0.24
300
I, O, Q, S, X, Z
 40
0.48
 90
        3
 40
0.18
 90
        1
 71
     2
340
69
 90
       25
 62
   256
340
5D
 90
       50
 62
   256
 40
0.24
 40
0.0
 40
0.24
 71
     3
340
55
 62
   256
 40
0.24
 90
        1
 40
0.75
 90
        1
300
%<\AcVar ViewType \f "%tc1">% %<\AcVar ViewSectionStartId>%-%<\AcVar ViewSectionEndId>%\PSCALA %<\AcVar ViewScale \f "%sn">%
 71
     4
 62
   256
 62
   257
300
ANSI31
 40
1.0
 90
        0
290
     0
290
     0
 90
        6
 40
0.0
 40
1.570796326794896
 40
0.2617993877991494
 40
1.308996938995747
 40
-0.2617993877991494
 40
1.832595714594046
  0
TABLESTYLE
  5
65
102
{ACAD_XDICTIONARY
360
267
102
}
102
{ACAD_REACTORS
330
64
102
}
330
64
100
AcDbTableStyle
280
     0
  3
Standard
 70
     0
 71
     0
 40
0.06
 41
0.06
280
     0
281
     0
  7
Standard
140
0.18
170
     2
 62
     0
 63
     7
283
     0
 90
      512
 91
        0
  1

274
    -2
284
     1
 64
     0
275
    -2
285
     1
 65
     0
276
    -2
286
     1
 66
     0
277
    -2
287
     1
 67
     0
278
    -2
288
     1
 68
     0
279
    -2
289
     1
 69
     0
  7
Standard
140
0.25
170
     5
 62
     0
 63
     7
283
     0
 90
      512
 91
        0
  1

274
    -2
284
     1
 64
     0
275
    -2
285
     1
 65
     0
276
    -2
286
     1
 66
     0
277
    -2
287
     1
 67
     0
278
    -2
288
     1
 68
     0
279
    -2
289
     1
 69
     0
  7
Standard
140
0.18
170
     5
 62
     0
 63
     7
283
     0
 90
      512
 91
        0
  1

274
    -2
284
     1
 64
     0
275
    -2
285
     1
 65
     0
276
    -2
286
     1
 66
     0
277
    -2
287
     1
 67
     0
278
    -2
288
     1
 68
     0
279
    -2
289
     1
 69
     0
  0
VISUALSTYLE
  5
2F
102
{ACAD_REACTORS
330
29
102
}
330
29
100
AcDbVisualStyle
  2
2dWireframe
 70
     4
177
     3
291
     0
 70
    58
 90
        0
176
     1
 90
        2
176
     1
 90
        0
176
     1
 90
        0
176
     1
 40
0.6
176
     1
 40
30.0
176
     1
 62
     7
420
 16777215
176
     1
 90
        1
176
     1
 90
        4
176
     1
 62
     7
176
     1
 62
   257
176
     1
 90
        1
176
     1
 90
        1
176
     1
 40
1.0
176
     1
 90
        0
176
     1
 62
   257
176
     1
 40
1.0
176
     1
 90
        1
176
     1
 90
        6
176
     1
 90
        2
176
     1
 62
     7
176
     1
 90
        5
176
     1
 90
        0
176
     1
 90
        0
176
     1
290
     0
176
     1
 90
        1
176
     1
 40
0.0
176
     1
 90
        0
176
     1
290
     1
176
     1
290
     1
176
     1
290
     0
176
     1
290
     0
176
     1
290
     0
176
     1
290
     0
176
     1
290
     0
176
     1
290
     0
176
     1
290
     0
176
     1
 90
       50
176
     1
 40
0.0
176
     1
 40
1.0
176
     1
 90
        0
176
     1
 62
    18
420
        0
176
     1
 90
       50
176
     1
 90
        3
176
     1
 62
     5
420
      255
176
     1
290
     0
176
     1
 90
       50
176
     1
 90
       50
176
     1
 90
       50
176
     1
290
     0
176
     1
 90
       50
176
     1
 62
   256
176
     0
 40
1.0
176
     0
 90
        2
176
     1
  1
strokes_ogs.tif
176
     1
290
     0
176
     1
 40
1.0
176
     1
 40
1.0
176
     1
  0
VISUALSTYLE
  5
2E
102
{ACAD_REACTORS
330
29
102
}
330
29
100
AcDbVisualStyle
  2
Basic
 70
     7
177
     3
291
     1
 70
    58
 90
        1
176
     1
 90
        0
176
     1
 90
        1
176
     1
 90
        0
176
     1
 40
0.6
176
     1
 40
30.0
176
     1
 62
     7
420
 16777215
176
     1
 90
        0
176
     1
 90
        4
176
     1
 62
     7
176
     1
 62
   257
176
     1
 90
        1
176
     1
 90
        1
176
     1
 40
1.0
176
     1
 90
        8
176
     1
 62
     7
176
     1
 40
1.0
176
     1
 90
        1
176
     1
 90
        6
176
     1
 90
        2
176
     1
 62
     7
176
     1
 90
        5
176
     1
 90
        0
176
     1
 90
        0
176
     1
290
     0
176
     1
 90
        1
176
     1
 40
0.0
176
     1
 90
        0
176
     1
290
     0
176
     1
290
     1
176
     1
290
     1
176
     1
290
     0
176
     1
290
     0
176
     1
290
     0
176
     1
290
     0
176
     1
290
     0
176
     1
290
     0
176
     1
 90
       50
176
     1
 40
0.0
176
     1
 40
1.0
176
     1
 90
        0
176
     1
 62
    18
420
        0
176
     1
 90
       50
176
     1
 90
        3
176
     1
 62
     5
420
      255
176
     1
290
     0
176
     1
 90
       50
176
     1
 90
       50
176
     1
 90
       50
176
     1
290
     0
176
     1
 90
       50
176
     1
 62
   256
176
     0
 40
1.0
176
     0
 90
        2
176
     1
  1
strokes_ogs.tif
176
     1
290
     0
176
     1
 40
1.0
176
     1
 40
1.0
176
     1
  0
VISUALSTYLE
  5
35
102
{ACAD_REACTORS
330
29
102
}
330
29
100
AcDbVisualStyle
  2
Brighten
 70
    12
177
     3
291
     1
 70
    58
 90
        2
176
     1
 90
        2
176
     1
 90
        0
176
     1
 90
        0
176
     1
 40
0.6
176
     1
 40
30.0
176
     1
 62
     7
420
 16777215
176
     1
 90
        1
176
     1
 90
        4
176
     1
 62
     7
176
     1
 62
   257
176
     1
 90
        1
176
     1
 90
        1
176
     1
 40
1.0
176
     1
 90
        8
176
     1
 62
     7
176
     1
 40
1.0
176
     1
 90
        1
176
     1
 90
        6
176
     1
 90
        2
176
     1
 62
     7
176
     1
 90
        5
176
     1
 90
        0
176
     1
 90
        0
176
     1
290
     0
176
     1
 90
        1
176
     1
 40
50.0
176
     1
 90
        0
176
     1
290
     0
176
     1
290
     1
176
     1
290
     1
176
     1
290
     0
176
     1
290
     0
176
     1
290
     0
176
     1
290
     0
176
     1
290
     0
176
     1
290
     0
176
     1
 90
       50
176
     1
 40
0.0
176
     1
 40
1.0
176
     1
 90
        0
176
     1
 62
    18
420
        0
176
     1
 90
       50
176
     1
 90
        3
176
     1
 62
     5
420
      255
176
     1
290
     0
176
     1
 90
       50
176
     1
 90
       50
176
     1
 90
       50
176
     1
290
     0
176
     1
 90
       50
176
     1
 62
   256
176
     0
 40
1.0
176
     0
 90
        2
176
     1
  1
strokes_ogs.tif
176
     1
290
     0
176
     1
 40
1.0
176
     1
 40
1.0
176
     1
  0
VISUALSTYLE
  5
39
102
{ACAD_REACTORS
330
29
102
}
330
29
100
AcDbVisualStyle
  2
ColorChange
 70
    16
177
     3
291
     1
 70
    58
 90
        2
176
     1
 90
        2
176
     1
 90
        3
176
     1
 90
        0
176
     1
 40
0.6
176
     1
 40
30.0
176
     1
 62
     8
420
  8421504
176
     1
 90
        1
176
     1
 90
        4
176
     1
 62
     7
176
     1
 62
   257
176
     1
 90
        1
176
     1
 90
        1
176
     1
 40
1.0
176
     1
 90
        8
176
     1
 62
     8
420
  8421504
176
     1
 40
1.0
176
     1
 90
        1
176
     1
 90
        6
176
     1
 90
        2
176
     1
 62
     7
176
     1
 90
        5
176
     1
 90
        0
176
     1
 90
        0
176
     1
290
     0
176
     1
 90
        1
176
     1
 40
0.0
176
     1
 90
        0
176
     1
290
     0
176
     1
290
     1
176
     1
290
     1
176
     1
290
     0
176
     1
290
     0
176
     1
290
     0
176
     1
290
     0
176
     1
290
     0
176
     1
290
     0
176
     1
 90
       50
176
     1
 40
0.0
176
     1
 40
1.0
176
     1
 90
        0
176
     1
 62
    18
420
        0
176
     1
 90
       50
176
     1
 90
        3
176
     1
 62
     5
420
      255
176
     1
290
     0
176
     1
 90
       50
176
     1
 90
       50
176
     1
 90
       50
176
     1
290
     0
176
     1
 90
       50
176
     1
 62
   256
176
     0
 40
1.0
176
     0
 90
        2
176
     1
  1
strokes_ogs.tif
176
     1
290
     0
176
     1
 40
1.0
176
     1
 40
1.0
176
     1
  0
VISUALSTYLE
  5
32
102
{ACAD_REACTORS
330
29
102
}
330
29
100
AcDbVisualStyle
  2
Conceptual
 70
     9
177
     3
291
     0
 70
    58
 90
        3
176
     1
 90
        2
176
     1
 90
        0
176
     1
 90
        0
176
     1
 40
0.6
176
     1
 40
30.0
176
     1
 62
     7
420
 16777215
176
     1
 90
        2
176
     1
 90
        2
176
     1
 62
     7
176
     1
 62
   257
176
     1
 90
        1
176
     1
 90
        1
176
     1
 40
179.0
176
     1
 90
        8
176
     1
 62
     7
176
     1
 40
1.0
176
     1
 90
        1
176
     1
 90
        6
176
     1
 90
        2
176
     1
 62
     7
176
     1
 90
        3
176
     1
 90
        0
176
     1
 90
        0
176
     1
290
     0
176
     1
 90
        1
176
     1
 40
0.0
176
     1
 90
        0
176
     1
290
     0
176
     1
290
     1
176
     1
290
     1
176
     1
290
     0
176
     1
290
     0
176
     1
290
     0
176
     1
290
     0
176
     1
290
     0
176
     1
290
     0
176
     1
 90
       50
176
     1
 40
0.0
176
     1
 40
1.0
176
     1
 90
        0
176
     1
 62
    18
420
        0
176
     1
 90
       50
176
     1
 90
        3
176
     1
 62
     5
420
      255
176
     1
290
     0
176
     1
 90
       50
176
     1
 90
       50
176
     1
 90
       50
176
     1
290
     0
176
     1
 90
       50
176
     1
 62
   256
176
     0
 40
1.0
176
     0
 90
        2
176
     1
  1
strokes_ogs.tif
176
     1
290
     0
176
     1
 40
1.0
176
     1
 40
1.0
176
     1
  0
VISUALSTYLE
  5
34
102
{ACAD_REACTORS
330
29
102
}
330
29
100
AcDbVisualStyle
  2
Dim
 70
    11
177
     3
291
     1
 70
    58
 90
        2
176
     1
 90
        2
176
     1
 90
        0
176
     1
 90
        0
176
     1
 40
0.6
176
     1
 40
30.0
176
     1
 62
     7
420
 16777215
176
     1
 90
        1
176
     1
 90
        4
176
     1
 62
     7
176
     1
 62
   257
176
     1
 90
        1
176
     1
 90
        1
176
     1
 40
1.0
176
     1
 90
        8
176
     1
 62
     7
176
     1
 40
1.0
176
     1
 90
        1
176
     1
 90
        6
176
     1
 90
        2
176
     1
 62
     7
176
     1
 90
        5
176
     1
 90
        0
176
     1
 90
        0
176
     1
290
     0
176
     1
 90
        1
176
     1
 40
-50.0
176
     1
 90
        0
176
     1
290
     0
176
     1
290
     1
176
     1
290
     1
176
     1
290
     0
176
     1
290
     0
176
     1
290
     0
176
     1
290
     0
176
     1
290
     0
176
     1
290
     0
176
     1
 90
       50
176
     1
 40
0.0
176
     1
 40
1.0
176
     1
 90
        0
176
     1
 62
    18
420
        0
176
     1
 90
       50
176
     1
 90
        3
176
     1
 62
     5
420
      255
176
     1
290
     0
176
     1
 90
       50
176
     1
 90
       50
176
     1
 90
       50
176
     1
290
     0
176
     1
 90
       50
176
     1
 62
   256
176
     0
 40
1.0
176
     0
 90
        2
176
     1
  1
strokes_ogs.tif
176
     1
290
     0
176
     1
 40
1.0
176
     1
 40
1.0
176
     1
  0
VISUALSTYLE
  5
41
102
{ACAD_REACTORS
330
29
102
}
330
29
100
AcDbVisualStyle
  2
EdgeColorOff
 70
    22
177
     3
291
     1
 70
    58
 90
        2
176
     0
 90
        2
176
     0
 90
        0
176
     0
 90
        0
176
     0
 40
0.6
176
     0
 40
30.0
176
     0
 62
     7
420
 16777215
176
     0
 90
        1
176
     0
 90
        4
176
     0
 62
     7
176
     0
 62
   257
176
     0
 90
        1
176
     0
 90
        1
176
     0
 40
1.0
176
     0
 90
        8
176
     2
 62
     7
176
     0
 40
1.0
176
     0
 90
        1
176
     0
 90
        6
176
     0
 90
        2
176
     0
 62
     7
176
     0
 90
        5
176
     0
 90
        0
176
     0
 90
        0
176
     0
290
     0
176
     0
 90
        1
176
     0
 40
0.0
176
     0
 90
        0
176
     0
290
     0
176
     0
290
     1
176
     0
290
     1
176
     0
290
     0
176
     0
290
     0
176
     0
290
     0
176
     0
290
     0
176
     0
290
     0
176
     0
290
     0
176
     0
 90
       50
176
     0
 40
0.0
176
     0
 40
1.0
176
     0
 90
        0
176
     0
 62
    18
420
        0
176
     0
 90
       50
176
     0
 90
        3
176
     0
 62
     5
420
      255
176
     0
290
     0
176
     0
 90
       50
176
     0
 90
       50
176
     0
 90
       50
176
     0
290
     0
176
     0
 90
       50
176
     0
 62
   256
176
     0
 40
1.0
176
     0
 90
        2
176
     0
  1
strokes_ogs.tif
176
     0
290
     0
176
     0
 40
1.0
176
     0
 40
1.0
176
     0
  0
VISUALSTYLE
  5
38
102
{ACAD_REACTORS
330
29
102
}
330
29
100
AcDbVisualStyle
  2
Facepattern
 70
    15
177
     3
291
     1
 70
    58
 90
        2
176
     1
 90
        2
176
     1
 90
        0
176
     1
 90
        0
176
     1
 40
0.6
176
     1
 40
30.0
176
     1
 62
     7
420
 16777215
176
     1
 90
        1
176
     1
 90
        4
176
     1
 62
     7
176
     1
 62
   257
176
     1
 90
        1
176
     1
 90
        1
176
     1
 40
1.0
176
     1
 90
        8
176
     1
 62
     7
176
     1
 40
1.0
176
     1
 90
        1
176
     1
 90
        6
176
     1
 90
        2
176
     1
 62
     7
176
     1
 90
        5
176
     1
 90
        0
176
     1
 90
        0
176
     1
290
     0
176
     1
 90
        1
176
     1
 40
0.0
176
     1
 90
        0
176
     1
290
     0
176
     1
290
     1
176
     1
290
     1
176
     1
290
     0
176
     1
290
     0
176
     1
290
     0
176
     1
290
     0
176
     1
290
     0
176
     1
290
     0
176
     1
 90
       50
176
     1
 40
0.0
176
     1
 40
1.0
176
     1
 90
        0
176
     1
 62
    18
420
        0
176
     1
 90
       50
176
     1
 90
        3
176
     1
 62
     5
420
      255
176
     1
290
     0
176
     1
 90
       50
176
     1
 90
       50
176
     1
 90
       50
176
     1
290
     0
176
     1
 90
       50
176
     1
 62
   256
176
     0
 40
1.0
176
     0
 90
        2
176
     1
  1
strokes_ogs.tif
176
     1
290
     0
176
     1
 40
1.0
176
     1
 40
1.0
176
     1
  0
VISUALSTYLE
  5
2A
102
{ACAD_REACTORS
330
29
102
}
330
29
100
AcDbVisualStyle
  2
Flat
 70
     0
177
     3
291
     1
 70
    58
 90
        2
176
     1
 90
        1
176
     1
 90
        1
176
     1
 90
        2
176
     1
 40
0.6
176
     1
 40
30.0
176
     1
 62
     7
420
 16777215
176
     1
 90
        0
176
     1
 90
        0
176
     1
 62
     7
176
     1
 62
   257
176
     1
 90
        1
176
     1
 90
        1
176
     1
 40
1.0
176
     1
 90
        8
176
     1
 62
     7
176
     1
 40
1.0
176
     1
 90
        1
176
     1
 90
        6
176
     1
 90
        2
176
     1
 62
     7
176
     1
 90
        5
176
     1
 90
        0
176
     1
 90
        0
176
     1
290
     0
176
     1
 90
       13
176
     1
 40
0.0
176
     1
 90
        0
176
     1
290
     0
176
     1
290
     1
176
     1
290
     1
176
     1
290
     0
176
     1
290
     0
176
     1
290
     0
176
     1
290
     0
176
     1
290
     0
176
     1
290
     0
176
     1
 90
       50
176
     1
 40
0.0
176
     1
 40
1.0
176
     1
 90
        0
176
     1
 62
    18
420
        0
176
     1
 90
       50
176
     1
 90
        3
176
     1
 62
     5
420
      255
176
     1
290
     0
176
     1
 90
       50
176
     1
 90
       50
176
     1
 90
       50
176
     1
290
     0
176
     1
 90
       50
176
     1
 62
   256
176
     0
 40
1.0
176
     0
 90
        2
176
     1
  1
strokes_ogs.tif
176
     1
290
     0
176
     1
 40
1.0
176
     1
 40
1.0
176
     1
  0
VISUALSTYLE
  5
2B
102
{ACAD_REACTORS
330
29
102
}
330
29
100
AcDbVisualStyle
  2
FlatWithEdges
 70
     1
177
     3
291
     1
 70
    58
 90
        2
176
     1
 90
        1
176
     1
 90
        1
176
     1
 90
        2
176
     1
 40
0.6
176
     1
 40
30.0
176
     1
 62
     7
420
 16777215
176
     1
 90
        1
176
     1
 90
        0
176
     1
 62
     7
176
     1
 62
   257
176
     1
 90
        1
176
     1
 90
        1
176
     1
 40
1.0
176
     1
 90
        0
176
     1
 62
   257
176
     1
 40
1.0
176
     1
 90
        1
176
     1
 90
        6
176
     1
 90
        2
176
     1
 62
     7
176
     1
 90
        5
176
     1
 90
        0
176
     1
 90
        0
176
     1
290
     0
176
     1
 90
       13
176
     1
 40
0.0
176
     1
 90
        0
176
     1
290
     0
176
     1
290
     1
176
     1
290
     1
176
     1
290
     0
176
     1
290
     0
176
     1
290
     0
176
     1
290
     0
176
     1
290
     0
176
     1
290
     0
176
     1
 90
       50
176
     1
 40
0.0
176
     1
 40
1.0
176
     1
 90
        0
176
     1
 62
    18
420
        0
176
     1
 90
       50
176
     1
 90
        3
176
     1
 62
     5
420
      255
176
     1
290
     0
176
     1
 90
       50
176
     1
 90
       50
176
     1
 90
       50
176
     1
290
     0
176
     1
 90
       50
176
     1
 62
   256
176
     0
 40
1.0
176
     0
 90
        2
176
     1
  1
strokes_ogs.tif
176
     1
290
     0
176
     1
 40
1.0
176
     1
 40
1.0
176
     1
  0
VISUALSTYLE
  5
2C
102
{ACAD_REACTORS
330
29
102
}
330
29
100
AcDbVisualStyle
  2
Gouraud
 70
     2
177
     3
291
     1
 70
    58
 90
        2
176
     1
 90
        2
176
     1
 90
        1
176
     1
 90
        2
176
     1
 40
0.6
176
     1
 40
30.0
176
     1
 62
     7
420
 16777215
176
     1
 90
        0
176
     1
 90
        0
176
     1
 62
     7
176
     1
 62
   257
176
     1
 90
        1
176
     1
 90
        1
176
     1
 40
1.0
176
     1
 90
        0
176
     1
 62
     7
176
     1
 40
1.0
176
     1
 90
        1
176
     1
 90
        6
176
     1
 90
        2
176
     1
 62
     7
176
     1
 90
        5
176
     1
 90
        0
176
     1
 90
        0
176
     1
290
     0
176
     1
 90
       13
176
     1
 40
0.0
176
     1
 90
        0
176
     1
290
     0
176
     1
290
     1
176
     1
290
     1
176
     1
290
     0
176
     1
290
     0
176
     1
290
     0
176
     1
290
     0
176
     1
290
     0
176
     1
290
     0
176
     1
 90
       50
176
     1
 40
0.0
176
     1
 40
1.0
176
     1
 90
        0
176
     1
 62
    18
420
        0
176
     1
 90
       50
176
     1
 90
        3
176
     1
 62
     5
420
      255
176
     1
290
     0
176
     1
 90
       50
176
     1
 90
       50
176
     1
 90
       50
176
     1
290
     0
176
     1
 90
       50
176
     1
 62
   256
176
     0
 40
1.0
176
     0
 90
        2
176
     1
  1
strokes_ogs.tif
176
     1
290
     0
176
     1
 40
1.0
176
     1
 40
1.0
176
     1
  0
VISUALSTYLE
  5
2D
102
{ACAD_REACTORS
330
29
102
}
330
29
100
AcDbVisualStyle
  2
GouraudWithEdges
 70
     3
177
     3
291
     1
 70
    58
 90
        2
176
     1
 90
        2
176
     1
 90
        1
176
     1
 90
        2
176
     1
 40
0.6
176
     1
 40
30.0
176
     1
 62
     7
420
 16777215
176
     1
 90
        1
176
     1
 90
        0
176
     1
 62
     7
176
     1
 62
   257
176
     1
 90
        1
176
     1
 90
        1
176
     1
 40
1.0
176
     1
 90
        0
176
     1
 62
   257
176
     1
 40
1.0
176
     1
 90
        1
176
     1
 90
        6
176
     1
 90
        2
176
     1
 62
     7
176
     1
 90
        5
176
     1
 90
        0
176
     1
 90
        0
176
     1
290
     0
176
     1
 90
       13
176
     1
 40
0.0
176
     1
 90
        0
176
     1
290
     0
176
     1
290
     1
176
     1
290
     1
176
     1
290
     0
176
     1
290
     0
176
     1
290
     0
176
     1
290
     0
176
     1
290
     0
176
     1
290
     0
176
     1
 90
       50
176
     1
 40
0.0
176
     1
 40
1.0
176
     1
 90
        0
176
     1
 62
    18
420
        0
176
     1
 90
       50
176
     1
 90
        3
176
     1
 62
     5
420
      255
176
     1
290
     0
176
     1
 90
       50
176
     1
 90
       50
176
     1
 90
       50
176
     1
290
     0
176
     1
 90
       50
176
     1
 62
   256
176
     0
 40
1.0
176
     0
 90
        2
176
     1
  1
strokes_ogs.tif
176
     1
290
     0
176
     1
 40
1.0
176
     1
 40
1.0
176
     1
  0
VISUALSTYLE
  5
31
102
{ACAD_REACTORS
330
29
102
}
330
29
100
AcDbVisualStyle
  2
Hidden
 70
     6
177
     3
291
     0
 70
    58
 90
        1
176
     1
 90
        2
176
     1
 90
        2
176
     1
 90
        0
176
     1
 40
0.6
176
     1
 40
30.0
176
     1
 62
     7
420
 16777215
176
     1
 90
        2
176
     1
 90
        2
176
     1
 62
     7
176
     1
 62
   257
176
     1
 90
        2
176
     1
 90
        1
176
     1
 40
40.0
176
     1
 90
        0
176
     1
 62
   257
176
     1
 40
1.0
176
     1
 90
        1
176
     1
 90
        6
176
     1
 90
        2
176
     1
 62
     7
176
     1
 90
        3
176
     1
 90
        0
176
     1
 90
        0
176
     1
290
     0
176
     1
 90
        1
176
     1
 40
0.0
176
     1
 90
        0
176
     1
290
     0
176
     1
290
     1
176
     1
290
     1
176
     1
290
     0
176
     1
290
     0
176
     1
290
     0
176
     1
290
     0
176
     1
290
     0
176
     1
290
     0
176
     1
 90
       50
176
     1
 40
0.0
176
     1
 40
1.0
176
     1
 90
        0
176
     1
 62
    18
420
        0
176
     1
 90
       50
176
     1
 90
        3
176
     1
 62
     5
420
      255
176
     1
290
     0
176
     1
 90
       50
176
     1
 90
       50
176
     1
 90
       50
176
     1
290
     0
176
     1
 90
       50
176
     1
 62
   256
176
     0
 40
1.0
176
     0
 90
        2
176
     1
  1
strokes_ogs.tif
176
     1
290
     0
176
     1
 40
1.0
176
     1
 40
1.0
176
     1
  0
VISUALSTYLE
  5
3F
102
{ACAD_REACTORS
330
29
102
}
330
29
100
AcDbVisualStyle
  2
JitterOff
 70
    20
177
     3
291
     1
 70
    58
 90
        2
176
     0
 90
        2
176
     0
 90
        0
176
     0
 90
        0
176
     0
 40
0.6
176
     0
 40
30.0
176
     0
 62
     7
420
 16777215
176
     0
 90
        1
176
     0
 90
        4
176
     0
 62
     7
176
     0
 62
   257
176
     0
 90
        1
176
     0
 90
        1
176
     0
 40
1.0
176
     0
 90
       10
176
     2
 62
     7
176
     0
 40
1.0
176
     0
 90
        1
176
     0
 90
        6
176
     0
 90
        2
176
     0
 62
     7
176
     0
 90
        5
176
     0
 90
        0
176
     0
 90
        0
176
     0
290
     0
176
     0
 90
        1
176
     0
 40
0.0
176
     0
 90
        0
176
     0
290
     0
176
     0
290
     1
176
     0
290
     1
176
     0
290
     0
176
     0
290
     0
176
     0
290
     0
176
     0
290
     0
176
     0
290
     0
176
     0
290
     0
176
     0
 90
       50
176
     0
 40
0.0
176
     0
 40
1.0
176
     0
 90
        0
176
     0
 62
    18
420
        0
176
     0
 90
       50
176
     0
 90
        3
176
     0
 62
     5
420
      255
176
     0
290
     0
176
     0
 90
       50
176
     0
 90
       50
176
     0
 90
       50
176
     0
290
     0
176
     0
 90
       50
176
     0
 62
   256
176
     0
 40
1.0
176
     0
 90
        2
176
     0
  1
strokes_ogs.tif
176
     0
290
     0
176
     0
 40
1.0
176
     0
 40
1.0
176
     0
  0
VISUALSTYLE
  5
37
102
{ACAD_REACTORS
330
29
102
}
330
29
100
AcDbVisualStyle
  2
Linepattern
 70
    14
177
     3
291
     1
 70
    58
 90
        2
176
     1
 90
        2
176
     1
 90
        0
176
     1
 90
        0
176
     1
 40
0.6
176
     1
 40
30.0
176
     1
 62
     7
420
 16777215
176
     1
 90
        1
176
     1
 90
        4
176
     1
 62
     7
176
     1
 62
   257
176
     1
 90
        7
176
     1
 90
        7
176
     1
 40
1.0
176
     1
 90
        8
176
     1
 62
     7
176
     1
 40
1.0
176
     1
 90
        1
176
     1
 90
        6
176
     1
 90
        2
176
     1
 62
     7
176
     1
 90
        5
176
     1
 90
        0
176
     1
 90
        0
176
     1
290
     0
176
     1
 90
        1
176
     1
 40
0.0
176
     1
 90
        0
176
     1
290
     0
176
     1
290
     1
176
     1
290
     1
176
     1
290
     0
176
     1
290
     0
176
     1
290
     0
176
     1
290
     0
176
     1
290
     0
176
     1
290
     0
176
     1
 90
       50
176
     1
 40
0.0
176
     1
 40
1.0
176
     1
 90
        0
176
     1
 62
    18
420
        0
176
     1
 90
       50
176
     1
 90
        3
176
     1
 62
     5
420
      255
176
     1
290
     0
176
     1
 90
       50
176
     1
 90
       50
176
     1
 90
       50
176
     1
290
     0
176
     1
 90
       50
176
     1
 62
   256
176
     0
 40
1.0
176
     0
 90
        2
176
     1
  1
strokes_ogs.tif
176
     1
290
     0
176
     1
 40
1.0
176
     1
 40
1.0
176
     1
  0
VISUALSTYLE
  5
40
102
{ACAD_REACTORS
330
29
102
}
330
29
100
AcDbVisualStyle
  2
OverhangOff
 70
    21
177
     3
291
     1
 70
    58
 90
        2
176
     0
 90
        2
176
     0
 90
        0
176
     0
 90
        0
176
     0
 40
0.6
176
     0
 40
30.0
176
     0
 62
     7
420
 16777215
176
     0
 90
        1
176
     0
 90
        4
176
     0
 62
     7
176
     0
 62
   257
176
     0
 90
        1
176
     0
 90
        1
176
     0
 40
1.0
176
     0
 90
        9
176
     2
 62
     7
176
     0
 40
1.0
176
     0
 90
        1
176
     0
 90
        6
176
     0
 90
        2
176
     0
 62
     7
176
     0
 90
        5
176
     0
 90
        0
176
     0
 90
        0
176
     0
290
     0
176
     0
 90
        1
176
     0
 40
0.0
176
     0
 90
        0
176
     0
290
     0
176
     0
290
     1
176
     0
290
     1
176
     0
290
     0
176
     0
290
     0
176
     0
290
     0
176
     0
290
     0
176
     0
290
     0
176
     0
290
     0
176
     0
 90
       50
176
     0
 40
0.0
176
     0
 40
1.0
176
     0
 90
        0
176
     0
 62
    18
420
        0
176
     0
 90
       50
176
     0
 90
        3
176
     0
 62
     5
420
      255
176
     0
290
     0
176
     0
 90
       50
176
     0
 90
       50
176
     0
 90
       50
176
     0
290
     0
176
     0
 90
       50
176
     0
 62
   256
176
     0
 40
1.0
176
     0
 90
        2
176
     0
  1
strokes_ogs.tif
176
     0
290
     0
176
     0
 40
1.0
176
     0
 40
1.0
176
     0
  0
VISUALSTYLE
  5
33
102
{ACAD_REACTORS
330
29
102
}
330
29
100
AcDbVisualStyle
  2
Realistic
 70
     8
177
     3
291
     0
 70
    58
 90
        2
176
     1
 90
        3
176
     1
 90
        0
176
     1
 90
        2
176
     1
 40
0.6
176
     1
 40
30.0
176
     1
 62
     7
420
 16777215
176
     1
 90
        0
176
     1
 90
        0
176
     1
 62
     7
176
     1
 62
   257
176
     1
 90
        1
176
     1
 90
        1
176
     1
 40
1.0
176
     1
 90
        8
176
     1
 62
   257
176
     1
 40
1.0
176
     1
 90
        1
176
     1
 90
        6
176
     1
 90
        2
176
     1
 62
     7
176
     1
 90
        3
176
     1
 90
        0
176
     1
 90
        0
176
     1
290
     0
176
     1
 90
       13
176
     1
 40
0.0
176
     1
 90
        0
176
     1
290
     0
176
     1
290
     1
176
     1
290
     1
176
     1
290
     0
176
     1
290
     0
176
     1
290
     0
176
     1
290
     0
176
     1
290
     0
176
     1
290
     0
176
     1
 90
       50
176
     1
 40
0.0
176
     1
 40
1.0
176
     1
 90
        0
176
     1
 62
    18
420
        0
176
     1
 90
       50
176
     1
 90
        3
176
     1
 62
     5
420
      255
176
     1
290
     0
176
     1
 90
       50
176
     1
 90
       50
176
     1
 90
       50
176
     1
290
     0
176
     1
 90
       50
176
     1
 62
   256
176
     0
 40
1.0
176
     0
 90
        2
176
     1
  1
strokes_ogs.tif
176
     1
290
     0
176
     1
 40
1.0
176
     1
 40
1.0
176
     1
  0
VISUALSTYLE
  5
3E
102
{ACAD_REACTORS
330
29
102
}
330
29
100
AcDbVisualStyle
  2
Shaded
 70
    27
177
     3
291
     0
 70
    58
 90
        2
176
     1
 90
        2
176
     1
 90
        1
176
     1
 90
        2
176
     1
 40
0.6
176
     1
 40
30.0
176
     1
 62
     7
420
 16777215
176
     1
 90
        0
176
     1
 90
        4
176
     1
 62
     7
176
     1
 62
   257
176
     1
 90
        1
176
     1
 90
        1
176
     1
 40
1.0
176
     1
 90
        8
176
     1
 62
   257
176
     1
 40
1.0
176
     1
 90
        1
176
     1
 90
        6
176
     1
 90
        2
176
     1
 62
     8
420
  7895160
176
     1
 90
        3
176
     1
 90
        0
176
     1
 90
        0
176
     1
290
     0
176
     1
 90
        5
176
     1
 40
0.0
176
     1
 90
        0
176
     1
290
     0
176
     1
290
     1
176
     1
290
     1
176
     1
290
     0
176
     1
290
     0
176
     1
290
     0
176
     1
290
     0
176
     1
290
     0
176
     1
290
     0
176
     1
 90
       50
176
     1
 40
0.0
176
     1
 40
1.0
176
     1
 90
        0
176
     1
 62
    18
420
        0
176
     1
 90
       50
176
     1
 90
        3
176
     1
 62
     5
420
      255
176
     1
290
     0
176
     1
 90
       50
176
     1
 90
       50
176
     1
 90
       50
176
     1
290
     0
176
     1
 90
       50
176
     1
 62
   256
176
     0
 40
1.0
176
     0
 90
        2
176
     1
  1
strokes_ogs.tif
176
     1
290
     0
176
     1
 40
1.0
176
     1
 40
1.0
176
     1
  0
VISUALSTYLE
  5
3D
102
{ACAD_REACTORS
330
29
102
}
330
29
100
AcDbVisualStyle
  2
Shaded with edges
 70
    26
177
     3
291
     0
 70
    58
 90
        2
176
     1
 90
        2
176
     1
 90
        1
176
     1
 90
        2
176
     1
 40
0.6
176
     1
 40
30.0
176
     1
 62
     7
420
 16777215
176
     1
 90
        1
176
     1
 90
       10
176
     1
 62
     7
176
     1
 62
   257
176
     1
 90
        2
176
     1
 90
        1
176
     1
 40
1.0
176
     1
 90
        8
176
     1
 62
   257
176
     1
 40
1.0
176
     1
 90
        1
176
     1
 90
        6
176
     1
 90
        2
176
     1
 62
     7
176
     1
 90
        3
176
     1
 90
        0
176
     1
 90
        0
176
     1
290
     0
176
     1
 90
        5
176
     1
 40
0.0
176
     1
 90
        0
176
     1
290
     0
176
     1
290
     1
176
     1
290
     1
176
     1
290
     0
176
     1
290
     0
176
     1
290
     0
176
     1
290
     0
176
     1
290
     0
176
     1
290
     0
176
     1
 90
       50
176
     1
 40
0.0
176
     1
 40
1.0
176
     1
 90
        0
176
     1
 62
    18
420
        0
176
     1
 90
       50
176
     1
 90
        3
176
     1
 62
     5
420
      255
176
     1
290
     0
176
     1
 90
       50
176
     1
 90
       50
176
     1
 90
       50
176
     1
290
     0
176
     1
 90
       50
176
     1
 62
   256
176
     0
 40
1.0
176
     0
 90
        2
176
     1
  1
strokes_ogs.tif
176
     1
290
     0
176
     1
 40
1.0
176
     1
 40
1.0
176
     1
  0
VISUALSTYLE
  5
3A
102
{ACAD_REACTORS
330
29
102
}
330
29
100
AcDbVisualStyle
  2
Shades of Gray
 70
    23
177
     3
291
     0
 70
    58
 90
        2
176
     1
 90
        2
176
     1
 90
        3
176
     1
 90
        0
176
     1
 40
0.6
176
     1
 40
30.0
176
     1
 62
     7
420
 16777215
176
     1
 90
        2
176
     1
 90
        2
176
     1
 62
     7
176
     1
 62
     7
176
     1
 90
        1
176
     1
 90
        1
176
     1
 40
40.0
176
     1
 90
        8
176
     1
 62
     7
176
     1
 40
1.0
176
     1
 90
        1
176
     1
 90
        6
176
     1
 90
        2
176
     1
 62
     7
176
     1
 90
        3
176
     1
 90
        0
176
     1
 90
        0
176
     1
290
     0
176
     1
 90
        1
176
     1
 40
0.0
176
     1
 90
        0
176
     1
290
     0
176
     1
290
     1
176
     1
290
     1
176
     1
290
     0
176
     1
290
     0
176
     1
290
     0
176
     1
290
     0
176
     1
290
     0
176
     1
290
     0
176
     1
 90
       50
176
     1
 40
0.0
176
     1
 40
1.0
176
     1
 90
        0
176
     1
 62
    18
420
        0
176
     1
 90
       50
176
     1
 90
        3
176
     1
 62
     5
420
      255
176
     1
290
     0
176
     1
 90
       50
176
     1
 90
       50
176
     1
 90
       50
176
     1
290
     0
176
     1
 90
       50
176
     1
 62
   256
176
     0
 40
1.0
176
     0
 90
        2
176
     1
  1
strokes_ogs.tif
176
     1
290
     0
176
     1
 40
1.0
176
     1
 40
1.0
176
     1
  0
VISUALSTYLE
  5
3B
102
{ACAD_REACTORS
330
29
102
}
330
29
100
AcDbVisualStyle
  2
Sketchy
 70
    24
177
     3
291
     0
 70
    58
 90
        1
176
     1
 90
        2
176
     1
 90
        2
176
     1
 90
        0
176
     1
 40
0.6
176
     1
 40
30.0
176
     1
 62
     7
420
 16777215
176
     1
 90
        2
176
     1
 90
        2
176
     1
 62
     7
176
     1
 62
     7
176
     1
 90
        1
176
     1
 90
        1
176
     1
 40
40.0
176
     1
 90
       11
176
     1
 62
     7
176
     1
 40
1.0
176
     1
 90
        1
176
     1
 90
        6
176
     1
 90
        2
176
     1
 62
     7
176
     1
 90
        6
176
     1
 90
        0
176
     1
 90
        0
176
     1
290
     0
176
     1
 90
        1
176
     1
 40
0.0
176
     1
 90
        0
176
     1
290
     0
176
     1
290
     1
176
     1
290
     1
176
     1
290
     0
176
     1
290
     0
176
     1
290
     0
176
     1
290
     0
176
     1
290
     0
176
     1
290
     0
176
     1
 90
       50
176
     1
 40
0.0
176
     1
 40
1.0
176
     1
 90
        0
176
     1
 62
    18
420
        0
176
     1
 90
       50
176
     1
 90
        3
176
     1
 62
     5
420
      255
176
     1
290
     0
176
     1
 90
       50
176
     1
 90
       50
176
     1
 90
       50
176
     1
290
     0
176
     1
 90
       50
176
     1
 62
   256
176
     0
 40
1.0
176
     0
 90
        2
176
     1
  1
strokes_ogs.tif
176
     1
290
     0
176
     1
 40
1.0
176
     1
 40
1.0
176
     1
  0
VISUALSTYLE
  5
36
102
{ACAD_REACTORS
330
29
102
}
330
29
100
AcDbVisualStyle
  2
Thicken
 70
    13
177
     3
291
     1
 70
    58
 90
        2
176
     1
 90
        2
176
     1
 90
        0
176
     1
 90
        0
176
     1
 40
0.6
176
     1
 40
30.0
176
     1
 62
     7
420
 16777215
176
     1
 90
        1
176
     1
 90
        4
176
     1
 62
     7
176
     1
 62
   257
176
     1
 90
        1
176
     1
 90
        1
176
     1
 40
1.0
176
     1
 90
       12
176
     1
 62
     7
176
     1
 40
1.0
176
     1
 90
        1
176
     1
 90
        6
176
     1
 90
        2
176
     1
 62
     7
176
     1
 90
        5
176
     1
 90
        0
176
     1
 90
        0
176
     1
290
     0
176
     1
 90
        1
176
     1
 40
0.0
176
     1
 90
        0
176
     1
290
     0
176
     1
290
     1
176
     1
290
     1
176
     1
290
     0
176
     1
290
     0
176
     1
290
     0
176
     1
290
     0
176
     1
290
     0
176
     1
290
     0
176
     1
 90
       50
176
     1
 40
0.0
176
     1
 40
1.0
176
     1
 90
        0
176
     1
 62
    18
420
        0
176
     1
 90
       50
176
     1
 90
        3
176
     1
 62
     5
420
      255
176
     1
290
     0
176
     1
 90
       50
176
     1
 90
       50
176
     1
 90
       50
176
     1
290
     0
176
     1
 90
       50
176
     1
 62
   256
176
     0
 40
1.0
176
     0
 90
        2
176
     1
  1
strokes_ogs.tif
176
     1
290
     0
176
     1
 40
1.0
176
     1
 40
1.0
176
     1
  0
VISUALSTYLE
  5
30
102
{ACAD_REACTORS
330
29
102
}
330
29
100
AcDbVisualStyle
  2
Wireframe
 70
     5
177
     3
291
     0
 70
    58
 90
        0
176
     1
 90
        2
176
     1
 90
        0
176
     1
 90
        0
176
     1
 40
0.6
176
     1
 40
30.0
176
     1
 62
     7
420
 16777215
176
     1
 90
        1
176
     1
 90
        4
176
     1
 62
     7
176
     1
 62
   257
176
     1
 90
        1
176
     1
 90
        1
176
     1
 40
1.0
176
     1
 90
        0
176
     1
 62
   257
176
     1
 40
1.0
176
     1
 90
        1
176
     1
 90
        6
176
     1
 90
        2
176
     1
 62
     7
176
     1
 90
        3
176
     1
 90
        0
176
     1
 90
        0
176
     1
290
     0
176
     1
 90
        1
176
     1
 40
0.0
176
     1
 90
        0
176
     1
290
     0
176
     1
290
     1
176
     1
290
     1
176
     1
290
     0
176
     1
290
     0
176
     1
290
     0
176
     1
290
     0
176
     1
290
     0
176
     1
290
     0
176
     1
 90
       50
176
     1
 40
0.0
176
     1
 40
1.0
176
     1
 90
        0
176
     1
 62
    18
420
        0
176
     1
 90
       50
176
     1
 90
        3
176
     1
 62
     5
420
      255
176
     1
290
     0
176
     1
 90
       50
176
     1
 90
       50
176
     1
 90
       50
176
     1
290
     0
176
     1
 90
       50
176
     1
 62
   256
176
     0
 40
1.0
176
     0
 90
        2
176
     1
  1
strokes_ogs.tif
176
     1
290
     0
176
     1
 40
1.0
176
     1
 40
1.0
176
     1
  0
VISUALSTYLE
  5
3C
102
{ACAD_REACTORS
330
29
102
}
330
29
100
AcDbVisualStyle
  2
X-Ray
 70
    25
177
     3
291
     0
 70
    58
 90
        2
176
     1
 90
        2
176
     1
 90
        1
176
     1
 90
        1
176
     1
 40
0.5
176
     1
 40
30.0
176
     1
 62
     7
420
 16777215
176
     1
 90
        1
176
     1
 90
        0
176
     1
 62
     7
176
     1
 62
   257
176
     1
 90
        1
176
     1
 90
        1
176
     1
 40
1.0
176
     1
 90
        8
176
     1
 62
     7
176
     1
 40
1.0
176
     1
 90
        1
176
     1
 90
        6
176
     1
 90
        2
176
     1
 62
     7
176
     1
 90
        3
176
     1
 90
        0
176
     1
 90
        0
176
     1
290
     0
176
     1
 90
       13
176
     1
 40
0.0
176
     1
 90
        0
176
     1
290
     0
176
     1
290
     1
176
     1
290
     1
176
     1
290
     0
176
     1
290
     0
176
     1
290
     0
176
     1
290
     0
176
     1
290
     0
176
     1
290
     0
176
     1
 90
       50
176
     1
 40
0.0
176
     1
 40
1.0
176
     1
 90
        0
176
     1
 62
    18
420
        0
176
     1
 90
       50
176
     1
 90
        3
176
     1
 62
     5
420
      255
176
     1
290
     0
176
     1
 90
       50
176
     1
 90
       50
176
     1
 90
       50
176
     1
290
     0
176
     1
 90
       50
176
     1
 62
   256
176
     0
 40
1.0
176
     0
 90
        2
176
     1
  1
strokes_ogs.tif
176
     1
290
     0
176
     1
 40
1.0
176
     1
 40
1.0
176
     1
  0
DICTIONARYVAR
  5
81
102
{ACAD_REACTORS
330
7C
102
}
330
7C
100
DictionaryVariables
280
     0
  1
1:1
  0
DICTIONARYVAR
  5
7E
102
{ACAD_REACTORS
330
7C
102
}
330
7C
100
DictionaryVariables
280
     0
  1
STANDARD
  0
DICTIONARYVAR
  5
7D
102
{ACAD_REACTORS
330
7C
102
}
330
7C
100
DictionaryVariables
280
     0
  1
STANDARD
  0
DICTIONARYVAR
  5
7F
102
{ACAD_REACTORS
330
7C
102
}
330
7C
100
DictionaryVariables
280
     0
  1
Imperial24
  0
DICTIONARYVAR
  5
80
102
{ACAD_REACTORS
330
7C
102
}
330
7C
100
DictionaryVariables
280
     0
  1
Imperial24
  0
XRECORD
  5
264
102
{ACAD_REACTORS
330
261
102
}
330
261
100
AcDbXrecord
280
     1
  1
BUILDING_ID
  1
Progetto per messa in tavola DXF, DWG
  1
FLOOR_ID
  1
694395
  0
XRECORD
  5
263
102
{ACAD_REACTORS
330
261
102
}
330
261
100
AcDbXrecord
280
     1
  1
-2001160
  1
Apparecchi idraulici
  0
XRECORD
  5
262
102
{ACAD_REACTORS
330
261
102
}
330
261
100
AcDbXrecord
280
     1
  1
859151
  1
Automatic flow rate regulator valve_Caleffi_121 DN15 : 1/2''
  0
DICTIONARY
  5
1A
330
19
100
AcDbDictionary
280
     1
281
     1
  3
BUMPTILE
360
1C
  3
DIFFUSETILE
360
1B
  3
OPACITYTILE
360
1F
  3
REFLECTIONTILE
360
1E
  3
REFRACTIONTILE
360
20
  3
SPECULARTILE
360
1D
  0
DICTIONARY
  5
12
330
11
100
AcDbDictionary
280
     1
281
     1
  3
BUMPTILE
360
14
  3
DIFFUSETILE
360
13
  3
OPACITYTILE
360
17
  3
REFLECTIONTILE
360
16
  3
REFRACTIONTILE
360
18
  3
SPECULARTILE
360
15
  0
DICTIONARY
  5
22
330
21
100
AcDbDictionary
280
     1
281
     1
  3
BUMPTILE
360
24
  3
DIFFUSETILE
360
23
  3
OPACITYTILE
360
27
  3
REFLECTIONTILE
360
26
  3
REFRACTIONTILE
360
28
  3
SPECULARTILE
360
25
  0
DICTIONARY
  5
267
330
65
100
AcDbDictionary
280
     1
281
     1
  3
ACAD_ROUNDTRIP_2008_TABLESTYLE_CELLSTYLEMAP
360
268
  0
XRECORD
  5
1C
102
{ACAD_REACTORS
330
1A
102
}
330
1A
100
AcDbXrecord
280
     1
270
     1
271
     1
  0
XRECORD
  5
1B
102
{ACAD_REACTORS
330
1A
102
}
330
1A
100
AcDbXrecord
280
     1
270
     1
271
     1
  0
XRECORD
  5
1F
102
{ACAD_REACTORS
330
1A
102
}
330
1A
100
AcDbXrecord
280
     1
270
     1
271
     1
  0
XRECORD
  5
1E
102
{ACAD_REACTORS
330
1A
102
}
330
1A
100
AcDbXrecord
280
     1
270
     1
271
     1
  0
XRECORD
  5
20
102
{ACAD_REACTORS
330
1A
102
}
330
1A
100
AcDbXrecord
280
     1
270
     1
271
     1
  0
XRECORD
  5
1D
102
{ACAD_REACTORS
330
1A
102
}
330
1A
100
AcDbXrecord
280
     1
270
     1
271
     1
  0
XRECORD
  5
14
102
{ACAD_REACTORS
330
12
102
}
330
12
100
AcDbXrecord
280
     1
270
     1
271
     1
  0
XRECORD
  5
13
102
{ACAD_REACTORS
330
12
102
}
330
12
100
AcDbXrecord
280
     1
270
     1
271
     1
  0
XRECORD
  5
17
102
{ACAD_REACTORS
330
12
102
}
330
12
100
AcDbXrecord
280
     1
270
     1
271
     1
  0
XRECORD
  5
16
102
{ACAD_REACTORS
330
12
102
}
330
12
100
AcDbXrecord
280
     1
270
     1
271
     1
  0
XRECORD
  5
18
102
{ACAD_REACTORS
330
12
102
}
330
12
100
AcDbXrecord
280
     1
270
     1
271
     1
  0
XRECORD
  5
15
102
{ACAD_REACTORS
330
12
102
}
330
12
100
AcDbXrecord
280
     1
270
     1
271
     1
  0
XRECORD
  5
24
102
{ACAD_REACTORS
330
22
102
}
330
22
100
AcDbXrecord
280
     1
270
     1
271
     1
  0
XRECORD
  5
23
102
{ACAD_REACTORS
330
22
102
}
330
22
100
AcDbXrecord
280
     1
270
     1
271
     1
  0
XRECORD
  5
27
102
{ACAD_REACTORS
330
22
102
}
330
22
100
AcDbXrecord
280
     1
270
     1
271
     1
  0
XRECORD
  5
26
102
{ACAD_REACTORS
330
22
102
}
330
22
100
AcDbXrecord
280
     1
270
     1
271
     1
  0
XRECORD
  5
28
102
{ACAD_REACTORS
330
22
102
}
330
22
100
AcDbXrecord
280
     1
270
     1
271
     1
  0
XRECORD
  5
25
102
{ACAD_REACTORS
330
22
102
}
330
22
100
AcDbXrecord
280
     1
270
     1
271
     1
  0
CELLSTYLEMAP
  5
268
102
{ACAD_REACTORS
330
267
102
}
330
267
100
AcDbCellStyleMap
 90
        3
300
CELLSTYLE
  1
TABLEFORMAT_BEGIN
 90
        5
170
     1
 91
        0
 92
    32768
 62
   257
 93
        1
300
CONTENTFORMAT
  1
CONTENTFORMAT_BEGIN
 90
        0
 91
        0
 92
      512
 93
        0
300

 40
0.0
140
1.0
 94
        5
 62
     0
340
55
144
0.25
309
CONTENTFORMAT_END
171
     0
 94
        0
309
TABLEFORMAT_END
  1
CELLSTYLE_BEGIN
 90
        1
 91
        1
300
_TITLE
309
CELLSTYLE_END
300
CELLSTYLE
  1
TABLEFORMAT_BEGIN
 90
        5
170
     1
 91
        0
 92
        0
 62
   257
 93
        1
300
CONTENTFORMAT
  1
CONTENTFORMAT_BEGIN
 90
        0
 91
        0
 92
      512
 93
        0
300

 40
0.0
140
1.0
 94
        5
 62
     0
340
55
144
0.18
309
CONTENTFORMAT_END
171
     0
 94
        0
309
TABLEFORMAT_END
  1
CELLSTYLE_BEGIN
 90
        2
 91
        1
300
_HEADER
309
CELLSTYLE_END
300
CELLSTYLE
  1
TABLEFORMAT_BEGIN
 90
        5
170
     1
 91
        0
 92
        0
 62
   257
 93
        1
300
CONTENTFORMAT
  1
CONTENTFORMAT_BEGIN
 90
        0
 91
        0
 92
      512
 93
        0
300

 40
0.0
140
1.0
 94
        2
 62
     0
340
55
144
0.18
309
CONTENTFORMAT_END
171
     0
 94
        0
309
TABLEFORMAT_END
  1
CELLSTYLE_BEGIN
 90
        3
 91
        2
300
_DATA
309
CELLSTYLE_END
  0
ENDSEC
  0
EOF
