  0
SECTION
  2
HEADER
  9
$ACADVER
  1
AC1027
  9
$ACADMAINTVER
 70
    20
  9
$DWGCODEPAGE
  3
ANSI_1252
  9
$REQUIREDVERSIONS
160
                 0
  9
$INSBASE
 10
0.0
 20
0.0
 30
0.0
  9
$EXTMIN
 10
498.166407443187
 20
585.2865114501971
 30
-0.00000001
  9
$EXTMAX
 10
2063.083162545698
 20
2300.000000000011
 30
0.00000001
  9
$LIMMIN
 10
0.0
 20
0.0
  9
$LIMMAX
 10
12.0
 20
9.0
  9
$ORTHOMODE
 70
     0
  9
$REGENMODE
 70
     1
  9
$FILLMODE
 70
     1
  9
$QTEXTMODE
 70
     0
  9
$MIRRTEXT
 70
     0
  9
$LTSCALE
 40
1.0
  9
$ATTMODE
 70
     1
  9
$TEXTSIZE
 40
0.2
  9
$TRACEWID
 40
0.05
  9
$TEXTSTYLE
  7
Standard
  9
$CLAYER
  8
0
  9
$CELTYPE
  6
ByLayer
  9
$CECOLOR
 62
   256
  9
$CELTSCALE
 40
1.0
  9
$DISPSILH
 70
     0
  9
$DIMSCALE
 40
1.0
  9
$DIMASZ
 40
0.18
  9
$DIMEXO
 40
0.0625
  9
$DIMDLI
 40
0.38
  9
$DIMRND
 40
0.0
  9
$DIMDLE
 40
0.0
  9
$DIMEXE
 40
0.18
  9
$DIMTP
 40
0.0
  9
$DIMTM
 40
0.0
  9
$DIMTXT
 40
0.18
  9
$DIMCEN
 40
0.09
  9
$DIMTSZ
 40
0.0
  9
$DIMTOL
 70
     0
  9
$DIMLIM
 70
     0
  9
$DIMTIH
 70
     1
  9
$DIMTOH
 70
     1
  9
$DIMSE1
 70
     0
  9
$DIMSE2
 70
     0
  9
$DIMTAD
 70
     0
  9
$DIMZIN
 70
     0
  9
$DIMBLK
  1

  9
$DIMASO
 70
     1
  9
$DIMSHO
 70
     1
  9
$DIMPOST
  1

  9
$DIMAPOST
  1

  9
$DIMALT
 70
     0
  9
$DIMALTD
 70
     2
  9
$DIMALTF
 40
25.4
  9
$DIMLFAC
 40
1.0
  9
$DIMTOFL
 70
     0
  9
$DIMTVP
 40
0.0
  9
$DIMTIX
 70
     0
  9
$DIMSOXD
 70
     0
  9
$DIMSAH
 70
     0
  9
$DIMBLK1
  1

  9
$DIMBLK2
  1

  9
$DIMSTYLE
  2
Standard
  9
$DIMCLRD
 70
     0
  9
$DIMCLRE
 70
     0
  9
$DIMCLRT
 70
     0
  9
$DIMTFAC
 40
1.0
  9
$DIMGAP
 40
0.09
  9
$DIMJUST
 70
     0
  9
$DIMSD1
 70
     0
  9
$DIMSD2
 70
     0
  9
$DIMTOLJ
 70
     1
  9
$DIMTZIN
 70
     0
  9
$DIMALTZ
 70
     0
  9
$DIMALTTZ
 70
     0
  9
$DIMUPT
 70
     0
  9
$DIMDEC
 70
     4
  9
$DIMTDEC
 70
     4
  9
$DIMALTU
 70
     2
  9
$DIMALTTD
 70
     2
  9
$DIMTXSTY
  7
Standard
  9
$DIMAUNIT
 70
     0
  9
$DIMADEC
 70
     0
  9
$DIMALTRND
 40
0.0
  9
$DIMAZIN
 70
     0
  9
$DIMDSEP
 70
    46
  9
$DIMATFIT
 70
     3
  9
$DIMFRAC
 70
     0
  9
$DIMLDRBLK
  1

  9
$DIMLUNIT
 70
     2
  9
$DIMLWD
 70
    -2
  9
$DIMLWE
 70
    -2
  9
$DIMTMOVE
 70
     0
  9
$DIMFXL
 40
1.0
  9
$DIMFXLON
 70
     0
  9
$DIMJOGANG
 40
0.7853981633974483
  9
$DIMTFILL
 70
     0
  9
$DIMTFILLCLR
 70
     0
  9
$DIMARCSYM
 70
     0
  9
$DIMLTYPE
  6

  9
$DIMLTEX1
  6

  9
$DIMLTEX2
  6

  9
$DIMTXTDIRECTION
 70
     0
  9
$LUNITS
 70
     2
  9
$LUPREC
 70
     4
  9
$SKETCHINC
 40
0.1
  9
$FILLETRAD
 40
0.0
  9
$AUNITS
 70
     0
  9
$AUPREC
 70
     0
  9
$MENU
  1
.
  9
$ELEVATION
 40
0.0
  9
$PELEVATION
 40
0.0
  9
$THICKNESS
 40
0.0
  9
$LIMCHECK
 70
     0
  9
$CHAMFERA
 40
0.0
  9
$CHAMFERB
 40
0.0
  9
$CHAMFERC
 40
0.0
  9
$CHAMFERD
 40
0.0
  9
$SKPOLY
 70
     0
  9
$TDCREATE
 40
2457588.478773137
  9
$TDUCREATE
 40
2457588.395439803
  9
$TDUPDATE
 40
2457588.478773137
  9
$TDUUPDATE
 40
2457588.395439803
  9
$TDINDWG
 40
0.0000594792
  9
$TDUSRTIMER
 40
0.0000594792
  9
$USRTIMER
 70
     1
  9
$ANGBASE
 50
0.0
  9
$ANGDIR
 70
     0
  9
$PDMODE
 70
     0
  9
$PDSIZE
 40
0.0
  9
$PLINEWID
 40
0.0
  9
$SPLFRAME
 70
     0
  9
$SPLINETYPE
 70
     6
  9
$SPLINESEGS
 70
     8
  9
$HANDSEED
  5
2B4
  9
$SURFTAB1
 70
     6
  9
$SURFTAB2
 70
     6
  9
$SURFTYPE
 70
     6
  9
$SURFU
 70
     6
  9
$SURFV
 70
     6
  9
$UCSBASE
  2

  9
$UCSNAME
  2

  9
$UCSORG
 10
0.0
 20
0.0
 30
0.0
  9
$UCSXDIR
 10
1.0
 20
0.0
 30
0.0
  9
$UCSYDIR
 10
0.0
 20
1.0
 30
0.0
  9
$UCSORTHOREF
  2

  9
$UCSORTHOVIEW
 70
     0
  9
$UCSORGTOP
 10
0.0
 20
0.0
 30
0.0
  9
$UCSORGBOTTOM
 10
0.0
 20
0.0
 30
0.0
  9
$UCSORGLEFT
 10
0.0
 20
0.0
 30
0.0
  9
$UCSORGRIGHT
 10
0.0
 20
0.0
 30
0.0
  9
$UCSORGFRONT
 10
0.0
 20
0.0
 30
0.0
  9
$UCSORGBACK
 10
0.0
 20
0.0
 30
0.0
  9
$PUCSBASE
  2

  9
$PUCSNAME
  2

  9
$PUCSORG
 10
0.0
 20
0.0
 30
0.0
  9
$PUCSXDIR
 10
1.0
 20
0.0
 30
0.0
  9
$PUCSYDIR
 10
0.0
 20
1.0
 30
0.0
  9
$PUCSORTHOREF
  2

  9
$PUCSORTHOVIEW
 70
     0
  9
$PUCSORGTOP
 10
0.0
 20
0.0
 30
0.0
  9
$PUCSORGBOTTOM
 10
0.0
 20
0.0
 30
0.0
  9
$PUCSORGLEFT
 10
0.0
 20
0.0
 30
0.0
  9
$PUCSORGRIGHT
 10
0.0
 20
0.0
 30
0.0
  9
$PUCSORGFRONT
 10
0.0
 20
0.0
 30
0.0
  9
$PUCSORGBACK
 10
0.0
 20
0.0
 30
0.0
  9
$USERI1
 70
     0
  9
$USERI2
 70
     0
  9
$USERI3
 70
     0
  9
$USERI4
 70
     0
  9
$USERI5
 70
     0
  9
$USERR1
 40
0.0
  9
$USERR2
 40
0.0
  9
$USERR3
 40
0.0
  9
$USERR4
 40
0.0
  9
$USERR5
 40
0.0
  9
$WORLDVIEW
 70
     1
  9
$SHADEDGE
 70
     3
  9
$SHADEDIF
 70
    70
  9
$TILEMODE
 70
     1
  9
$MAXACTVP
 70
    64
  9
$PINSBASE
 10
0.0
 20
0.0
 30
0.0
  9
$PLIMCHECK
 70
     0
  9
$PEXTMIN
 10
1.000000000000000E+20
 20
1.000000000000000E+20
 30
1.000000000000000E+20
  9
$PEXTMAX
 10
-1.000000000000000E+20
 20
-1.000000000000000E+20
 30
-1.000000000000000E+20
  9
$PLIMMIN
 10
0.0
 20
0.0
  9
$PLIMMAX
 10
12.0
 20
9.0
  9
$UNITMODE
 70
     0
  9
$VISRETAIN
 70
     1
  9
$PLINEGEN
 70
     0
  9
$PSLTSCALE
 70
     1
  9
$TREEDEPTH
 70
  3020
  9
$CMLSTYLE
  2
Standard
  9
$CMLJUST
 70
     0
  9
$CMLSCALE
 40
1.0
  9
$PROXYGRAPHICS
 70
     1
  9
$MEASUREMENT
 70
     1
  9
$CELWEIGHT
370
    -1
  9
$ENDCAPS
280
     0
  9
$JOINSTYLE
280
     0
  9
$LWDISPLAY
290
     0
  9
$INSUNITS
 70
     4
  9
$HYPERLINKBASE
  1

  9
$STYLESHEET
  1

  9
$XEDIT
290
     1
  9
$CEPSNTYPE
380
     0
  9
$PSTYLEMODE
290
     1
  9
$FINGERPRINTGUID
  2
{F8DA0738-FEC8-4100-85B8-0CC32624921A}
  9
$VERSIONGUID
  2
{A08A76F6-479B-49EA-B597-768A80ED774A}
  9
$EXTNAMES
290
     1
  9
$PSVPSCALE
 40
0.0
  9
$OLESTARTUP
290
     0
  9
$SORTENTS
280
   127
  9
$INDEXCTL
280
     0
  9
$HIDETEXT
280
     1
  9
$XCLIPFRAME
280
     2
  9
$HALOGAP
280
     0
  9
$OBSCOLOR
 70
   257
  9
$OBSLTYPE
280
     0
  9
$INTERSECTIONDISPLAY
280
     0
  9
$INTERSECTIONCOLOR
 70
   257
  9
$DIMASSOC
280
     2
  9
$PROJECTNAME
  1

  9
$CAMERADISPLAY
290
     0
  9
$LENSLENGTH
 40
50.0
  9
$CAMERAHEIGHT
 40
0.0
  9
$STEPSPERSEC
 40
2.0
  9
$STEPSIZE
 40
6.0
  9
$3DDWFPREC
 40
2.0
  9
$PSOLWIDTH
 40
0.25
  9
$PSOLHEIGHT
 40
4.0
  9
$LOFTANG1
 40
1.570796326794896
  9
$LOFTANG2
 40
1.570796326794896
  9
$LOFTMAG1
 40
0.0
  9
$LOFTMAG2
 40
0.0
  9
$LOFTPARAM
 70
     7
  9
$LOFTNORMALS
280
     1
  9
$LATITUDE
 40
37.795
  9
$LONGITUDE
 40
-122.394
  9
$NORTHDIRECTION
 40
0.0
  9
$TIMEZONE
 70
 -8000
  9
$LIGHTGLYPHDISPLAY
280
     1
  9
$TILEMODELIGHTSYNCH
280
     1
  9
$CMATERIAL
347
11
  9
$SOLIDHIST
280
     0
  9
$SHOWHIST
280
     1
  9
$DWFFRAME
280
     2
  9
$DGNFRAME
280
     0
  9
$REALWORLDSCALE
290
     1
  9
$INTERFERECOLOR
 62
     1
  9
$INTERFEREOBJVS
345
33
  9
$INTERFEREVPVS
346
30
  9
$CSHADOW
280
     0
  9
$SHADOWPLANELOCATION
 40
0.0
  0
ENDSEC
  0
SECTION
  2
CLASSES
  0
CLASS
  1
ACDBDICTIONARYWDFLT
  2
AcDbDictionaryWithDefault
  3
ObjectDBX Classes
 90
        0
 91
        1
280
     0
281
     0
  0
CLASS
  1
MATERIAL
  2
AcDbMaterial
  3
ObjectDBX Classes
 90
     1153
 91
        3
280
     0
281
     0
  0
CLASS
  1
VISUALSTYLE
  2
AcDbVisualStyle
  3
ObjectDBX Classes
 90
     4095
 91
       24
280
     0
281
     0
  0
CLASS
  1
SCALE
  2
AcDbScale
  3
ObjectDBX Classes
 90
     1153
 91
       17
280
     0
281
     0
  0
CLASS
  1
TABLESTYLE
  2
AcDbTableStyle
  3
ObjectDBX Classes
 90
     4095
 91
        1
280
     0
281
     0
  0
CLASS
  1
MLEADERSTYLE
  2
AcDbMLeaderStyle
  3
ACDB_MLEADERSTYLE_CLASS
 90
     4095
 91
        1
280
     0
281
     0
  0
CLASS
  1
ACDBSECTIONVIEWSTYLE
  2
AcDbSectionViewStyle
  3
ObjectDBX Classes
 90
     1025
 91
        1
280
     0
281
     0
  0
CLASS
  1
ACDBDETAILVIEWSTYLE
  2
AcDbDetailViewStyle
  3
ObjectDBX Classes
 90
     1025
 91
        1
280
     0
281
     0
  0
CLASS
  1
RASTERVARIABLES
  2
AcDbRasterVariables
  3
ISM
 90
        0
 91
        1
280
     0
281
     0
  0
CLASS
  1
DICTIONARYVAR
  2
AcDbDictionaryVar
  3
ObjectDBX Classes
 90
        0
 91
        5
280
     0
281
     0
  0
CLASS
  1
CELLSTYLEMAP
  2
AcDbCellStyleMap
  3
ObjectDBX Classes
 90
     1152
 91
        2
280
     0
281
     0
  0
CLASS
  1
SORTENTSTABLE
  2
AcDbSortentsTable
  3
ObjectDBX Classes
 90
        0
 91
        1
280
     0
281
     0
  0
ENDSEC
  0
SECTION
  2
TABLES
  0
TABLE
  2
VPORT
  5
8
330
0
100
AcDbSymbolTable
 70
     1
  0
VPORT
  5
57
330
8
100
AcDbSymbolTableRecord
100
AcDbViewportTableRecord
  2
*Active
 70
     0
 10
0.0
 20
0.0
 11
1.0
 21
1.0
 12
1280.624784994442
 22
1442.643255725104
 13
0.0
 23
0.0
 14
1.0
 24
1.0
 15
0.0
 25
0.0
 16
0.0
 26
0.0
 36
1.0
 17
0.0
 27
0.0
 37
0.0
 40
1714.713488549814
 41
0.9126403714395515
 42
50.0
 43
0.0
 44
0.0
 50
0.0
 51
0.0
 71
     0
 72
  1000
 73
     1
 74
     1
 75
     0
 76
     0
 77
     0
 78
     0
281
     0
 65
     1
110
0.0
120
0.0
130
0.0
111
1.0
121
0.0
131
0.0
112
0.0
122
1.0
132
0.0
 79
     0
146
0.0
 60
     3
 61
     5
292
     1
282
     1
141
0.0
142
0.0
 63
   250
421
  3355443
  0
ENDTAB
  0
TABLE
  2
LTYPE
  5
5
330
0
100
AcDbSymbolTable
 70
     3
  0
LTYPE
  5
5B
330
5
100
AcDbSymbolTableRecord
100
AcDbLinetypeTableRecord
  2
ByBlock
 70
     0
  3

 72
    65
 73
     0
 40
0.0
  0
LTYPE
  5
5C
330
5
100
AcDbSymbolTableRecord
100
AcDbLinetypeTableRecord
  2
ByLayer
 70
     0
  3

 72
    65
 73
     0
 40
0.0
  0
LTYPE
  5
5D
330
5
100
AcDbSymbolTableRecord
100
AcDbLinetypeTableRecord
  2
Continuous
 70
     0
  3
Solid line
 72
    65
 73
     0
 40
0.0
  0
LTYPE
  5
69
330
5
100
AcDbSymbolTableRecord
100
AcDbLinetypeTableRecord
  2
PHANTOM2
 70
     0
  3
___ _ _ ___ _ _ ___ _ _ ___ _ _
 72
    65
 73
     6
 40
1.25
 49
0.625
 74
     0
 49
-0.125
 74
     0
 49
0.125
 74
     0
 49
-0.125
 74
     0
 49
0.125
 74
     0
 49
-0.125
 74
     0
  0
LTYPE
  5
86
330
5
100
AcDbSymbolTableRecord
100
AcDbLinetypeTableRecord
  2
Nascosto 1_5 mm
 70
     0
  3

 72
    65
 73
     2
 40
2.2
 49
1.5
 74
     0
 49
-0.7000000000000001
 74
     0
  0
ENDTAB
  0
TABLE
  2
LAYER
  5
2
330
0
100
AcDbSymbolTable
 70
     4
  0
LAYER
  5
54
330
2
100
AcDbSymbolTableRecord
100
AcDbLayerTableRecord
  2
0
 70
     0
 62
     7
  6
Continuous
370
    -3
390
F
347
21
348
0
  0
LAYER
  5
85
330
2
100
AcDbSymbolTableRecord
100
AcDbLayerTableRecord
  2
P-SANR-FIXT
 70
     0
 62
     6
  6
Continuous
370
    18
390
F
347
21
348
0
  0
LAYER
  5
88
330
2
100
AcDbSymbolTableRecord
100
AcDbLayerTableRecord
  2
M-PIPE
 70
     0
 62
     3
  6
Continuous
370
    18
390
F
347
21
348
0
  0
ENDTAB
  0
TABLE
  2
STYLE
  5
3
330
0
100
AcDbSymbolTable
 70
     2
  0
STYLE
  5
55
330
3
100
AcDbSymbolTableRecord
100
AcDbTextStyleTableRecord
  2
Standard
 70
     0
 40
0.0
 41
1.0
 50
0.0
 71
     0
 42
0.2
  3
txt
  4

  0
STYLE
  5
5A
330
3
100
AcDbSymbolTableRecord
100
AcDbTextStyleTableRecord
  2
Annotative
 70
     0
 40
0.0
 41
1.0
 50
0.0
 71
     0
 42
0.2
  3
txt
  4

1001
AcadAnnotative
1000
AnnotativeData
1002
{
1070
     1
1070
     1
1002
}
  0
ENDTAB
  0
TABLE
  2
VIEW
  5
6
330
0
100
AcDbSymbolTable
 70
     0
  0
ENDTAB
  0
TABLE
  2
UCS
  5
7
330
0
100
AcDbSymbolTable
 70
     0
  0
ENDTAB
  0
TABLE
  2
APPID
  5
9
330
0
100
AcDbSymbolTable
 70
     3
  0
APPID
  5
56
330
9
100
AcDbSymbolTableRecord
100
AcDbRegAppTableRecord
  2
ACAD
 70
     0
  0
APPID
  5
5E
330
9
100
AcDbSymbolTableRecord
100
AcDbRegAppTableRecord
  2
AcadAnnotative
 70
     0
  0
APPID
  5
79
330
9
100
AcDbSymbolTableRecord
100
AcDbRegAppTableRecord
  2
REVIT
 70
     0
  0
ENDTAB
  0
TABLE
  2
DIMSTYLE
  5
A
330
0
100
AcDbSymbolTable
 70
     2
100
AcDbDimStyleTable
 71
     0
  0
DIMSTYLE
105
58
330
A
100
AcDbSymbolTableRecord
100
AcDbDimStyleTableRecord
  2
Standard
 70
     0
340
55
  0
DIMSTYLE
105
59
330
A
100
AcDbSymbolTableRecord
100
AcDbDimStyleTableRecord
  2
Annotative
 70
     0
340
55
1001
AcadAnnotative
1000
AnnotativeData
1002
{
1070
     1
1070
     1
1002
}
  0
ENDTAB
  0
TABLE
  2
BLOCK_RECORD
  5
1
330
0
100
AcDbSymbolTable
 70
     4
  0
BLOCK_RECORD
  5
71
102
{ACAD_XDICTIONARY
360
2AF
102
}
330
1
100
AcDbSymbolTableRecord
100
AcDbBlockTableRecord
  2
*Model_Space
340
74
 70
     0
280
     1
281
     0
  0
BLOCK_RECORD
  5
6D
330
1
100
AcDbSymbolTableRecord
100
AcDbBlockTableRecord
  2
*Paper_Space
340
70
 70
     0
280
     1
281
     0
  0
BLOCK_RECORD
  5
75
330
1
100
AcDbSymbolTableRecord
100
AcDbBlockTableRecord
  2
*Paper_Space0
340
78
 70
     0
280
     1
281
     0
  0
BLOCK_RECORD
  5
87
330
1
100
AcDbSymbolTableRecord
100
AcDbBlockTableRecord
  2
Automatic flow rate regulator valve_Caleffi_121 DN15 - 1_2__-859151-Est - Idraulica
340
0
102
{BLKREFS
331
1BB
102
}
 70
     0
280
     1
281
     0
  0
BLOCK_RECORD
  5
1BC
330
1
100
AcDbSymbolTableRecord
100
AcDbBlockTableRecord
  2
Automatic flow rate regulator valve_Caleffi_121 DN15 - 1_2__-V1-Est - Idraulica
340
0
102
{BLKREFS
331
1F7
102
}
 70
     0
280
     1
281
     0
  0
BLOCK_RECORD
  5
1F8
330
1
100
AcDbSymbolTableRecord
100
AcDbBlockTableRecord
  2
Automatic flow rate regulator valve_Caleffi_121 DN15 - 1_2__-V2-Est - Idraulica
340
0
102
{BLKREFS
331
2A8
102
}
 70
     0
280
     1
281
     0
  0
ENDTAB
  0
ENDSEC
  0
SECTION
  2
BLOCKS
  0
BLOCK
  5
72
330
71
100
AcDbEntity
  8
0
100
AcDbBlockBegin
  2
*Model_Space
 70
     0
 10
0.0
 20
0.0
 30
0.0
  3
*Model_Space
  1

  0
ENDBLK
  5
73
330
71
100
AcDbEntity
  8
0
100
AcDbBlockEnd
  0
BLOCK
  5
6E
330
6D
100
AcDbEntity
 67
     1
  8
0
100
AcDbBlockBegin
  2
*Paper_Space
 70
     0
 10
0.0
 20
0.0
 30
0.0
  3
*Paper_Space
  1

  0
ENDBLK
  5
6F
330
6D
100
AcDbEntity
 67
     1
  8
0
100
AcDbBlockEnd
  0
BLOCK
  5
76
330
75
100
AcDbEntity
 67
     1
  8
0
100
AcDbBlockBegin
  2
*Paper_Space0
 70
     0
 10
0.0
 20
0.0
 30
0.0
  3
*Paper_Space0
  1

  0
ENDBLK
  5
77
330
75
100
AcDbEntity
 67
     1
  8
0
100
AcDbBlockEnd
  0
BLOCK
  5
1B9
330
87
100
AcDbEntity
  8
0
100
AcDbBlockBegin
  2
Automatic flow rate regulator valve_Caleffi_121 DN15 - 1_2__-859151-Est - Idraulica
 70
     0
 10
0.0
 20
0.0
 30
0.0
  3
Automatic flow rate regulator valve_Caleffi_121 DN15 - 1_2__-859151-Est - Idraulica
  1

  0
LINE
  5
89
330
87
100
AcDbEntity
  8
M-PIPE
100
AcDbLine
 10
786.5101574431944
 20
1453.999999999917
 30
0.0
 11
774.5664074431943
 21
1453.999999999917
 31
0.0
1001
REVIT
1002
{
1070
     3
1000
790271
1002
}
  0
LINE
  5
8A
330
87
100
AcDbEntity
  8
M-PIPE
100
AcDbLine
 10
774.5664074431943
 20
1422.999999999917
 30
0.0
 11
786.5101574431944
 21
1422.999999999917
 31
0.0
1001
REVIT
1002
{
1070
     3
1000
790271
1002
}
  0
LINE
  5
8B
330
87
100
AcDbEntity
  8
M-PIPE
100
AcDbLine
 10
760.864539599326
 20
1449.698132156048
 30
0.0
 11
758.1664074431944
 21
1446.999999999917
 31
0.0
1001
REVIT
1002
{
1070
     3
1000
790271
1002
}
  0
LINE
  5
8C
330
87
100
AcDbEntity
  8
M-PIPE
100
AcDbLine
 10
758.1664074431944
 20
1429.999999999917
 30
0.0
 11
760.864539599307
 21
1427.301867843804
 31
0.0
1001
REVIT
1002
{
1070
     3
1000
790271
1002
}
  0
LINE
  5
8D
330
87
100
AcDbEntity
  8
M-PIPE
100
AcDbLine
 10
786.5101574431925
 20
1422.999999999916
 30
0.0
 11
786.5101574431925
 21
1453.999999999916
 31
0.0
1001
REVIT
1002
{
1070
     3
1000
790271
1002
}
  0
LINE
  5
8E
330
87
100
AcDbEntity
  8
M-PIPE
100
AcDbLine
 10
774.5664074431926
 20
1453.706906325662
 30
0.0
 11
774.1664074431926
 21
1453.706906325662
 31
0.0
1001
REVIT
1002
{
1070
     3
1000
790271
1002
}
  0
LINE
  5
8F
330
87
100
AcDbEntity
  8
M-PIPE
100
AcDbLine
 10
774.1664074431926
 20
1423.293093674171
 30
0.0
 11
774.5664074431926
 21
1423.293093674171
 31
0.0
1001
REVIT
1002
{
1070
     3
1000
790271
1002
}
  0
LINE
  5
90
330
87
100
AcDbEntity
  8
M-PIPE
100
AcDbLine
 10
774.1664074431926
 20
1453.706906325662
 30
0.0
 11
774.1664074431926
 21
1423.293093674171
 31
0.0
1001
REVIT
1002
{
1070
     3
1000
790271
1002
}
  0
ARC
  5
91
330
87
100
AcDbEntity
  8
M-PIPE
100
AcDbCircle
 10
1292.773384016723
 20
944.3766902973148
 30
0.0
 40
726.890958198148
100
AcDbArc
 50
135.5170596040535
 51
135.9688475438209
1001
REVIT
1002
{
1070
     3
1000
790271
1002
}
  0
ARC
  5
92
330
87
100
AcDbEntity
  8
M-PIPE
100
AcDbCircle
 10
1292.773384030086
 20
1932.623309715528
 30
0.0
 40
726.8909582167967
100
AcDbArc
 50
224.0311524561831
 51
224.4829403959389
1001
REVIT
1002
{
1070
     3
1000
790271
1002
}
  0
LINE
  5
93
330
87
100
AcDbEntity
  8
M-PIPE
100
AcDbLine
 10
770.1664074432557
 20
1449.601801655569
 30
0.0
 11
770.1664074432557
 21
1427.398198344264
 31
0.0
1001
REVIT
1002
{
1070
     3
1000
790271
1002
}
  0
LINE
  5
94
330
87
100
AcDbEntity
  8
M-PIPE
100
AcDbLine
 10
770.1664074432557
 20
1449.601801655569
 30
0.0
 11
761.1664074432558
 21
1449.601801655569
 31
0.0
1001
REVIT
1002
{
1070
     3
1000
790271
1002
}
  0
LINE
  5
95
330
87
100
AcDbEntity
  8
M-PIPE
100
AcDbLine
 10
761.1664074432558
 20
1427.398198344264
 30
0.0
 11
770.1664074432557
 21
1427.398198344264
 31
0.0
1001
REVIT
1002
{
1070
     3
1000
790271
1002
}
  0
LINE
  5
96
330
87
100
AcDbEntity
  8
M-PIPE
100
AcDbLine
 10
760.9255522351851
 20
1427.64788769645
 30
0.0
 11
761.1664074432539
 21
1427.398198344265
 31
0.0
1001
REVIT
1002
{
1070
     3
1000
790271
1002
}
  0
LINE
  5
97
330
87
100
AcDbEntity
  8
M-PIPE
100
AcDbLine
 10
761.1664074432558
 20
1449.601801655569
 30
0.0
 11
761.1664074432558
 21
1427.398198344264
 31
0.0
1001
REVIT
1002
{
1070
     3
1000
790271
1002
}
  0
LINE
  5
98
330
87
100
AcDbEntity
  8
M-PIPE
100
AcDbLine
 10
761.1664074432578
 20
1449.601801655571
 30
0.0
 11
760.925552235208
 21
1449.352112303407
 31
0.0
1001
REVIT
1002
{
1070
     3
1000
790271
1002
}
  0
LINE
  5
99
330
87
100
AcDbEntity
  8
M-PIPE
100
AcDbLine
 10
758.1664074431926
 20
1446.999999999916
 30
0.0
 11
758.1664074431926
 21
1429.999999999916
 31
0.0
1001
REVIT
1002
{
1070
     3
1000
790271
1002
}
  0
LINE
  5
9A
330
87
100
AcDbEntity
  8
M-PIPE
100
AcDbLine
 10
774.5664074431928
 20
1471.000000000043
 30
0.0
 11
758.1664074431927
 21
1471.000000000043
 31
0.0
1001
REVIT
1002
{
1070
     3
1000
790271
1002
}
  0
LINE
  5
9B
330
87
100
AcDbEntity
  8
M-PIPE
100
AcDbLine
 10
758.1664074431927
 20
1471.000000000043
 30
0.0
 11
758.1664074431927
 21
1465.000000000044
 31
0.0
1001
REVIT
1002
{
1070
     3
1000
790271
1002
}
  0
LINE
  5
9C
330
87
100
AcDbEntity
  8
M-PIPE
100
AcDbLine
 10
758.1664074431927
 20
1465.000000000044
 30
0.0
 11
760.925552235206
 21
1449.352112303405
 31
0.0
1001
REVIT
1002
{
1070
     3
1000
790271
1002
}
  0
LINE
  5
9D
330
87
100
AcDbEntity
  8
M-PIPE
100
AcDbLine
 10
774.5664074431926
 20
1453.706906325662
 30
0.0
 11
774.5664074431928
 21
1471.000000000043
 31
0.0
1001
REVIT
1002
{
1070
     3
1000
790271
1002
}
  0
LINE
  5
9E
330
87
100
AcDbEntity
  8
M-PIPE
100
AcDbLine
 10
758.1664074431926
 20
1411.999999999916
 30
0.0
 11
758.1664074431926
 21
1405.999999999916
 31
0.0
1001
REVIT
1002
{
1070
     3
1000
790271
1002
}
  0
LINE
  5
9F
330
87
100
AcDbEntity
  8
M-PIPE
100
AcDbLine
 10
758.1664074431926
 20
1405.999999999916
 30
0.0
 11
774.5664074431926
 21
1405.999999999916
 31
0.0
1001
REVIT
1002
{
1070
     3
1000
790271
1002
}
  0
LINE
  5
A0
330
87
100
AcDbEntity
  8
M-PIPE
100
AcDbLine
 10
774.5664074431926
 20
1405.999999999916
 30
0.0
 11
774.5664074431926
 21
1423.293093674171
 31
0.0
1001
REVIT
1002
{
1070
     3
1000
790271
1002
}
  0
LINE
  5
A1
330
87
100
AcDbEntity
  8
M-PIPE
100
AcDbLine
 10
760.9255522351872
 20
1427.647887696448
 30
0.0
 11
758.1664074431926
 21
1411.999999999916
 31
0.0
1001
REVIT
1002
{
1070
     3
1000
790271
1002
}
  0
LINE
  5
A2
330
87
100
AcDbEntity
  8
M-PIPE
100
AcDbLine
 10
796.166407443195
 20
1402.598075309111
 30
0.0
 11
797.6664069222968
 21
1399.999999999979
 31
0.0
1001
REVIT
1002
{
1070
     3
1000
790271
1002
}
  0
LINE
  5
A3
330
87
100
AcDbEntity
  8
M-PIPE
100
AcDbLine
 10
833.6664079640931
 20
1399.999999999979
 30
0.0
 11
835.1664074431946
 21
1402.598075309111
 31
0.0
1001
REVIT
1002
{
1070
     3
1000
790271
1002
}
  0
LINE
  5
A4
330
87
100
AcDbEntity
  8
M-PIPE
100
AcDbLine
 10
796.166407443195
 20
1414.34591799932
 30
0.0
 11
796.166407443195
 21
1402.598075309111
 31
0.0
1001
REVIT
1002
{
1070
     3
1000
790271
1002
}
  0
LINE
  5
A5
330
87
100
AcDbEntity
  8
M-PIPE
100
AcDbLine
 10
835.1664074431946
 20
1402.598075309111
 30
0.0
 11
835.1664074431948
 21
1414.34591799932
 31
0.0
1001
REVIT
1002
{
1070
     3
1000
790271
1002
}
  0
LINE
  5
A6
330
87
100
AcDbEntity
  8
M-PIPE
100
AcDbLine
 10
835.1664074431946
 20
1414.34591799932
 30
0.0
 11
832.6664074431949
 21
1415.789293672294
 31
0.0
1001
REVIT
1002
{
1070
     3
1000
790271
1002
}
  0
LINE
  5
A7
330
87
100
AcDbEntity
  8
M-PIPE
100
AcDbLine
 10
798.6664074431947
 20
1415.789293672294
 30
0.0
 11
796.166407443195
 21
1414.34591799932
 31
0.0
1001
REVIT
1002
{
1070
     3
1000
790271
1002
}
  0
LINE
  5
A8
330
87
100
AcDbEntity
  8
M-PIPE
100
AcDbLine
 10
832.6664074431949
 20
1415.789293672294
 30
0.0
 11
832.6664074431949
 21
1422.914263954511
 31
0.0
1001
REVIT
1002
{
1070
     3
1000
790271
1002
}
  0
LINE
  5
A9
330
87
100
AcDbEntity
  8
M-PIPE
100
AcDbLine
 10
798.6664074431947
 20
1422.914263954511
 30
0.0
 11
798.6664074431947
 21
1415.789293672294
 31
0.0
1001
REVIT
1002
{
1070
     3
1000
790271
1002
}
  0
LINE
  5
AA
330
87
100
AcDbEntity
  8
M-PIPE
100
AcDbLine
 10
832.6664074431949
 20
1422.914263954511
 30
0.0
 11
838.0970474521909
 21
1426.049645425576
 31
0.0
1001
REVIT
1002
{
1070
     3
1000
790271
1002
}
  0
LINE
  5
AB
330
87
100
AcDbEntity
  8
M-PIPE
100
AcDbLine
 10
838.1064838784098
 20
1426.055093548794
 30
0.0
 11
838.1664074431954
 21
1426.089690435054
 31
0.0
1001
REVIT
1002
{
1070
     3
1000
790271
1002
}
  0
LINE
  5
AC
330
87
100
AcDbEntity
  8
M-PIPE
100
AcDbLine
 10
793.1664074431944
 20
1426.089690435054
 30
0.0
 11
798.6664074431947
 21
1422.914263954511
 31
0.0
1001
REVIT
1002
{
1070
     3
1000
790271
1002
}
  0
LINE
  5
AD
330
87
100
AcDbEntity
  8
M-PIPE
100
AcDbLine
 10
838.1664074431956
 20
1426.089690435054
 30
0.0
 11
838.1664074431956
 21
1453.999999999783
 31
0.0
1001
REVIT
1002
{
1070
     3
1000
790271
1002
}
  0
LINE
  5
AE
330
87
100
AcDbEntity
  8
M-PIPE
100
AcDbLine
 10
793.1664074431944
 20
1453.999999999783
 30
0.0
 11
793.1664074431944
 21
1449.499999999917
 31
0.0
1001
REVIT
1002
{
1070
     3
1000
790271
1002
}
  0
LINE
  5
AF
330
87
100
AcDbEntity
  8
M-PIPE
100
AcDbLine
 10
793.1664074431941
 20
1427.499999999917
 30
0.0
 11
793.1664074431941
 21
1426.089690435054
 31
0.0
1001
REVIT
1002
{
1070
     3
1000
790271
1002
}
  0
LINE
  5
B0
330
87
100
AcDbEntity
  8
M-PIPE
100
AcDbLine
 10
839.1664074431956
 20
1453.999999999783
 30
0.0
 11
839.1664074431956
 21
1456.928203230121
 31
0.0
1001
REVIT
1002
{
1070
     3
1000
790271
1002
}
  0
LINE
  5
B1
330
87
100
AcDbEntity
  8
M-PIPE
100
AcDbLine
 10
792.1664074431944
 20
1456.928203230121
 30
0.0
 11
792.1664074431944
 21
1453.999999999783
 31
0.0
1001
REVIT
1002
{
1070
     3
1000
790271
1002
}
  0
LINE
  5
B2
330
87
100
AcDbEntity
  8
M-PIPE
100
AcDbLine
 10
839.1664074431956
 20
1456.928203230121
 30
0.0
 11
835.1664074431957
 21
1457.999999999845
 31
0.0
1001
REVIT
1002
{
1070
     3
1000
790271
1002
}
  0
LINE
  5
B3
330
87
100
AcDbEntity
  8
M-PIPE
100
AcDbLine
 10
796.1664074431943
 20
1457.999999999846
 30
0.0
 11
792.1664074431944
 21
1456.928203230121
 31
0.0
1001
REVIT
1002
{
1070
     3
1000
790271
1002
}
  0
LINE
  5
B4
330
87
100
AcDbEntity
  8
M-PIPE
100
AcDbLine
 10
796.1664074431943
 20
1472.133974596192
 30
0.0
 11
796.1664074431943
 21
1457.999999999846
 31
0.0
1001
REVIT
1002
{
1070
     3
1000
790271
1002
}
  0
LINE
  5
B5
330
87
100
AcDbEntity
  8
M-PIPE
100
AcDbLine
 10
835.1664074431957
 20
1457.999999999845
 30
0.0
 11
835.1664074431957
 21
1472.133974596192
 31
0.0
1001
REVIT
1002
{
1070
     3
1000
790271
1002
}
  0
LINE
  5
B6
330
87
100
AcDbEntity
  8
M-PIPE
100
AcDbLine
 10
797.6664074431679
 20
1472.999999999961
 30
0.0
 11
796.1664074431943
 21
1472.133974596192
 31
0.0
1001
REVIT
1002
{
1070
     3
1000
790271
1002
}
  0
LINE
  5
B7
330
87
100
AcDbEntity
  8
M-PIPE
100
AcDbLine
 10
835.1664074431957
 20
1472.133974596192
 30
0.0
 11
833.6664074432219
 21
1472.999999999961
 31
0.0
1001
REVIT
1002
{
1070
     3
1000
790271
1002
}
  0
LINE
  5
B8
330
87
100
AcDbEntity
  8
M-PIPE
100
AcDbLine
 10
786.5101574431943
 20
1427.499999999917
 30
0.0
 11
793.1664074431941
 21
1427.499999999917
 31
0.0
1001
REVIT
1002
{
1070
     3
1000
790271
1002
}
  0
LINE
  5
B9
330
87
100
AcDbEntity
  8
M-PIPE
100
AcDbLine
 10
793.1664074431944
 20
1449.499999999917
 30
0.0
 11
786.5101574431943
 21
1449.499999999917
 31
0.0
1001
REVIT
1002
{
1070
     3
1000
790271
1002
}
  0
LINE
  5
BA
330
87
100
AcDbEntity
  8
M-PIPE
100
AcDbLine
 10
815.6707379050281
 20
1399.999999999979
 30
0.0
 11
797.6664069222948
 21
1399.999999999979
 31
0.0
1001
REVIT
1002
{
1070
     3
1000
790271
1002
}
  0
SPLINE
  5
BB
330
87
100
AcDbEntity
  8
M-PIPE
100
AcDbSpline
210
0.0
220
0.0
230
1.0
 70
     8
 71
     3
 72
     9
 73
     5
 74
     0
 42
0.000000001
 43
0.0000000001
 40
-1.0
 40
-1.0
 40
-1.0
 40
-1.0
 40
-0.5
 40
0.0
 40
0.0
 40
0.0
 40
0.0
 10
815.6707379050281
 20
1399.999999999979
 30
0.0
 10
814.2835879049748
 20
1400.062166492514
 30
0.0
 10
811.6457161612757
 20
1400.557345536572
 30
0.0
 10
809.2807009303923
 20
1401.794216698602
 30
0.0
 10
808.1664074431543
 20
1402.59807530911
 30
0.0
1001
REVIT
1002
{
1070
     3
1000
790271
1002
}
  0
SPLINE
  5
BC
330
87
100
AcDbEntity
  8
M-PIPE
100
AcDbSpline
210
0.0
220
0.0
230
1.0
 70
     8
 71
     3
 72
    13
 73
     9
 74
     0
 42
0.000000001
 43
0.0000000001
 40
-1.0
 40
-1.0
 40
-1.0
 40
-1.0
 40
-0.8333333333333332
 40
-0.75
 40
-0.6666666666666666
 40
-0.3333333333333333
 40
-0.1666666666666666
 40
0.0
 40
0.0
 40
0.0
 40
0.0
 10
803.8279501751091
 20
1402.59807530911
 30
0.0
 10
803.4361596711157
 20
1402.027870246181
 30
0.0
 10
802.8367002688424
 20
1401.315920363669
 30
0.0
 10
802.0111050159858
 20
1400.653771259809
 30
0.0
 10
800.7574711159147
 20
1399.946057080617
 30
0.0
 10
799.1212365830756
 20
1399.971885689791
 30
0.0
 10
797.4948534752789
 20
1401.099223943894
 30
0.0
 10
796.7093323528378
 20
1402.036604678335
 30
0.0
 10
796.3279501750671
 20
1402.59807530911
 30
0.0
1001
REVIT
1002
{
1070
     3
1000
790271
1002
}
  0
SPLINE
  5
BD
330
87
100
AcDbEntity
  8
M-PIPE
100
AcDbSpline
210
0.0
220
0.0
230
1.0
 70
     8
 71
     3
 72
    11
 73
     7
 74
     0
 42
0.000000001
 43
0.0000000001
 40
-1.0
 40
-1.0
 40
-1.0
 40
-1.0
 40
-0.8333333333333332
 40
-0.75
 40
-0.6666666666666666
 40
-0.4635416666666681
 40
-0.4635416666666681
 40
-0.4635416666666681
 40
-0.4635416666666681
 10
835.0048647113117
 20
1402.59807530911
 30
0.0
 10
834.6130742073203
 20
1402.027870246188
 30
0.0
 10
834.0136148050504
 20
1401.315920363686
 30
0.0
 10
833.1880195521986
 20
1400.653771259834
 30
0.0
 10
832.26085281361
 20
1400.130357648147
 30
0.0
 10
831.4839948698059
 20
1400.012371046248
 30
0.0
 10
830.939990605419
 20
1400.067977115501
 30
0.0
1001
REVIT
1002
{
1070
     3
1000
790271
1002
}
  0
SPLINE
  5
BE
330
87
100
AcDbEntity
  8
M-PIPE
100
AcDbSpline
210
0.0
220
0.0
230
1.0
 70
     8
 71
     3
 72
    10
 73
     6
 74
     0
 42
0.000000001
 43
0.0000000001
 40
-0.4613426592610886
 40
-0.4613426592610886
 40
-0.4613426592610886
 40
-0.4613426592610886
 40
-0.3333333333333333
 40
-0.1666666666666666
 40
0.0
 40
0.0
 40
0.0
 40
0.0
 10
830.9223250840977
 20
1400.069832030115
 30
0.0
 10
830.5795899977667
 20
1400.106774892658
 30
0.0
 10
829.7972478734076
 20
1400.319090101872
 30
0.0
 10
828.6717680115218
 20
1401.099223943913
 30
0.0
 10
827.8862468890853
 20
1402.036604678342
 30
0.0
 10
827.5048647113164
 20
1402.59807530911
 30
0.0
1001
REVIT
1002
{
1070
     3
1000
790271
1002
}
  0
SPLINE
  5
BF
330
87
100
AcDbEntity
  8
M-PIPE
100
AcDbSpline
210
0.0
220
0.0
230
1.0
 70
     8
 71
     3
 72
     9
 73
     5
 74
     0
 42
0.000000001
 43
0.0000000001
 40
-1.0
 40
-1.0
 40
-1.0
 40
-1.0
 40
-0.5
 40
0.0
 40
0.0
 40
0.0
 40
0.0
 10
823.1664074432297
 20
1402.59807530911
 30
0.0
 10
822.0533478524911
 20
1401.795211767377
 30
0.0
 10
819.6910100053855
 20
1400.559335674122
 30
0.0
 10
817.0562348270234
 20
1400.06316156129
 30
0.0
 10
815.6707379050281
 20
1399.999999999979
 30
0.0
1001
REVIT
1002
{
1070
     3
1000
790271
1002
}
  0
LINE
  5
C0
330
87
100
AcDbEntity
  8
M-PIPE
100
AcDbLine
 10
833.6664079640909
 20
1399.999999999979
 30
0.0
 11
831.6445286819812
 21
1399.999999999979
 31
0.0
1001
REVIT
1002
{
1070
     3
1000
790271
1002
}
  0
LINE
  5
C1
330
87
100
AcDbEntity
  8
M-PIPE
100
AcDbLine
 10
831.6202721450364
 20
1399.999999999979
 30
0.0
 11
830.9081088975164
 21
1399.999999999979
 31
0.0
1001
REVIT
1002
{
1070
     3
1000
790271
1002
}
  0
LINE
  5
C2
330
87
100
AcDbEntity
  8
M-PIPE
100
AcDbLine
 10
830.8746045961857
 20
1399.999999999979
 30
0.0
 11
815.6707379050281
 21
1399.999999999979
 31
0.0
1001
REVIT
1002
{
1070
     3
1000
790271
1002
}
  0
SPLINE
  5
C3
330
87
100
AcDbEntity
  8
M-PIPE
100
AcDbSpline
210
0.0
220
0.0
230
1.0
 70
     8
 71
     3
 72
     8
 73
     4
 74
     0
 42
0.000000001
 43
0.0000000001
 40
-0.505674280346974
 40
-0.505674280346974
 40
-0.505674280346974
 40
-0.505674280346974
 40
-0.5
 40
-0.5
 40
-0.5
 40
-0.5
 10
800.0537477949446
 20
1400.051398150729
 30
0.0
 10
800.0689803179946
 20
1400.051331219338
 30
0.0
 10
800.0842083473735
 20
1400.051416190876
 30
0.0
 10
800.0994315871052
 20
1400.051648765387
 30
0.0
1001
REVIT
1002
{
1070
     3
1000
790271
1002
}
  0
LINE
  5
C4
330
87
100
AcDbEntity
  8
M-PIPE
100
AcDbLine
 10
799.7114425706361
 20
1399.999999999979
 30
0.0
 11
800.4213279445915
 21
1399.999999999979
 31
0.0
1001
REVIT
1002
{
1070
     3
1000
790271
1002
}
  0
LINE
  5
C5
330
87
100
AcDbEntity
  8
M-PIPE
100
AcDbLine
 10
815.0020271106534
 20
1399.99999999998
 30
0.0
 11
815.6620771130771
 21
1399.99999999998
 31
0.0
1001
REVIT
1002
{
1070
     3
1000
790271
1002
}
  0
LINE
  5
C6
330
87
100
AcDbEntity
  8
M-PIPE
100
AcDbLine
 10
815.6620771130771
 20
1399.99999999998
 30
0.0
 11
816.3257510159823
 21
1399.99999999998
 31
0.0
1001
REVIT
1002
{
1070
     3
1000
790271
1002
}
  0
LINE
  5
C7
330
87
100
AcDbEntity
  8
M-PIPE
100
AcDbLine
 10
831.009476664586
 20
1399.999999999979
 30
0.0
 11
831.720758415194
 21
1399.999999999979
 31
0.0
1001
REVIT
1002
{
1070
     3
1000
790271
1002
}
  0
SPLINE
  5
C8
330
87
100
AcDbEntity
  8
M-PIPE
100
AcDbSpline
210
0.0
220
0.0
230
1.0
 70
     8
 71
     3
 72
     8
 73
     4
 74
     0
 42
0.000000001
 43
0.0000000001
 40
-0.5056742803504071
 40
-0.5056742803504071
 40
-0.5056742803504071
 40
-0.5056742803504071
 40
-0.5
 40
-0.5
 40
-0.5
 40
-0.5
 10
831.2306623311709
 20
1400.051398150762
 30
0.0
 10
831.24589485423
 20
1400.051331219371
 30
0.0
 10
831.2611228836178
 20
1400.051416190909
 30
0.0
 10
831.2763461233588
 20
1400.05164876542
 30
0.0
1001
REVIT
1002
{
1070
     3
1000
790271
1002
}
  0
LINE
  5
C9
330
87
100
AcDbEntity
  8
M-PIPE
100
AcDbLine
 10
808.1664074431543
 20
1402.59807530911
 30
0.0
 11
803.8279501751091
 21
1402.59807530911
 31
0.0
1001
REVIT
1002
{
1070
     3
1000
790271
1002
}
  0
LINE
  5
CA
330
87
100
AcDbEntity
  8
M-PIPE
100
AcDbLine
 10
808.166407443155
 20
1402.59807530911
 30
0.0
 11
808.166407443155
 21
1414.34591799932
 31
0.0
1001
REVIT
1002
{
1070
     3
1000
790271
1002
}
  0
LINE
  5
CB
330
87
100
AcDbEntity
  8
M-PIPE
100
AcDbLine
 10
803.8279501751087
 20
1414.34591799932
 30
0.0
 11
803.8279501751087
 21
1402.59807530911
 31
0.0
1001
REVIT
1002
{
1070
     3
1000
790271
1002
}
  0
LINE
  5
CC
330
87
100
AcDbEntity
  8
M-PIPE
100
AcDbLine
 10
827.5048647113166
 20
1402.59807530911
 30
0.0
 11
823.1664074432298
 21
1402.59807530911
 31
0.0
1001
REVIT
1002
{
1070
     3
1000
790271
1002
}
  0
LINE
  5
CD
330
87
100
AcDbEntity
  8
M-PIPE
100
AcDbLine
 10
827.5048647113166
 20
1402.59807530911
 30
0.0
 11
827.5048647113166
 21
1414.34591799932
 31
0.0
1001
REVIT
1002
{
1070
     3
1000
790271
1002
}
  0
LINE
  5
CE
330
87
100
AcDbEntity
  8
M-PIPE
100
AcDbLine
 10
823.1664074432291
 20
1414.34591799932
 30
0.0
 11
823.1664074432291
 21
1402.59807530911
 31
0.0
1001
REVIT
1002
{
1070
     3
1000
790271
1002
}
  0
LINE
  5
CF
330
87
100
AcDbEntity
  8
M-PIPE
100
AcDbLine
 10
796.3279501750671
 20
1402.59807530911
 30
0.0
 11
796.166407443193
 21
1402.598075309111
 31
0.0
1001
REVIT
1002
{
1070
     3
1000
790271
1002
}
  0
LINE
  5
D0
330
87
100
AcDbEntity
  8
M-PIPE
100
AcDbLine
 10
796.3279501750673
 20
1402.59807530911
 30
0.0
 11
796.3279501750673
 21
1414.34591799932
 31
0.0
1001
REVIT
1002
{
1070
     3
1000
790271
1002
}
  0
LINE
  5
D1
330
87
100
AcDbEntity
  8
M-PIPE
100
AcDbLine
 10
835.0048647113117
 20
1414.34591799932
 30
0.0
 11
835.0048647113117
 21
1402.59807530911
 31
0.0
1001
REVIT
1002
{
1070
     3
1000
790271
1002
}
  0
LINE
  5
D2
330
87
100
AcDbEntity
  8
M-PIPE
100
AcDbLine
 10
835.1664074431928
 20
1402.59807530911
 30
0.0
 11
835.0048647113119
 21
1402.59807530911
 31
0.0
1001
REVIT
1002
{
1070
     3
1000
790271
1002
}
  0
LINE
  5
D3
330
87
100
AcDbEntity
  8
M-PIPE
100
AcDbLine
 10
796.3279501750671
 20
1414.34591799932
 30
0.0
 11
796.1664074431931
 21
1414.34591799932
 31
0.0
1001
REVIT
1002
{
1070
     3
1000
790271
1002
}
  0
SPLINE
  5
D4
330
87
100
AcDbEntity
  8
M-PIPE
100
AcDbSpline
210
0.0
220
0.0
230
1.0
 70
     8
 71
     3
 72
     9
 73
     5
 74
     0
 42
0.000000001
 43
0.0000000001
 40
-1.0
 40
-1.0
 40
-1.0
 40
-1.0
 40
-0.5
 40
0.0
 40
0.0
 40
0.0
 40
0.0
 10
796.3279501750671
 20
1414.34591799932
 30
0.0
 10
797.5568682828935
 20
1414.923225501795
 30
0.0
 10
800.035786390727
 20
1415.50053300427
 30
0.0
 10
802.5568682829216
 20
1414.923225501795
 30
0.0
 10
803.8279501751095
 20
1414.34591799932
 30
0.0
1001
REVIT
1002
{
1070
     3
1000
790271
1002
}
  0
LINE
  5
D5
330
87
100
AcDbEntity
  8
M-PIPE
100
AcDbLine
 10
808.1664074431541
 20
1414.34591799932
 30
0.0
 11
803.8279501751095
 21
1414.34591799932
 31
0.0
1001
REVIT
1002
{
1070
     3
1000
790271
1002
}
  0
SPLINE
  5
D6
330
87
100
AcDbEntity
  8
M-PIPE
100
AcDbSpline
210
0.0
220
0.0
230
1.0
 70
     8
 71
     3
 72
     9
 73
     5
 74
     0
 42
0.000000001
 43
0.0000000001
 40
-1.0
 40
-1.0
 40
-1.0
 40
-1.0
 40
-0.5
 40
0.0
 40
0.0
 40
0.0
 40
0.0
 10
808.166407443154
 20
1414.34591799932
 30
0.0
 10
810.6242436588054
 20
1414.923225501794
 30
0.0
 10
815.5820798744695
 20
1415.500533004269
 30
0.0
 10
820.6242436588562
 20
1414.923225501794
 30
0.0
 10
823.16640744323
 20
1414.34591799932
 30
0.0
1001
REVIT
1002
{
1070
     3
1000
790271
1002
}
  0
LINE
  5
D7
330
87
100
AcDbEntity
  8
M-PIPE
100
AcDbLine
 10
827.5048647113164
 20
1414.34591799932
 30
0.0
 11
823.1664074432302
 21
1414.34591799932
 31
0.0
1001
REVIT
1002
{
1070
     3
1000
790271
1002
}
  0
SPLINE
  5
D8
330
87
100
AcDbEntity
  8
M-PIPE
100
AcDbSpline
210
0.0
220
0.0
230
1.0
 70
     8
 71
     3
 72
     9
 73
     5
 74
     0
 42
0.000000001
 43
0.0000000001
 40
-1.0
 40
-1.0
 40
-1.0
 40
-1.0
 40
-0.5
 40
0.0
 40
0.0
 40
0.0
 40
0.0
 10
827.5048647113164
 20
1414.34591799932
 30
0.0
 10
828.7337828191351
 20
1414.923225501787
 30
0.0
 10
831.2127009269531
 20
1415.500533004255
 30
0.0
 10
833.7337828191321
 20
1414.923225501788
 30
0.0
 10
835.0048647113119
 20
1414.34591799932
 30
0.0
1001
REVIT
1002
{
1070
     3
1000
790271
1002
}
  0
LINE
  5
D9
330
87
100
AcDbEntity
  8
M-PIPE
100
AcDbLine
 10
835.1664074431928
 20
1414.34591799932
 30
0.0
 11
835.0048647113119
 21
1414.34591799932
 31
0.0
1001
REVIT
1002
{
1070
     3
1000
790271
1002
}
  0
LINE
  5
DA
330
87
100
AcDbEntity
  8
M-PIPE
100
AcDbLine
 10
832.666407443193
 20
1415.789293672294
 30
0.0
 11
798.6664074431929
 21
1415.789293672294
 31
0.0
1001
REVIT
1002
{
1070
     3
1000
790271
1002
}
  0
LINE
  5
DB
330
87
100
AcDbEntity
  8
M-PIPE
100
AcDbLine
 10
832.666407443193
 20
1422.914263954511
 30
0.0
 11
798.6664074431929
 21
1422.914263954511
 31
0.0
1001
REVIT
1002
{
1070
     3
1000
790271
1002
}
  0
LINE
  5
DC
330
87
100
AcDbEntity
  8
M-PIPE
100
AcDbLine
 10
838.1664074431936
 20
1426.089690435054
 30
0.0
 11
793.1664074431924
 21
1426.089690435054
 31
0.0
1001
REVIT
1002
{
1070
     3
1000
790271
1002
}
  0
SPLINE
  5
DD
330
87
100
AcDbEntity
  8
M-PIPE
100
AcDbSpline
210
0.0
220
0.0
230
1.0
 70
     8
 71
     3
 72
    25
 73
    21
 74
     0
 42
0.000000001
 43
0.0000000001
 40
0.0
 40
0.0
 40
0.0
 40
0.0
 40
0.1111111111111111
 40
0.2222222222222222
 40
0.2777777777777778
 40
0.3333333333333333
 40
0.3611111111111111
 40
0.3888888888888888
 40
0.4444444444444445
 40
0.4791666666666666
 40
0.5138888888888889
 40
0.5486111111111111
 40
0.5833333333333333
 40
0.6180555555555555
 40
0.6527777777777777
 40
0.6875
 40
0.7222222222222223
 40
0.7916666666666668
 40
0.861111111111111
 40
1.0
 40
1.0
 40
1.0
 40
1.0
 10
793.1664074431924
 20
1449.499999999916
 30
0.0
 10
793.1664074431924
 20
1449.47813897382
 30
0.0
 10
793.4024278837138
 20
1449.038449511875
 30
0.0
 10
794.1385516459387
 20
1447.399479555307
 30
0.0
 10
794.8043029079067
 20
1445.613680001135
 30
0.0
 10
795.2086067976323
 20
1444.317032178062
 30
0.0
 10
795.4861036582172
 20
1443.200179544663
 30
0.0
 10
795.7413646694186
 20
1442.001836282465
 30
0.0
 10
795.9407235416106
 20
1440.683761370124
 30
0.0
 10
796.0313434371307
 20
1439.248211075833
 30
0.0
 10
796.0388606735556
 20
1438.003671119759
 30
0.0
 10
795.9762634534542
 20
1436.78901260018
 30
0.0
 10
795.8409639332726
 20
1435.627837706413
 30
0.0
 10
795.6348581470123
 20
1434.46708923444
 30
0.0
 10
795.3847182542187
 20
1433.366558028851
 30
0.0
 10
795.1113666707625
 20
1432.363866227321
 30
0.0
 10
794.7000595645993
 20
1431.089759764508
 30
0.0
 10
794.1843348250698
 20
1429.737861968601
 30
0.0
 10
793.4439782577745
 20
1428.038139568609
 30
0.0
 10
793.1664074431924
 20
1427.527015069027
 30
0.0
 10
793.1664074431924
 20
1427.499999999916
 30
0.0
1001
REVIT
1002
{
1070
     3
1000
790271
1002
}
  0
LINE
  5
DE
330
87
100
AcDbEntity
  8
M-PIPE
100
AcDbLine
 10
839.1664074431934
 20
1453.999999999782
 30
0.0
 11
792.1664074431925
 21
1453.999999999782
 31
0.0
1001
REVIT
1002
{
1070
     3
1000
790271
1002
}
  0
LINE
  5
DF
330
87
100
AcDbEntity
  8
M-PIPE
100
AcDbLine
 10
839.1664074431934
 20
1456.928203230121
 30
0.0
 11
792.1664074431925
 21
1456.928203230121
 31
0.0
1001
REVIT
1002
{
1070
     3
1000
790271
1002
}
  0
LINE
  5
E0
330
87
100
AcDbEntity
  8
M-PIPE
100
AcDbLine
 10
835.0048647113098
 20
1457.999999999845
 30
0.0
 11
827.5048647112951
 21
1457.999999999845
 31
0.0
1001
REVIT
1002
{
1070
     3
1000
790271
1002
}
  0
LINE
  5
E1
330
87
100
AcDbEntity
  8
M-PIPE
100
AcDbLine
 10
823.1664074432108
 20
1457.999999999845
 30
0.0
 11
808.1664074431275
 21
1457.999999999845
 31
0.0
1001
REVIT
1002
{
1070
     3
1000
790271
1002
}
  0
LINE
  5
E2
330
87
100
AcDbEntity
  8
M-PIPE
100
AcDbLine
 10
803.8279501750917
 20
1457.999999999845
 30
0.0
 11
796.3279501750629
 21
1457.999999999845
 31
0.0
1001
REVIT
1002
{
1070
     3
1000
790271
1002
}
  0
LINE
  5
E3
330
87
100
AcDbEntity
  8
M-PIPE
100
AcDbLine
 10
827.5048647112951
 20
1457.999999999845
 30
0.0
 11
823.1664074432108
 21
1457.999999999845
 31
0.0
1001
REVIT
1002
{
1070
     3
1000
790271
1002
}
  0
LINE
  5
E4
330
87
100
AcDbEntity
  8
M-PIPE
100
AcDbLine
 10
827.5048647112958
 20
1457.999999999845
 30
0.0
 11
827.5048647112958
 21
1472.133974596191
 31
0.0
1001
REVIT
1002
{
1070
     3
1000
790271
1002
}
  0
LINE
  5
E5
330
87
100
AcDbEntity
  8
M-PIPE
100
AcDbLine
 10
823.1664074432083
 20
1472.133974596191
 30
0.0
 11
823.1664074432083
 21
1457.999999999845
 31
0.0
1001
REVIT
1002
{
1070
     3
1000
790271
1002
}
  0
LINE
  5
E6
330
87
100
AcDbEntity
  8
M-PIPE
100
AcDbLine
 10
808.1664074431273
 20
1457.999999999845
 30
0.0
 11
803.8279501750915
 21
1457.999999999845
 31
0.0
1001
REVIT
1002
{
1070
     3
1000
790271
1002
}
  0
LINE
  5
E7
330
87
100
AcDbEntity
  8
M-PIPE
100
AcDbLine
 10
808.1664074431298
 20
1457.999999999845
 30
0.0
 11
808.1664074431298
 21
1472.133974596191
 31
0.0
1001
REVIT
1002
{
1070
     3
1000
790271
1002
}
  0
LINE
  5
E8
330
87
100
AcDbEntity
  8
M-PIPE
100
AcDbLine
 10
803.8279501750903
 20
1472.133974596191
 30
0.0
 11
803.8279501750903
 21
1457.999999999845
 31
0.0
1001
REVIT
1002
{
1070
     3
1000
790271
1002
}
  0
LINE
  5
E9
330
87
100
AcDbEntity
  8
M-PIPE
100
AcDbLine
 10
796.3279501750628
 20
1457.999999999845
 30
0.0
 11
796.1664074431923
 21
1457.999999999845
 31
0.0
1001
REVIT
1002
{
1070
     3
1000
790271
1002
}
  0
LINE
  5
EA
330
87
100
AcDbEntity
  8
M-PIPE
100
AcDbLine
 10
796.3279501750629
 20
1457.999999999845
 30
0.0
 11
796.327950175063
 21
1472.133974596192
 31
0.0
1001
REVIT
1002
{
1070
     3
1000
790271
1002
}
  0
LINE
  5
EB
330
87
100
AcDbEntity
  8
M-PIPE
100
AcDbLine
 10
835.0048647113098
 20
1472.133974596191
 30
0.0
 11
835.0048647113098
 21
1457.999999999845
 31
0.0
1001
REVIT
1002
{
1070
     3
1000
790271
1002
}
  0
LINE
  5
EC
330
87
100
AcDbEntity
  8
M-PIPE
100
AcDbLine
 10
835.1664074431939
 20
1457.999999999845
 30
0.0
 11
835.0048647113098
 21
1457.999999999845
 31
0.0
1001
REVIT
1002
{
1070
     3
1000
790271
1002
}
  0
LINE
  5
ED
330
87
100
AcDbEntity
  8
M-PIPE
100
AcDbLine
 10
796.3279501750628
 20
1472.133974596192
 30
0.0
 11
796.1664074431923
 21
1472.133974596192
 31
0.0
1001
REVIT
1002
{
1070
     3
1000
790271
1002
}
  0
SPLINE
  5
EE
330
87
100
AcDbEntity
  8
M-PIPE
100
AcDbSpline
210
0.0
220
0.0
230
1.0
 70
     8
 71
     3
 72
     8
 73
     4
 74
     0
 42
0.000000001
 43
0.0000000001
 40
-1.0
 40
-1.0
 40
-1.0
 40
-1.0
 40
-0.6249999999994815
 40
-0.6249999999994815
 40
-0.6249999999994815
 40
-0.6249999999994815
 10
796.3279501750628
 20
1472.133974596192
 30
0.0
 10
797.2496387559321
 20
1472.566955223049
 30
0.0
 10
798.1772566189775
 20
1472.837568114834
 30
0.0
 10
799.1108037641984
 20
1472.945813271548
 30
0.0
1001
REVIT
1002
{
1070
     3
1000
790271
1002
}
  0
SPLINE
  5
EF
330
87
100
AcDbEntity
  8
M-PIPE
100
AcDbSpline
210
0.0
220
0.0
230
1.0
 70
     8
 71
     3
 72
     9
 73
     5
 74
     0
 42
0.000000001
 43
0.0000000001
 40
-0.5883684542206918
 40
-0.5883684542206918
 40
-0.5883684542206918
 40
-0.5883684542206918
 40
-0.5
 40
0.0
 40
0.0
 40
0.0
 40
0.0
 10
799.3845516990631
 20
1472.97288674064
 30
0.0
 10
799.6048143220059
 20
1472.99091948015
 30
0.0
 10
801.0735432270346
 20
1473.050951621509
 30
0.0
 10
802.5568682829062
 20
1472.711282098668
 30
0.0
 10
803.8279501750917
 20
1472.133974596191
 30
0.0
1001
REVIT
1002
{
1070
     3
1000
790271
1002
}
  0
LINE
  5
F0
330
87
100
AcDbEntity
  8
M-PIPE
100
AcDbLine
 10
808.1664074431269
 20
1472.133974596191
 30
0.0
 11
803.8279501750917
 21
1472.133974596191
 31
0.0
1001
REVIT
1002
{
1070
     3
1000
790271
1002
}
  0
SPLINE
  5
F1
330
87
100
AcDbEntity
  8
M-PIPE
100
AcDbSpline
210
0.0
220
0.0
230
1.0
 70
     8
 71
     3
 72
     9
 73
     5
 74
     0
 42
0.000000001
 43
0.0000000001
 40
-1.0
 40
-1.0
 40
-1.0
 40
-1.0
 40
-0.5
 40
0.0
 40
0.0
 40
0.0
 40
0.0
 10
808.1664074431269
 20
1472.133974596191
 30
0.0
 10
809.4008941366862
 20
1472.416400443547
 30
0.0
 10
811.8853808302741
 20
1472.843163858198
 30
0.0
 10
814.4008941368008
 20
1472.993750712727
 30
0.0
 10
815.6664074432987
 20
1472.99999999996
 30
0.0
1001
REVIT
1002
{
1070
     3
1000
790271
1002
}
  0
SPLINE
  5
F2
330
87
100
AcDbEntity
  8
M-PIPE
100
AcDbSpline
210
0.0
220
0.0
230
1.0
 70
     8
 71
     3
 72
     9
 73
     5
 74
     0
 42
0.000000001
 43
0.0000000001
 40
-1.0
 40
-1.0
 40
-1.0
 40
-1.0
 40
-0.5
 40
0.0
 40
0.0
 40
0.0
 40
0.0
 10
815.6664074432987
 20
1472.99999999996
 30
0.0
 10
816.9319207497604
 20
1472.993750712716
 30
0.0
 10
819.4474340562077
 20
1472.843163858176
 30
0.0
 10
821.9319207497022
 20
1472.416400443536
 30
0.0
 10
823.1664074432112
 20
1472.133974596191
 30
0.0
1001
REVIT
1002
{
1070
     3
1000
790271
1002
}
  0
LINE
  5
F3
330
87
100
AcDbEntity
  8
M-PIPE
100
AcDbLine
 10
827.5048647112949
 20
1472.133974596191
 30
0.0
 11
823.1664074432114
 21
1472.133974596191
 31
0.0
1001
REVIT
1002
{
1070
     3
1000
790271
1002
}
  0
SPLINE
  5
F4
330
87
100
AcDbEntity
  8
M-PIPE
100
AcDbSpline
210
0.0
220
0.0
230
1.0
 70
     8
 71
     3
 72
     8
 73
     4
 74
     0
 42
0.000000001
 43
0.0000000001
 40
-1.0
 40
-1.0
 40
-1.0
 40
-1.0
 40
-0.5833333333333215
 40
-0.5833333333333215
 40
-0.5833333333333215
 40
-0.5833333333333215
 10
827.5048647112948
 20
1472.133974596191
 30
0.0
 10
828.5289631344799
 20
1472.615064181581
 30
0.0
 10
829.5603816591164
 20
1472.895699773059
 30
0.0
 10
830.5991202852045
 20
1472.975881370623
 30
0.0
1001
REVIT
1002
{
1070
     3
1000
790271
1002
}
  0
SPLINE
  5
F5
330
87
100
AcDbEntity
  8
M-PIPE
100
AcDbSpline
210
0.0
220
0.0
230
1.0
 70
     8
 71
     3
 72
     9
 73
     5
 74
     0
 42
0.000000001
 43
0.0000000001
 40
-0.5827944014594993
 40
-0.5827944014594993
 40
-0.5827944014594993
 40
-0.5827944014594993
 40
-0.5
 40
-0.4162430945513222
 40
-0.4162430945513222
 40
-0.4162430945513222
 40
-0.4162430945513222
 10
830.6031509492937
 20
1472.976191493972
 30
0.0
 10
830.8095588948031
 20
1472.992021064586
 30
0.0
 10
831.2249404837423
 20
1473.019314149747
 30
0.0
 10
831.6431623637814
 20
1472.968828573149
 30
0.0
 10
831.8539701531445
 20
1472.930065751333
 30
0.0
1001
REVIT
1002
{
1070
     3
1000
790271
1002
}
  0
SPLINE
  5
F6
330
87
100
AcDbEntity
  8
M-PIPE
100
AcDbSpline
210
0.0
220
0.0
230
1.0
 70
     8
 71
     3
 72
     8
 73
     4
 74
     0
 42
0.000000001
 43
0.0000000001
 40
-0.4029844633708417
 40
-0.4029844633708417
 40
-0.4029844633708417
 40
-0.4029844633708417
 40
0.0
 40
0.0
 40
0.0
 40
0.0
 10
831.9520489361817
 20
1472.967334090916
 30
0.0
 10
832.9628069444904
 20
1472.877053002597
 30
0.0
 10
833.9804122028663
 20
1472.599266504355
 30
0.0
 10
835.00486471131
 20
1472.133974596192
 30
0.0
1001
REVIT
1002
{
1070
     3
1000
790271
1002
}
  0
LINE
  5
F7
330
87
100
AcDbEntity
  8
M-PIPE
100
AcDbLine
 10
835.1664074431939
 20
1472.133974596191
 30
0.0
 11
835.00486471131
 21
1472.133974596191
 31
0.0
1001
REVIT
1002
{
1070
     3
1000
790271
1002
}
  0
LINE
  5
F8
330
87
100
AcDbEntity
  8
M-PIPE
100
AcDbLine
 10
815.6664074433106
 20
1472.99999999996
 30
0.0
 11
797.6664074431662
 21
1472.99999999996
 31
0.0
1001
REVIT
1002
{
1070
     3
1000
790271
1002
}
  0
LINE
  5
F9
330
87
100
AcDbEntity
  8
M-PIPE
100
AcDbLine
 10
833.6664074432199
 20
1472.99999999996
 30
0.0
 11
815.6664074433106
 21
1472.99999999996
 31
0.0
1001
REVIT
1002
{
1070
     3
1000
790271
1002
}
  0
LINE
  5
FA
330
87
100
AcDbEntity
  8
M-PIPE
100
AcDbLine
 10
916.8765863838556
 20
1518.14811426603
 30
0.0
 11
914.4178054553602
 21
1527.324409615755
 31
0.0
1001
REVIT
1002
{
1070
     3
1000
924063
1002
}
  0
LINE
  5
FB
330
87
100
AcDbEntity
  8
M-PIPE
100
AcDbLine
 10
897.9970664084827
 20
1522.924485848973
 30
0.0
 11
900.453196543083
 21
1513.758083396746
 31
0.0
1001
REVIT
1002
{
1070
     3
1000
924063
1002
}
  0
LINE
  5
FC
330
87
100
AcDbEntity
  8
M-PIPE
100
AcDbLine
 10
914.4178054553604
 20
1527.324409615755
 30
0.0
 11
913.805433019653
 21
1527.677963006353
 31
0.0
1001
REVIT
1002
{
1070
     3
1000
924063
1002
}
  0
LINE
  5
FD
330
87
100
AcDbEntity
  8
M-PIPE
100
AcDbLine
 10
898.3506197990804
 20
1523.53685828468
 30
0.0
 11
897.9970664084829
 21
1522.924485848973
 31
0.0
1001
REVIT
1002
{
1070
     3
1000
924063
1002
}
  0
LINE
  5
FE
330
87
100
AcDbEntity
  8
M-PIPE
100
AcDbLine
 10
924.2476479369992
 20
1509.955929824316
 30
0.0
 11
921.70583432891
 21
1519.442107352971
 31
0.0
1001
REVIT
1002
{
1070
     3
1000
924063
1002
}
  0
LINE
  5
FF
330
87
100
AcDbEntity
  8
M-PIPE
100
AcDbLine
 10
895.626599391924
 20
1512.454197412307
 30
0.0
 11
898.1684130000132
 21
1502.968019883652
 31
0.0
1001
REVIT
1002
{
1070
     3
1000
924063
1002
}
  0
LINE
  5
100
330
87
100
AcDbEntity
  8
M-PIPE
100
AcDbLine
 10
898.3506197990786
 20
1523.53685828468
 30
0.0
 11
913.7780391236313
 21
1527.670622834036
 31
0.0
1001
REVIT
1002
{
1070
     3
1000
924063
1002
}
  0
LINE
  5
101
330
87
100
AcDbEntity
  8
M-PIPE
100
AcDbLine
 10
914.392021224264
 20
1527.317500751855
 30
0.0
 11
897.997066408481
 21
1522.924485848973
 31
0.0
1001
REVIT
1002
{
1070
     3
1000
924063
1002
}
  0
LINE
  5
102
330
87
100
AcDbEntity
  8
M-PIPE
100
AcDbLine
 10
912.6108423060284
 20
1506.837857152986
 30
0.0
 11
909.8052186309624
 21
1506.086092554977
 31
0.0
1001
REVIT
1002
{
1070
     3
1000
924063
1002
}
  0
SPLINE
  5
103
330
87
100
AcDbEntity
  8
M-PIPE
100
AcDbSpline
210
0.0
220
0.0
230
1.0
 70
    24
 71
     3
 72
     8
 73
     4
 74
     0
 42
0.000000001
 43
0.0000000001
 40
0.0043677869019033
 40
0.0043677869019033
 40
0.0043677869019033
 40
0.0043677869019033
 40
0.0185301883273134
 40
0.0185301883273134
 40
0.0185301883273134
 40
0.0185301883273134
 10
909.8052186309624
 20
1506.086092554977
 30
0.0
 10
908.1144393938828
 20
1505.633049623818
 30
0.0
 10
905.8575604306154
 20
1505.028320728189
 30
0.0
 10
903.0345817411602
 20
1504.271905868091
 30
0.0
1001
REVIT
1002
{
1070
     3
1000
924063
1002
}
  0
LINE
  5
104
330
87
100
AcDbEntity
  8
M-PIPE
100
AcDbLine
 10
903.0345817411602
 20
1504.271905868091
 30
0.0
 11
901.0029543849464
 21
1503.727532958666
 31
0.0
1001
REVIT
1002
{
1070
     3
1000
924063
1002
}
  0
SPLINE
  5
105
330
87
100
AcDbEntity
  8
M-PIPE
100
AcDbSpline
210
0.0
220
0.0
230
1.0
 70
    24
 71
     3
 72
     8
 73
     4
 74
     0
 42
0.000000001
 43
0.0000000001
 40
0.0033094438410981
 40
0.0033094438410981
 40
0.0033094438410981
 40
0.0033094438410981
 40
0.0174718452665524
 40
0.0174718452665524
 40
0.0174718452665524
 40
0.0174718452665524
 10
901.0029543849464
 20
1503.727532958666
 30
0.0
 10
900.8861278545538
 20
1503.696229384193
 30
0.0
 10
900.0244806669904
 20
1503.465351716122
 30
0.0
 10
898.4180128222563
 20
1503.034899954454
 30
0.0
1001
REVIT
1002
{
1070
     3
1000
924063
1002
}
  0
LINE
  5
106
330
87
100
AcDbEntity
  8
M-PIPE
100
AcDbLine
 10
898.4180128222563
 20
1503.034899954454
 30
0.0
 11
898.1964025690828
 21
1502.975519666081
 31
0.0
1001
REVIT
1002
{
1070
     3
1000
924063
1002
}
  0
LINE
  5
107
330
87
100
AcDbEntity
  8
M-PIPE
100
AcDbLine
 10
924.219658367925
 20
1509.948430041887
 30
0.0
 11
923.9980481147577
 21
1509.889049753515
 31
0.0
1001
REVIT
1002
{
1070
     3
1000
924063
1002
}
  0
SPLINE
  5
108
330
87
100
AcDbEntity
  8
M-PIPE
100
AcDbSpline
210
0.0
220
0.0
230
1.0
 70
    24
 71
     3
 72
     8
 73
     4
 74
     0
 42
0.000000001
 43
0.0000000001
 40
0.0043677869018712
 40
0.0043677869018712
 40
0.0043677869018712
 40
0.0043677869018712
 40
0.0185301883275437
 40
0.0185301883275437
 40
0.0185301883275437
 40
0.0185301883275437
 10
923.9980481147577
 20
1509.889049753515
 30
0.0
 10
922.3915802699947
 20
1509.45859799184
 30
0.0
 10
921.5299330824249
 20
1509.227720323767
 30
0.0
 10
921.4131065520492
 20
1509.196416749298
 30
0.0
1001
REVIT
1002
{
1070
     3
1000
924063
1002
}
  0
LINE
  5
109
330
87
100
AcDbEntity
  8
M-PIPE
100
AcDbLine
 10
921.4131065520492
 20
1509.196416749298
 30
0.0
 11
919.3814791959331
 21
1508.6520438399
 31
0.0
1001
REVIT
1002
{
1070
     3
1000
924063
1002
}
  0
SPLINE
  5
10A
330
87
100
AcDbEntity
  8
M-PIPE
100
AcDbSpline
210
0.0
220
0.0
230
1.0
 70
    24
 71
     3
 72
     8
 73
     4
 74
     0
 42
0.000000001
 43
0.0000000001
 40
0.0033094438410097
 40
0.0033094438410097
 40
0.0033094438410097
 40
0.0033094438410097
 40
0.017471845266611
 40
0.017471845266611
 40
0.017471845266611
 40
0.017471845266611
 10
919.3814791959331
 20
1508.6520438399
 30
0.0
 10
916.5585005064283
 20
1507.895628979788
 30
0.0
 10
914.3016215431268
 20
1507.29090008415
 30
0.0
 10
912.6108423060284
 20
1506.837857152986
 30
0.0
1001
REVIT
1002
{
1070
     3
1000
924063
1002
}
  0
LINE
  5
10B
330
87
100
AcDbEntity
  8
M-PIPE
100
AcDbLine
 10
907.263405022873
 20
1515.572270083632
 30
0.0
 11
910.0690286979389
 21
1516.32403468164
 31
0.0
1001
REVIT
1002
{
1070
     3
1000
924063
1002
}
  0
SPLINE
  5
10C
330
87
100
AcDbEntity
  8
M-PIPE
100
AcDbSpline
210
0.0
220
0.0
230
1.0
 70
    24
 71
     3
 72
     8
 73
     4
 74
     0
 42
0.000000001
 43
0.0000000001
 40
-0.017471845266611
 40
-0.017471845266611
 40
-0.017471845266611
 40
-0.017471845266611
 40
-0.0033094438410097
 40
-0.0033094438410097
 40
-0.0033094438410097
 40
-0.0033094438410097
 10
910.0690286979389
 20
1516.32403468164
 30
0.0
 10
911.7598079350374
 20
1516.777077612805
 30
0.0
 10
914.016686898339
 20
1517.381806508443
 30
0.0
 10
916.8396655878437
 20
1518.138221368555
 30
0.0
1001
REVIT
1002
{
1070
     3
1000
924063
1002
}
  0
LINE
  5
10D
330
87
100
AcDbEntity
  8
M-PIPE
100
AcDbLine
 10
916.8396655878437
 20
1518.138221368555
 30
0.0
 11
918.8712929439597
 21
1518.682594277953
 31
0.0
1001
REVIT
1002
{
1070
     3
1000
924063
1002
}
  0
SPLINE
  5
10E
330
87
100
AcDbEntity
  8
M-PIPE
100
AcDbSpline
210
0.0
220
0.0
230
1.0
 70
    24
 71
     3
 72
     8
 73
     4
 74
     0
 42
0.000000001
 43
0.0000000001
 40
-0.0185301883275437
 40
-0.0185301883275437
 40
-0.0185301883275437
 40
-0.0185301883275437
 40
-0.0043677869018712
 40
-0.0043677869018712
 40
-0.0043677869018712
 40
-0.0043677869018712
 10
918.8712929439599
 20
1518.682594277953
 30
0.0
 10
918.9881194743357
 20
1518.713897852422
 30
0.0
 10
919.8497666619051
 20
1518.944775520494
 30
0.0
 10
921.4562345066683
 20
1519.37522728217
 30
0.0
1001
REVIT
1002
{
1070
     3
1000
924063
1002
}
  0
LINE
  5
10F
330
87
100
AcDbEntity
  8
M-PIPE
100
AcDbLine
 10
921.4562345066683
 20
1519.37522728217
 30
0.0
 11
921.6778447598356
 21
1519.434607570542
 31
0.0
1001
REVIT
1002
{
1070
     3
1000
924063
1002
}
  0
LINE
  5
110
330
87
100
AcDbEntity
  8
M-PIPE
100
AcDbLine
 10
895.6545889609936
 20
1512.461697194736
 30
0.0
 11
895.8761992141669
 21
1512.521077483109
 31
0.0
1001
REVIT
1002
{
1070
     3
1000
924063
1002
}
  0
SPLINE
  5
111
330
87
100
AcDbEntity
  8
M-PIPE
100
AcDbSpline
210
0.0
220
0.0
230
1.0
 70
    24
 71
     3
 72
     8
 73
     4
 74
     0
 42
0.000000001
 43
0.0000000001
 40
-0.0174718452665524
 40
-0.0174718452665524
 40
-0.0174718452665524
 40
-0.0174718452665524
 40
-0.0033094438410981
 40
-0.0033094438410981
 40
-0.0033094438410981
 40
-0.0033094438410981
 10
895.8761992141669
 20
1512.521077483109
 30
0.0
 10
897.482667058901
 20
1512.951529244777
 30
0.0
 10
898.3443142464645
 20
1513.182406912848
 30
0.0
 10
898.461140776857
 20
1513.213710487321
 30
0.0
1001
REVIT
1002
{
1070
     3
1000
924063
1002
}
  0
LINE
  5
112
330
87
100
AcDbEntity
  8
M-PIPE
100
AcDbLine
 10
898.461140776857
 20
1513.213710487321
 30
0.0
 11
900.4927681330709
 21
1513.758083396745
 31
0.0
1001
REVIT
1002
{
1070
     3
1000
924063
1002
}
  0
SPLINE
  5
113
330
87
100
AcDbEntity
  8
M-PIPE
100
AcDbSpline
210
0.0
220
0.0
230
1.0
 70
    24
 71
     3
 72
     8
 73
     4
 74
     0
 42
0.000000001
 43
0.0000000001
 40
-0.0185301883273134
 40
-0.0185301883273134
 40
-0.0185301883273134
 40
-0.0185301883273134
 40
-0.0043677869019033
 40
-0.0043677869019033
 40
-0.0043677869019033
 40
-0.0043677869019033
 10
900.4927681330709
 20
1513.758083396745
 30
0.0
 10
903.3157468225262
 20
1514.514498256844
 30
0.0
 10
905.5726257857937
 20
1515.119227152473
 30
0.0
 10
907.2634050228732
 20
1515.572270083632
 30
0.0
1001
REVIT
1002
{
1070
     3
1000
924063
1002
}
  0
LINE
  5
114
330
87
100
AcDbEntity
  8
M-PIPE
100
AcDbLine
 10
910.0690286979389
 20
1516.32403468164
 30
0.0
 11
912.6108423060284
 21
1506.837857152986
 31
0.0
1001
REVIT
1002
{
1070
     3
1000
924063
1002
}
  0
LINE
  5
115
330
87
100
AcDbEntity
  8
M-PIPE
100
AcDbLine
 10
919.3814791959331
 20
1508.6520438399
 30
0.0
 11
916.8396655878437
 21
1518.138221368555
 31
0.0
1001
REVIT
1002
{
1070
     3
1000
924063
1002
}
  0
LINE
  5
116
330
87
100
AcDbEntity
  8
M-PIPE
100
AcDbLine
 10
909.8052186309624
 20
1506.086092554977
 30
0.0
 11
907.2634050228732
 21
1515.572270083632
 31
0.0
1001
REVIT
1002
{
1070
     3
1000
924063
1002
}
  0
LINE
  5
117
330
87
100
AcDbEntity
  8
M-PIPE
100
AcDbLine
 10
900.4927681330709
 20
1513.758083396745
 30
0.0
 11
903.0345817411602
 21
1504.271905868091
 31
0.0
1001
REVIT
1002
{
1070
     3
1000
924063
1002
}
  0
LINE
  5
118
330
87
100
AcDbEntity
  8
M-PIPE
100
AcDbLine
 10
895.8761992141669
 20
1512.521077483109
 30
0.0
 11
898.4180128222563
 21
1503.034899954454
 31
0.0
1001
REVIT
1002
{
1070
     3
1000
924063
1002
}
  0
LINE
  5
119
330
87
100
AcDbEntity
  8
M-PIPE
100
AcDbLine
 10
901.0029543849464
 20
1503.727532958666
 30
0.0
 11
898.461140776857
 21
1513.213710487321
 31
0.0
1001
REVIT
1002
{
1070
     3
1000
924063
1002
}
  0
LINE
  5
11A
330
87
100
AcDbEntity
  8
M-PIPE
100
AcDbLine
 10
923.9980481147577
 20
1509.889049753515
 30
0.0
 11
921.4562345066683
 21
1519.37522728217
 31
0.0
1001
REVIT
1002
{
1070
     3
1000
924063
1002
}
  0
LINE
  5
11B
330
87
100
AcDbEntity
  8
M-PIPE
100
AcDbLine
 10
918.8712929439599
 20
1518.682594277953
 30
0.0
 11
921.4131065520492
 21
1509.196416749298
 31
0.0
1001
REVIT
1002
{
1070
     3
1000
924063
1002
}
  0
LWPOLYLINE
  5
11C
330
87
100
AcDbEntity
  8
P-SANR-FIXT
100
AcDbPolyline
 90
       14
 70
   128
 43
0.0
 10
827.4395807828643
 20
2254.95500350279
 10
841.4101505583413
 20
2254.675554846466
 10
860.1714872027729
 20
2253.548521883548
 10
878.8727474811981
 20
2251.672137065928
 10
897.4840133665606
 20
2249.049402209039
 10
915.9755108036357
 20
2245.684513129166
 10
934.3176573411666
 20
2241.582852931033
 10
952.4811094574751
 20
2236.750983395982
 10
970.4368095038388
 20
2231.196634484524
 10
988.1560321905288
 20
2224.928691970055
 10
1005.610430541145
 20
2217.957183223507
 10
1022.772081241733
 20
2210.293261171698
 10
1039.613529312129
 20
2201.94918645503
 10
1042.547183945399
 20
2200.408723280582
  0
LWPOLYLINE
  5
11D
330
87
100
AcDbEntity
  8
P-SANR-FIXT
100
AcDbPolyline
 90
       14
 70
   128
 43
0.0
 10
588.7856309409802
 20
2200.408723280582
 10
605.5678235254913
 20
2208.871345099001
 10
622.6750067579319
 20
2216.65608901495
 10
640.0798127944674
 20
2223.75050109882
 10
657.7543976582671
 20
2230.143231804672
 10
675.6704857839257
 20
2235.824054127086
 10
693.7994152523372
 20
2240.78387996219
 10
712.1121836436508
 20
2245.014774646687
 10
730.5794944349557
 20
2248.509969651625
 10
749.1718038684691
 20
2251.263873410599
 10
767.8593682152451
 20
2253.272080265061
 10
786.6122913587965
 20
2254.531377512439
 10
805.4005726225039
 20
2255.039750545773
 10
807.7623032328499
 20
2255.048077315675
  0
LWPOLYLINE
  5
11E
330
87
100
AcDbEntity
  8
P-SANR-FIXT
100
AcDbPolyline
 90
       80
 70
   128
 43
0.0
 10
808.7140632020478
 20
2255.051432942362
 10
808.7196243358967
 20
2255.051432942362
 10
808.7362988408161
 20
2255.051432942362
 10
808.764060041155
 20
2255.051432942362
 10
808.8028635249148
 20
2255.051432942362
 10
808.8526472147991
 20
2255.051432942362
 10
808.9133314675246
 20
2255.051432942362
 10
808.9848192012315
 20
2255.051432942362
 10
809.0669960507959
 20
2255.051432942362
 10
809.1597305507894
 20
2255.051432942362
 10
809.2628743457931
 20
2255.051432942362
 10
809.3762624277387
 20
2255.051432942362
 10
809.499713399883
 20
2255.051432942362
 10
809.6330297670052
 20
2255.051432942362
 10
809.7759982513576
 20
2255.051432942362
 10
809.928390133863
 20
2255.051432942362
 10
810.0899616200182
 20
2255.051432942362
 10
810.2604542299125
 20
2255.051432942362
 10
810.4395952117394
 20
2255.051432942362
 10
810.6270979781427
 20
2255.051432942362
 10
810.8226625646949
 20
2255.051432942362
 10
811.0259761097754
 20
2255.051432942362
 10
811.2367133550835
 20
2255.051432942362
 10
811.4545371659817
 20
2255.051432942362
 10
811.6790990708391
 20
2255.051432942362
 10
811.9100398185118
 20
2255.051432942362
 10
812.1469899530682
 20
2255.051432942362
 10
812.3895704048395
 20
2255.051432942362
 10
812.6373930968512
 20
2255.051432942362
 10
812.8900615656617
 20
2255.051432942362
 10
813.1471715956209
 20
2255.051432942362
 10
813.4083118655274
 20
2255.051432942362
 10
813.6730646066574
 20
2255.051432942362
 10
813.9410062711018
 20
2255.051432942362
 10
814.2117082093555
 20
2255.051432942362
 10
814.484737356064
 20
2255.051432942362
 10
814.7596569228358
 20
2255.051432942362
 10
815.0360270970107
 20
2255.051432942362
 10
815.313405745265
 20
2255.051432942362
 10
815.5913491209332
 20
2255.051432942362
 10
815.8694125739055
 20
2255.051432942362
 10
816.1471512619741
 20
2255.051432942362
 10
816.4241208624854
 20
2255.051432942362
 10
816.6998782831635
 20
2255.051432942362
 10
816.9739823709592
 20
2255.051432942362
 10
817.2459946178051
 20
2255.051432942362
 10
817.5154798621319
 20
2255.051432942362
 10
817.7820069850366
 20
2255.051432942362
 10
818.0451495999777
 20
2255.051432942362
 10
818.3044867349062
 20
2255.051432942362
 10
818.5596035057281
 20
2255.051432942362
 10
818.8100917800323
 20
2255.051432942362
 10
819.0555508300143
 20
2255.051432942362
 10
819.295587973556
 20
2255.051432942362
 10
819.5298192024333
 20
2255.051432942362
 10
819.7578697966459
 20
2255.051432942362
 10
819.9793749238919
 20
2255.051432942362
 10
820.1939802232196
 20
2255.051432942362
 10
820.4013423719299
 20
2255.051432942362
 10
820.6011296348197
 20
2255.051432942362
 10
820.7930223948874
 20
2255.051432942362
 10
820.9767136646522
 20
2255.051432942362
 10
821.1519095772674
 20
2255.051432942362
 10
821.3183298566461
 20
2255.051432942362
 10
821.4757082658426
 20
2255.051432942362
 10
821.6237930329743
 20
2255.051432942362
 10
821.7623472540031
 20
2255.051432942362
 10
821.8911492717328
 20
2255.051432942362
 10
822.0099930304106
 20
2255.051432942362
 10
822.118688405375
 20
2255.051432942362
 10
822.2170615072135
 20
2255.051432942362
 10
822.3049549599474
 20
2255.051432942362
 10
822.3822281528025
 20
2255.051432942362
 10
822.4487574651545
 20
2255.051432942362
 10
822.5044364642954
 20
2255.051432942362
 10
822.5491760757041
 20
2255.051432942362
 10
822.5829047255466
 20
2255.051432942362
 10
822.6055684551781
 20
2255.051432942362
 10
822.6171310074656
 20
2255.051432942362
 10
822.6187516843323
 20
2255.051432942362
  0
LWPOLYLINE
  5
11F
330
87
100
AcDbEntity
  8
P-SANR-FIXT
100
AcDbPolyline
 90
       32
 70
   128
 43
0.0
 10
822.6187516843323
 20
2255.051432942362
 10
822.6131905504832
 20
2255.051432942362
 10
822.5965160455638
 20
2255.051432942362
 10
822.5687548452251
 20
2255.051432942362
 10
822.529951361465
 20
2255.051432942362
 10
822.4801676715808
 20
2255.051432942362
 10
822.4194834188553
 20
2255.051432942362
 10
822.3479956851484
 20
2255.051432942362
 10
822.2658188355838
 20
2255.051432942362
 10
822.1730843355906
 20
2255.051432942362
 10
822.0699405405866
 20
2255.051432942362
 10
821.9565524586412
 20
2255.051432942362
 10
821.833101486497
 20
2255.051432942362
 10
821.6997851193745
 20
2255.051432942362
 10
821.5568166350223
 20
2255.051432942362
 10
821.4044247525167
 20
2255.051432942362
 10
821.2428532663613
 20
2255.051432942362
 10
821.0723606564672
 20
2255.051432942362
 10
820.8932196746403
 20
2255.051432942362
 10
820.7057169082371
 20
2255.051432942362
 10
820.5101523216848
 20
2255.051432942362
 10
820.3068387766045
 20
2255.051432942362
 10
820.0961015312962
 20
2255.051432942362
 10
819.878277720398
 20
2255.051432942362
 10
819.6537158155408
 20
2255.051432942362
 10
819.4227750678683
 20
2255.051432942362
 10
819.1858249333119
 20
2255.051432942362
 10
818.9432444815404
 20
2255.051432942362
 10
818.6954217895287
 20
2255.051432942362
 10
818.4427533207182
 20
2255.051432942362
 10
818.1856432907592
 20
2255.051432942362
 10
818.1310782616527
 20
2255.051432942362
  0
LWPOLYLINE
  5
120
330
87
100
AcDbEntity
  8
P-SANR-FIXT
100
AcDbPolyline
 90
       32
 70
   128
 43
0.0
 10
813.2017366246897
 20
2255.051432942362
 10
812.9437451654579
 20
2255.051432942362
 10
812.6901093850669
 20
2255.051432942362
 10
812.4412350466592
 20
2255.051432942362
 10
812.1975202960857
 20
2255.051432942362
 10
811.9593550249579
 20
2255.051432942362
 10
811.7271202469037
 20
2255.051432942362
 10
811.501187488027
 20
2255.051432942362
 10
811.2819181925456
 20
2255.051432942362
 10
811.0696631445573
 20
2255.051432942362
 10
810.8647619068609
 20
2255.051432942362
 10
810.6675422777257
 20
2255.051432942362
 10
810.4783197664877
 20
2255.051432942362
 10
810.2973970887994
 20
2255.051432942362
 10
810.1250636823502
 20
2255.051432942362
 10
809.9615952438281
 20
2255.051432942362
 10
809.8072532878633
 20
2255.051432942362
 10
809.662284728661
 20
2255.051432942362
 10
809.5269214849906
 20
2255.051432942362
 10
809.4013801091662
 20
2255.051432942362
 10
809.2858614406083
 20
2255.051432942362
 10
809.180550284544
 20
2255.051432942362
 10
809.0856151163581
 20
2255.051432942362
 10
809.0012078120672
 20
2255.051432942362
 10
808.9274634053529
 20
2255.051432942362
 10
808.8644998715345
 20
2255.051432942362
 10
808.8124179388341
 20
2255.051432942362
 10
808.7713009272345
 20
2255.051432942362
 10
808.7412146151828
 20
2255.051432942362
 10
808.7222071343605
 20
2255.051432942362
 10
808.7143088926813
 20
2255.051432942362
 10
808.7140632020478
 20
2255.051432942362
  0
LWPOLYLINE
  5
121
330
87
100
AcDbEntity
  8
P-SANR-FIXT
100
AcDbPolyline
 90
       29
 70
   128
 43
0.0
 10
1042.547183945399
 20
2200.408723280582
 10
1043.770954578862
 20
2199.728926165791
 10
1044.966561692345
 20
2199.000735043357
 10
1046.132092569515
 20
2198.225314863732
 10
1047.265682609602
 20
2197.403906133793
 10
1048.365518310361
 20
2196.537822932282
 10
1049.42984016929
 20
2195.628450807566
 10
1050.456945498458
 20
2194.677244561058
 10
1051.445191148443
 20
2193.685725919836
 10
1052.392996137019
 20
2192.655481102215
 10
1053.298844178393
 20
2191.588158280129
 10
1054.161286108934
 20
2190.485464942412
 10
1054.978942205533
 20
2189.349165163173
 10
1055.750504392858
 20
2188.181076779661
 10
1056.474738336
 20
2186.983068484112
 10
1057.150485415148
 20
2185.757056834237
 10
1057.776664579124
 20
2184.505003187142
 10
1058.352274074843
 20
2183.228910561568
 10
1058.876393049906
 20
2181.930820433502
 10
1059.348183025754
 20
2180.612809470235
 10
1059.766889239073
 20
2179.276986208148
 10
1060.131841849238
 20
2177.9254876795
 10
1060.442457009926
 20
2176.560475993633
 10
1060.698237803142
 20
2175.184134878056
 10
1060.89877503418
 20
2173.798666184952
 10
1061.043747886248
 20
2172.406286368678
 10
1061.13292443371
 20
2171.009222939915
 10
1061.166162013113
 20
2169.609710902125
 10
1061.16640744319
 20
2169.478638230833
  0
LWPOLYLINE
  5
122
330
87
100
AcDbEntity
  8
P-SANR-FIXT
100
AcDbPolyline
 90
       29
 70
   128
 43
0.0
 10
570.1664074431898
 20
2169.478638230833
 10
570.1944037100556
 20
2170.878264927366
 10
570.2783477225982
 20
2172.275652519755
 10
570.4181051883046
 20
2173.668565485946
 10
570.6134525250429
 20
2175.054775462333
 10
570.8640772187464
 20
2176.432064808661
 10
571.169578323369
 20
2177.798230155784
 10
571.5294671023129
 20
2179.151085930578
 10
571.9431678103044
 20
2180.488467852398
 10
572.4100186144623
 20
2181.808236395462
 10
572.9292726530888
 20
2183.108280211637
 10
573.5000992304914
 20
2184.386519508143
 10
574.1215851459148
 20
2185.640909374786
 10
574.7927361544721
 20
2186.869443055364
 10
575.5124785577204
 20
2188.070155158065
 10
576.2796609213511
 20
2189.24112479966
 10
577.0930559172397
 20
2190.380478678518
 10
577.9513622869075
 20
2191.48639407148
 10
578.8532069232587
 20
2192.557101749835
 10
579.7971470672583
 20
2193.590888809703
 10
580.781672616039
 20
2194.586101412317
 10
581.8052085387442
 20
2195.541147429814
 10
582.8661173962396
 20
2196.454498992297
 10
583.9627019606686
 20
2197.324694932107
 10
585.0932079306541
 20
2198.150343121369
 10
586.255826737805
 20
2198.93012269911
 10
587.4486984400427
 20
2199.66278618435
 10
588.6699146971091
 20
2200.347161471807
 10
588.7856309409805
 20
2200.408723280582
  0
LINE
  5
123
330
87
100
AcDbEntity
  8
P-SANR-FIXT
100
AcDbLine
 10
1061.166407443189
 20
2084.028240119723
 30
0.0
 11
1061.166407443189
 21
2169.478638230833
 31
0.0
  0
LINE
  5
124
330
87
100
AcDbEntity
  8
P-SANR-FIXT
100
AcDbLine
 10
570.1664074431907
 20
2169.478638230833
 30
0.0
 11
570.1664074431907
 21
2084.028232561627
 31
0.0
  0
LINE
  5
125
330
87
100
AcDbEntity
  8
P-SANR-FIXT
100
AcDbLine
 10
1061.166407443189
 20
1600.584510639091
 30
0.0
 11
1061.166407443189
 21
1915.971767438364
 31
0.0
  0
LINE
  5
126
330
87
100
AcDbEntity
  8
P-SANR-FIXT
100
AcDbLine
 10
570.1664074431907
 20
1915.971759880265
 30
0.0
 11
570.1664074431907
 21
1600.584510639091
 31
0.0
  0
LWPOLYLINE
  5
127
330
87
100
AcDbEntity
  8
P-SANR-FIXT
100
AcDbPolyline
 90
       29
 70
   128
 43
0.0
 10
1061.166407443191
 20
1600.584510639091
 10
1061.138411176325
 20
1599.184883942559
 10
1061.054467163782
 20
1597.787496350171
 10
1060.914709698076
 20
1596.39458338398
 10
1060.719362361338
 20
1595.008373407593
 10
1060.468737667634
 20
1593.631084061265
 10
1060.163236563012
 20
1592.264918714142
 10
1059.803347784068
 20
1590.912062939347
 10
1059.389647076076
 20
1589.574681017527
 10
1058.922796271918
 20
1588.254912474463
 10
1058.403542233292
 20
1586.954868658289
 10
1057.83271565589
 20
1585.676629361781
 10
1057.211229740466
 20
1584.42223949514
 10
1056.540078731909
 20
1583.193705814561
 10
1055.82033632866
 20
1581.992993711861
 10
1055.05315396503
 20
1580.822024070265
 10
1054.239758969141
 20
1579.682670191408
 10
1053.381452599473
 20
1578.576754798445
 10
1052.479607963122
 20
1577.50604712009
 10
1051.535667819122
 20
1576.472260060222
 10
1050.551142270341
 20
1575.477047457608
 10
1049.527606347637
 20
1574.522001440112
 10
1048.466697490141
 20
1573.608649877627
 10
1047.370112925712
 20
1572.738453937819
 10
1046.239606955727
 20
1571.912805748557
 10
1045.076988148576
 20
1571.133026170815
 10
1043.884116446338
 20
1570.400362685575
 10
1042.662900189272
 20
1569.715987398118
 10
1042.408703442038
 20
1569.581481421194
  0
LWPOLYLINE
  5
128
330
87
100
AcDbEntity
  8
P-SANR-FIXT
100
AcDbPolyline
 90
       29
 70
   128
 43
0.0
 10
588.9241114443422
 20
1569.581481421194
 10
587.6973130525295
 20
1570.25579914041
 10
586.4984614852008
 20
1570.978636328245
 10
585.3294746491218
 20
1571.748836599395
 10
584.1922226738601
 20
1572.565167797725
 10
583.0885249199751
 20
1573.42632396746
 10
582.0201470684303
 20
1574.330927442433
 10
580.9887982958795
 20
1575.277531050055
 10
579.9961285403497
 20
1576.264620426484
 10
579.0437258616913
 20
1577.290616439287
 10
578.1331139010216
 20
1578.353877713711
 10
577.2657494432243
 20
1579.452703258533
 10
576.443020086404
 20
1580.585335187286
 10
575.6662420220256
 20
1581.749961530499
 10
574.9366579292877
 20
1582.944719134462
 10
574.2554349871031
 20
1584.167696641878
 10
573.6236630068592
 20
1585.416937549623
 10
573.0423526889532
 20
1586.690443338734
 10
572.5124340058879
 20
1587.986176671616
 10
572.0347547145129
 20
1589.302064651345
 10
571.6100789997947
 20
1590.636002137862
 10
571.2390862522843
 20
1591.985855115744
 10
570.9223699812368
 20
1593.349464108182
 10
570.6604368651236
 20
1594.724647631675
 10
570.453705941054
 20
1596.109205685943
 10
570.3025079344065
 20
1597.500923273455
 10
570.2070847297378
 20
1598.897573942955
 10
570.1675889838194
 20
1600.296923351308
 10
570.166407443189
 20
1600.584510639091
  0
LWPOLYLINE
  5
129
330
87
100
AcDbEntity
  8
P-SANR-FIXT
100
AcDbPolyline
 90
       14
 70
   128
 43
0.0
 10
1042.40870344204
 20
1569.581481421194
 10
1026.681948319775
 20
1561.739090911111
 10
1010.654160949248
 20
1554.531875943215
 10
994.3509823711721
 20
1547.971366523997
 10
977.7984941934455
 20
1542.068058069027
 10
961.0231768661439
 20
1536.831394612527
 10
944.0518673184474
 20
1532.269753698934
 10
926.9117160252797
 20
1528.39043298061
 10
909.630143572339
 20
1525.19963854316
 10
892.2347967890111
 20
1522.702474977018
 10
874.75350451934
 20
1520.90293721119
 10
857.2142331018138
 20
1519.803904122221
 10
839.6450416291889
 20
1519.407133928604
 10
838.5117051276662
 20
1519.405672232721
  0
LWPOLYLINE
  5
12A
330
87
100
AcDbEntity
  8
P-SANR-FIXT
100
AcDbPolyline
 90
       14
 70
   128
 43
0.0
 10
791.3557280684917
 20
1519.434983774835
 10
775.2509532855253
 20
1519.757122223434
 10
757.7089053145936
 20
1520.810909950557
 10
740.2230293805684
 20
1522.565349578524
 10
722.821299154823
 20
1525.017634378191
 10
705.5315536935473
 20
1528.163841217005
 10
688.3814529011969
 20
1531.998936835178
 10
671.3984332805466
 20
1536.516785897831
 10
654.6096640401387
 20
1541.71016081022
 10
638.0420036293446
 20
1547.570753280347
 10
621.7219567705758
 20
1554.089187610452
 10
605.6756320573823
 20
1561.255035696133
 10
589.9287001862713
 20
1569.056833709084
 10
588.9241114443398
 20
1569.581481421194
  0
LWPOLYLINE
  5
12B
330
87
100
AcDbEntity
  8
P-SANR-FIXT
100
AcDbPolyline
 90
       24
 70
   128
 43
0.0
 10
838.5117051276631
 20
1519.405672232721
 10
838.4934313262172
 20
1519.405672232721
 10
838.438639156064
 20
1519.405672232721
 10
838.3474162729873
 20
1519.405672232721
 10
838.2199086141399
 20
1519.405672232721
 10
838.056320164576
 20
1519.405672232721
 10
837.8569126309178
 20
1519.405672232721
 10
837.6220050226811
 20
1519.405672232721
 10
837.3519731419285
 20
1519.405672232721
 10
837.0472489820652
 20
1519.405672232721
 10
836.7083200367424
 20
1519.405672232721
 10
836.3357285199723
 20
1519.405672232721
 10
835.930070498699
 20
1519.405672232721
 10
835.4919949392209
 20
1519.405672232721
 10
835.0222026689827
 20
1519.405672232721
 10
834.5214452553991
 20
1519.405672232721
 10
833.9905238035097
 20
1519.405672232721
 10
833.43028767438
 20
1519.405672232721
 10
832.841633126306
 20
1519.405672232721
 10
832.2255018809919
 20
1519.405672232721
 10
831.5828796169956
 20
1519.405672232721
 10
830.9147943928541
 20
1519.405672232721
 10
830.2223150024092
 20
1519.405672232721
 10
829.9343262138577
 20
1519.405672232721
  0
LWPOLYLINE
  5
12C
330
87
100
AcDbEntity
  8
P-SANR-FIXT
100
AcDbPolyline
 90
       24
 70
   128
 43
0.0
 10
801.3957498780598
 20
1519.405672232721
 10
800.7888719874799
 20
1519.405672232721
 10
800.1074831132429
 20
1519.405672232721
 10
799.450985198874
 20
1519.405672232721
 10
798.8204285009905
 20
1519.405672232721
 10
798.2168217757971
 20
1519.405672232721
 10
797.6411306652919
 20
1519.405672232721
 10
797.0942761524439
 20
1519.405672232721
 10
796.577133087818
 20
1519.405672232721
 10
796.090528789999
 20
1519.405672232721
 10
795.6352417220608
 20
1519.405672232721
 10
795.2120002461887
 20
1519.405672232721
 10
794.8214814584579
 20
1519.405672232721
 10
794.4643101056221
 20
1519.405672232721
 10
794.1410575856535
 20
1519.405672232721
 10
793.8522410336269
 20
1519.405672232721
 10
793.5983224944153
 20
1519.405672232721
 10
793.3797081835148
 20
1519.405672232721
 10
793.1967478371874
 20
1519.405672232721
 10
793.0497341529579
 20
1519.405672232721
 10
792.9389023213596
 20
1519.405672232721
 10
792.8644296496806
 20
1519.405672232721
 10
792.8264352783087
 20
1519.405672232721
 10
792.8211097587168
 20
1519.405672232721
  0
LWPOLYLINE
  5
12D
330
87
100
AcDbEntity
  8
P-SANR-FIXT
100
AcDbPolyline
 90
       10
 70
   128
 43
0.0
 10
837.1050129373244
 20
1519.405672232721
 10
837.4034858964598
 20
1519.405672232721
 10
837.6671841670658
 20
1519.405672232721
 10
837.8956858881624
 20
1519.405672232721
 10
838.0886255057404
 20
1519.405672232721
 10
838.2456943575693
 20
1519.405672232721
 10
838.3666411669933
 20
1519.405672232721
 10
838.4512724449173
 20
1519.405672232721
 10
838.4994527993502
 20
1519.405672232721
 10
838.5117051276631
 20
1519.405672232721
  0
LWPOLYLINE
  5
12E
330
87
100
AcDbEntity
  8
P-SANR-FIXT
100
AcDbPolyline
 90
       10
 70
   128
 43
0.0
 10
792.8211097587168
 20
1519.405672232721
 10
792.8393835601626
 20
1519.405672232721
 10
792.8941757303159
 20
1519.405672232721
 10
792.9853986133927
 20
1519.405672232721
 10
793.1129062722399
 20
1519.405672232721
 10
793.2764947218039
 20
1519.405672232721
 10
793.475902255462
 20
1519.405672232721
 10
793.7108098636985
 20
1519.405672232721
 10
793.9808417444512
 20
1519.405672232721
 10
794.2278019490434
 20
1519.405672232721
  0
SPLINE
  5
12F
330
87
100
AcDbEntity
  8
P-SANR-FIXT
100
AcDbSpline
210
0.0
220
0.0
230
1.0
 70
     8
 71
     3
 72
    13
 73
     9
 74
     0
 42
0.000000001
 43
0.0000000001
 40
-1.0
 40
-1.0
 40
-1.0
 40
-1.0
 40
-0.8333333333333332
 40
-0.6666666666666666
 40
-0.5
 40
-0.3333333333333333
 40
-0.1666666666666666
 40
-0.0656053075340047
 40
-0.0656053075340047
 40
-0.0656053075340047
 40
-0.0656053075340047
 10
588.7866258379403
 20
2200.408723280581
 30
0.0
 10
600.3920209102663
 20
2206.552824891113
 30
0.0
 10
624.020817758219
 20
2217.82864541859
 30
0.0
 10
660.825142087922
 20
2231.75180005704
 30
0.0
 10
698.6692686317826
 20
2242.544662758763
 30
0.0
 10
737.1897688244926
 20
2250.136404013892
 30
0.0
 10
771.408841986415
 20
2253.925536569155
 30
0.0
 10
792.3650995315894
 20
2254.840247664223
 30
0.0
 10
800.2711424410435
 20
2254.984009740288
 30
0.0
  0
LWPOLYLINE
  5
130
330
87
100
AcDbEntity
  8
P-SANR-FIXT
100
AcDbPolyline
 90
        7
 70
   128
 43
0.0
 10
826.8946421266074
 20
2254.969739961804
 10
854.8078188290096
 20
2253.947257768187
 10
893.9986168317194
 20
2249.598012755701
 10
932.5508173131163
 20
2242.011142517664
 10
970.3343724294262
 20
2231.230084734253
 10
1007.085142285194
 20
2217.330216059796
 10
1042.546189048436
 20
2200.408723280581
  0
LWPOLYLINE
  5
131
330
87
100
AcDbEntity
  8
P-SANR-FIXT
100
AcDbPolyline
 90
        6
 70
   128
 43
0.0
 10
1042.546189048435
 20
2200.408723280581
 10
1048.818458394427
 20
2196.158981676912
 10
1054.027403145685
 20
2190.661465006343
 10
1057.930964797318
 20
2184.174001583137
 10
1060.347805521355
 20
2176.999872100196
 10
1061.165488001546
 20
2169.478638230833
  0
SPLINE
  5
132
330
87
100
AcDbEntity
  8
P-SANR-FIXT
100
AcDbSpline
210
0.0
220
0.0
230
1.0
 70
     8
 71
     3
 72
    12
 73
     8
 74
     0
 42
0.000000001
 43
0.0000000001
 40
-1.0
 40
-1.0
 40
-1.0
 40
-1.0
 40
-0.85
 40
-0.7
 40
-0.4
 40
-0.2
 40
0.0
 40
0.0
 40
0.0
 40
0.0
 10
570.1673268848295
 20
2169.478638230833
 30
0.0
 10
570.1718527243967
 20
2171.402334746476
 30
0.0
 10
570.4777126577341
 20
2175.174266753957
 30
0.0
 10
572.313072539435
 20
2182.540834089923
 30
0.0
 10
576.2036653055288
 20
2189.901900139278
 30
0.0
 10
582.3503988345912
 20
2196.379008799777
 30
0.0
 10
586.5186486234878
 20
2199.200105257174
 30
0.0
 10
588.7866258379403
 20
2200.408723280581
 30
0.0
  0
LINE
  5
133
330
87
100
AcDbEntity
  8
P-SANR-FIXT
100
AcDbLine
 10
1061.165488001545
 20
2169.478638230832
 30
0.0
 11
1061.165488001545
 21
2084.138773330491
 31
0.0
  0
LINE
  5
134
330
87
100
AcDbEntity
  8
P-SANR-FIXT
100
AcDbLine
 10
570.1673268848305
 20
2084.138769207319
 30
0.0
 11
570.1673268848305
 21
2169.478638230832
 31
0.0
  0
LINE
  5
135
330
87
100
AcDbEntity
  8
P-SANR-FIXT
100
AcDbLine
 10
1061.165488001545
 20
1915.86123079267
 30
0.0
 11
1061.165488001545
 21
1600.584510639091
 31
0.0
  0
LINE
  5
136
330
87
100
AcDbEntity
  8
P-SANR-FIXT
100
AcDbLine
 10
570.1673268848305
 20
1600.584510639091
 30
0.0
 11
570.1673268848305
 21
1915.861226669495
 31
0.0
  0
LWPOLYLINE
  5
137
330
87
100
AcDbEntity
  8
P-SANR-FIXT
100
AcDbPolyline
 90
        6
 70
   128
 43
0.0
 10
1061.165488001547
 20
1600.584510639091
 10
1060.338713988103
 20
1593.022076287144
 10
1057.898675591539
 20
1585.819551499026
 10
1053.961771128994
 20
1579.315634337934
 10
1048.714149364613
 20
1573.815953424117
 10
1042.407707937448
 20
1569.581481421193
  0
SPLINE
  5
138
330
87
100
AcDbEntity
  8
P-SANR-FIXT
100
AcDbSpline
210
0.0
220
0.0
230
1.0
 70
     8
 71
     3
 72
    12
 73
     8
 74
     0
 42
0.000000001
 43
0.0000000001
 40
-1.0
 40
-1.0
 40
-1.0
 40
-1.0
 40
-0.85
 40
-0.7
 40
-0.4
 40
-0.2
 40
0.0
 40
0.0
 40
0.0
 40
0.0
 10
588.9251069489278
 20
1569.581481421193
 30
0.0
 10
587.2161441342883
 20
1570.481948308063
 30
0.0
 10
584.0046409166713
 20
1572.512492846081
 30
0.0
 10
578.3125994294079
 20
1577.583415857391
 30
0.0
 10
573.5911552663135
 20
1584.484405689301
 30
0.0
 10
570.7207010769516
 20
1592.979677262051
 30
0.0
 10
570.1740408254575
 20
1598.003714261137
 30
0.0
 10
570.1673268848305
 20
1600.584510639091
 30
0.0
  0
LINE
  5
139
330
87
100
AcDbEntity
  8
P-SANR-FIXT
100
AcDbLine
 10
1042.40770793745
 20
1569.581481421194
 30
0.0
 11
1014.298224340882
 21
1556.103627395022
 31
0.0
  0
LWPOLYLINE
  5
13A
330
87
100
AcDbEntity
  8
P-SANR-FIXT
100
AcDbPolyline
 90
        6
 70
   128
 43
0.0
 10
1014.04197169128
 20
1555.9918575768
 10
1012.117335541396
 20
1555.158577183905
 10
980.8158558953239
 20
1543.089267391752
 10
948.6855617406247
 20
1533.443596915324
 10
915.913516873106
 20
1526.277553680207
 10
914.705018161044
 20
1526.063016842156
  0
LINE
  5
13B
330
87
100
AcDbEntity
  8
P-SANR-FIXT
100
AcDbLine
 10
898.3651172752347
 20
1523.501891725716
 30
0.0
 11
892.599906436258
 21
1522.747954958299
 31
0.0
  0
LWPOLYLINE
  5
13C
330
87
100
AcDbEntity
  8
P-SANR-FIXT
100
AcDbPolyline
 90
        3
 70
   128
 43
0.0
 10
891.0282500599633
 20
1522.555867997282
 10
882.6904224377599
 20
1521.632737917827
 10
859.4423809890558
 20
1519.914435225485
  0
LWPOLYLINE
  5
13D
330
87
100
AcDbEntity
  8
P-SANR-FIXT
100
AcDbPolyline
 90
        3
 70
   128
 43
0.0
 10
857.3766332938772
 20
1519.818329086053
 10
849.2063804644811
 20
1519.536014280864
 10
829.5535992299885
 20
1519.445673199549
  0
SPLINE
  5
13E
330
87
100
AcDbEntity
  8
P-SANR-FIXT
100
AcDbSpline
210
0.0
220
0.0
230
1.0
 70
     8
 71
     3
 72
     8
 73
     4
 74
     0
 42
0.000000001
 43
0.0000000001
 40
-0.929027622736039
 40
-0.929027622736039
 40
-0.929027622736039
 40
-0.929027622736039
 40
-0.8214285714285951
 40
-0.8214285714285951
 40
-0.8214285714285951
 40
-0.8214285714285951
 10
798.9920410964685
 20
1519.435436069777
 30
0.0
 10
790.567532109019
 20
1519.324820200005
 30
0.0
 10
782.1502370623383
 20
1519.464446429662
 30
0.0
 10
773.7386715767827
 20
1519.829764583449
 30
0.0
  0
SPLINE
  5
13F
330
87
100
AcDbEntity
  8
P-SANR-FIXT
100
AcDbSpline
210
0.0
220
0.0
230
1.0
 70
     8
 71
     3
 72
     8
 73
     4
 74
     0
 42
0.000000001
 43
0.0000000001
 40
-0.8124691645107819
 40
-0.8124691645107819
 40
-0.8124691645107819
 40
-0.8124691645107819
 40
-0.7861332999581937
 40
-0.7861332999581937
 40
-0.7861332999581937
 40
-0.7861332999581937
 10
771.6355943921372
 20
1519.918139028536
 30
0.0
 10
769.5773697080303
 20
1520.018053847444
 30
0.0
 10
767.5199970283188
 20
1520.133293719179
 30
0.0
 10
765.4628008586158
 20
1520.261119379746
 30
0.0
  0
SPLINE
  5
140
330
87
100
AcDbEntity
  8
P-SANR-FIXT
100
AcDbSpline
210
0.0
220
0.0
230
1.0
 70
     8
 71
     3
 72
     8
 73
     4
 74
     0
 42
0.000000001
 43
0.0000000001
 40
-0.7857142857142857
 40
-0.7857142857142857
 40
-0.7857142857142857
 40
-0.7857142857142857
 40
-0.6785714285714497
 40
-0.6785714285714497
 40
-0.6785714285714497
 40
-0.6785714285714497
 10
765.3646085236297
 20
1520.267230200341
 30
0.0
 10
756.9963427907701
 20
1520.792754968782
 30
0.0
 10
748.6303150572332
 20
1521.527428656593
 30
0.0
 10
740.2962038098857
 20
1522.514674743371
 30
0.0
  0
SPLINE
  5
141
330
87
100
AcDbEntity
  8
P-SANR-FIXT
100
AcDbSpline
210
0.0
220
0.0
230
1.0
 70
     8
 71
     3
 72
    11
 73
     7
 74
     0
 42
0.000000001
 43
0.0000000001
 40
-0.6718303584624092
 40
-0.6718303584624092
 40
-0.6718303584624092
 40
-0.6718303584624092
 40
-0.5714285714285714
 40
-0.2857142857142857
 40
-0.1428571428571428
 40
-0.1339285714288011
 40
-0.1339285714288011
 40
-0.1339285714288011
 40
-0.1339285714288011
 10
738.7377460491399
 20
1522.750671547979
 30
0.0
 10
730.9354802229886
 20
1523.717613570252
 30
0.0
 10
701.0158974557292
 20
1528.215384174101
 30
0.0
 10
660.9139629539375
 20
1538.851558125031
 30
0.0
 10
628.7415275061277
 20
1550.78427236416
 30
0.0
 10
617.9439111626814
 20
1555.738623982007
 30
0.0
 10
617.3098441860235
 20
1556.032485152257
 30
0.0
  0
SPLINE
  5
142
330
87
100
AcDbEntity
  8
P-SANR-FIXT
100
AcDbSpline
210
0.0
220
0.0
230
1.0
 70
     8
 71
     3
 72
     8
 73
     4
 74
     0
 42
0.000000001
 43
0.0000000001
 40
-0.1327383713711376
 40
-0.1327383713711376
 40
-0.1327383713711376
 40
-0.1327383713711376
 40
0.0
 40
0.0
 40
0.0
 40
0.0
 10
617.0358474589164
 20
1556.103061110373
 30
0.0
 10
607.5166776569046
 20
1560.258575019485
 30
0.0
 10
598.1501463978506
 20
1564.749897167993
 30
0.0
 10
588.9251069489278
 20
1569.581481421193
 30
0.0
  0
LINE
  5
143
330
87
100
AcDbEntity
  8
P-SANR-FIXT
100
AcDbLine
 10
879.31381674373
 20
1552.08243814334
 30
0.0
 11
897.6664074433008
 21
1556.999999999995
 31
0.0
  0
LINE
  5
144
330
87
100
AcDbEntity
  8
P-SANR-FIXT
100
AcDbLine
 10
897.6664074433008
 20
1556.999999999995
 30
0.0
 11
916.018998142872
 21
1561.917561856649
 31
0.0
  0
LINE
  5
145
330
87
100
AcDbEntity
  8
P-SANR-FIXT
100
AcDbLine
 10
881.9020071945969
 20
1542.423179880423
 30
0.0
 11
879.31381674373
 21
1552.08243814334
 31
0.0
  0
LINE
  5
146
330
87
100
AcDbEntity
  8
P-SANR-FIXT
100
AcDbLine
 10
900.2545978941677
 20
1547.340741737077
 30
0.0
 11
897.6664074433008
 21
1556.999999999995
 31
0.0
  0
LINE
  5
147
330
87
100
AcDbEntity
  8
P-SANR-FIXT
100
AcDbLine
 10
918.6071885937389
 20
1552.258303593731
 30
0.0
 11
916.018998142872
 21
1561.917561856649
 31
0.0
  0
LINE
  5
148
330
87
100
AcDbEntity
  8
P-SANR-FIXT
100
AcDbLine
 10
900.2545978941677
 20
1547.340741737077
 30
0.0
 11
918.6071885937389
 21
1552.258303593731
 31
0.0
  0
LINE
  5
149
330
87
100
AcDbEntity
  8
P-SANR-FIXT
100
AcDbLine
 10
881.9020071945969
 20
1542.423179880423
 30
0.0
 11
900.2545978941677
 21
1547.340741737077
 31
0.0
  0
LINE
  5
14A
330
87
100
AcDbEntity
  8
P-SANR-FIXT
100
AcDbLine
 10
889.1464508920208
 20
1544.364322718372
 30
0.0
 11
887.7322373296179
 21
1541.914832975477
 31
0.0
  0
LINE
  5
14B
330
87
100
AcDbEntity
  8
P-SANR-FIXT
100
AcDbLine
 10
913.8122346394048
 20
1548.902947193317
 30
0.0
 11
913.7524899266109
 21
1548.937440819331
 31
0.0
  0
LINE
  5
14C
330
87
100
AcDbEntity
  8
P-SANR-FIXT
100
AcDbLine
 10
913.7494434816643
 20
1548.939199685142
 30
0.0
 11
911.3627448967477
 21
1550.317160755634
 31
0.0
  0
LINE
  5
14D
330
87
100
AcDbEntity
  8
P-SANR-FIXT
100
AcDbLine
 10
887.7322373296413
 20
1541.914832975483
 30
0.0
 11
888.6381039874931
 21
1538.534092583535
 31
0.0
  0
LINE
  5
14E
330
87
100
AcDbEntity
  8
P-SANR-FIXT
100
AcDbLine
 10
914.7181012972334
 20
1545.522206801362
 30
0.0
 11
913.8122346393815
 21
1548.90294719331
 31
0.0
  0
LINE
  5
14F
330
87
100
AcDbEntity
  8
P-SANR-FIXT
100
AcDbLine
 10
888.6381039874605
 20
1538.534092583526
 30
0.0
 11
888.6978487002654
 21
1538.499598957506
 31
0.0
  0
LINE
  5
150
330
87
100
AcDbEntity
  8
P-SANR-FIXT
100
AcDbLine
 10
888.7008951452106
 20
1538.497840091697
 30
0.0
 11
891.0875937302783
 21
1537.119879021167
 31
0.0
  0
LINE
  5
151
330
87
100
AcDbEntity
  8
P-SANR-FIXT
100
AcDbLine
 10
913.3038877348688
 20
1543.072717058576
 30
0.0
 11
914.718101297266
 21
1545.522206801371
 31
0.0
  0
LINE
  5
152
330
87
100
AcDbEntity
  8
P-SANR-FIXT
100
AcDbLine
 10
891.0875937303165
 20
1537.119879021178
 30
0.0
 11
891.8640508656293
 21
1534.222101542322
 31
0.0
  0
LINE
  5
153
330
87
100
AcDbEntity
  8
P-SANR-FIXT
100
AcDbLine
 10
914.0803448701438
 20
1540.17493957971
 30
0.0
 11
913.303887734831
 21
1543.072717058566
 31
0.0
  0
LINE
  5
154
330
87
100
AcDbEntity
  8
P-SANR-FIXT
100
AcDbLine
 10
888.4833104736072
 20
1533.316234884451
 30
0.0
 11
889.4124403751415
 21
1529.848674885131
 31
0.0
  0
LINE
  5
155
330
87
100
AcDbEntity
  8
P-SANR-FIXT
100
AcDbLine
 10
918.3902151637004
 20
1537.613246238262
 30
0.0
 11
917.4610852621661
 21
1541.080806237582
 31
0.0
  0
LINE
  5
156
330
87
100
AcDbEntity
  8
P-SANR-FIXT
100
AcDbLine
 10
896.1739211587527
 20
1531.660408200738
 30
0.0
 11
898.2769388097155
 21
1523.811839478217
 31
0.0
  0
LINE
  5
157
330
87
100
AcDbEntity
  8
P-SANR-FIXT
100
AcDbLine
 10
898.27829863146
 20
1523.806764554378
 30
0.0
 11
898.3506197984981
 21
1523.536858284532
 31
0.0
  0
LINE
  5
158
330
87
100
AcDbEntity
  8
P-SANR-FIXT
100
AcDbLine
 10
913.8054330198446
 20
1527.677963006411
 30
0.0
 11
911.6287343800992
 21
1535.801512922618
 31
0.0
  0
LINE
  5
159
330
87
100
AcDbEntity
  8
P-SANR-FIXT
100
AcDbLine
 10
887.7484364210712
 20
1541.919173508949
 30
0.0
 11
913.7960355479478
 21
1548.898606659843
 31
0.0
  0
LINE
  5
15A
330
87
100
AcDbEntity
  8
P-SANR-FIXT
100
AcDbLine
 10
888.6543030788899
 20
1538.538433116993
 30
0.0
 11
914.7019022058323
 21
1545.517866267904
 31
0.0
  0
LINE
  5
15B
330
87
100
AcDbEntity
  8
P-SANR-FIXT
100
AcDbLine
 10
891.1066561690766
 20
1537.12498678625
 30
0.0
 11
913.2848252960666
 21
1543.067609293493
 31
0.0
  0
LINE
  5
15C
330
87
100
AcDbEntity
  8
P-SANR-FIXT
100
AcDbLine
 10
888.4978902295655
 20
1533.320141518285
 30
0.0
 11
917.4465055062038
 21
1541.076899603746
 31
0.0
  0
LINE
  5
15D
330
87
100
AcDbEntity
  8
P-SANR-FIXT
100
AcDbLine
 10
889.4270201310998
 20
1529.852581518966
 30
0.0
 11
918.3756354077381
 21
1537.609339604427
 31
0.0
  0
LINE
  5
15E
330
87
100
AcDbEntity
  8
P-SANR-FIXT
100
AcDbLine
 10
898.3506197984961
 20
1523.536858284531
 30
0.0
 11
913.7780391238235
 21
1527.670622834095
 31
0.0
  0
LINE
  5
15F
330
87
100
AcDbEntity
  8
P-SANR-FIXT
100
AcDbLine
 10
804.6664074431896
 20
2300.000000000011
 30
0.0
 11
803.7650726445596
 21
2299.479614111392
 31
0.0
  0
LINE
  5
160
330
87
100
AcDbEntity
  8
P-SANR-FIXT
100
AcDbLine
 10
803.6098127884752
 20
2299.389974791688
 30
0.0
 11
802.9647015210411
 21
2299.017519627778
 31
0.0
  0
LINE
  5
161
330
87
100
AcDbEntity
  8
P-SANR-FIXT
100
AcDbLine
 10
828.3681133653402
 20
2299.017519627776
 30
0.0
 11
827.7230020979057
 21
2299.389974791687
 31
0.0
  0
LINE
  5
162
330
87
100
AcDbEntity
  8
P-SANR-FIXT
100
AcDbLine
 10
827.5677422418214
 20
2299.479614111392
 30
0.0
 11
826.6664074431902
 21
2300.000000000011
 31
0.0
  0
LINE
  5
163
330
87
100
AcDbEntity
  8
P-SANR-FIXT
100
AcDbLine
 10
831.1664074431545
 20
2275.000000000023
 30
0.0
 11
831.1664074431545
 21
2291.499999999948
 31
0.0
  0
LINE
  5
164
330
87
100
AcDbEntity
  8
P-SANR-FIXT
100
AcDbLine
 10
800.1664074432264
 20
2291.499999999948
 30
0.0
 11
800.1664074432264
 21
2275.000000000023
 31
0.0
  0
LINE
  5
165
330
87
100
AcDbEntity
  8
P-SANR-FIXT
100
AcDbLine
 10
825.716976567225
 20
2300.00000000001
 30
0.0
 11
825.1926868848173
 21
2300.00000000001
 31
0.0
  0
LINE
  5
166
330
87
100
AcDbEntity
  8
P-SANR-FIXT
100
AcDbLine
 10
825.1926868848173
 20
2300.00000000001
 30
0.0
 11
824.6807612142326
 21
2300.00000000001
 31
0.0
  0
LINE
  5
167
330
87
100
AcDbEntity
  8
P-SANR-FIXT
100
AcDbLine
 10
816.7265166919202
 20
2300.00000000001
 30
0.0
 11
815.6664074431882
 21
2300.00000000001
 31
0.0
  0
LINE
  5
168
330
87
100
AcDbEntity
  8
P-SANR-FIXT
100
AcDbLine
 10
815.6664074431882
 20
2300.00000000001
 30
0.0
 11
814.6062981943611
 21
2300.00000000001
 31
0.0
  0
LINE
  5
169
330
87
100
AcDbEntity
  8
P-SANR-FIXT
100
AcDbLine
 10
806.6520536720853
 20
2300.00000000001
 30
0.0
 11
806.1401280015589
 21
2300.00000000001
 31
0.0
  0
LINE
  5
16A
330
87
100
AcDbEntity
  8
P-SANR-FIXT
100
AcDbLine
 10
806.1401280015589
 20
2300.00000000001
 30
0.0
 11
805.6158383191489
 21
2300.00000000001
 31
0.0
  0
LINE
  5
16B
330
87
100
AcDbEntity
  8
P-SANR-FIXT
100
AcDbLine
 10
804.6664074431877
 20
2300.00000000001
 30
0.0
 11
806.1401280015589
 21
2300.00000000001
 31
0.0
  0
LINE
  5
16C
330
87
100
AcDbEntity
  8
P-SANR-FIXT
100
AcDbLine
 10
806.1401280015589
 20
2300.00000000001
 30
0.0
 11
815.666407443188
 21
2300.00000000001
 31
0.0
  0
LINE
  5
16D
330
87
100
AcDbEntity
  8
P-SANR-FIXT
100
AcDbLine
 10
815.666407443188
 20
2300.00000000001
 30
0.0
 11
825.1926868848171
 21
2300.00000000001
 31
0.0
  0
LINE
  5
16E
330
87
100
AcDbEntity
  8
P-SANR-FIXT
100
AcDbLine
 10
825.1926868848171
 20
2300.00000000001
 30
0.0
 11
826.6664074431883
 21
2300.00000000001
 31
0.0
  0
LINE
  5
16F
330
87
100
AcDbEntity
  8
P-SANR-FIXT
100
AcDbLine
 10
802.9647015210313
 20
2299.017519627772
 30
0.0
 11
802.9647015210313
 21
2291.499999999947
 31
0.0
  0
SPLINE
  5
170
330
87
100
AcDbEntity
  8
P-SANR-FIXT
100
AcDbSpline
210
0.0
220
0.0
230
1.0
 70
     8
 71
     3
 72
     9
 73
     5
 74
     0
 42
0.000000001
 43
0.0000000001
 40
0.0
 40
0.0
 40
0.0
 40
0.0
 40
0.5
 40
1.0
 40
1.0
 40
1.0
 40
1.0
 10
809.3155544821099
 20
2299.017519627778
 30
0.0
 10
808.7901585857462
 20
2299.334644458349
 30
0.0
 10
807.7355249426267
 20
2299.815516017626
 30
0.0
 10
806.6732075987237
 20
2299.989631373171
 30
0.0
 10
806.1401280015763
 20
2300.00000000001
 30
0.0
  0
SPLINE
  5
171
330
87
100
AcDbEntity
  8
P-SANR-FIXT
100
AcDbSpline
210
0.0
220
0.0
230
1.0
 70
     8
 71
     3
 72
     9
 73
     5
 74
     0
 42
0.000000001
 43
0.0000000001
 40
0.0
 40
0.0
 40
0.0
 40
0.0
 40
0.5
 40
1.0
 40
1.0
 40
1.0
 40
1.0
 10
806.1401280015763
 20
2300.00000000001
 30
0.0
 10
805.6070484044267
 20
2299.98963137317
 30
0.0
 10
804.5447310605197
 20
2299.815516017624
 30
0.0
 10
803.4900974173968
 20
2299.334644458344
 30
0.0
 10
802.9647015210313
 20
2299.017519627772
 30
0.0
  0
LINE
  5
172
330
87
100
AcDbEntity
  8
P-SANR-FIXT
100
AcDbLine
 10
809.3155544821099
 20
2291.499999999947
 30
0.0
 11
809.3155544821099
 21
2299.017519627778
 31
0.0
  0
SPLINE
  5
173
330
87
100
AcDbEntity
  8
P-SANR-FIXT
100
AcDbSpline
210
0.0
220
0.0
230
1.0
 70
     8
 71
     3
 72
     9
 73
     5
 74
     0
 42
0.000000001
 43
0.0000000001
 40
0.0
 40
0.0
 40
0.0
 40
0.0
 40
0.5
 40
1.0
 40
1.0
 40
1.0
 40
1.0
 10
822.0172604042671
 20
2299.017519627778
 30
0.0
 10
820.9664686115381
 20
2299.334644458351
 30
0.0
 10
818.8572013252958
 20
2299.815516017629
 30
0.0
 10
816.7325666374853
 20
2299.989631373172
 30
0.0
 10
815.666407443188
 20
2300.00000000001
 30
0.0
  0
SPLINE
  5
174
330
87
100
AcDbEntity
  8
P-SANR-FIXT
100
AcDbSpline
210
0.0
220
0.0
230
1.0
 70
     8
 71
     3
 72
     9
 73
     5
 74
     0
 42
0.000000001
 43
0.0000000001
 40
0.0
 40
0.0
 40
0.0
 40
0.0
 40
0.5
 40
1.0
 40
1.0
 40
1.0
 40
1.0
 10
815.666407443188
 20
2300.00000000001
 30
0.0
 10
814.6002482488908
 20
2299.989631373172
 30
0.0
 10
812.4756135610809
 20
2299.815516017629
 30
0.0
 10
810.3663462748389
 20
2299.334644458351
 30
0.0
 10
809.3155544821099
 20
2299.017519627778
 30
0.0
  0
LINE
  5
175
330
87
100
AcDbEntity
  8
P-SANR-FIXT
100
AcDbLine
 10
822.0172604042671
 20
2291.499999999947
 30
0.0
 11
822.0172604042671
 21
2299.017519627778
 31
0.0
  0
SPLINE
  5
176
330
87
100
AcDbEntity
  8
P-SANR-FIXT
100
AcDbSpline
210
0.0
220
0.0
230
1.0
 70
     8
 71
     3
 72
     9
 73
     5
 74
     0
 42
0.000000001
 43
0.0000000001
 40
0.0
 40
0.0
 40
0.0
 40
0.0
 40
0.5
 40
1.0
 40
1.0
 40
1.0
 40
1.0
 10
828.3681133653459
 20
2299.017519627771
 30
0.0
 10
827.8427174689804
 20
2299.334644458344
 30
0.0
 10
826.7880838258575
 20
2299.815516017624
 30
0.0
 10
825.7257664819503
 20
2299.98963137317
 30
0.0
 10
825.1926868848009
 20
2300.00000000001
 30
0.0
  0
SPLINE
  5
177
330
87
100
AcDbEntity
  8
P-SANR-FIXT
100
AcDbSpline
210
0.0
220
0.0
230
1.0
 70
     8
 71
     3
 72
     9
 73
     5
 74
     0
 42
0.000000001
 43
0.0000000001
 40
0.0
 40
0.0
 40
0.0
 40
0.0
 40
0.5
 40
1.0
 40
1.0
 40
1.0
 40
1.0
 10
825.1926868848009
 20
2300.00000000001
 30
0.0
 10
824.6596072876533
 20
2299.98963137317
 30
0.0
 10
823.5972899437502
 20
2299.815516017625
 30
0.0
 10
822.542656300631
 20
2299.334644458349
 30
0.0
 10
822.0172604042671
 20
2299.017519627778
 30
0.0
  0
LINE
  5
178
330
87
100
AcDbEntity
  8
P-SANR-FIXT
100
AcDbLine
 10
828.3681133653459
 20
2291.499999999947
 30
0.0
 11
828.3681133653459
 21
2299.017519627771
 31
0.0
  0
LINE
  5
179
330
87
100
AcDbEntity
  8
P-SANR-FIXT
100
AcDbLine
 10
800.1664074432246
 20
2291.499999999947
 30
0.0
 11
831.1664074431527
 21
2291.499999999947
 31
0.0
  0
LINE
  5
17A
330
87
100
AcDbEntity
  8
P-SANR-FIXT
100
AcDbLine
 10
831.1664074431527
 20
2275.000000000021
 30
0.0
 11
800.1664074432246
 21
2275.000000000021
 31
0.0
  0
LINE
  5
17B
330
87
100
AcDbEntity
  8
P-SANR-FIXT
100
AcDbLine
 10
802.2164074431898
 20
2275.000000000023
 30
0.0
 11
802.2164074431898
 21
2254.997376201983
 31
0.0
  0
LINE
  5
17C
330
87
100
AcDbEntity
  8
P-SANR-FIXT
100
AcDbLine
 10
802.2164074431898
 20
2254.65515135705
 30
0.0
 11
802.2164074431898
 21
2197.018764541645
 31
0.0
  0
LINE
  5
17D
330
87
100
AcDbEntity
  8
P-SANR-FIXT
100
AcDbLine
 10
829.11640744319
 20
2197.020870115867
 30
0.0
 11
829.11640744319
 21
2254.655151356949
 31
0.0
  0
LINE
  5
17E
330
87
100
AcDbEntity
  8
P-SANR-FIXT
100
AcDbLine
 10
829.11640744319
 20
2254.997376201435
 30
0.0
 11
829.11640744319
 21
2275.000000000023
 31
0.0
  0
LWPOLYLINE
  5
17F
330
87
100
AcDbEntity
  8
P-SANR-FIXT
100
AcDbPolyline
 90
       13
 70
   128
 43
0.0
 10
841.6903640398359
 20
2196.876447926388
 10
844.818902564371
 20
2196.813868811793
 10
855.9578469309656
 20
2196.144728989231
 10
867.0611228741757
 20
2195.030685438396
 10
878.1109675210645
 20
2193.473520391316
 10
889.0897034773717
 20
2191.47572497989
 10
899.9797671075725
 20
2189.040495250603
 10
910.7637366329482
 20
2186.171727051533
 10
921.424360002716
 20
2182.874009799828
 10
931.9445824936288
 20
2179.152619139616
 10
942.307573993896
 20
2175.013508502098
 10
952.4967559277703
 20
2170.463299581331
 10
958.3026406142451
 20
2167.647526899984
  0
LWPOLYLINE
  5
180
330
87
100
AcDbEntity
  8
P-SANR-FIXT
100
AcDbPolyline
 90
       13
 70
   128
 43
0.0
 10
673.0301742721349
 20
2167.647526899984
 10
683.1113994197492
 20
2172.43216160154
 10
693.3758950185604
 20
2176.80982762423
 10
703.8072400652524
 20
2180.77352163627
 10
714.3887466329856
 20
2184.316902572783
 10
725.1034865685191
 20
2187.434301780152
 10
735.9343185736458
 20
2190.120732084655
 10
746.863915627611
 20
2192.37189577088
 10
757.8747927066521
 20
2194.184191457151
 10
768.9493347563041
 20
2195.554719856973
 10
780.0698248717305
 20
2196.481288417269
 10
791.2184726409914
 20
2196.962414826
 10
794.4080443373016
 20
2196.999301990243
  0
LWPOLYLINE
  5
181
330
87
100
AcDbEntity
  8
P-SANR-FIXT
100
AcDbPolyline
 90
       11
 70
   128
 43
0.0
 10
797.6707051771829
 20
2197.037034425105
 10
797.6850998195565
 20
2197.037034425105
 10
797.7282607183203
 20
2197.037034425105
 10
797.8001188252431
 20
2197.037034425105
 10
797.9005591826831
 20
2197.037034425105
 10
798.0294211074946
 20
2197.037034425105
 10
798.1864984480864
 20
2197.037034425105
 10
798.3715399142223
 20
2197.037034425105
 10
798.5842494790296
 20
2197.037034425105
 10
798.8242868525802
 20
2197.037034425105
 10
799.0563029812571
 20
2197.037034425105
  0
LWPOLYLINE
  5
182
330
87
100
AcDbEntity
  8
P-SANR-FIXT
100
AcDbPolyline
 90
       13
 70
   128
 43
0.0
 10
831.8367891689858
 20
2197.037034425105
 10
832.086376530883
 20
2197.037034425105
 10
832.3677276173235
 20
2197.037034425105
 10
832.6223601542436
 20
2197.037034425105
 10
832.8498667839026
 20
2197.037034425105
 10
833.0498835442261
 20
2197.037034425105
 10
833.222090451065
 20
2197.037034425105
 10
833.366212010104
 20
2197.037034425105
 10
833.4820176575927
 20
2197.037034425105
 10
833.5693221291991
 20
2197.037034425105
 10
833.627985756393
 20
2197.037034425105
 10
833.6579146898843
 20
2197.037034425105
 10
833.662109709197
 20
2197.037034425105
  0
LWPOLYLINE
  5
183
330
87
100
AcDbEntity
  8
P-SANR-FIXT
100
AcDbPolyline
 90
       80
 70
   128
 43
0.0
 10
833.662109709197
 20
2197.037034425105
 10
833.6477150668235
 20
2197.037034425105
 10
833.6045541680597
 20
2197.037034425105
 10
833.5326960611366
 20
2197.037034425105
 10
833.4322557036967
 20
2197.037034425105
 10
833.3033937788854
 20
2197.037034425105
 10
833.1463164382935
 20
2197.037034425105
 10
832.9612749721574
 20
2197.037034425105
 10
832.7485654073502
 20
2197.037034425105
 10
832.5085280337997
 20
2197.037034425105
 10
832.2415468600985
 20
2197.037034425105
 10
831.9480489991711
 20
2197.037034425105
 10
831.6285039849859
 20
2197.037034425105
 10
831.2834230213994
 20
2197.037034425105
 10
830.9133581643401
 20
2197.037034425105
 10
830.5189014386362
 20
2197.037034425105
 10
830.1006838909028
 20
2197.037034425105
 10
829.6593745800011
 20
2197.037034425105
 10
829.1956795066878
 20
2197.037034425105
 10
828.7103404841635
 20
2197.037034425105
 10
828.2041339513309
 20
2197.037034425105
 10
827.6778697306578
 20
2197.037034425105
 10
827.1323897326332
 20
2197.037034425105
 10
826.5685666088913
 20
2197.037034425105
 10
825.9873023561542
 20
2197.037034425105
 10
825.38952687323
 20
2197.037034425105
 10
824.7761964733724
 20
2197.037034425105
 10
824.1482923543845
 20
2197.037034425105
 10
823.5068190289112
 20
2197.037034425105
 10
822.8528027174325
 20
2197.037034425105
 10
822.1872897065308
 20
2197.037034425105
 10
821.5113446750555
 20
2197.037034425105
 10
820.8260489908623
 20
2197.037034425105
 10
820.1324989808579
 20
2197.037034425105
 10
819.4318041771083
 20
2197.037034425105
 10
818.7250855418264
 20
2197.037034425105
 10
818.0134736740697
 20
2197.037034425105
 10
817.2981070010248
 20
2197.037034425105
 10
816.5801299567645
 20
2197.037034425105
 10
815.8606911513993
 20
2197.037034425105
 10
815.1409415335461
 20
2197.037034425105
 10
814.4220325490552
 20
2197.037034425105
 10
813.705114298942
 20
2197.037034425105
 10
812.9913336994729
 20
2197.037034425105
 10
812.2818326473419
 20
2197.037034425105
 10
811.57774619288
 20
2197.037034425105
 10
810.8802007242172
 20
2197.037034425105
 10
810.190312165302
 20
2197.037034425105
 10
809.5091841906599
 20
2197.037034425105
 10
808.8379064597512
 20
2197.037034425105
 10
808.1775528737466
 20
2197.037034425105
 10
807.5291798575163
 20
2197.037034425105
 10
806.8938246695735
 20
2197.037034425105
 10
806.272503742684
 20
2197.037034425105
 10
805.6662110577896
 20
2197.037034425105
 10
805.0759165538503
 20
2197.037034425105
 10
804.5025645761494
 20
2197.037034425105
 10
803.9470723655433
 20
2197.037034425105
 10
803.4103285910699
 20
2197.037034425105
 10
802.893191928269
 20
2197.037034425105
 10
802.3964896854849
 20
2197.037034425105
 10
801.921016480348
 20
2197.037034425105
 10
801.4675329685584
 20
2197.037034425105
 10
801.0367646269962
 20
2197.037034425105
 10
800.629400593116
 20
2197.037034425105
 10
800.2460925624722
 20
2197.037034425105
 10
799.8874537461459
 20
2197.037034425105
 10
799.5540578897374
 20
2197.037034425105
 10
799.2464383554969
 20
2197.037034425105
 10
798.9650872690564
 20
2197.037034425105
 10
798.7104547321364
 20
2197.037034425105
 10
798.4829481024771
 20
2197.037034425105
 10
798.2829313421537
 20
2197.037034425105
 10
798.1107244353149
 20
2197.037034425105
 10
797.9666028762759
 20
2197.037034425105
 10
797.8507972287872
 20
2197.037034425105
 10
797.7634927571807
 20
2197.037034425105
 10
797.7048291299872
 20
2197.037034425105
 10
797.6749001964955
 20
2197.037034425105
 10
797.6707051771829
 20
2197.037034425105
  0
LWPOLYLINE
  5
184
330
87
100
AcDbEntity
  8
P-SANR-FIXT
100
AcDbPolyline
 90
       29
 70
   128
 43
0.0
 10
958.3026406142449
 20
2167.647526899984
 10
959.5423220263418
 20
2166.997197231965
 10
960.7550055751088
 20
2166.297813724042
 10
961.9387512255597
 20
2165.550495240635
 10
963.091665237173
 20
2164.756437331897
 10
964.2119031934718
 20
2163.916910321091
 10
965.2976729526974
 20
2163.033257272347
 10
966.3472375148538
 20
2162.106891842039
 10
967.3589178005366
 20
2161.139296017242
 10
968.3310953371019
 20
2160.132017744865
 10
969.2622148478786
 20
2159.086668455271
 10
970.1507867402774
 20
2158.004920484327
 10
970.9953894888226
 20
2156.888504398025
 10
971.7946719092882
 20
2155.739206223947
 10
972.5473553203068
 20
2154.558864594001
 10
973.2522355889841
 20
2153.349367803004
 10
973.9081850572569
 20
2152.112650787808
 10
974.5141543459041
 20
2150.850692031817
 10
975.0691740333307
 20
2149.56551039984
 10
975.5723562064346
 20
2148.259161908327
 10
976.022895881079
 20
2146.933736436196
 10
976.4200722898937
 20
2145.591354381457
 10
976.7632500353515
 20
2144.23416326904
 10
977.0518801062671
 20
2142.864334315204
 10
977.2855007560982
 20
2141.484058954061
 10
977.4637382416413
 20
2140.095545331748
 10
977.5863074209416
 20
2138.701014773857
 10
977.6530122094584
 20
2137.302698231799
 10
977.6664074431907
 20
2136.334459145124
  0
LWPOLYLINE
  5
185
330
87
100
AcDbEntity
  8
P-SANR-FIXT
100
AcDbPolyline
 90
       29
 70
   128
 43
0.0
 10
653.6664074431891
 20
2136.334459145124
 10
653.694403710055
 20
2137.734085841657
 10
653.7783477225976
 20
2139.131473434046
 10
653.918105188304
 20
2140.524386400237
 10
654.1134525250424
 20
2141.910596376623
 10
654.3640772187456
 20
2143.287885722952
 10
654.6695783233682
 20
2144.654051070074
 10
655.0294671023123
 20
2146.006906844869
 10
655.4431678103037
 20
2147.344288766689
 10
655.9100186144616
 20
2148.664057309753
 10
656.4292726530882
 20
2149.964101125927
 10
657.0000992304906
 20
2151.242340422435
 10
657.6215851459141
 20
2152.496730289076
 10
658.2927361544715
 20
2153.725263969655
 10
659.0124785577197
 20
2154.925976072355
 10
659.7796609213504
 20
2156.09694571395
 10
660.593055917239
 20
2157.236299592808
 10
661.4513622869069
 20
2158.342214985771
 10
662.3532069232581
 20
2159.412922664126
 10
663.2971470672575
 20
2160.446709723994
 10
664.2816726160384
 20
2161.441922326608
 10
665.3052085387436
 20
2162.396968344104
 10
666.3661173962388
 20
2163.310319906588
 10
667.4627019606682
 20
2164.180515846397
 10
668.5932079306533
 20
2165.006164035659
 10
669.7558267378044
 20
2165.785943613401
 10
670.9486984400419
 20
2166.518607098641
 10
672.1699146971084
 20
2167.202982386098
 10
673.0301742721351
 20
2167.647526899984
  0
LINE
  5
186
330
87
100
AcDbEntity
  8
P-SANR-FIXT
100
AcDbLine
 10
653.6664074431898
 20
2136.334459145124
 30
0.0
 11
653.6664074431898
 21
2084.159999999997
 31
0.0
  0
LINE
  5
187
330
87
100
AcDbEntity
  8
P-SANR-FIXT
100
AcDbLine
 10
653.6664074431898
 20
1915.839999999994
 30
0.0
 11
653.6664074431898
 21
1620.082188893146
 31
0.0
  0
LINE
  5
188
330
87
100
AcDbEntity
  8
P-SANR-FIXT
100
AcDbLine
 10
977.6664074431902
 20
1620.082188893146
 30
0.0
 11
977.6664074431902
 21
1915.839999999995
 31
0.0
  0
LINE
  5
189
330
87
100
AcDbEntity
  8
P-SANR-FIXT
100
AcDbLine
 10
977.6664074431902
 20
2084.159999999994
 30
0.0
 11
977.6664074431902
 21
2136.334459145124
 31
0.0
  0
LWPOLYLINE
  5
18A
330
87
100
AcDbEntity
  8
P-SANR-FIXT
100
AcDbPolyline
 90
       27
 70
   128
 43
0.0
 10
977.6664074431916
 20
1620.082188893146
 10
977.6384111763258
 20
1618.682562196614
 10
977.5544671637833
 20
1617.285174604225
 10
977.4147096980767
 20
1615.892261638034
 10
977.2193623613384
 20
1614.506051661648
 10
976.9687376676351
 20
1613.128762315319
 10
976.6632365630126
 20
1611.762596968196
 10
976.3033477840684
 20
1610.409741193402
 10
975.8896470760769
 20
1609.072359271582
 10
975.4227962719193
 20
1607.752590728518
 10
974.9035422332925
 20
1606.452546912343
 10
974.3327156558903
 20
1605.174307615836
 10
973.7112297404665
 20
1603.919917749194
 10
973.0400787319094
 20
1602.691384068615
 10
972.3203363286611
 20
1601.490671965915
 10
971.5531539650303
 20
1600.31970232432
 10
970.7397589691419
 20
1599.180348445462
 10
969.8814525994739
 20
1598.0744330525
 10
968.979607963123
 20
1597.003725374145
 10
968.0356678191232
 20
1595.969938314277
 10
967.0511422703425
 20
1594.974725711663
 10
966.0276063476374
 20
1594.019679694166
 10
964.9666974901419
 20
1593.106328131682
 10
963.8701129257128
 20
1592.236132191873
 10
962.7396069557276
 20
1591.410484002611
 10
961.5769881485764
 20
1590.63070442487
 10
961.5295887766455
 20
1590.60032345045
  0
LWPOLYLINE
  5
18B
330
87
100
AcDbEntity
  8
P-SANR-FIXT
100
AcDbPolyline
 90
       27
 70
   128
 43
0.0
 10
669.8032261097344
 20
1590.60032345045
 10
668.6393544732023
 20
1591.378231860406
 10
667.5075218492123
 20
1592.202060478431
 10
666.4095389285177
 20
1593.070491354475
 10
665.3471622495679
 20
1593.982135184393
 10
664.3220913884208
 20
1594.93553353253
 10
663.3359662397843
 20
1595.929161164911
 10
662.3903643935339
 20
1596.961428489286
 10
661.4867986109061
 20
1598.030684098141
 10
660.6267144044028
 20
1599.135217410598
 10
659.8114877252793
 20
1600.273261408978
 10
659.0424227623162
 20
1601.442995465654
 10
658.3207498553965
 20
1602.642548255665
 10
657.6476235272223
 20
1603.870000750437
 10
657.024120636326
 20
1605.123389287822
 10
656.4512386543259
 20
1606.400708713534
 10
655.9298940701852
 20
1607.699915588975
 10
655.4609209240244
 20
1609.018931460292
 10
655.0450694728349
 20
1610.355646183464
 10
654.6830049902284
 20
1611.707921300088
 10
654.3753067021407
 20
1613.073593458445
 10
654.1224668601939
 20
1614.450477874411
 10
653.9248899541989
 20
1615.836371826638
 10
653.7828920650582
 20
1617.229058180447
 10
653.6967003591025
 20
1618.62630893476
 10
653.6664527246751
 20
1620.025888786435
 10
653.6664074431883
 20
1620.082188893146
  0
LWPOLYLINE
  5
18C
330
87
100
AcDbEntity
  8
P-SANR-FIXT
100
AcDbPolyline
 90
        7
 70
   128
 43
0.0
 10
961.5295887766468
 20
1590.600323450451
 10
954.1760538091329
 20
1586.100046833881
 10
946.6484378197058
 20
1581.89743292587
 10
938.9587833881426
 20
1577.999205012161
 10
931.1193923211614
 20
1574.411599425837
 10
923.1428059721555
 20
1571.140355570522
 10
916.2929856373743
 20
1568.622433216434
  0
LWPOLYLINE
  5
18D
330
87
100
AcDbEntity
  8
P-SANR-FIXT
100
AcDbPolyline
 90
        5
 70
   128
 43
0.0
 10
875.4622834258835
 20
1558.729149561869
 10
866.9030860990766
 20
1557.696140721215
 10
858.3094258814524
 20
1557.006234779722
 10
849.6950507961422
 20
1556.660535439726
 10
846.6981500142866
 20
1556.630402090488
  0
LWPOLYLINE
  5
18E
330
87
100
AcDbEntity
  8
P-SANR-FIXT
100
AcDbPolyline
 90
       16
 70
   128
 43
0.0
 10
780.8859962887902
 20
1556.71868812434
 10
777.3523230482163
 20
1556.789371013788
 10
768.7465279074766
 20
1557.306339233034
 10
760.1682896998304
 20
1558.167033950669
 10
751.6313317764832
 20
1559.37007823875
 10
743.1493114489918
 20
1560.913547483053
 10
734.735798140479
 20
1562.794972462043
 10
726.4042516774513
 20
1565.011343297101
 10
718.1680007569481
 20
1567.559114267694
 10
710.0402216234685
 20
1570.434209483762
 10
702.0339169897924
 20
1573.632029406283
 10
694.1618952354136
 20
1577.147458205543
 10
686.4367499158636
 20
1580.974871945384
 10
678.8708396157107
 20
1585.108147580292
 10
671.4762681774605
 20
1589.540672750971
 10
669.8032261097332
 20
1590.600323450451
  0
LWPOLYLINE
  5
18F
330
87
100
AcDbEntity
  8
P-SANR-FIXT
100
AcDbPolyline
 90
        9
 70
   128
 43
0.0
 10
845.3609072007509
 20
1556.616956331803
 10
845.3371547681891
 20
1556.616956331803
 10
845.2659354693295
 20
1556.616956331803
 10
845.147363239857
 20
1556.616956331803
 10
844.9816277700451
 20
1556.616956331803
 10
844.7689942012903
 20
1556.616956331803
 10
844.5098027019433
 20
1556.616956331803
 10
844.2044679231118
 20
1556.616956331803
 10
843.9778333295908
 20
1556.616956331803
  0
LWPOLYLINE
  5
190
330
87
100
AcDbEntity
  8
P-SANR-FIXT
100
AcDbPolyline
 90
        9
 70
   128
 43
0.0
 10
787.3121803236016
 20
1556.616956331803
 10
786.9821349853793
 20
1556.616956331803
 10
786.6979783641044
 20
1556.616956331803
 10
786.4601650497543
 20
1556.616956331803
 10
786.269075492901
 20
1556.616956331803
 10
786.1250153960715
 20
1556.616956331803
 10
786.0282152246899
 20
1556.616956331803
 10
785.978829838381
 20
1556.616956331803
 10
785.971907685629
 20
1556.616956331803
  0
LWPOLYLINE
  5
191
330
87
100
AcDbEntity
  8
P-SANR-FIXT
100
AcDbPolyline
 90
       80
 70
   128
 43
0.0
 10
785.971907685629
 20
1556.616956331803
 10
785.9956601181908
 20
1556.616956331803
 10
786.0668794170504
 20
1556.616956331803
 10
786.1854516465227
 20
1556.616956331803
 10
786.3511871163348
 20
1556.616956331803
 10
786.5638206850896
 20
1556.616956331803
 10
786.8230121844365
 20
1556.616956331803
 10
787.1283469632681
 20
1556.616956331803
 10
787.4793365510726
 20
1556.616956331803
 10
787.8754194393835
 20
1556.616956331803
 10
788.3159619800724
 20
1556.616956331803
 10
788.8002593990517
 20
1556.616956331803
 10
789.3275369237626
 20
1556.616956331803
 10
789.8969510226452
 20
1556.616956331803
 10
790.5075907546097
 20
1556.616956331803
 10
791.1584792263479
 20
1556.616956331803
 10
791.8485751551541
 20
1556.616956331803
 10
792.5767745347545
 20
1556.616956331803
 10
793.3419124014826
 20
1556.616956331803
 10
794.1427646979725
 20
1556.616956331803
 10
794.9780502313894
 20
1556.616956331803
 10
795.8464327230641
 20
1556.616956331803
 10
796.7465229462555
 20
1556.616956331803
 10
797.6768809486151
 20
1556.616956331803
 10
798.6360183558049
 20
1556.616956331803
 10
799.622400752579
 20
1556.616956331803
 10
800.6344501375188
 20
1556.616956331803
 10
801.6705474475013
 20
1556.616956331803
 10
802.7290351478526
 20
1556.616956331803
 10
803.8082198840509
 20
1556.616956331803
 10
804.9063751907322
 20
1556.616956331803
 10
806.0217442536661
 20
1556.616956331803
 10
807.1525427202848
 20
1556.616956331803
 10
808.296961554266
 20
1556.616956331803
 10
809.4531699296048
 20
1556.616956331803
 10
810.6193181595456
 20
1556.616956331803
 10
811.7935406556849
 20
1556.616956331803
 10
812.973958912517
 20
1556.616956331803
 10
814.1586845126395
 20
1556.616956331803
 10
815.3458221478208
 20
1556.616956331803
 10
816.5334726510865
 20
1556.616956331803
 10
817.7197360349838
 20
1556.616956331803
 10
818.9027145311543
 20
1556.616956331803
 10
820.0805156263594
 20
1556.616956331803
 10
821.2512550900976
 20
1556.616956331803
 10
822.4130599889713
 20
1556.616956331803
 10
823.5640716829809
 20
1556.616956331803
 10
824.7024487989522
 20
1556.616956331803
 10
825.8263701763398
 20
1556.616956331803
 10
826.9340377806981
 20
1556.616956331803
 10
828.0236795801489
 20
1556.616956331803
 10
829.0935523802582
 20
1556.616956331803
 10
830.1419446127731
 20
1556.616956331803
 10
831.1671790737666
 20
1556.616956331803
 10
832.1676156068058
 20
1556.616956331803
 10
833.1416537268532
 20
1556.616956331803
 10
834.0877351807005
 20
1556.616956331803
 10
835.0043464398417
 20
1556.616956331803
 10
835.890021121795
 20
1556.616956331803
 10
836.7433423360036
 20
1556.616956331803
 10
837.5629449505565
 20
1556.616956331803
 10
838.3475177761097
 20
1556.616956331803
 10
839.0958056635092
 20
1556.616956331803
 10
839.8066115117613
 20
1556.616956331803
 10
840.4787981831391
 20
1556.616956331803
 10
841.1112903223608
 20
1556.616956331803
 10
841.703076076928
 20
1556.616956331803
 10
842.2532087158742
 20
1556.616956331803
 10
842.7608081443327
 20
1556.616956331803
 10
843.2250623114999
 20
1556.616956331803
 10
843.6452285097439
 20
1556.616956331803
 10
844.0206345627784
 20
1556.616956331803
 10
844.3506799010005
 20
1556.616956331803
 10
844.6348365222753
 20
1556.616956331803
 10
844.8726498366257
 20
1556.616956331803
 10
845.0637393934792
 20
1556.616956331803
 10
845.2077994903085
 20
1556.616956331803
 10
845.30459966169
 20
1556.616956331803
 10
845.3539850479989
 20
1556.616956331803
 10
845.3609072007509
 20
1556.616956331803
  0
LINE
  5
192
330
87
100
AcDbEntity
  8
P-SANR-FIXT
100
AcDbLine
 10
798.8164074431899
 20
1556.633087538884
 30
0.0
 11
798.8164074431899
 21
1519.735418691269
 31
0.0
  0
LINE
  5
193
330
87
100
AcDbEntity
  8
P-SANR-FIXT
100
AcDbLine
 10
798.8164074431899
 20
1519.44353436624
 30
0.0
 11
798.8164074431899
 21
1472.999999999961
 31
0.0
  0
LINE
  5
194
330
87
100
AcDbEntity
  8
P-SANR-FIXT
100
AcDbLine
 10
832.5164074431901
 20
1472.999999999961
 30
0.0
 11
832.5164074431901
 21
1519.443534366024
 31
0.0
  0
LINE
  5
195
330
87
100
AcDbEntity
  8
P-SANR-FIXT
100
AcDbLine
 10
832.5164074431901
 20
1519.735418690719
 30
0.0
 11
832.5164074431901
 21
1556.623074178719
 31
0.0
  0
LINE
  5
196
330
87
100
AcDbEntity
  8
P-SANR-FIXT
100
AcDbLine
 10
875.4622834258825
 20
1558.729149561869
 30
0.0
 11
876.9593021546208
 21
1553.142199606333
 31
0.0
  0
LINE
  5
197
330
87
100
AcDbEntity
  8
P-SANR-FIXT
100
AcDbLine
 10
917.5281868587621
 20
1564.012599500639
 30
0.0
 11
916.2929856373731
 21
1568.622433216434
 31
0.0
  0
LWPOLYLINE
  5
198
330
87
100
AcDbEntity
  8
P-SANR-FIXT
100
AcDbPolyline
 90
       28
 70
   128
 43
0.0
 10
917.5281868587617
 20
1564.01259950064
 10
917.536121852988
 20
1563.980425130009
 10
917.5427638684057
 20
1563.947959180306
 10
917.5481022792075
 20
1563.915253590127
 10
917.5521285450747
 20
1563.882360681437
 10
917.5548362248402
 20
1563.849333075875
 10
917.5562209867948
 20
1563.816223610564
 10
917.5562806156145
 20
1563.783085253585
 10
917.5550150159056
 20
1563.749971019239
 10
917.552426212358
 20
1563.716933883239
 10
917.5485183465054
 20
1563.684026697954
 10
917.5432976700987
 20
1563.651302107861
 10
917.5367725351073
 20
1563.618812465324
 10
917.5289533803546
 20
1563.586609746839
 10
917.5198527148207
 20
1563.554745469886
 10
917.5094850976286
 20
1563.523270610511
 10
917.4978671147545
 20
1563.492235521776
 10
917.4850173524927
 20
1563.461689853201
 10
917.4709563677215
 20
1563.43168247134
 10
917.4557066550169
 20
1563.402261381603
 10
917.4392926106664
 20
1563.373473651457
 10
917.4217404936396
 20
1563.34536533513
 10
917.4030783835789
 20
1563.317981399931
 10
917.38333613588
 20
1563.291365654316
 10
917.3625453339271
 20
1563.265560677798
 10
917.3407392385689
 20
1563.240607752837
 10
917.3179527349057
 20
1563.21654679879
 10
917.3137512684743
 20
1563.212314982736
  0
LWPOLYLINE
  5
199
330
87
100
AcDbEntity
  8
P-SANR-FIXT
100
AcDbPolyline
 90
       28
 70
   128
 43
0.0
 10
877.5451510822376
 20
1552.556350678717
 10
877.513319762807
 20
1552.565565957454
 10
877.4818824178979
 20
1552.576046778221
 10
877.4508893405558
 20
1552.587776373941
 10
877.4203901130928
 20
1552.600735979762
 10
877.390433527767
 20
1552.614904863081
 10
877.3610675087242
 20
1552.630260356706
 10
877.3323390353308
 20
1552.646777895123
 10
877.3042940670153
 20
1552.664431053795
 10
877.2769774697449
 20
1552.683191591432
 10
877.2504329442478
 20
1552.703029495178
 10
877.2247029561023
 20
1552.723913028617
 10
877.1998286678005
 20
1552.745808782552
 10
877.1758498728976
 20
1552.768681728446
 10
877.1528049323503
 20
1552.792495274466
 10
877.1307307131474
 20
1552.817211324018
 10
877.1096625293308
 20
1552.842790336696
 10
877.0896340855001
 20
1552.869191391534
 10
877.0706774228932
 20
1552.896372252479
 10
877.0528228681261
 20
1552.92428943595
 10
877.0360989846777
 20
1552.952898280409
 10
877.0205325271943
 20
1552.982153017809
 10
877.006148398687
 20
1553.012006846809
 10
876.9929696106926
 20
1553.042412007652
 10
876.9810172464609
 20
1553.073319858566
 10
876.9703104272252
 20
1553.104680953584
 10
876.960866281612
 20
1553.136445121644
 10
876.9593021546208
 20
1553.142199606334
  0
LINE
  5
19A
330
87
100
AcDbEntity
  8
P-SANR-FIXT
100
AcDbLine
 10
877.5451510822374
 20
1552.556350678717
 30
0.0
 11
878.8977497265122
 21
1552.193922964301
 31
0.0
  0
LINE
  5
19B
330
87
100
AcDbEntity
  8
P-SANR-FIXT
100
AcDbLine
 10
916.3235803386163
 20
1562.222144052878
 30
0.0
 11
917.3137512684743
 21
1563.212314982736
 31
0.0
  0
LWPOLYLINE
  5
19C
330
87
100
AcDbEntity
  8
P-SANR-FIXT
100
AcDbPolyline
 90
       10
 70
   128
 43
0.0
 10
916.3235803386163
 20
1562.222144052878
 10
916.2772145616662
 20
1562.17759677941
 10
916.2291044565865
 20
1562.134939275559
 10
916.1793269892823
 20
1562.09423978423
 10
916.1279617930826
 20
1562.055563415928
 10
916.075091041344
 20
1562.018972044593
 10
916.0207993159911
 20
1561.984524208611
 10
915.9651734722023
 20
1561.952275017173
 10
915.9083024994622
 20
1561.922276062105
 10
915.8502773791946
 20
1561.894575335336
  0
LINE
  5
19D
330
87
100
AcDbEntity
  8
P-SANR-FIXT
100
AcDbLine
 10
915.6358396604606
 20
1561.815601242107
 30
0.0
 11
915.6085165376172
 21
1561.80758441947
 31
0.0
  0
LWPOLYLINE
  5
19E
330
87
100
AcDbEntity
  8
P-SANR-FIXT
100
AcDbPolyline
 90
       11
 70
   128
 43
0.0
 10
879.4771828125258
 20
1552.147469173691
 10
879.4130997127352
 20
1552.142215492424
 10
879.3488577813736
 20
1552.139528654035
 10
879.2845597918264
 20
1552.139412956892
 10
879.2203086071612
 20
1552.141868586086
 10
879.1562070155672
 20
1552.146891613134
 10
879.0923575659164
 20
1552.154474002265
 10
879.028862403708
 20
1552.164603623272
 10
878.9658231076566
 20
1552.177264270925
 10
878.9033405271881
 20
1552.192435690886
 10
878.8977497265122
 20
1552.193922964301
  0
LINE
  5
19F
330
87
100
AcDbEntity
  8
P-SANR-FIXT
100
AcDbLine
 10
1133.16640744319
 20
2105.999999999994
 30
0.0
 11
1131.16640744319
 21
2105.999999999994
 31
0.0
  0
LINE
  5
1A0
330
87
100
AcDbEntity
  8
P-SANR-FIXT
100
AcDbLine
 10
1131.166407443189
 20
1893.999999999994
 30
0.0
 11
1133.166407443189
 21
1893.999999999994
 31
0.0
  0
LINE
  5
1A1
330
87
100
AcDbEntity
  8
P-SANR-FIXT
100
AcDbLine
 10
1131.16640744319
 20
2142.499999999994
 30
0.0
 11
1111.16640744319
 21
2142.499999999994
 31
0.0
  0
LINE
  5
1A2
330
87
100
AcDbEntity
  8
P-SANR-FIXT
100
AcDbLine
 10
1111.166407443189
 20
1857.499999999994
 30
0.0
 11
1131.166407443189
 21
1857.499999999994
 31
0.0
  0
LINE
  5
1A3
330
87
100
AcDbEntity
  8
P-SANR-FIXT
100
AcDbLine
 10
1111.16640744319
 20
2084.159999999993
 30
0.0
 11
977.6664074431902
 21
2084.159999999994
 31
0.0
  0
LINE
  5
1A4
330
87
100
AcDbEntity
  8
P-SANR-FIXT
100
AcDbLine
 10
977.6664074431902
 20
1915.839999999995
 30
0.0
 11
1111.166407443189
 21
1915.839999999995
 31
0.0
  0
LINE
  5
1A5
330
87
100
AcDbEntity
  8
P-SANR-FIXT
100
AcDbLine
 10
653.6664074431898
 20
2084.159999999997
 30
0.0
 11
520.1664074431894
 21
2084.159999999997
 31
0.0
  0
LINE
  5
1A6
330
87
100
AcDbEntity
  8
P-SANR-FIXT
100
AcDbLine
 10
520.166407443189
 20
1915.839999999994
 30
0.0
 11
653.6664074431898
 21
1915.839999999994
 31
0.0
  0
LINE
  5
1A7
330
87
100
AcDbEntity
  8
P-SANR-FIXT
100
AcDbLine
 10
520.1664074431898
 20
2142.499999999996
 30
0.0
 11
500.1664074431895
 21
2142.499999999996
 31
0.0
  0
LINE
  5
1A8
330
87
100
AcDbEntity
  8
P-SANR-FIXT
100
AcDbLine
 10
500.1664074431886
 20
1857.499999999996
 30
0.0
 11
520.1664074431886
 21
1857.499999999996
 31
0.0
  0
LINE
  5
1A9
330
87
100
AcDbEntity
  8
P-SANR-FIXT
100
AcDbLine
 10
500.1664074431891
 20
2105.999999999996
 30
0.0
 11
498.1664074431894
 21
2105.999999999996
 31
0.0
  0
LINE
  5
1AA
330
87
100
AcDbEntity
  8
P-SANR-FIXT
100
AcDbLine
 10
498.1664074431888
 20
1893.999999999996
 30
0.0
 11
500.1664074431884
 21
1893.999999999996
 31
0.0
  0
LINE
  5
1AB
330
87
100
AcDbEntity
  8
P-SANR-FIXT
100
AcDbLine
 10
831.826643417637
 20
1472.99999999996
 30
0.0
 11
830.6380448758462
 21
1472.99999999996
 31
0.0
  0
LINE
  5
1AC
330
87
100
AcDbEntity
  8
P-SANR-FIXT
100
AcDbLine
 10
817.1857835076343
 20
1472.99999999996
 30
0.0
 11
814.147031378941
 21
1472.99999999996
 31
0.0
  0
LINE
  5
1AD
330
87
100
AcDbEntity
  8
P-SANR-FIXT
100
AcDbLine
 10
800.6313589035508
 20
1472.99999999996
 30
0.0
 11
799.4384608061299
 21
1472.99999999996
 31
0.0
  0
LINE
  5
1AE
330
87
100
AcDbEntity
  8
P-SANR-FIXT
100
AcDbLine
 10
815.0064472234836
 20
2196.999999999995
 30
0.0
 11
815.666407443188
 21
2196.999999999995
 31
0.0
  0
LINE
  5
1AF
330
87
100
AcDbEntity
  8
P-SANR-FIXT
100
AcDbLine
 10
817.1278925284097
 20
2196.999999999995
 30
0.0
 11
817.6399323246117
 21
2196.999999999995
 31
0.0
  0
SPLINE
  5
1B0
330
87
100
AcDbEntity
  8
P-SANR-FIXT
100
AcDbSpline
210
0.0
220
0.0
230
1.0
 70
     8
 71
     3
 72
    30
 73
    26
 74
     0
 42
0.000000001
 43
0.0000000001
 40
0.0024795116099173
 40
0.0024795116099173
 40
0.0024795116099173
 40
0.0024795116099173
 40
0.0588235294117647
 40
0.1176470588235294
 40
0.1764705882352941
 40
0.2352941176470588
 40
0.3529411764705882
 40
0.4117647058823529
 40
0.4705882352941177
 40
0.5036764705882354
 40
0.5202205882352942
 40
0.5367647058823531
 40
0.5698529411764707
 40
0.6029411764705884
 40
0.636029411764706
 40
0.6525735294117647
 40
0.6691176470588236
 40
0.7022058823529413
 40
0.7352941176470589
 40
0.8014705882352942
 40
0.8345588235294117
 40
0.8676470588235293
 40
0.9007352941176471
 40
0.9338235294117646
 40
0.9975200077180094
 40
0.9975200077180094
 40
0.9975200077180094
 40
0.9975200077180094
 10
653.6678021076824
 20
2084.155357969894
 30
0.0
 10
653.6889190534458
 20
2084.101126584449
 30
0.0
 10
654.2217225944368
 20
2083.104041206839
 30
0.0
 10
656.4297529710255
 20
2078.75826329082
 30
0.0
 10
659.8125234156425
 20
2071.741962594382
 30
0.0
 10
665.279148779723
 20
2059.322453142525
 30
0.0
 10
671.2422228336569
 20
2042.896876141774
 30
0.0
 10
675.519580602123
 20
2023.538454016822
 30
0.0
 10
677.0574906020942
 20
2010.239731451935
 30
0.0
 10
677.2911171836494
 20
2000.49700973263
 30
0.0
 10
677.1562630895456
 20
1994.528695518684
 30
0.0
 10
676.8365971023658
 20
1988.666956060532
 30
0.0
 10
676.0652528337695
 20
1981.312188591757
 30
0.0
 10
674.6958374333872
 20
1972.874487859928
 30
0.0
 10
673.1761836050562
 20
1966.06405210529
 30
0.0
 10
671.8425605516294
 20
1960.889482300473
 30
0.0
 10
670.4069089477639
 20
1955.847485714419
 30
0.0
 10
668.4840285486496
 20
1949.848637148789
 30
0.0
 10
665.2886893268319
 20
1941.004076709221
 30
0.0
 10
662.0670516235539
 20
1933.31005196752
 30
0.0
 10
659.2056220964103
 20
1927.04079284903
 30
0.0
 10
657.2989693258766
 20
1923.037163050025
 30
0.0
 10
655.7366217869281
 20
1919.894490224317
 30
0.0
 10
654.1867683637605
 20
1916.824653275847
 30
0.0
 10
653.7149038082106
 20
1915.947164762336
 30
0.0
 10
653.6703977977136
 20
1915.849262079174
 30
0.0
  0
SPLINE
  5
1B1
330
87
100
AcDbEntity
  8
P-SANR-FIXT
100
AcDbSpline
210
0.0
220
0.0
230
1.0
 70
     8
 71
     3
 72
    30
 73
    26
 74
     0
 42
0.000000001
 43
0.0000000001
 40
0.0024795116099298
 40
0.0024795116099298
 40
0.0024795116099298
 40
0.0024795116099298
 40
0.0588235294117647
 40
0.1176470588235294
 40
0.1764705882352941
 40
0.2352941176470588
 40
0.3529411764705882
 40
0.4117647058823529
 40
0.4705882352941177
 40
0.5036764705882354
 40
0.5202205882352942
 40
0.5367647058823531
 40
0.5698529411764707
 40
0.6029411764705884
 40
0.636029411764706
 40
0.6525735294117647
 40
0.6691176470588236
 40
0.7022058823529413
 40
0.7352941176470589
 40
0.8014705882352942
 40
0.8345588235294117
 40
0.8676470588235293
 40
0.9007352941176471
 40
0.9338235294117646
 40
0.9975200077179959
 40
0.9975200077179959
 40
0.9975200077179959
 40
0.9975200077179959
 10
977.6650127786936
 20
1915.844642030096
 30
0.0
 10
977.6438958329302
 20
1915.898873415541
 30
0.0
 10
977.1110922919394
 20
1916.895958793151
 30
0.0
 10
974.9030619153506
 20
1921.241736709169
 30
0.0
 10
971.5202914707338
 20
1928.258037405607
 30
0.0
 10
966.0536661066537
 20
1940.677546857464
 30
0.0
 10
960.0905920527194
 20
1957.103123858214
 30
0.0
 10
955.813234284254
 20
1976.461545983166
 30
0.0
 10
954.2753242842826
 20
1989.760268548053
 30
0.0
 10
954.0416977027275
 20
1999.502990267357
 30
0.0
 10
954.1765517968316
 20
2005.471304481304
 30
0.0
 10
954.4962177840112
 20
2011.333043939456
 30
0.0
 10
955.2675620526073
 20
2018.687811408231
 30
0.0
 10
956.6369774529896
 20
2027.125512140059
 30
0.0
 10
958.1566312813205
 20
2033.935947894697
 30
0.0
 10
959.4902543347474
 20
2039.110517699514
 30
0.0
 10
960.9259059386131
 20
2044.152514285567
 30
0.0
 10
962.8487863377268
 20
2050.151362851197
 30
0.0
 10
966.0441255595451
 20
2058.995923290765
 30
0.0
 10
969.2657632628229
 20
2066.689948032466
 30
0.0
 10
972.127192789966
 20
2072.959207150956
 30
0.0
 10
974.0338455604996
 20
2076.962836949961
 30
0.0
 10
975.596193099448
 20
2080.105509775668
 30
0.0
 10
977.1460465226157
 20
2083.175346724139
 30
0.0
 10
977.6179110781651
 20
2084.052835237649
 30
0.0
 10
977.6624170886623
 20
2084.150737920811
 30
0.0
  0
SPLINE
  5
1B2
330
87
100
AcDbEntity
  8
P-SANR-FIXT
100
AcDbSpline
210
0.0
220
0.0
230
1.0
 70
     8
 71
     3
 72
    16
 73
    12
 74
     0
 42
0.000000001
 43
0.0000000001
 40
-0.9902508483805677
 40
-0.9902508483805677
 40
-0.9902508483805677
 40
-0.9902508483805677
 40
-0.8888888888888889
 40
-0.7777777777777778
 40
-0.6666666666666666
 40
-0.5555555555555556
 40
-0.4444444444444445
 40
-0.3333333333333333
 40
-0.2222222222222222
 40
-0.1111111111111111
 40
-0.0100525212256585
 40
-0.0100525212256585
 40
-0.0100525212256585
 40
-0.0100525212256585
 10
875.4724689560218
 20
1558.72941288766
 30
0.0
 10
875.541295786861
 20
1558.737626250691
 30
0.0
 10
876.4151180032811
 20
1558.913262126534
 30
0.0
 10
879.9614764206163
 20
1559.617501024035
 30
0.0
 10
885.53900130639
 20
1560.826249293012
 30
0.0
 10
892.3570597550023
 20
1562.416093322998
 30
0.0
 10
899.5727545439411
 20
1564.200915997038
 30
0.0
 10
906.3580851055837
 20
1565.953600466713
 30
0.0
 10
911.8534491339712
 20
1567.41608727669
 30
0.0
 10
915.3857908431062
 20
1568.374872217316
 30
0.0
 10
916.1493157628148
 20
1568.582183710656
 30
0.0
 10
916.2655431078679
 20
1568.614674954796
 30
0.0
  0
LINE
  5
1B3
330
87
100
AcDbEntity
  8
P-SANR-FIXT
100
AcDbLine
 10
1133.166407443188
 20
2105.999999999993
 30
0.0
 11
1133.166407443187
 21
1893.999999999993
 31
0.0
  0
LINE
  5
1B4
330
87
100
AcDbEntity
  8
P-SANR-FIXT
100
AcDbLine
 10
1131.166407443187
 20
1857.499999999993
 30
0.0
 11
1131.166407443188
 21
2142.499999999992
 31
0.0
  0
LINE
  5
1B5
330
87
100
AcDbEntity
  8
P-SANR-FIXT
100
AcDbLine
 10
1111.166407443188
 20
2142.499999999992
 30
0.0
 11
1111.166407443187
 21
1857.499999999993
 31
0.0
  0
LINE
  5
1B6
330
87
100
AcDbEntity
  8
P-SANR-FIXT
100
AcDbLine
 10
520.1664074431882
 20
2142.499999999995
 30
0.0
 11
520.1664074431871
 21
1857.499999999995
 31
0.0
  0
LINE
  5
1B7
330
87
100
AcDbEntity
  8
P-SANR-FIXT
100
AcDbLine
 10
500.166407443188
 20
2142.499999999995
 30
0.0
 11
500.166407443187
 21
1857.499999999995
 31
0.0
  0
LINE
  5
1B8
330
87
100
AcDbEntity
  8
P-SANR-FIXT
100
AcDbLine
 10
498.166407443188
 20
2105.999999999995
 30
0.0
 11
498.1664074431873
 21
1893.999999999995
 31
0.0
  0
ENDBLK
  5
1BA
330
87
100
AcDbEntity
  8
0
100
AcDbBlockEnd
  0
BLOCK
  5
1F5
330
1BC
100
AcDbEntity
  8
0
100
AcDbBlockBegin
  2
Automatic flow rate regulator valve_Caleffi_121 DN15 - 1_2__-V1-Est - Idraulica
 70
     0
 10
0.0
 20
0.0
 30
0.0
  3
Automatic flow rate regulator valve_Caleffi_121 DN15 - 1_2__-V1-Est - Idraulica
  1

  0
LWPOLYLINE
  5
1BD
330
1BC
100
AcDbEntity
  8
P-SANR-FIXT
100
AcDbPolyline
 90
       80
 70
   128
 43
0.0
 10
1061.166407443189
 20
747.2770701274523
 10
1060.970033628459
 20
757.094451670271
 10
1060.381226340482
 20
766.8961274968842
 10
1059.400927545313
 20
776.666417016882
 10
1058.030705511905
 20
786.3896898512498
 10
1056.272752303214
 20
796.0503908376399
 10
1054.129880269362
 20
805.6330649153139
 10
1051.605517548483
 20
815.1223818499424
 10
1048.703702582428
 20
824.5031607587092
 10
1045.429077656122
 20
833.7603943964872
 10
1041.786881470897
 20
842.8792731642262
 10
1037.78294076369
 20
851.8452088011553
 10
1033.423660985503
 20
860.6438577228869
 10
1028.716016054052
 20
869.26114396809
 10
1023.667537196983
 20
877.6832817170296
 10
1018.286300903515
 20
885.8967973459339
 10
1012.580916003783
 20
893.8885509819199
 10
1006.560509896542
 20
901.6457575239869
 10
1000.234713947278
 20
909.1560070964494
 10
993.6136480800813
 20
916.4072849020932
 10
986.7079045879181
 20
923.3879904432853
 10
979.5285311872302
 20
930.0869560802986
 10
972.0870133439404
 20
936.4934648971496
 10
964.3952558991593
 20
942.5972678463804
 10
956.4655640239774
 20
948.3886001453477
 10
948.3106235338171
 20
953.8581968977913
 10
939.943480593836
 20
958.9973079156925
 10
931.3775208478421
 20
963.7977117177074
 10
922.6264480041217
 20
968.251728681785
 10
913.7042619124288
 20
972.3522333309217
 10
904.6252361672122
 20
976.0926657324068
 10
895.4038952729085
 20
979.4670419923145
 10
886.0549914078342
 20
982.4699638284572
 10
876.5934808238466
 20
985.0966272064871
 10
867.0344999195323
 20
987.342830025323
 10
857.393341025198
 20
989.2049788396199
 10
847.6854279384037
 20
990.680094608512
 10
837.9262912491769
 20
991.7658174614436
 10
828.1315434943826
 20
992.4604104734584
 10
818.3168541809934
 20
992.7627624439093
 10
808.4979247182225
 20
992.6723896741421
 10
798.6904632986165
 20
992.1894367413097
 10
788.9101597683004
 20
991.3146762670804
 10
779.172660526569
 20
990.0495076816069
 10
769.4935434949869
 20
988.3959549847382
 10
759.8882931960359
 20
986.3566635080497
 10
750.3722759811839
 20
983.9348956828787
 10
740.9607154479996
 20
981.1345258211295
 10
731.6686680856433
 20
977.9600339171995
 10
722.5109991876967
 20
974.4164984809478
 10
713.5023590708652
 20
970.5095884131571
 10
704.6571596375946
 20
966.2455539365071
 10
695.9895513201035
 20
961.6312165965478
 10
687.5134004427081
 20
956.6739583486835
 10
679.2422670386634
 20
951.3817097486191
 10
671.1893831570013
 20
945.7629372651616
 10
663.3676316940759
 20
939.8266297356776
 10
655.7895257836761
 20
933.5822839858691
 10
648.4671887786825
 20
927.0398896368787
 10
641.4123348562881
 20
920.2099131240304
 10
634.636250277813
 20
913.1032809527594
 10
628.1497753330953
 20
905.7313622185402
 10
621.963286998339
 20
898.1059504187545
 10
616.0866823351657
 20
890.2392445856142
 10
610.529362657428
 20
882.1438297703119
 10
605.3002184911122
 20
873.8326569096216
 10
600.4076153513927
 20
865.319022107165
 10
595.8593803595936
 20
856.6165453624815
 10
591.6627897214631
 20
847.7391487819321
 10
587.8245570867977
 20
838.7010343063032
 10
584.3508228090334
 20
829.5166609907269
 10
581.2471441219905
 20
820.2007218732795
 10
578.5184862494861
 20
810.7681204692548
 10
576.169214462033
 20
801.2339469287184
 10
574.2030870933404
 20
791.6134538954861
 10
572.6232495277796
 20
781.9220321061494
 10
571.4322291684416
 20
772.1751857681778
 10
570.6319313938308
 20
762.3885077564956
 10
570.2236365096653
 20
752.5776546682084
 10
570.1664074431891
 20
747.2770701274531
  0
LINE
  5
1BE
330
1BC
100
AcDbEntity
  8
P-SANR-FIXT
100
AcDbLine
 10
1061.165488001548
 20
746.6051735576394
 30
0.0
 11
1061.166407443189
 21
747.2770701274523
 31
0.0
  0
LINE
  5
1BF
330
1BC
100
AcDbEntity
  8
P-SANR-FIXT
100
AcDbLine
 10
570.1664074431891
 20
747.2770701274515
 30
0.0
 11
570.1673268848305
 21
746.6051735576439
 31
0.0
  0
SPLINE
  5
1C0
330
1BC
100
AcDbEntity
  8
P-SANR-FIXT
100
AcDbSpline
210
0.0
220
0.0
230
1.0
 70
    24
 71
     3
 72
    12
 73
     8
 74
     0
 42
0.000000001
 43
0.0000000001
 40
-1.0
 40
-1.0
 40
-1.0
 40
-1.0
 40
-0.8333333333333332
 40
-0.6666666666666666
 40
-0.5
 40
-0.3333333333333333
 40
-0.1666666666666666
 40
-0.1666666666666666
 40
-0.1666666666666666
 40
-0.1666666666666666
 10
588.7866258379399
 20
746.6051735576444
 30
0.0
 10
600.392020910266
 20
746.6051735576443
 30
0.0
 10
624.0208177582188
 20
746.6051735576442
 30
0.0
 10
660.8251420879217
 20
746.6051735576437
 30
0.0
 10
698.6692686317824
 20
746.6051735576431
 30
0.0
 10
737.1897688244923
 20
746.6051735576426
 30
0.0
 10
763.4478192069419
 20
746.6051735576423
 30
0.0
 10
776.5249960573603
 20
746.6051735576421
 30
0.0
  0
LWPOLYLINE
  5
1C1
330
1BC
100
AcDbEntity
  8
P-SANR-FIXT
100
AcDbPolyline
 90
        6
 70
   128
 43
0.0
 10
854.8078188290093
 20
746.6051735576415
 10
893.998616831719
 20
746.6051735576411
 10
932.550817313116
 20
746.6051735576407
 10
970.334372429426
 20
746.6051735576404
 10
1007.085142285194
 20
746.6051735576403
 10
1042.546189048435
 20
746.60517355764
  0
LWPOLYLINE
  5
1C2
330
1BC
100
AcDbEntity
  8
P-SANR-FIXT
100
AcDbPolyline
 90
        6
 70
   128
 43
0.0
 10
1042.546189048435
 20
746.60517355764
 10
1048.818458394427
 20
746.6051735576398
 10
1054.027403145684
 20
746.60517355764
 10
1057.930964797318
 20
746.6051735576398
 10
1060.347805521355
 20
746.6051735576398
 10
1061.165488001546
 20
746.60517355764
  0
SPLINE
  5
1C3
330
1BC
100
AcDbEntity
  8
P-SANR-FIXT
100
AcDbSpline
210
0.0
220
0.0
230
1.0
 70
    24
 71
     3
 72
    12
 73
     8
 74
     0
 42
0.000000001
 43
0.0000000001
 40
-1.0
 40
-1.0
 40
-1.0
 40
-1.0
 40
-0.85
 40
-0.7
 40
-0.4
 40
-0.2
 40
0.0
 40
0.0
 40
0.0
 40
0.0
 10
570.1673268848293
 20
746.6051735576447
 30
0.0
 10
570.1718527243964
 20
746.6051735576447
 30
0.0
 10
570.4777126577339
 20
746.6051735576447
 30
0.0
 10
572.3130725394347
 20
746.6051735576447
 30
0.0
 10
576.2036653055284
 20
746.6051735576447
 30
0.0
 10
582.3503988345909
 20
746.6051735576445
 30
0.0
 10
586.5186486234875
 20
746.6051735576444
 30
0.0
 10
588.7866258379399
 20
746.6051735576444
 30
0.0
  0
ARC
  5
1C4
330
1BC
100
AcDbEntity
  8
P-SANR-FIXT
100
AcDbCircle
 10
815.6664074431878
 20
747.2770701274534
 30
0.0
 40
11.00000000000045
100
AcDbArc
 50
0.0000000000005916
 51
29.99999999999958
  0
ARC
  5
1C5
330
1BC
100
AcDbEntity
  8
P-SANR-FIXT
100
AcDbCircle
 10
815.6664074431878
 20
747.2770701274534
 30
0.0
 40
11.00000000000027
100
AcDbArc
 50
29.99999999999965
 51
89.99999999999941
  0
ARC
  5
1C6
330
1BC
100
AcDbEntity
  8
P-SANR-FIXT
100
AcDbCircle
 10
815.6664074431878
 20
747.2770701274534
 30
0.0
 40
11.00000000000028
100
AcDbArc
 50
89.99999999999911
 51
149.9999999999996
  0
ARC
  5
1C7
330
1BC
100
AcDbEntity
  8
P-SANR-FIXT
100
AcDbCircle
 10
815.6664074431878
 20
747.2770701274534
 30
0.0
 40
11.00000000000042
100
AcDbArc
 50
149.9999999999993
 51
180.0
  0
ARC
  5
1C8
330
1BC
100
AcDbEntity
  8
P-SANR-FIXT
100
AcDbCircle
 10
815.6664074431878
 20
747.2770701274534
 30
0.0
 40
11.00000000000034
100
AcDbArc
 50
180.0
 51
209.9999999999987
  0
ARC
  5
1C9
330
1BC
100
AcDbEntity
  8
P-SANR-FIXT
100
AcDbCircle
 10
815.6664074431878
 20
747.2770701274534
 30
0.0
 40
11.00000000000031
100
AcDbArc
 50
209.9999999999983
 51
269.999999999999
  0
ARC
  5
1CA
330
1BC
100
AcDbEntity
  8
P-SANR-FIXT
100
AcDbCircle
 10
815.6664074431878
 20
747.2770701274534
 30
0.0
 40
11.00000000000028
100
AcDbArc
 50
269.9999999999988
 51
329.9999999999986
  0
ARC
  5
1CB
330
1BC
100
AcDbEntity
  8
P-SANR-FIXT
100
AcDbCircle
 10
815.6664074431878
 20
747.2770701274534
 30
0.0
 40
11.00000000000028
100
AcDbArc
 50
329.9999999999986
 51
359.999999999999
  0
SPLINE
  5
1CC
330
1BC
100
AcDbEntity
  8
P-SANR-FIXT
100
AcDbSpline
210
0.0
220
0.0
230
1.0
 70
    24
 71
     3
 72
     9
 73
     5
 74
     0
 42
0.000000001
 43
0.0000000001
 40
0.0
 40
0.0
 40
0.0
 40
0.0
 40
0.5
 40
1.0
 40
1.0
 40
1.0
 40
1.0
 10
809.3155544821097
 20
736.277070127479
 30
0.0
 10
808.790158585746
 20
737.1870825140693
 30
0.0
 10
807.7355249426265
 20
739.0137615673236
 30
0.0
 10
806.6732075987234
 20
740.8537491807254
 30
0.0
 10
806.1401280015759
 20
741.7770701274632
 30
0.0
  0
SPLINE
  5
1CD
330
1BC
100
AcDbEntity
  8
P-SANR-FIXT
100
AcDbSpline
210
0.0
220
0.0
230
1.0
 70
    24
 71
     3
 72
     9
 73
     5
 74
     0
 42
0.000000001
 43
0.0000000001
 40
0.0
 40
0.0
 40
0.0
 40
0.0
 40
0.5
 40
1.0
 40
1.0
 40
1.0
 40
1.0
 10
806.1401280015759
 20
741.7770701274632
 30
0.0
 10
805.6070484044264
 20
742.7003910742045
 30
0.0
 10
804.5447310605196
 20
744.540378687613
 30
0.0
 10
803.4900974173964
 20
746.3670577408732
 30
0.0
 10
802.9647015210311
 20
747.2770701274664
 30
0.0
  0
SPLINE
  5
1CE
330
1BC
100
AcDbEntity
  8
P-SANR-FIXT
100
AcDbSpline
210
0.0
220
0.0
230
1.0
 70
    24
 71
     3
 72
     9
 73
     5
 74
     0
 42
0.000000001
 43
0.0000000001
 40
0.0
 40
0.0
 40
0.0
 40
0.0
 40
0.5
 40
1.0
 40
1.0
 40
1.0
 40
1.0
 10
822.0172604042669
 20
736.2770701274789
 30
0.0
 10
820.9664686115377
 20
736.2770701274789
 30
0.0
 10
818.8572013252956
 20
736.2770701274789
 30
0.0
 10
816.732566637485
 20
736.2770701274789
 30
0.0
 10
815.6664074431878
 20
736.2770701274789
 30
0.0
  0
SPLINE
  5
1CF
330
1BC
100
AcDbEntity
  8
P-SANR-FIXT
100
AcDbSpline
210
0.0
220
0.0
230
1.0
 70
    24
 71
     3
 72
     9
 73
     5
 74
     0
 42
0.000000001
 43
0.0000000001
 40
0.0
 40
0.0
 40
0.0
 40
0.0
 40
0.5
 40
1.0
 40
1.0
 40
1.0
 40
1.0
 10
815.6664074431878
 20
736.2770701274789
 30
0.0
 10
814.6002482488906
 20
736.2770701274789
 30
0.0
 10
812.4756135610805
 20
736.277070127479
 30
0.0
 10
810.3663462748388
 20
736.277070127479
 30
0.0
 10
809.3155544821097
 20
736.277070127479
 30
0.0
  0
SPLINE
  5
1D0
330
1BC
100
AcDbEntity
  8
P-SANR-FIXT
100
AcDbSpline
210
0.0
220
0.0
230
1.0
 70
    24
 71
     3
 72
     9
 73
     5
 74
     0
 42
0.000000001
 43
0.0000000001
 40
0.0
 40
0.0
 40
0.0
 40
0.0
 40
0.5
 40
1.0
 40
1.0
 40
1.0
 40
1.0
 10
828.3681133653457
 20
747.2770701274663
 30
0.0
 10
827.8427174689801
 20
746.3670577408731
 30
0.0
 10
826.7880838258571
 20
744.5403786876125
 30
0.0
 10
825.7257664819501
 20
742.700391074204
 30
0.0
 10
825.1926868848006
 20
741.7770701274626
 30
0.0
  0
SPLINE
  5
1D1
330
1BC
100
AcDbEntity
  8
P-SANR-FIXT
100
AcDbSpline
210
0.0
220
0.0
230
1.0
 70
    24
 71
     3
 72
     9
 73
     5
 74
     0
 42
0.000000001
 43
0.0000000001
 40
0.0
 40
0.0
 40
0.0
 40
0.0
 40
0.5
 40
1.0
 40
1.0
 40
1.0
 40
1.0
 10
825.1926868848006
 20
741.7770701274626
 30
0.0
 10
824.6596072876531
 20
740.8537491807249
 30
0.0
 10
823.59728994375
 20
739.0137615673232
 30
0.0
 10
822.5426563006307
 20
737.1870825140692
 30
0.0
 10
822.0172604042669
 20
736.2770701274789
 30
0.0
  0
SPLINE
  5
1D2
330
1BC
100
AcDbEntity
  8
P-SANR-FIXT
100
AcDbSpline
210
0.0
220
0.0
230
1.0
 70
    24
 71
     3
 72
     9
 73
     5
 74
     0
 42
0.000000001
 43
0.0000000001
 40
0.0
 40
0.0
 40
0.0
 40
0.0
 40
0.5
 40
1.0
 40
1.0
 40
1.0
 40
1.0
 10
822.0172604042669
 20
758.2770701274537
 30
0.0
 10
822.5426563006328
 20
757.3670577408603
 30
0.0
 10
823.5972899437559
 20
755.5403786875995
 30
0.0
 10
824.6596072876625
 20
753.7003910741914
 30
0.0
 10
825.1926868848117
 20
752.7770701274505
 30
0.0
  0
SPLINE
  5
1D3
330
1BC
100
AcDbEntity
  8
P-SANR-FIXT
100
AcDbSpline
210
0.0
220
0.0
230
1.0
 70
    24
 71
     3
 72
     9
 73
     5
 74
     0
 42
0.000000001
 43
0.0000000001
 40
0.0
 40
0.0
 40
0.0
 40
0.0
 40
0.5
 40
1.0
 40
1.0
 40
1.0
 40
1.0
 10
825.1926868848117
 20
752.7770701274505
 30
0.0
 10
825.725766481959
 20
751.8537491807132
 30
0.0
 10
826.7880838258619
 20
750.0137615673117
 30
0.0
 10
827.8427174689817
 20
748.1870825140569
 30
0.0
 10
828.3681133653457
 20
747.2770701274663
 30
0.0
  0
SPLINE
  5
1D4
330
1BC
100
AcDbEntity
  8
P-SANR-FIXT
100
AcDbSpline
210
0.0
220
0.0
230
1.0
 70
    24
 71
     3
 72
     9
 73
     5
 74
     0
 42
0.000000001
 43
0.0000000001
 40
0.0
 40
0.0
 40
0.0
 40
0.0
 40
0.5
 40
1.0
 40
1.0
 40
1.0
 40
1.0
 10
809.3155544821097
 20
758.2770701274539
 30
0.0
 10
810.3663462748396
 20
758.2770701274539
 30
0.0
 10
812.4756135610825
 20
758.2770701274539
 30
0.0
 10
814.6002482488915
 20
758.2770701274537
 30
0.0
 10
815.666407443188
 20
758.2770701274537
 30
0.0
  0
SPLINE
  5
1D5
330
1BC
100
AcDbEntity
  8
P-SANR-FIXT
100
AcDbSpline
210
0.0
220
0.0
230
1.0
 70
    24
 71
     3
 72
     9
 73
     5
 74
     0
 42
0.000000001
 43
0.0000000001
 40
0.0
 40
0.0
 40
0.0
 40
0.0
 40
0.5
 40
1.0
 40
1.0
 40
1.0
 40
1.0
 10
815.666407443188
 20
758.2770701274537
 30
0.0
 10
816.7325666374843
 20
758.2770701274537
 30
0.0
 10
818.857201325294
 20
758.2770701274537
 30
0.0
 10
820.966468611537
 20
758.2770701274537
 30
0.0
 10
822.0172604042669
 20
758.2770701274537
 30
0.0
  0
SPLINE
  5
1D6
330
1BC
100
AcDbEntity
  8
P-SANR-FIXT
100
AcDbSpline
210
0.0
220
0.0
230
1.0
 70
    24
 71
     3
 72
     9
 73
     5
 74
     0
 42
0.000000001
 43
0.0000000001
 40
0.0
 40
0.0
 40
0.0
 40
0.0
 40
0.5
 40
1.0
 40
1.0
 40
1.0
 40
1.0
 10
802.9647015210311
 20
747.2770701274664
 30
0.0
 10
803.490097417395
 20
748.1870825140569
 30
0.0
 10
804.5447310605146
 20
750.0137615673114
 30
0.0
 10
805.6070484044175
 20
751.8537491807127
 30
0.0
 10
806.1401280015648
 20
752.7770701274501
 30
0.0
  0
SPLINE
  5
1D7
330
1BC
100
AcDbEntity
  8
P-SANR-FIXT
100
AcDbSpline
210
0.0
220
0.0
230
1.0
 70
    24
 71
     3
 72
     9
 73
     5
 74
     0
 42
0.000000001
 43
0.0000000001
 40
0.0
 40
0.0
 40
0.0
 40
0.0
 40
0.5
 40
1.0
 40
1.0
 40
1.0
 40
1.0
 10
806.1401280015648
 20
752.7770701274501
 30
0.0
 10
806.673207598714
 20
753.7003910741912
 30
0.0
 10
807.735524942621
 20
755.5403786875993
 30
0.0
 10
808.7901585857441
 20
757.3670577408603
 30
0.0
 10
809.3155544821097
 20
758.2770701274539
 30
0.0
  0
ARC
  5
1D8
330
1BC
100
AcDbEntity
  8
P-SANR-FIXT
100
AcDbCircle
 10
815.6664074431883
 20
747.2770701274663
 30
0.0
 40
15.49999999996407
100
AcDbArc
 50
180.0
 51
359.9999999999988
  0
ARC
  5
1D9
330
1BC
100
AcDbEntity
  8
P-SANR-FIXT
100
AcDbCircle
 10
815.6664074431883
 20
747.2770701274663
 30
0.0
 40
15.4999999999641
100
AcDbArc
 50
359.9999999999994
 51
179.9999999999998
  0
LINE
  5
1DA
330
1BC
100
AcDbEntity
  8
P-SANR-FIXT
100
AcDbLine
 10
1133.166407443189
 20
853.2770701274515
 30
0.0
 11
1131.16640744319
 21
853.2770701274515
 31
0.0
  0
LINE
  5
1DB
330
1BC
100
AcDbEntity
  8
P-SANR-FIXT
100
AcDbLine
 10
500.1664074431887
 20
853.2770701274538
 30
0.0
 11
498.1664074431885
 21
853.2770701274538
 31
0.0
  0
LWPOLYLINE
  5
1DC
330
1BC
100
AcDbEntity
  8
P-SANR-FIXT
100
AcDbPolyline
 90
       80
 70
   128
 43
0.0
 10
653.6798471665954
 20
746.6051735576429
 10
653.7959901641101
 20
740.7987979892173
 10
654.1845310221642
 20
734.3308897044462
 10
654.8314084348621
 20
727.8836925466472
 10
655.7355875363368
 20
721.4675206559445
 10
656.8956218329073
 20
715.0926385386521
 10
658.3096555171597
 20
708.7692446462564
 10
659.9754264368437
 20
702.5074550600658
 10
661.8902697138333
 20
696.3172873076412
 10
664.0511220073632
 20
690.2086443368875
 10
666.4545264147212
 20
684.1912986734504
 10
669.0966380015545
 20
678.2748767867598
 10
671.9732299529447
 20
672.4688436897316
 10
675.0797003354096
 20
666.7824877967661
 10
678.4110794590153
 20
661.2249060642685
 10
681.962037827821
 20
655.804989437456
 10
685.7268946659335
 20
650.5314086267445
 10
689.6996270055386
 20
645.4126002364598
 10
693.873879322364
 20
640.4567532680731
 10
698.2429737031623
 20
635.6717960195421
 10
702.7999205289481
 20
631.065383401729
 10
707.5374296568972
 20
626.6448846921723
 10
712.4479220830193
 20
622.4173717458186
 10
717.5235420669483
 20
618.3896076815602
 10
722.7561696994513
 20
614.5680360626898
 10
728.1374338925506
 20
610.958770588572
 10
733.6587257714793
 20
607.5675853140305
 10
739.3112124470435
 20
604.3999054120902
 10
745.0858511463621
 20
601.4607984948578
 10
750.9734036793731
 20
598.7549665064257
 10
756.9644512179682
 20
596.286738200761
 10
763.0494093641078
 20
594.0600622166265
 10
769.2185434828127
 20
592.0785007605973
 10
775.4619842755052
 20
590.3452239082927
 10
781.7697435687796
 20
588.8630045329307
 10
788.1317302933506
 20
587.6342138693213
 10
794.5377666276102
 20
586.6608177203984
 10
800.9776042799717
 20
585.944373312354
 10
807.44094088395
 20
585.4860268034071
 10
813.9174364797506
 20
585.2865114501971
 10
820.3967300559988
 20
585.3461464347276
 10
826.8684561251479
 20
585.6648363537458
 10
833.3222613060492
 20
586.2420713713638
 10
839.7478208871511
 20
587.0769280346904
 10
846.1348553438366
 20
588.1680707511578
 10
852.4731467834699
 20
589.5137539251843
 10
858.7525552918448
 20
591.1118247507554
 10
864.9630351548832
 20
592.9597266554536
 10
871.0946509296354
 20
595.0545033904295
 10
877.1375933388711
 20
597.3928037597691
 10
883.0821949638272
 20
599.9708869816917
 10
888.9189457100181
 20
602.7846286730045
 10
894.6385080213564
 20
605.8295274472344
 10
900.2317318182528
 20
609.1007121158861
 10
905.6896691357895
 20
612.5929494813059
 10
911.0035884385563
 20
616.3006527086791
 10
916.1649885892446
 20
620.2178902637768
 10
921.1656124486525
 20
624.3383954021433
 10
925.9974600853492
 20
628.655576194552
 10
930.6528015738537
 20
633.1625260726845
 10
935.1241893608721
 20
637.8520348781663
 10
939.4044701797897
 20
642.7166003972846
 10
943.4867964943743
 20
647.7484403629277
 10
947.3646374533725
 20
652.9395049045517
 10
951.0317893384783
 20
658.2814894262585
 10
954.4823854889598
 20
663.765847892376
 10
957.7109056870638
 20
669.3838064992919
 10
960.7121849891878
 20
675.1263777116701
 10
963.4814219886873
 20
680.9843746405864
 10
966.0141864971022
 20
686.9484257405943
 10
968.3064266315128
 20
693.0089898021964
 10
970.3544752966896
 20
699.1563712157466
 10
972.1550560516622
 20
705.3807354823533
 10
973.7052883513255
 20
711.6721249469845
 10
975.0026921546989
 20
718.0204747285877
 10
976.0451918924621
 20
724.4156288217546
 10
976.8311197874224
 20
730.847356344164
 10
977.3592185226036
 20
737.3053679038074
 10
977.6286432526845
 20
743.7793320598258
 10
977.6591531463925
 20
746.60517355764
  0
LINE
  5
1DD
330
1BC
100
AcDbEntity
  8
P-SANR-FIXT
100
AcDbLine
 10
1131.166407443189
 20
641.2770701274507
 30
0.0
 11
1133.166407443189
 21
641.2770701274507
 31
0.0
  0
LINE
  5
1DE
330
1BC
100
AcDbEntity
  8
P-SANR-FIXT
100
AcDbLine
 10
1111.166407443189
 20
604.7770701274513
 30
0.0
 11
1131.166407443188
 21
604.7770701274512
 31
0.0
  0
LINE
  5
1DF
330
1BC
100
AcDbEntity
  8
P-SANR-FIXT
100
AcDbLine
 10
1131.16640744319
 20
889.7770701274511
 30
0.0
 11
1111.166407443189
 21
889.7770701274515
 31
0.0
  0
LINE
  5
1E0
330
1BC
100
AcDbEntity
  8
P-SANR-FIXT
100
AcDbLine
 10
1111.166407443189
 20
831.4370701274503
 30
0.0
 11
1046.143641517946
 21
831.4370701274503
 31
0.0
  0
LINE
  5
1E1
330
1BC
100
AcDbEntity
  8
P-SANR-FIXT
100
AcDbLine
 10
954.0993816896371
 20
663.1170701274525
 30
0.0
 11
1111.166407443189
 21
663.1170701274522
 31
0.0
  0
LINE
  5
1E2
330
1BC
100
AcDbEntity
  8
P-SANR-FIXT
100
AcDbLine
 10
585.2014440452905
 20
831.4370701274544
 30
0.0
 11
520.166407443189
 21
831.4370701274546
 31
0.0
  0
LINE
  5
1E3
330
1BC
100
AcDbEntity
  8
P-SANR-FIXT
100
AcDbLine
 10
520.1664074431885
 20
663.117070127452
 30
0.0
 11
677.2334331967422
 21
663.1170701274513
 31
0.0
  0
LINE
  5
1E4
330
1BC
100
AcDbEntity
  8
P-SANR-FIXT
100
AcDbLine
 10
520.1664074431888
 20
889.7770701274534
 30
0.0
 11
500.1664074431887
 21
889.7770701274534
 31
0.0
  0
LINE
  5
1E5
330
1BC
100
AcDbEntity
  8
P-SANR-FIXT
100
AcDbLine
 10
500.1664074431877
 20
604.7770701274534
 30
0.0
 11
520.1664074431879
 21
604.7770701274529
 31
0.0
  0
LINE
  5
1E6
330
1BC
100
AcDbEntity
  8
P-SANR-FIXT
100
AcDbLine
 10
498.1664074431878
 20
641.2770701274531
 30
0.0
 11
500.166407443188
 21
641.2770701274531
 31
0.0
  0
LINE
  5
1E7
330
1BC
100
AcDbEntity
  8
P-SANR-FIXT
100
AcDbLine
 10
1133.166407443188
 20
747.2770701274519
 30
0.0
 11
1133.166407443188
 21
853.2770701274518
 31
0.0
  0
SPLINE
  5
1E8
330
1BC
100
AcDbEntity
  8
P-SANR-FIXT
100
AcDbSpline
210
0.0
220
0.0
230
1.0
 70
     8
 71
     3
 72
    16
 73
    12
 74
     0
 42
0.000000001
 43
0.0000000001
 40
0.0024795116099171
 40
0.0024795116099171
 40
0.0024795116099171
 40
0.0024795116099171
 40
0.0588235294117647
 40
0.1176470588235294
 40
0.1764705882352941
 40
0.2352941176470588
 40
0.3529411764705882
 40
0.4117647058823529
 40
0.4705882352941177
 40
0.5036764705882354
 40
0.5097585713848277
 40
0.5097585713848277
 40
0.5097585713848277
 40
0.5097585713848277
 10
653.6678021076822
 20
746.6018758190152
 30
0.0
 10
653.6889190534455
 20
741.4916664035937
 30
0.0
 10
654.2217225944365
 20
731.2376489219765
 30
0.0
 10
656.4297529710252
 20
716.2640590966966
 30
0.0
 10
659.8125234156425
 20
702.3848340130895
 30
0.0
 10
665.2791487797214
 20
686.0689641713242
 30
0.0
 10
671.2422228336654
 20
673.5903808947788
 30
0.0
 10
675.5195806021077
 20
665.9696485269103
 30
0.0
 10
677.0574906021405
 20
663.4212728657114
 30
0.0
 10
677.2685807827952
 20
663.0746713836979
 30
0.0
 10
677.2233711225826
 20
663.1490402948124
 30
0.0
 10
677.2132277431997
 20
663.1657361117019
 30
0.0
  0
SPLINE
  5
1E9
330
1BC
100
AcDbEntity
  8
P-SANR-FIXT
100
AcDbSpline
210
0.0
220
0.0
230
1.0
 70
     8
 71
     3
 72
    23
 73
    19
 74
     0
 42
0.000000001
 43
0.0000000001
 40
0.4901960784313724
 40
0.4901960784313724
 40
0.4901960784313724
 40
0.4901960784313724
 40
0.5036764705882354
 40
0.5202205882352942
 40
0.5367647058823531
 40
0.5698529411764707
 40
0.6029411764705884
 40
0.636029411764706
 40
0.6525735294117647
 40
0.6691176470588236
 40
0.7022058823529413
 40
0.7352941176470589
 40
0.8014705882352942
 40
0.8345588235294117
 40
0.8676470588235293
 40
0.9007352941176471
 40
0.9338235294117646
 40
0.9975200077179971
 40
0.9975200077179971
 40
0.9975200077179971
 40
0.9975200077179971
 10
954.1189004277807
 20
663.1645754542624
 30
0.0
 10
954.0966082530287
 20
663.1278626225588
 30
0.0
 10
954.0816544713555
 20
663.1033614917956
 30
0.0
 10
954.1765517968299
 20
663.2593846363358
 30
0.0
 10
954.4962177840117
 20
663.7873774444812
 30
0.0
 10
955.2675620526068
 20
665.0752123258456
 30
0.0
 10
956.6369774529896
 20
667.4345899450864
 30
0.0
 10
958.1566312813201
 20
670.1802347128745
 30
0.0
 10
959.4902543347471
 20
672.7090803222844
 30
0.0
 10
960.9259059386127
 20
675.5251282244046
 30
0.0
 10
962.8487863377266
 20
679.513584333743
 30
0.0
 10
966.0441255595447
 20
686.7760470862294
 30
0.0
 10
969.2657632628225
 20
695.3743143247475
 30
0.0
 10
972.1271927899657
 20
705.036016242123
 30
0.0
 10
974.0338455604993
 20
712.8367913883929
 30
0.0
 10
975.5961930994477
 20
721.004262558583
 30
0.0
 10
977.1460465226153
 20
732.238032527823
 30
0.0
 10
977.6179110781649
 20
740.8361289123708
 30
0.0
 10
977.662417088662
 20
746.6029875669806
 30
0.0
  0
LINE
  5
1EA
330
1BC
100
AcDbEntity
  8
P-SANR-FIXT
100
AcDbLine
 10
1133.166407443188
 20
747.2770701274521
 30
0.0
 11
1133.166407443187
 21
641.2770701274517
 31
0.0
  0
LINE
  5
1EB
330
1BC
100
AcDbEntity
  8
P-SANR-FIXT
100
AcDbLine
 10
1131.166407443187
 20
604.7770701274519
 30
0.0
 11
1131.166407443188
 21
747.2770701274512
 31
0.0
  0
LINE
  5
1EC
330
1BC
100
AcDbEntity
  8
P-SANR-FIXT
100
AcDbLine
 10
1131.166407443188
 20
889.7770701274518
 30
0.0
 11
1131.166407443188
 21
747.277070127453
 31
0.0
  0
LINE
  5
1ED
330
1BC
100
AcDbEntity
  8
P-SANR-FIXT
100
AcDbLine
 10
1111.166407443188
 20
889.7770701274518
 30
0.0
 11
1111.166407443188
 21
747.2770701274531
 31
0.0
  0
LINE
  5
1EE
330
1BC
100
AcDbEntity
  8
P-SANR-FIXT
100
AcDbLine
 10
1111.166407443188
 20
747.2770701274523
 30
0.0
 11
1111.166407443187
 21
604.777070127452
 31
0.0
  0
LINE
  5
1EF
330
1BC
100
AcDbEntity
  8
P-SANR-FIXT
100
AcDbLine
 10
520.1664074431878
 20
889.7770701274538
 30
0.0
 11
520.1664074431878
 21
747.2770701274551
 31
0.0
  0
LINE
  5
1F0
330
1BC
100
AcDbEntity
  8
P-SANR-FIXT
100
AcDbLine
 10
520.1664074431878
 20
747.2770701274543
 30
0.0
 11
520.1664074431869
 21
604.7770701274538
 31
0.0
  0
LINE
  5
1F1
330
1BC
100
AcDbEntity
  8
P-SANR-FIXT
100
AcDbLine
 10
500.1664074431877
 20
889.777070127454
 30
0.0
 11
500.1664074431877
 21
747.2770701274551
 31
0.0
  0
LINE
  5
1F2
330
1BC
100
AcDbEntity
  8
P-SANR-FIXT
100
AcDbLine
 10
500.1664074431877
 20
747.2770701274543
 30
0.0
 11
500.1664074431868
 21
604.777070127454
 31
0.0
  0
LINE
  5
1F3
330
1BC
100
AcDbEntity
  8
P-SANR-FIXT
100
AcDbLine
 10
498.1664074431876
 20
853.2770701274539
 30
0.0
 11
498.1664074431876
 21
747.2770701274547
 31
0.0
  0
LINE
  5
1F4
330
1BC
100
AcDbEntity
  8
P-SANR-FIXT
100
AcDbLine
 10
498.1664074431876
 20
747.2770701274543
 30
0.0
 11
498.166407443187
 21
641.2770701274539
 31
0.0
  0
ENDBLK
  5
1F6
330
1BC
100
AcDbEntity
  8
0
100
AcDbBlockEnd
  0
BLOCK
  5
2A6
330
1F8
100
AcDbEntity
  8
0
100
AcDbBlockBegin
  2
Automatic flow rate regulator valve_Caleffi_121 DN15 - 1_2__-V2-Est - Idraulica
 70
     0
 10
0.0
 20
0.0
 30
0.0
  3
Automatic flow rate regulator valve_Caleffi_121 DN15 - 1_2__-V2-Est - Idraulica
  1

  0
ARC
  5
1F9
330
1F8
100
AcDbEntity
  8
M-PIPE
100
AcDbCircle
 10
1901.08316254568
 20
1438.482558849932
 30
0.0
 40
15.50000000000005
100
AcDbArc
 50
281.1599368721841
 51
78.84006312781545
1001
REVIT
1002
{
1070
     3
1000
790271
1002
}
  0
ARC
  5
1FA
330
1F8
100
AcDbEntity
  8
M-PIPE
100
AcDbCircle
 10
1901.08316254568
 20
1438.482558849932
 30
0.0
 40
15.50000000000005
100
AcDbArc
 50
101.159936872188
 51
258.8400631278108
1001
REVIT
1002
{
1070
     3
1000
790271
1002
}
  0
SPLINE
  5
1FB
330
1F8
100
AcDbEntity
  8
M-PIPE
100
AcDbSpline
210
0.0
220
0.0
230
1.0
 70
     8
 71
     3
 72
     9
 73
     5
 74
     0
 42
0.000000001
 43
0.0000000001
 40
-1.0
 40
-1.0
 40
-1.0
 40
-1.0
 40
-0.5
 40
0.0
 40
0.0
 40
0.0
 40
0.0
 10
1901.08316254568
 20
1427.284426693819
 30
0.0
 10
1901.589991253284
 20
1427.284658007039
 30
0.0
 10
1902.596819960887
 20
1427.342559295698
 30
0.0
 10
1903.589991253283
 20
1427.515337908801
 30
0.0
 10
1904.083162545679
 20
1427.630446546463
 30
0.0
1001
REVIT
1002
{
1070
     3
1000
790271
1002
}
  0
ARC
  5
1FC
330
1F8
100
AcDbEntity
  8
M-PIPE
100
AcDbCircle
 10
1901.08316254568
 20
1438.482558849932
 30
0.0
 40
11.50000000006312
100
AcDbArc
 50
285.1216653148203
 51
74.87833468517717
1001
REVIT
1002
{
1070
     3
1000
790271
1002
}
  0
SPLINE
  5
1FD
330
1F8
100
AcDbEntity
  8
M-PIPE
100
AcDbSpline
210
0.0
220
0.0
230
1.0
 70
     8
 71
     3
 72
     9
 73
     5
 74
     0
 42
0.000000001
 43
0.0000000001
 40
-1.0
 40
-1.0
 40
-1.0
 40
-1.0
 40
-0.5
 40
0.0
 40
0.0
 40
0.0
 40
0.0
 10
1904.08316254568
 20
1449.334671153421
 30
0.0
 10
1903.589991253283
 20
1449.449779791082
 30
0.0
 10
1902.596819960887
 20
1449.622558404185
 30
0.0
 10
1901.589991253284
 20
1449.680459692845
 30
0.0
 10
1901.08316254568
 20
1449.680691006064
 30
0.0
1001
REVIT
1002
{
1070
     3
1000
790271
1002
}
  0
SPLINE
  5
1FE
330
1F8
100
AcDbEntity
  8
M-PIPE
100
AcDbSpline
210
0.0
220
0.0
230
1.0
 70
     8
 71
     3
 72
     9
 73
     5
 74
     0
 42
0.000000001
 43
0.0000000001
 40
-1.0
 40
-1.0
 40
-1.0
 40
-1.0
 40
-0.5
 40
0.0
 40
0.0
 40
0.0
 40
0.0
 10
1901.08316254568
 20
1449.680691006064
 30
0.0
 10
1900.576333838077
 20
1449.680459692845
 30
0.0
 10
1899.569505130473
 20
1449.622558404185
 30
0.0
 10
1898.576333838077
 20
1449.449779791082
 30
0.0
 10
1898.083162545679
 20
1449.33467115342
 30
0.0
1001
REVIT
1002
{
1070
     3
1000
790271
1002
}
  0
ARC
  5
1FF
330
1F8
100
AcDbEntity
  8
M-PIPE
100
AcDbCircle
 10
1901.08316254568
 20
1438.482558849932
 30
0.0
 40
11.5000000000632
100
AcDbArc
 50
105.1216653148274
 51
254.8783346851711
1001
REVIT
1002
{
1070
     3
1000
790271
1002
}
  0
SPLINE
  5
200
330
1F8
100
AcDbEntity
  8
M-PIPE
100
AcDbSpline
210
0.0
220
0.0
230
1.0
 70
     8
 71
     3
 72
     9
 73
     5
 74
     0
 42
0.000000001
 43
0.0000000001
 40
-1.0
 40
-1.0
 40
-1.0
 40
-1.0
 40
-0.5
 40
0.0
 40
0.0
 40
0.0
 40
0.0
 10
1898.083162545679
 20
1427.630446546463
 30
0.0
 10
1898.576333838076
 20
1427.515337908801
 30
0.0
 10
1899.569505130473
 20
1427.342559295698
 30
0.0
 10
1900.576333838077
 20
1427.284658007038
 30
0.0
 10
1901.08316254568
 20
1427.284426693819
 30
0.0
1001
REVIT
1002
{
1070
     3
1000
790271
1002
}
  0
ARC
  5
201
330
1F8
100
AcDbEntity
  8
M-PIPE
100
AcDbCircle
 10
1901.08316254568
 20
1438.482558849932
 30
0.0
 40
8.499999999999886
100
AcDbArc
 50
269.9999999999973
 51
89.99999999999923
1001
REVIT
1002
{
1070
     3
1000
790271
1002
}
  0
ARC
  5
202
330
1F8
100
AcDbEntity
  8
M-PIPE
100
AcDbCircle
 10
1901.08316254568
 20
1438.482558849932
 30
0.0
 40
8.500000000000273
100
AcDbArc
 50
90.00000000000076
 51
269.9999999999989
1001
REVIT
1002
{
1070
     3
1000
790271
1002
}
  0
LINE
  5
203
330
1F8
100
AcDbEntity
  8
M-PIPE
100
AcDbLine
 10
1898.083162545679
 20
1405.982558849932
 30
0.0
 11
1898.083162545679
 21
1411.982558849932
 31
0.0
1001
REVIT
1002
{
1070
     3
1000
790271
1002
}
  0
LINE
  5
204
330
1F8
100
AcDbEntity
  8
M-PIPE
100
AcDbLine
 10
1898.083162545679
 20
1411.982558849932
 30
0.0
 11
1898.083162545679
 21
1427.630446546463
 31
0.0
1001
REVIT
1002
{
1070
     3
1000
790271
1002
}
  0
LINE
  5
205
330
1F8
100
AcDbEntity
  8
M-PIPE
100
AcDbLine
 10
1898.08316254568
 20
1464.982558850059
 30
0.0
 11
1898.08316254568
 21
1470.982558850059
 31
0.0
1001
REVIT
1002
{
1070
     3
1000
790271
1002
}
  0
LINE
  5
206
330
1F8
100
AcDbEntity
  8
M-PIPE
100
AcDbLine
 10
1898.083162545679
 20
1449.33467115342
 30
0.0
 11
1898.08316254568
 21
1464.982558850059
 31
0.0
1001
REVIT
1002
{
1070
     3
1000
790271
1002
}
  0
LINE
  5
207
330
1F8
100
AcDbEntity
  8
M-PIPE
100
AcDbLine
 10
1904.08316254568
 20
1470.982558850059
 30
0.0
 11
1904.08316254568
 21
1464.982558850059
 31
0.0
1001
REVIT
1002
{
1070
     3
1000
790271
1002
}
  0
LINE
  5
208
330
1F8
100
AcDbEntity
  8
M-PIPE
100
AcDbLine
 10
1904.08316254568
 20
1464.982558850059
 30
0.0
 11
1904.08316254568
 21
1449.334671153421
 31
0.0
1001
REVIT
1002
{
1070
     3
1000
790271
1002
}
  0
LINE
  5
209
330
1F8
100
AcDbEntity
  8
M-PIPE
100
AcDbLine
 10
1904.083162545679
 20
1411.982558849932
 30
0.0
 11
1904.083162545679
 21
1405.982558849932
 31
0.0
1001
REVIT
1002
{
1070
     3
1000
790271
1002
}
  0
LINE
  5
20A
330
1F8
100
AcDbEntity
  8
M-PIPE
100
AcDbLine
 10
1904.083162545679
 20
1427.630446546463
 30
0.0
 11
1904.083162545679
 21
1411.982558849932
 31
0.0
1001
REVIT
1002
{
1070
     3
1000
790271
1002
}
  0
LINE
  5
20B
330
1F8
100
AcDbEntity
  8
M-PIPE
100
AcDbLine
 10
1904.083162545679
 20
1405.982558849932
 30
0.0
 11
1898.083162545679
 21
1405.982558849932
 31
0.0
1001
REVIT
1002
{
1070
     3
1000
790271
1002
}
  0
LINE
  5
20C
330
1F8
100
AcDbEntity
  8
M-PIPE
100
AcDbLine
 10
1904.083162545679
 20
1411.982558849932
 30
0.0
 11
1898.083162545679
 21
1411.982558849932
 31
0.0
1001
REVIT
1002
{
1070
     3
1000
790271
1002
}
  0
LINE
  5
20D
330
1F8
100
AcDbEntity
  8
M-PIPE
100
AcDbLine
 10
1904.08316254568
 20
1464.982558850059
 30
0.0
 11
1898.08316254568
 21
1464.982558850059
 31
0.0
1001
REVIT
1002
{
1070
     3
1000
790271
1002
}
  0
LINE
  5
20E
330
1F8
100
AcDbEntity
  8
M-PIPE
100
AcDbLine
 10
1904.08316254568
 20
1470.982558850059
 30
0.0
 11
1898.08316254568
 21
1470.982558850059
 31
0.0
1001
REVIT
1002
{
1070
     3
1000
790271
1002
}
  0
LINE
  5
20F
330
1F8
100
AcDbEntity
  8
M-PIPE
100
AcDbLine
 10
1919.083392443795
 20
1415.194369521383
 30
0.0
 11
1918.083162545683
 21
1415.77185252231
 31
0.0
1001
REVIT
1002
{
1070
     3
1000
790271
1002
}
  0
LINE
  5
210
330
1F8
100
AcDbEntity
  8
M-PIPE
100
AcDbLine
 10
1884.083162545683
 20
1415.77185252231
 30
0.0
 11
1883.082932647539
 21
1415.194369521366
 31
0.0
1001
REVIT
1002
{
1070
     3
1000
790271
1002
}
  0
LINE
  5
211
330
1F8
100
AcDbEntity
  8
M-PIPE
100
AcDbLine
 10
1918.083162545683
 20
1415.77185252231
 30
0.0
 11
1918.083162545683
 21
1422.896822804526
 31
0.0
1001
REVIT
1002
{
1070
     3
1000
790271
1002
}
  0
LINE
  5
212
330
1F8
100
AcDbEntity
  8
M-PIPE
100
AcDbLine
 10
1884.083162545683
 20
1422.896822804526
 30
0.0
 11
1884.083162545683
 21
1415.77185252231
 31
0.0
1001
REVIT
1002
{
1070
     3
1000
790271
1002
}
  0
LINE
  5
213
330
1F8
100
AcDbEntity
  8
M-PIPE
100
AcDbLine
 10
1918.083162545683
 20
1422.896822804526
 30
0.0
 11
1923.513802554679
 21
1426.032204275592
 31
0.0
1001
REVIT
1002
{
1070
     3
1000
790271
1002
}
  0
LINE
  5
214
330
1F8
100
AcDbEntity
  8
M-PIPE
100
AcDbLine
 10
1923.523238980898
 20
1426.037652398809
 30
0.0
 11
1923.583162545684
 21
1426.072249285069
 31
0.0
1001
REVIT
1002
{
1070
     3
1000
790271
1002
}
  0
LINE
  5
215
330
1F8
100
AcDbEntity
  8
M-PIPE
100
AcDbLine
 10
1878.583162545683
 20
1426.07224928507
 30
0.0
 11
1878.643086110468
 21
1426.03765239881
 31
0.0
1001
REVIT
1002
{
1070
     3
1000
790271
1002
}
  0
LINE
  5
216
330
1F8
100
AcDbEntity
  8
M-PIPE
100
AcDbLine
 10
1878.652522536687
 20
1426.032204275592
 30
0.0
 11
1884.083162545683
 21
1422.896822804526
 31
0.0
1001
REVIT
1002
{
1070
     3
1000
790271
1002
}
  0
LINE
  5
217
330
1F8
100
AcDbEntity
  8
M-PIPE
100
AcDbLine
 10
1923.583162545684
 20
1426.072249285069
 30
0.0
 11
1923.583162545684
 21
1453.982558849798
 31
0.0
1001
REVIT
1002
{
1070
     3
1000
790271
1002
}
  0
LINE
  5
218
330
1F8
100
AcDbEntity
  8
M-PIPE
100
AcDbLine
 10
1878.583162545683
 20
1453.982558849799
 30
0.0
 11
1878.583162545683
 21
1426.07224928507
 31
0.0
1001
REVIT
1002
{
1070
     3
1000
790271
1002
}
  0
LINE
  5
219
330
1F8
100
AcDbEntity
  8
M-PIPE
100
AcDbLine
 10
1924.583162545684
 20
1453.982558849798
 30
0.0
 11
1924.583162545684
 21
1456.910762080136
 31
0.0
1001
REVIT
1002
{
1070
     3
1000
790271
1002
}
  0
LINE
  5
21A
330
1F8
100
AcDbEntity
  8
M-PIPE
100
AcDbLine
 10
1877.583162545683
 20
1456.910762080137
 30
0.0
 11
1877.583162545683
 21
1453.982558849799
 31
0.0
1001
REVIT
1002
{
1070
     3
1000
790271
1002
}
  0
LINE
  5
21B
330
1F8
100
AcDbEntity
  8
M-PIPE
100
AcDbLine
 10
1924.583162545684
 20
1456.910762080136
 30
0.0
 11
1920.583162545685
 21
1457.982558849861
 31
0.0
1001
REVIT
1002
{
1070
     3
1000
790271
1002
}
  0
LINE
  5
21C
330
1F8
100
AcDbEntity
  8
M-PIPE
100
AcDbLine
 10
1881.583162545683
 20
1457.982558849862
 30
0.0
 11
1877.583162545683
 21
1456.910762080137
 31
0.0
1001
REVIT
1002
{
1070
     3
1000
790271
1002
}
  0
LINE
  5
21D
330
1F8
100
AcDbEntity
  8
M-PIPE
100
AcDbLine
 10
1919.083163066578
 20
1399.982558849995
 30
0.0
 11
1901.08316254568
 21
1399.982558849995
 31
0.0
1001
REVIT
1002
{
1070
     3
1000
790271
1002
}
  0
SPLINE
  5
21E
330
1F8
100
AcDbEntity
  8
M-PIPE
100
AcDbSpline
210
0.0
220
0.0
230
1.0
 70
    24
 71
     3
 72
     9
 73
     5
 74
     0
 42
0.000000001
 43
0.0000000001
 40
-1.0
 40
-1.0
 40
-1.0
 40
-1.0
 40
-0.5
 40
0.0
 40
0.0
 40
0.0
 40
0.0
 10
1919.083162545664
 20
1399.982558849995
 30
0.0
 10
1919.083162545664
 20
1400.04472534253
 30
0.0
 10
1919.083162545664
 20
1400.539904386587
 30
0.0
 10
1919.083162545664
 20
1401.776775548618
 30
0.0
 10
1919.083162545664
 20
1402.580634159126
 30
0.0
1001
REVIT
1002
{
1070
     3
1000
790271
1002
}
  0
SPLINE
  5
21F
330
1F8
100
AcDbEntity
  8
M-PIPE
100
AcDbSpline
210
0.0
220
0.0
230
1.0
 70
     8
 71
     3
 72
    13
 73
     9
 74
     0
 42
0.000000001
 43
0.0000000001
 40
-1.0
 40
-1.0
 40
-1.0
 40
-1.0
 40
-0.8333333333333332
 40
-0.75
 40
-0.6666666666666666
 40
-0.3333333333333333
 40
-0.1666666666666666
 40
0.0
 40
0.0
 40
0.0
 40
0.0
 10
1916.578353074091
 20
1402.580634159126
 30
0.0
 10
1915.899752015251
 20
1402.010429096196
 30
0.0
 10
1914.861457873439
 20
1401.298479213685
 30
0.0
 10
1913.431484949003
 20
1400.636330109824
 30
0.0
 10
1911.260127339989
 20
1399.928615930633
 30
0.0
 10
1908.426085996013
 20
1399.954444539807
 30
0.0
 10
1905.609107820737
 20
1401.081782793909
 30
0.0
 10
1904.24854532625
 20
1402.019163528351
 30
0.0
 10
1903.58797201725
 20
1402.580634159126
 30
0.0
1001
REVIT
1002
{
1070
     3
1000
790271
1002
}
  0
SPLINE
  5
220
330
1F8
100
AcDbEntity
  8
M-PIPE
100
AcDbSpline
210
0.0
220
0.0
230
1.0
 70
     8
 71
     3
 72
     8
 73
     4
 74
     0
 42
0.000000001
 43
0.0000000001
 40
-0.5056742803493851
 40
-0.5056742803493851
 40
-0.5056742803493851
 40
-0.5056742803493851
 40
-0.5
 40
-0.5
 40
-0.5
 40
-0.5
 10
1910.041242793598
 20
1400.033957000751
 30
0.0
 10
1910.067626297459
 20
1400.03389006936
 30
0.0
 10
1910.094002018054
 20
1400.033975040898
 30
0.0
 10
1910.120369442736
 20
1400.034207615409
 30
0.0
1001
REVIT
1002
{
1070
     3
1000
790271
1002
}
  0
SPLINE
  5
221
330
1F8
100
AcDbEntity
  8
M-PIPE
100
AcDbSpline
210
0.0
220
0.0
230
1.0
 70
    24
 71
     3
 72
     8
 73
     4
 74
     0
 42
0.000000001
 43
0.0000000001
 40
-0.1406195710602323
 40
-0.1406195710602323
 40
-0.1406195710602323
 40
-0.1406195710602323
 40
0.0
 40
0.0
 40
0.0
 40
0.0
 10
1919.083162545664
 20
1400.079729658512
 30
0.0
 10
1919.083162545664
 20
1400.032712622819
 30
0.0
 10
1919.083162545664
 20
1400.000322353313
 30
0.0
 10
1919.083162545664
 20
1399.982558849995
 30
0.0
1001
REVIT
1002
{
1070
     3
1000
790271
1002
}
  0
LINE
  5
222
330
1F8
100
AcDbEntity
  8
M-PIPE
100
AcDbLine
 10
1909.458690387396
 20
1399.982558849995
 30
0.0
 11
1910.712739219178
 21
1399.982558849995
 31
0.0
1001
REVIT
1002
{
1070
     3
1000
790271
1002
}
  0
LINE
  5
223
330
1F8
100
AcDbEntity
  8
M-PIPE
100
AcDbLine
 10
1919.042469515292
 20
1399.982558849995
 30
0.0
 11
1919.083162545664
 21
1399.982558849995
 31
0.0
1001
REVIT
1002
{
1070
     3
1000
790271
1002
}
  0
SPLINE
  5
224
330
1F8
100
AcDbEntity
  8
M-PIPE
100
AcDbSpline
210
0.0
220
0.0
230
1.0
 70
     8
 71
     3
 72
    13
 73
     9
 74
     0
 42
0.000000001
 43
0.0000000001
 40
-1.0
 40
-1.0
 40
-1.0
 40
-1.0
 40
-0.8333333333333332
 40
-0.75
 40
-0.6666666666666666
 40
-0.3333333333333333
 40
-0.1666666666666666
 40
0.0
 40
0.0
 40
0.0
 40
0.0
 10
1898.578353074067
 20
1402.580634159126
 30
0.0
 10
1897.89975201523
 20
1402.010429096202
 30
0.0
 10
1896.861457873423
 20
1401.298479213698
 30
0.0
 10
1895.431484948995
 20
1400.636330109844
 30
0.0
 10
1893.260127339991
 20
1399.92861593066
 30
0.0
 10
1890.426085996033
 20
1399.954444539836
 30
0.0
 10
1887.609107820771
 20
1401.081782793925
 30
0.0
 10
1886.24854532629
 20
1402.019163528357
 30
0.0
 10
1885.587972017293
 20
1402.580634159126
 30
0.0
1001
REVIT
1002
{
1070
     3
1000
790271
1002
}
  0
SPLINE
  5
225
330
1F8
100
AcDbEntity
  8
M-PIPE
100
AcDbSpline
210
0.0
220
0.0
230
1.0
 70
    24
 71
     3
 72
     9
 73
     5
 74
     0
 42
0.000000001
 43
0.0000000001
 40
-1.0
 40
-1.0
 40
-1.0
 40
-1.0
 40
-0.5
 40
0.0
 40
0.0
 40
0.0
 40
0.0
 10
1883.083162545664
 20
1402.580634159126
 30
0.0
 10
1883.083162545664
 20
1401.77777060228
 30
0.0
 10
1883.083162545664
 20
1400.541894493912
 30
0.0
 10
1883.083162545664
 20
1400.045720396192
 30
0.0
 10
1883.083162545664
 20
1399.982558849995
 30
0.0
1001
REVIT
1002
{
1070
     3
1000
790271
1002
}
  0
LINE
  5
226
330
1F8
100
AcDbEntity
  8
M-PIPE
100
AcDbLine
 10
1901.08316254568
 20
1399.982558849995
 30
0.0
 11
1883.083162545664
 21
1399.982558849995
 31
0.0
1001
REVIT
1002
{
1070
     3
1000
790271
1002
}
  0
LINE
  5
227
330
1F8
100
AcDbEntity
  8
M-PIPE
100
AcDbLine
 10
1883.083162024782
 20
1399.982558849995
 30
0.0
 11
1883.125506471477
 21
1399.982558849995
 31
0.0
1001
REVIT
1002
{
1070
     3
1000
790271
1002
}
  0
LINE
  5
228
330
1F8
100
AcDbEntity
  8
M-PIPE
100
AcDbLine
 10
1891.622293669721
 20
1399.982558849995
 30
0.0
 11
1892.877048800525
 21
1399.982558849995
 31
0.0
1001
REVIT
1002
{
1070
     3
1000
790271
1002
}
  0
SPLINE
  5
229
330
1F8
100
AcDbEntity
  8
M-PIPE
100
AcDbSpline
210
0.0
220
0.0
230
1.0
 70
    24
 71
     3
 72
     8
 73
     4
 74
     0
 42
0.000000001
 43
0.0000000001
 40
-1.0
 40
-1.0
 40
-1.0
 40
-1.0
 40
-0.8812923035737723
 40
-0.8812923035737723
 40
-0.8812923035737723
 40
-0.8812923035737723
 10
1883.083162545664
 20
1399.982558849995
 30
0.0
 10
1883.083162545664
 20
1399.99731813584
 30
0.0
 10
1883.083162545664
 20
1400.022528988489
 30
0.0
 10
1883.083162545664
 20
1400.058191407941
 30
0.0
1001
REVIT
1002
{
1070
     3
1000
790271
1002
}
  0
SPLINE
  5
22A
330
1F8
100
AcDbEntity
  8
M-PIPE
100
AcDbSpline
210
0.0
220
0.0
230
1.0
 70
     8
 71
     3
 72
     8
 73
     4
 74
     0
 42
0.000000001
 43
0.0000000001
 40
-0.5056742803480264
 40
-0.5056742803480264
 40
-0.5056742803480264
 40
-0.5056742803480264
 40
-0.5
 40
-0.5
 40
-0.5
 40
-0.5
 10
1892.041242793607
 20
1400.033957000778
 30
0.0
 10
1892.067626297462
 20
1400.033890069387
 30
0.0
 10
1892.09400201805
 20
1400.033975040925
 30
0.0
 10
1892.120369442726
 20
1400.034207615435
 30
0.0
1001
REVIT
1002
{
1070
     3
1000
790271
1002
}
  0
LINE
  5
22B
330
1F8
100
AcDbEntity
  8
M-PIPE
100
AcDbLine
 10
1919.083162545664
 20
1402.580634159126
 30
0.0
 11
1916.578353074091
 21
1402.580634159126
 31
0.0
1001
REVIT
1002
{
1070
     3
1000
790271
1002
}
  0
LINE
  5
22C
330
1F8
100
AcDbEntity
  8
M-PIPE
100
AcDbLine
 10
1919.083162545664
 20
1402.580634159126
 30
0.0
 11
1919.083162545664
 21
1414.328476849336
 31
0.0
1001
REVIT
1002
{
1070
     3
1000
790271
1002
}
  0
LINE
  5
22D
330
1F8
100
AcDbEntity
  8
M-PIPE
100
AcDbLine
 10
1916.578353074091
 20
1414.328476849336
 30
0.0
 11
1916.578353074091
 21
1402.580634159126
 31
0.0
1001
REVIT
1002
{
1070
     3
1000
790271
1002
}
  0
LINE
  5
22E
330
1F8
100
AcDbEntity
  8
M-PIPE
100
AcDbLine
 10
1903.58797201725
 20
1402.580634159126
 30
0.0
 11
1901.08316254568
 21
1402.580634159126
 31
0.0
1001
REVIT
1002
{
1070
     3
1000
790271
1002
}
  0
LINE
  5
22F
330
1F8
100
AcDbEntity
  8
M-PIPE
100
AcDbLine
 10
1903.58797201725
 20
1402.580634159126
 30
0.0
 11
1903.58797201725
 21
1405.982558849932
 31
0.0
1001
REVIT
1002
{
1070
     3
1000
790271
1002
}
  0
LINE
  5
230
330
1F8
100
AcDbEntity
  8
M-PIPE
100
AcDbLine
 10
1898.578353074067
 20
1405.982558849932
 30
0.0
 11
1898.578353074067
 21
1402.580634159126
 31
0.0
1001
REVIT
1002
{
1070
     3
1000
790271
1002
}
  0
LINE
  5
231
330
1F8
100
AcDbEntity
  8
M-PIPE
100
AcDbLine
 10
1901.08316254568
 20
1402.580634159126
 30
0.0
 11
1898.578353074067
 21
1402.580634159126
 31
0.0
1001
REVIT
1002
{
1070
     3
1000
790271
1002
}
  0
LINE
  5
232
330
1F8
100
AcDbEntity
  8
M-PIPE
100
AcDbLine
 10
1885.587972017293
 20
1402.580634159126
 30
0.0
 11
1883.083162545664
 21
1402.580634159126
 31
0.0
1001
REVIT
1002
{
1070
     3
1000
790271
1002
}
  0
LINE
  5
233
330
1F8
100
AcDbEntity
  8
M-PIPE
100
AcDbLine
 10
1885.587972017293
 20
1402.580634159126
 30
0.0
 11
1885.587972017293
 21
1414.328476849336
 31
0.0
1001
REVIT
1002
{
1070
     3
1000
790271
1002
}
  0
LINE
  5
234
330
1F8
100
AcDbEntity
  8
M-PIPE
100
AcDbLine
 10
1883.083162545664
 20
1414.328476849336
 30
0.0
 11
1883.083162545664
 21
1402.580634159126
 31
0.0
1001
REVIT
1002
{
1070
     3
1000
790271
1002
}
  0
SPLINE
  5
235
330
1F8
100
AcDbEntity
  8
M-PIPE
100
AcDbSpline
210
0.0
220
0.0
230
1.0
 70
     8
 71
     3
 72
     9
 73
     5
 74
     0
 42
0.000000001
 43
0.0000000001
 40
-0.9634467282710845
 40
-0.9634467282710845
 40
-0.9634467282710845
 40
-0.9634467282710845
 40
-0.5
 40
0.0
 40
0.0
 40
0.0
 40
0.0
 10
1904.055097244219
 20
1414.450463529713
 30
0.0
 10
1906.030509336881
 20
1414.946446578604
 30
0.0
 10
1910.16974777783
 20
1415.461989376277
 30
0.0
 10
1914.376774656241
 20
1414.905784351811
 30
0.0
 10
1916.578353074091
 20
1414.328476849336
 30
0.0
1001
REVIT
1002
{
1070
     3
1000
790271
1002
}
  0
LINE
  5
236
330
1F8
100
AcDbEntity
  8
M-PIPE
100
AcDbLine
 10
1919.083162545664
 20
1414.328476849336
 30
0.0
 11
1916.578353074091
 21
1414.328476849336
 31
0.0
1001
REVIT
1002
{
1070
     3
1000
790271
1002
}
  0
SPLINE
  5
237
330
1F8
100
AcDbEntity
  8
M-PIPE
100
AcDbSpline
210
0.0
220
0.0
230
1.0
 70
    24
 71
     3
 72
     9
 73
     5
 74
     0
 42
0.000000001
 43
0.0000000001
 40
-1.0
 40
-1.0
 40
-1.0
 40
-1.0
 40
-0.5
 40
-0.4955503609475284
 40
-0.4955503609475284
 40
-0.4955503609475284
 40
-0.4955503609475284
 10
1919.083162545664
 20
1414.328476849336
 30
0.0
 10
1919.083162545664
 20
1414.90578435181
 30
0.0
 10
1919.083162545664
 20
1415.197006913056
 30
0.0
 10
1919.083162545664
 20
1415.194415242492
 30
0.0
 10
1919.083162545664
 20
1415.194369521383
 30
0.0
1001
REVIT
1002
{
1070
     3
1000
790271
1002
}
  0
SPLINE
  5
238
330
1F8
100
AcDbEntity
  8
M-PIPE
100
AcDbSpline
210
0.0
220
0.0
230
1.0
 70
    24
 71
     3
 72
     8
 73
     4
 74
     0
 42
0.000000001
 43
0.0000000001
 40
-0.5
 40
-0.5
 40
-0.5
 40
-0.5
 40
0.0
 40
0.0
 40
0.0
 40
0.0
 10
1883.083162545664
 20
1415.194438103029
 30
0.0
 10
1883.083162545664
 20
1415.194438103029
 30
0.0
 10
1883.083162545664
 20
1414.905784351798
 30
0.0
 10
1883.083162545664
 20
1414.328476849336
 30
0.0
1001
REVIT
1002
{
1070
     3
1000
790271
1002
}
  0
LINE
  5
239
330
1F8
100
AcDbEntity
  8
M-PIPE
100
AcDbLine
 10
1885.587972017294
 20
1414.328476849336
 30
0.0
 11
1883.083162545664
 21
1414.328476849336
 31
0.0
1001
REVIT
1002
{
1070
     3
1000
790271
1002
}
  0
SPLINE
  5
23A
330
1F8
100
AcDbEntity
  8
M-PIPE
100
AcDbSpline
210
0.0
220
0.0
230
1.0
 70
     8
 71
     3
 72
     9
 73
     5
 74
     0
 42
0.000000001
 43
0.0000000001
 40
-1.0
 40
-1.0
 40
-1.0
 40
-1.0
 40
-0.5
 40
-0.0356126893515809
 40
-0.0356126893515809
 40
-0.0356126893515809
 40
-0.0356126893515809
 10
1885.587972017293
 20
1414.328476849336
 30
0.0
 10
1887.716520618379
 20
1414.905784351805
 30
0.0
 10
1891.857225654639
 20
1415.462532381528
 30
0.0
 10
1896.065851552357
 20
1414.945438941064
 30
0.0
 10
1898.108206167586
 20
1414.447440617114
 30
0.0
1001
REVIT
1002
{
1070
     3
1000
790271
1002
}
  0
LINE
  5
23B
330
1F8
100
AcDbEntity
  8
M-PIPE
100
AcDbLine
 10
1918.083162545681
 20
1415.77185252231
 30
0.0
 11
1904.085152193262
 21
1415.77185252231
 31
0.0
1001
REVIT
1002
{
1070
     3
1000
790271
1002
}
  0
LINE
  5
23C
330
1F8
100
AcDbEntity
  8
M-PIPE
100
AcDbLine
 10
1898.081172898096
 20
1415.77185252231
 30
0.0
 11
1884.083162545681
 21
1415.77185252231
 31
0.0
1001
REVIT
1002
{
1070
     3
1000
790271
1002
}
  0
LINE
  5
23D
330
1F8
100
AcDbEntity
  8
M-PIPE
100
AcDbLine
 10
1918.083162545681
 20
1422.896822804526
 30
0.0
 11
1904.085152193262
 21
1422.896822804526
 31
0.0
1001
REVIT
1002
{
1070
     3
1000
790271
1002
}
  0
LINE
  5
23E
330
1F8
100
AcDbEntity
  8
M-PIPE
100
AcDbLine
 10
1898.081172898097
 20
1422.896822804526
 30
0.0
 11
1884.083162545681
 21
1422.896822804526
 31
0.0
1001
REVIT
1002
{
1070
     3
1000
790271
1002
}
  0
LINE
  5
23F
330
1F8
100
AcDbEntity
  8
M-PIPE
100
AcDbLine
 10
1923.583162545681
 20
1426.072249285069
 30
0.0
 11
1910.360590076327
 21
1426.072249285069
 31
0.0
1001
REVIT
1002
{
1070
     3
1000
790271
1002
}
  0
LINE
  5
240
330
1F8
100
AcDbEntity
  8
M-PIPE
100
AcDbLine
 10
1891.805735015034
 20
1426.072249285069
 30
0.0
 11
1878.58316254568
 21
1426.07224928507
 31
0.0
1001
REVIT
1002
{
1070
     3
1000
790271
1002
}
  0
LINE
  5
241
330
1F8
100
AcDbEntity
  8
M-PIPE
100
AcDbLine
 10
1924.583162545681
 20
1453.982558849797
 30
0.0
 11
1904.085203371138
 21
1453.982558849798
 31
0.0
1001
REVIT
1002
{
1070
     3
1000
790271
1002
}
  0
LINE
  5
242
330
1F8
100
AcDbEntity
  8
M-PIPE
100
AcDbLine
 10
1898.081121720222
 20
1453.982558849798
 30
0.0
 11
1877.58316254568
 21
1453.982558849798
 31
0.0
1001
REVIT
1002
{
1070
     3
1000
790271
1002
}
  0
LINE
  5
243
330
1F8
100
AcDbEntity
  8
M-PIPE
100
AcDbLine
 10
1924.583162545681
 20
1456.910762080136
 30
0.0
 11
1904.085203371138
 21
1456.910762080136
 31
0.0
1001
REVIT
1002
{
1070
     3
1000
790271
1002
}
  0
LINE
  5
244
330
1F8
100
AcDbEntity
  8
M-PIPE
100
AcDbLine
 10
1920.583162545682
 20
1457.982558849861
 30
0.0
 11
1919.083162545654
 21
1457.982558849861
 31
0.0
1001
REVIT
1002
{
1070
     3
1000
790271
1002
}
  0
LINE
  5
245
330
1F8
100
AcDbEntity
  8
M-PIPE
100
AcDbLine
 10
1916.578353074079
 20
1457.982558849861
 30
0.0
 11
1904.08627088531
 21
1457.982558849861
 31
0.0
1001
REVIT
1002
{
1070
     3
1000
790271
1002
}
  0
LINE
  5
246
330
1F8
100
AcDbEntity
  8
M-PIPE
100
AcDbLine
 10
1898.081121720221
 20
1456.910762080136
 30
0.0
 11
1877.58316254568
 21
1456.910762080137
 31
0.0
1001
REVIT
1002
{
1070
     3
1000
790271
1002
}
  0
LINE
  5
247
330
1F8
100
AcDbEntity
  8
M-PIPE
100
AcDbLine
 10
1898.080054206051
 20
1457.982558849861
 30
0.0
 11
1885.587972017277
 21
1457.982558849862
 31
0.0
1001
REVIT
1002
{
1070
     3
1000
790271
1002
}
  0
LINE
  5
248
330
1F8
100
AcDbEntity
  8
M-PIPE
100
AcDbLine
 10
1883.083162545654
 20
1457.982558849862
 30
0.0
 11
1881.58316254568
 21
1457.982558849862
 31
0.0
1001
REVIT
1002
{
1070
     3
1000
790271
1002
}
  0
LINE
  5
249
330
1F8
100
AcDbEntity
  8
M-PIPE
100
AcDbLine
 10
1919.083162545654
 20
1457.982558849861
 30
0.0
 11
1916.578353074079
 21
1457.982558849861
 31
0.0
1001
REVIT
1002
{
1070
     3
1000
790271
1002
}
  0
LINE
  5
24A
330
1F8
100
AcDbEntity
  8
M-PIPE
100
AcDbLine
 10
1919.083162545655
 20
1457.982558849861
 30
0.0
 11
1919.083162545655
 21
1472.116533446207
 31
0.0
1001
REVIT
1002
{
1070
     3
1000
790271
1002
}
  0
LINE
  5
24B
330
1F8
100
AcDbEntity
  8
M-PIPE
100
AcDbLine
 10
1916.578353074078
 20
1472.116533446207
 30
0.0
 11
1916.578353074078
 21
1457.982558849861
 31
0.0
1001
REVIT
1002
{
1070
     3
1000
790271
1002
}
  0
LINE
  5
24C
330
1F8
100
AcDbEntity
  8
M-PIPE
100
AcDbLine
 10
1903.587972017225
 20
1470.982558850059
 30
0.0
 11
1903.587972017225
 21
1472.116533446207
 31
0.0
1001
REVIT
1002
{
1070
     3
1000
790271
1002
}
  0
LINE
  5
24D
330
1F8
100
AcDbEntity
  8
M-PIPE
100
AcDbLine
 10
1898.578353074046
 20
1472.116533446207
 30
0.0
 11
1898.578353074046
 21
1470.982558850059
 31
0.0
1001
REVIT
1002
{
1070
     3
1000
790271
1002
}
  0
LINE
  5
24E
330
1F8
100
AcDbEntity
  8
M-PIPE
100
AcDbLine
 10
1885.587972017277
 20
1457.982558849862
 30
0.0
 11
1883.083162545654
 21
1457.982558849862
 31
0.0
1001
REVIT
1002
{
1070
     3
1000
790271
1002
}
  0
LINE
  5
24F
330
1F8
100
AcDbEntity
  8
M-PIPE
100
AcDbLine
 10
1885.587972017277
 20
1457.982558849862
 30
0.0
 11
1885.587972017277
 21
1472.116533446207
 31
0.0
1001
REVIT
1002
{
1070
     3
1000
790271
1002
}
  0
LINE
  5
250
330
1F8
100
AcDbEntity
  8
M-PIPE
100
AcDbLine
 10
1883.083162545656
 20
1472.116533446207
 30
0.0
 11
1883.083162545655
 21
1457.982558849862
 31
0.0
1001
REVIT
1002
{
1070
     3
1000
790271
1002
}
  0
LINE
  5
251
330
1F8
100
AcDbEntity
  8
M-PIPE
100
AcDbLine
 10
1903.587972017223
 20
1472.116533446207
 30
0.0
 11
1901.083162545681
 21
1472.116533446207
 31
0.0
1001
REVIT
1002
{
1070
     3
1000
790271
1002
}
  0
SPLINE
  5
252
330
1F8
100
AcDbEntity
  8
M-PIPE
100
AcDbSpline
210
0.0
220
0.0
230
1.0
 70
     8
 71
     3
 72
     9
 73
     5
 74
     0
 42
0.000000001
 43
0.0000000001
 40
-1.0
 40
-1.0
 40
-1.0
 40
-1.0
 40
-0.5
 40
0.0
 40
0.0
 40
0.0
 40
0.0
 10
1903.587972017223
 20
1472.116533446207
 30
0.0
 10
1905.716520618322
 20
1472.693840948683
 30
0.0
 10
1910.010132728898
 20
1473.271148451158
 30
0.0
 10
1914.376774656227
 20
1472.693840948682
 30
0.0
 10
1916.578353074079
 20
1472.116533446207
 30
0.0
1001
REVIT
1002
{
1070
     3
1000
790271
1002
}
  0
LINE
  5
253
330
1F8
100
AcDbEntity
  8
M-PIPE
100
AcDbLine
 10
1919.083162545654
 20
1472.116533446207
 30
0.0
 11
1916.578353074079
 21
1472.116533446207
 31
0.0
1001
REVIT
1002
{
1070
     3
1000
790271
1002
}
  0
SPLINE
  5
254
330
1F8
100
AcDbEntity
  8
M-PIPE
100
AcDbSpline
210
0.0
220
0.0
230
1.0
 70
    24
 71
     3
 72
     9
 73
     5
 74
     0
 42
0.000000001
 43
0.0000000001
 40
-1.0
 40
-1.0
 40
-1.0
 40
-1.0
 40
-0.5
 40
0.0
 40
0.0
 40
0.0
 40
0.0
 10
1919.083162545654
 20
1472.116533446207
 30
0.0
 10
1919.083162545656
 20
1472.398959293563
 30
0.0
 10
1919.083162545659
 20
1472.825722708213
 30
0.0
 10
1919.083162545662
 20
1472.976309562742
 30
0.0
 10
1919.083162545664
 20
1472.982558849976
 30
0.0
1001
REVIT
1002
{
1070
     3
1000
790271
1002
}
  0
SPLINE
  5
255
330
1F8
100
AcDbEntity
  8
M-PIPE
100
AcDbSpline
210
0.0
220
0.0
230
1.0
 70
    24
 71
     3
 72
     8
 73
     4
 74
     0
 42
0.000000001
 43
0.0000000001
 40
-1.0
 40
-1.0
 40
-1.0
 40
-1.0
 40
-0.801082183873993
 40
-0.801082183873993
 40
-0.801082183873993
 40
-0.801082183873993
 10
1919.083162545664
 20
1472.982558849976
 30
0.0
 10
1919.083162545665
 20
1472.980072660834
 30
0.0
 10
1919.083162545666
 20
1472.96665863538
 30
0.0
 10
1919.083162545666
 20
1472.942316773612
 30
0.0
1001
REVIT
1002
{
1070
     3
1000
790271
1002
}
  0
SPLINE
  5
256
330
1F8
100
AcDbEntity
  8
M-PIPE
100
AcDbSpline
210
0.0
220
0.0
230
1.0
 70
    24
 71
     3
 72
     9
 73
     5
 74
     0
 42
0.000000001
 43
0.0000000001
 40
-1.0
 40
-1.0
 40
-1.0
 40
-1.0
 40
-0.5
 40
0.0
 40
0.0
 40
0.0
 40
0.0
 10
1883.083162545664
 20
1472.982558849976
 30
0.0
 10
1883.083162545662
 20
1472.976309562726
 30
0.0
 10
1883.083162545659
 20
1472.82572270818
 30
0.0
 10
1883.083162545656
 20
1472.398959293546
 30
0.0
 10
1883.083162545654
 20
1472.116533446207
 30
0.0
1001
REVIT
1002
{
1070
     3
1000
790271
1002
}
  0
LINE
  5
257
330
1F8
100
AcDbEntity
  8
M-PIPE
100
AcDbLine
 10
1885.587972017278
 20
1472.116533446207
 30
0.0
 11
1883.083162545654
 21
1472.116533446207
 31
0.0
1001
REVIT
1002
{
1070
     3
1000
790271
1002
}
  0
SPLINE
  5
258
330
1F8
100
AcDbEntity
  8
M-PIPE
100
AcDbSpline
210
0.0
220
0.0
230
1.0
 70
     8
 71
     3
 72
     9
 73
     5
 74
     0
 42
0.000000001
 43
0.0000000001
 40
-1.0
 40
-1.0
 40
-1.0
 40
-1.0
 40
-0.5
 40
0.0
 40
0.0
 40
0.0
 40
0.0
 10
1885.587972017278
 20
1472.116533446207
 30
0.0
 10
1887.716520618362
 20
1472.693840948677
 30
0.0
 10
1892.010132728908
 20
1473.271148451146
 30
0.0
 10
1896.376774656207
 20
1472.693840948677
 30
0.0
 10
1898.578353074044
 20
1472.116533446207
 30
0.0
1001
REVIT
1002
{
1070
     3
1000
790271
1002
}
  0
LINE
  5
259
330
1F8
100
AcDbEntity
  8
M-PIPE
100
AcDbLine
 10
1901.083162545681
 20
1472.116533446207
 30
0.0
 11
1898.578353074044
 21
1472.116533446207
 31
0.0
1001
REVIT
1002
{
1070
     3
1000
790271
1002
}
  0
LINE
  5
25A
330
1F8
100
AcDbEntity
  8
M-PIPE
100
AcDbLine
 10
1919.083162545708
 20
1472.982558849976
 30
0.0
 11
1901.083162545681
 21
1472.982558849976
 31
0.0
1001
REVIT
1002
{
1070
     3
1000
790271
1002
}
  0
LINE
  5
25B
330
1F8
100
AcDbEntity
  8
M-PIPE
100
AcDbLine
 10
1901.083162545681
 20
1472.982558849976
 30
0.0
 11
1890.996350570994
 21
1472.982558849976
 31
0.0
1001
REVIT
1002
{
1070
     3
1000
790271
1002
}
  0
LINE
  5
25C
330
1F8
100
AcDbEntity
  8
M-PIPE
100
AcDbLine
 10
1890.718615100153
 20
1472.982558849976
 30
0.0
 11
1883.083162545654
 21
1472.982558849976
 31
0.0
1001
REVIT
1002
{
1070
     3
1000
790271
1002
}
  0
LWPOLYLINE
  5
25D
330
1F8
100
AcDbEntity
  8
P-SANR-FIXT
100
AcDbPolyline
 90
       14
 70
   128
 43
0.0
 10
1674.202386043488
 20
2200.391282130598
 10
1690.984578627998
 20
2208.853903949016
 10
1708.091761860439
 20
2216.638647864966
 10
1725.496567896974
 20
2223.733059948836
 10
1743.171152760774
 20
2230.125790654688
 10
1761.087240886433
 20
2235.806612977102
 10
1779.216170354844
 20
2240.766438812205
 10
1797.528938746157
 20
2244.997333496703
 10
1815.996249537463
 20
2248.492528501641
 10
1834.588558970976
 20
2251.246432260614
 10
1853.276123317752
 20
2253.254639115076
 10
1872.029046461303
 20
2254.513936362455
 10
1890.817327725011
 20
2255.022309395789
 10
1893.179058335357
 20
2255.03063616569
  0
LWPOLYLINE
  5
25E
330
1F8
100
AcDbEntity
  8
P-SANR-FIXT
100
AcDbPolyline
 90
       41
 70
   128
 43
0.0
 10
1901.083162545697
 20
2255.033991792378
 10
1900.805142928458
 20
2255.033991792378
 10
1900.527568083298
 20
2255.033991792378
 10
1900.250882070757
 20
2255.033991792378
 10
1899.975527529433
 20
2255.033991792378
 10
1899.701944967852
 20
2255.033991792378
 10
1899.430572059752
 20
2255.033991792378
 10
1899.161842943895
 20
2255.033991792378
 10
1898.896187529541
 20
2255.033991792378
 10
1898.634030808684
 20
2255.033991792378
 10
1898.375792176152
 20
2255.033991792378
 10
1898.12188475867
 20
2255.033991792378
 10
1897.872714753942
 20
2255.033991792378
 10
1897.628680780821
 20
2255.033991792378
 10
1897.390173241607
 20
2255.033991792378
 10
1897.157573697484
 20
2255.033991792378
 10
1896.931254258104
 20
2255.033991792378
 10
1896.711576986292
 20
2255.033991792378
 10
1896.498893318818
 20
2255.033991792378
 10
1896.293543504183
 20
2255.033991792378
 10
1896.095856058283
 20
2255.033991792378
 10
1895.906147238861
 20
2255.033991792378
 10
1895.724720539559
 20
2255.033991792378
 10
1895.551866204393
 20
2255.033991792378
 10
1895.387860763427
 20
2255.033991792378
 10
1895.232966590379
 20
2255.033991792378
 10
1895.087431482885
 20
2255.033991792378
 10
1894.95148826607
 20
2255.033991792378
 10
1894.825354420081
 20
2255.033991792378
 10
1894.709231732166
 20
2255.033991792378
 10
1894.603305973853
 20
2255.033991792378
 10
1894.507746603759
 20
2255.033991792378
 10
1894.422706496492
 20
2255.033991792378
 10
1894.348321698082
 20
2255.033991792378
 10
1894.284711208339
 20
2255.033991792378
 10
1894.231976790476
 20
2255.033991792378
 10
1894.190202808314
 20
2255.033991792378
 10
1894.159456091312
 20
2255.033991792378
 10
1894.139785827658
 20
2255.033991792378
 10
1894.131223485578
 20
2255.033991792378
 10
1894.130818304554
 20
2255.033991792378
  0
LWPOLYLINE
  5
25F
330
1F8
100
AcDbEntity
  8
P-SANR-FIXT
100
AcDbPolyline
 90
       41
 70
   128
 43
0.0
 10
1894.130818304554
 20
2255.033991792378
 10
1894.136379438404
 20
2255.033991792378
 10
1894.153053943323
 20
2255.033991792378
 10
1894.180815143662
 20
2255.033991792378
 10
1894.219618627422
 20
2255.033991792378
 10
1894.269402317306
 20
2255.033991792378
 10
1894.330086570032
 20
2255.033991792378
 10
1894.401574303739
 20
2255.033991792378
 10
1894.483751153303
 20
2255.033991792378
 10
1894.576485653296
 20
2255.033991792378
 10
1894.679629448301
 20
2255.033991792378
 10
1894.793017530246
 20
2255.033991792378
 10
1894.91646850239
 20
2255.033991792378
 10
1895.049784869512
 20
2255.033991792378
 10
1895.192753353864
 20
2255.033991792378
 10
1895.34514523637
 20
2255.033991792378
 10
1895.506716722525
 20
2255.033991792378
 10
1895.677209332419
 20
2255.033991792378
 10
1895.856350314246
 20
2255.033991792378
 10
1896.043853080649
 20
2255.033991792378
 10
1896.239417667202
 20
2255.033991792378
 10
1896.442731212282
 20
2255.033991792378
 10
1896.653468457591
 20
2255.033991792378
 10
1896.871292268489
 20
2255.033991792378
 10
1897.095854173346
 20
2255.033991792378
 10
1897.326794921019
 20
2255.033991792378
 10
1897.563745055575
 20
2255.033991792378
 10
1897.806325507347
 20
2255.033991792378
 10
1898.054148199358
 20
2255.033991792378
 10
1898.306816668169
 20
2255.033991792378
 10
1898.563926698128
 20
2255.033991792378
 10
1898.825066968035
 20
2255.033991792378
 10
1899.089819709164
 20
2255.033991792378
 10
1899.357761373608
 20
2255.033991792378
 10
1899.628463311863
 20
2255.033991792378
 10
1899.901492458571
 20
2255.033991792378
 10
1900.176412025343
 20
2255.033991792378
 10
1900.452782199518
 20
2255.033991792378
 10
1900.730160847772
 20
2255.033991792378
 10
1901.00810422344
 20
2255.033991792378
 10
1901.083162545697
 20
2255.033991792378
  0
LWPOLYLINE
  5
260
330
1F8
100
AcDbEntity
  8
P-SANR-FIXT
100
AcDbPolyline
 90
       11
 70
   128
 43
0.0
 10
1906.40002056293
 20
2255.033991792378
 10
1906.441604551834
 20
2255.033991792378
 10
1906.614458887
 20
2255.033991792378
 10
1906.778464327967
 20
2255.033991792378
 10
1906.933358501015
 20
2255.033991792378
 10
1907.078893608509
 20
2255.033991792378
 10
1907.214836825324
 20
2255.033991792378
 10
1907.340970671312
 20
2255.033991792378
 10
1907.457093359228
 20
2255.033991792378
 10
1907.563019117541
 20
2255.033991792378
 10
1907.583969280554
 20
2255.033991792378
  0
LWPOLYLINE
  5
261
330
1F8
100
AcDbEntity
  8
P-SANR-FIXT
100
AcDbPolyline
 90
       32
 70
   128
 43
0.0
 10
1907.58396928054
 20
2255.033991792378
 10
1907.480208783513
 20
2255.033991792378
 10
1907.366214377136
 20
2255.033991792378
 10
1907.242168428142
 20
2255.033991792378
 10
1907.108269383588
 20
2255.033991792378
 10
1906.96473145338
 20
2255.033991792378
 10
1906.811784267588
 20
2255.033991792378
 10
1906.649672509081
 20
2255.033991792378
 10
1906.478655522092
 20
2255.033991792378
 10
1906.299006897318
 20
2255.033991792378
 10
1906.111014034235
 20
2255.033991792378
 10
1905.914977681322
 20
2255.033991792378
 10
1905.711211454924
 20
2255.033991792378
 10
1905.500041337536
 20
2255.033991792378
 10
1905.281805156297
 20
2255.033991792378
 10
1905.056852042545
 20
2255.033991792378
 10
1904.825541873272
 20
2255.033991792378
 10
1904.588244695408
 20
2255.033991792378
 10
1904.345340133815
 20
2255.033991792378
 10
1904.097216783975
 20
2255.033991792378
 10
1903.844271590317
 20
2255.033991792378
 10
1903.586909211194
 20
2255.033991792378
 10
1903.32554137151
 20
2255.033991792378
 10
1903.060586204053
 20
2255.033991792378
 10
1902.792467580571
 20
2255.033991792378
 10
1902.521614433665
 20
2255.033991792378
 10
1902.248460070592
 20
2255.033991792378
 10
1901.973441480062
 20
2255.033991792378
 10
1901.696998633154
 20
2255.033991792378
 10
1901.41957377945
 20
2255.033991792378
 10
1901.141610739536
 20
2255.033991792378
 10
1901.083162545697
 20
2255.033991792378
  0
LWPOLYLINE
  5
262
330
1F8
100
AcDbEntity
  8
P-SANR-FIXT
100
AcDbPolyline
 90
       29
 70
   128
 43
0.0
 10
1655.583162545697
 20
2169.461197080849
 10
1655.611158812562
 20
2170.860823777382
 10
1655.695102825105
 20
2172.25821136977
 10
1655.834860290811
 20
2173.651124335961
 10
1656.03020762755
 20
2175.037334312348
 10
1656.280832321253
 20
2176.414623658677
 10
1656.586333425876
 20
2177.780789005799
 10
1656.94622220482
 20
2179.133644780594
 10
1657.359922912811
 20
2180.471026702413
 10
1657.826773716969
 20
2181.790795245477
 10
1658.346027755596
 20
2183.090839061653
 10
1658.916854332998
 20
2184.369078358159
 10
1659.538340248422
 20
2185.623468224802
 10
1660.209491256979
 20
2186.85200190538
 10
1660.929233660227
 20
2188.05271400808
 10
1661.696416023858
 20
2189.223683649675
 10
1662.509811019746
 20
2190.363037528534
 10
1663.368117389414
 20
2191.468952921496
 10
1664.269962025765
 20
2192.539660599851
 10
1665.213902169765
 20
2193.573447659719
 10
1666.198427718546
 20
2194.568660262333
 10
1667.221963641251
 20
2195.523706279829
 10
1668.282872498746
 20
2196.437057842313
 10
1669.379457063176
 20
2197.307253782122
 10
1670.509963033161
 20
2198.132901971384
 10
1671.672581840312
 20
2198.912681549126
 10
1672.86545354255
 20
2199.645345034366
 10
1674.086669799616
 20
2200.329720321823
 10
1674.202386043488
 20
2200.391282130598
  0
LINE
  5
263
330
1F8
100
AcDbEntity
  8
P-SANR-FIXT
100
AcDbLine
 10
1655.583162545697
 20
2169.461197080849
 30
0.0
 11
1655.583162545697
 21
1999.982558850011
 31
0.0
  0
LINE
  5
264
330
1F8
100
AcDbEntity
  8
P-SANR-FIXT
100
AcDbLine
 10
1655.583162545697
 20
1999.982558850011
 30
0.0
 11
1655.583162545697
 21
1600.567069489107
 31
0.0
  0
LWPOLYLINE
  5
265
330
1F8
100
AcDbEntity
  8
P-SANR-FIXT
100
AcDbPolyline
 90
       29
 70
   128
 43
0.0
 10
1674.340866546849
 20
1569.564040271209
 10
1673.114068155037
 20
1570.238357990426
 10
1671.915216587707
 20
1570.961195178261
 10
1670.746229751628
 20
1571.73139544941
 10
1669.608977776366
 20
1572.54772664774
 10
1668.505280022482
 20
1573.408882817476
 10
1667.436902170937
 20
1574.313486292449
 10
1666.405553398386
 20
1575.26008990007
 10
1665.412883642856
 20
1576.2471792765
 10
1664.460480964198
 20
1577.273175289303
 10
1663.549869003528
 20
1578.336436563727
 10
1662.682504545731
 20
1579.435262108549
 10
1661.859775188911
 20
1580.567894037302
 10
1661.082997124532
 20
1581.732520380515
 10
1660.353413031795
 20
1582.927277984478
 10
1659.67219008961
 20
1584.150255491894
 10
1659.040418109366
 20
1585.399496399638
 10
1658.45910779146
 20
1586.67300218875
 10
1657.929189108395
 20
1587.968735521632
 10
1657.45150981702
 20
1589.284623501361
 10
1657.026834102302
 20
1590.618560987877
 10
1656.655841354792
 20
1591.96841396576
 10
1656.339125083743
 20
1593.332022958198
 10
1656.07719196763
 20
1594.707206481691
 10
1655.870461043561
 20
1596.091764535958
 10
1655.719263036913
 20
1597.483482123471
 10
1655.623839832244
 20
1598.88013279297
 10
1655.584344086326
 20
1600.279482201324
 10
1655.583162545696
 20
1600.567069489107
  0
LWPOLYLINE
  5
266
330
1F8
100
AcDbEntity
  8
P-SANR-FIXT
100
AcDbPolyline
 90
       14
 70
   128
 43
0.0
 10
1878.237864861221
 20
1519.388231082737
 10
1860.667708388032
 20
1519.739681073449
 10
1843.125660417101
 20
1520.793468800573
 10
1825.639784483075
 20
1522.54790842854
 10
1808.23805425733
 20
1525.000193228207
 10
1790.948308796054
 20
1528.146400067021
 10
1773.798208003704
 20
1531.981495685193
 10
1756.815188383054
 20
1536.499344747846
 10
1740.026419142646
 20
1541.692719660236
 10
1723.458758731852
 20
1547.553312130362
 10
1707.138711873083
 20
1554.071746460468
 10
1691.092387159889
 20
1561.237594546148
 10
1675.345455288778
 20
1569.039392559099
 10
1674.340866546846
 20
1569.56404027121
  0
LWPOLYLINE
  5
267
330
1F8
100
AcDbEntity
  8
P-SANR-FIXT
100
AcDbPolyline
 90
       25
 70
   128
 43
0.0
 10
1886.812243924411
 20
1519.388231082737
 10
1886.718198730075
 20
1519.388231082737
 10
1886.01932342593
 20
1519.388231082737
 10
1885.344547050929
 20
1519.388231082737
 10
1884.694949103328
 20
1519.388231082737
 10
1884.071568801268
 20
1519.388231082737
 10
1883.475403420253
 20
1519.388231082737
 10
1882.907406697717
 20
1519.388231082737
 10
1882.36848730725
 20
1519.388231082737
 10
1881.859507404914
 20
1519.388231082737
 10
1881.381281249975
 20
1519.388231082737
 10
1880.934573902265
 20
1519.388231082737
 10
1880.520099998248
 20
1519.388231082737
 10
1880.138522607755
 20
1519.388231082737
 10
1879.790452173212
 20
1519.388231082737
 10
1879.476445533061
 20
1519.388231082737
 10
1879.197005030943
 20
1519.388231082737
 10
1878.952577712051
 20
1519.388231082737
 10
1878.743554607953
 20
1519.388231082737
 10
1878.570270111026
 20
1519.388231082737
 10
1878.433001439502
 20
1519.388231082737
 10
1878.33196819397
 20
1519.388231082737
 10
1878.267332006072
 20
1519.388231082737
 10
1878.239196279919
 20
1519.388231082737
 10
1878.237864861224
 20
1519.388231082737
  0
LWPOLYLINE
  5
268
330
1F8
100
AcDbEntity
  8
P-SANR-FIXT
100
AcDbPolyline
 90
       41
 70
   128
 43
0.0
 10
1878.237864861224
 20
1519.388231082737
 10
1878.256138662669
 20
1519.388231082737
 10
1878.310930832823
 20
1519.388231082737
 10
1878.4021537159
 20
1519.388231082737
 10
1878.529661374747
 20
1519.388231082737
 10
1878.69324982431
 20
1519.388231082737
 10
1878.892657357969
 20
1519.388231082737
 10
1879.127564966205
 20
1519.388231082737
 10
1879.397596846958
 20
1519.388231082737
 10
1879.702321006822
 20
1519.388231082737
 10
1880.041249952144
 20
1519.388231082737
 10
1880.413841468915
 20
1519.388231082737
 10
1880.819499490188
 20
1519.388231082737
 10
1881.257575049666
 20
1519.388231082737
 10
1881.727367319904
 20
1519.388231082737
 10
1882.228124733488
 20
1519.388231082737
 10
1882.759046185377
 20
1519.388231082737
 10
1883.319282314507
 20
1519.388231082737
 10
1883.907936862581
 20
1519.388231082737
 10
1884.524068107895
 20
1519.388231082737
 10
1885.166690371891
 20
1519.388231082737
 10
1885.834775596032
 20
1519.388231082737
 10
1886.527254986478
 20
1519.388231082737
 10
1887.243020723923
 20
1519.388231082737
 10
1887.980927735877
 20
1519.388231082737
 10
1888.739795528532
 20
1519.388231082737
 10
1889.518410075303
 20
1519.388231082737
 10
1890.315525759012
 20
1519.388231082737
 10
1891.129867364606
 20
1519.388231082737
 10
1891.960132119233
 20
1519.388231082737
 10
1892.8049917764
 20
1519.388231082737
 10
1893.663094740882
 20
1519.388231082737
 10
1894.533068230989
 20
1519.388231082737
 10
1895.41352047472
 20
1519.388231082737
 10
1896.303042936305
 20
1519.388231082737
 10
1897.200212569561
 20
1519.388231082737
 10
1898.103594094461
 20
1519.388231082737
 10
1899.011742293275
 20
1519.388231082737
 10
1899.923204322613
 20
1519.388231082737
 10
1900.836522037664
 20
1519.388231082737
 10
1901.083162545697
 20
1519.388231082737
  0
LWPOLYLINE
  5
269
330
1F8
100
AcDbEntity
  8
P-SANR-FIXT
100
AcDbPolyline
 90
       10
 70
   128
 43
0.0
 10
1901.083162545697
 20
1519.388231082737
 10
1901.996730789394
 20
1519.388231082737
 10
1902.908837518786
 20
1519.388231082737
 10
1903.818023557677
 20
1519.388231082737
 10
1904.722834402356
 20
1519.388231082737
 10
1905.621822548485
 20
1519.388231082737
 10
1906.513549806806
 20
1519.388231082737
 10
1907.39658960393
 20
1519.388231082737
 10
1908.269529264553
 20
1519.388231082737
 10
1908.975806003914
 20
1519.388231082737
  0
SPLINE
  5
26A
330
1F8
100
AcDbEntity
  8
P-SANR-FIXT
100
AcDbSpline
210
0.0
220
0.0
230
1.0
 70
    24
 71
     3
 72
    13
 73
     9
 74
     0
 42
0.000000001
 43
0.0000000001
 40
-1.0
 40
-1.0
 40
-1.0
 40
-1.0
 40
-0.8333333333333332
 40
-0.6666666666666666
 40
-0.5
 40
-0.3333333333333333
 40
-0.1666666666666666
 40
-0.1076618309474605
 40
-0.1076618309474605
 40
-0.1076618309474605
 40
-0.1076618309474605
 10
1901.755059115502
 20
2200.391282130597
 30
0.0
 10
1901.755059115502
 20
2206.535383741128
 30
0.0
 10
1901.755059115502
 20
2217.811204268606
 30
0.0
 10
1901.755059115503
 20
2231.734358907056
 30
0.0
 10
1901.755059115503
 20
2242.527221608778
 30
0.0
 10
1901.755059115504
 20
2250.118962863907
 30
0.0
 10
1901.755059115505
 20
2253.541245306149
 30
0.0
 10
1901.755059115505
 20
2254.500372887529
 30
0.0
 10
1901.755059115505
 20
2254.682326551124
 30
0.0
  0
SPLINE
  5
26B
330
1F8
100
AcDbEntity
  8
P-SANR-FIXT
100
AcDbSpline
210
0.0
220
0.0
230
1.0
 70
    24
 71
     3
 72
    12
 73
     8
 74
     0
 42
0.000000001
 43
0.0000000001
 40
-1.0
 40
-1.0
 40
-1.0
 40
-1.0
 40
-0.85
 40
-0.7
 40
-0.4
 40
-0.2
 40
0.0
 40
0.0
 40
0.0
 40
0.0
 10
1901.755059115501
 20
2169.461197080849
 30
0.0
 10
1901.755059115501
 20
2171.384893596492
 30
0.0
 10
1901.755059115501
 20
2175.156825603973
 30
0.0
 10
1901.755059115501
 20
2182.523392939939
 30
0.0
 10
1901.755059115502
 20
2189.884458989294
 30
0.0
 10
1901.755059115502
 20
2196.361567649792
 30
0.0
 10
1901.755059115502
 20
2199.18266410719
 30
0.0
 10
1901.755059115502
 20
2200.391282130597
 30
0.0
  0
LINE
  5
26C
330
1F8
100
AcDbEntity
  8
P-SANR-FIXT
100
AcDbLine
 10
1901.755059115503
 20
2142.458562003161
 30
0.0
 11
1901.755059115503
 21
2169.461197080848
 31
0.0
  0
LINE
  5
26D
330
1F8
100
AcDbEntity
  8
P-SANR-FIXT
100
AcDbLine
 10
1901.755059115503
 20
1600.567069489106
 30
0.0
 11
1901.755059115503
 21
1857.506555696861
 31
0.0
  0
SPLINE
  5
26E
330
1F8
100
AcDbEntity
  8
P-SANR-FIXT
100
AcDbSpline
210
0.0
220
0.0
230
1.0
 70
    24
 71
     3
 72
    12
 73
     8
 74
     0
 42
0.000000001
 43
0.0000000001
 40
-1.0
 40
-1.0
 40
-1.0
 40
-1.0
 40
-0.85
 40
-0.7
 40
-0.4
 40
-0.2
 40
0.0
 40
0.0
 40
0.0
 40
0.0
 10
1901.755059115502
 20
1569.564040271209
 30
0.0
 10
1901.755059115502
 20
1570.464507158078
 30
0.0
 10
1901.755059115502
 20
1572.495051696096
 30
0.0
 10
1901.755059115502
 20
1577.565974707407
 30
0.0
 10
1901.755059115501
 20
1584.466964539317
 30
0.0
 10
1901.755059115501
 20
1592.962236112066
 30
0.0
 10
1901.755059115501
 20
1597.986273111153
 30
0.0
 10
1901.755059115501
 20
1600.567069489107
 30
0.0
  0
SPLINE
  5
26F
330
1F8
100
AcDbEntity
  8
P-SANR-FIXT
100
AcDbSpline
210
0.0
220
0.0
230
1.0
 70
    24
 71
     3
 72
     8
 73
     4
 74
     0
 42
0.000000001
 43
0.0000000001
 40
-0.9290276227360397
 40
-0.9290276227360397
 40
-0.9290276227360397
 40
-0.9290276227360397
 40
-0.8870452548289016
 40
-0.8870452548289016
 40
-0.8870452548289016
 40
-0.8870452548289016
 10
1901.755059115505
 20
1519.417994919793
 30
0.0
 10
1901.755059115505
 20
1519.374835467319
 30
0.0
 10
1901.755059115505
 20
1519.369916152031
 30
0.0
 10
1901.755059115505
 20
1519.401651902996
 30
0.0
  0
SPLINE
  5
270
330
1F8
100
AcDbEntity
  8
P-SANR-FIXT
100
AcDbSpline
210
0.0
220
0.0
230
1.0
 70
    24
 71
     3
 72
    12
 73
     8
 74
     0
 42
0.000000001
 43
0.0000000001
 40
-0.8823042572160733
 40
-0.8823042572160733
 40
-0.8823042572160733
 40
-0.8823042572160733
 40
-0.7857142857142857
 40
-0.5714285714285714
 40
-0.2857142857142857
 40
-0.1428571428571428
 40
0.0
 40
0.0
 40
0.0
 40
0.0
 10
1901.755059115505
 20
1519.409055275162
 30
0.0
 10
1901.755059115505
 20
1519.496110044861
 30
0.0
 10
1901.755059115505
 20
1520.397019174748
 30
0.0
 10
1901.755059115503
 20
1525.979478607719
 30
0.0
 10
1901.755059115503
 20
1538.637950397773
 30
0.0
 10
1901.755059115502
 20
1554.752571660883
 30
0.0
 10
1901.755059115502
 20
1564.36413978459
 30
0.0
 10
1901.755059115502
 20
1569.564040271209
 30
0.0
  0
LINE
  5
271
330
1F8
100
AcDbEntity
  8
P-SANR-FIXT
100
AcDbLine
 10
1918.168654492587
 20
1554.806651640999
 30
0.0
 11
1922.178355746952
 21
1556.604151538584
 31
0.0
  0
LINE
  5
272
330
1F8
100
AcDbEntity
  8
P-SANR-FIXT
100
AcDbLine
 10
1923.022472774899
 20
1547.323300587092
 30
0.0
 11
1923.022472774899
 21
1556.604111098601
 31
0.0
  0
LINE
  5
273
330
1F8
100
AcDbEntity
  8
P-SANR-FIXT
100
AcDbLine
 10
1917.933162545694
 20
1545.041825226349
 30
0.0
 11
1923.022472774899
 21
1547.323300587092
 31
0.0
  0
LINE
  5
274
330
1F8
100
AcDbEntity
  8
P-SANR-FIXT
100
AcDbLine
 10
1916.583162545648
 20
2274.982558850038
 30
0.0
 11
1916.583162545648
 21
2291.482558849964
 31
0.0
  0
LINE
  5
275
330
1F8
100
AcDbEntity
  8
P-SANR-FIXT
100
AcDbLine
 10
1885.58316254572
 20
2291.482558849964
 30
0.0
 11
1885.58316254572
 21
2274.982558850038
 31
0.0
  0
LINE
  5
276
330
1F8
100
AcDbEntity
  8
P-SANR-FIXT
100
AcDbLine
 10
1896.491637255959
 20
2299.982558850026
 30
0.0
 11
1895.583162545694
 21
2299.982558850026
 31
0.0
  0
LINE
  5
277
330
1F8
100
AcDbEntity
  8
P-SANR-FIXT
100
AcDbLine
 10
1895.583162545694
 20
2299.982558850026
 30
0.0
 11
1894.656744787934
 21
2299.982558850026
 31
0.0
  0
LINE
  5
278
330
1F8
100
AcDbEntity
  8
P-SANR-FIXT
100
AcDbLine
 10
1890.083162545694
 20
2299.982558850026
 30
0.0
 11
1895.583162545694
 21
2299.982558850026
 31
0.0
  0
LINE
  5
279
330
1F8
100
AcDbEntity
  8
P-SANR-FIXT
100
AcDbLine
 10
1895.583162545694
 20
2299.982558850026
 30
0.0
 11
1901.083162545694
 21
2299.982558850026
 31
0.0
  0
LINE
  5
27A
330
1F8
100
AcDbEntity
  8
P-SANR-FIXT
100
AcDbLine
 10
1901.083162545694
 20
2299.982558850026
 30
0.0
 11
1906.583162545694
 21
2299.982558850026
 31
0.0
  0
LINE
  5
27B
330
1F8
100
AcDbEntity
  8
P-SANR-FIXT
100
AcDbLine
 10
1906.583162545694
 20
2299.982558850026
 30
0.0
 11
1912.083162545694
 21
2299.982558850026
 31
0.0
  0
LINE
  5
27C
330
1F8
100
AcDbEntity
  8
P-SANR-FIXT
100
AcDbLine
 10
1907.509580302291
 20
2299.982558850026
 30
0.0
 11
1906.583162545694
 21
2299.982558850026
 31
0.0
  0
LINE
  5
27D
330
1F8
100
AcDbEntity
  8
P-SANR-FIXT
100
AcDbLine
 10
1906.583162545694
 20
2299.982558850026
 30
0.0
 11
1905.674687835501
 21
2299.982558850026
 31
0.0
  0
LINE
  5
27E
330
1F8
100
AcDbEntity
  8
P-SANR-FIXT
100
AcDbLine
 10
1901.083162545681
 20
2299.000078477787
 30
0.0
 11
1901.083162545681
 21
2291.482558849962
 31
0.0
  0
SPLINE
  5
27F
330
1F8
100
AcDbEntity
  8
P-SANR-FIXT
100
AcDbSpline
210
0.0
220
0.0
230
1.0
 70
     8
 71
     3
 72
     9
 73
     5
 74
     0
 42
0.000000001
 43
0.0000000001
 40
0.0
 40
0.0
 40
0.0
 40
0.0
 40
0.5
 40
1.0
 40
1.0
 40
1.0
 40
1.0
 10
1912.083162545668
 20
2299.000078477794
 30
0.0
 10
1911.173150159078
 20
2299.317203308365
 30
0.0
 10
1909.346471105823
 20
2299.798074867641
 30
0.0
 10
1907.506483492422
 20
2299.972190223186
 30
0.0
 10
1906.583162545684
 20
2299.982558850026
 30
0.0
  0
SPLINE
  5
280
330
1F8
100
AcDbEntity
  8
P-SANR-FIXT
100
AcDbSpline
210
0.0
220
0.0
230
1.0
 70
     8
 71
     3
 72
     9
 73
     5
 74
     0
 42
0.000000001
 43
0.0000000001
 40
0.0
 40
0.0
 40
0.0
 40
0.0
 40
0.5
 40
1.0
 40
1.0
 40
1.0
 40
1.0
 10
1906.583162545684
 20
2299.982558850026
 30
0.0
 10
1905.659841598943
 20
2299.972190223186
 30
0.0
 10
1903.819853985534
 20
2299.79807486764
 30
0.0
 10
1901.993174932274
 20
2299.317203308361
 30
0.0
 10
1901.083162545681
 20
2299.000078477787
 30
0.0
  0
LINE
  5
281
330
1F8
100
AcDbEntity
  8
P-SANR-FIXT
100
AcDbLine
 10
1912.083162545668
 20
2291.482558849962
 30
0.0
 11
1912.083162545668
 21
2299.000078477794
 31
0.0
  0
SPLINE
  5
282
330
1F8
100
AcDbEntity
  8
P-SANR-FIXT
100
AcDbSpline
210
0.0
220
0.0
230
1.0
 70
    24
 71
     3
 72
     9
 73
     5
 74
     0
 42
0.000000001
 43
0.0000000001
 40
0.0
 40
0.0
 40
0.0
 40
0.0
 40
0.5
 40
1.0
 40
1.0
 40
1.0
 40
1.0
 10
1912.083162545668
 20
2299.982558850026
 30
0.0
 10
1912.083162545668
 20
2299.972190223188
 30
0.0
 10
1912.083162545668
 20
2299.798074867645
 30
0.0
 10
1912.083162545668
 20
2299.317203308367
 30
0.0
 10
1912.083162545668
 20
2299.000078477794
 30
0.0
  0
SPLINE
  5
283
330
1F8
100
AcDbEntity
  8
P-SANR-FIXT
100
AcDbSpline
210
0.0
220
0.0
230
1.0
 70
    24
 71
     3
 72
     9
 73
     5
 74
     0
 42
0.000000001
 43
0.0000000001
 40
0.0
 40
0.0
 40
0.0
 40
0.0
 40
0.5
 40
1.0
 40
1.0
 40
1.0
 40
1.0
 10
1890.083162545693
 20
2299.00007847778
 30
0.0
 10
1890.083162545693
 20
2299.317203308351
 30
0.0
 10
1890.083162545693
 20
2299.798074867628
 30
0.0
 10
1890.083162545693
 20
2299.972190223181
 30
0.0
 10
1890.083162545693
 20
2299.982558850026
 30
0.0
  0
SPLINE
  5
284
330
1F8
100
AcDbEntity
  8
P-SANR-FIXT
100
AcDbSpline
210
0.0
220
0.0
230
1.0
 70
     8
 71
     3
 72
     9
 73
     5
 74
     0
 42
0.000000001
 43
0.0000000001
 40
0.0
 40
0.0
 40
0.0
 40
0.0
 40
0.5
 40
1.0
 40
1.0
 40
1.0
 40
1.0
 10
1901.083162545681
 20
2299.000078477787
 30
0.0
 10
1900.173150159091
 20
2299.317203308357
 30
0.0
 10
1898.346471105836
 20
2299.798074867633
 30
0.0
 10
1896.506483492435
 20
2299.972190223182
 30
0.0
 10
1895.583162545697
 20
2299.982558850026
 30
0.0
  0
SPLINE
  5
285
330
1F8
100
AcDbEntity
  8
P-SANR-FIXT
100
AcDbSpline
210
0.0
220
0.0
230
1.0
 70
     8
 71
     3
 72
     9
 73
     5
 74
     0
 42
0.000000001
 43
0.0000000001
 40
0.0
 40
0.0
 40
0.0
 40
0.0
 40
0.5
 40
1.0
 40
1.0
 40
1.0
 40
1.0
 10
1895.583162545697
 20
2299.982558850026
 30
0.0
 10
1894.659841598956
 20
2299.972190223182
 30
0.0
 10
1892.819853985548
 20
2299.798074867632
 30
0.0
 10
1890.993174932287
 20
2299.317203308353
 30
0.0
 10
1890.083162545693
 20
2299.00007847778
 30
0.0
  0
LINE
  5
286
330
1F8
100
AcDbEntity
  8
P-SANR-FIXT
100
AcDbLine
 10
1890.083162545693
 20
2291.482558849962
 30
0.0
 11
1890.083162545693
 21
2299.00007847778
 31
0.0
  0
LINE
  5
287
330
1F8
100
AcDbEntity
  8
P-SANR-FIXT
100
AcDbLine
 10
1901.083162545681
 20
2291.482558849962
 30
0.0
 11
1916.583162545645
 21
2291.482558849962
 31
0.0
  0
LINE
  5
288
330
1F8
100
AcDbEntity
  8
P-SANR-FIXT
100
AcDbLine
 10
1885.583162545717
 20
2291.482558849962
 30
0.0
 11
1901.083162545681
 21
2291.482558849962
 31
0.0
  0
LINE
  5
289
330
1F8
100
AcDbEntity
  8
P-SANR-FIXT
100
AcDbLine
 10
1901.083162545681
 20
2274.982558850037
 30
0.0
 11
1885.583162545717
 21
2274.982558850037
 31
0.0
  0
LINE
  5
28A
330
1F8
100
AcDbEntity
  8
P-SANR-FIXT
100
AcDbLine
 10
1916.583162545645
 20
2274.982558850037
 30
0.0
 11
1901.083162545681
 21
2274.982558850037
 31
0.0
  0
LINE
  5
28B
330
1F8
100
AcDbEntity
  8
P-SANR-FIXT
100
AcDbLine
 10
1887.633162545697
 20
2274.982558850038
 30
0.0
 11
1887.633162545697
 21
2254.900230382142
 31
0.0
  0
LINE
  5
28C
330
1F8
100
AcDbEntity
  8
P-SANR-FIXT
100
AcDbLine
 10
1914.533162545697
 20
2196.997769965281
 30
0.0
 11
1914.533162545697
 21
2274.982558850038
 31
0.0
  0
LWPOLYLINE
  5
28D
330
1F8
100
AcDbEntity
  8
P-SANR-FIXT
100
AcDbPolyline
 90
        3
 70
   128
 43
0.0
 10
1883.110672144671
 20
2197.019593275121
 10
1883.088509065079
 20
2197.019593275121
 10
1883.087460279689
 20
2197.019593275121
  0
LWPOLYLINE
  5
28E
330
1F8
100
AcDbEntity
  8
P-SANR-FIXT
100
AcDbPolyline
 90
       13
 70
   128
 43
0.0
 10
1919.078864811704
 20
2197.019593275121
 10
1930.235657666878
 20
2196.796427661809
 10
1941.374602033473
 20
2196.127287839248
 10
1952.477877976683
 20
2195.013244288412
 10
1963.527722623572
 20
2193.456079241332
 10
1974.506458579879
 20
2191.458283829905
 10
1985.39652221008
 20
2189.023054100618
 10
1996.180491735455
 20
2186.154285901549
 10
2006.841115105223
 20
2182.856568649844
 10
2017.361337596137
 20
2179.135177989631
 10
2027.724329096403
 20
2174.996067352113
 10
2037.913511030278
 20
2170.445858431346
 10
2043.719395716752
 20
2167.630085749999
  0
LWPOLYLINE
  5
28F
330
1F8
100
AcDbEntity
  8
P-SANR-FIXT
100
AcDbPolyline
 90
       20
 70
   128
 43
0.0
 10
1914.505582288623
 20
2197.019593275121
 10
1914.953149935199
 20
2197.019593275121
 10
1915.400572422224
 20
2197.019593275121
 10
1915.825090107665
 20
2197.019593275121
 10
1916.226023853784
 20
2197.019593275121
 10
1916.602732252114
 20
2197.019593275121
 10
1916.954612649579
 20
2197.019593275121
 10
1917.281102112607
 20
2197.019593275121
 10
1917.581678327704
 20
2197.019593275121
 10
1917.855860437045
 20
2197.019593275121
 10
1918.103209807745
 20
2197.019593275121
 10
1918.323330733574
 20
2197.019593275121
 10
1918.51587106801
 20
2197.019593275121
 10
1918.68052278759
 20
2197.019593275121
 10
1918.817022484686
 20
2197.019593275121
 10
1918.925151788902
 20
2197.019593275121
 10
1919.004737716416
 20
2197.019593275121
 10
1919.055652946722
 20
2197.019593275121
 10
1919.077816026314
 20
2197.019593275121
 10
1919.078864811704
 20
2197.019593275121
  0
LWPOLYLINE
  5
290
330
1F8
100
AcDbEntity
  8
P-SANR-FIXT
100
AcDbPolyline
 90
       40
 70
   128
 43
0.0
 10
1919.078864811704
 20
2197.019593275121
 10
1919.06447016933
 20
2197.019593275121
 10
1919.021309270567
 20
2197.019593275121
 10
1918.949451163644
 20
2197.019593275121
 10
1918.849010806204
 20
2197.019593275121
 10
1918.720148881392
 20
2197.019593275121
 10
1918.5630715408
 20
2197.019593275121
 10
1918.378030074664
 20
2197.019593275121
 10
1918.165320509857
 20
2197.019593275121
 10
1917.925283136307
 20
2197.019593275121
 10
1917.658301962605
 20
2197.019593275121
 10
1917.364804101678
 20
2197.019593275121
 10
1917.045259087493
 20
2197.019593275121
 10
1916.700178123906
 20
2197.019593275121
 10
1916.330113266847
 20
2197.019593275121
 10
1915.935656541143
 20
2197.019593275121
 10
1915.51743899341
 20
2197.019593275121
 10
1915.076129682508
 20
2197.019593275121
 10
1914.612434609195
 20
2197.019593275121
 10
1914.127095586671
 20
2197.019593275121
 10
1913.620889053838
 20
2197.019593275121
 10
1913.094624833165
 20
2197.019593275121
 10
1912.54914483514
 20
2197.019593275121
 10
1911.985321711398
 20
2197.019593275121
 10
1911.404057458662
 20
2197.019593275121
 10
1910.806281975737
 20
2197.019593275121
 10
1910.192951575879
 20
2197.019593275121
 10
1909.565047456892
 20
2197.019593275121
 10
1908.923574131418
 20
2197.019593275121
 10
1908.26955781994
 20
2197.019593275121
 10
1907.604044809038
 20
2197.019593275121
 10
1906.928099777562
 20
2197.019593275121
 10
1906.242804093369
 20
2197.019593275121
 10
1905.549254083365
 20
2197.019593275121
 10
1904.848559279615
 20
2197.019593275121
 10
1904.141840644333
 20
2197.019593275121
 10
1903.430228776577
 20
2197.019593275121
 10
1902.714862103531
 20
2197.019593275121
 10
1901.996885059271
 20
2197.019593275121
 10
1901.755059115505
 20
2197.019593275121
  0
LWPOLYLINE
  5
291
330
1F8
100
AcDbEntity
  8
P-SANR-FIXT
100
AcDbPolyline
 90
       29
 70
   128
 43
0.0
 10
2043.719395716752
 20
2167.630085749999
 10
2044.959077128849
 20
2166.979756081981
 10
2046.171760677616
 20
2166.280372574059
 10
2047.355506328067
 20
2165.53305409065
 10
2048.50842033968
 20
2164.738996181912
 10
2049.628658295979
 20
2163.899469171107
 10
2050.714428055205
 20
2163.015816122363
 10
2051.763992617361
 20
2162.089450692055
 10
2052.775672903043
 20
2161.121854867257
 10
2053.747850439609
 20
2160.114576594882
 10
2054.678969950386
 20
2159.069227305287
 10
2055.567541842784
 20
2157.987479334343
 10
2056.412144591329
 20
2156.87106324804
 10
2057.211427011795
 20
2155.721765073963
 10
2057.964110422814
 20
2154.541423444017
 10
2058.668990691491
 20
2153.33192665302
 10
2059.324940159764
 20
2152.095209637824
 10
2059.930909448411
 20
2150.833250881833
 10
2060.485929135838
 20
2149.548069249855
 10
2060.989111308941
 20
2148.241720758344
 10
2061.439650983586
 20
2146.916295286212
 10
2061.836827392401
 20
2145.573913231473
 10
2062.180005137859
 20
2144.216722119055
 10
2062.468635208774
 20
2142.846893165219
 10
2062.702255858605
 20
2141.466617804077
 10
2062.880493344148
 20
2140.078104181763
 10
2063.003062523449
 20
2138.683573623873
 10
2063.069767311965
 20
2137.285257081815
 10
2063.083162545698
 20
2136.31701799514
  0
LINE
  5
292
330
1F8
100
AcDbEntity
  8
P-SANR-FIXT
100
AcDbLine
 10
2063.083162545698
 20
1620.064747743162
 30
0.0
 11
2063.083162545698
 21
2136.31701799514
 31
0.0
  0
LWPOLYLINE
  5
293
330
1F8
100
AcDbEntity
  8
P-SANR-FIXT
100
AcDbPolyline
 90
       27
 70
   128
 43
0.0
 10
2063.083162545698
 20
1620.064747743162
 10
2063.055166278833
 20
1618.665121046629
 10
2062.97122226629
 20
1617.26773345424
 10
2062.831464800584
 20
1615.87482048805
 10
2062.636117463846
 20
1614.488610511663
 10
2062.385492770142
 20
1613.111321165335
 10
2062.07999166552
 20
1611.745155818212
 10
2061.720102886575
 20
1610.392300043418
 10
2061.306402178584
 20
1609.054918121598
 10
2060.839551374426
 20
1607.735149578533
 10
2060.3202973358
 20
1606.435105762359
 10
2059.749470758397
 20
1605.156866465852
 10
2059.127984842973
 20
1603.90247659921
 10
2058.456833834417
 20
1602.673942918631
 10
2057.737091431168
 20
1601.473230815931
 10
2056.969909067537
 20
1600.302261174336
 10
2056.156514071649
 20
1599.162907295478
 10
2055.298207701981
 20
1598.056991902516
 10
2054.39636306563
 20
1596.98628422416
 10
2053.45242292163
 20
1595.952497164292
 10
2052.467897372849
 20
1594.957284561678
 10
2051.444361450144
 20
1594.002238544182
 10
2050.383452592649
 20
1593.088886981697
 10
2049.28686802822
 20
1592.218691041889
 10
2048.156362058234
 20
1591.393042852627
 10
2046.993743251084
 20
1590.613263274885
 10
2046.946343879152
 20
1590.582882300466
  0
LWPOLYLINE
  5
294
330
1F8
100
AcDbEntity
  8
P-SANR-FIXT
100
AcDbPolyline
 90
        3
 70
   128
 43
0.0
 10
1871.42696441754
 20
1556.599515181818
 10
1871.390393376753
 20
1556.599515181818
 10
1871.388662788136
 20
1556.599515181818
  0
LWPOLYLINE
  5
295
330
1F8
100
AcDbEntity
  8
P-SANR-FIXT
100
AcDbPolyline
 90
       16
 70
   128
 43
0.0
 10
2046.946343879154
 20
1590.582882300466
 10
2039.59280891164
 20
1586.082605683897
 10
2032.065192922213
 20
1581.879991775887
 10
2024.37553849065
 20
1577.981763862176
 10
2016.536147423669
 20
1574.394158275852
 10
2008.559561074663
 20
1571.122914420537
 10
2000.458540280209
 20
1568.173265588571
 10
1992.246044945453
 20
1565.549930588861
 10
1983.935213311026
 20
1563.25710619779
 10
1975.539340934659
 20
1561.298460445275
 10
1967.071859421131
 20
1559.677126746698
 10
1958.546314934563
 20
1558.395698890111
 10
1949.976346527448
 20
1557.456226886726
 10
1941.375664321076
 20
1556.860213691341
 10
1932.758027572261
 20
1556.608612797924
 10
1930.777662303258
 20
1556.599515181818
  0
LWPOLYLINE
  5
296
330
1F8
100
AcDbEntity
  8
P-SANR-FIXT
100
AcDbPolyline
 90
       41
 70
   128
 43
0.0
 10
1901.755059115505
 20
1556.599515181818
 10
1902.270625820007
 20
1556.599515181818
 10
1903.45618940639
 20
1556.599515181818
 10
1904.637956656015
 20
1556.599515181818
 10
1905.814036993378
 20
1556.599515181818
 10
1906.982548940825
 20
1556.599515181818
 10
1908.141623128509
 20
1556.599515181818
 10
1909.289405284985
 20
1556.599515181818
 10
1910.424059203649
 20
1556.599515181818
 10
1911.543769680279
 20
1556.599515181818
 10
1912.646745416971
 20
1556.599515181818
 10
1913.731221887835
 20
1556.599515181818
 10
1914.79546416186
 20
1556.599515181818
 10
1915.837769678435
 20
1556.599515181818
 10
1916.856470971078
 20
1556.599515181818
 10
1917.849938335034
 20
1556.599515181818
 10
1918.816582434449
 20
1556.599515181818
 10
1919.754856844969
 20
1556.599515181818
 10
1920.663260527693
 20
1556.599515181818
 10
1921.54034023051
 20
1556.599515181818
 10
1922.384692812998
 20
1556.599515181818
 10
1923.194967491141
 20
1556.599515181818
 10
1923.969867998305
 20
1556.599515181818
 10
1924.708154658982
 20
1556.599515181818
 10
1925.408646372007
 20
1556.599515181818
 10
1926.070222500069
 20
1556.599515181818
 10
1926.691824662494
 20
1556.599515181818
 10
1927.272458428421
 20
1556.599515181818
 10
1927.811194907688
 20
1556.599515181818
 10
1928.307172236851
 20
1556.599515181818
 10
1928.759596957988
 20
1556.599515181818
 10
1929.167745288056
 20
1556.599515181818
 10
1929.530964276795
 20
1556.599515181818
 10
1929.848672851304
 20
1556.599515181818
 10
1930.12036274564
 20
1556.599515181818
 10
1930.345599313928
 20
1556.599515181818
 10
1930.524022225707
 20
1556.599515181818
 10
1930.655346042379
 20
1556.599515181818
 10
1930.739360673854
 20
1556.599515181818
 10
1930.775931714641
 20
1556.599515181818
 10
1930.777662303258
 20
1556.599515181818
  0
LWPOLYLINE
  5
297
330
1F8
100
AcDbEntity
  8
P-SANR-FIXT
100
AcDbPolyline
 90
       26
 70
   128
 43
0.0
 10
1930.777662303258
 20
1556.599515181818
 10
1930.753909870696
 20
1556.599515181818
 10
1930.682690571837
 20
1556.599515181818
 10
1930.564118342364
 20
1556.599515181818
 10
1930.398382872552
 20
1556.599515181818
 10
1930.185749303797
 20
1556.599515181818
 10
1929.92655780445
 20
1556.599515181818
 10
1929.621223025619
 20
1556.599515181818
 10
1929.270233437814
 20
1556.599515181818
 10
1928.874150549504
 20
1556.599515181818
 10
1928.433608008814
 20
1556.599515181818
 10
1927.949310589835
 20
1556.599515181818
 10
1927.422033065124
 20
1556.599515181818
 10
1926.852618966241
 20
1556.599515181818
 10
1926.241979234277
 20
1556.599515181818
 10
1925.591090762539
 20
1556.599515181818
 10
1924.900994833732
 20
1556.599515181818
 10
1924.172795454132
 20
1556.599515181818
 10
1923.407657587404
 20
1556.599515181818
 10
1922.606805290914
 20
1556.599515181818
 10
1921.771519757497
 20
1556.599515181818
 10
1920.903137265822
 20
1556.599515181818
 10
1920.003047042631
 20
1556.599515181818
 10
1919.072689040272
 20
1556.599515181818
 10
1918.113551633082
 20
1556.599515181818
 10
1917.933162545697
 20
1556.599515181818
  0
LINE
  5
298
330
1F8
100
AcDbEntity
  8
P-SANR-FIXT
100
AcDbLine
 10
1884.233162545697
 20
1519.415718725303
 30
0.0
 11
1884.233162545697
 21
1472.982558849977
 31
0.0
  0
LINE
  5
299
330
1F8
100
AcDbEntity
  8
P-SANR-FIXT
100
AcDbLine
 10
1917.933162545697
 20
1472.982558849976
 30
0.0
 11
1917.933162545697
 21
1556.623862949285
 31
0.0
  0
LWPOLYLINE
  5
29A
330
1F8
100
AcDbEntity
  8
P-SANR-FIXT
100
AcDbPolyline
 90
        8
 70
   128
 43
0.0
 10
1921.12711895373
 20
1556.60237678251
 10
1921.023348915418
 20
1556.501361422565
 10
1920.740624120311
 20
1556.264714667418
 10
1920.431020559901
 20
1556.038121772926
 10
1920.094901409197
 20
1555.820271214436
 10
1919.732493312609
 20
1555.610198584484
 10
1919.343994790327
 20
1555.407226030451
 10
1919.317641782547
 20
1555.39416655857
  0
LINE
  5
29B
330
1F8
100
AcDbEntity
  8
P-SANR-FIXT
100
AcDbLine
 10
1918.243447997597
 20
1554.863535556521
 30
0.0
 11
1919.317641782548
 21
1555.39416655857
 31
0.0
  0
LINE
  5
29C
330
1F8
100
AcDbEntity
  8
P-SANR-FIXT
100
AcDbLine
 10
1918.243447997596
 20
1554.863535556522
 30
0.0
 11
1917.933162545697
 21
1554.7174193344
 31
0.0
  0
LINE
  5
29D
330
1F8
100
AcDbEntity
  8
P-SANR-FIXT
100
AcDbLine
 10
1893.06196368947
 20
1472.982558849976
 30
0.0
 11
1890.987143426722
 21
1472.982558849976
 31
0.0
  0
LINE
  5
29E
330
1F8
100
AcDbEntity
  8
P-SANR-FIXT
100
AcDbLine
 10
1911.076049252915
 20
1472.982558849976
 30
0.0
 11
1908.999800243058
 21
1472.982558849976
 31
0.0
  0
LINE
  5
29F
330
1F8
100
AcDbEntity
  8
P-SANR-FIXT
100
AcDbLine
 10
1901.755858882239
 20
2196.982558850011
 30
0.0
 11
1902.401493083127
 21
2196.982558850011
 31
0.0
  0
ARC
  5
2A0
330
1F8
100
AcDbEntity
  8
P-SANR-FIXT
100
AcDbCircle
 10
1901.083162545691
 20
1999.982558850011
 30
0.0
 40
142.5000000000003
100
AcDbArc
 50
90.00000000000031
 51
269.9999999999999
  0
ARC
  5
2A1
330
1F8
100
AcDbEntity
  8
P-SANR-FIXT
100
AcDbCircle
 10
1901.083162545691
 20
1999.982558850011
 30
0.0
 40
142.5
100
AcDbArc
 50
269.9999999999999
 51
90.00000000000005
  0
ARC
  5
2A2
330
1F8
100
AcDbEntity
  8
P-SANR-FIXT
100
AcDbCircle
 10
1901.083162545691
 20
1999.982558850011
 30
0.0
 40
106.0000000000001
100
AcDbArc
 50
90.00000000000044
 51
269.9999999999999
  0
ARC
  5
2A3
330
1F8
100
AcDbEntity
  8
P-SANR-FIXT
100
AcDbCircle
 10
1901.083162545691
 20
1999.982558850011
 30
0.0
 40
76.19999999999982
100
AcDbArc
 50
90.00000000000053
 51
270.0
  0
ARC
  5
2A4
330
1F8
100
AcDbEntity
  8
P-SANR-FIXT
100
AcDbCircle
 10
1901.083162545691
 20
1999.982558850011
 30
0.0
 40
106.0
100
AcDbArc
 50
269.9999999999999
 51
90.00000000000012
  0
ARC
  5
2A5
330
1F8
100
AcDbEntity
  8
P-SANR-FIXT
100
AcDbCircle
 10
1901.083162545691
 20
1999.982558850011
 30
0.0
 40
76.20000000000004
100
AcDbArc
 50
270.0
 51
89.99999999999934
  0
ENDBLK
  5
2A7
330
1F8
100
AcDbEntity
  8
0
100
AcDbBlockEnd
  0
ENDSEC
  0
SECTION
  2
ENTITIES
  0
INSERT
  5
1BB
330
71
100
AcDbEntity
  8
P-SANR-FIXT
100
AcDbBlockReference
  2
Automatic flow rate regulator valve_Caleffi_121 DN15 - 1_2__-859151-Est - Idraulica
 10
0.0
 20
0.0
 30
0.0
1001
REVIT
1002
{
1070
     1
1000
863131
1002
}
1002
{
1070
     5
1000
859151
1002
}
1002
{
1070
     2
1000
-2001160
1002
}
  0
INSERT
  5
1F7
330
71
100
AcDbEntity
  8
P-SANR-FIXT
100
AcDbBlockReference
  2
Automatic flow rate regulator valve_Caleffi_121 DN15 - 1_2__-V1-Est - Idraulica
 10
0.0
 20
0.0
 30
0.0
1001
REVIT
1002
{
1070
     1
1000
863152
1002
}
1002
{
1070
     5
1000
859151
1002
}
1002
{
1070
     2
1000
-2001160
1002
}
  0
INSERT
  5
2A8
330
71
100
AcDbEntity
  8
P-SANR-FIXT
100
AcDbBlockReference
  2
Automatic flow rate regulator valve_Caleffi_121 DN15 - 1_2__-V2-Est - Idraulica
 10
0.0
 20
0.0
 30
0.0
1001
REVIT
1002
{
1070
     1
1000
863172
1002
}
1002
{
1070
     5
1000
859151
1002
}
1002
{
1070
     2
1000
-2001160
1002
}
  0
ENDSEC
  0
SECTION
  2
OBJECTS
  0
DICTIONARY
  5
C
330
0
100
AcDbDictionary
281
     1
  3
ACAD_CIP_PREVIOUS_PRODUCT_INFO
350
7A
  3
ACAD_COLOR
350
63
  3
ACAD_DETAILVIEWSTYLE
350
6B
  3
ACAD_GROUP
350
D
  3
ACAD_IMAGE_VARS
350
7B
  3
ACAD_LAYOUT
350
62
  3
ACAD_MATERIAL
350
10
  3
ACAD_MLEADERSTYLE
350
66
  3
ACAD_MLINESTYLE
350
5F
  3
ACAD_PLOTSETTINGS
350
61
  3
ACAD_PLOTSTYLENAME
350
E
  3
ACAD_SCALELIST
350
42
  3
ACAD_SECTIONVIEWSTYLE
350
68
  3
ACAD_TABLESTYLE
350
64
  3
ACAD_VISUALSTYLE
350
29
  3
ACDB_RECOMPOSE_DATA
350
2B3
  3
AcDbVariableDictionary
350
7C
  3
REVIT_DICTIONARY
350
2AA
  0
DICTIONARY
  5
2AF
330
71
100
AcDbDictionary
280
     1
281
     1
  3
ACAD_SORTENTS
360
2B0
  0
XRECORD
  5
7A
102
{ACAD_REACTORS
330
C
102
}
330
C
100
AcDbXrecord
280
     1
300
RVT
300
2013
300
RVT2013
  0
DICTIONARY
  5
63
102
{ACAD_REACTORS
330
C
102
}
330
C
100
AcDbDictionary
281
     1
  0
DICTIONARY
  5
6B
102
{ACAD_REACTORS
330
C
102
}
330
C
100
AcDbDictionary
281
     1
  3
Imperial24
350
6C
  0
DICTIONARY
  5
D
102
{ACAD_REACTORS
330
C
102
}
330
C
100
AcDbDictionary
281
     1
  0
RASTERVARIABLES
  5
7B
102
{ACAD_REACTORS
330
C
102
}
330
C
100
AcDbRasterVariables
 90
        0
 70
     0
 71
     1
 72
     1
  0
DICTIONARY
  5
62
102
{ACAD_REACTORS
330
C
102
}
330
C
100
AcDbDictionary
281
     1
  3
Layout1
350
70
  3
Layout2
350
78
  3
Model
350
74
  0
DICTIONARY
  5
10
102
{ACAD_REACTORS
330
C
102
}
330
C
100
AcDbDictionary
281
     1
  3
ByBlock
350
19
  3
ByLayer
350
11
  3
Global
350
21
  0
DICTIONARY
  5
66
102
{ACAD_REACTORS
330
C
102
}
330
C
100
AcDbDictionary
281
     1
  3
Standard
350
67
  0
DICTIONARY
  5
5F
102
{ACAD_REACTORS
330
C
102
}
330
C
100
AcDbDictionary
281
     1
  3
Standard
350
60
  0
DICTIONARY
  5
61
102
{ACAD_REACTORS
330
C
102
}
330
C
100
AcDbDictionary
281
     1
  0
ACDBDICTIONARYWDFLT
  5
E
102
{ACAD_REACTORS
330
C
102
}
330
C
100
AcDbDictionary
281
     1
  3
Normal
350
F
100
AcDbDictionaryWithDefault
340
F
  0
DICTIONARY
  5
42
102
{ACAD_REACTORS
330
C
102
}
330
C
100
AcDbDictionary
281
     1
  3
A0
350
43
  3
A1
350
44
  3
A2
350
45
  3
A3
350
46
  3
A4
350
47
  3
A5
350
48
  3
A6
350
49
  3
A7
350
4A
  3
A8
350
4B
  3
A9
350
4C
  3
B0
350
4D
  3
B1
350
4E
  3
B2
350
4F
  3
B3
350
50
  3
B4
350
51
  3
B5
350
52
  3
B6
350
53
  0
DICTIONARY
  5
68
102
{ACAD_REACTORS
330
C
102
}
330
C
100
AcDbDictionary
281
     1
  3
Imperial24
350
6A
  0
DICTIONARY
  5
64
102
{ACAD_REACTORS
330
C
102
}
330
C
100
AcDbDictionary
281
     1
  3
Standard
350
65
  0
DICTIONARY
  5
29
102
{ACAD_REACTORS
330
C
102
}
330
C
100
AcDbDictionary
281
     1
  3
2dWireframe
350
2F
  3
Basic
350
2E
  3
Brighten
350
35
  3
ColorChange
350
39
  3
Conceptual
350
32
  3
Dim
350
34
  3
EdgeColorOff
350
41
  3
Facepattern
350
38
  3
Flat
350
2A
  3
FlatWithEdges
350
2B
  3
Gouraud
350
2C
  3
GouraudWithEdges
350
2D
  3
Hidden
350
31
  3
JitterOff
350
3F
  3
Linepattern
350
37
  3
OverhangOff
350
40
  3
Realistic
350
33
  3
Shaded
350
3E
  3
Shaded with edges
350
3D
  3
Shades of Gray
350
3A
  3
Sketchy
350
3B
  3
Thicken
350
36
  3
Wireframe
350
30
  3
X-Ray
350
3C
  0
XRECORD
  5
2B3
102
{ACAD_REACTORS
330
C
102
}
330
C
100
AcDbXrecord
280
     1
 90
        1
330
65
  0
DICTIONARY
  5
7C
102
{ACAD_REACTORS
330
C
102
}
330
C
100
AcDbDictionary
281
     1
  3
CANNOSCALE
350
81
  3
CMLEADERSTYLE
350
7E
  3
CTABLESTYLE
350
7D
  3
CVIEWDETAILSTYLE
350
7F
  3
CVIEWSECTIONSTYLE
350
80
  0
DICTIONARY
  5
2AA
102
{ACAD_REACTORS
330
C
102
}
330
C
100
AcDbDictionary
281
     1
  3
DRAWING_TOOL
350
2AE
  3
REVIT_CATEGORY_MAPPING
350
2AC
  3
REVIT_SUB_CATEGORY_MAPPING
350
2AD
  3
REVIT_TYPE_MAPPING
350
2AB
  0
SORTENTSTABLE
  5
2B0
102
{ACAD_REACTORS
330
2AF
102
}
330
2AF
100
AcDbSortentsTable
330
71
  0
ACDBDETAILVIEWSTYLE
  5
6C
102
{ACAD_REACTORS
330
6B
102
}
330
6B
100
AcDbModelDocViewStyle
 70
     0
  3
Imperial24
290
     1
100
AcDbDetailViewStyle
 70
     0
 71
     0
 90
        3
 71
     1
340
55
 62
   256
 40
0.24
340
0
 62
   256
 40
0.24
300

 40
0.36
280
     3
 71
     2
340
5D
 90
       25
 62
   256
 71
     3
340
55
 62
   256
 40
0.24
 90
        1
 40
0.75
 90
        1
300
%<\AcVar ViewType \f "%tc1">% %<\AcVar ViewDetailId>%\PSCALA %<\AcVar ViewScale \f "%sn">%
 71
     4
340
5D
 90
       25
 62
   256
340
5D
 90
       25
 62
   256
280
     0
  0
LAYOUT
  5
70
102
{ACAD_REACTORS
330
62
102
}
330
62
100
AcDbPlotSettings
  1

  2

  4

  6

 40
0.0
 41
0.0
 42
0.0
 43
0.0
 44
0.0
 45
0.0
 46
0.0
 47
0.0
 48
0.0
 49
0.0
140
0.0
141
0.0
142
1.0
143
1.0
 70
   688
 72
     0
 73
     0
 74
     5
  7

 75
    16
147
1.0
 76
     0
 77
     2
 78
   300
148
0.0
149
0.0
100
AcDbLayout
  1
Layout1
 70
     1
 71
     1
 10
0.0
 20
0.0
 11
12.0
 21
9.0
 12
0.0
 22
0.0
 32
0.0
 14
0.0
 24
0.0
 34
0.0
 15
0.0
 25
0.0
 35
0.0
146
0.0
 13
0.0
 23
0.0
 33
0.0
 16
1.0
 26
0.0
 36
0.0
 17
0.0
 27
1.0
 37
0.0
 76
     0
330
6D
  0
LAYOUT
  5
78
102
{ACAD_REACTORS
330
62
102
}
330
62
100
AcDbPlotSettings
  1

  2

  4

  6

 40
0.0
 41
0.0
 42
0.0
 43
0.0
 44
0.0
 45
0.0
 46
0.0
 47
0.0
 48
0.0
 49
0.0
140
0.0
141
0.0
142
1.0
143
1.0
 70
   688
 72
     0
 73
     0
 74
     5
  7

 75
    16
147
1.0
 76
     0
 77
     2
 78
   300
148
0.0
149
0.0
100
AcDbLayout
  1
Layout2
 70
     1
 71
     2
 10
0.0
 20
0.0
 11
12.0
 21
9.0
 12
0.0
 22
0.0
 32
0.0
 14
0.0
 24
0.0
 34
0.0
 15
0.0
 25
0.0
 35
0.0
146
0.0
 13
0.0
 23
0.0
 33
0.0
 16
1.0
 26
0.0
 36
0.0
 17
0.0
 27
1.0
 37
0.0
 76
     0
330
75
  0
LAYOUT
  5
74
102
{ACAD_REACTORS
330
62
102
}
330
62
100
AcDbPlotSettings
  1

  2

  4

  6

 40
0.0
 41
0.0
 42
0.0
 43
0.0
 44
0.0
 45
0.0
 46
0.0
 47
0.0
 48
0.0
 49
0.0
140
0.0
141
0.0
142
1.0
143
1.0
 70
  1712
 72
     0
 73
     0
 74
     0
  7

 75
     0
147
1.0
 76
     0
 77
     2
 78
   300
148
0.0
149
0.0
100
AcDbLayout
  1
Model
 70
     1
 71
     0
 10
0.0
 20
0.0
 11
12.0
 21
9.0
 12
0.0
 22
0.0
 32
0.0
 14
0.0
 24
0.0
 34
0.0
 15
0.0
 25
0.0
 35
0.0
146
0.0
 13
0.0
 23
0.0
 33
0.0
 16
1.0
 26
0.0
 36
0.0
 17
0.0
 27
1.0
 37
0.0
 76
     0
330
71
  0
MATERIAL
  5
19
102
{ACAD_XDICTIONARY
360
1A
102
}
102
{ACAD_REACTORS
330
10
102
}
330
10
100
AcDbMaterial
  1
ByBlock
 72
     0
 43
0.0208333333333333
 43
0.0
 43
0.0
 43
0.0
 43
0.0
 43
0.0208333333333333
 43
0.0
 43
0.0
 43
0.0
 43
0.0
 43
1.0
 43
0.0
 43
0.0
 43
0.0
 43
0.0
 43
1.0
 77
     0
 47
0.0208333333333333
 47
0.0
 47
0.0
 47
0.0
 47
0.0
 47
0.0208333333333333
 47
0.0
 47
0.0
 47
0.0
 47
0.0
 47
1.0
 47
0.0
 47
0.0
 47
0.0
 47
0.0
 47
1.0
171
     0
 49
0.0208333333333333
 49
0.0
 49
0.0
 49
0.0
 49
0.0
 49
0.0208333333333333
 49
0.0
 49
0.0
 49
0.0
 49
0.0
 49
1.0
 49
0.0
 49
0.0
 49
0.0
 49
0.0
 49
1.0
175
     0
142
0.0208333333333333
142
0.0
142
0.0
142
0.0
142
0.0
142
0.0208333333333333
142
0.0
142
0.0
142
0.0
142
0.0
142
1.0
142
0.0
142
0.0
142
0.0
142
0.0
142
1.0
179
     0
144
0.0208333333333333
144
0.0
144
0.0
144
0.0
144
0.0
144
0.0208333333333333
144
0.0
144
0.0
144
0.0
144
0.0
144
1.0
144
0.0
144
0.0
144
0.0
144
0.0
144
1.0
147
0.0208333333333333
147
0.0
147
0.0
147
0.0
147
0.0
147
0.0208333333333333
147
0.0
147
0.0
147
0.0
147
0.0
147
1.0
147
0.0
147
0.0
147
0.0
147
0.0
147
1.0
  0
MATERIAL
  5
11
102
{ACAD_XDICTIONARY
360
12
102
}
102
{ACAD_REACTORS
330
10
102
}
330
10
100
AcDbMaterial
  1
ByLayer
 72
     0
 43
0.0208333333333333
 43
0.0
 43
0.0
 43
0.0
 43
0.0
 43
0.0208333333333333
 43
0.0
 43
0.0
 43
0.0
 43
0.0
 43
1.0
 43
0.0
 43
0.0
 43
0.0
 43
0.0
 43
1.0
 77
     0
 47
0.0208333333333333
 47
0.0
 47
0.0
 47
0.0
 47
0.0
 47
0.0208333333333333
 47
0.0
 47
0.0
 47
0.0
 47
0.0
 47
1.0
 47
0.0
 47
0.0
 47
0.0
 47
0.0
 47
1.0
171
     0
 49
0.0208333333333333
 49
0.0
 49
0.0
 49
0.0
 49
0.0
 49
0.0208333333333333
 49
0.0
 49
0.0
 49
0.0
 49
0.0
 49
1.0
 49
0.0
 49
0.0
 49
0.0
 49
0.0
 49
1.0
175
     0
142
0.0208333333333333
142
0.0
142
0.0
142
0.0
142
0.0
142
0.0208333333333333
142
0.0
142
0.0
142
0.0
142
0.0
142
1.0
142
0.0
142
0.0
142
0.0
142
0.0
142
1.0
179
     0
144
0.0208333333333333
144
0.0
144
0.0
144
0.0
144
0.0
144
0.0208333333333333
144
0.0
144
0.0
144
0.0
144
0.0
144
1.0
144
0.0
144
0.0
144
0.0
144
0.0
144
1.0
147
0.0208333333333333
147
0.0
147
0.0
147
0.0
147
0.0
147
0.0208333333333333
147
0.0
147
0.0
147
0.0
147
0.0
147
1.0
147
0.0
147
0.0
147
0.0
147
0.0
147
1.0
  0
MATERIAL
  5
21
102
{ACAD_XDICTIONARY
360
22
102
}
102
{ACAD_REACTORS
330
10
102
}
330
10
100
AcDbMaterial
  1
Global
 72
     0
 43
0.0208333333333333
 43
0.0
 43
0.0
 43
0.0
 43
0.0
 43
0.0208333333333333
 43
0.0
 43
0.0
 43
0.0
 43
0.0
 43
1.0
 43
0.0
 43
0.0
 43
0.0
 43
0.0
 43
1.0
 77
     0
 47
0.0208333333333333
 47
0.0
 47
0.0
 47
0.0
 47
0.0
 47
0.0208333333333333
 47
0.0
 47
0.0
 47
0.0
 47
0.0
 47
1.0
 47
0.0
 47
0.0
 47
0.0
 47
0.0
 47
1.0
171
     0
 49
0.0208333333333333
 49
0.0
 49
0.0
 49
0.0
 49
0.0
 49
0.0208333333333333
 49
0.0
 49
0.0
 49
0.0
 49
0.0
 49
1.0
 49
0.0
 49
0.0
 49
0.0
 49
0.0
 49
1.0
175
     0
142
0.0208333333333333
142
0.0
142
0.0
142
0.0
142
0.0
142
0.0208333333333333
142
0.0
142
0.0
142
0.0
142
0.0
142
1.0
142
0.0
142
0.0
142
0.0
142
0.0
142
1.0
179
     0
144
0.0208333333333333
144
0.0
144
0.0
144
0.0
144
0.0
144
0.0208333333333333
144
0.0
144
0.0
144
0.0
144
0.0
144
1.0
144
0.0
144
0.0
144
0.0
144
0.0
144
1.0
147
0.0208333333333333
147
0.0
147
0.0
147
0.0
147
0.0
147
0.0208333333333333
147
0.0
147
0.0
147
0.0
147
0.0
147
1.0
147
0.0
147
0.0
147
0.0
147
0.0
147
1.0
  0
MLEADERSTYLE
  5
67
102
{ACAD_REACTORS
330
66
102
}
330
66
100
AcDbMLeaderStyle
179
     2
170
     2
171
     1
172
     0
 90
        2
 40
0.0
 41
0.0
173
     1
 91
-1056964608
340
5B
 92
       -2
290
     1
 42
0.09
291
     1
 43
0.36
  3
Standard
 44
0.18
300

342
55
174
     1
178
     6
175
     1
176
     0
 93
-1056964608
 45
0.18
292
     0
297
     0
 46
0.18
 94
-1056964608
 47
1.0
 49
1.0
140
1.0
293
     1
141
0.0
294
     1
177
     0
142
1.0
295
     1
296
     0
143
0.125
271
     0
272
     9
273
     9
298
     1
  0
MLINESTYLE
  5
60
102
{ACAD_REACTORS
330
5F
102
}
330
5F
100
AcDbMlineStyle
  2
STANDARD
 70
     0
  3

 62
   256
 51
90.0
 52
90.0
 71
     2
 49
0.5
 62
   256
  6
BYLAYER
 49
-0.5
 62
   256
  6
BYLAYER
  0
ACDBPLACEHOLDER
  5
F
102
{ACAD_REACTORS
330
E
102
}
330
E
  0
SCALE
  5
43
102
{ACAD_REACTORS
330
42
102
}
330
42
100
AcDbScale
 70
     0
300
1:1
140
1.0
141
1.0
290
     1
  0
SCALE
  5
44
102
{ACAD_REACTORS
330
42
102
}
330
42
100
AcDbScale
 70
     0
300
1/128" = 1'-0"
140
0.0078125
141
12.0
290
     0
  0
SCALE
  5
45
102
{ACAD_REACTORS
330
42
102
}
330
42
100
AcDbScale
 70
     0
300
1/64" = 1'-0"
140
0.015625
141
12.0
290
     0
  0
SCALE
  5
46
102
{ACAD_REACTORS
330
42
102
}
330
42
100
AcDbScale
 70
     0
300
1/32" = 1'-0"
140
0.03125
141
12.0
290
     0
  0
SCALE
  5
47
102
{ACAD_REACTORS
330
42
102
}
330
42
100
AcDbScale
 70
     0
300
1/16" = 1'-0"
140
0.0625
141
12.0
290
     0
  0
SCALE
  5
48
102
{ACAD_REACTORS
330
42
102
}
330
42
100
AcDbScale
 70
     0
300
3/32" = 1'-0"
140
0.09375
141
12.0
290
     0
  0
SCALE
  5
49
102
{ACAD_REACTORS
330
42
102
}
330
42
100
AcDbScale
 70
     0
300
1/8" = 1'-0"
140
0.125
141
12.0
290
     0
  0
SCALE
  5
4A
102
{ACAD_REACTORS
330
42
102
}
330
42
100
AcDbScale
 70
     0
300
3/16" = 1'-0"
140
0.1875
141
12.0
290
     0
  0
SCALE
  5
4B
102
{ACAD_REACTORS
330
42
102
}
330
42
100
AcDbScale
 70
     0
300
1/4" = 1'-0"
140
0.25
141
12.0
290
     0
  0
SCALE
  5
4C
102
{ACAD_REACTORS
330
42
102
}
330
42
100
AcDbScale
 70
     0
300
3/8" = 1'-0"
140
0.375
141
12.0
290
     0
  0
SCALE
  5
4D
102
{ACAD_REACTORS
330
42
102
}
330
42
100
AcDbScale
 70
     0
300
1/2" = 1'-0"
140
0.5
141
12.0
290
     0
  0
SCALE
  5
4E
102
{ACAD_REACTORS
330
42
102
}
330
42
100
AcDbScale
 70
     0
300
3/4" = 1'-0"
140
0.75
141
12.0
290
     0
  0
SCALE
  5
4F
102
{ACAD_REACTORS
330
42
102
}
330
42
100
AcDbScale
 70
     0
300
1" = 1'-0"
140
1.0
141
12.0
290
     0
  0
SCALE
  5
50
102
{ACAD_REACTORS
330
42
102
}
330
42
100
AcDbScale
 70
     0
300
1-1/2" = 1'-0"
140
1.5
141
12.0
290
     0
  0
SCALE
  5
51
102
{ACAD_REACTORS
330
42
102
}
330
42
100
AcDbScale
 70
     0
300
3" = 1'-0"
140
3.0
141
12.0
290
     0
  0
SCALE
  5
52
102
{ACAD_REACTORS
330
42
102
}
330
42
100
AcDbScale
 70
     0
300
6" = 1'-0"
140
6.0
141
12.0
290
     0
  0
SCALE
  5
53
102
{ACAD_REACTORS
330
42
102
}
330
42
100
AcDbScale
 70
     0
300
1'-0" = 1'-0"
140
12.0
141
12.0
290
     0
  0
ACDBSECTIONVIEWSTYLE
  5
6A
102
{ACAD_REACTORS
330
68
102
}
330
68
100
AcDbModelDocViewStyle
 70
     0
  3
Imperial24
290
     1
100
AcDbSectionViewStyle
 70
     0
 71
     0
 90
       78
 71
     1
340
55
 62
   256
 40
0.24
340
0
340
0
 62
   256
 40
0.24
300
I, O, Q, S, X, Z
 40
0.48
 90
        3
 40
0.18
 90
        1
 71
     2
340
69
 90
       25
 62
   256
340
5D
 90
       50
 62
   256
 40
0.24
 40
0.0
 40
0.24
 71
     3
340
55
 62
   256
 40
0.24
 90
        1
 40
0.75
 90
        1
300
%<\AcVar ViewType \f "%tc1">% %<\AcVar ViewSectionStartId>%-%<\AcVar ViewSectionEndId>%\PSCALA %<\AcVar ViewScale \f "%sn">%
 71
     4
 62
   256
 62
   257
300
ANSI31
 40
1.0
 90
        0
290
     0
290
     0
 90
        6
 40
0.0
 40
1.570796326794896
 40
0.2617993877991494
 40
1.308996938995747
 40
-0.2617993877991494
 40
1.832595714594046
  0
TABLESTYLE
  5
65
102
{ACAD_XDICTIONARY
360
2B1
102
}
102
{ACAD_REACTORS
330
64
102
}
330
64
100
AcDbTableStyle
280
     0
  3
Standard
 70
     0
 71
     0
 40
0.06
 41
0.06
280
     0
281
     0
  7
Standard
140
0.18
170
     2
 62
     0
 63
     7
283
     0
 90
      512
 91
        0
  1

274
    -2
284
     1
 64
     0
275
    -2
285
     1
 65
     0
276
    -2
286
     1
 66
     0
277
    -2
287
     1
 67
     0
278
    -2
288
     1
 68
     0
279
    -2
289
     1
 69
     0
  7
Standard
140
0.25
170
     5
 62
     0
 63
     7
283
     0
 90
      512
 91
        0
  1

274
    -2
284
     1
 64
     0
275
    -2
285
     1
 65
     0
276
    -2
286
     1
 66
     0
277
    -2
287
     1
 67
     0
278
    -2
288
     1
 68
     0
279
    -2
289
     1
 69
     0
  7
Standard
140
0.18
170
     5
 62
     0
 63
     7
283
     0
 90
      512
 91
        0
  1

274
    -2
284
     1
 64
     0
275
    -2
285
     1
 65
     0
276
    -2
286
     1
 66
     0
277
    -2
287
     1
 67
     0
278
    -2
288
     1
 68
     0
279
    -2
289
     1
 69
     0
  0
VISUALSTYLE
  5
2F
102
{ACAD_REACTORS
330
29
102
}
330
29
100
AcDbVisualStyle
  2
2dWireframe
 70
     4
177
     3
291
     0
 70
    58
 90
        0
176
     1
 90
        2
176
     1
 90
        0
176
     1
 90
        0
176
     1
 40
0.6
176
     1
 40
30.0
176
     1
 62
     7
420
 16777215
176
     1
 90
        1
176
     1
 90
        4
176
     1
 62
     7
176
     1
 62
   257
176
     1
 90
        1
176
     1
 90
        1
176
     1
 40
1.0
176
     1
 90
        0
176
     1
 62
   257
176
     1
 40
1.0
176
     1
 90
        1
176
     1
 90
        6
176
     1
 90
        2
176
     1
 62
     7
176
     1
 90
        5
176
     1
 90
        0
176
     1
 90
        0
176
     1
290
     0
176
     1
 90
        1
176
     1
 40
0.0
176
     1
 90
        0
176
     1
290
     1
176
     1
290
     1
176
     1
290
     0
176
     1
290
     0
176
     1
290
     0
176
     1
290
     0
176
     1
290
     0
176
     1
290
     0
176
     1
290
     0
176
     1
 90
       50
176
     1
 40
0.0
176
     1
 40
1.0
176
     1
 90
        0
176
     1
 62
    18
420
        0
176
     1
 90
       50
176
     1
 90
        3
176
     1
 62
     5
420
      255
176
     1
290
     0
176
     1
 90
       50
176
     1
 90
       50
176
     1
 90
       50
176
     1
290
     0
176
     1
 90
       50
176
     1
 62
   256
176
     0
 40
1.0
176
     0
 90
        2
176
     1
  1
strokes_ogs.tif
176
     1
290
     0
176
     1
 40
1.0
176
     1
 40
1.0
176
     1
  0
VISUALSTYLE
  5
2E
102
{ACAD_REACTORS
330
29
102
}
330
29
100
AcDbVisualStyle
  2
Basic
 70
     7
177
     3
291
     1
 70
    58
 90
        1
176
     1
 90
        0
176
     1
 90
        1
176
     1
 90
        0
176
     1
 40
0.6
176
     1
 40
30.0
176
     1
 62
     7
420
 16777215
176
     1
 90
        0
176
     1
 90
        4
176
     1
 62
     7
176
     1
 62
   257
176
     1
 90
        1
176
     1
 90
        1
176
     1
 40
1.0
176
     1
 90
        8
176
     1
 62
     7
176
     1
 40
1.0
176
     1
 90
        1
176
     1
 90
        6
176
     1
 90
        2
176
     1
 62
     7
176
     1
 90
        5
176
     1
 90
        0
176
     1
 90
        0
176
     1
290
     0
176
     1
 90
        1
176
     1
 40
0.0
176
     1
 90
        0
176
     1
290
     0
176
     1
290
     1
176
     1
290
     1
176
     1
290
     0
176
     1
290
     0
176
     1
290
     0
176
     1
290
     0
176
     1
290
     0
176
     1
290
     0
176
     1
 90
       50
176
     1
 40
0.0
176
     1
 40
1.0
176
     1
 90
        0
176
     1
 62
    18
420
        0
176
     1
 90
       50
176
     1
 90
        3
176
     1
 62
     5
420
      255
176
     1
290
     0
176
     1
 90
       50
176
     1
 90
       50
176
     1
 90
       50
176
     1
290
     0
176
     1
 90
       50
176
     1
 62
   256
176
     0
 40
1.0
176
     0
 90
        2
176
     1
  1
strokes_ogs.tif
176
     1
290
     0
176
     1
 40
1.0
176
     1
 40
1.0
176
     1
  0
VISUALSTYLE
  5
35
102
{ACAD_REACTORS
330
29
102
}
330
29
100
AcDbVisualStyle
  2
Brighten
 70
    12
177
     3
291
     1
 70
    58
 90
        2
176
     1
 90
        2
176
     1
 90
        0
176
     1
 90
        0
176
     1
 40
0.6
176
     1
 40
30.0
176
     1
 62
     7
420
 16777215
176
     1
 90
        1
176
     1
 90
        4
176
     1
 62
     7
176
     1
 62
   257
176
     1
 90
        1
176
     1
 90
        1
176
     1
 40
1.0
176
     1
 90
        8
176
     1
 62
     7
176
     1
 40
1.0
176
     1
 90
        1
176
     1
 90
        6
176
     1
 90
        2
176
     1
 62
     7
176
     1
 90
        5
176
     1
 90
        0
176
     1
 90
        0
176
     1
290
     0
176
     1
 90
        1
176
     1
 40
50.0
176
     1
 90
        0
176
     1
290
     0
176
     1
290
     1
176
     1
290
     1
176
     1
290
     0
176
     1
290
     0
176
     1
290
     0
176
     1
290
     0
176
     1
290
     0
176
     1
290
     0
176
     1
 90
       50
176
     1
 40
0.0
176
     1
 40
1.0
176
     1
 90
        0
176
     1
 62
    18
420
        0
176
     1
 90
       50
176
     1
 90
        3
176
     1
 62
     5
420
      255
176
     1
290
     0
176
     1
 90
       50
176
     1
 90
       50
176
     1
 90
       50
176
     1
290
     0
176
     1
 90
       50
176
     1
 62
   256
176
     0
 40
1.0
176
     0
 90
        2
176
     1
  1
strokes_ogs.tif
176
     1
290
     0
176
     1
 40
1.0
176
     1
 40
1.0
176
     1
  0
VISUALSTYLE
  5
39
102
{ACAD_REACTORS
330
29
102
}
330
29
100
AcDbVisualStyle
  2
ColorChange
 70
    16
177
     3
291
     1
 70
    58
 90
        2
176
     1
 90
        2
176
     1
 90
        3
176
     1
 90
        0
176
     1
 40
0.6
176
     1
 40
30.0
176
     1
 62
     8
420
  8421504
176
     1
 90
        1
176
     1
 90
        4
176
     1
 62
     7
176
     1
 62
   257
176
     1
 90
        1
176
     1
 90
        1
176
     1
 40
1.0
176
     1
 90
        8
176
     1
 62
     8
420
  8421504
176
     1
 40
1.0
176
     1
 90
        1
176
     1
 90
        6
176
     1
 90
        2
176
     1
 62
     7
176
     1
 90
        5
176
     1
 90
        0
176
     1
 90
        0
176
     1
290
     0
176
     1
 90
        1
176
     1
 40
0.0
176
     1
 90
        0
176
     1
290
     0
176
     1
290
     1
176
     1
290
     1
176
     1
290
     0
176
     1
290
     0
176
     1
290
     0
176
     1
290
     0
176
     1
290
     0
176
     1
290
     0
176
     1
 90
       50
176
     1
 40
0.0
176
     1
 40
1.0
176
     1
 90
        0
176
     1
 62
    18
420
        0
176
     1
 90
       50
176
     1
 90
        3
176
     1
 62
     5
420
      255
176
     1
290
     0
176
     1
 90
       50
176
     1
 90
       50
176
     1
 90
       50
176
     1
290
     0
176
     1
 90
       50
176
     1
 62
   256
176
     0
 40
1.0
176
     0
 90
        2
176
     1
  1
strokes_ogs.tif
176
     1
290
     0
176
     1
 40
1.0
176
     1
 40
1.0
176
     1
  0
VISUALSTYLE
  5
32
102
{ACAD_REACTORS
330
29
102
}
330
29
100
AcDbVisualStyle
  2
Conceptual
 70
     9
177
     3
291
     0
 70
    58
 90
        3
176
     1
 90
        2
176
     1
 90
        0
176
     1
 90
        0
176
     1
 40
0.6
176
     1
 40
30.0
176
     1
 62
     7
420
 16777215
176
     1
 90
        2
176
     1
 90
        2
176
     1
 62
     7
176
     1
 62
   257
176
     1
 90
        1
176
     1
 90
        1
176
     1
 40
179.0
176
     1
 90
        8
176
     1
 62
     7
176
     1
 40
1.0
176
     1
 90
        1
176
     1
 90
        6
176
     1
 90
        2
176
     1
 62
     7
176
     1
 90
        3
176
     1
 90
        0
176
     1
 90
        0
176
     1
290
     0
176
     1
 90
        1
176
     1
 40
0.0
176
     1
 90
        0
176
     1
290
     0
176
     1
290
     1
176
     1
290
     1
176
     1
290
     0
176
     1
290
     0
176
     1
290
     0
176
     1
290
     0
176
     1
290
     0
176
     1
290
     0
176
     1
 90
       50
176
     1
 40
0.0
176
     1
 40
1.0
176
     1
 90
        0
176
     1
 62
    18
420
        0
176
     1
 90
       50
176
     1
 90
        3
176
     1
 62
     5
420
      255
176
     1
290
     0
176
     1
 90
       50
176
     1
 90
       50
176
     1
 90
       50
176
     1
290
     0
176
     1
 90
       50
176
     1
 62
   256
176
     0
 40
1.0
176
     0
 90
        2
176
     1
  1
strokes_ogs.tif
176
     1
290
     0
176
     1
 40
1.0
176
     1
 40
1.0
176
     1
  0
VISUALSTYLE
  5
34
102
{ACAD_REACTORS
330
29
102
}
330
29
100
AcDbVisualStyle
  2
Dim
 70
    11
177
     3
291
     1
 70
    58
 90
        2
176
     1
 90
        2
176
     1
 90
        0
176
     1
 90
        0
176
     1
 40
0.6
176
     1
 40
30.0
176
     1
 62
     7
420
 16777215
176
     1
 90
        1
176
     1
 90
        4
176
     1
 62
     7
176
     1
 62
   257
176
     1
 90
        1
176
     1
 90
        1
176
     1
 40
1.0
176
     1
 90
        8
176
     1
 62
     7
176
     1
 40
1.0
176
     1
 90
        1
176
     1
 90
        6
176
     1
 90
        2
176
     1
 62
     7
176
     1
 90
        5
176
     1
 90
        0
176
     1
 90
        0
176
     1
290
     0
176
     1
 90
        1
176
     1
 40
-50.0
176
     1
 90
        0
176
     1
290
     0
176
     1
290
     1
176
     1
290
     1
176
     1
290
     0
176
     1
290
     0
176
     1
290
     0
176
     1
290
     0
176
     1
290
     0
176
     1
290
     0
176
     1
 90
       50
176
     1
 40
0.0
176
     1
 40
1.0
176
     1
 90
        0
176
     1
 62
    18
420
        0
176
     1
 90
       50
176
     1
 90
        3
176
     1
 62
     5
420
      255
176
     1
290
     0
176
     1
 90
       50
176
     1
 90
       50
176
     1
 90
       50
176
     1
290
     0
176
     1
 90
       50
176
     1
 62
   256
176
     0
 40
1.0
176
     0
 90
        2
176
     1
  1
strokes_ogs.tif
176
     1
290
     0
176
     1
 40
1.0
176
     1
 40
1.0
176
     1
  0
VISUALSTYLE
  5
41
102
{ACAD_REACTORS
330
29
102
}
330
29
100
AcDbVisualStyle
  2
EdgeColorOff
 70
    22
177
     3
291
     1
 70
    58
 90
        2
176
     0
 90
        2
176
     0
 90
        0
176
     0
 90
        0
176
     0
 40
0.6
176
     0
 40
30.0
176
     0
 62
     7
420
 16777215
176
     0
 90
        1
176
     0
 90
        4
176
     0
 62
     7
176
     0
 62
   257
176
     0
 90
        1
176
     0
 90
        1
176
     0
 40
1.0
176
     0
 90
        8
176
     2
 62
     7
176
     0
 40
1.0
176
     0
 90
        1
176
     0
 90
        6
176
     0
 90
        2
176
     0
 62
     7
176
     0
 90
        5
176
     0
 90
        0
176
     0
 90
        0
176
     0
290
     0
176
     0
 90
        1
176
     0
 40
0.0
176
     0
 90
        0
176
     0
290
     0
176
     0
290
     1
176
     0
290
     1
176
     0
290
     0
176
     0
290
     0
176
     0
290
     0
176
     0
290
     0
176
     0
290
     0
176
     0
290
     0
176
     0
 90
       50
176
     0
 40
0.0
176
     0
 40
1.0
176
     0
 90
        0
176
     0
 62
    18
420
        0
176
     0
 90
       50
176
     0
 90
        3
176
     0
 62
     5
420
      255
176
     0
290
     0
176
     0
 90
       50
176
     0
 90
       50
176
     0
 90
       50
176
     0
290
     0
176
     0
 90
       50
176
     0
 62
   256
176
     0
 40
1.0
176
     0
 90
        2
176
     0
  1
strokes_ogs.tif
176
     0
290
     0
176
     0
 40
1.0
176
     0
 40
1.0
176
     0
  0
VISUALSTYLE
  5
38
102
{ACAD_REACTORS
330
29
102
}
330
29
100
AcDbVisualStyle
  2
Facepattern
 70
    15
177
     3
291
     1
 70
    58
 90
        2
176
     1
 90
        2
176
     1
 90
        0
176
     1
 90
        0
176
     1
 40
0.6
176
     1
 40
30.0
176
     1
 62
     7
420
 16777215
176
     1
 90
        1
176
     1
 90
        4
176
     1
 62
     7
176
     1
 62
   257
176
     1
 90
        1
176
     1
 90
        1
176
     1
 40
1.0
176
     1
 90
        8
176
     1
 62
     7
176
     1
 40
1.0
176
     1
 90
        1
176
     1
 90
        6
176
     1
 90
        2
176
     1
 62
     7
176
     1
 90
        5
176
     1
 90
        0
176
     1
 90
        0
176
     1
290
     0
176
     1
 90
        1
176
     1
 40
0.0
176
     1
 90
        0
176
     1
290
     0
176
     1
290
     1
176
     1
290
     1
176
     1
290
     0
176
     1
290
     0
176
     1
290
     0
176
     1
290
     0
176
     1
290
     0
176
     1
290
     0
176
     1
 90
       50
176
     1
 40
0.0
176
     1
 40
1.0
176
     1
 90
        0
176
     1
 62
    18
420
        0
176
     1
 90
       50
176
     1
 90
        3
176
     1
 62
     5
420
      255
176
     1
290
     0
176
     1
 90
       50
176
     1
 90
       50
176
     1
 90
       50
176
     1
290
     0
176
     1
 90
       50
176
     1
 62
   256
176
     0
 40
1.0
176
     0
 90
        2
176
     1
  1
strokes_ogs.tif
176
     1
290
     0
176
     1
 40
1.0
176
     1
 40
1.0
176
     1
  0
VISUALSTYLE
  5
2A
102
{ACAD_REACTORS
330
29
102
}
330
29
100
AcDbVisualStyle
  2
Flat
 70
     0
177
     3
291
     1
 70
    58
 90
        2
176
     1
 90
        1
176
     1
 90
        1
176
     1
 90
        2
176
     1
 40
0.6
176
     1
 40
30.0
176
     1
 62
     7
420
 16777215
176
     1
 90
        0
176
     1
 90
        0
176
     1
 62
     7
176
     1
 62
   257
176
     1
 90
        1
176
     1
 90
        1
176
     1
 40
1.0
176
     1
 90
        8
176
     1
 62
     7
176
     1
 40
1.0
176
     1
 90
        1
176
     1
 90
        6
176
     1
 90
        2
176
     1
 62
     7
176
     1
 90
        5
176
     1
 90
        0
176
     1
 90
        0
176
     1
290
     0
176
     1
 90
       13
176
     1
 40
0.0
176
     1
 90
        0
176
     1
290
     0
176
     1
290
     1
176
     1
290
     1
176
     1
290
     0
176
     1
290
     0
176
     1
290
     0
176
     1
290
     0
176
     1
290
     0
176
     1
290
     0
176
     1
 90
       50
176
     1
 40
0.0
176
     1
 40
1.0
176
     1
 90
        0
176
     1
 62
    18
420
        0
176
     1
 90
       50
176
     1
 90
        3
176
     1
 62
     5
420
      255
176
     1
290
     0
176
     1
 90
       50
176
     1
 90
       50
176
     1
 90
       50
176
     1
290
     0
176
     1
 90
       50
176
     1
 62
   256
176
     0
 40
1.0
176
     0
 90
        2
176
     1
  1
strokes_ogs.tif
176
     1
290
     0
176
     1
 40
1.0
176
     1
 40
1.0
176
     1
  0
VISUALSTYLE
  5
2B
102
{ACAD_REACTORS
330
29
102
}
330
29
100
AcDbVisualStyle
  2
FlatWithEdges
 70
     1
177
     3
291
     1
 70
    58
 90
        2
176
     1
 90
        1
176
     1
 90
        1
176
     1
 90
        2
176
     1
 40
0.6
176
     1
 40
30.0
176
     1
 62
     7
420
 16777215
176
     1
 90
        1
176
     1
 90
        0
176
     1
 62
     7
176
     1
 62
   257
176
     1
 90
        1
176
     1
 90
        1
176
     1
 40
1.0
176
     1
 90
        0
176
     1
 62
   257
176
     1
 40
1.0
176
     1
 90
        1
176
     1
 90
        6
176
     1
 90
        2
176
     1
 62
     7
176
     1
 90
        5
176
     1
 90
        0
176
     1
 90
        0
176
     1
290
     0
176
     1
 90
       13
176
     1
 40
0.0
176
     1
 90
        0
176
     1
290
     0
176
     1
290
     1
176
     1
290
     1
176
     1
290
     0
176
     1
290
     0
176
     1
290
     0
176
     1
290
     0
176
     1
290
     0
176
     1
290
     0
176
     1
 90
       50
176
     1
 40
0.0
176
     1
 40
1.0
176
     1
 90
        0
176
     1
 62
    18
420
        0
176
     1
 90
       50
176
     1
 90
        3
176
     1
 62
     5
420
      255
176
     1
290
     0
176
     1
 90
       50
176
     1
 90
       50
176
     1
 90
       50
176
     1
290
     0
176
     1
 90
       50
176
     1
 62
   256
176
     0
 40
1.0
176
     0
 90
        2
176
     1
  1
strokes_ogs.tif
176
     1
290
     0
176
     1
 40
1.0
176
     1
 40
1.0
176
     1
  0
VISUALSTYLE
  5
2C
102
{ACAD_REACTORS
330
29
102
}
330
29
100
AcDbVisualStyle
  2
Gouraud
 70
     2
177
     3
291
     1
 70
    58
 90
        2
176
     1
 90
        2
176
     1
 90
        1
176
     1
 90
        2
176
     1
 40
0.6
176
     1
 40
30.0
176
     1
 62
     7
420
 16777215
176
     1
 90
        0
176
     1
 90
        0
176
     1
 62
     7
176
     1
 62
   257
176
     1
 90
        1
176
     1
 90
        1
176
     1
 40
1.0
176
     1
 90
        0
176
     1
 62
     7
176
     1
 40
1.0
176
     1
 90
        1
176
     1
 90
        6
176
     1
 90
        2
176
     1
 62
     7
176
     1
 90
        5
176
     1
 90
        0
176
     1
 90
        0
176
     1
290
     0
176
     1
 90
       13
176
     1
 40
0.0
176
     1
 90
        0
176
     1
290
     0
176
     1
290
     1
176
     1
290
     1
176
     1
290
     0
176
     1
290
     0
176
     1
290
     0
176
     1
290
     0
176
     1
290
     0
176
     1
290
     0
176
     1
 90
       50
176
     1
 40
0.0
176
     1
 40
1.0
176
     1
 90
        0
176
     1
 62
    18
420
        0
176
     1
 90
       50
176
     1
 90
        3
176
     1
 62
     5
420
      255
176
     1
290
     0
176
     1
 90
       50
176
     1
 90
       50
176
     1
 90
       50
176
     1
290
     0
176
     1
 90
       50
176
     1
 62
   256
176
     0
 40
1.0
176
     0
 90
        2
176
     1
  1
strokes_ogs.tif
176
     1
290
     0
176
     1
 40
1.0
176
     1
 40
1.0
176
     1
  0
VISUALSTYLE
  5
2D
102
{ACAD_REACTORS
330
29
102
}
330
29
100
AcDbVisualStyle
  2
GouraudWithEdges
 70
     3
177
     3
291
     1
 70
    58
 90
        2
176
     1
 90
        2
176
     1
 90
        1
176
     1
 90
        2
176
     1
 40
0.6
176
     1
 40
30.0
176
     1
 62
     7
420
 16777215
176
     1
 90
        1
176
     1
 90
        0
176
     1
 62
     7
176
     1
 62
   257
176
     1
 90
        1
176
     1
 90
        1
176
     1
 40
1.0
176
     1
 90
        0
176
     1
 62
   257
176
     1
 40
1.0
176
     1
 90
        1
176
     1
 90
        6
176
     1
 90
        2
176
     1
 62
     7
176
     1
 90
        5
176
     1
 90
        0
176
     1
 90
        0
176
     1
290
     0
176
     1
 90
       13
176
     1
 40
0.0
176
     1
 90
        0
176
     1
290
     0
176
     1
290
     1
176
     1
290
     1
176
     1
290
     0
176
     1
290
     0
176
     1
290
     0
176
     1
290
     0
176
     1
290
     0
176
     1
290
     0
176
     1
 90
       50
176
     1
 40
0.0
176
     1
 40
1.0
176
     1
 90
        0
176
     1
 62
    18
420
        0
176
     1
 90
       50
176
     1
 90
        3
176
     1
 62
     5
420
      255
176
     1
290
     0
176
     1
 90
       50
176
     1
 90
       50
176
     1
 90
       50
176
     1
290
     0
176
     1
 90
       50
176
     1
 62
   256
176
     0
 40
1.0
176
     0
 90
        2
176
     1
  1
strokes_ogs.tif
176
     1
290
     0
176
     1
 40
1.0
176
     1
 40
1.0
176
     1
  0
VISUALSTYLE
  5
31
102
{ACAD_REACTORS
330
29
102
}
330
29
100
AcDbVisualStyle
  2
Hidden
 70
     6
177
     3
291
     0
 70
    58
 90
        1
176
     1
 90
        2
176
     1
 90
        2
176
     1
 90
        0
176
     1
 40
0.6
176
     1
 40
30.0
176
     1
 62
     7
420
 16777215
176
     1
 90
        2
176
     1
 90
        2
176
     1
 62
     7
176
     1
 62
   257
176
     1
 90
        2
176
     1
 90
        1
176
     1
 40
40.0
176
     1
 90
        0
176
     1
 62
   257
176
     1
 40
1.0
176
     1
 90
        1
176
     1
 90
        6
176
     1
 90
        2
176
     1
 62
     7
176
     1
 90
        3
176
     1
 90
        0
176
     1
 90
        0
176
     1
290
     0
176
     1
 90
        1
176
     1
 40
0.0
176
     1
 90
        0
176
     1
290
     0
176
     1
290
     1
176
     1
290
     1
176
     1
290
     0
176
     1
290
     0
176
     1
290
     0
176
     1
290
     0
176
     1
290
     0
176
     1
290
     0
176
     1
 90
       50
176
     1
 40
0.0
176
     1
 40
1.0
176
     1
 90
        0
176
     1
 62
    18
420
        0
176
     1
 90
       50
176
     1
 90
        3
176
     1
 62
     5
420
      255
176
     1
290
     0
176
     1
 90
       50
176
     1
 90
       50
176
     1
 90
       50
176
     1
290
     0
176
     1
 90
       50
176
     1
 62
   256
176
     0
 40
1.0
176
     0
 90
        2
176
     1
  1
strokes_ogs.tif
176
     1
290
     0
176
     1
 40
1.0
176
     1
 40
1.0
176
     1
  0
VISUALSTYLE
  5
3F
102
{ACAD_REACTORS
330
29
102
}
330
29
100
AcDbVisualStyle
  2
JitterOff
 70
    20
177
     3
291
     1
 70
    58
 90
        2
176
     0
 90
        2
176
     0
 90
        0
176
     0
 90
        0
176
     0
 40
0.6
176
     0
 40
30.0
176
     0
 62
     7
420
 16777215
176
     0
 90
        1
176
     0
 90
        4
176
     0
 62
     7
176
     0
 62
   257
176
     0
 90
        1
176
     0
 90
        1
176
     0
 40
1.0
176
     0
 90
       10
176
     2
 62
     7
176
     0
 40
1.0
176
     0
 90
        1
176
     0
 90
        6
176
     0
 90
        2
176
     0
 62
     7
176
     0
 90
        5
176
     0
 90
        0
176
     0
 90
        0
176
     0
290
     0
176
     0
 90
        1
176
     0
 40
0.0
176
     0
 90
        0
176
     0
290
     0
176
     0
290
     1
176
     0
290
     1
176
     0
290
     0
176
     0
290
     0
176
     0
290
     0
176
     0
290
     0
176
     0
290
     0
176
     0
290
     0
176
     0
 90
       50
176
     0
 40
0.0
176
     0
 40
1.0
176
     0
 90
        0
176
     0
 62
    18
420
        0
176
     0
 90
       50
176
     0
 90
        3
176
     0
 62
     5
420
      255
176
     0
290
     0
176
     0
 90
       50
176
     0
 90
       50
176
     0
 90
       50
176
     0
290
     0
176
     0
 90
       50
176
     0
 62
   256
176
     0
 40
1.0
176
     0
 90
        2
176
     0
  1
strokes_ogs.tif
176
     0
290
     0
176
     0
 40
1.0
176
     0
 40
1.0
176
     0
  0
VISUALSTYLE
  5
37
102
{ACAD_REACTORS
330
29
102
}
330
29
100
AcDbVisualStyle
  2
Linepattern
 70
    14
177
     3
291
     1
 70
    58
 90
        2
176
     1
 90
        2
176
     1
 90
        0
176
     1
 90
        0
176
     1
 40
0.6
176
     1
 40
30.0
176
     1
 62
     7
420
 16777215
176
     1
 90
        1
176
     1
 90
        4
176
     1
 62
     7
176
     1
 62
   257
176
     1
 90
        7
176
     1
 90
        7
176
     1
 40
1.0
176
     1
 90
        8
176
     1
 62
     7
176
     1
 40
1.0
176
     1
 90
        1
176
     1
 90
        6
176
     1
 90
        2
176
     1
 62
     7
176
     1
 90
        5
176
     1
 90
        0
176
     1
 90
        0
176
     1
290
     0
176
     1
 90
        1
176
     1
 40
0.0
176
     1
 90
        0
176
     1
290
     0
176
     1
290
     1
176
     1
290
     1
176
     1
290
     0
176
     1
290
     0
176
     1
290
     0
176
     1
290
     0
176
     1
290
     0
176
     1
290
     0
176
     1
 90
       50
176
     1
 40
0.0
176
     1
 40
1.0
176
     1
 90
        0
176
     1
 62
    18
420
        0
176
     1
 90
       50
176
     1
 90
        3
176
     1
 62
     5
420
      255
176
     1
290
     0
176
     1
 90
       50
176
     1
 90
       50
176
     1
 90
       50
176
     1
290
     0
176
     1
 90
       50
176
     1
 62
   256
176
     0
 40
1.0
176
     0
 90
        2
176
     1
  1
strokes_ogs.tif
176
     1
290
     0
176
     1
 40
1.0
176
     1
 40
1.0
176
     1
  0
VISUALSTYLE
  5
40
102
{ACAD_REACTORS
330
29
102
}
330
29
100
AcDbVisualStyle
  2
OverhangOff
 70
    21
177
     3
291
     1
 70
    58
 90
        2
176
     0
 90
        2
176
     0
 90
        0
176
     0
 90
        0
176
     0
 40
0.6
176
     0
 40
30.0
176
     0
 62
     7
420
 16777215
176
     0
 90
        1
176
     0
 90
        4
176
     0
 62
     7
176
     0
 62
   257
176
     0
 90
        1
176
     0
 90
        1
176
     0
 40
1.0
176
     0
 90
        9
176
     2
 62
     7
176
     0
 40
1.0
176
     0
 90
        1
176
     0
 90
        6
176
     0
 90
        2
176
     0
 62
     7
176
     0
 90
        5
176
     0
 90
        0
176
     0
 90
        0
176
     0
290
     0
176
     0
 90
        1
176
     0
 40
0.0
176
     0
 90
        0
176
     0
290
     0
176
     0
290
     1
176
     0
290
     1
176
     0
290
     0
176
     0
290
     0
176
     0
290
     0
176
     0
290
     0
176
     0
290
     0
176
     0
290
     0
176
     0
 90
       50
176
     0
 40
0.0
176
     0
 40
1.0
176
     0
 90
        0
176
     0
 62
    18
420
        0
176
     0
 90
       50
176
     0
 90
        3
176
     0
 62
     5
420
      255
176
     0
290
     0
176
     0
 90
       50
176
     0
 90
       50
176
     0
 90
       50
176
     0
290
     0
176
     0
 90
       50
176
     0
 62
   256
176
     0
 40
1.0
176
     0
 90
        2
176
     0
  1
strokes_ogs.tif
176
     0
290
     0
176
     0
 40
1.0
176
     0
 40
1.0
176
     0
  0
VISUALSTYLE
  5
33
102
{ACAD_REACTORS
330
29
102
}
330
29
100
AcDbVisualStyle
  2
Realistic
 70
     8
177
     3
291
     0
 70
    58
 90
        2
176
     1
 90
        3
176
     1
 90
        0
176
     1
 90
        2
176
     1
 40
0.6
176
     1
 40
30.0
176
     1
 62
     7
420
 16777215
176
     1
 90
        0
176
     1
 90
        0
176
     1
 62
     7
176
     1
 62
   257
176
     1
 90
        1
176
     1
 90
        1
176
     1
 40
1.0
176
     1
 90
        8
176
     1
 62
   257
176
     1
 40
1.0
176
     1
 90
        1
176
     1
 90
        6
176
     1
 90
        2
176
     1
 62
     7
176
     1
 90
        3
176
     1
 90
        0
176
     1
 90
        0
176
     1
290
     0
176
     1
 90
       13
176
     1
 40
0.0
176
     1
 90
        0
176
     1
290
     0
176
     1
290
     1
176
     1
290
     1
176
     1
290
     0
176
     1
290
     0
176
     1
290
     0
176
     1
290
     0
176
     1
290
     0
176
     1
290
     0
176
     1
 90
       50
176
     1
 40
0.0
176
     1
 40
1.0
176
     1
 90
        0
176
     1
 62
    18
420
        0
176
     1
 90
       50
176
     1
 90
        3
176
     1
 62
     5
420
      255
176
     1
290
     0
176
     1
 90
       50
176
     1
 90
       50
176
     1
 90
       50
176
     1
290
     0
176
     1
 90
       50
176
     1
 62
   256
176
     0
 40
1.0
176
     0
 90
        2
176
     1
  1
strokes_ogs.tif
176
     1
290
     0
176
     1
 40
1.0
176
     1
 40
1.0
176
     1
  0
VISUALSTYLE
  5
3E
102
{ACAD_REACTORS
330
29
102
}
330
29
100
AcDbVisualStyle
  2
Shaded
 70
    27
177
     3
291
     0
 70
    58
 90
        2
176
     1
 90
        2
176
     1
 90
        1
176
     1
 90
        2
176
     1
 40
0.6
176
     1
 40
30.0
176
     1
 62
     7
420
 16777215
176
     1
 90
        0
176
     1
 90
        4
176
     1
 62
     7
176
     1
 62
   257
176
     1
 90
        1
176
     1
 90
        1
176
     1
 40
1.0
176
     1
 90
        8
176
     1
 62
   257
176
     1
 40
1.0
176
     1
 90
        1
176
     1
 90
        6
176
     1
 90
        2
176
     1
 62
     8
420
  7895160
176
     1
 90
        3
176
     1
 90
        0
176
     1
 90
        0
176
     1
290
     0
176
     1
 90
        5
176
     1
 40
0.0
176
     1
 90
        0
176
     1
290
     0
176
     1
290
     1
176
     1
290
     1
176
     1
290
     0
176
     1
290
     0
176
     1
290
     0
176
     1
290
     0
176
     1
290
     0
176
     1
290
     0
176
     1
 90
       50
176
     1
 40
0.0
176
     1
 40
1.0
176
     1
 90
        0
176
     1
 62
    18
420
        0
176
     1
 90
       50
176
     1
 90
        3
176
     1
 62
     5
420
      255
176
     1
290
     0
176
     1
 90
       50
176
     1
 90
       50
176
     1
 90
       50
176
     1
290
     0
176
     1
 90
       50
176
     1
 62
   256
176
     0
 40
1.0
176
     0
 90
        2
176
     1
  1
strokes_ogs.tif
176
     1
290
     0
176
     1
 40
1.0
176
     1
 40
1.0
176
     1
  0
VISUALSTYLE
  5
3D
102
{ACAD_REACTORS
330
29
102
}
330
29
100
AcDbVisualStyle
  2
Shaded with edges
 70
    26
177
     3
291
     0
 70
    58
 90
        2
176
     1
 90
        2
176
     1
 90
        1
176
     1
 90
        2
176
     1
 40
0.6
176
     1
 40
30.0
176
     1
 62
     7
420
 16777215
176
     1
 90
        1
176
     1
 90
       10
176
     1
 62
     7
176
     1
 62
   257
176
     1
 90
        2
176
     1
 90
        1
176
     1
 40
1.0
176
     1
 90
        8
176
     1
 62
   257
176
     1
 40
1.0
176
     1
 90
        1
176
     1
 90
        6
176
     1
 90
        2
176
     1
 62
     7
176
     1
 90
        3
176
     1
 90
        0
176
     1
 90
        0
176
     1
290
     0
176
     1
 90
        5
176
     1
 40
0.0
176
     1
 90
        0
176
     1
290
     0
176
     1
290
     1
176
     1
290
     1
176
     1
290
     0
176
     1
290
     0
176
     1
290
     0
176
     1
290
     0
176
     1
290
     0
176
     1
290
     0
176
     1
 90
       50
176
     1
 40
0.0
176
     1
 40
1.0
176
     1
 90
        0
176
     1
 62
    18
420
        0
176
     1
 90
       50
176
     1
 90
        3
176
     1
 62
     5
420
      255
176
     1
290
     0
176
     1
 90
       50
176
     1
 90
       50
176
     1
 90
       50
176
     1
290
     0
176
     1
 90
       50
176
     1
 62
   256
176
     0
 40
1.0
176
     0
 90
        2
176
     1
  1
strokes_ogs.tif
176
     1
290
     0
176
     1
 40
1.0
176
     1
 40
1.0
176
     1
  0
VISUALSTYLE
  5
3A
102
{ACAD_REACTORS
330
29
102
}
330
29
100
AcDbVisualStyle
  2
Shades of Gray
 70
    23
177
     3
291
     0
 70
    58
 90
        2
176
     1
 90
        2
176
     1
 90
        3
176
     1
 90
        0
176
     1
 40
0.6
176
     1
 40
30.0
176
     1
 62
     7
420
 16777215
176
     1
 90
        2
176
     1
 90
        2
176
     1
 62
     7
176
     1
 62
     7
176
     1
 90
        1
176
     1
 90
        1
176
     1
 40
40.0
176
     1
 90
        8
176
     1
 62
     7
176
     1
 40
1.0
176
     1
 90
        1
176
     1
 90
        6
176
     1
 90
        2
176
     1
 62
     7
176
     1
 90
        3
176
     1
 90
        0
176
     1
 90
        0
176
     1
290
     0
176
     1
 90
        1
176
     1
 40
0.0
176
     1
 90
        0
176
     1
290
     0
176
     1
290
     1
176
     1
290
     1
176
     1
290
     0
176
     1
290
     0
176
     1
290
     0
176
     1
290
     0
176
     1
290
     0
176
     1
290
     0
176
     1
 90
       50
176
     1
 40
0.0
176
     1
 40
1.0
176
     1
 90
        0
176
     1
 62
    18
420
        0
176
     1
 90
       50
176
     1
 90
        3
176
     1
 62
     5
420
      255
176
     1
290
     0
176
     1
 90
       50
176
     1
 90
       50
176
     1
 90
       50
176
     1
290
     0
176
     1
 90
       50
176
     1
 62
   256
176
     0
 40
1.0
176
     0
 90
        2
176
     1
  1
strokes_ogs.tif
176
     1
290
     0
176
     1
 40
1.0
176
     1
 40
1.0
176
     1
  0
VISUALSTYLE
  5
3B
102
{ACAD_REACTORS
330
29
102
}
330
29
100
AcDbVisualStyle
  2
Sketchy
 70
    24
177
     3
291
     0
 70
    58
 90
        1
176
     1
 90
        2
176
     1
 90
        2
176
     1
 90
        0
176
     1
 40
0.6
176
     1
 40
30.0
176
     1
 62
     7
420
 16777215
176
     1
 90
        2
176
     1
 90
        2
176
     1
 62
     7
176
     1
 62
     7
176
     1
 90
        1
176
     1
 90
        1
176
     1
 40
40.0
176
     1
 90
       11
176
     1
 62
     7
176
     1
 40
1.0
176
     1
 90
        1
176
     1
 90
        6
176
     1
 90
        2
176
     1
 62
     7
176
     1
 90
        6
176
     1
 90
        0
176
     1
 90
        0
176
     1
290
     0
176
     1
 90
        1
176
     1
 40
0.0
176
     1
 90
        0
176
     1
290
     0
176
     1
290
     1
176
     1
290
     1
176
     1
290
     0
176
     1
290
     0
176
     1
290
     0
176
     1
290
     0
176
     1
290
     0
176
     1
290
     0
176
     1
 90
       50
176
     1
 40
0.0
176
     1
 40
1.0
176
     1
 90
        0
176
     1
 62
    18
420
        0
176
     1
 90
       50
176
     1
 90
        3
176
     1
 62
     5
420
      255
176
     1
290
     0
176
     1
 90
       50
176
     1
 90
       50
176
     1
 90
       50
176
     1
290
     0
176
     1
 90
       50
176
     1
 62
   256
176
     0
 40
1.0
176
     0
 90
        2
176
     1
  1
strokes_ogs.tif
176
     1
290
     0
176
     1
 40
1.0
176
     1
 40
1.0
176
     1
  0
VISUALSTYLE
  5
36
102
{ACAD_REACTORS
330
29
102
}
330
29
100
AcDbVisualStyle
  2
Thicken
 70
    13
177
     3
291
     1
 70
    58
 90
        2
176
     1
 90
        2
176
     1
 90
        0
176
     1
 90
        0
176
     1
 40
0.6
176
     1
 40
30.0
176
     1
 62
     7
420
 16777215
176
     1
 90
        1
176
     1
 90
        4
176
     1
 62
     7
176
     1
 62
   257
176
     1
 90
        1
176
     1
 90
        1
176
     1
 40
1.0
176
     1
 90
       12
176
     1
 62
     7
176
     1
 40
1.0
176
     1
 90
        1
176
     1
 90
        6
176
     1
 90
        2
176
     1
 62
     7
176
     1
 90
        5
176
     1
 90
        0
176
     1
 90
        0
176
     1
290
     0
176
     1
 90
        1
176
     1
 40
0.0
176
     1
 90
        0
176
     1
290
     0
176
     1
290
     1
176
     1
290
     1
176
     1
290
     0
176
     1
290
     0
176
     1
290
     0
176
     1
290
     0
176
     1
290
     0
176
     1
290
     0
176
     1
 90
       50
176
     1
 40
0.0
176
     1
 40
1.0
176
     1
 90
        0
176
     1
 62
    18
420
        0
176
     1
 90
       50
176
     1
 90
        3
176
     1
 62
     5
420
      255
176
     1
290
     0
176
     1
 90
       50
176
     1
 90
       50
176
     1
 90
       50
176
     1
290
     0
176
     1
 90
       50
176
     1
 62
   256
176
     0
 40
1.0
176
     0
 90
        2
176
     1
  1
strokes_ogs.tif
176
     1
290
     0
176
     1
 40
1.0
176
     1
 40
1.0
176
     1
  0
VISUALSTYLE
  5
30
102
{ACAD_REACTORS
330
29
102
}
330
29
100
AcDbVisualStyle
  2
Wireframe
 70
     5
177
     3
291
     0
 70
    58
 90
        0
176
     1
 90
        2
176
     1
 90
        0
176
     1
 90
        0
176
     1
 40
0.6
176
     1
 40
30.0
176
     1
 62
     7
420
 16777215
176
     1
 90
        1
176
     1
 90
        4
176
     1
 62
     7
176
     1
 62
   257
176
     1
 90
        1
176
     1
 90
        1
176
     1
 40
1.0
176
     1
 90
        0
176
     1
 62
   257
176
     1
 40
1.0
176
     1
 90
        1
176
     1
 90
        6
176
     1
 90
        2
176
     1
 62
     7
176
     1
 90
        3
176
     1
 90
        0
176
     1
 90
        0
176
     1
290
     0
176
     1
 90
        1
176
     1
 40
0.0
176
     1
 90
        0
176
     1
290
     0
176
     1
290
     1
176
     1
290
     1
176
     1
290
     0
176
     1
290
     0
176
     1
290
     0
176
     1
290
     0
176
     1
290
     0
176
     1
290
     0
176
     1
 90
       50
176
     1
 40
0.0
176
     1
 40
1.0
176
     1
 90
        0
176
     1
 62
    18
420
        0
176
     1
 90
       50
176
     1
 90
        3
176
     1
 62
     5
420
      255
176
     1
290
     0
176
     1
 90
       50
176
     1
 90
       50
176
     1
 90
       50
176
     1
290
     0
176
     1
 90
       50
176
     1
 62
   256
176
     0
 40
1.0
176
     0
 90
        2
176
     1
  1
strokes_ogs.tif
176
     1
290
     0
176
     1
 40
1.0
176
     1
 40
1.0
176
     1
  0
VISUALSTYLE
  5
3C
102
{ACAD_REACTORS
330
29
102
}
330
29
100
AcDbVisualStyle
  2
X-Ray
 70
    25
177
     3
291
     0
 70
    58
 90
        2
176
     1
 90
        2
176
     1
 90
        1
176
     1
 90
        1
176
     1
 40
0.5
176
     1
 40
30.0
176
     1
 62
     7
420
 16777215
176
     1
 90
        1
176
     1
 90
        0
176
     1
 62
     7
176
     1
 62
   257
176
     1
 90
        1
176
     1
 90
        1
176
     1
 40
1.0
176
     1
 90
        8
176
     1
 62
     7
176
     1
 40
1.0
176
     1
 90
        1
176
     1
 90
        6
176
     1
 90
        2
176
     1
 62
     7
176
     1
 90
        3
176
     1
 90
        0
176
     1
 90
        0
176
     1
290
     0
176
     1
 90
       13
176
     1
 40
0.0
176
     1
 90
        0
176
     1
290
     0
176
     1
290
     1
176
     1
290
     1
176
     1
290
     0
176
     1
290
     0
176
     1
290
     0
176
     1
290
     0
176
     1
290
     0
176
     1
290
     0
176
     1
 90
       50
176
     1
 40
0.0
176
     1
 40
1.0
176
     1
 90
        0
176
     1
 62
    18
420
        0
176
     1
 90
       50
176
     1
 90
        3
176
     1
 62
     5
420
      255
176
     1
290
     0
176
     1
 90
       50
176
     1
 90
       50
176
     1
 90
       50
176
     1
290
     0
176
     1
 90
       50
176
     1
 62
   256
176
     0
 40
1.0
176
     0
 90
        2
176
     1
  1
strokes_ogs.tif
176
     1
290
     0
176
     1
 40
1.0
176
     1
 40
1.0
176
     1
  0
DICTIONARYVAR
  5
81
102
{ACAD_REACTORS
330
7C
102
}
330
7C
100
DictionaryVariables
280
     0
  1
1:1
  0
DICTIONARYVAR
  5
7E
102
{ACAD_REACTORS
330
7C
102
}
330
7C
100
DictionaryVariables
280
     0
  1
STANDARD
  0
DICTIONARYVAR
  5
7D
102
{ACAD_REACTORS
330
7C
102
}
330
7C
100
DictionaryVariables
280
     0
  1
STANDARD
  0
DICTIONARYVAR
  5
7F
102
{ACAD_REACTORS
330
7C
102
}
330
7C
100
DictionaryVariables
280
     0
  1
Imperial24
  0
DICTIONARYVAR
  5
80
102
{ACAD_REACTORS
330
7C
102
}
330
7C
100
DictionaryVariables
280
     0
  1
Imperial24
  0
XRECORD
  5
2AE
102
{ACAD_REACTORS
330
2AA
102
}
330
2AA
100
AcDbXrecord
280
     1
  1
BUILDING_ID
  1
Progetto per messa in tavola DXF, DWG
  1
FLOOR_ID
  1
694395
  0
XRECORD
  5
2AC
102
{ACAD_REACTORS
330
2AA
102
}
330
2AA
100
AcDbXrecord
280
     1
  1
-2001160
  1
Apparecchi idraulici
  0
XRECORD
  5
2AD
102
{ACAD_REACTORS
330
2AA
102
}
330
2AA
100
AcDbXrecord
280
     1
  1
790271
  1
Body
  1
924063
  1
Handle
  0
XRECORD
  5
2AB
102
{ACAD_REACTORS
330
2AA
102
}
330
2AA
100
AcDbXrecord
280
     1
  1
859151
  1
Automatic flow rate regulator valve_Caleffi_121 DN15 : 1/2''
  0
DICTIONARY
  5
1A
330
19
100
AcDbDictionary
280
     1
281
     1
  3
BUMPTILE
360
1C
  3
DIFFUSETILE
360
1B
  3
OPACITYTILE
360
1F
  3
REFLECTIONTILE
360
1E
  3
REFRACTIONTILE
360
20
  3
SPECULARTILE
360
1D
  0
DICTIONARY
  5
12
330
11
100
AcDbDictionary
280
     1
281
     1
  3
BUMPTILE
360
14
  3
DIFFUSETILE
360
13
  3
OPACITYTILE
360
17
  3
REFLECTIONTILE
360
16
  3
REFRACTIONTILE
360
18
  3
SPECULARTILE
360
15
  0
DICTIONARY
  5
22
330
21
100
AcDbDictionary
280
     1
281
     1
  3
BUMPTILE
360
24
  3
DIFFUSETILE
360
23
  3
OPACITYTILE
360
27
  3
REFLECTIONTILE
360
26
  3
REFRACTIONTILE
360
28
  3
SPECULARTILE
360
25
  0
DICTIONARY
  5
2B1
330
65
100
AcDbDictionary
280
     1
281
     1
  3
ACAD_ROUNDTRIP_2008_TABLESTYLE_CELLSTYLEMAP
360
2B2
  0
XRECORD
  5
1C
102
{ACAD_REACTORS
330
1A
102
}
330
1A
100
AcDbXrecord
280
     1
270
     1
271
     1
  0
XRECORD
  5
1B
102
{ACAD_REACTORS
330
1A
102
}
330
1A
100
AcDbXrecord
280
     1
270
     1
271
     1
  0
XRECORD
  5
1F
102
{ACAD_REACTORS
330
1A
102
}
330
1A
100
AcDbXrecord
280
     1
270
     1
271
     1
  0
XRECORD
  5
1E
102
{ACAD_REACTORS
330
1A
102
}
330
1A
100
AcDbXrecord
280
     1
270
     1
271
     1
  0
XRECORD
  5
20
102
{ACAD_REACTORS
330
1A
102
}
330
1A
100
AcDbXrecord
280
     1
270
     1
271
     1
  0
XRECORD
  5
1D
102
{ACAD_REACTORS
330
1A
102
}
330
1A
100
AcDbXrecord
280
     1
270
     1
271
     1
  0
XRECORD
  5
14
102
{ACAD_REACTORS
330
12
102
}
330
12
100
AcDbXrecord
280
     1
270
     1
271
     1
  0
XRECORD
  5
13
102
{ACAD_REACTORS
330
12
102
}
330
12
100
AcDbXrecord
280
     1
270
     1
271
     1
  0
XRECORD
  5
17
102
{ACAD_REACTORS
330
12
102
}
330
12
100
AcDbXrecord
280
     1
270
     1
271
     1
  0
XRECORD
  5
16
102
{ACAD_REACTORS
330
12
102
}
330
12
100
AcDbXrecord
280
     1
270
     1
271
     1
  0
XRECORD
  5
18
102
{ACAD_REACTORS
330
12
102
}
330
12
100
AcDbXrecord
280
     1
270
     1
271
     1
  0
XRECORD
  5
15
102
{ACAD_REACTORS
330
12
102
}
330
12
100
AcDbXrecord
280
     1
270
     1
271
     1
  0
XRECORD
  5
24
102
{ACAD_REACTORS
330
22
102
}
330
22
100
AcDbXrecord
280
     1
270
     1
271
     1
  0
XRECORD
  5
23
102
{ACAD_REACTORS
330
22
102
}
330
22
100
AcDbXrecord
280
     1
270
     1
271
     1
  0
XRECORD
  5
27
102
{ACAD_REACTORS
330
22
102
}
330
22
100
AcDbXrecord
280
     1
270
     1
271
     1
  0
XRECORD
  5
26
102
{ACAD_REACTORS
330
22
102
}
330
22
100
AcDbXrecord
280
     1
270
     1
271
     1
  0
XRECORD
  5
28
102
{ACAD_REACTORS
330
22
102
}
330
22
100
AcDbXrecord
280
     1
270
     1
271
     1
  0
XRECORD
  5
25
102
{ACAD_REACTORS
330
22
102
}
330
22
100
AcDbXrecord
280
     1
270
     1
271
     1
  0
CELLSTYLEMAP
  5
2B2
102
{ACAD_REACTORS
330
2B1
102
}
330
2B1
100
AcDbCellStyleMap
 90
        3
300
CELLSTYLE
  1
TABLEFORMAT_BEGIN
 90
        5
170
     1
 91
        0
 92
    32768
 62
   257
 93
        1
300
CONTENTFORMAT
  1
CONTENTFORMAT_BEGIN
 90
        0
 91
        0
 92
      512
 93
        0
300

 40
0.0
140
1.0
 94
        5
 62
     0
340
55
144
0.25
309
CONTENTFORMAT_END
171
     0
 94
        0
309
TABLEFORMAT_END
  1
CELLSTYLE_BEGIN
 90
        1
 91
        1
300
_TITLE
309
CELLSTYLE_END
300
CELLSTYLE
  1
TABLEFORMAT_BEGIN
 90
        5
170
     1
 91
        0
 92
        0
 62
   257
 93
        1
300
CONTENTFORMAT
  1
CONTENTFORMAT_BEGIN
 90
        0
 91
        0
 92
      512
 93
        0
300

 40
0.0
140
1.0
 94
        5
 62
     0
340
55
144
0.18
309
CONTENTFORMAT_END
171
     0
 94
        0
309
TABLEFORMAT_END
  1
CELLSTYLE_BEGIN
 90
        2
 91
        1
300
_HEADER
309
CELLSTYLE_END
300
CELLSTYLE
  1
TABLEFORMAT_BEGIN
 90
        5
170
     1
 91
        0
 92
        0
 62
   257
 93
        1
300
CONTENTFORMAT
  1
CONTENTFORMAT_BEGIN
 90
        0
 91
        0
 92
      512
 93
        0
300

 40
0.0
140
1.0
 94
        2
 62
     0
340
55
144
0.18
309
CONTENTFORMAT_END
171
     0
 94
        0
309
TABLEFORMAT_END
  1
CELLSTYLE_BEGIN
 90
        3
 91
        2
300
_DATA
309
CELLSTYLE_END
  0
ENDSEC
  0
EOF
