  0
SECTION
  2
HEADER
  9
$ACADVER
  1
AC1027
  9
$ACADMAINTVER
 70
    20
  9
$DWGCODEPAGE
  3
ANSI_1252
  9
$REQUIREDVERSIONS
160
                 0
  9
$INSBASE
 10
0.0
 20
0.0
 30
0.0
  9
$EXTMIN
 10
580.6664074431875
 20
1027.277070127454
 30
-0.00000001
  9
$EXTMAX
 10
1831.083162555694
 20
2240.000000000012
 30
0.00000001
  9
$LIMMIN
 10
0.0
 20
0.0
  9
$LIMMAX
 10
12.0
 20
9.0
  9
$ORTHOMODE
 70
     0
  9
$REGENMODE
 70
     1
  9
$FILLMODE
 70
     1
  9
$QTEXTMODE
 70
     0
  9
$MIRRTEXT
 70
     0
  9
$LTSCALE
 40
1.0
  9
$ATTMODE
 70
     1
  9
$TEXTSIZE
 40
0.2
  9
$TRACEWID
 40
0.05
  9
$TEXTSTYLE
  7
Standard
  9
$CLAYER
  8
0
  9
$CELTYPE
  6
ByLayer
  9
$CECOLOR
 62
   256
  9
$CELTSCALE
 40
1.0
  9
$DISPSILH
 70
     0
  9
$DIMSCALE
 40
1.0
  9
$DIMASZ
 40
0.18
  9
$DIMEXO
 40
0.0625
  9
$DIMDLI
 40
0.38
  9
$DIMRND
 40
0.0
  9
$DIMDLE
 40
0.0
  9
$DIMEXE
 40
0.18
  9
$DIMTP
 40
0.0
  9
$DIMTM
 40
0.0
  9
$DIMTXT
 40
0.18
  9
$DIMCEN
 40
0.09
  9
$DIMTSZ
 40
0.0
  9
$DIMTOL
 70
     0
  9
$DIMLIM
 70
     0
  9
$DIMTIH
 70
     1
  9
$DIMTOH
 70
     1
  9
$DIMSE1
 70
     0
  9
$DIMSE2
 70
     0
  9
$DIMTAD
 70
     0
  9
$DIMZIN
 70
     0
  9
$DIMBLK
  1

  9
$DIMASO
 70
     1
  9
$DIMSHO
 70
     1
  9
$DIMPOST
  1

  9
$DIMAPOST
  1

  9
$DIMALT
 70
     0
  9
$DIMALTD
 70
     2
  9
$DIMALTF
 40
25.4
  9
$DIMLFAC
 40
1.0
  9
$DIMTOFL
 70
     0
  9
$DIMTVP
 40
0.0
  9
$DIMTIX
 70
     0
  9
$DIMSOXD
 70
     0
  9
$DIMSAH
 70
     0
  9
$DIMBLK1
  1

  9
$DIMBLK2
  1

  9
$DIMSTYLE
  2
Standard
  9
$DIMCLRD
 70
     0
  9
$DIMCLRE
 70
     0
  9
$DIMCLRT
 70
     0
  9
$DIMTFAC
 40
1.0
  9
$DIMGAP
 40
0.09
  9
$DIMJUST
 70
     0
  9
$DIMSD1
 70
     0
  9
$DIMSD2
 70
     0
  9
$DIMTOLJ
 70
     1
  9
$DIMTZIN
 70
     0
  9
$DIMALTZ
 70
     0
  9
$DIMALTTZ
 70
     0
  9
$DIMUPT
 70
     0
  9
$DIMDEC
 70
     4
  9
$DIMTDEC
 70
     4
  9
$DIMALTU
 70
     2
  9
$DIMALTTD
 70
     2
  9
$DIMTXSTY
  7
Standard
  9
$DIMAUNIT
 70
     0
  9
$DIMADEC
 70
     0
  9
$DIMALTRND
 40
0.0
  9
$DIMAZIN
 70
     0
  9
$DIMDSEP
 70
    46
  9
$DIMATFIT
 70
     3
  9
$DIMFRAC
 70
     0
  9
$DIMLDRBLK
  1

  9
$DIMLUNIT
 70
     2
  9
$DIMLWD
 70
    -2
  9
$DIMLWE
 70
    -2
  9
$DIMTMOVE
 70
     0
  9
$DIMFXL
 40
1.0
  9
$DIMFXLON
 70
     0
  9
$DIMJOGANG
 40
0.7853981633974483
  9
$DIMTFILL
 70
     0
  9
$DIMTFILLCLR
 70
     0
  9
$DIMARCSYM
 70
     0
  9
$DIMLTYPE
  6

  9
$DIMLTEX1
  6

  9
$DIMLTEX2
  6

  9
$DIMTXTDIRECTION
 70
     0
  9
$LUNITS
 70
     2
  9
$LUPREC
 70
     4
  9
$SKETCHINC
 40
0.1
  9
$FILLETRAD
 40
0.0
  9
$AUNITS
 70
     0
  9
$AUPREC
 70
     0
  9
$MENU
  1
.
  9
$ELEVATION
 40
0.0
  9
$PELEVATION
 40
0.0
  9
$THICKNESS
 40
0.0
  9
$LIMCHECK
 70
     0
  9
$CHAMFERA
 40
0.0
  9
$CHAMFERB
 40
0.0
  9
$CHAMFERC
 40
0.0
  9
$CHAMFERD
 40
0.0
  9
$SKPOLY
 70
     0
  9
$TDCREATE
 40
2457588.453227280
  9
$TDUCREATE
 40
2457588.369893947
  9
$TDUPDATE
 40
2457588.453227280
  9
$TDUUPDATE
 40
2457588.369893947
  9
$TDINDWG
 40
0.0000530324
  9
$TDUSRTIMER
 40
0.0000530324
  9
$USRTIMER
 70
     1
  9
$ANGBASE
 50
0.0
  9
$ANGDIR
 70
     0
  9
$PDMODE
 70
     0
  9
$PDSIZE
 40
0.0
  9
$PLINEWID
 40
0.0
  9
$SPLFRAME
 70
     0
  9
$SPLINETYPE
 70
     6
  9
$SPLINESEGS
 70
     8
  9
$HANDSEED
  5
2AF
  9
$SURFTAB1
 70
     6
  9
$SURFTAB2
 70
     6
  9
$SURFTYPE
 70
     6
  9
$SURFU
 70
     6
  9
$SURFV
 70
     6
  9
$UCSBASE
  2

  9
$UCSNAME
  2

  9
$UCSORG
 10
0.0
 20
0.0
 30
0.0
  9
$UCSXDIR
 10
1.0
 20
0.0
 30
0.0
  9
$UCSYDIR
 10
0.0
 20
1.0
 30
0.0
  9
$UCSORTHOREF
  2

  9
$UCSORTHOVIEW
 70
     0
  9
$UCSORGTOP
 10
0.0
 20
0.0
 30
0.0
  9
$UCSORGBOTTOM
 10
0.0
 20
0.0
 30
0.0
  9
$UCSORGLEFT
 10
0.0
 20
0.0
 30
0.0
  9
$UCSORGRIGHT
 10
0.0
 20
0.0
 30
0.0
  9
$UCSORGFRONT
 10
0.0
 20
0.0
 30
0.0
  9
$UCSORGBACK
 10
0.0
 20
0.0
 30
0.0
  9
$PUCSBASE
  2

  9
$PUCSNAME
  2

  9
$PUCSORG
 10
0.0
 20
0.0
 30
0.0
  9
$PUCSXDIR
 10
1.0
 20
0.0
 30
0.0
  9
$PUCSYDIR
 10
0.0
 20
1.0
 30
0.0
  9
$PUCSORTHOREF
  2

  9
$PUCSORTHOVIEW
 70
     0
  9
$PUCSORGTOP
 10
0.0
 20
0.0
 30
0.0
  9
$PUCSORGBOTTOM
 10
0.0
 20
0.0
 30
0.0
  9
$PUCSORGLEFT
 10
0.0
 20
0.0
 30
0.0
  9
$PUCSORGRIGHT
 10
0.0
 20
0.0
 30
0.0
  9
$PUCSORGFRONT
 10
0.0
 20
0.0
 30
0.0
  9
$PUCSORGBACK
 10
0.0
 20
0.0
 30
0.0
  9
$USERI1
 70
     0
  9
$USERI2
 70
     0
  9
$USERI3
 70
     0
  9
$USERI4
 70
     0
  9
$USERI5
 70
     0
  9
$USERR1
 40
0.0
  9
$USERR2
 40
0.0
  9
$USERR3
 40
0.0
  9
$USERR4
 40
0.0
  9
$USERR5
 40
0.0
  9
$WORLDVIEW
 70
     1
  9
$SHADEDGE
 70
     3
  9
$SHADEDIF
 70
    70
  9
$TILEMODE
 70
     1
  9
$MAXACTVP
 70
    64
  9
$PINSBASE
 10
0.0
 20
0.0
 30
0.0
  9
$PLIMCHECK
 70
     0
  9
$PEXTMIN
 10
1.000000000000000E+20
 20
1.000000000000000E+20
 30
1.000000000000000E+20
  9
$PEXTMAX
 10
-1.000000000000000E+20
 20
-1.000000000000000E+20
 30
-1.000000000000000E+20
  9
$PLIMMIN
 10
0.0
 20
0.0
  9
$PLIMMAX
 10
12.0
 20
9.0
  9
$UNITMODE
 70
     0
  9
$VISRETAIN
 70
     1
  9
$PLINEGEN
 70
     0
  9
$PSLTSCALE
 70
     1
  9
$TREEDEPTH
 70
  3020
  9
$CMLSTYLE
  2
Standard
  9
$CMLJUST
 70
     0
  9
$CMLSCALE
 40
1.0
  9
$PROXYGRAPHICS
 70
     1
  9
$MEASUREMENT
 70
     1
  9
$CELWEIGHT
370
    -1
  9
$ENDCAPS
280
     0
  9
$JOINSTYLE
280
     0
  9
$LWDISPLAY
290
     0
  9
$INSUNITS
 70
     4
  9
$HYPERLINKBASE
  1

  9
$STYLESHEET
  1

  9
$XEDIT
290
     1
  9
$CEPSNTYPE
380
     0
  9
$PSTYLEMODE
290
     1
  9
$FINGERPRINTGUID
  2
{A452F824-2B92-4EEA-B168-4344A8B8F412}
  9
$VERSIONGUID
  2
{0BF5B251-0219-487C-B80F-3091503E2624}
  9
$EXTNAMES
290
     1
  9
$PSVPSCALE
 40
0.0
  9
$OLESTARTUP
290
     0
  9
$SORTENTS
280
   127
  9
$INDEXCTL
280
     0
  9
$HIDETEXT
280
     1
  9
$XCLIPFRAME
280
     2
  9
$HALOGAP
280
     0
  9
$OBSCOLOR
 70
   257
  9
$OBSLTYPE
280
     0
  9
$INTERSECTIONDISPLAY
280
     0
  9
$INTERSECTIONCOLOR
 70
   257
  9
$DIMASSOC
280
     2
  9
$PROJECTNAME
  1

  9
$CAMERADISPLAY
290
     0
  9
$LENSLENGTH
 40
50.0
  9
$CAMERAHEIGHT
 40
0.0
  9
$STEPSPERSEC
 40
2.0
  9
$STEPSIZE
 40
6.0
  9
$3DDWFPREC
 40
2.0
  9
$PSOLWIDTH
 40
0.25
  9
$PSOLHEIGHT
 40
4.0
  9
$LOFTANG1
 40
1.570796326794896
  9
$LOFTANG2
 40
1.570796326794896
  9
$LOFTMAG1
 40
0.0
  9
$LOFTMAG2
 40
0.0
  9
$LOFTPARAM
 70
     7
  9
$LOFTNORMALS
280
     1
  9
$LATITUDE
 40
37.795
  9
$LONGITUDE
 40
-122.394
  9
$NORTHDIRECTION
 40
0.0
  9
$TIMEZONE
 70
 -8000
  9
$LIGHTGLYPHDISPLAY
280
     1
  9
$TILEMODELIGHTSYNCH
280
     1
  9
$CMATERIAL
347
11
  9
$SOLIDHIST
280
     0
  9
$SHOWHIST
280
     1
  9
$DWFFRAME
280
     2
  9
$DGNFRAME
280
     0
  9
$REALWORLDSCALE
290
     1
  9
$INTERFERECOLOR
 62
     1
  9
$INTERFEREOBJVS
345
33
  9
$INTERFEREVPVS
346
30
  9
$CSHADOW
280
     0
  9
$SHADOWPLANELOCATION
 40
0.0
  0
ENDSEC
  0
SECTION
  2
CLASSES
  0
CLASS
  1
ACDBDICTIONARYWDFLT
  2
AcDbDictionaryWithDefault
  3
ObjectDBX Classes
 90
        0
 91
        1
280
     0
281
     0
  0
CLASS
  1
MATERIAL
  2
AcDbMaterial
  3
ObjectDBX Classes
 90
     1153
 91
        3
280
     0
281
     0
  0
CLASS
  1
VISUALSTYLE
  2
AcDbVisualStyle
  3
ObjectDBX Classes
 90
     4095
 91
       24
280
     0
281
     0
  0
CLASS
  1
SCALE
  2
AcDbScale
  3
ObjectDBX Classes
 90
     1153
 91
       17
280
     0
281
     0
  0
CLASS
  1
TABLESTYLE
  2
AcDbTableStyle
  3
ObjectDBX Classes
 90
     4095
 91
        1
280
     0
281
     0
  0
CLASS
  1
MLEADERSTYLE
  2
AcDbMLeaderStyle
  3
ACDB_MLEADERSTYLE_CLASS
 90
     4095
 91
        1
280
     0
281
     0
  0
CLASS
  1
ACDBSECTIONVIEWSTYLE
  2
AcDbSectionViewStyle
  3
ObjectDBX Classes
 90
     1025
 91
        1
280
     0
281
     0
  0
CLASS
  1
ACDBDETAILVIEWSTYLE
  2
AcDbDetailViewStyle
  3
ObjectDBX Classes
 90
     1025
 91
        1
280
     0
281
     0
  0
CLASS
  1
RASTERVARIABLES
  2
AcDbRasterVariables
  3
ISM
 90
        0
 91
        1
280
     0
281
     0
  0
CLASS
  1
DICTIONARYVAR
  2
AcDbDictionaryVar
  3
ObjectDBX Classes
 90
        0
 91
        5
280
     0
281
     0
  0
CLASS
  1
CELLSTYLEMAP
  2
AcDbCellStyleMap
  3
ObjectDBX Classes
 90
     1152
 91
        2
280
     0
281
     0
  0
CLASS
  1
SORTENTSTABLE
  2
AcDbSortentsTable
  3
ObjectDBX Classes
 90
        0
 91
        1
280
     0
281
     0
  0
ENDSEC
  0
SECTION
  2
TABLES
  0
TABLE
  2
VPORT
  5
8
330
0
100
AcDbSymbolTable
 70
     1
  0
VPORT
  5
57
330
8
100
AcDbSymbolTableRecord
100
AcDbViewportTableRecord
  2
*Active
 70
     0
 10
0.0
 20
0.0
 11
1.0
 21
1.0
 12
1205.874784999441
 22
1633.638535063733
 13
0.0
 23
0.0
 14
1.0
 24
1.0
 15
0.0
 25
0.0
 16
0.0
 26
0.0
 36
1.0
 17
0.0
 27
0.0
 37
0.0
 40
1212.722929872557
 41
1.031081976197078
 42
50.0
 43
0.0
 44
0.0
 50
0.0
 51
0.0
 71
     0
 72
  1000
 73
     1
 74
     1
 75
     0
 76
     0
 77
     0
 78
     0
281
     0
 65
     1
110
0.0
120
0.0
130
0.0
111
1.0
121
0.0
131
0.0
112
0.0
122
1.0
132
0.0
 79
     0
146
0.0
 60
     3
 61
     5
292
     1
282
     1
141
0.0
142
0.0
 63
   250
421
  3355443
  0
ENDTAB
  0
TABLE
  2
LTYPE
  5
5
330
0
100
AcDbSymbolTable
 70
     3
  0
LTYPE
  5
5B
330
5
100
AcDbSymbolTableRecord
100
AcDbLinetypeTableRecord
  2
ByBlock
 70
     0
  3

 72
    65
 73
     0
 40
0.0
  0
LTYPE
  5
5C
330
5
100
AcDbSymbolTableRecord
100
AcDbLinetypeTableRecord
  2
ByLayer
 70
     0
  3

 72
    65
 73
     0
 40
0.0
  0
LTYPE
  5
5D
330
5
100
AcDbSymbolTableRecord
100
AcDbLinetypeTableRecord
  2
Continuous
 70
     0
  3
Solid line
 72
    65
 73
     0
 40
0.0
  0
LTYPE
  5
69
330
5
100
AcDbSymbolTableRecord
100
AcDbLinetypeTableRecord
  2
PHANTOM2
 70
     0
  3
___ _ _ ___ _ _ ___ _ _ ___ _ _
 72
    65
 73
     6
 40
1.25
 49
0.625
 74
     0
 49
-0.125
 74
     0
 49
0.125
 74
     0
 49
-0.125
 74
     0
 49
0.125
 74
     0
 49
-0.125
 74
     0
  0
LTYPE
  5
86
330
5
100
AcDbSymbolTableRecord
100
AcDbLinetypeTableRecord
  2
Nascosto 1_5 mm
 70
     0
  3

 72
    65
 73
     2
 40
2.2
 49
1.5
 74
     0
 49
-0.7000000000000001
 74
     0
  0
ENDTAB
  0
TABLE
  2
LAYER
  5
2
330
0
100
AcDbSymbolTable
 70
     4
  0
LAYER
  5
54
330
2
100
AcDbSymbolTableRecord
100
AcDbLayerTableRecord
  2
0
 70
     0
 62
     7
  6
Continuous
370
    -3
390
F
347
21
348
0
  0
LAYER
  5
85
330
2
100
AcDbSymbolTableRecord
100
AcDbLayerTableRecord
  2
P-SANR-FIXT
 70
     0
 62
     6
  6
Continuous
370
    18
390
F
347
21
348
0
  0
LAYER
  5
88
330
2
100
AcDbSymbolTableRecord
100
AcDbLayerTableRecord
  2
M-PIPE
 70
     0
 62
     3
  6
Continuous
370
    18
390
F
347
21
348
0
  0
ENDTAB
  0
TABLE
  2
STYLE
  5
3
330
0
100
AcDbSymbolTable
 70
     2
  0
STYLE
  5
55
330
3
100
AcDbSymbolTableRecord
100
AcDbTextStyleTableRecord
  2
Standard
 70
     0
 40
0.0
 41
1.0
 50
0.0
 71
     0
 42
0.2
  3
txt
  4

  0
STYLE
  5
5A
330
3
100
AcDbSymbolTableRecord
100
AcDbTextStyleTableRecord
  2
Annotative
 70
     0
 40
0.0
 41
1.0
 50
0.0
 71
     0
 42
0.2
  3
txt
  4

1001
AcadAnnotative
1000
AnnotativeData
1002
{
1070
     1
1070
     1
1002
}
  0
ENDTAB
  0
TABLE
  2
VIEW
  5
6
330
0
100
AcDbSymbolTable
 70
     0
  0
ENDTAB
  0
TABLE
  2
UCS
  5
7
330
0
100
AcDbSymbolTable
 70
     0
  0
ENDTAB
  0
TABLE
  2
APPID
  5
9
330
0
100
AcDbSymbolTable
 70
     3
  0
APPID
  5
56
330
9
100
AcDbSymbolTableRecord
100
AcDbRegAppTableRecord
  2
ACAD
 70
     0
  0
APPID
  5
5E
330
9
100
AcDbSymbolTableRecord
100
AcDbRegAppTableRecord
  2
AcadAnnotative
 70
     0
  0
APPID
  5
79
330
9
100
AcDbSymbolTableRecord
100
AcDbRegAppTableRecord
  2
REVIT
 70
     0
  0
ENDTAB
  0
TABLE
  2
DIMSTYLE
  5
A
330
0
100
AcDbSymbolTable
 70
     2
100
AcDbDimStyleTable
 71
     0
  0
DIMSTYLE
105
58
330
A
100
AcDbSymbolTableRecord
100
AcDbDimStyleTableRecord
  2
Standard
 70
     0
340
55
  0
DIMSTYLE
105
59
330
A
100
AcDbSymbolTableRecord
100
AcDbDimStyleTableRecord
  2
Annotative
 70
     0
340
55
1001
AcadAnnotative
1000
AnnotativeData
1002
{
1070
     1
1070
     1
1002
}
  0
ENDTAB
  0
TABLE
  2
BLOCK_RECORD
  5
1
330
0
100
AcDbSymbolTable
 70
     4
  0
BLOCK_RECORD
  5
71
102
{ACAD_XDICTIONARY
360
2AA
102
}
330
1
100
AcDbSymbolTableRecord
100
AcDbBlockTableRecord
  2
*Model_Space
340
74
 70
     0
280
     1
281
     0
  0
BLOCK_RECORD
  5
6D
330
1
100
AcDbSymbolTableRecord
100
AcDbBlockTableRecord
  2
*Paper_Space
340
70
 70
     0
280
     1
281
     0
  0
BLOCK_RECORD
  5
75
330
1
100
AcDbSymbolTableRecord
100
AcDbBlockTableRecord
  2
*Paper_Space0
340
78
 70
     0
280
     1
281
     0
  0
BLOCK_RECORD
  5
87
330
1
100
AcDbSymbolTableRecord
100
AcDbBlockTableRecord
  2
Automatic flow rate regulator valve_Caleffi_121 DN15 - 1_2__-859151-Est - Idraulica
340
0
102
{BLKREFS
331
1B6
102
}
 70
     0
280
     1
281
     0
  0
BLOCK_RECORD
  5
1B7
330
1
100
AcDbSymbolTableRecord
100
AcDbBlockTableRecord
  2
Automatic flow rate regulator valve_Caleffi_121 DN15 - 1_2__-V1-Est - Idraulica
340
0
102
{BLKREFS
331
1F2
102
}
 70
     0
280
     1
281
     0
  0
BLOCK_RECORD
  5
1F3
330
1
100
AcDbSymbolTableRecord
100
AcDbBlockTableRecord
  2
Automatic flow rate regulator valve_Caleffi_121 DN15 - 1_2__-V2-Est - Idraulica
340
0
102
{BLKREFS
331
2A3
102
}
 70
     0
280
     1
281
     0
  0
ENDTAB
  0
ENDSEC
  0
SECTION
  2
BLOCKS
  0
BLOCK
  5
72
330
71
100
AcDbEntity
  8
0
100
AcDbBlockBegin
  2
*Model_Space
 70
     0
 10
0.0
 20
0.0
 30
0.0
  3
*Model_Space
  1

  0
ENDBLK
  5
73
330
71
100
AcDbEntity
  8
0
100
AcDbBlockEnd
  0
BLOCK
  5
6E
330
6D
100
AcDbEntity
 67
     1
  8
0
100
AcDbBlockBegin
  2
*Paper_Space
 70
     0
 10
0.0
 20
0.0
 30
0.0
  3
*Paper_Space
  1

  0
ENDBLK
  5
6F
330
6D
100
AcDbEntity
 67
     1
  8
0
100
AcDbBlockEnd
  0
BLOCK
  5
76
330
75
100
AcDbEntity
 67
     1
  8
0
100
AcDbBlockBegin
  2
*Paper_Space0
 70
     0
 10
0.0
 20
0.0
 30
0.0
  3
*Paper_Space0
  1

  0
ENDBLK
  5
77
330
75
100
AcDbEntity
 67
     1
  8
0
100
AcDbBlockEnd
  0
BLOCK
  5
1B4
330
87
100
AcDbEntity
  8
0
100
AcDbBlockBegin
  2
Automatic flow rate regulator valve_Caleffi_121 DN15 - 1_2__-859151-Est - Idraulica
 70
     0
 10
0.0
 20
0.0
 30
0.0
  3
Automatic flow rate regulator valve_Caleffi_121 DN15 - 1_2__-859151-Est - Idraulica
  1

  0
LINE
  5
89
330
87
100
AcDbEntity
  8
M-PIPE
100
AcDbLine
 10
786.5101574431943
 20
1553.999999999917
 30
0.0
 11
774.5664074431942
 21
1553.999999999917
 31
0.0
1001
REVIT
1002
{
1070
     3
1000
790271
1002
}
  0
LINE
  5
8A
330
87
100
AcDbEntity
  8
M-PIPE
100
AcDbLine
 10
774.5664074431942
 20
1522.999999999917
 30
0.0
 11
786.5101574431943
 21
1522.999999999917
 31
0.0
1001
REVIT
1002
{
1070
     3
1000
790271
1002
}
  0
LINE
  5
8B
330
87
100
AcDbEntity
  8
M-PIPE
100
AcDbLine
 10
760.864539599326
 20
1549.698132156049
 30
0.0
 11
758.1664074431944
 21
1546.999999999917
 31
0.0
1001
REVIT
1002
{
1070
     3
1000
790271
1002
}
  0
LINE
  5
8C
330
87
100
AcDbEntity
  8
M-PIPE
100
AcDbLine
 10
758.1664074431944
 20
1529.999999999917
 30
0.0
 11
760.8645395993069
 21
1527.301867843804
 31
0.0
1001
REVIT
1002
{
1070
     3
1000
790271
1002
}
  0
LINE
  5
8D
330
87
100
AcDbEntity
  8
M-PIPE
100
AcDbLine
 10
786.5101574431925
 20
1522.999999999917
 30
0.0
 11
786.5101574431925
 21
1553.999999999916
 31
0.0
1001
REVIT
1002
{
1070
     3
1000
790271
1002
}
  0
LINE
  5
8E
330
87
100
AcDbEntity
  8
M-PIPE
100
AcDbLine
 10
774.5664074431926
 20
1553.706906325662
 30
0.0
 11
774.1664074431926
 21
1553.706906325662
 31
0.0
1001
REVIT
1002
{
1070
     3
1000
790271
1002
}
  0
LINE
  5
8F
330
87
100
AcDbEntity
  8
M-PIPE
100
AcDbLine
 10
774.1664074431926
 20
1523.293093674171
 30
0.0
 11
774.5664074431926
 21
1523.293093674171
 31
0.0
1001
REVIT
1002
{
1070
     3
1000
790271
1002
}
  0
LINE
  5
90
330
87
100
AcDbEntity
  8
M-PIPE
100
AcDbLine
 10
774.1664074431926
 20
1553.706906325662
 30
0.0
 11
774.1664074431926
 21
1523.293093674171
 31
0.0
1001
REVIT
1002
{
1070
     3
1000
790271
1002
}
  0
ARC
  5
91
330
87
100
AcDbEntity
  8
M-PIPE
100
AcDbCircle
 10
1292.773384016723
 20
1044.376690297315
 30
0.0
 40
726.8909581981477
100
AcDbArc
 50
135.5170596040535
 51
135.9688475438209
1001
REVIT
1002
{
1070
     3
1000
790271
1002
}
  0
ARC
  5
92
330
87
100
AcDbEntity
  8
M-PIPE
100
AcDbCircle
 10
1292.773384030086
 20
2032.623309715529
 30
0.0
 40
726.8909582167967
100
AcDbArc
 50
224.0311524561831
 51
224.4829403959389
1001
REVIT
1002
{
1070
     3
1000
790271
1002
}
  0
LINE
  5
93
330
87
100
AcDbEntity
  8
M-PIPE
100
AcDbLine
 10
770.1664074432557
 20
1549.601801655569
 30
0.0
 11
770.1664074432557
 21
1527.398198344264
 31
0.0
1001
REVIT
1002
{
1070
     3
1000
790271
1002
}
  0
LINE
  5
94
330
87
100
AcDbEntity
  8
M-PIPE
100
AcDbLine
 10
770.1664074432557
 20
1549.601801655569
 30
0.0
 11
761.1664074432558
 21
1549.601801655569
 31
0.0
1001
REVIT
1002
{
1070
     3
1000
790271
1002
}
  0
LINE
  5
95
330
87
100
AcDbEntity
  8
M-PIPE
100
AcDbLine
 10
761.1664074432558
 20
1527.398198344264
 30
0.0
 11
770.1664074432557
 21
1527.398198344264
 31
0.0
1001
REVIT
1002
{
1070
     3
1000
790271
1002
}
  0
LINE
  5
96
330
87
100
AcDbEntity
  8
M-PIPE
100
AcDbLine
 10
760.9255522351851
 20
1527.64788769645
 30
0.0
 11
761.1664074432539
 21
1527.398198344266
 31
0.0
1001
REVIT
1002
{
1070
     3
1000
790271
1002
}
  0
LINE
  5
97
330
87
100
AcDbEntity
  8
M-PIPE
100
AcDbLine
 10
761.1664074432558
 20
1549.601801655569
 30
0.0
 11
761.1664074432558
 21
1527.398198344264
 31
0.0
1001
REVIT
1002
{
1070
     3
1000
790271
1002
}
  0
LINE
  5
98
330
87
100
AcDbEntity
  8
M-PIPE
100
AcDbLine
 10
761.1664074432576
 20
1549.601801655572
 30
0.0
 11
760.925552235208
 21
1549.352112303407
 31
0.0
1001
REVIT
1002
{
1070
     3
1000
790271
1002
}
  0
LINE
  5
99
330
87
100
AcDbEntity
  8
M-PIPE
100
AcDbLine
 10
758.1664074431926
 20
1546.999999999917
 30
0.0
 11
758.1664074431926
 21
1529.999999999917
 31
0.0
1001
REVIT
1002
{
1070
     3
1000
790271
1002
}
  0
LINE
  5
9A
330
87
100
AcDbEntity
  8
M-PIPE
100
AcDbLine
 10
774.5664074431928
 20
1571.000000000044
 30
0.0
 11
758.1664074431927
 21
1571.000000000044
 31
0.0
1001
REVIT
1002
{
1070
     3
1000
790271
1002
}
  0
LINE
  5
9B
330
87
100
AcDbEntity
  8
M-PIPE
100
AcDbLine
 10
758.1664074431927
 20
1571.000000000044
 30
0.0
 11
758.1664074431927
 21
1565.000000000044
 31
0.0
1001
REVIT
1002
{
1070
     3
1000
790271
1002
}
  0
LINE
  5
9C
330
87
100
AcDbEntity
  8
M-PIPE
100
AcDbLine
 10
758.1664074431927
 20
1565.000000000044
 30
0.0
 11
760.925552235206
 21
1549.352112303405
 31
0.0
1001
REVIT
1002
{
1070
     3
1000
790271
1002
}
  0
LINE
  5
9D
330
87
100
AcDbEntity
  8
M-PIPE
100
AcDbLine
 10
774.5664074431926
 20
1553.706906325662
 30
0.0
 11
774.5664074431928
 21
1571.000000000044
 31
0.0
1001
REVIT
1002
{
1070
     3
1000
790271
1002
}
  0
LINE
  5
9E
330
87
100
AcDbEntity
  8
M-PIPE
100
AcDbLine
 10
758.1664074431926
 20
1511.999999999917
 30
0.0
 11
758.1664074431926
 21
1505.999999999917
 31
0.0
1001
REVIT
1002
{
1070
     3
1000
790271
1002
}
  0
LINE
  5
9F
330
87
100
AcDbEntity
  8
M-PIPE
100
AcDbLine
 10
758.1664074431926
 20
1505.999999999917
 30
0.0
 11
774.5664074431926
 21
1505.999999999917
 31
0.0
1001
REVIT
1002
{
1070
     3
1000
790271
1002
}
  0
LINE
  5
A0
330
87
100
AcDbEntity
  8
M-PIPE
100
AcDbLine
 10
774.5664074431926
 20
1505.999999999917
 30
0.0
 11
774.5664074431926
 21
1523.293093674171
 31
0.0
1001
REVIT
1002
{
1070
     3
1000
790271
1002
}
  0
LINE
  5
A1
330
87
100
AcDbEntity
  8
M-PIPE
100
AcDbLine
 10
760.9255522351872
 20
1527.647887696448
 30
0.0
 11
758.1664074431926
 21
1511.999999999917
 31
0.0
1001
REVIT
1002
{
1070
     3
1000
790271
1002
}
  0
LINE
  5
A2
330
87
100
AcDbEntity
  8
M-PIPE
100
AcDbLine
 10
796.1664074431947
 20
1502.598075309111
 30
0.0
 11
797.6664069222967
 21
1499.99999999998
 31
0.0
1001
REVIT
1002
{
1070
     3
1000
790271
1002
}
  0
LINE
  5
A3
330
87
100
AcDbEntity
  8
M-PIPE
100
AcDbLine
 10
833.6664079640927
 20
1499.99999999998
 30
0.0
 11
835.1664074431946
 21
1502.598075309111
 31
0.0
1001
REVIT
1002
{
1070
     3
1000
790271
1002
}
  0
LINE
  5
A4
330
87
100
AcDbEntity
  8
M-PIPE
100
AcDbLine
 10
796.1664074431947
 20
1514.345917999321
 30
0.0
 11
796.1664074431947
 21
1502.598075309111
 31
0.0
1001
REVIT
1002
{
1070
     3
1000
790271
1002
}
  0
LINE
  5
A5
330
87
100
AcDbEntity
  8
M-PIPE
100
AcDbLine
 10
835.1664074431946
 20
1502.598075309111
 30
0.0
 11
835.1664074431946
 21
1514.345917999321
 31
0.0
1001
REVIT
1002
{
1070
     3
1000
790271
1002
}
  0
LINE
  5
A6
330
87
100
AcDbEntity
  8
M-PIPE
100
AcDbLine
 10
835.1664074431946
 20
1514.345917999321
 30
0.0
 11
832.6664074431946
 21
1515.789293672295
 31
0.0
1001
REVIT
1002
{
1070
     3
1000
790271
1002
}
  0
LINE
  5
A7
330
87
100
AcDbEntity
  8
M-PIPE
100
AcDbLine
 10
798.6664074431947
 20
1515.789293672295
 30
0.0
 11
796.1664074431947
 21
1514.345917999321
 31
0.0
1001
REVIT
1002
{
1070
     3
1000
790271
1002
}
  0
LINE
  5
A8
330
87
100
AcDbEntity
  8
M-PIPE
100
AcDbLine
 10
832.6664074431949
 20
1515.789293672295
 30
0.0
 11
832.6664074431949
 21
1522.914263954511
 31
0.0
1001
REVIT
1002
{
1070
     3
1000
790271
1002
}
  0
LINE
  5
A9
330
87
100
AcDbEntity
  8
M-PIPE
100
AcDbLine
 10
798.6664074431947
 20
1522.914263954511
 30
0.0
 11
798.6664074431947
 21
1515.789293672295
 31
0.0
1001
REVIT
1002
{
1070
     3
1000
790271
1002
}
  0
LINE
  5
AA
330
87
100
AcDbEntity
  8
M-PIPE
100
AcDbLine
 10
832.6664074431949
 20
1522.914263954511
 30
0.0
 11
838.0970474521909
 21
1526.049645425577
 31
0.0
1001
REVIT
1002
{
1070
     3
1000
790271
1002
}
  0
LINE
  5
AB
330
87
100
AcDbEntity
  8
M-PIPE
100
AcDbLine
 10
838.1064838784096
 20
1526.055093548794
 30
0.0
 11
838.1664074431952
 21
1526.089690435054
 31
0.0
1001
REVIT
1002
{
1070
     3
1000
790271
1002
}
  0
LINE
  5
AC
330
87
100
AcDbEntity
  8
M-PIPE
100
AcDbLine
 10
793.1664074431941
 20
1526.089690435054
 30
0.0
 11
798.6664074431947
 21
1522.914263954511
 31
0.0
1001
REVIT
1002
{
1070
     3
1000
790271
1002
}
  0
LINE
  5
AD
330
87
100
AcDbEntity
  8
M-PIPE
100
AcDbLine
 10
838.1664074431952
 20
1526.089690435054
 30
0.0
 11
838.1664074431956
 21
1553.999999999783
 31
0.0
1001
REVIT
1002
{
1070
     3
1000
790271
1002
}
  0
LINE
  5
AE
330
87
100
AcDbEntity
  8
M-PIPE
100
AcDbLine
 10
793.1664074431941
 20
1553.999999999783
 30
0.0
 11
793.1664074431941
 21
1549.499999999917
 31
0.0
1001
REVIT
1002
{
1070
     3
1000
790271
1002
}
  0
LINE
  5
AF
330
87
100
AcDbEntity
  8
M-PIPE
100
AcDbLine
 10
793.1664074431941
 20
1527.499999999917
 30
0.0
 11
793.1664074431941
 21
1526.089690435054
 31
0.0
1001
REVIT
1002
{
1070
     3
1000
790271
1002
}
  0
LINE
  5
B0
330
87
100
AcDbEntity
  8
M-PIPE
100
AcDbLine
 10
839.1664074431954
 20
1553.999999999783
 30
0.0
 11
839.1664074431954
 21
1556.928203230121
 31
0.0
1001
REVIT
1002
{
1070
     3
1000
790271
1002
}
  0
LINE
  5
B1
330
87
100
AcDbEntity
  8
M-PIPE
100
AcDbLine
 10
792.1664074431942
 20
1556.928203230121
 30
0.0
 11
792.1664074431942
 21
1553.999999999783
 31
0.0
1001
REVIT
1002
{
1070
     3
1000
790271
1002
}
  0
LINE
  5
B2
330
87
100
AcDbEntity
  8
M-PIPE
100
AcDbLine
 10
839.1664074431954
 20
1556.928203230121
 30
0.0
 11
835.1664074431955
 21
1557.999999999846
 31
0.0
1001
REVIT
1002
{
1070
     3
1000
790271
1002
}
  0
LINE
  5
B3
330
87
100
AcDbEntity
  8
M-PIPE
100
AcDbLine
 10
796.1664074431939
 20
1557.999999999846
 30
0.0
 11
792.1664074431942
 21
1556.928203230121
 31
0.0
1001
REVIT
1002
{
1070
     3
1000
790271
1002
}
  0
LINE
  5
B4
330
87
100
AcDbEntity
  8
M-PIPE
100
AcDbLine
 10
796.1664074431941
 20
1572.133974596192
 30
0.0
 11
796.1664074431939
 21
1557.999999999846
 31
0.0
1001
REVIT
1002
{
1070
     3
1000
790271
1002
}
  0
LINE
  5
B5
330
87
100
AcDbEntity
  8
M-PIPE
100
AcDbLine
 10
835.1664074431955
 20
1557.999999999846
 30
0.0
 11
835.1664074431955
 21
1572.133974596192
 31
0.0
1001
REVIT
1002
{
1070
     3
1000
790271
1002
}
  0
LINE
  5
B6
330
87
100
AcDbEntity
  8
M-PIPE
100
AcDbLine
 10
797.6664074431679
 20
1572.999999999962
 30
0.0
 11
796.1664074431941
 21
1572.133974596192
 31
0.0
1001
REVIT
1002
{
1070
     3
1000
790271
1002
}
  0
LINE
  5
B7
330
87
100
AcDbEntity
  8
M-PIPE
100
AcDbLine
 10
835.1664074431955
 20
1572.133974596192
 30
0.0
 11
833.6664074432217
 21
1572.999999999962
 31
0.0
1001
REVIT
1002
{
1070
     3
1000
790271
1002
}
  0
LINE
  5
B8
330
87
100
AcDbEntity
  8
M-PIPE
100
AcDbLine
 10
786.5101574431943
 20
1527.499999999917
 30
0.0
 11
793.1664074431941
 21
1527.499999999917
 31
0.0
1001
REVIT
1002
{
1070
     3
1000
790271
1002
}
  0
LINE
  5
B9
330
87
100
AcDbEntity
  8
M-PIPE
100
AcDbLine
 10
793.1664074431941
 20
1549.499999999917
 30
0.0
 11
786.5101574431943
 21
1549.499999999917
 31
0.0
1001
REVIT
1002
{
1070
     3
1000
790271
1002
}
  0
LINE
  5
BA
330
87
100
AcDbEntity
  8
M-PIPE
100
AcDbLine
 10
815.6707379050281
 20
1499.999999999979
 30
0.0
 11
797.6664069222948
 21
1499.99999999998
 31
0.0
1001
REVIT
1002
{
1070
     3
1000
790271
1002
}
  0
SPLINE
  5
BB
330
87
100
AcDbEntity
  8
M-PIPE
100
AcDbSpline
210
0.0
220
0.0
230
1.0
 70
     8
 71
     3
 72
     9
 73
     5
 74
     0
 42
0.000000001
 43
0.0000000001
 40
-1.0
 40
-1.0
 40
-1.0
 40
-1.0
 40
-0.5
 40
0.0
 40
0.0
 40
0.0
 40
0.0
 10
815.6707379050281
 20
1499.999999999979
 30
0.0
 10
814.2835879049748
 20
1500.062166492515
 30
0.0
 10
811.6457161612757
 20
1500.557345536571
 30
0.0
 10
809.2807009303923
 20
1501.794216698602
 30
0.0
 10
808.1664074431543
 20
1502.598075309111
 30
0.0
1001
REVIT
1002
{
1070
     3
1000
790271
1002
}
  0
SPLINE
  5
BC
330
87
100
AcDbEntity
  8
M-PIPE
100
AcDbSpline
210
0.0
220
0.0
230
1.0
 70
     8
 71
     3
 72
    13
 73
     9
 74
     0
 42
0.000000001
 43
0.0000000001
 40
-1.0
 40
-1.0
 40
-1.0
 40
-1.0
 40
-0.8333333333333332
 40
-0.75
 40
-0.6666666666666666
 40
-0.3333333333333333
 40
-0.1666666666666666
 40
0.0
 40
0.0
 40
0.0
 40
0.0
 10
803.8279501751091
 20
1502.598075309111
 30
0.0
 10
803.4361596711157
 20
1502.027870246181
 30
0.0
 10
802.8367002688424
 20
1501.315920363669
 30
0.0
 10
802.0111050159858
 20
1500.653771259809
 30
0.0
 10
800.7574711159147
 20
1499.946057080618
 30
0.0
 10
799.1212365830756
 20
1499.971885689793
 30
0.0
 10
797.4948534752789
 20
1501.099223943894
 30
0.0
 10
796.7093323528378
 20
1502.036604678336
 30
0.0
 10
796.3279501750671
 20
1502.598075309111
 30
0.0
1001
REVIT
1002
{
1070
     3
1000
790271
1002
}
  0
SPLINE
  5
BD
330
87
100
AcDbEntity
  8
M-PIPE
100
AcDbSpline
210
0.0
220
0.0
230
1.0
 70
     8
 71
     3
 72
    11
 73
     7
 74
     0
 42
0.000000001
 43
0.0000000001
 40
-1.0
 40
-1.0
 40
-1.0
 40
-1.0
 40
-0.8333333333333332
 40
-0.75
 40
-0.6666666666666666
 40
-0.4635416666666693
 40
-0.4635416666666693
 40
-0.4635416666666693
 40
-0.4635416666666693
 10
835.0048647113117
 20
1502.598075309111
 30
0.0
 10
834.6130742073203
 20
1502.027870246188
 30
0.0
 10
834.0136148050504
 20
1501.315920363686
 30
0.0
 10
833.1880195521986
 20
1500.653771259834
 30
0.0
 10
832.26085281361
 20
1500.130357648148
 30
0.0
 10
831.4839948698059
 20
1500.012371046248
 30
0.0
 10
830.939990605419
 20
1500.067977115501
 30
0.0
1001
REVIT
1002
{
1070
     3
1000
790271
1002
}
  0
SPLINE
  5
BE
330
87
100
AcDbEntity
  8
M-PIPE
100
AcDbSpline
210
0.0
220
0.0
230
1.0
 70
     8
 71
     3
 72
    10
 73
     6
 74
     0
 42
0.000000001
 43
0.0000000001
 40
-0.4613426592610949
 40
-0.4613426592610949
 40
-0.4613426592610949
 40
-0.4613426592610949
 40
-0.3333333333333333
 40
-0.1666666666666666
 40
0.0
 40
0.0
 40
0.0
 40
0.0
 10
830.9223250840977
 20
1500.069832030115
 30
0.0
 10
830.5795899977667
 20
1500.106774892658
 30
0.0
 10
829.7972478734076
 20
1500.319090101873
 30
0.0
 10
828.6717680115218
 20
1501.099223943913
 30
0.0
 10
827.8862468890853
 20
1502.036604678343
 30
0.0
 10
827.5048647113164
 20
1502.59807530911
 30
0.0
1001
REVIT
1002
{
1070
     3
1000
790271
1002
}
  0
SPLINE
  5
BF
330
87
100
AcDbEntity
  8
M-PIPE
100
AcDbSpline
210
0.0
220
0.0
230
1.0
 70
     8
 71
     3
 72
     9
 73
     5
 74
     0
 42
0.000000001
 43
0.0000000001
 40
-1.0
 40
-1.0
 40
-1.0
 40
-1.0
 40
-0.5
 40
0.0
 40
0.0
 40
0.0
 40
0.0
 10
823.1664074432297
 20
1502.598075309111
 30
0.0
 10
822.0533478524911
 20
1501.795211767378
 30
0.0
 10
819.6910100053855
 20
1500.559335674123
 30
0.0
 10
817.0562348270234
 20
1500.06316156129
 30
0.0
 10
815.6707379050281
 20
1499.999999999979
 30
0.0
1001
REVIT
1002
{
1070
     3
1000
790271
1002
}
  0
LINE
  5
C0
330
87
100
AcDbEntity
  8
M-PIPE
100
AcDbLine
 10
833.6664079640909
 20
1499.99999999998
 30
0.0
 11
831.6445286819812
 21
1499.99999999998
 31
0.0
1001
REVIT
1002
{
1070
     3
1000
790271
1002
}
  0
LINE
  5
C1
330
87
100
AcDbEntity
  8
M-PIPE
100
AcDbLine
 10
831.6202721450366
 20
1499.99999999998
 30
0.0
 11
830.9081088975164
 21
1499.99999999998
 31
0.0
1001
REVIT
1002
{
1070
     3
1000
790271
1002
}
  0
LINE
  5
C2
330
87
100
AcDbEntity
  8
M-PIPE
100
AcDbLine
 10
830.8746045961861
 20
1499.99999999998
 30
0.0
 11
815.6707379050281
 21
1499.999999999979
 31
0.0
1001
REVIT
1002
{
1070
     3
1000
790271
1002
}
  0
SPLINE
  5
C3
330
87
100
AcDbEntity
  8
M-PIPE
100
AcDbSpline
210
0.0
220
0.0
230
1.0
 70
     8
 71
     3
 72
     8
 73
     4
 74
     0
 42
0.000000001
 43
0.0000000001
 40
-0.5056742803469703
 40
-0.5056742803469703
 40
-0.5056742803469703
 40
-0.5056742803469703
 40
-0.5
 40
-0.5
 40
-0.5
 40
-0.5
 10
800.0537477949446
 20
1500.05139815073
 30
0.0
 10
800.0689803179946
 20
1500.051331219338
 30
0.0
 10
800.0842083473735
 20
1500.051416190876
 30
0.0
 10
800.0994315871052
 20
1500.051648765387
 30
0.0
1001
REVIT
1002
{
1070
     3
1000
790271
1002
}
  0
LINE
  5
C4
330
87
100
AcDbEntity
  8
M-PIPE
100
AcDbLine
 10
799.7114425706361
 20
1499.99999999998
 30
0.0
 11
800.4213279445915
 21
1499.99999999998
 31
0.0
1001
REVIT
1002
{
1070
     3
1000
790271
1002
}
  0
LINE
  5
C5
330
87
100
AcDbEntity
  8
M-PIPE
100
AcDbLine
 10
815.0020271106534
 20
1499.99999999998
 30
0.0
 11
815.6620771130771
 21
1499.99999999998
 31
0.0
1001
REVIT
1002
{
1070
     3
1000
790271
1002
}
  0
LINE
  5
C6
330
87
100
AcDbEntity
  8
M-PIPE
100
AcDbLine
 10
815.6620771130771
 20
1499.99999999998
 30
0.0
 11
816.3257510159823
 21
1499.99999999998
 31
0.0
1001
REVIT
1002
{
1070
     3
1000
790271
1002
}
  0
LINE
  5
C7
330
87
100
AcDbEntity
  8
M-PIPE
100
AcDbLine
 10
831.0094766645859
 20
1499.99999999998
 30
0.0
 11
831.720758415194
 21
1499.99999999998
 31
0.0
1001
REVIT
1002
{
1070
     3
1000
790271
1002
}
  0
SPLINE
  5
C8
330
87
100
AcDbEntity
  8
M-PIPE
100
AcDbSpline
210
0.0
220
0.0
230
1.0
 70
     8
 71
     3
 72
     8
 73
     4
 74
     0
 42
0.000000001
 43
0.0000000001
 40
-0.5056742803504049
 40
-0.5056742803504049
 40
-0.5056742803504049
 40
-0.5056742803504049
 40
-0.5
 40
-0.5
 40
-0.5
 40
-0.5
 10
831.2306623311711
 20
1500.051398150763
 30
0.0
 10
831.24589485423
 20
1500.051331219371
 30
0.0
 10
831.2611228836178
 20
1500.051416190909
 30
0.0
 10
831.2763461233588
 20
1500.05164876542
 30
0.0
1001
REVIT
1002
{
1070
     3
1000
790271
1002
}
  0
LINE
  5
C9
330
87
100
AcDbEntity
  8
M-PIPE
100
AcDbLine
 10
808.1664074431543
 20
1502.598075309111
 30
0.0
 11
803.8279501751091
 21
1502.598075309111
 31
0.0
1001
REVIT
1002
{
1070
     3
1000
790271
1002
}
  0
LINE
  5
CA
330
87
100
AcDbEntity
  8
M-PIPE
100
AcDbLine
 10
808.166407443155
 20
1502.598075309111
 30
0.0
 11
808.166407443155
 21
1514.34591799932
 31
0.0
1001
REVIT
1002
{
1070
     3
1000
790271
1002
}
  0
LINE
  5
CB
330
87
100
AcDbEntity
  8
M-PIPE
100
AcDbLine
 10
803.8279501751087
 20
1514.34591799932
 30
0.0
 11
803.8279501751087
 21
1502.598075309111
 31
0.0
1001
REVIT
1002
{
1070
     3
1000
790271
1002
}
  0
LINE
  5
CC
330
87
100
AcDbEntity
  8
M-PIPE
100
AcDbLine
 10
827.5048647113166
 20
1502.598075309111
 30
0.0
 11
823.1664074432298
 21
1502.598075309111
 31
0.0
1001
REVIT
1002
{
1070
     3
1000
790271
1002
}
  0
LINE
  5
CD
330
87
100
AcDbEntity
  8
M-PIPE
100
AcDbLine
 10
827.5048647113166
 20
1502.598075309111
 30
0.0
 11
827.5048647113166
 21
1514.34591799932
 31
0.0
1001
REVIT
1002
{
1070
     3
1000
790271
1002
}
  0
LINE
  5
CE
330
87
100
AcDbEntity
  8
M-PIPE
100
AcDbLine
 10
823.1664074432291
 20
1514.34591799932
 30
0.0
 11
823.1664074432291
 21
1502.598075309111
 31
0.0
1001
REVIT
1002
{
1070
     3
1000
790271
1002
}
  0
LINE
  5
CF
330
87
100
AcDbEntity
  8
M-PIPE
100
AcDbLine
 10
796.3279501750671
 20
1502.598075309111
 30
0.0
 11
796.166407443193
 21
1502.598075309111
 31
0.0
1001
REVIT
1002
{
1070
     3
1000
790271
1002
}
  0
LINE
  5
D0
330
87
100
AcDbEntity
  8
M-PIPE
100
AcDbLine
 10
796.3279501750673
 20
1502.598075309111
 30
0.0
 11
796.3279501750673
 21
1514.34591799932
 31
0.0
1001
REVIT
1002
{
1070
     3
1000
790271
1002
}
  0
LINE
  5
D1
330
87
100
AcDbEntity
  8
M-PIPE
100
AcDbLine
 10
835.0048647113117
 20
1514.34591799932
 30
0.0
 11
835.0048647113117
 21
1502.598075309111
 31
0.0
1001
REVIT
1002
{
1070
     3
1000
790271
1002
}
  0
LINE
  5
D2
330
87
100
AcDbEntity
  8
M-PIPE
100
AcDbLine
 10
835.1664074431928
 20
1502.598075309111
 30
0.0
 11
835.0048647113119
 21
1502.598075309111
 31
0.0
1001
REVIT
1002
{
1070
     3
1000
790271
1002
}
  0
LINE
  5
D3
330
87
100
AcDbEntity
  8
M-PIPE
100
AcDbLine
 10
796.3279501750671
 20
1514.34591799932
 30
0.0
 11
796.1664074431931
 21
1514.34591799932
 31
0.0
1001
REVIT
1002
{
1070
     3
1000
790271
1002
}
  0
SPLINE
  5
D4
330
87
100
AcDbEntity
  8
M-PIPE
100
AcDbSpline
210
0.0
220
0.0
230
1.0
 70
     8
 71
     3
 72
     9
 73
     5
 74
     0
 42
0.000000001
 43
0.0000000001
 40
-1.0
 40
-1.0
 40
-1.0
 40
-1.0
 40
-0.5
 40
0.0
 40
0.0
 40
0.0
 40
0.0
 10
796.3279501750671
 20
1514.34591799932
 30
0.0
 10
797.5568682828935
 20
1514.923225501795
 30
0.0
 10
800.035786390727
 20
1515.500533004271
 30
0.0
 10
802.5568682829216
 20
1514.923225501796
 30
0.0
 10
803.8279501751095
 20
1514.34591799932
 30
0.0
1001
REVIT
1002
{
1070
     3
1000
790271
1002
}
  0
LINE
  5
D5
330
87
100
AcDbEntity
  8
M-PIPE
100
AcDbLine
 10
808.1664074431541
 20
1514.34591799932
 30
0.0
 11
803.8279501751095
 21
1514.34591799932
 31
0.0
1001
REVIT
1002
{
1070
     3
1000
790271
1002
}
  0
SPLINE
  5
D6
330
87
100
AcDbEntity
  8
M-PIPE
100
AcDbSpline
210
0.0
220
0.0
230
1.0
 70
     8
 71
     3
 72
     9
 73
     5
 74
     0
 42
0.000000001
 43
0.0000000001
 40
-1.0
 40
-1.0
 40
-1.0
 40
-1.0
 40
-0.5
 40
0.0
 40
0.0
 40
0.0
 40
0.0
 10
808.166407443154
 20
1514.34591799932
 30
0.0
 10
810.6242436588054
 20
1514.923225501795
 30
0.0
 10
815.5820798744695
 20
1515.500533004269
 30
0.0
 10
820.6242436588562
 20
1514.923225501794
 30
0.0
 10
823.16640744323
 20
1514.34591799932
 30
0.0
1001
REVIT
1002
{
1070
     3
1000
790271
1002
}
  0
LINE
  5
D7
330
87
100
AcDbEntity
  8
M-PIPE
100
AcDbLine
 10
827.5048647113164
 20
1514.34591799932
 30
0.0
 11
823.1664074432302
 21
1514.34591799932
 31
0.0
1001
REVIT
1002
{
1070
     3
1000
790271
1002
}
  0
SPLINE
  5
D8
330
87
100
AcDbEntity
  8
M-PIPE
100
AcDbSpline
210
0.0
220
0.0
230
1.0
 70
     8
 71
     3
 72
     9
 73
     5
 74
     0
 42
0.000000001
 43
0.0000000001
 40
-1.0
 40
-1.0
 40
-1.0
 40
-1.0
 40
-0.5
 40
0.0
 40
0.0
 40
0.0
 40
0.0
 10
827.5048647113164
 20
1514.34591799932
 30
0.0
 10
828.7337828191351
 20
1514.923225501788
 30
0.0
 10
831.2127009269531
 20
1515.500533004255
 30
0.0
 10
833.7337828191321
 20
1514.923225501788
 30
0.0
 10
835.0048647113119
 20
1514.34591799932
 30
0.0
1001
REVIT
1002
{
1070
     3
1000
790271
1002
}
  0
LINE
  5
D9
330
87
100
AcDbEntity
  8
M-PIPE
100
AcDbLine
 10
835.1664074431928
 20
1514.34591799932
 30
0.0
 11
835.0048647113119
 21
1514.34591799932
 31
0.0
1001
REVIT
1002
{
1070
     3
1000
790271
1002
}
  0
LINE
  5
DA
330
87
100
AcDbEntity
  8
M-PIPE
100
AcDbLine
 10
832.666407443193
 20
1515.789293672294
 30
0.0
 11
798.6664074431929
 21
1515.789293672294
 31
0.0
1001
REVIT
1002
{
1070
     3
1000
790271
1002
}
  0
LINE
  5
DB
330
87
100
AcDbEntity
  8
M-PIPE
100
AcDbLine
 10
832.666407443193
 20
1522.914263954511
 30
0.0
 11
798.6664074431929
 21
1522.914263954511
 31
0.0
1001
REVIT
1002
{
1070
     3
1000
790271
1002
}
  0
LINE
  5
DC
330
87
100
AcDbEntity
  8
M-PIPE
100
AcDbLine
 10
838.1664074431936
 20
1526.089690435054
 30
0.0
 11
793.1664074431924
 21
1526.089690435054
 31
0.0
1001
REVIT
1002
{
1070
     3
1000
790271
1002
}
  0
SPLINE
  5
DD
330
87
100
AcDbEntity
  8
M-PIPE
100
AcDbSpline
210
0.0
220
0.0
230
1.0
 70
     8
 71
     3
 72
    25
 73
    21
 74
     0
 42
0.000000001
 43
0.0000000001
 40
0.0
 40
0.0
 40
0.0
 40
0.0
 40
0.1111111111111111
 40
0.2222222222222222
 40
0.2777777777777778
 40
0.3333333333333333
 40
0.3611111111111111
 40
0.3888888888888888
 40
0.4444444444444445
 40
0.4791666666666666
 40
0.5138888888888889
 40
0.5486111111111111
 40
0.5833333333333333
 40
0.6180555555555555
 40
0.6527777777777777
 40
0.6875
 40
0.7222222222222223
 40
0.7916666666666668
 40
0.861111111111111
 40
1.0
 40
1.0
 40
1.0
 40
1.0
 10
793.1664074431924
 20
1549.499999999917
 30
0.0
 10
793.1664074431924
 20
1549.47813897382
 30
0.0
 10
793.4024278837138
 20
1549.038449511875
 30
0.0
 10
794.1385516459387
 20
1547.399479555307
 30
0.0
 10
794.8043029079067
 20
1545.613680001135
 30
0.0
 10
795.2086067976323
 20
1544.317032178063
 30
0.0
 10
795.4861036582172
 20
1543.200179544664
 30
0.0
 10
795.7413646694186
 20
1542.001836282466
 30
0.0
 10
795.9407235416106
 20
1540.683761370124
 30
0.0
 10
796.0313434371307
 20
1539.248211075834
 30
0.0
 10
796.0388606735556
 20
1538.003671119759
 30
0.0
 10
795.9762634534542
 20
1536.789012600181
 30
0.0
 10
795.8409639332726
 20
1535.627837706413
 30
0.0
 10
795.6348581470123
 20
1534.46708923444
 30
0.0
 10
795.3847182542187
 20
1533.366558028851
 30
0.0
 10
795.1113666707625
 20
1532.363866227322
 30
0.0
 10
794.7000595645993
 20
1531.089759764508
 30
0.0
 10
794.1843348250698
 20
1529.737861968603
 30
0.0
 10
793.4439782577745
 20
1528.038139568609
 30
0.0
 10
793.1664074431924
 20
1527.527015069028
 30
0.0
 10
793.1664074431924
 20
1527.499999999917
 30
0.0
1001
REVIT
1002
{
1070
     3
1000
790271
1002
}
  0
LINE
  5
DE
330
87
100
AcDbEntity
  8
M-PIPE
100
AcDbLine
 10
839.1664074431934
 20
1553.999999999782
 30
0.0
 11
792.1664074431925
 21
1553.999999999782
 31
0.0
1001
REVIT
1002
{
1070
     3
1000
790271
1002
}
  0
LINE
  5
DF
330
87
100
AcDbEntity
  8
M-PIPE
100
AcDbLine
 10
839.1664074431934
 20
1556.928203230121
 30
0.0
 11
792.1664074431925
 21
1556.928203230121
 31
0.0
1001
REVIT
1002
{
1070
     3
1000
790271
1002
}
  0
LINE
  5
E0
330
87
100
AcDbEntity
  8
M-PIPE
100
AcDbLine
 10
835.0048647113098
 20
1557.999999999846
 30
0.0
 11
827.5048647112951
 21
1557.999999999845
 31
0.0
1001
REVIT
1002
{
1070
     3
1000
790271
1002
}
  0
LINE
  5
E1
330
87
100
AcDbEntity
  8
M-PIPE
100
AcDbLine
 10
823.1664074432108
 20
1557.999999999845
 30
0.0
 11
808.1664074431275
 21
1557.999999999845
 31
0.0
1001
REVIT
1002
{
1070
     3
1000
790271
1002
}
  0
LINE
  5
E2
330
87
100
AcDbEntity
  8
M-PIPE
100
AcDbLine
 10
803.8279501750917
 20
1557.999999999845
 30
0.0
 11
796.3279501750629
 21
1557.999999999846
 31
0.0
1001
REVIT
1002
{
1070
     3
1000
790271
1002
}
  0
LINE
  5
E3
330
87
100
AcDbEntity
  8
M-PIPE
100
AcDbLine
 10
827.5048647112951
 20
1557.999999999845
 30
0.0
 11
823.1664074432108
 21
1557.999999999845
 31
0.0
1001
REVIT
1002
{
1070
     3
1000
790271
1002
}
  0
LINE
  5
E4
330
87
100
AcDbEntity
  8
M-PIPE
100
AcDbLine
 10
827.5048647112958
 20
1557.999999999845
 30
0.0
 11
827.5048647112958
 21
1572.133974596192
 31
0.0
1001
REVIT
1002
{
1070
     3
1000
790271
1002
}
  0
LINE
  5
E5
330
87
100
AcDbEntity
  8
M-PIPE
100
AcDbLine
 10
823.1664074432083
 20
1572.133974596192
 30
0.0
 11
823.1664074432083
 21
1557.999999999845
 31
0.0
1001
REVIT
1002
{
1070
     3
1000
790271
1002
}
  0
LINE
  5
E6
330
87
100
AcDbEntity
  8
M-PIPE
100
AcDbLine
 10
808.1664074431273
 20
1557.999999999845
 30
0.0
 11
803.8279501750915
 21
1557.999999999845
 31
0.0
1001
REVIT
1002
{
1070
     3
1000
790271
1002
}
  0
LINE
  5
E7
330
87
100
AcDbEntity
  8
M-PIPE
100
AcDbLine
 10
808.1664074431298
 20
1557.999999999845
 30
0.0
 11
808.1664074431298
 21
1572.133974596192
 31
0.0
1001
REVIT
1002
{
1070
     3
1000
790271
1002
}
  0
LINE
  5
E8
330
87
100
AcDbEntity
  8
M-PIPE
100
AcDbLine
 10
803.8279501750903
 20
1572.133974596192
 30
0.0
 11
803.8279501750903
 21
1557.999999999845
 31
0.0
1001
REVIT
1002
{
1070
     3
1000
790271
1002
}
  0
LINE
  5
E9
330
87
100
AcDbEntity
  8
M-PIPE
100
AcDbLine
 10
796.3279501750628
 20
1557.999999999846
 30
0.0
 11
796.1664074431923
 21
1557.999999999846
 31
0.0
1001
REVIT
1002
{
1070
     3
1000
790271
1002
}
  0
LINE
  5
EA
330
87
100
AcDbEntity
  8
M-PIPE
100
AcDbLine
 10
796.3279501750629
 20
1557.999999999846
 30
0.0
 11
796.327950175063
 21
1572.133974596192
 31
0.0
1001
REVIT
1002
{
1070
     3
1000
790271
1002
}
  0
LINE
  5
EB
330
87
100
AcDbEntity
  8
M-PIPE
100
AcDbLine
 10
835.0048647113098
 20
1572.133974596192
 30
0.0
 11
835.0048647113098
 21
1557.999999999846
 31
0.0
1001
REVIT
1002
{
1070
     3
1000
790271
1002
}
  0
LINE
  5
EC
330
87
100
AcDbEntity
  8
M-PIPE
100
AcDbLine
 10
835.1664074431939
 20
1557.999999999846
 30
0.0
 11
835.0048647113098
 21
1557.999999999846
 31
0.0
1001
REVIT
1002
{
1070
     3
1000
790271
1002
}
  0
LINE
  5
ED
330
87
100
AcDbEntity
  8
M-PIPE
100
AcDbLine
 10
796.3279501750628
 20
1572.133974596192
 30
0.0
 11
796.1664074431923
 21
1572.133974596192
 31
0.0
1001
REVIT
1002
{
1070
     3
1000
790271
1002
}
  0
SPLINE
  5
EE
330
87
100
AcDbEntity
  8
M-PIPE
100
AcDbSpline
210
0.0
220
0.0
230
1.0
 70
     8
 71
     3
 72
     8
 73
     4
 74
     0
 42
0.000000001
 43
0.0000000001
 40
-1.0
 40
-1.0
 40
-1.0
 40
-1.0
 40
-0.6249999999995828
 40
-0.6249999999995828
 40
-0.6249999999995828
 40
-0.6249999999995828
 10
796.3279501750628
 20
1572.133974596192
 30
0.0
 10
797.249638755932
 20
1572.566955223049
 30
0.0
 10
798.1772566189769
 20
1572.837568114834
 30
0.0
 10
799.1108037641977
 20
1572.945813271548
 30
0.0
1001
REVIT
1002
{
1070
     3
1000
790271
1002
}
  0
SPLINE
  5
EF
330
87
100
AcDbEntity
  8
M-PIPE
100
AcDbSpline
210
0.0
220
0.0
230
1.0
 70
     8
 71
     3
 72
     9
 73
     5
 74
     0
 42
0.000000001
 43
0.0000000001
 40
-0.5851103724680888
 40
-0.5851103724680888
 40
-0.5851103724680888
 40
-0.5851103724680888
 40
-0.5
 40
0.0
 40
0.0
 40
0.0
 40
0.0
 10
799.4089158182577
 20
1572.974844534245
 30
0.0
 10
799.6210808994525
 20
1572.991572078018
 30
0.0
 10
801.0817571179442
 20
1573.049070706469
 30
0.0
 10
802.5568682829062
 20
1572.711282098669
 30
0.0
 10
803.8279501750917
 20
1572.133974596192
 30
0.0
1001
REVIT
1002
{
1070
     3
1000
790271
1002
}
  0
LINE
  5
F0
330
87
100
AcDbEntity
  8
M-PIPE
100
AcDbLine
 10
808.1664074431269
 20
1572.133974596192
 30
0.0
 11
803.8279501750917
 21
1572.133974596192
 31
0.0
1001
REVIT
1002
{
1070
     3
1000
790271
1002
}
  0
SPLINE
  5
F1
330
87
100
AcDbEntity
  8
M-PIPE
100
AcDbSpline
210
0.0
220
0.0
230
1.0
 70
     8
 71
     3
 72
     9
 73
     5
 74
     0
 42
0.000000001
 43
0.0000000001
 40
-1.0
 40
-1.0
 40
-1.0
 40
-1.0
 40
-0.5
 40
0.0
 40
0.0
 40
0.0
 40
0.0
 10
808.1664074431269
 20
1572.133974596192
 30
0.0
 10
809.4008941366862
 20
1572.416400443548
 30
0.0
 10
811.8853808302741
 20
1572.843163858198
 30
0.0
 10
814.4008941368008
 20
1572.993750712727
 30
0.0
 10
815.6664074432987
 20
1572.999999999961
 30
0.0
1001
REVIT
1002
{
1070
     3
1000
790271
1002
}
  0
SPLINE
  5
F2
330
87
100
AcDbEntity
  8
M-PIPE
100
AcDbSpline
210
0.0
220
0.0
230
1.0
 70
     8
 71
     3
 72
     9
 73
     5
 74
     0
 42
0.000000001
 43
0.0000000001
 40
-1.0
 40
-1.0
 40
-1.0
 40
-1.0
 40
-0.5
 40
0.0
 40
0.0
 40
0.0
 40
0.0
 10
815.6664074432987
 20
1572.999999999961
 30
0.0
 10
816.9319207497604
 20
1572.993750712716
 30
0.0
 10
819.4474340562077
 20
1572.843163858176
 30
0.0
 10
821.9319207497022
 20
1572.416400443536
 30
0.0
 10
823.1664074432112
 20
1572.133974596192
 30
0.0
1001
REVIT
1002
{
1070
     3
1000
790271
1002
}
  0
LINE
  5
F3
330
87
100
AcDbEntity
  8
M-PIPE
100
AcDbLine
 10
827.5048647112949
 20
1572.133974596192
 30
0.0
 11
823.1664074432114
 21
1572.133974596192
 31
0.0
1001
REVIT
1002
{
1070
     3
1000
790271
1002
}
  0
SPLINE
  5
F4
330
87
100
AcDbEntity
  8
M-PIPE
100
AcDbSpline
210
0.0
220
0.0
230
1.0
 70
     8
 71
     3
 72
     8
 73
     4
 74
     0
 42
0.000000001
 43
0.0000000001
 40
-1.0
 40
-1.0
 40
-1.0
 40
-1.0
 40
-0.5833333333332744
 40
-0.5833333333332744
 40
-0.5833333333332744
 40
-0.5833333333332744
 10
827.5048647112948
 20
1572.133974596192
 30
0.0
 10
828.5289631344799
 20
1572.615064181581
 30
0.0
 10
829.5603816591166
 20
1572.895699773059
 30
0.0
 10
830.599120285205
 20
1572.975881370624
 30
0.0
1001
REVIT
1002
{
1070
     3
1000
790271
1002
}
  0
SPLINE
  5
F5
330
87
100
AcDbEntity
  8
M-PIPE
100
AcDbSpline
210
0.0
220
0.0
230
1.0
 70
     8
 71
     3
 72
     9
 73
     5
 74
     0
 42
0.000000001
 43
0.0000000001
 40
-0.5827944014595055
 40
-0.5827944014595055
 40
-0.5827944014595055
 40
-0.5827944014595055
 40
-0.5
 40
-0.4162430945513269
 40
-0.4162430945513269
 40
-0.4162430945513269
 40
-0.4162430945513269
 10
830.6031509492935
 20
1572.976191493973
 30
0.0
 10
830.8095588948029
 20
1572.992021064586
 30
0.0
 10
831.2249404837423
 20
1573.019314149747
 30
0.0
 10
831.6431623637814
 20
1572.968828573149
 30
0.0
 10
831.8539701531445
 20
1572.930065751333
 30
0.0
1001
REVIT
1002
{
1070
     3
1000
790271
1002
}
  0
SPLINE
  5
F6
330
87
100
AcDbEntity
  8
M-PIPE
100
AcDbSpline
210
0.0
220
0.0
230
1.0
 70
     8
 71
     3
 72
     8
 73
     4
 74
     0
 42
0.000000001
 43
0.0000000001
 40
-0.3958333333336235
 40
-0.3958333333336235
 40
-0.3958333333336235
 40
-0.3958333333336235
 40
0.0
 40
0.0
 40
0.0
 40
0.0
 10
832.005864392053
 20
1572.962350726035
 30
0.0
 10
832.9989247735788
 20
1572.867135078927
 30
0.0
 10
833.9985915466641
 20
1572.591009702312
 30
0.0
 10
835.00486471131
 20
1572.133974596192
 30
0.0
1001
REVIT
1002
{
1070
     3
1000
790271
1002
}
  0
LINE
  5
F7
330
87
100
AcDbEntity
  8
M-PIPE
100
AcDbLine
 10
835.1664074431939
 20
1572.133974596192
 30
0.0
 11
835.00486471131
 21
1572.133974596192
 31
0.0
1001
REVIT
1002
{
1070
     3
1000
790271
1002
}
  0
LINE
  5
F8
330
87
100
AcDbEntity
  8
M-PIPE
100
AcDbLine
 10
815.6664074433106
 20
1572.999999999961
 30
0.0
 11
797.6664074431662
 21
1572.999999999961
 31
0.0
1001
REVIT
1002
{
1070
     3
1000
790271
1002
}
  0
LINE
  5
F9
330
87
100
AcDbEntity
  8
M-PIPE
100
AcDbLine
 10
833.6664074432199
 20
1572.999999999961
 30
0.0
 11
815.6664074433106
 21
1572.999999999961
 31
0.0
1001
REVIT
1002
{
1070
     3
1000
790271
1002
}
  0
LINE
  5
FA
330
87
100
AcDbEntity
  8
M-PIPE
100
AcDbLine
 10
895.8765838992244
 20
1617.148114265934
 30
0.0
 11
893.4178029707451
 21
1626.324409615663
 31
0.0
1001
REVIT
1002
{
1070
     3
1000
924063
1002
}
  0
LINE
  5
FB
330
87
100
AcDbEntity
  8
M-PIPE
100
AcDbLine
 10
876.99706392386
 20
1621.92448584891
 30
0.0
 11
879.4531940584441
 21
1612.758083396678
 31
0.0
1001
REVIT
1002
{
1070
     3
1000
924063
1002
}
  0
LINE
  5
FC
330
87
100
AcDbEntity
  8
M-PIPE
100
AcDbLine
 10
893.4178029707451
 20
1626.324409615663
 30
0.0
 11
892.8054305350384
 21
1626.677963006262
 31
0.0
1001
REVIT
1002
{
1070
     3
1000
924063
1002
}
  0
LINE
  5
FD
330
87
100
AcDbEntity
  8
M-PIPE
100
AcDbLine
 10
877.3506173144586
 20
1622.536858284617
 30
0.0
 11
876.99706392386
 21
1621.92448584891
 31
0.0
1001
REVIT
1002
{
1070
     3
1000
924063
1002
}
  0
LINE
  5
FE
330
87
100
AcDbEntity
  8
M-PIPE
100
AcDbLine
 10
903.2476454523537
 20
1608.955929824207
 30
0.0
 11
900.7058318442808
 21
1618.442107352867
 31
0.0
1001
REVIT
1002
{
1070
     3
1000
924063
1002
}
  0
LINE
  5
FF
330
87
100
AcDbEntity
  8
M-PIPE
100
AcDbLine
 10
874.6265969072828
 20
1611.454197412248
 30
0.0
 11
877.1684105153555
 21
1601.968019883589
 31
0.0
1001
REVIT
1002
{
1070
     3
1000
924063
1002
}
  0
LINE
  5
100
330
87
100
AcDbEntity
  8
M-PIPE
100
AcDbLine
 10
877.3506173144568
 20
1622.536858284616
 30
0.0
 11
892.8054305350364
 21
1626.677963006261
 31
0.0
1001
REVIT
1002
{
1070
     3
1000
924063
1002
}
  0
LINE
  5
101
330
87
100
AcDbEntity
  8
M-PIPE
100
AcDbLine
 10
893.4178029707432
 20
1626.324409615662
 30
0.0
 11
876.9970639238581
 21
1621.924485848909
 31
0.0
1001
REVIT
1002
{
1070
     3
1000
924063
1002
}
  0
LINE
  5
102
330
87
100
AcDbEntity
  8
M-PIPE
100
AcDbLine
 10
891.6108398213777
 20
1605.837857152897
 30
0.0
 11
888.8052161463104
 21
1605.086092554894
 31
0.0
1001
REVIT
1002
{
1070
     3
1000
924063
1002
}
  0
SPLINE
  5
103
330
87
100
AcDbEntity
  8
M-PIPE
100
AcDbSpline
210
0.0
220
0.0
230
1.0
 70
    24
 71
     3
 72
     8
 73
     4
 74
     0
 42
0.000000001
 43
0.0000000001
 40
0.0043677869019033
 40
0.0043677869019033
 40
0.0043677869019033
 40
0.0043677869019033
 40
0.0185301883273134
 40
0.0185301883273134
 40
0.0185301883273134
 40
0.0185301883273134
 10
888.8052161463104
 20
1605.086092554893
 30
0.0
 10
887.11443690923
 20
1604.633049623737
 30
0.0
 10
884.8575579459614
 20
1604.028320728112
 30
0.0
 10
882.0345792565049
 20
1603.271905868019
 30
0.0
1001
REVIT
1002
{
1070
     3
1000
924063
1002
}
  0
LINE
  5
104
330
87
100
AcDbEntity
  8
M-PIPE
100
AcDbLine
 10
882.0345792565051
 20
1603.271905868019
 30
0.0
 11
880.0029519002903
 21
1602.727532958598
 31
0.0
1001
REVIT
1002
{
1070
     3
1000
924063
1002
}
  0
SPLINE
  5
105
330
87
100
AcDbEntity
  8
M-PIPE
100
AcDbSpline
210
0.0
220
0.0
230
1.0
 70
    24
 71
     3
 72
     8
 73
     4
 74
     0
 42
0.000000001
 43
0.0000000001
 40
0.0033094438410981
 40
0.0033094438410981
 40
0.0033094438410981
 40
0.0033094438410981
 40
0.0174718452665524
 40
0.0174718452665524
 40
0.0174718452665524
 40
0.0174718452665524
 10
880.0029519002903
 20
1602.727532958598
 30
0.0
 10
879.8861253698976
 20
1602.696229384124
 30
0.0
 10
879.0244781823338
 20
1602.465351716055
 30
0.0
 10
877.4180103375988
 20
1602.03489995439
 30
0.0
1001
REVIT
1002
{
1070
     3
1000
924063
1002
}
  0
LINE
  5
106
330
87
100
AcDbEntity
  8
M-PIPE
100
AcDbLine
 10
877.4180103375988
 20
1602.03489995439
 30
0.0
 11
877.1964000844253
 21
1601.975519666018
 31
0.0
1001
REVIT
1002
{
1070
     3
1000
924063
1002
}
  0
LINE
  5
107
330
87
100
AcDbEntity
  8
M-PIPE
100
AcDbLine
 10
903.2196558832795
 20
1608.948430041778
 30
0.0
 11
902.9980456301123
 21
1608.889049753407
 31
0.0
1001
REVIT
1002
{
1070
     3
1000
924063
1002
}
  0
SPLINE
  5
108
330
87
100
AcDbEntity
  8
M-PIPE
100
AcDbSpline
210
0.0
220
0.0
230
1.0
 70
    24
 71
     3
 72
     8
 73
     4
 74
     0
 42
0.000000001
 43
0.0000000001
 40
0.0043677869018712
 40
0.0043677869018712
 40
0.0043677869018712
 40
0.0043677869018712
 40
0.0185301883275437
 40
0.0185301883275437
 40
0.0185301883275437
 40
0.0185301883275437
 10
902.9980456301125
 20
1608.889049753407
 30
0.0
 10
901.3915777853483
 20
1608.458597991734
 30
0.0
 10
900.5299305977784
 20
1608.227720323663
 30
0.0
 10
900.4131040674026
 20
1608.196416749194
 30
0.0
1001
REVIT
1002
{
1070
     3
1000
924063
1002
}
  0
LINE
  5
109
330
87
100
AcDbEntity
  8
M-PIPE
100
AcDbLine
 10
900.4131040674026
 20
1608.196416749194
 30
0.0
 11
898.3814767112855
 21
1607.652043839799
 31
0.0
1001
REVIT
1002
{
1070
     3
1000
924063
1002
}
  0
SPLINE
  5
10A
330
87
100
AcDbEntity
  8
M-PIPE
100
AcDbSpline
210
0.0
220
0.0
230
1.0
 70
    24
 71
     3
 72
     8
 73
     4
 74
     0
 42
0.000000001
 43
0.0000000001
 40
0.0033094438410097
 40
0.0033094438410097
 40
0.0033094438410097
 40
0.0033094438410097
 40
0.017471845266611
 40
0.017471845266611
 40
0.017471845266611
 40
0.017471845266611
 10
898.3814767112855
 20
1607.652043839799
 30
0.0
 10
895.5584980217794
 20
1606.895628979693
 30
0.0
 10
893.3016190584767
 20
1606.290900084059
 30
0.0
 10
891.6108398213777
 20
1605.837857152897
 30
0.0
1001
REVIT
1002
{
1070
     3
1000
924063
1002
}
  0
LINE
  5
10B
330
87
100
AcDbEntity
  8
M-PIPE
100
AcDbLine
 10
886.2634025382375
 20
1614.572270083553
 30
0.0
 11
889.0690262133048
 21
1615.324034681556
 31
0.0
1001
REVIT
1002
{
1070
     3
1000
924063
1002
}
  0
SPLINE
  5
10C
330
87
100
AcDbEntity
  8
M-PIPE
100
AcDbSpline
210
0.0
220
0.0
230
1.0
 70
    24
 71
     3
 72
     8
 73
     4
 74
     0
 42
0.000000001
 43
0.0000000001
 40
-0.017471845266611
 40
-0.017471845266611
 40
-0.017471845266611
 40
-0.017471845266611
 40
-0.0033094438410097
 40
-0.0033094438410097
 40
-0.0033094438410097
 40
-0.0033094438410097
 10
889.0690262133048
 20
1615.324034681556
 30
0.0
 10
890.759805450404
 20
1615.777077612718
 30
0.0
 10
893.0166844137067
 20
1616.381806508352
 30
0.0
 10
895.8396631032128
 20
1617.138221368459
 30
0.0
1001
REVIT
1002
{
1070
     3
1000
924063
1002
}
  0
LINE
  5
10D
330
87
100
AcDbEntity
  8
M-PIPE
100
AcDbLine
 10
895.8396631032128
 20
1617.138221368459
 30
0.0
 11
897.8712904593297
 21
1617.682594277853
 31
0.0
1001
REVIT
1002
{
1070
     3
1000
924063
1002
}
  0
SPLINE
  5
10E
330
87
100
AcDbEntity
  8
M-PIPE
100
AcDbSpline
210
0.0
220
0.0
230
1.0
 70
    24
 71
     3
 72
     8
 73
     4
 74
     0
 42
0.000000001
 43
0.0000000001
 40
-0.0185301883275437
 40
-0.0185301883275437
 40
-0.0185301883275437
 40
-0.0185301883275437
 40
-0.0043677869018712
 40
-0.0043677869018712
 40
-0.0043677869018712
 40
-0.0043677869018712
 10
897.8712904593299
 20
1617.682594277853
 30
0.0
 10
897.9881169897055
 20
1617.713897852322
 30
0.0
 10
898.8497641772756
 20
1617.944775520393
 30
0.0
 10
900.4562320220395
 20
1618.375227282066
 30
0.0
1001
REVIT
1002
{
1070
     3
1000
924063
1002
}
  0
LINE
  5
10F
330
87
100
AcDbEntity
  8
M-PIPE
100
AcDbLine
 10
900.4562320220395
 20
1618.375227282066
 30
0.0
 11
900.6778422752068
 21
1618.434607570437
 31
0.0
1001
REVIT
1002
{
1070
     3
1000
924063
1002
}
  0
LINE
  5
110
330
87
100
AcDbEntity
  8
M-PIPE
100
AcDbLine
 10
874.6545864763525
 20
1611.461697194677
 30
0.0
 11
874.876196729526
 21
1611.521077483049
 31
0.0
1001
REVIT
1002
{
1070
     3
1000
924063
1002
}
  0
SPLINE
  5
111
330
87
100
AcDbEntity
  8
M-PIPE
100
AcDbSpline
210
0.0
220
0.0
230
1.0
 70
    24
 71
     3
 72
     8
 73
     4
 74
     0
 42
0.000000001
 43
0.0000000001
 40
-0.0174718452665524
 40
-0.0174718452665524
 40
-0.0174718452665524
 40
-0.0174718452665524
 40
-0.0033094438410981
 40
-0.0033094438410981
 40
-0.0033094438410981
 40
-0.0033094438410981
 10
874.876196729526
 20
1611.521077483049
 30
0.0
 10
876.4826645742608
 20
1611.951529244714
 30
0.0
 10
877.3443117618247
 20
1612.182406912783
 30
0.0
 10
877.4611382922174
 20
1612.213710487257
 30
0.0
1001
REVIT
1002
{
1070
     3
1000
924063
1002
}
  0
LINE
  5
112
330
87
100
AcDbEntity
  8
M-PIPE
100
AcDbLine
 10
877.4611382922174
 20
1612.213710487257
 30
0.0
 11
879.4927656484322
 21
1612.758083396678
 31
0.0
1001
REVIT
1002
{
1070
     3
1000
924063
1002
}
  0
SPLINE
  5
113
330
87
100
AcDbEntity
  8
M-PIPE
100
AcDbSpline
210
0.0
220
0.0
230
1.0
 70
    24
 71
     3
 72
     8
 73
     4
 74
     0
 42
0.000000001
 43
0.0000000001
 40
-0.0185301883273134
 40
-0.0185301883273134
 40
-0.0185301883273134
 40
-0.0185301883273134
 40
-0.0043677869019033
 40
-0.0043677869019033
 40
-0.0043677869019033
 40
-0.0043677869019033
 10
879.4927656484322
 20
1612.758083396678
 30
0.0
 10
882.3157443378887
 20
1613.514498256771
 30
0.0
 10
884.5726233011573
 20
1614.119227152396
 30
0.0
 10
886.2634025382376
 20
1614.572270083552
 30
0.0
1001
REVIT
1002
{
1070
     3
1000
924063
1002
}
  0
LINE
  5
114
330
87
100
AcDbEntity
  8
M-PIPE
100
AcDbLine
 10
889.0690262133048
 20
1615.324034681556
 30
0.0
 11
891.6108398213777
 21
1605.837857152897
 31
0.0
1001
REVIT
1002
{
1070
     3
1000
924063
1002
}
  0
LINE
  5
115
330
87
100
AcDbEntity
  8
M-PIPE
100
AcDbLine
 10
898.3814767112855
 20
1607.652043839799
 30
0.0
 11
895.8396631032128
 21
1617.138221368458
 31
0.0
1001
REVIT
1002
{
1070
     3
1000
924063
1002
}
  0
LINE
  5
116
330
87
100
AcDbEntity
  8
M-PIPE
100
AcDbLine
 10
888.8052161463104
 20
1605.086092554893
 30
0.0
 11
886.2634025382376
 21
1614.572270083552
 31
0.0
1001
REVIT
1002
{
1070
     3
1000
924063
1002
}
  0
LINE
  5
117
330
87
100
AcDbEntity
  8
M-PIPE
100
AcDbLine
 10
879.492765648432
 20
1612.758083396678
 30
0.0
 11
882.0345792565049
 21
1603.271905868019
 31
0.0
1001
REVIT
1002
{
1070
     3
1000
924063
1002
}
  0
LINE
  5
118
330
87
100
AcDbEntity
  8
M-PIPE
100
AcDbLine
 10
874.876196729526
 20
1611.521077483049
 30
0.0
 11
877.4180103375988
 21
1602.03489995439
 31
0.0
1001
REVIT
1002
{
1070
     3
1000
924063
1002
}
  0
LINE
  5
119
330
87
100
AcDbEntity
  8
M-PIPE
100
AcDbLine
 10
880.0029519002903
 20
1602.727532958598
 30
0.0
 11
877.4611382922174
 21
1612.213710487257
 31
0.0
1001
REVIT
1002
{
1070
     3
1000
924063
1002
}
  0
LINE
  5
11A
330
87
100
AcDbEntity
  8
M-PIPE
100
AcDbLine
 10
902.9980456301125
 20
1608.889049753407
 30
0.0
 11
900.4562320220395
 21
1618.375227282066
 31
0.0
1001
REVIT
1002
{
1070
     3
1000
924063
1002
}
  0
LINE
  5
11B
330
87
100
AcDbEntity
  8
M-PIPE
100
AcDbLine
 10
897.8712904593299
 20
1617.682594277853
 30
0.0
 11
900.4131040674026
 21
1608.196416749194
 31
0.0
1001
REVIT
1002
{
1070
     3
1000
924063
1002
}
  0
LINE
  5
11C
330
87
100
AcDbEntity
  8
P-SANR-FIXT
100
AcDbLine
 10
1008.666407443189
 20
1703.588480685032
 30
0.0
 11
1008.666407443189
 21
1942.958120620147
 31
0.0
  0
LINE
  5
11D
330
87
100
AcDbEntity
  8
P-SANR-FIXT
100
AcDbLine
 10
622.6664074431901
 20
1942.958120620145
 30
0.0
 11
622.6664074431901
 21
1703.588480685032
 31
0.0
  0
LINE
  5
11E
330
87
100
AcDbEntity
  8
P-SANR-FIXT
100
AcDbLine
 10
622.6664074431901
 20
2118.506728823523
 30
0.0
 11
622.6664074431901
 21
2057.041879379847
 31
0.0
  0
LINE
  5
11F
330
87
100
AcDbEntity
  8
P-SANR-FIXT
100
AcDbLine
 10
1008.666407443189
 20
2057.041879379845
 30
0.0
 11
1008.666407443189
 21
2118.506728823523
 31
0.0
  0
LWPOLYLINE
  5
120
330
87
100
AcDbEntity
  8
P-SANR-FIXT
100
AcDbPolyline
 90
       25
 70
   128
 43
0.0
 10
1008.66640744319
 20
1703.588480685032
 10
1008.638411176324
 20
1702.1888539885
 10
1008.554467163782
 20
1700.791466396111
 10
1008.414709698076
 20
1699.39855342992
 10
1008.219362361337
 20
1698.012343453533
 10
1007.968737667634
 20
1696.635054107205
 10
1007.663236563011
 20
1695.268888760082
 10
1007.303347784067
 20
1693.916032985288
 10
1006.889647076076
 20
1692.578651063467
 10
1006.422796271918
 20
1691.258882520404
 10
1005.903542233291
 20
1689.958838704229
 10
1005.332715655889
 20
1688.680599407722
 10
1004.711229740465
 20
1687.42620954108
 10
1004.040078731908
 20
1686.197675860501
 10
1003.32033632866
 20
1684.996963757801
 10
1002.553153965029
 20
1683.825994116206
 10
1001.73975896914
 20
1682.686640237348
 10
1000.881452599473
 20
1681.580724844386
 10
999.9796079631218
 20
1680.51001716603
 10
999.0356678191222
 20
1679.476230106162
 10
998.0511422703411
 20
1678.481017503548
 10
997.0276063476362
 20
1677.525971486052
 10
995.9666974901406
 20
1676.612619923568
 10
994.8701129257116
 20
1675.742423983759
 10
994.4115123131235
 20
1675.399109923422
  0
LWPOLYLINE
  5
121
330
87
100
AcDbEntity
  8
P-SANR-FIXT
100
AcDbPolyline
 90
       25
 70
   128
 43
0.0
 10
636.9213025732562
 20
1675.399109923422
 10
635.810622276562
 20
1676.251241344706
 10
634.7349065738157
 20
1677.147106517302
 10
633.6958763806676
 20
1678.085272248039
 10
632.6951939237789
 20
1679.064237671882
 10
631.7344600816133
 20
1680.082436652986
 10
630.8152118233725
 20
1681.138240290186
 10
629.9389197501739
 20
1682.22995952289
 10
629.1069857424022
 20
1683.35584783321
 10
628.320740717
 20
1684.514104040029
 10
627.5814424982845
 20
1685.702875180497
 10
626.8902738056977
 20
1686.920259474379
 10
626.2483403617056
 20
1688.164309366501
 10
625.6566691228805
 20
1689.433034642418
 10
625.1162066369878
 20
1690.724405612336
 10
624.6278175287123
 20
1692.036356358181
 10
624.1922831164437
 20
1693.366788038626
 10
623.810300162332
 20
1694.713572246795
 10
623.4824797576188
 20
1696.074554415252
 10
623.2093463450202
 20
1697.447557262855
 10
622.9913368797309
 20
1698.83038427794
 10
622.8288001303893
 20
1700.220823232269
 10
622.7219961211216
 20
1701.616649720128
 10
622.6710957155591
 20
1703.015630716896
 10
622.6664074431892
 20
1703.588480685032
  0
LWPOLYLINE
  5
122
330
87
100
AcDbEntity
  8
P-SANR-FIXT
100
AcDbPolyline
 90
       12
 70
   128
 43
0.0
 10
994.4115123131247
 20
1675.399109923423
 10
985.107045865476
 20
1668.834519755548
 10
975.5475084085404
 20
1662.647259977825
 10
965.7481931629897
 20
1656.84722888602
 10
955.7247769428078
 20
1651.443705292606
 10
945.4932950757326
 20
1646.445333682642
 10
935.0701157501513
 20
1641.860110384442
 10
924.4719138294918
 20
1637.695370777153
 10
913.7156441759978
 20
1633.957777555719
 10
902.8185145265673
 20
1630.653310071981
 10
891.7979579640414
 20
1627.787254768998
 10
891.3394720002171
 20
1627.687407306886
  0
LWPOLYLINE
  5
123
330
87
100
AcDbEntity
  8
P-SANR-FIXT
100
AcDbPolyline
 90
        6
 70
   128
 43
0.0
 10
877.9659452820569
 20
1624.887407356503
 10
869.457255509627
 20
1623.388012312557
 10
858.1728499759032
 20
1621.861863008573
 10
846.836441068465
 20
1620.788190325238
 10
835.4661646232592
 20
1620.168711909807
 10
832.115867275908
 20
1620.111033433338
  0
LWPOLYLINE
  5
124
330
87
100
AcDbEntity
  8
P-SANR-FIXT
100
AcDbPolyline
 90
       17
 70
   128
 43
0.0
 10
799.1028201204949
 20
1620.131289252149
 10
794.2815455605479
 20
1620.227727602138
 10
782.9148970282785
 20
1620.910546092982
 10
771.5846460592763
 20
1622.047363108603
 10
760.3089186380999
 20
1623.636359984283
 10
749.1057535232637
 20
1625.67499466399
 10
737.99307338907
 20
1628.16000576712
 10
726.988656153155
 20
1631.087417806018
 10
716.1101065356121
 20
1634.4525475459
 10
705.3748278951963
 20
1638.250011497041
 10
694.7999943876612
 20
1642.473734527201
 10
684.4025234907747
 20
1647.116959580543
 10
674.1990489399636
 20
1652.172258487486
 10
664.2058941178833
 20
1657.631543848182
 10
654.4390459404902
 20
1663.486081970643
 10
644.914129281385
 20
1669.726506842772
 10
636.9213025732549
 20
1675.399109923423
  0
LWPOLYLINE
  5
125
330
87
100
AcDbEntity
  8
P-SANR-FIXT
100
AcDbPolyline
 90
        7
 70
   128
 43
0.0
 10
825.6664074431892
 20
1619.999999999995
 10
825.6584085097992
 20
1619.999999999995
 10
825.6344245062155
 20
1619.999999999995
 10
825.5944938017281
 20
1619.999999999995
 10
825.5386802769457
 20
1619.999999999995
 10
825.467073221602
 20
1619.999999999995
 10
825.3797871917099
 20
1619.999999999995
  0
LWPOLYLINE
  5
126
330
87
100
AcDbEntity
  8
P-SANR-FIXT
100
AcDbPolyline
 90
        8
 70
   128
 43
0.0
 10
805.9594329112192
 20
1619.999999999995
 10
805.9109209673797
 20
1619.999999999995
 10
805.8308343128505
 20
1619.999999999995
 10
805.7664824771858
 20
1619.999999999995
 10
805.7179684095958
 20
1619.999999999995
 10
805.685369722239
 20
1619.999999999995
 10
805.6687385660611
 20
1619.999999999995
 10
805.6664074431903
 20
1619.999999999995
  0
LINE
  5
127
330
87
100
AcDbEntity
  8
P-SANR-FIXT
100
AcDbLine
 10
825.6607995381425
 20
1619.999999999995
 30
0.0
 11
825.6664074431892
 21
1619.999999999995
 31
0.0
  0
LINE
  5
128
330
87
100
AcDbEntity
  8
P-SANR-FIXT
100
AcDbLine
 10
805.6664074431903
 20
1619.999999999995
 30
0.0
 11
805.6720153482372
 21
1619.999999999995
 31
0.0
  0
LWPOLYLINE
  5
129
330
87
100
AcDbEntity
  8
P-SANR-FIXT
100
AcDbPolyline
 90
       18
 70
   128
 43
0.0
 10
830.2857886118498
 20
2202.823110433382
 10
839.6653767111342
 20
2202.635493655159
 10
850.5408655835896
 20
2201.982180158397
 10
861.3815296531866
 20
2200.894485683785
 10
872.1700261699655
 20
2199.374150310455
 10
882.8890958409228
 20
2197.423606250682
 10
893.5215904411975
 20
2195.045973958868
 10
904.0505002475745
 20
2192.245057139478
 10
914.4589812504102
 20
2189.025336661928
 10
924.7303821004583
 20
2185.391963392144
 10
934.848270747474
 20
2181.350749952279
 10
944.7964607279894
 20
2176.908161421757
 10
954.5590370602035
 20
2172.071304994526
 10
964.1203817045564
 20
2166.847918609062
 10
973.4651985492618
 20
2161.246358569318
 10
982.5785378808232
 20
2155.275586176421
 10
991.4458203003849
 20
2148.945153392505
 10
995.0285976428075
 20
2146.231389865191
  0
LWPOLYLINE
  5
12A
330
87
100
AcDbEntity
  8
P-SANR-FIXT
100
AcDbPolyline
 90
       18
 70
   128
 43
0.0
 10
636.3042172435726
 20
2146.231389865191
 10
645.0658439062684
 20
2152.707266250939
 10
654.0794281870989
 20
2158.827591009669
 10
663.3305502740101
 20
2164.582572927365
 10
672.8044103451302
 20
2169.963005260625
 10
682.4858522453279
 20
2174.960280465479
 10
692.3593877328269
 20
2179.566403967628
 10
702.4092212570894
 20
2183.774006952056
 10
712.6192752283265
 20
2187.576358151561
 10
722.9732157382128
 20
2190.96737461535
 10
733.4544786906554
 20
2193.941631440459
 10
744.046296300814
 20
2196.494370450441
 10
754.7317239199795
 20
2198.621507807437
 10
765.4936671433978
 20
2200.319640545439
 10
776.3149091576697
 20
2201.586052014317
 10
787.1781382839814
 20
2202.418716225873
 10
798.0659756730958
 20
2202.816301094995
 10
802.0934980694137
 20
2202.849529320352
  0
LWPOLYLINE
  5
12B
330
87
100
AcDbEntity
  8
P-SANR-FIXT
100
AcDbPolyline
 90
       24
 70
   128
 43
0.0
 10
802.5603533883421
 20
2202.853381011843
 10
802.5708368336816
 20
2202.853381011843
 10
802.6022703984233
 20
2202.853381011843
 10
802.6546037955696
 20
2202.853381011843
 10
802.7277533028486
 20
2202.853381011843
 10
802.821601896653
 20
2202.853381011843
 10
802.9359994392528
 20
2202.853381011843
 10
803.0707629189835
 20
2202.853381011843
 10
803.2256767430254
 20
2202.853381011843
 10
803.4004930823067
 20
2202.853381011843
 10
803.5949322679764
 20
2202.853381011843
 10
803.8086832388158
 20
2202.853381011843
 10
804.0414040388691
 20
2202.853381011843
 10
804.2927223645008
 20
2202.853381011843
 10
804.562236160002
 20
2202.853381011843
 10
804.8495142607928
 20
2202.853381011843
 10
805.1540970831945
 20
2202.853381011843
 10
805.4754973596654
 20
2202.853381011843
 10
805.8132009183252
 20
2202.853381011843
 10
806.1666675055196
 20
2202.853381011843
 10
806.5353316501109
 20
2202.853381011843
 10
806.9186035681125
 20
2202.853381011843
 10
807.3158701062153
 20
2202.853381011843
 10
807.5410334551023
 20
2202.853381011843
  0
LWPOLYLINE
  5
12C
330
87
100
AcDbEntity
  8
P-SANR-FIXT
100
AcDbPolyline
 90
       24
 70
   128
 43
0.0
 10
823.7969002637806
 20
2202.853381011843
 10
824.2014585761841
 20
2202.853381011843
 10
824.5923626274887
 20
2202.853381011843
 10
824.9689870546005
 20
2202.853381011843
 10
825.3307293387786
 20
2202.853381011843
 10
825.6770107695356
 20
2202.853381011843
 10
826.0072773704521
 20
2202.853381011843
 10
826.3210007854198
 20
2202.853381011843
 10
826.6176791238981
 20
2202.853381011843
 10
826.8968377638342
 20
2202.853381011843
 10
827.1580301109548
 20
2202.853381011843
 10
827.4008383132223
 20
2202.853381011843
 10
827.6248739293095
 20
2202.853381011843
 10
827.8297785500225
 20
2202.853381011843
 10
828.0152243716784
 20
2202.853381011843
 10
828.1809147205228
 20
2202.853381011843
 10
828.3265845273422
 20
2202.853381011843
 10
828.452000751521
 20
2202.853381011843
 10
828.5569627538542
 20
2202.853381011843
 10
828.6413026175289
 20
2202.853381011843
 10
828.7048854167545
 20
2202.853381011843
 10
828.7476094326162
 20
2202.853381011843
 10
828.7694063158022
 20
2202.853381011843
 10
828.7724614980373
 20
2202.853381011843
  0
LWPOLYLINE
  5
12D
330
87
100
AcDbEntity
  8
P-SANR-FIXT
100
AcDbPolyline
 90
       17
 70
   128
 43
0.0
 10
828.7724614980373
 20
2202.853381011843
 10
828.7619780526981
 20
2202.853381011843
 10
828.7305444879564
 20
2202.853381011843
 10
828.6782110908101
 20
2202.853381011843
 10
828.6050615835312
 20
2202.853381011843
 10
828.5112129897267
 20
2202.853381011843
 10
828.3968154471267
 20
2202.853381011843
 10
828.2620519673962
 20
2202.853381011843
 10
828.1071381433541
 20
2202.853381011843
 10
827.9323218040731
 20
2202.853381011843
 10
827.7378826184035
 20
2202.853381011843
 10
827.5241316475639
 20
2202.853381011843
 10
827.2914108475104
 20
2202.853381011843
 10
827.0400925218787
 20
2202.853381011843
 10
826.7705787263775
 20
2202.853381011843
 10
826.4833006255869
 20
2202.853381011843
 10
826.1821327906721
 20
2202.853381011843
  0
LWPOLYLINE
  5
12E
330
87
100
AcDbEntity
  8
P-SANR-FIXT
100
AcDbPolyline
 90
       17
 70
   128
 43
0.0
 10
805.1506820956666
 20
2202.853381011843
 10
804.8462855069299
 20
2202.853381011843
 10
804.5591988051221
 20
2202.853381011843
 10
804.2898812677234
 20
2202.853381011843
 10
804.0387637453429
 20
2202.853381011843
 10
803.8062479724469
 20
2202.853381011843
 10
803.5927059246722
 20
2202.853381011843
 10
803.398479223741
 20
2202.853381011843
 10
803.2238785909427
 20
2202.853381011843
 10
803.0691833500432
 20
2202.853381011843
 10
802.9346409804286
 20
2202.853381011843
 10
802.8204667211889
 20
2202.853381011843
 10
802.7268432267833
 20
2202.853381011843
 10
802.6539202748304
 20
2202.853381011843
 10
802.6018145264982
 20
2202.853381011843
 10
802.570609339868
 20
2202.853381011843
 10
802.5603533883421
 20
2202.853381011843
  0
LWPOLYLINE
  5
12F
330
87
100
AcDbEntity
  8
P-SANR-FIXT
100
AcDbPolyline
 90
       24
 70
   128
 43
0.0
 10
995.0285976428071
 20
2146.231389865191
 10
996.1202009047658
 20
2145.354953330647
 10
997.1758828870733
 20
2144.435565364206
 10
998.1939547237578
 20
2143.474696790491
 10
999.1727877170578
 20
2142.473884794243
 10
1000.11081594299
 20
2141.434730461164
 10
1001.006538756496
 20
2140.358896216511
 10
1001.858523192151
 20
2139.248103165576
 10
1002.665406256605
 20
2138.104128340284
 10
1003.425897109081
 20
2136.928801856321
 10
1004.138779126443
 20
2135.724003985338
 10
1004.802911849539
 20
2134.491662146919
 10
1005.417232807684
 20
2133.23374782512
 10
1005.980759218394
 20
2131.952273414515
 10
1006.492589559625
 20
2130.649289000793
 10
1006.951905012015
 20
2129.326879081064
 10
1007.357970768822
 20
2127.987159229097
 10
1007.710137211458
 20
2126.632272710866
 10
1008.00784094874
 20
2125.264387055772
 10
1008.250605718195
 20
2123.885690589063
 10
1008.438043147978
 20
2122.49838893098
 10
1008.569853378188
 20
2121.104701468234
 10
1008.645825540573
 20
2119.70685780346
 10
1008.66640744319
 20
2118.506728823524
  0
LWPOLYLINE
  5
130
330
87
100
AcDbEntity
  8
P-SANR-FIXT
100
AcDbPolyline
 90
       24
 70
   128
 43
0.0
 10
622.6664074431899
 20
2118.506728823524
 10
622.6944037100557
 20
2119.906355520056
 10
622.7783477225982
 20
2121.303743112445
 10
622.9181051883046
 20
2122.696656078636
 10
623.113452525043
 20
2124.082866055022
 10
623.3640772187465
 20
2125.460155401351
 10
623.6695783233687
 20
2126.826320748473
 10
624.0294671023129
 20
2128.179176523268
 10
624.4431678103044
 20
2129.516558445088
 10
624.9100186144622
 20
2130.836326988152
 10
625.429272653089
 20
2132.136370804326
 10
626.0000992304911
 20
2133.414610100833
 10
626.621585145915
 20
2134.668999967475
 10
627.2927361544722
 20
2135.897533648055
 10
628.0124785577204
 20
2137.098245750754
 10
628.7796609213512
 20
2138.26921539235
 10
629.5930559172397
 20
2139.408569271207
 10
630.4513622869076
 20
2140.51448466417
 10
631.3532069232585
 20
2141.585192342525
 10
632.2971470672584
 20
2142.618979402393
 10
633.2816726160391
 20
2143.614192005007
 10
634.3052085387443
 20
2144.569238022504
 10
635.3661173962398
 20
2145.482589584988
 10
636.3042172435726
 20
2146.231389865191
  0
LINE
  5
131
330
87
100
AcDbEntity
  8
P-SANR-FIXT
100
AcDbLine
 10
1008.666116959413
 20
1942.849279334398
 30
0.0
 11
1008.666116959413
 21
1703.588480685031
 31
0.0
  0
LINE
  5
132
330
87
100
AcDbEntity
  8
P-SANR-FIXT
100
AcDbLine
 10
622.6666979269626
 20
1703.588480685031
 30
0.0
 11
622.6666979269626
 21
1942.849279334396
 31
0.0
  0
LINE
  5
133
330
87
100
AcDbEntity
  8
P-SANR-FIXT
100
AcDbLine
 10
622.6666979269626
 20
2057.150720665594
 30
0.0
 11
622.6666979269626
 21
2118.506728823522
 31
0.0
  0
LINE
  5
134
330
87
100
AcDbEntity
  8
P-SANR-FIXT
100
AcDbLine
 10
1008.666116959413
 20
2118.506728823522
 30
0.0
 11
1008.666116959413
 21
2057.150720665592
 31
0.0
  0
SPLINE
  5
135
330
87
100
AcDbEntity
  8
P-SANR-FIXT
100
AcDbSpline
210
0.0
220
0.0
230
1.0
 70
     8
 71
     3
 72
    11
 73
     7
 74
     0
 42
0.000000001
 43
0.0000000001
 40
-1.0
 40
-1.0
 40
-1.0
 40
-1.0
 40
-0.75
 40
-0.5
 40
-0.25
 40
0.0
 40
0.0
 40
0.0
 40
0.0
 10
636.9216162231047
 20
1675.399109923422
 30
0.0
 10
634.6911020820871
 20
1677.050247615564
 30
0.0
 10
630.7269902125839
 20
1680.748956658794
 30
0.0
 10
626.1456498660584
 20
1687.641842749443
 30
0.0
 10
623.3069023168585
 20
1695.412986719011
 30
0.0
 10
622.6754434197304
 20
1700.807084100631
 30
0.0
 10
622.6666979269626
 20
1703.588480685031
 30
0.0
  0
LWPOLYLINE
  5
136
330
87
100
AcDbEntity
  8
P-SANR-FIXT
100
AcDbPolyline
 90
        5
 70
   128
 43
0.0
 10
1008.666116959414
 20
1703.588480685031
 10
1007.710652702266
 20
1695.466320402821
 10
1004.89673288743
 20
1687.788219062596
 10
1000.378353430837
 20
1680.973093746428
 10
994.4111986632714
 20
1675.399109923422
  0
LWPOLYLINE
  5
137
330
87
100
AcDbEntity
  8
P-SANR-FIXT
100
AcDbPolyline
 90
        5
 70
   128
 43
0.0
 10
994.4111986632725
 20
1675.399109923423
 10
969.2675993178735
 20
1658.869803662594
 10
942.5198655201963
 20
1645.086578498225
 10
914.4667899126545
 20
1634.203402699633
 10
892.4420165767189
 20
1627.942031894572
  0
LWPOLYLINE
  5
138
330
87
100
AcDbEntity
  8
P-SANR-FIXT
100
AcDbPolyline
 90
        3
 70
   128
 43
0.0
 10
876.7809054716209
 20
1624.626267756241
 10
855.7091875676423
 20
1621.589722612933
 10
832.510764210639
 20
1620.082419528297
  0
SPLINE
  5
139
330
87
100
AcDbEntity
  8
P-SANR-FIXT
100
AcDbSpline
210
0.0
220
0.0
230
1.0
 70
     8
 71
     3
 72
     8
 73
     4
 74
     0
 42
0.000000001
 43
0.0000000001
 40
-0.9620658651392208
 40
-0.9620658651392208
 40
-0.9620658651392208
 40
-0.9620658651392208
 40
-0.9454469164647893
 40
-0.9454469164647893
 40
-0.9454469164647893
 40
-0.9454469164647893
 10
798.8043666849258
 20
1620.083721618761
 30
0.0
 10
797.8028370282044
 20
1620.10789629118
 30
0.0
 10
796.8019818075546
 20
1620.137574316182
 30
0.0
 10
795.8017403347295
 20
1620.172655810227
 30
0.0
  0
SPLINE
  5
13A
330
87
100
AcDbEntity
  8
P-SANR-FIXT
100
AcDbSpline
210
0.0
220
0.0
230
1.0
 70
     8
 71
     3
 72
    12
 73
     8
 74
     0
 42
0.000000001
 43
0.0000000001
 40
-0.9451550208569415
 40
-0.9451550208569415
 40
-0.9451550208569415
 40
-0.9451550208569415
 40
-0.8333333333333332
 40
-0.6666666666666666
 40
-0.3333333333333333
 40
-0.1666666666666666
 40
0.0
 40
0.0
 40
0.0
 40
0.0
 10
795.7487908320248
 20
1620.173790929647
 30
0.0
 10
789.0177458503589
 20
1620.408188596561
 30
0.0
 10
772.3171637338989
 20
1621.582815850524
 30
0.0
 10
735.8652334316088
 20
1627.409684024123
 30
0.0
 10
697.5370186685005
 20
1639.992447111822
 30
0.0
 10
661.7827570707612
 20
1658.420532042958
 30
0.0
 10
645.0354602628575
 20
1669.43166098707
 30
0.0
 10
636.9216162231047
 20
1675.399109923422
 30
0.0
  0
SPLINE
  5
13B
330
87
100
AcDbEntity
  8
P-SANR-FIXT
100
AcDbSpline
210
0.0
220
0.0
230
1.0
 70
     8
 71
     3
 72
    12
 73
     8
 74
     0
 42
0.000000001
 43
0.0000000001
 40
-1.0
 40
-1.0
 40
-1.0
 40
-1.0
 40
-0.7857142857142857
 40
-0.5714285714285714
 40
-0.2857142857142857
 40
-0.1428571428571428
 40
-0.0700920041890268
 40
-0.0700920041890268
 40
-0.0700920041890268
 40
-0.0700920041890268
 10
636.3045298143248
 20
2146.23138986519
 30
0.0
 10
647.2043520073803
 20
2154.625370697493
 30
0.0
 10
670.1357349071364
 20
2169.680652184666
 30
0.0
 10
711.8217399296107
 20
2188.804871295676
 30
0.0
 10
751.8169187230878
 20
2199.182118370926
 30
0.0
 10
783.7861804659969
 20
2202.474005039198
 30
0.0
 10
797.5553951841312
 20
2202.850132715138
 30
0.0
 10
802.2071262617405
 20
2202.858675323479
 30
0.0
  0
LWPOLYLINE
  5
13C
330
87
100
AcDbEntity
  8
P-SANR-FIXT
100
AcDbPolyline
 90
        8
 70
   128
 43
0.0
 10
826.8334611202737
 20
2202.852897162134
 10
843.0684876430227
 20
2202.477868451667
 10
870.3322043087393
 20
2199.664142153807
 10
897.1750619473224
 20
2194.124903612416
 10
923.3257077056896
 20
2185.916085081053
 10
948.5194548881603
 20
2175.120640065589
 10
972.5012553330229
 20
2161.847683247593
 10
995.0282850720512
 20
2146.23138986519
  0
SPLINE
  5
13D
330
87
100
AcDbEntity
  8
P-SANR-FIXT
100
AcDbSpline
210
0.0
220
0.0
230
1.0
 70
     8
 71
     3
 72
    11
 73
     7
 74
     0
 42
0.000000001
 43
0.0000000001
 40
-1.0
 40
-1.0
 40
-1.0
 40
-1.0
 40
-0.75
 40
-0.5
 40
-0.25
 40
0.0
 40
0.0
 40
0.0
 40
0.0
 10
622.6666979269623
 20
2118.506728823522
 30
0.0
 10
622.6747035666646
 20
2121.220830429738
 30
0.0
 10
623.2772760631296
 20
2126.491649758726
 30
0.0
 10
625.9859394546611
 20
2134.098955504901
 30
0.0
 10
630.3640445060728
 20
2140.887652794702
 30
0.0
 10
634.1645613057886
 20
2144.573761804861
 30
0.0
 10
636.3045298143248
 20
2146.23138986519
 30
0.0
  0
ARC
  5
13E
330
87
100
AcDbEntity
  8
P-SANR-FIXT
100
AcDbCircle
 10
973.6661392831623
 20
2118.50672209435
 30
0.0
 40
34.99997794139506
100
AcDbArc
 50
0.0000110158123314
 51
52.38537334860425
  0
LINE
  5
13F
330
87
100
AcDbEntity
  8
P-SANR-FIXT
100
AcDbLine
 10
855.6589039030011
 20
1650.37105705706
 30
0.0
 11
866.0680369872439
 21
1653.160175860891
 31
0.0
  0
LINE
  5
140
330
87
100
AcDbEntity
  8
P-SANR-FIXT
100
AcDbLine
 10
866.0680369872439
 20
1653.160175860891
 30
0.0
 11
887.2597833486016
 21
1658.838487184622
 31
0.0
  0
LINE
  5
141
330
87
100
AcDbEntity
  8
P-SANR-FIXT
100
AcDbLine
 10
887.2597833486016
 20
1658.838487184622
 30
0.0
 11
897.6689164328446
 21
1661.627605988453
 31
0.0
  0
LINE
  5
142
330
87
100
AcDbEntity
  8
P-SANR-FIXT
100
AcDbLine
 10
900.2571068838658
 20
1651.968347725577
 30
0.0
 11
889.8479737996229
 21
1649.179228921745
 31
0.0
  0
LINE
  5
143
330
87
100
AcDbEntity
  8
P-SANR-FIXT
100
AcDbLine
 10
889.8479737996229
 20
1649.179228921745
 30
0.0
 11
868.6562274382652
 21
1643.500917598014
 31
0.0
  0
LINE
  5
144
330
87
100
AcDbEntity
  8
P-SANR-FIXT
100
AcDbLine
 10
868.6562274382652
 20
1643.500917598014
 30
0.0
 11
858.2470943540226
 21
1640.711798794184
 31
0.0
  0
LINE
  5
145
330
87
100
AcDbEntity
  8
P-SANR-FIXT
100
AcDbLine
 10
868.6562274382652
 20
1643.500917598014
 30
0.0
 11
866.0680369872439
 21
1653.160175860891
 31
0.0
  0
LINE
  5
146
330
87
100
AcDbEntity
  8
P-SANR-FIXT
100
AcDbLine
 10
889.8479737996229
 20
1649.179228921745
 30
0.0
 11
887.2597833486016
 21
1658.838487184622
 31
0.0
  0
LINE
  5
147
330
87
100
AcDbEntity
  8
P-SANR-FIXT
100
AcDbLine
 10
868.1464484076332
 20
1643.364322718356
 30
0.0
 11
866.7322348452209
 21
1640.914832975482
 31
0.0
  0
LINE
  5
148
330
87
100
AcDbEntity
  8
P-SANR-FIXT
100
AcDbLine
 10
892.8122321550198
 20
1647.902947193278
 30
0.0
 11
892.7524874422966
 21
1647.937440819252
 31
0.0
  0
LINE
  5
149
330
87
100
AcDbEntity
  8
P-SANR-FIXT
100
AcDbLine
 10
892.7494409973345
 20
1647.939199685071
 30
0.0
 11
890.3627424121545
 21
1649.317160755705
 31
0.0
  0
LINE
  5
14A
330
87
100
AcDbEntity
  8
P-SANR-FIXT
100
AcDbLine
 10
866.7322348451882
 20
1640.914832975474
 30
0.0
 11
867.6381015030344
 21
1637.534092583524
 31
0.0
  0
LINE
  5
14B
330
87
100
AcDbEntity
  8
P-SANR-FIXT
100
AcDbLine
 10
893.7180988128982
 20
1644.522206801337
 30
0.0
 11
892.8122321550523
 21
1647.902947193287
 31
0.0
  0
LINE
  5
14C
330
87
100
AcDbEntity
  8
P-SANR-FIXT
100
AcDbLine
 10
867.6381015030633
 20
1637.534092583532
 30
0.0
 11
867.6978462157908
 21
1637.499598957556
 31
0.0
  0
LINE
  5
14D
330
87
100
AcDbEntity
  8
P-SANR-FIXT
100
AcDbLine
 10
867.7008926607522
 20
1637.497840091738
 30
0.0
 11
870.0875912458595
 21
1636.119879021164
 31
0.0
  0
LINE
  5
14E
330
87
100
AcDbEntity
  8
P-SANR-FIXT
100
AcDbLine
 10
892.3038852504873
 20
1642.072717058541
 30
0.0
 11
893.7180988128693
 21
1644.522206801329
 31
0.0
  0
LINE
  5
14F
330
87
100
AcDbEntity
  8
P-SANR-FIXT
100
AcDbLine
 10
870.0875912458323
 20
1636.119879021157
 30
0.0
 11
870.8640483811421
 21
1633.222101542294
 31
0.0
  0
LINE
  5
150
330
87
100
AcDbEntity
  8
P-SANR-FIXT
100
AcDbLine
 10
893.0803423858238
 20
1639.174939579686
 30
0.0
 11
892.3038852505143
 21
1642.072717058549
 31
0.0
  0
LINE
  5
151
330
87
100
AcDbEntity
  8
P-SANR-FIXT
100
AcDbLine
 10
867.4833079891264
 20
1632.316234884431
 30
0.0
 11
868.4124378906533
 21
1628.848674885116
 31
0.0
  0
LINE
  5
152
330
87
100
AcDbEntity
  8
P-SANR-FIXT
100
AcDbLine
 10
897.3902126793664
 20
1636.613246238235
 30
0.0
 11
896.4610827778395
 21
1640.08080623755
 31
0.0
  0
LINE
  5
153
330
87
100
AcDbEntity
  8
P-SANR-FIXT
100
AcDbLine
 10
875.1739186749036
 20
1630.660408200894
 30
0.0
 11
877.3506173146383
 21
1622.536858284672
 31
0.0
  0
LINE
  5
154
330
87
100
AcDbEntity
  8
P-SANR-FIXT
100
AcDbLine
 10
892.8054305348547
 20
1626.67796300622
 30
0.0
 11
890.6287318951198
 21
1634.801512922442
 31
0.0
  0
LINE
  5
155
330
87
100
AcDbEntity
  8
P-SANR-FIXT
100
AcDbLine
 10
866.7362588849666
 20
1640.915911213683
 30
0.0
 11
892.8082081152702
 21
1647.901868955077
 31
0.0
  0
LINE
  5
156
330
87
100
AcDbEntity
  8
P-SANR-FIXT
100
AcDbLine
 10
867.6421255428417
 20
1637.535170821741
 30
0.0
 11
893.7140747730872
 21
1644.521128563119
 31
0.0
  0
LINE
  5
157
330
87
100
AcDbEntity
  8
P-SANR-FIXT
100
AcDbLine
 10
870.0923268551029
 20
1636.121147923837
 30
0.0
 11
892.2991496412402
 21
1642.071448155868
 31
0.0
  0
LINE
  5
158
330
87
100
AcDbEntity
  8
P-SANR-FIXT
100
AcDbLine
 10
867.4869296603201
 20
1632.317205308302
 30
0.0
 11
896.4574611066423
 21
1640.079835813677
 31
0.0
  0
LINE
  5
159
330
87
100
AcDbEntity
  8
P-SANR-FIXT
100
AcDbLine
 10
868.4160595618468
 20
1628.849645308987
 30
0.0
 11
897.3865910081691
 21
1636.612275814362
 31
0.0
  0
LINE
  5
15A
330
87
100
AcDbEntity
  8
P-SANR-FIXT
100
AcDbLine
 10
877.3506173146364
 20
1622.536858284671
 30
0.0
 11
892.8054305348529
 21
1626.677963006219
 31
0.0
  0
LINE
  5
15B
330
87
100
AcDbEntity
  8
P-SANR-FIXT
100
AcDbLine
 10
804.6664074431896
 20
2240.000000000012
 30
0.0
 11
803.76507566792
 21
2239.479641881657
 31
0.0
  0
LINE
  5
15C
330
87
100
AcDbEntity
  8
P-SANR-FIXT
100
AcDbLine
 10
803.6098245589773
 20
2239.390012094782
 30
0.0
 11
802.9647015210276
 21
2239.01756876221
 31
0.0
  0
LINE
  5
15D
330
87
100
AcDbEntity
  8
P-SANR-FIXT
100
AcDbLine
 10
828.3681133653546
 20
2239.017568762208
 30
0.0
 11
827.7229903274047
 21
2239.39001209478
 31
0.0
  0
LINE
  5
15E
330
87
100
AcDbEntity
  8
P-SANR-FIXT
100
AcDbLine
 10
827.567739218462
 20
2239.479641881656
 30
0.0
 11
826.6664074431899
 21
2240.000000000012
 31
0.0
  0
LINE
  5
15F
330
87
100
AcDbEntity
  8
P-SANR-FIXT
100
AcDbLine
 10
831.1664074431577
 20
2215.000000000022
 30
0.0
 11
831.1664074431577
 21
2231.499999999948
 31
0.0
  0
LINE
  5
160
330
87
100
AcDbEntity
  8
P-SANR-FIXT
100
AcDbLine
 10
800.1664074432246
 20
2231.499999999948
 30
0.0
 11
800.1664074432246
 21
2215.000000000022
 31
0.0
  0
LINE
  5
161
330
87
100
AcDbEntity
  8
P-SANR-FIXT
100
AcDbLine
 10
825.1926868848173
 20
2240.00000000001
 30
0.0
 11
825.7169765672257
 21
2240.00000000001
 31
0.0
  0
LINE
  5
162
330
87
100
AcDbEntity
  8
P-SANR-FIXT
100
AcDbLine
 10
815.666407443188
 20
2240.00000000001
 30
0.0
 11
816.7265152278988
 21
2240.00000000001
 31
0.0
  0
LINE
  5
163
330
87
100
AcDbEntity
  8
P-SANR-FIXT
100
AcDbLine
 10
824.6807619713029
 20
2240.00000000001
 30
0.0
 11
825.1926868848173
 21
2240.00000000001
 31
0.0
  0
LINE
  5
164
330
87
100
AcDbEntity
  8
P-SANR-FIXT
100
AcDbLine
 10
806.1401280015589
 20
2240.00000000001
 30
0.0
 11
806.6520529150617
 21
2240.00000000001
 31
0.0
  0
LINE
  5
165
330
87
100
AcDbEntity
  8
P-SANR-FIXT
100
AcDbLine
 10
814.6062996584747
 20
2240.00000000001
 30
0.0
 11
815.666407443188
 21
2240.00000000001
 31
0.0
  0
LINE
  5
166
330
87
100
AcDbEntity
  8
P-SANR-FIXT
100
AcDbLine
 10
805.6158383191496
 20
2240.00000000001
 30
0.0
 11
806.1401280015589
 21
2240.00000000001
 31
0.0
  0
LINE
  5
167
330
87
100
AcDbEntity
  8
P-SANR-FIXT
100
AcDbLine
 10
804.6664074431877
 20
2240.00000000001
 30
0.0
 11
806.1401280015589
 21
2240.00000000001
 31
0.0
  0
LINE
  5
168
330
87
100
AcDbEntity
  8
P-SANR-FIXT
100
AcDbLine
 10
806.1401280015589
 20
2240.00000000001
 30
0.0
 11
815.666407443188
 21
2240.00000000001
 31
0.0
  0
LINE
  5
169
330
87
100
AcDbEntity
  8
P-SANR-FIXT
100
AcDbLine
 10
815.666407443188
 20
2240.00000000001
 30
0.0
 11
825.1926868848171
 21
2240.00000000001
 31
0.0
  0
LINE
  5
16A
330
87
100
AcDbEntity
  8
P-SANR-FIXT
100
AcDbLine
 10
825.1926868848171
 20
2240.00000000001
 30
0.0
 11
826.6664074431883
 21
2240.00000000001
 31
0.0
  0
LINE
  5
16B
330
87
100
AcDbEntity
  8
P-SANR-FIXT
100
AcDbLine
 10
802.9647015210183
 20
2239.017568762204
 30
0.0
 11
802.9647015210183
 21
2231.499999999947
 31
0.0
  0
SPLINE
  5
16C
330
87
100
AcDbEntity
  8
P-SANR-FIXT
100
AcDbSpline
210
0.0
220
0.0
230
1.0
 70
     8
 71
     3
 72
     9
 73
     5
 74
     0
 42
0.000000001
 43
0.0000000001
 40
0.0
 40
0.0
 40
0.0
 40
0.0
 40
0.5
 40
1.0
 40
1.0
 40
1.0
 40
1.0
 10
809.3155544821039
 20
2239.01756876221
 30
0.0
 10
808.7901559165079
 20
2239.334678590832
 30
0.0
 10
807.7355196041562
 20
2239.815526959088
 30
0.0
 10
806.6732049294831
 20
2239.989632749366
 30
0.0
 10
806.1401280015662
 20
2240.00000000001
 30
0.0
  0
SPLINE
  5
16D
330
87
100
AcDbEntity
  8
P-SANR-FIXT
100
AcDbSpline
210
0.0
220
0.0
230
1.0
 70
     8
 71
     3
 72
     9
 73
     5
 74
     0
 42
0.000000001
 43
0.0000000001
 40
0.0
 40
0.0
 40
0.0
 40
0.0
 40
0.5
 40
1.0
 40
1.0
 40
1.0
 40
1.0
 10
806.1401280015662
 20
2240.00000000001
 30
0.0
 10
805.6070510736477
 20
2239.989632749366
 30
0.0
 10
804.5447363989708
 20
2239.815526959087
 30
0.0
 10
803.4901000866156
 20
2239.334678590829
 30
0.0
 10
802.9647015210183
 20
2239.017568762204
 30
0.0
  0
LINE
  5
16E
330
87
100
AcDbEntity
  8
P-SANR-FIXT
100
AcDbLine
 10
809.3155544821039
 20
2231.499999999947
 30
0.0
 11
809.3155544821039
 21
2239.01756876221
 31
0.0
  0
SPLINE
  5
16F
330
87
100
AcDbEntity
  8
P-SANR-FIXT
100
AcDbSpline
210
0.0
220
0.0
230
1.0
 70
     8
 71
     3
 72
     9
 73
     5
 74
     0
 42
0.000000001
 43
0.0000000001
 40
0.0
 40
0.0
 40
0.0
 40
0.0
 40
0.5
 40
1.0
 40
1.0
 40
1.0
 40
1.0
 10
822.0172604042749
 20
2239.017568762209
 30
0.0
 10
820.9664632730817
 20
2239.334678590834
 30
0.0
 10
818.8571906483742
 20
2239.815526959091
 30
0.0
 10
816.7325612990239
 20
2239.989632749368
 30
0.0
 10
815.666407443188
 20
2240.00000000001
 30
0.0
  0
SPLINE
  5
170
330
87
100
AcDbEntity
  8
P-SANR-FIXT
100
AcDbSpline
210
0.0
220
0.0
230
1.0
 70
     8
 71
     3
 72
     9
 73
     5
 74
     0
 42
0.000000001
 43
0.0000000001
 40
0.0
 40
0.0
 40
0.0
 40
0.0
 40
0.5
 40
1.0
 40
1.0
 40
1.0
 40
1.0
 10
815.666407443188
 20
2240.00000000001
 30
0.0
 10
814.6002535873526
 20
2239.989632749368
 30
0.0
 10
812.475624238003
 20
2239.815526959091
 30
0.0
 10
810.3663516132964
 20
2239.334678590834
 30
0.0
 10
809.3155544821039
 20
2239.01756876221
 30
0.0
  0
LINE
  5
171
330
87
100
AcDbEntity
  8
P-SANR-FIXT
100
AcDbLine
 10
822.0172604042749
 20
2231.499999999947
 30
0.0
 11
822.0172604042749
 21
2239.017568762209
 31
0.0
  0
SPLINE
  5
172
330
87
100
AcDbEntity
  8
P-SANR-FIXT
100
AcDbSpline
210
0.0
220
0.0
230
1.0
 70
     8
 71
     3
 72
     9
 73
     5
 74
     0
 42
0.000000001
 43
0.0000000001
 40
0.0
 40
0.0
 40
0.0
 40
0.0
 40
0.5
 40
1.0
 40
1.0
 40
1.0
 40
1.0
 10
828.3681133653603
 20
2239.017568762202
 30
0.0
 10
827.842714799763
 20
2239.334678590827
 30
0.0
 10
826.7880784874074
 20
2239.815526959086
 30
0.0
 10
825.7257638127304
 20
2239.989632749365
 30
0.0
 10
825.1926868848116
 20
2240.00000000001
 30
0.0
  0
SPLINE
  5
173
330
87
100
AcDbEntity
  8
P-SANR-FIXT
100
AcDbSpline
210
0.0
220
0.0
230
1.0
 70
     8
 71
     3
 72
     9
 73
     5
 74
     0
 42
0.000000001
 43
0.0000000001
 40
0.0
 40
0.0
 40
0.0
 40
0.0
 40
0.5
 40
1.0
 40
1.0
 40
1.0
 40
1.0
 10
825.1926868848116
 20
2240.00000000001
 30
0.0
 10
824.659609956895
 20
2239.989632749365
 30
0.0
 10
823.5972952822223
 20
2239.815526959087
 30
0.0
 10
822.5426589698704
 20
2239.334678590832
 30
0.0
 10
822.0172604042749
 20
2239.017568762209
 30
0.0
  0
LINE
  5
174
330
87
100
AcDbEntity
  8
P-SANR-FIXT
100
AcDbLine
 10
828.3681133653603
 20
2231.499999999947
 30
0.0
 11
828.3681133653603
 21
2239.017568762202
 31
0.0
  0
LINE
  5
175
330
87
100
AcDbEntity
  8
P-SANR-FIXT
100
AcDbLine
 10
800.1664074432229
 20
2231.499999999947
 30
0.0
 11
831.1664074431558
 21
2231.499999999947
 31
0.0
  0
LINE
  5
176
330
87
100
AcDbEntity
  8
P-SANR-FIXT
100
AcDbLine
 10
831.1664074431558
 20
2215.000000000021
 30
0.0
 11
800.1664074432229
 21
2215.000000000021
 31
0.0
  0
LINE
  5
177
330
87
100
AcDbEntity
  8
P-SANR-FIXT
100
AcDbLine
 10
802.2164074431898
 20
2215.000000000022
 30
0.0
 11
802.2164074431898
 21
2202.852837991012
 31
0.0
  0
LINE
  5
178
330
87
100
AcDbEntity
  8
P-SANR-FIXT
100
AcDbLine
 10
802.2164074431898
 20
2202.552574239688
 30
0.0
 11
802.2164074431898
 21
2130.031602169475
 31
0.0
  0
LINE
  5
179
330
87
100
AcDbEntity
  8
P-SANR-FIXT
100
AcDbLine
 10
829.1164074431899
 20
2130.06127005224
 30
0.0
 11
829.1164074431899
 21
2202.552574233386
 31
0.0
  0
LINE
  5
17A
330
87
100
AcDbEntity
  8
P-SANR-FIXT
100
AcDbLine
 10
829.1164074431899
 20
2202.852463472443
 30
0.0
 11
829.1164074431899
 21
2215.000000000022
 31
0.0
  0
LINE
  5
17B
330
87
100
AcDbEntity
  8
P-SANR-FIXT
100
AcDbLine
 10
798.8164074431933
 20
1659.816703775096
 30
0.0
 11
798.8164074431933
 21
1572.999999999962
 31
0.0
  0
LINE
  5
17C
330
87
100
AcDbEntity
  8
P-SANR-FIXT
100
AcDbLine
 10
832.5164074431862
 20
1572.999999999961
 30
0.0
 11
832.5164074431862
 21
1659.820165929543
 31
0.0
  0
LWPOLYLINE
  5
17D
330
87
100
AcDbEntity
  8
P-SANR-FIXT
100
AcDbPolyline
 90
        9
 70
   128
 43
0.0
 10
840.6096532783609
 20
2129.963632850518
 10
844.0345605938327
 20
2129.895125569661
 10
853.0690306533875
 20
2129.352405946183
 10
862.0745711041269
 20
2128.448837998106
 10
871.0367750024099
 20
2127.185867241395
 10
879.9413047338335
 20
2125.565514159844
 10
888.7739149503591
 20
2123.590370972725
 10
897.5204753598303
 20
2121.263597487796
 10
900.2630583851129
 20
2120.456163268113
  0
LWPOLYLINE
  5
17E
330
87
100
AcDbEntity
  8
P-SANR-FIXT
100
AcDbPolyline
 90
        9
 70
   128
 43
0.0
 10
731.069756501267
 20
2120.456163268113
 10
739.7862219277872
 20
2122.893256683429
 10
748.593172854702
 20
2124.979835035088
 10
757.4765200392445
 20
2126.712560242841
 10
766.4220520209322
 20
2128.088660315983
 10
775.4154578568728
 20
2129.10593378795
 10
784.4423500162199
 20
2129.762753238193
 10
793.4882873971526
 20
2130.058067895706
 10
795.114104588361
 20
2130.068338741151
  0
LWPOLYLINE
  5
17F
330
87
100
AcDbEntity
  8
P-SANR-FIXT
100
AcDbPolyline
 90
       12
 70
   128
 43
0.0
 10
796.347200736071
 20
2130.076128632917
 10
796.3626540408313
 20
2130.076128632917
 10
796.408989233121
 20
2130.076128632917
 10
796.4861321865164
 20
2130.076128632917
 10
796.5939594887488
 20
2130.076128632917
 10
796.7322986391364
 20
2130.076128632917
 10
796.9009283245493
 20
2130.076128632917
 10
797.0995787734633
 20
2130.076128632917
 10
797.327932187537
 20
2130.076128632917
 10
797.5856232500201
 20
2130.076128632917
 10
797.8722397101839
 20
2130.076128632917
 10
798.1542104769205
 20
2130.076128632917
  0
LWPOLYLINE
  5
180
330
87
100
AcDbEntity
  8
P-SANR-FIXT
100
AcDbPolyline
 90
        5
 70
   128
 43
0.0
 10
799.0491165223764
 20
2130.076128632917
 10
799.2981108198587
 20
2130.076128632917
 10
799.7215780960027
 20
2130.076128632917
 10
800.1705536977199
 20
2130.076128632917
 10
800.4483527696542
 20
2130.076128632917
  0
LWPOLYLINE
  5
181
330
87
100
AcDbEntity
  8
P-SANR-FIXT
100
AcDbPolyline
 90
        3
 70
   128
 43
0.0
 10
830.9095464398822
 20
2130.076128632917
 10
831.371995890896
 20
2130.076128632917
 10
831.3929587391623
 20
2130.076128632917
  0
LWPOLYLINE
  5
182
330
87
100
AcDbEntity
  8
P-SANR-FIXT
100
AcDbPolyline
 90
       12
 70
   128
 43
0.0
 10
833.4028337477288
 20
2130.076128632917
 10
833.5960359709599
 20
2130.076128632917
 10
833.8693956066331
 20
2130.076128632917
 10
834.1136343443416
 20
2130.076128632917
 10
834.3283614542068
 20
2130.076128632917
 10
834.5132334186589
 20
2130.076128632917
 10
834.6679544819922
 20
2130.076128632917
 10
834.7922771235106
 20
2130.076128632917
 10
834.8860024535081
 20
2130.076128632917
 10
834.948980531451
 20
2130.076128632917
 10
834.9811106058488
 20
2130.076128632917
 10
834.9856141503085
 20
2130.076128632917
  0
LWPOLYLINE
  5
183
330
87
100
AcDbEntity
  8
P-SANR-FIXT
100
AcDbPolyline
 90
       80
 70
   128
 43
0.0
 10
834.9856141503085
 20
2130.076128632917
 10
834.9701608455486
 20
2130.076128632917
 10
834.923825653259
 20
2130.076128632917
 10
834.8466826998635
 20
2130.076128632917
 10
834.7388553976308
 20
2130.076128632917
 10
834.6005162472433
 20
2130.076128632917
 10
834.4318865618303
 20
2130.076128632917
 10
834.2332361129162
 20
2130.076128632917
 10
834.0048826988429
 20
2130.076128632917
 10
833.7471916363597
 20
2130.076128632917
 10
833.460575176196
 20
2130.076128632917
 10
833.1454918435458
 20
2130.076128632917
 10
832.8024457045277
 20
2130.076128632917
 10
832.4319855597845
 20
2130.076128632917
 10
832.0347040665209
 20
2130.076128632917
 10
831.611236790377
 20
2130.076128632917
 10
831.1622611886596
 20
2130.076128632917
 10
830.6884955265555
 20
2130.076128632917
 10
830.1906977280589
 20
2130.076128632917
 10
829.6696641634566
 20
2130.076128632917
 10
829.1262283753042
 20
2130.076128632917
 10
828.5612597449357
 20
2130.076128632917
 10
827.9756621016394
 20
2130.076128632917
 10
827.3703722767239
 20
2130.076128632917
 10
826.7463586047876
 20
2130.076128632917
 10
826.1046193745894
 20
2130.076128632917
 10
825.4461812320007
 20
2130.076128632917
 10
824.7720975375905
 20
2130.076128632917
 10
824.0834466814728
 20
2130.076128632917
 10
823.3813303581133
 20
2130.076128632917
 10
822.6668718038521
 20
2130.076128632917
 10
821.9412139999667
 20
2130.076128632917
 10
821.2055178441444
 20
2130.076128632917
 10
820.4609602932945
 20
2130.076128632917
 10
819.708732480668
 20
2130.076128632917
 10
818.950037810298
 20
2130.076128632917
 10
818.186090031811
 20
2130.076128632917
 10
817.4181112986861
 20
2130.076128632917
 10
816.647330213069
 20
2130.076128632917
 10
815.8749798602727
 20
2130.076128632917
 10
815.1022958361021
 20
2130.076128632917
 10
814.3305142701654
 20
2130.076128632917
 10
813.5608698483302
 20
2130.076128632917
 10
812.7945938374894
 20
2130.076128632917
 10
812.0329121157967
 20
2130.076128632917
 10
811.2770432115237
 20
2130.076128632917
 10
810.5281963536734
 20
2130.076128632917
 10
809.7875695374732
 20
2130.076128632917
 10
809.0563476078369
 20
2130.076128632917
 10
808.3357003638665
 20
2130.076128632917
 10
807.626780687422
 20
2130.076128632917
 10
806.9307226987579
 20
2130.076128632917
 10
806.2486399421715
 20
2130.076128632917
 10
805.5816236045702
 20
2130.076128632917
 10
804.9307407698048
 20
2130.076128632917
 10
804.2970327115634
 20
2130.076128632917
 10
803.6815132275552
 20
2130.076128632917
 10
803.0851670176513
 20
2130.076128632917
 10
802.5089481085734
 20
2130.076128632917
 10
801.9537783276556
 20
2130.076128632917
 10
801.420545828118
 20
2130.076128632917
 10
800.9101036682094
 20
2130.076128632917
 10
800.4232684464975
 20
2130.076128632917
 10
799.9608189954837
 20
2130.076128632917
 10
799.5234951356394
 20
2130.076128632917
 10
799.1119964918497
 20
2130.076128632917
 10
798.7269813741628
 20
2130.076128632917
 10
798.3690657246349
 20
2130.076128632917
 10
798.0388221319539
 20
2130.076128632917
 10
797.7367789154198
 20
2130.076128632917
 10
797.4634192797467
 20
2130.076128632917
 10
797.219180542038
 20
2130.076128632917
 10
797.0044534321727
 20
2130.076128632917
 10
796.8195814677207
 20
2130.076128632917
 10
796.6648604043874
 20
2130.076128632917
 10
796.5405377628692
 20
2130.076128632917
 10
796.4468124328714
 20
2130.076128632917
 10
796.3838343549288
 20
2130.076128632917
 10
796.3517042805311
 20
2130.076128632917
 10
796.347200736071
 20
2130.076128632917
  0
LWPOLYLINE
  5
184
330
87
100
AcDbEntity
  8
P-SANR-FIXT
100
AcDbPolyline
 90
        3
 70
   128
 43
0.0
 10
904.5209764391094
 20
1673.612343338302
 10
898.7484270321559
 20
1671.154056749523
 10
894.7599319089723
 20
1669.611807542225
  0
LWPOLYLINE
  5
185
330
87
100
AcDbEntity
  8
P-SANR-FIXT
100
AcDbPolyline
 90
        4
 70
   128
 43
0.0
 10
853.7467148106882
 20
1660.399678718311
 10
847.4864137364201
 20
1659.982389768291
 10
841.2144331280067
 20
1659.81577987669
 10
840.3950693218899
 20
1659.813093208576
  0
LWPOLYLINE
  5
186
330
87
100
AcDbEntity
  8
P-SANR-FIXT
100
AcDbPolyline
 90
       12
 70
   128
 43
0.0
 10
787.4397099212963
 20
1659.886564153274
 10
784.8741450158597
 20
1659.937882293984
 10
778.6112420318551
 20
1660.314108052325
 10
772.3683937198106
 20
1660.940482190593
 10
766.1555873052882
 20
1661.816002643788
 10
759.9827619532235
 20
1662.93926876595
 10
753.8597928673807
 20
1664.308483570903
 10
747.7964754921331
 20
1665.921456607042
 10
741.8025098418425
 20
1667.775607461592
 10
735.887484982905
 20
1669.867969888717
 10
730.0608636932901
 20
1672.195196554878
 10
726.8118384472702
 20
1673.612343338302
  0
LWPOLYLINE
  5
187
330
87
100
AcDbEntity
  8
P-SANR-FIXT
100
AcDbPolyline
 90
       10
 70
   128
 43
0.0
 10
840.1857315233147
 20
1659.812406796528
 10
840.1661186793056
 20
1659.812406796528
 10
840.1073115236451
 20
1659.812406796528
 10
840.0094041352375
 20
1659.812406796528
 10
839.872553145018
 20
1659.812406796528
 10
839.6969774853781
 20
1659.812406796528
 10
839.4829580399189
 20
1659.812406796528
 10
839.2308371940982
 20
1659.812406796528
 10
838.9410182874859
 20
1659.812406796528
 10
838.917482784044
 20
1659.812406796528
  0
LWPOLYLINE
  5
188
330
87
100
AcDbEntity
  8
P-SANR-FIXT
100
AcDbPolyline
 90
       10
 70
   128
 43
0.0
 10
792.5491736885856
 20
1659.812406796528
 10
792.2537724615339
 20
1659.812406796528
 10
791.9812476278078
 20
1659.812406796528
 10
791.7466139972217
 20
1659.812406796528
 10
791.5502469335322
 20
1659.812406796528
 10
791.3924605821515
 20
1659.812406796528
 10
791.2735073675829
 20
1659.812406796528
 10
791.193577589594
 20
1659.812406796528
 10
791.1527991187787
 20
1659.812406796528
 10
791.1470833630649
 20
1659.812406796528
  0
LWPOLYLINE
  5
189
330
87
100
AcDbEntity
  8
P-SANR-FIXT
100
AcDbPolyline
 90
       80
 70
   128
 43
0.0
 10
791.1470833630649
 20
1659.812406796528
 10
791.1666962070739
 20
1659.812406796528
 10
791.2255033627344
 20
1659.812406796528
 10
791.3234107511422
 20
1659.812406796528
 10
791.4602617413615
 20
1659.812406796528
 10
791.6358374010016
 20
1659.812406796528
 10
791.8498568464608
 20
1659.812406796528
 10
792.1019776922816
 20
1659.812406796528
 10
792.3917965988937
 20
1659.812406796528
 10
792.718849917871
 20
1659.812406796528
 10
793.0826144336712
 20
1659.812406796528
 10
793.4825082006677
 20
1659.812406796528
 10
793.9178914741392
 20
1659.812406796528
 10
794.3880677337255
 20
1659.812406796528
 10
794.8922847977097
 20
1659.812406796528
 10
795.4297360263503
 20
1659.812406796528
 10
795.9995616123316
 20
1659.812406796528
 10
796.6008499562721
 20
1659.812406796528
 10
797.2326391250897
 20
1659.812406796528
 10
797.8939183908888
 20
1659.812406796528
 10
798.5836298479094
 20
1659.812406796528
 10
799.3006701049509
 20
1659.812406796528
 10
800.0438920505626
 20
1659.812406796528
 10
800.8121066881766
 20
1659.812406796528
 10
801.6040850382506
 20
1659.812406796528
 10
802.4185601043702
 20
1659.812406796528
 10
803.2542289001751
 20
1659.812406796528
 10
804.1097545338589
 20
1659.812406796528
 10
804.9837683469096
 20
1659.812406796528
 10
805.874872103673
 20
1659.812406796528
 10
806.78164022823
 20
1659.812406796528
 10
807.7026220850152
 20
1659.812406796528
 10
808.6363442995232
 20
1659.812406796528
 10
809.581313115394
 20
1659.812406796528
 10
810.5360167841052
 20
1659.812406796528
 10
811.4989279834459
 20
1659.812406796528
 10
812.4685062609074
 20
1659.812406796528
 10
813.4432004980784
 20
1659.812406796528
 10
814.4214513921021
 20
1659.812406796528
 10
815.4016939502312
 20
1659.812406796528
 10
816.3823599934799
 20
1659.812406796528
 10
817.3618806653767
 20
1659.812406796528
 10
818.3386889417997
 20
1659.812406796528
 10
819.3112221378809
 20
1659.812406796528
 10
820.2779244079698
 20
1659.812406796528
 10
821.2372492346529
 20
1659.812406796528
 10
822.1876619028527
 20
1659.812406796528
 10
823.1276419550434
 20
1659.812406796528
 10
824.0556856236604
 20
1659.812406796528
 10
824.9703082368061
 20
1659.812406796528
 10
825.8700465934081
 20
1659.812406796528
 10
826.75346130403
 20
1659.812406796528
 10
827.6191390935865
 20
1659.812406796528
 10
828.4656950622828
 20
1659.812406796528
 10
829.2917749011573
 20
1659.812406796528
 10
830.0960570586894
 20
1659.812406796528
 10
830.8772548549974
 20
1659.812406796528
 10
831.6341185402546
 20
1659.812406796528
 10
832.3654372940195
 20
1659.812406796528
 10
833.0700411622929
 20
1659.812406796528
 10
833.7468029291931
 20
1659.812406796528
 10
834.3946399202609
 20
1659.812406796528
 10
835.0125157345086
 20
1659.812406796528
 10
835.5994419024398
 20
1659.812406796528
 10
836.1544794673902
 20
1659.812406796528
 10
836.6767404876572
 20
1659.812406796528
 10
837.1653894570187
 20
1659.812406796528
 10
837.6196446413629
 20
1659.812406796528
 10
838.0387793292975
 20
1659.812406796528
 10
838.4221229947323
 20
1659.812406796528
 10
838.7690623695785
 20
1659.812406796528
 10
839.0790424248459
 20
1659.812406796528
 10
839.3515672585719
 20
1659.812406796528
 10
839.586200889158
 20
1659.812406796528
 10
839.7825679528475
 20
1659.812406796528
 10
839.940354304228
 20
1659.812406796528
 10
840.0593075187968
 20
1659.812406796528
 10
840.1392372967858
 20
1659.812406796528
 10
840.1800157676008
 20
1659.812406796528
 10
840.1857315233147
 20
1659.812406796528
  0
LINE
  5
18A
330
87
100
AcDbEntity
  8
P-SANR-FIXT
100
AcDbLine
 10
706.1664074431899
 20
2086.944111111359
 30
0.0
 11
706.1664074431899
 21
2057.159999999997
 31
0.0
  0
LINE
  5
18B
330
87
100
AcDbEntity
  8
P-SANR-FIXT
100
AcDbLine
 10
925.1664074431898
 20
2057.159999999996
 30
0.0
 11
925.1664074431898
 21
2086.944111111359
 31
0.0
  0
LINE
  5
18C
330
87
100
AcDbEntity
  8
P-SANR-FIXT
100
AcDbLine
 10
706.1664074431901
 20
1942.839999999995
 30
0.0
 11
706.1664074431901
 21
1705.533282374323
 31
0.0
  0
LINE
  5
18D
330
87
100
AcDbEntity
  8
P-SANR-FIXT
100
AcDbLine
 10
925.1664074431895
 20
1705.533282374323
 30
0.0
 11
925.1664074431895
 21
1942.839999999996
 31
0.0
  0
LINE
  5
18E
330
87
100
AcDbEntity
  8
P-SANR-FIXT
100
AcDbLine
 10
853.746714810687
 20
1660.399678718311
 30
0.0
 11
855.9700701123725
 21
1652.102003769143
 31
0.0
  0
LINE
  5
18F
330
87
100
AcDbEntity
  8
P-SANR-FIXT
100
AcDbLine
 10
896.5389548165134
 20
1662.972403663449
 30
0.0
 11
894.7599319089713
 21
1669.611807542225
 31
0.0
  0
LWPOLYLINE
  5
190
330
87
100
AcDbEntity
  8
P-SANR-FIXT
100
AcDbPolyline
 90
       28
 70
   128
 43
0.0
 10
896.5389548165134
 20
1662.97240366345
 10
896.5461995011514
 20
1662.943028321515
 10
896.552263690449
 20
1662.913386766605
 10
896.5571376829968
 20
1662.883526418885
 10
896.5608136814466
 20
1662.853495048542
 10
896.5632858049849
 20
1662.823340699361
 10
896.5645500987417
 20
1662.793111611869
 10
896.5646045401161
 20
1662.762856146157
 10
896.5634490420141
 20
1662.732622704516
 10
896.561085452986
 20
1662.702459654004
 10
896.5575175542701
 20
1662.672415249067
 10
896.5527510537429
 20
1662.642537554343
 10
896.5467935767888
 20
1662.61287436777
 10
896.5396546540999
 20
1662.583473144119
 10
896.5313457064295
 20
1662.554380919077
 10
896.5218800263217
 20
1662.525644233997
 10
896.5112727568453
 20
1662.497309061445
 10
896.4995408673686
 20
1662.469420731653
 10
896.4867031264123
 20
1662.442023859998
 10
896.472780071623
 20
1662.415162275632
 10
896.4577939769187
 20
1662.38887895136
 10
896.441768816854
 20
1662.363215934893
 10
896.4247302282661
 20
1662.338214281582
 10
896.4067054692625
 20
1662.313913988742
 10
896.387723375612
 20
1662.290353931654
 10
896.3678143146157
 20
1662.267571801387
 10
896.347010136524
 20
1662.245604044487
 10
896.3431741791877
 20
1662.241740377812
  0
LWPOLYLINE
  5
191
330
87
100
AcDbEntity
  8
P-SANR-FIXT
100
AcDbPolyline
 90
       28
 70
   128
 43
0.0
 10
856.5049527606843
 20
1651.567121120831
 10
856.4758906260047
 20
1651.57553471086
 10
856.4471881917963
 20
1651.585103746329
 10
856.4188913758314
 20
1651.595812918825
 10
856.3910454469786
 20
1651.607645095955
 10
856.3636949527845
 20
1651.62058134876
 10
856.3368836482048
 20
1651.634600981995
 10
856.3106544256077
 20
1651.649681567237
 10
856.2850492461542
 20
1651.665798978768
 10
856.2601090726689
 20
1651.682927432166
 10
856.2358738041094
 20
1651.701039525562
 10
856.2123822117357
 20
1651.720106283467
 10
856.1896718770835
 20
1651.740097203139
 10
856.1677791318443
 20
1651.760980303368
 10
856.1467389997401
 20
1651.78272217565
 10
856.126585140494
 20
1651.805288037628
 10
856.1073497959817
 20
1651.828641788735
 10
856.0890637386505
 20
1651.852746067953
 10
856.0717562222921
 20
1651.877562313575
 10
856.0554549352401
 20
1651.903050824904
 10
856.040185956076
 20
1651.929170825757
 10
856.0259737119103
 20
1651.955880529707
 10
856.0128409393012
 20
1651.983137206924
 10
856.0008086478834
 20
1652.010897252539
 10
855.9898960867563
 20
1652.0391162564
 10
855.9801207136901
 20
1652.067749074123
 10
855.9714981671964
 20
1652.096749899305
 10
855.9700701123725
 20
1652.102003769143
  0
LINE
  5
192
330
87
100
AcDbEntity
  8
P-SANR-FIXT
100
AcDbLine
 10
856.5049527606843
 20
1651.567121120831
 30
0.0
 11
857.911570235063
 21
1651.190219104512
 31
0.0
  0
LINE
  5
193
330
87
100
AcDbEntity
  8
P-SANR-FIXT
100
AcDbLine
 10
895.3134587211286
 20
1661.212024919752
 30
0.0
 11
896.3431741791877
 21
1662.241740377812
 31
0.0
  0
LWPOLYLINE
  5
194
330
87
100
AcDbEntity
  8
P-SANR-FIXT
100
AcDbPolyline
 90
       15
 70
   128
 43
0.0
 10
895.3134587211286
 20
1661.212024919752
 10
895.2686333542079
 20
1661.168957640179
 10
895.2221216109645
 20
1661.127717346415
 10
895.1739979002653
 20
1661.08837001413
 10
895.1243392097815
 20
1661.050978590664
 10
895.073224982825
 20
1661.015602894318
 10
895.0207369912547
 20
1660.982299518658
 10
894.9669592046605
 20
1660.951121741984
 10
894.9119776560291
 20
1660.922119442085
 10
894.8558803041093
 20
1660.895339016454
 10
894.7987568926974
 20
1660.87082330806
 10
894.740698807066
 20
1660.848611536808
 10
894.6817989277672
 20
1660.828739236792
 10
894.6221514820431
 20
1660.811238199452
 10
894.6167516340475
 20
1660.80978089548
  0
LWPOLYLINE
  5
195
330
87
100
AcDbEntity
  8
P-SANR-FIXT
100
AcDbPolyline
 90
       15
 70
   128
 43
0.0
 10
858.6807687436039
 20
1651.181515832601
 10
858.6557047373343
 20
1651.17533442979
 10
858.5948042392285
 20
1651.162875159352
 10
858.5334542170967
 20
1651.152861225372
 10
858.4717528178861
 20
1651.145308648009
 10
858.4097987506735
 20
1651.140229509775
 10
858.3476911287506
 20
1651.137631936207
 10
858.2855293110632
 20
1651.13752008287
 10
858.2234127432593
 20
1651.139894128705
 10
858.1614407985965
 20
1651.144750275745
 10
858.0997126189663
 20
1651.15208075519
 10
858.0383269562879
 20
1651.161873839838
 10
857.9773820145272
 20
1651.174113862841
 10
857.9169752925896
 20
1651.188781242776
 10
857.9115702350629
 20
1651.190219104512
  0
LWPOLYLINE
  5
196
330
87
100
AcDbEntity
  8
P-SANR-FIXT
100
AcDbPolyline
 90
        3
 70
   128
 43
0.0
 10
858.7500962318751
 20
1651.199339545263
 10
858.7202427299754
 20
1651.191340323537
 10
858.7160582836078
 20
1651.190219104512
  0
LWPOLYLINE
  5
197
330
87
100
AcDbEntity
  8
P-SANR-FIXT
100
AcDbPolyline
 90
        3
 70
   128
 43
0.0
 10
858.7160582836078
 20
1651.190219104512
 10
858.7304166463466
 20
1651.194066416212
 10
858.7602775874129
 20
1651.202067631256
  0
LWPOLYLINE
  5
198
330
87
100
AcDbEntity
  8
P-SANR-FIXT
100
AcDbPolyline
 90
        3
 70
   128
 43
0.0
 10
894.5827136857802
 20
1660.80066045473
 10
894.6125671876805
 20
1660.808659676455
 10
894.6167516340475
 20
1660.80978089548
  0
LWPOLYLINE
  5
199
330
87
100
AcDbEntity
  8
P-SANR-FIXT
100
AcDbPolyline
 90
       30
 70
   128
 43
0.0
 10
925.1664074431911
 20
1705.533282374324
 10
925.138411176325
 20
1704.133655677791
 10
925.0544671637825
 20
1702.736268085403
 10
924.9147096980763
 20
1701.343355119211
 10
924.719362361338
 20
1699.957145142825
 10
924.4687376676344
 20
1698.579855796497
 10
924.163236563012
 20
1697.213690449374
 10
923.8033477840678
 20
1695.86083467458
 10
923.3896470760766
 20
1694.52345275276
 10
922.9227962719187
 20
1693.203684209695
 10
922.4035422332919
 20
1691.903640393521
 10
921.8327156558897
 20
1690.625401097014
 10
921.211229740466
 20
1689.371011230372
 10
920.5400787319089
 20
1688.142477549793
 10
919.8203363286605
 20
1686.941765447093
 10
919.0531539650299
 20
1685.770795805497
 10
918.2397589691415
 20
1684.63144192664
 10
917.3814525994735
 20
1683.525526533677
 10
916.4796079631223
 20
1682.454818855322
 10
915.5356678191227
 20
1681.421031795454
 10
914.5511422703417
 20
1680.42581919284
 10
913.5276063476368
 20
1679.470773175343
 10
912.4666974901414
 20
1678.557421612859
 10
911.3701129257121
 20
1677.687225673051
 10
910.239606955727
 20
1676.861577483788
 10
909.076988148576
 20
1676.081797906047
 10
907.8841164463382
 20
1675.349134420806
 10
906.6629001892719
 20
1674.664759133351
 10
905.415293062876
 20
1674.029766898146
 10
904.5209764391087
 20
1673.612343338302
  0
LWPOLYLINE
  5
19A
330
87
100
AcDbEntity
  8
P-SANR-FIXT
100
AcDbPolyline
 90
       30
 70
   128
 43
0.0
 10
726.8118384472709
 20
1673.612343338302
 10
725.5468234727326
 20
1674.211906341495
 10
724.3067965005471
 20
1674.861576864803
 10
723.0937413093442
 20
1675.560315573978
 10
721.9095985286592
 20
1676.307004636143
 10
720.7562625343373
 20
1677.100449508081
 10
719.6355784179375
 20
1677.939380847258
 10
718.5493390349793
 20
1678.822456542493
 10
717.4992821367573
 20
1679.748263861054
 10
716.4870875903079
 20
1680.715321708725
 10
715.5143746909825
 20
1681.722082999245
 10
714.5826995719188
 20
1682.766937129314
 10
713.6935527145606
 20
1683.848212555213
 10
712.8483565642049
 20
1684.964179466922
 10
712.0484632543939
 20
1686.113052555441
 10
711.2951524437879
 20
1687.292993868909
 10
710.5896292689865
 20
1688.502115752931
 10
709.9330224165656
 20
1689.738483870426
 10
709.3263823174206
 20
1691.00012029615
 10
708.7706794663005
 20
1692.285006680956
 10
708.2668028692231
 20
1693.591087480724
 10
707.8155586212564
 20
1694.916273244789
 10
707.4176686169363
 20
1696.25844395862
 10
707.073769395391
 20
1697.61545243539
 10
706.7844111220144
 20
1698.985127751015
 10
706.5500567083167
 20
1700.365278717172
 10
706.3710810713671
 20
1701.753697386732
 10
706.2477705340054
 20
1703.148162586004
 10
706.1803223667866
 20
1704.546443468138
 10
706.1664074431886
 20
1705.533282374324
  0
LWPOLYLINE
  5
19B
330
87
100
AcDbEntity
  8
P-SANR-FIXT
100
AcDbPolyline
 90
       33
 70
   128
 43
0.0
 10
900.2630583851125
 20
2120.456163268113
 10
901.5951067942541
 20
2120.025598852134
 10
902.9088717224263
 20
2119.542111112777
 10
904.2022514259993
 20
2119.006473527286
 10
905.4731767733532
 20
2118.419543001536
 10
906.7196145550491
 20
2117.782258499163
 10
907.9395707365284
 20
2117.095639539423
 10
909.1310936481443
 20
2116.360784566181
 10
910.2922771074164
 20
2115.578869190634
 10
911.4212634685154
 20
2114.751144310583
 10
912.5162465941015
 20
2113.878934109263
 10
913.5754747447574
 20
2112.963633936936
 10
914.597253381399
 20
2112.006708078624
 10
915.5799478761753
 20
2111.009687411566
 10
916.5219861275247
 20
2109.974166956143
 10
917.421861075203
 20
2108.901803324186
 10
918.2781331112568
 20
2107.794312068746
 10
919.0894323830898
 20
2106.653464939579
 10
919.8544609849353
 20
2105.481087048726
 10
920.5719950342277
 20
2104.279053950716
 10
921.2408866295536
 20
2103.049288642087
 10
921.8600656870505
 20
2101.793758484998
 10
922.42854165231
 20
2100.514472059866
 10
922.9454050850566
 20
2099.213475952073
 10
923.409829114056
 20
2097.892851477859
 10
923.8210707599339
 20
2096.554711354666
 10
924.1784721237834
 20
2095.201196321236
 10
924.4814614396643
 20
2093.834471712886
 10
924.7295539893052
 20
2092.45672399744
 10
924.9223528775505
 20
2091.070157277338
 10
925.0595496673067
 20
2089.676989763546
 10
925.1409248729782
 20
2088.279450226894
 10
925.1664074431904
 20
2086.944111111359
  0
LWPOLYLINE
  5
19C
330
87
100
AcDbEntity
  8
P-SANR-FIXT
100
AcDbPolyline
 90
       33
 70
   128
 43
0.0
 10
706.1664074431893
 20
2086.944111111359
 10
706.1944037100549
 20
2088.343737807891
 10
706.2783477225974
 20
2089.74112540028
 10
706.4181051883037
 20
2091.134038366472
 10
706.6134525250423
 20
2092.520248342858
 10
706.8640772187458
 20
2093.897537689187
 10
707.1695783233682
 20
2095.263703036309
 10
707.5294671023121
 20
2096.616558811103
 10
707.9431678103039
 20
2097.953940732923
 10
708.4100186144614
 20
2099.273709275987
 10
708.9292726530883
 20
2100.573753092162
 10
709.5000992304906
 20
2101.851992388669
 10
710.1215851459143
 20
2103.106382255311
 10
710.7927361544715
 20
2104.33491593589
 10
711.5124785577196
 20
2105.53562803859
 10
712.2796609213504
 20
2106.706597680186
 10
713.093055917239
 20
2107.845951559043
 10
713.9513622869067
 20
2108.951866952006
 10
714.8532069232579
 20
2110.022574630361
 10
715.7971470672576
 20
2111.056361690229
 10
716.7816726160386
 20
2112.051574292843
 10
717.8052085387434
 20
2113.006620310339
 10
718.8661173962389
 20
2113.919971872823
 10
719.9627019606681
 20
2114.790167812632
 10
721.0932079306533
 20
2115.615816001894
 10
722.2558267378044
 20
2116.395595579636
 10
723.4486984400421
 20
2117.128259064876
 10
724.6699146971084
 20
2117.812634352333
 10
725.9175218235043
 20
2118.447626587537
 10
727.1895239139698
 20
2119.032219918371
 10
728.4838860365056
 20
2119.565479120212
 10
729.798537487832
 20
2120.046551092093
 10
731.069756501267
 20
2120.456163268113
  0
LINE
  5
19D
330
87
100
AcDbEntity
  8
P-SANR-FIXT
100
AcDbLine
 10
1050.66640744319
 20
2078.999999999996
 30
0.0
 11
1048.66640744319
 21
2078.999999999996
 31
0.0
  0
LINE
  5
19E
330
87
100
AcDbEntity
  8
P-SANR-FIXT
100
AcDbLine
 10
1048.66640744319
 20
1920.999999999995
 30
0.0
 11
1050.66640744319
 21
1920.999999999995
 31
0.0
  0
LINE
  5
19F
330
87
100
AcDbEntity
  8
P-SANR-FIXT
100
AcDbLine
 10
1048.66640744319
 20
2109.999999999994
 30
0.0
 11
1030.66640744319
 21
2109.999999999994
 31
0.0
  0
LINE
  5
1A0
330
87
100
AcDbEntity
  8
P-SANR-FIXT
100
AcDbLine
 10
1030.66640744319
 20
1889.999999999998
 30
0.0
 11
1048.66640744319
 21
1889.999999999998
 31
0.0
  0
LINE
  5
1A1
330
87
100
AcDbEntity
  8
P-SANR-FIXT
100
AcDbLine
 10
1030.66640744319
 20
2057.159999999996
 30
0.0
 11
925.1664074431898
 21
2057.159999999996
 31
0.0
  0
LINE
  5
1A2
330
87
100
AcDbEntity
  8
P-SANR-FIXT
100
AcDbLine
 10
925.1664074431895
 20
1942.839999999996
 30
0.0
 11
1030.66640744319
 21
1942.839999999996
 31
0.0
  0
LINE
  5
1A3
330
87
100
AcDbEntity
  8
P-SANR-FIXT
100
AcDbLine
 10
706.1664074431899
 20
2057.159999999997
 30
0.0
 11
600.6664074431893
 21
2057.159999999997
 31
0.0
  0
LINE
  5
1A4
330
87
100
AcDbEntity
  8
P-SANR-FIXT
100
AcDbLine
 10
600.6664074431893
 20
1942.839999999995
 30
0.0
 11
706.1664074431901
 21
1942.839999999995
 31
0.0
  0
LINE
  5
1A5
330
87
100
AcDbEntity
  8
P-SANR-FIXT
100
AcDbLine
 10
600.6664074431893
 20
2109.999999999996
 30
0.0
 11
582.6664074431896
 21
2109.999999999996
 31
0.0
  0
LINE
  5
1A6
330
87
100
AcDbEntity
  8
P-SANR-FIXT
100
AcDbLine
 10
582.6664074431896
 20
1889.999999999995
 30
0.0
 11
600.6664074431893
 21
1889.999999999995
 31
0.0
  0
LINE
  5
1A7
330
87
100
AcDbEntity
  8
P-SANR-FIXT
100
AcDbLine
 10
582.6664074431893
 20
2078.999999999996
 30
0.0
 11
580.6664074431895
 21
2078.999999999996
 31
0.0
  0
LINE
  5
1A8
330
87
100
AcDbEntity
  8
P-SANR-FIXT
100
AcDbLine
 10
580.6664074431895
 20
1920.999999999995
 30
0.0
 11
582.6664074431893
 21
1920.999999999995
 31
0.0
  0
SPLINE
  5
1A9
330
87
100
AcDbEntity
  8
P-SANR-FIXT
100
AcDbSpline
210
0.0
220
0.0
230
1.0
 70
     8
 71
     3
 72
    16
 73
    12
 74
     0
 42
0.000000001
 43
0.0000000001
 40
-0.9951837743113051
 40
-0.9951837743113051
 40
-0.9951837743113051
 40
-0.9951837743113051
 40
-0.8888888888888889
 40
-0.7777777777777778
 40
-0.6666666666666666
 40
-0.5555555555555556
 40
-0.4444444444444445
 40
-0.3333333333333333
 40
-0.2222222222222222
 40
-0.1111111111111111
 40
-0.0050219501861436
 40
-0.0050219501861436
 40
-0.0050219501861436
 40
-0.0050219501861436
 10
853.7496006172352
 20
1660.39824206136
 30
0.0
 10
853.7883295383243
 20
1660.390973803161
 30
0.0
 10
854.6569184223356
 20
1660.52457728396
 30
0.0
 10
858.3015327391308
 20
1661.076756235755
 30
0.0
 10
863.916822074611
 20
1662.125341209281
 30
0.0
 10
870.7640624510601
 20
1663.589636239977
 30
0.0
 10
878.0011743970945
 20
1665.289396193181
 30
0.0
 10
884.8023910537181
 20
1666.989119983945
 30
0.0
 10
890.3170508986598
 20
1668.424074724052
 30
0.0
 10
893.8885934686714
 20
1669.37757195849
 30
0.0
 10
894.6866089959762
 20
1669.590583396657
 30
0.0
 10
894.7527147636074
 20
1669.609667023956
 30
0.0
  0
SPLINE
  5
1AA
330
87
100
AcDbEntity
  8
P-SANR-FIXT
100
AcDbSpline
210
0.0
220
0.0
230
1.0
 70
     8
 71
     3
 72
    19
 73
    15
 74
     0
 42
0.000000001
 43
0.0000000001
 40
0.0036296252768271
 40
0.0036296252768271
 40
0.0036296252768271
 40
0.0036296252768271
 40
0.1428571428571428
 40
0.2857142857142857
 40
0.4285714285714286
 40
0.5714285714285714
 40
0.625
 40
0.6785714285714287
 40
0.7053571428571429
 40
0.7321428571428572
 40
0.7857142857142857
 40
0.8392857142857142
 40
0.8928571428571427
 40
1.0
 40
1.0
 40
1.0
 40
1.0
 10
706.1669205676833
 20
2057.157276861849
 30
0.0
 10
706.1800363423964
 20
2057.111013933242
 30
0.0
 10
706.7155638816992
 20
2056.127444513129
 30
0.0
 10
708.9101059696072
 20
2051.783130584423
 30
0.0
 10
712.1013379673764
 20
2044.938843534147
 30
0.0
 10
714.9672671197969
 20
2037.845878653165
 30
0.0
 10
716.9859759580729
 20
2031.922042372585
 30
0.0
 10
718.0278921305544
 20
2028.532267804036
 30
0.0
 10
718.7993725225635
 20
2025.731021205288
 30
0.0
 10
719.5213708783276
 20
2022.873861665368
 30
0.0
 10
720.3605728775349
 20
2019.137402262284
 30
0.0
 10
721.1938704356493
 20
2014.498396540022
 30
0.0
 10
721.9881119747292
 20
2008.226305660379
 30
0.0
 10
722.2516927522772
 20
2003.336527477318
 30
0.0
 10
722.2694888644692
 20
1999.999999999995
 30
0.0
  0
SPLINE
  5
1AB
330
87
100
AcDbEntity
  8
P-SANR-FIXT
100
AcDbSpline
210
0.0
220
0.0
230
1.0
 70
     8
 71
     3
 72
    18
 73
    14
 74
     0
 42
0.000000001
 43
0.0000000001
 40
0.0
 40
0.0
 40
0.0
 40
0.0
 40
0.1428571428571428
 40
0.2142857142857143
 40
0.2857142857142857
 40
0.4285714285714286
 40
0.5714285714285714
 40
0.6785714285714287
 40
0.7321428571428572
 40
0.7857142857142857
 40
0.8392857142857142
 40
0.8928571428571427
 40
0.9963703747231452
 40
0.9963703747231452
 40
0.9963703747231452
 40
0.9963703747231452
 10
909.0633260219084
 20
1999.999999999995
 30
0.0
 10
909.0870541714973
 20
2004.448703303092
 30
0.0
 10
909.5283043689244
 20
2010.882230246233
 30
0.0
 10
910.951444121809
 20
2019.160306223317
 30
0.0
 10
912.772626758868
 20
2027.048144594053
 30
0.0
 10
915.6172578137534
 20
2035.987024953151
 30
0.0
 10
918.9265277783214
 20
2044.183204220447
 30
0.0
 10
921.233139818617
 20
2049.244768951626
 30
0.0
 10
922.6112172570335
 20
2052.103778533577
 30
0.0
 10
923.509337704243
 20
2053.917965589562
 30
0.0
 10
924.2347687380764
 20
2055.362679629112
 30
0.0
 10
924.9271169158058
 20
2056.693416926925
 30
0.0
 10
925.1559843880992
 20
2057.12248076335
 30
0.0
 10
925.1658862901324
 20
2057.157256584787
 30
0.0
  0
SPLINE
  5
1AC
330
87
100
AcDbEntity
  8
P-SANR-FIXT
100
AcDbSpline
210
0.0
220
0.0
230
1.0
 70
     8
 71
     3
 72
    19
 73
    15
 74
     0
 42
0.000000001
 43
0.0000000001
 40
0.0036296252768557
 40
0.0036296252768557
 40
0.0036296252768557
 40
0.0036296252768557
 40
0.1428571428571428
 40
0.2857142857142857
 40
0.4285714285714286
 40
0.5714285714285714
 40
0.625
 40
0.6785714285714287
 40
0.7053571428571429
 40
0.7321428571428572
 40
0.7857142857142857
 40
0.8392857142857142
 40
0.8928571428571427
 40
1.0
 40
1.0
 40
1.0
 40
1.0
 10
925.1658943186924
 20
1942.842723138143
 30
0.0
 10
925.1527785439794
 20
1942.88898606675
 30
0.0
 10
924.6172510046767
 20
1943.872555486863
 30
0.0
 10
922.4227089167689
 20
1948.216869415568
 30
0.0
 10
919.2314769189996
 20
1955.061156465844
 30
0.0
 10
916.3655477665795
 20
1962.154121346825
 30
0.0
 10
914.3468389283036
 20
1968.077957627406
 30
0.0
 10
913.3049227558219
 20
1971.467732195954
 30
0.0
 10
912.5334423638129
 20
1974.268978794702
 30
0.0
 10
911.8114440080487
 20
1977.126138334622
 30
0.0
 10
910.9722420088415
 20
1980.862597737706
 30
0.0
 10
910.1389444507271
 20
1985.501603459968
 30
0.0
 10
909.3447029116475
 20
1991.773694339611
 30
0.0
 10
909.0811221340997
 20
1996.663472522672
 30
0.0
 10
909.063326021908
 20
1999.999999999995
 30
0.0
  0
SPLINE
  5
1AD
330
87
100
AcDbEntity
  8
P-SANR-FIXT
100
AcDbSpline
210
0.0
220
0.0
230
1.0
 70
     8
 71
     3
 72
    18
 73
    14
 74
     0
 42
0.000000001
 43
0.0000000001
 40
0.0
 40
0.0
 40
0.0
 40
0.0
 40
0.1428571428571428
 40
0.2142857142857143
 40
0.2857142857142857
 40
0.4285714285714286
 40
0.5714285714285714
 40
0.6785714285714287
 40
0.7321428571428572
 40
0.7857142857142857
 40
0.8392857142857142
 40
0.8928571428571427
 40
0.9963703747231729
 40
0.9963703747231729
 40
0.9963703747231729
 40
0.9963703747231729
 10
722.2694888644696
 20
1999.999999999995
 30
0.0
 10
722.2457607148803
 20
1995.551296696898
 30
0.0
 10
721.8045105174529
 20
1989.117769753757
 30
0.0
 10
720.3813707645681
 20
1980.839693776673
 30
0.0
 10
718.5601881275091
 20
1972.951855405936
 30
0.0
 10
715.7155570726236
 20
1964.012975046838
 30
0.0
 10
712.4062871080554
 20
1955.816795779543
 30
0.0
 10
710.0996750677595
 20
1950.755231048363
 30
0.0
 10
708.721597629343
 20
1947.896221466411
 30
0.0
 10
707.8234771821335
 20
1946.082034410427
 30
0.0
 10
707.0980461483001
 20
1944.637320370877
 30
0.0
 10
706.4056979705707
 20
1943.306583073063
 30
0.0
 10
706.1768304982771
 20
1942.877519236639
 30
0.0
 10
706.1669285962441
 20
1942.842743415202
 30
0.0
  0
LINE
  5
1AE
330
87
100
AcDbEntity
  8
P-SANR-FIXT
100
AcDbLine
 10
1050.666407443188
 20
2078.999999999995
 30
0.0
 11
1050.666407443188
 21
1920.999999999995
 31
0.0
  0
LINE
  5
1AF
330
87
100
AcDbEntity
  8
P-SANR-FIXT
100
AcDbLine
 10
1048.666407443188
 20
2109.999999999993
 30
0.0
 11
1048.666407443188
 21
1889.999999999997
 31
0.0
  0
LINE
  5
1B0
330
87
100
AcDbEntity
  8
P-SANR-FIXT
100
AcDbLine
 10
1030.666407443188
 20
2109.999999999993
 30
0.0
 11
1030.666407443188
 21
1889.999999999997
 31
0.0
  0
LINE
  5
1B1
330
87
100
AcDbEntity
  8
P-SANR-FIXT
100
AcDbLine
 10
600.6664074431879
 20
2109.999999999995
 30
0.0
 11
600.6664074431879
 21
1889.999999999995
 31
0.0
  0
LINE
  5
1B2
330
87
100
AcDbEntity
  8
P-SANR-FIXT
100
AcDbLine
 10
582.6664074431882
 20
2109.999999999995
 30
0.0
 11
582.6664074431882
 21
1889.999999999995
 31
0.0
  0
LINE
  5
1B3
330
87
100
AcDbEntity
  8
P-SANR-FIXT
100
AcDbLine
 10
580.666407443188
 20
2078.999999999995
 30
0.0
 11
580.666407443188
 21
1920.999999999995
 31
0.0
  0
ENDBLK
  5
1B5
330
87
100
AcDbEntity
  8
0
100
AcDbBlockEnd
  0
BLOCK
  5
1F0
330
1B7
100
AcDbEntity
  8
0
100
AcDbBlockBegin
  2
Automatic flow rate regulator valve_Caleffi_121 DN15 - 1_2__-V1-Est - Idraulica
 70
     0
 10
0.0
 20
0.0
 30
0.0
  3
Automatic flow rate regulator valve_Caleffi_121 DN15 - 1_2__-V1-Est - Idraulica
  1

  0
LWPOLYLINE
  5
1B8
330
1B7
100
AcDbEntity
  8
P-SANR-FIXT
100
AcDbPolyline
 90
       80
 70
   128
 43
0.0
 10
1008.666407443189
 20
1137.277070127454
 10
1008.512028028758
 20
1144.995011625474
 10
1008.049136759594
 20
1152.700606063504
 10
1007.278474162985
 20
1160.381526134215
 10
1006.201273134685
 20
1168.025484004003
 10
1004.819256966549
 20
1175.620250970901
 10
1003.134636589631
 20
1183.153677027891
 10
1001.150107037168
 20
1190.613710300328
 10
998.8688431331002
 20
1197.988416326365
 10
996.2944944130306
 20
1205.265997149546
 10
993.431179285746
 20
1212.434810193024
 10
990.2834784446422
 20
1219.483386885192
 10
986.8564275395911
 20
1226.400451006961
 10
983.1555091209756
 20
1233.174936731295
 10
979.1866438687783
 20
1239.796006326185
 10
974.956181120757
 20
1246.253067492696
 10
970.4708887148575
 20
1252.535790310396
 10
965.7379421621184
 20
1258.634123763019
 10
960.7649131673818
 20
1264.538311817949
 10
955.559757516184
 20
1270.238909033791
 10
950.1308023471919
 20
1275.726795671062
 10
944.4867328305614
 20
1280.99319228183
 10
938.636578273515
 20
1286.029673754955
 10
932.5896976753774
 20
1290.828182794473
 10
926.3557647551733
 20
1295.381042809547
 10
919.9447524757403
 20
1299.680970195378
 10
913.3669170891153
 20
1303.721085985419
 10
906.6327817287211
 20
1307.494926856249
 10
899.7531195745946
 20
1310.99645546752
 10
892.7389366185996
 20
1314.220070120405
 10
885.6014540571871
 20
1317.160613719129
 10
878.3520903398727
 20
1319.813382021216
 10
871.0024429021563
 20
1322.174131163275
 10
863.5642696120969
 20
1324.23908445028
 10
856.049469960233
 20
1326.004938397471
 10
848.4700660229355
 20
1327.468868015227
 10
840.8381832296511
 20
1328.62853132845
 10
833.1660309648007
 20
1329.482073123219
 10
825.4658830353699
 20
1330.028127914742
 10
817.7500580354346
 20
1330.265822131838
 10
810.0308996390403
 20
1330.194775514465
 10
802.3207568529549
 20
1329.815101722055
 10
794.6319642608939
 20
1329.127408151683
 10
786.9768222908159
 20
1328.132794966362
 10
779.3675775368632
 20
1326.832853335015
 10
771.8164031674231
 20
1325.229662886946
 10
764.3353794506557
 20
1323.325788384877
 10
756.936474428641
 20
1321.124275621872
 10
749.6315247710655
 20
1318.628646548722
 10
742.4322168390752
 20
1315.842893639571
 10
735.3500679895904
 20
1312.771473504811
 10
728.396408149993
 20
1309.419299761456
 10
721.5823616926577
 20
1305.791735172405
 10
714.9188296383306
 20
1301.894583067159
 10
708.4164722168208
 20
1297.73407805774
 10
702.0856918129074
 20
1293.316876064635
 10
695.9366163247418
 20
1288.650043668747
 10
689.9790829613725
 20
1283.741046806372
 10
684.2226225053085
 20
1278.597738825292
 10
678.6764440652998
 20
1273.228347921098
 10
673.3494203437287
 20
1267.641463973826
 10
668.2500734421787
 20
1261.846024805987
 10
663.3865612278896
 20
1255.851301883956
 10
658.7666642829104
 20
1249.666885485602
 10
654.3977734568276
 20
1243.302669357889
 10
650.2868780429822
 20
1236.768834888996
 10
646.4405545970929
 20
1230.075834820263
 10
642.8649564161672
 20
1223.234376524035
 10
639.5658036945414
 20
1216.255404874153
 10
636.5483743727879
 20
1209.150084736489
 10
633.8174956941383
 20
1201.929783107543
 10
631.3775364819211
 20
1194.606050929672
 10
629.2324001503803
 20
1187.190604612048
 10
627.3855184600404
 20
1179.695307286901
 10
625.839846027626
 20
1172.132149831041
 10
624.5978555993034
 20
1164.513231683008
 10
623.6615340948137
 20
1156.850741486558
 10
623.0323794288262
 20
1149.156937591427
 10
622.7113981145942
 20
1141.44412844259
 10
622.6664074431895
 20
1137.277070127455
  0
LINE
  5
1B9
330
1B7
100
AcDbEntity
  8
P-SANR-FIXT
100
AcDbLine
 10
1008.666116959415
 20
1136.942216947183
 30
0.0
 11
1008.666407443189
 21
1137.277070127454
 31
0.0
  0
LINE
  5
1BA
330
1B7
100
AcDbEntity
  8
P-SANR-FIXT
100
AcDbLine
 10
622.6664074431895
 20
1137.277070127453
 30
0.0
 11
622.6666979269634
 21
1136.942216947187
 31
0.0
  0
SPLINE
  5
1BB
330
1B7
100
AcDbEntity
  8
P-SANR-FIXT
100
AcDbSpline
210
0.0
220
0.0
230
1.0
 70
    24
 71
     3
 72
    11
 73
     7
 74
     0
 42
0.000000001
 43
0.0000000001
 40
-1.0
 40
-1.0
 40
-1.0
 40
-1.0
 40
-0.7857142857142857
 40
-0.5714285714285714
 40
-0.2857142857142857
 40
-0.1428571428571428
 40
-0.1428571428571428
 40
-0.1428571428571428
 40
-0.1428571428571428
 10
636.3045298143246
 20
1136.942216947187
 30
0.0
 10
647.2043520073802
 20
1136.942216947187
 30
0.0
 10
670.135734907136
 20
1136.942216947186
 30
0.0
 10
711.8217399296105
 20
1136.942216947186
 30
0.0
 10
751.8169187230874
 20
1136.942216947185
 30
0.0
 10
779.1460885280619
 20
1136.942216947185
 30
0.0
 10
788.2643272433492
 20
1136.942216947185
 30
0.0
  0
LWPOLYLINE
  5
1BC
330
1B7
100
AcDbEntity
  8
P-SANR-FIXT
100
AcDbPolyline
 90
        7
 70
   128
 43
0.0
 10
843.0684876430223
 20
1136.942216947184
 10
870.3322043087391
 20
1136.942216947184
 10
897.1750619473223
 20
1136.942216947184
 10
923.3257077056892
 20
1136.942216947184
 10
948.5194548881601
 20
1136.942216947184
 10
972.5012553330227
 20
1136.942216947184
 10
995.028285072051
 20
1136.942216947183
  0
SPLINE
  5
1BD
330
1B7
100
AcDbEntity
  8
P-SANR-FIXT
100
AcDbSpline
210
0.0
220
0.0
230
1.0
 70
    24
 71
     3
 72
    11
 73
     7
 74
     0
 42
0.000000001
 43
0.0000000001
 40
-1.0
 40
-1.0
 40
-1.0
 40
-1.0
 40
-0.75
 40
-0.5
 40
-0.25
 40
0.0
 40
0.0
 40
0.0
 40
0.0
 10
622.6666979269619
 20
1136.942216947187
 30
0.0
 10
622.6747035666643
 20
1136.942216947187
 30
0.0
 10
623.2772760631294
 20
1136.942216947187
 30
0.0
 10
625.9859394546607
 20
1136.942216947187
 30
0.0
 10
630.3640445060724
 20
1136.942216947187
 30
0.0
 10
634.1645613057884
 20
1136.942216947187
 30
0.0
 10
636.3045298143246
 20
1136.942216947187
 30
0.0
  0
LINE
  5
1BE
330
1B7
100
AcDbEntity
  8
P-SANR-FIXT
100
AcDbLine
 10
995.0282848993133
 20
1136.942216947183
 30
0.0
 11
1008.666117224556
 21
1136.942216947183
 31
0.0
  0
ARC
  5
1BF
330
1B7
100
AcDbEntity
  8
P-SANR-FIXT
100
AcDbCircle
 10
815.6664074431878
 20
1137.277070127454
 30
0.0
 40
11.00000000000032
100
AcDbArc
 50
0.0
 51
30.0000000000006
  0
ARC
  5
1C0
330
1B7
100
AcDbEntity
  8
P-SANR-FIXT
100
AcDbCircle
 10
815.6664074431878
 20
1137.277070127454
 30
0.0
 40
11.00000000000034
100
AcDbArc
 50
29.99999999999962
 51
90.0
  0
ARC
  5
1C1
330
1B7
100
AcDbEntity
  8
P-SANR-FIXT
100
AcDbCircle
 10
815.6664074431878
 20
1137.277070127454
 30
0.0
 40
11.00000000000037
100
AcDbArc
 50
90.0
 51
150.0000000000008
  0
ARC
  5
1C2
330
1B7
100
AcDbEntity
  8
P-SANR-FIXT
100
AcDbCircle
 10
815.6664074431878
 20
1137.277070127454
 30
0.0
 40
11.00000000000034
100
AcDbArc
 50
150.0000000000007
 51
180.0
  0
ARC
  5
1C3
330
1B7
100
AcDbEntity
  8
P-SANR-FIXT
100
AcDbCircle
 10
815.6664074431878
 20
1137.277070127454
 30
0.0
 40
11.00000000000034
100
AcDbArc
 50
180.0
 51
209.9999999999995
  0
ARC
  5
1C4
330
1B7
100
AcDbEntity
  8
P-SANR-FIXT
100
AcDbCircle
 10
815.6664074431878
 20
1137.277070127454
 30
0.0
 40
11.00000000000031
100
AcDbArc
 50
209.9999999999987
 51
269.999999999999
  0
ARC
  5
1C5
330
1B7
100
AcDbEntity
  8
P-SANR-FIXT
100
AcDbCircle
 10
815.6664074431878
 20
1137.277070127454
 30
0.0
 40
11.00000000000032
100
AcDbArc
 50
269.9999999999988
 51
329.9999999999983
  0
ARC
  5
1C6
330
1B7
100
AcDbEntity
  8
P-SANR-FIXT
100
AcDbCircle
 10
815.6664074431878
 20
1137.277070127454
 30
0.0
 40
11.00000000000028
100
AcDbArc
 50
329.9999999999981
 51
359.9999999999984
  0
SPLINE
  5
1C7
330
1B7
100
AcDbEntity
  8
P-SANR-FIXT
100
AcDbSpline
210
0.0
220
0.0
230
1.0
 70
    24
 71
     3
 72
     9
 73
     5
 74
     0
 42
0.000000001
 43
0.0000000001
 40
0.0
 40
0.0
 40
0.0
 40
0.0
 40
0.5
 40
1.0
 40
1.0
 40
1.0
 40
1.0
 10
809.3155544821035
 20
1126.277070127468
 30
0.0
 10
808.7901559165077
 20
1127.187087137303
 30
0.0
 10
807.7355196041558
 20
1129.013770813804
 30
0.0
 10
806.6732049294827
 20
1130.853753803964
 30
0.0
 10
806.140128001566
 20
1131.777070127458
 30
0.0
  0
SPLINE
  5
1C8
330
1B7
100
AcDbEntity
  8
P-SANR-FIXT
100
AcDbSpline
210
0.0
220
0.0
230
1.0
 70
    24
 71
     3
 72
     9
 73
     5
 74
     0
 42
0.000000001
 43
0.0000000001
 40
0.0
 40
0.0
 40
0.0
 40
0.0
 40
0.5
 40
1.0
 40
1.0
 40
1.0
 40
1.0
 10
806.140128001566
 20
1131.777070127458
 30
0.0
 10
805.6070510736473
 20
1132.700386450956
 30
0.0
 10
804.5447363989705
 20
1134.540369441122
 30
0.0
 10
803.4901000866152
 20
1136.367053117629
 30
0.0
 10
802.964701521018
 20
1137.277070127467
 30
0.0
  0
SPLINE
  5
1C9
330
1B7
100
AcDbEntity
  8
P-SANR-FIXT
100
AcDbSpline
210
0.0
220
0.0
230
1.0
 70
    24
 71
     3
 72
     9
 73
     5
 74
     0
 42
0.000000001
 43
0.0000000001
 40
0.0
 40
0.0
 40
0.0
 40
0.0
 40
0.5
 40
1.0
 40
1.0
 40
1.0
 40
1.0
 10
822.0172604042746
 20
1126.277070127468
 30
0.0
 10
820.9664632730815
 20
1126.277070127468
 30
0.0
 10
818.8571906483741
 20
1126.277070127468
 30
0.0
 10
816.7325612990236
 20
1126.277070127468
 30
0.0
 10
815.6664074431878
 20
1126.277070127468
 30
0.0
  0
SPLINE
  5
1CA
330
1B7
100
AcDbEntity
  8
P-SANR-FIXT
100
AcDbSpline
210
0.0
220
0.0
230
1.0
 70
    24
 71
     3
 72
     9
 73
     5
 74
     0
 42
0.000000001
 43
0.0000000001
 40
0.0
 40
0.0
 40
0.0
 40
0.0
 40
0.5
 40
1.0
 40
1.0
 40
1.0
 40
1.0
 10
815.6664074431878
 20
1126.277070127468
 30
0.0
 10
814.6002535873524
 20
1126.277070127468
 30
0.0
 10
812.4756242380028
 20
1126.277070127468
 30
0.0
 10
810.3663516132961
 20
1126.277070127468
 30
0.0
 10
809.3155544821035
 20
1126.277070127468
 30
0.0
  0
SPLINE
  5
1CB
330
1B7
100
AcDbEntity
  8
P-SANR-FIXT
100
AcDbSpline
210
0.0
220
0.0
230
1.0
 70
    24
 71
     3
 72
     9
 73
     5
 74
     0
 42
0.000000001
 43
0.0000000001
 40
0.0
 40
0.0
 40
0.0
 40
0.0
 40
0.5
 40
1.0
 40
1.0
 40
1.0
 40
1.0
 10
828.3681133653601
 20
1137.277070127467
 30
0.0
 10
827.8427147997627
 20
1136.367053117629
 30
0.0
 10
826.7880784874073
 20
1134.540369441122
 30
0.0
 10
825.7257638127303
 20
1132.700386450955
 30
0.0
 10
825.1926868848114
 20
1131.777070127457
 30
0.0
  0
SPLINE
  5
1CC
330
1B7
100
AcDbEntity
  8
P-SANR-FIXT
100
AcDbSpline
210
0.0
220
0.0
230
1.0
 70
    24
 71
     3
 72
     9
 73
     5
 74
     0
 42
0.000000001
 43
0.0000000001
 40
0.0
 40
0.0
 40
0.0
 40
0.0
 40
0.5
 40
1.0
 40
1.0
 40
1.0
 40
1.0
 10
825.1926868848114
 20
1131.777070127457
 30
0.0
 10
824.6596099568948
 20
1130.853753803963
 30
0.0
 10
823.5972952822219
 20
1129.013770813804
 30
0.0
 10
822.5426589698702
 20
1127.187087137303
 30
0.0
 10
822.0172604042746
 20
1126.277070127468
 30
0.0
  0
SPLINE
  5
1CD
330
1B7
100
AcDbEntity
  8
P-SANR-FIXT
100
AcDbSpline
210
0.0
220
0.0
230
1.0
 70
    24
 71
     3
 72
     9
 73
     5
 74
     0
 42
0.000000001
 43
0.0000000001
 40
-1.0
 40
-1.0
 40
-1.0
 40
-1.0
 40
-0.5
 40
0.0
 40
0.0
 40
0.0
 40
0.0
 10
825.1926868848228
 20
1142.777070127458
 30
0.0
 10
824.6596099569043
 20
1143.700386450955
 30
0.0
 10
823.597295282228
 20
1145.540369441121
 30
0.0
 10
822.5426589698722
 20
1147.367053117628
 30
0.0
 10
822.0172604042746
 20
1148.277070127466
 30
0.0
  0
SPLINE
  5
1CE
330
1B7
100
AcDbEntity
  8
P-SANR-FIXT
100
AcDbSpline
210
0.0
220
0.0
230
1.0
 70
    24
 71
     3
 72
     9
 73
     5
 74
     0
 42
0.000000001
 43
0.0000000001
 40
-1.0
 40
-1.0
 40
-1.0
 40
-1.0
 40
-0.5
 40
0.0
 40
0.0
 40
0.0
 40
0.0
 10
828.3681133653601
 20
1137.277070127467
 30
0.0
 10
827.8427147997641
 20
1138.187087137303
 30
0.0
 10
826.7880784874121
 20
1140.013770813804
 30
0.0
 10
825.7257638127393
 20
1141.853753803964
 30
0.0
 10
825.1926868848228
 20
1142.777070127458
 30
0.0
  0
SPLINE
  5
1CF
330
1B7
100
AcDbEntity
  8
P-SANR-FIXT
100
AcDbSpline
210
0.0
220
0.0
230
1.0
 70
    24
 71
     3
 72
     9
 73
     5
 74
     0
 42
0.000000001
 43
0.0000000001
 40
-1.0
 40
-1.0
 40
-1.0
 40
-1.0
 40
-0.5
 40
0.0
 40
0.0
 40
0.0
 40
0.0
 10
815.666407443188
 20
1148.277070127466
 30
0.0
 10
814.6002535873533
 20
1148.277070127466
 30
0.0
 10
812.4756242380046
 20
1148.277070127466
 30
0.0
 10
810.366351613297
 20
1148.277070127467
 30
0.0
 10
809.3155544821035
 20
1148.277070127467
 30
0.0
  0
SPLINE
  5
1D0
330
1B7
100
AcDbEntity
  8
P-SANR-FIXT
100
AcDbSpline
210
0.0
220
0.0
230
1.0
 70
    24
 71
     3
 72
     9
 73
     5
 74
     0
 42
0.000000001
 43
0.0000000001
 40
-1.0
 40
-1.0
 40
-1.0
 40
-1.0
 40
-0.5
 40
0.0
 40
0.0
 40
0.0
 40
0.0
 10
822.0172604042746
 20
1148.277070127466
 30
0.0
 10
820.9664632730808
 20
1148.277070127466
 30
0.0
 10
818.8571906483725
 20
1148.277070127466
 30
0.0
 10
816.732561299023
 20
1148.277070127466
 30
0.0
 10
815.666407443188
 20
1148.277070127466
 30
0.0
  0
SPLINE
  5
1D1
330
1B7
100
AcDbEntity
  8
P-SANR-FIXT
100
AcDbSpline
210
0.0
220
0.0
230
1.0
 70
    24
 71
     3
 72
     9
 73
     5
 74
     0
 42
0.000000001
 43
0.0000000001
 40
-1.0
 40
-1.0
 40
-1.0
 40
-1.0
 40
-0.5
 40
0.0
 40
0.0
 40
0.0
 40
0.0
 10
806.1401280015548
 20
1142.777070127456
 30
0.0
 10
805.6070510736383
 20
1141.853753803963
 30
0.0
 10
804.5447363989659
 20
1140.013770813804
 30
0.0
 10
803.4901000866138
 20
1138.187087137303
 30
0.0
 10
802.964701521018
 20
1137.277070127467
 30
0.0
  0
SPLINE
  5
1D2
330
1B7
100
AcDbEntity
  8
P-SANR-FIXT
100
AcDbSpline
210
0.0
220
0.0
230
1.0
 70
    24
 71
     3
 72
     9
 73
     5
 74
     0
 42
0.000000001
 43
0.0000000001
 40
-1.0
 40
-1.0
 40
-1.0
 40
-1.0
 40
-0.5
 40
0.0
 40
0.0
 40
0.0
 40
0.0
 10
809.3155544821035
 20
1148.277070127467
 30
0.0
 10
808.7901559165059
 20
1147.367053117628
 30
0.0
 10
807.7355196041501
 20
1145.54036944112
 30
0.0
 10
806.6732049294735
 20
1143.700386450954
 30
0.0
 10
806.1401280015548
 20
1142.777070127456
 30
0.0
  0
ARC
  5
1D3
330
1B7
100
AcDbEntity
  8
P-SANR-FIXT
100
AcDbCircle
 10
815.6664074431892
 20
1137.277070127467
 30
0.0
 40
15.49999999996663
100
AcDbArc
 50
179.9999999999998
 51
359.9999999999986
  0
ARC
  5
1D4
330
1B7
100
AcDbEntity
  8
P-SANR-FIXT
100
AcDbCircle
 10
815.6664074431892
 20
1137.277070127467
 30
0.0
 40
15.49999999996635
100
AcDbArc
 50
0.0
 51
180.0
  0
LWPOLYLINE
  5
1D5
330
1B7
100
AcDbEntity
  8
P-SANR-FIXT
100
AcDbPolyline
 90
       80
 70
   128
 43
0.0
 10
706.1731053998787
 20
1136.942216947186
 10
706.2539957638116
 20
1132.898238034018
 10
706.5166206030518
 20
1128.526411137829
 10
706.9538618171904
 20
1124.168583429317
 10
707.5650199135576
 20
1119.831726503194
 10
708.3491171695727
 20
1115.522778405394
 10
709.3048991968914
 20
1111.248632533683
 10
710.4308369481593
 20
1107.016126609683
 10
711.7251291631617
 20
1102.832031739988
 10
713.185705250455
 20
1098.703041583831
 10
714.8102285998731
 20
1094.635761644656
 10
716.596100320603
 20
1090.636698702726
 10
718.5404633988573
 20
1086.712250405661
 10
720.6402072684864
 20
1082.868695033564
 10
722.8919727872201
 20
1079.112181455117
 10
725.2921576105792
 20
1075.448719290697
 10
727.8369219548588
 20
1071.884169298272
 10
730.5221947399623
 20
1068.424233997431
 10
733.3436801022612
 20
1065.074448546577
 10
736.29686426706
 20
1061.840171887848
 10
739.3770227696745
 20
1058.726578173956
 10
742.579228013566
 20
1055.738648490644
 10
745.8983571534446
 20
1052.881162888016
 10
749.3291002907301
 20
1050.158692733471
 10
752.8659689682553
 20
1047.575593398494
 10
756.5033049506281
 20
1045.135997290988
 10
760.2352892762
 20
1042.843807244308
 10
764.0559515661649
 20
1040.702690273552
 10
767.9591795758895
 20
1038.716071709126
 10
771.9387289732027
 20
1036.887129716945
 10
775.9882333279938
 20
1035.218790214042
 10
780.1012142971436
 20
1033.713722187729
 10
784.2710919884902
 20
1032.374333425783
 10
788.4911954872546
 20
1031.202766664503
 10
792.7547735280792
 20
1030.200896160786
 10
797.0550052956132
 20
1029.370324693717
 10
801.3850113363625
 20
1028.712381000464
 10
805.7378645643478
 20
1028.228117650582
 10
810.1066013429626
 20
1027.918309362127
 10
814.4842326253094
 20
1027.783451762272
 10
818.8637551351808
 20
1027.823760594409
 10
823.2381625708097
 20
1028.039171373004
 10
827.6004568134556
 20
1028.429339486764
 10
831.9436591229042
 20
1028.993640749939
 10
836.2608213019601
 20
1029.731172400884
 10
840.5450368120828
 20
1030.640754546291
 10
844.7894518223732
 20
1031.72093204876
 10
848.9872761742416
 20
1032.969976854714
 10
853.1317942442134
 20
1034.385890758911
 10
857.216375687493
 20
1035.966408601149
 10
861.2344860451022
 20
1037.709001890042
 10
865.17969719762
 20
1039.610882848059
 10
869.0456976488023
 20
1041.669008871381
 10
872.8263026226304
 20
1043.880087397414
 10
876.5154639576321
 20
1046.240581172188
 10
880.1072797826504
 20
1048.746713909209
 10
883.5960039585785
 20
1051.39447633071
 10
886.9760552709564
 20
1054.179632581643
 10
890.2420263587233
 20
1057.097727006142
 10
893.3886923648424
 20
1060.14409127562
 10
896.4110192949565
 20
1063.313851857103
 10
899.3041720707063
 20
1066.601937809841
 10
902.0635222648238
 20
1070.003088897729
 10
904.6846555056278
 20
1073.511864004567
 10
907.1633785390792
 20
1077.122649838684
 10
909.4957259370898
 20
1080.829669913004
 10
911.6779664413639
 20
1084.626993786197
 10
913.7066089326145
 20
1088.508546550119
 10
915.5784080156093
 20
1092.468118548368
 10
917.290369211112
 20
1096.499375310411
 10
918.8397537464082
 20
1100.595867685383
 10
920.2240829367593
 20
1104.751042159356
 10
921.441142150768
 20
1108.958251339563
 10
922.4889843533185
 20
1113.210764588804
 10
923.3659332204139
 20
1117.501778793036
 10
924.0705858209388
 20
1121.824429244899
 10
924.6018148610506
 20
1126.171800625787
 10
924.9587704876084
 20
1130.536938068879
 10
925.1408816477557
 20
1134.912858285447
 10
925.1627921183581
 20
1136.942216947184
  0
LINE
  5
1D6
330
1B7
100
AcDbEntity
  8
P-SANR-FIXT
100
AcDbLine
 10
1050.66640744319
 20
1216.277070127453
 30
0.0
 11
1048.66640744319
 21
1216.277070127453
 31
0.0
  0
LINE
  5
1D7
330
1B7
100
AcDbEntity
  8
P-SANR-FIXT
100
AcDbLine
 10
1048.666407443189
 20
1058.277070127453
 30
0.0
 11
1050.666407443189
 21
1058.277070127453
 31
0.0
  0
LINE
  5
1D8
330
1B7
100
AcDbEntity
  8
P-SANR-FIXT
100
AcDbLine
 10
1048.66640744319
 20
1247.277070127451
 30
0.0
 11
1030.66640744319
 21
1247.277070127452
 31
0.0
  0
LINE
  5
1D9
330
1B7
100
AcDbEntity
  8
P-SANR-FIXT
100
AcDbLine
 10
1030.666407443189
 20
1027.277070127455
 30
0.0
 11
1048.666407443189
 21
1027.277070127455
 31
0.0
  0
LINE
  5
1DA
330
1B7
100
AcDbEntity
  8
P-SANR-FIXT
100
AcDbLine
 10
1030.666407443189
 20
1194.437070127453
 30
0.0
 11
999.8800774062967
 21
1194.437070127452
 31
0.0
  0
LINE
  5
1DB
330
1B7
100
AcDbEntity
  8
P-SANR-FIXT
100
AcDbLine
 10
909.0633260219091
 20
1080.117070127454
 30
0.0
 11
1030.666407443189
 21
1080.117070127454
 31
0.0
  0
LINE
  5
1DC
330
1B7
100
AcDbEntity
  8
P-SANR-FIXT
100
AcDbLine
 10
631.4527374800826
 20
1194.437070127455
 30
0.0
 11
600.6664074431889
 21
1194.437070127456
 31
0.0
  0
LINE
  5
1DD
330
1B7
100
AcDbEntity
  8
P-SANR-FIXT
100
AcDbLine
 10
600.6664074431885
 20
1080.117070127453
 30
0.0
 11
722.2694888644704
 21
1080.117070127453
 31
0.0
  0
LINE
  5
1DE
330
1B7
100
AcDbEntity
  8
P-SANR-FIXT
100
AcDbLine
 10
600.6664074431892
 20
1247.277070127455
 30
0.0
 11
582.6664074431893
 21
1247.277070127455
 31
0.0
  0
LINE
  5
1DF
330
1B7
100
AcDbEntity
  8
P-SANR-FIXT
100
AcDbLine
 10
582.6664074431886
 20
1027.277070127454
 30
0.0
 11
600.6664074431885
 21
1027.277070127454
 31
0.0
  0
LINE
  5
1E0
330
1B7
100
AcDbEntity
  8
P-SANR-FIXT
100
AcDbLine
 10
582.6664074431893
 20
1216.277070127455
 30
0.0
 11
580.6664074431893
 21
1216.277070127455
 31
0.0
  0
LINE
  5
1E1
330
1B7
100
AcDbEntity
  8
P-SANR-FIXT
100
AcDbLine
 10
580.6664074431887
 20
1058.277070127454
 30
0.0
 11
582.6664074431888
 21
1058.277070127454
 31
0.0
  0
SPLINE
  5
1E2
330
1B7
100
AcDbEntity
  8
P-SANR-FIXT
100
AcDbSpline
210
0.0
220
0.0
230
1.0
 70
     8
 71
     3
 72
    19
 73
    15
 74
     0
 42
0.000000001
 43
0.0000000001
 40
0.0036296252768245
 40
0.0036296252768245
 40
0.0036296252768245
 40
0.0036296252768245
 40
0.1428571428571428
 40
0.2857142857142857
 40
0.4285714285714286
 40
0.5714285714285714
 40
0.625
 40
0.6785714285714287
 40
0.7053571428571429
 40
0.7321428571428572
 40
0.7857142857142857
 40
0.8392857142857142
 40
0.8928571428571427
 40
1.0
 40
1.0
 40
1.0
 40
1.0
 10
706.1669205676832
 20
1136.939703542062
 30
0.0
 10
706.1800363423961
 20
1132.629079741367
 30
0.0
 10
706.715563881699
 20
1124.129795616411
 30
0.0
 10
708.9101059696068
 20
1111.961852935232
 30
0.0
 10
712.101337967376
 20
1101.207809776874
 30
0.0
 10
714.9672671197967
 20
1094.126677920465
 30
0.0
 10
716.9859759580726
 20
1089.7870624888
 30
0.0
 10
718.027892130554
 20
1087.696063190425
 30
0.0
 10
718.7993725225632
 20
1086.213355318649
 30
0.0
 10
719.5213708783273
 20
1084.861779767972
 30
0.0
 10
720.3605728775346
 20
1083.349051695441
 30
0.0
 10
721.193870435649
 20
1081.906920559941
 30
0.0
 10
721.988111974729
 20
1080.573092628247
 30
0.0
 10
722.251692752277
 20
1080.146148189758
 30
0.0
 10
722.269488864469
 20
1080.117070127452
 30
0.0
  0
SPLINE
  5
1E3
330
1B7
100
AcDbEntity
  8
P-SANR-FIXT
100
AcDbSpline
210
0.0
220
0.0
230
1.0
 70
     8
 71
     3
 72
    18
 73
    14
 74
     0
 42
0.000000001
 43
0.0000000001
 40
0.0
 40
0.0
 40
0.0
 40
0.0
 40
0.1428571428571428
 40
0.2142857142857143
 40
0.2857142857142857
 40
0.4285714285714286
 40
0.5714285714285714
 40
0.6785714285714287
 40
0.7321428571428572
 40
0.7857142857142857
 40
0.8392857142857142
 40
0.8928571428571427
 40
0.996370374723148
 40
0.996370374723148
 40
0.996370374723148
 40
0.996370374723148
 10
909.063326021908
 20
1080.117070127455
 30
0.0
 10
909.0870541714972
 20
1080.155840877196
 30
0.0
 10
909.528304368924
 20
1080.862647300387
 30
0.0
 10
910.9514441218086
 20
1083.30415081569
 30
0.0
 10
912.7726267588679
 20
1086.602384771056
 30
0.0
 10
915.617257813753
 20
1092.277185280499
 30
0.0
 10
918.9265277783212
 20
1100.449664550561
 30
0.0
 10
921.2331398186167
 20
1107.942744992171
 30
0.0
 10
922.6112172570331
 20
1113.61850650785
 30
0.0
 10
923.5093377042428
 20
1118.109140171313
 30
0.0
 10
924.2347687380762
 20
1122.764259289636
 30
0.0
 10
924.9271169158054
 20
1128.953893262201
 30
0.0
 10
925.155984388099
 20
1133.734176042946
 30
0.0
 10
925.1658862901321
 20
1136.939670432361
 30
0.0
  0
LINE
  5
1E4
330
1B7
100
AcDbEntity
  8
P-SANR-FIXT
100
AcDbLine
 10
1050.666407443188
 20
1216.277070127453
 30
0.0
 11
1050.666407443188
 21
1137.277070127454
 31
0.0
  0
LINE
  5
1E5
330
1B7
100
AcDbEntity
  8
P-SANR-FIXT
100
AcDbLine
 10
1050.666407443188
 20
1137.277070127453
 30
0.0
 11
1050.666407443187
 21
1058.277070127453
 31
0.0
  0
LINE
  5
1E6
330
1B7
100
AcDbEntity
  8
P-SANR-FIXT
100
AcDbLine
 10
1048.666407443188
 20
1247.277070127451
 30
0.0
 11
1048.666407443188
 21
1137.277070127454
 31
0.0
  0
LINE
  5
1E7
330
1B7
100
AcDbEntity
  8
P-SANR-FIXT
100
AcDbLine
 10
1048.666407443188
 20
1137.277070127453
 30
0.0
 11
1048.666407443187
 21
1027.277070127455
 31
0.0
  0
LINE
  5
1E8
330
1B7
100
AcDbEntity
  8
P-SANR-FIXT
100
AcDbLine
 10
1030.666407443188
 20
1247.277070127451
 30
0.0
 11
1030.666407443188
 21
1137.277070127454
 31
0.0
  0
LINE
  5
1E9
330
1B7
100
AcDbEntity
  8
P-SANR-FIXT
100
AcDbLine
 10
1030.666407443188
 20
1137.277070127453
 30
0.0
 11
1030.666407443187
 21
1027.277070127455
 31
0.0
  0
LINE
  5
1EA
330
1B7
100
AcDbEntity
  8
P-SANR-FIXT
100
AcDbLine
 10
600.666407443188
 20
1247.277070127455
 30
0.0
 11
600.6664074431877
 21
1137.277070127455
 31
0.0
  0
LINE
  5
1EB
330
1B7
100
AcDbEntity
  8
P-SANR-FIXT
100
AcDbLine
 10
600.6664074431877
 20
1137.277070127455
 30
0.0
 11
600.6664074431873
 21
1027.277070127454
 31
0.0
  0
LINE
  5
1EC
330
1B7
100
AcDbEntity
  8
P-SANR-FIXT
100
AcDbLine
 10
582.6664074431882
 20
1247.277070127455
 30
0.0
 11
582.6664074431878
 21
1137.277070127455
 31
0.0
  0
LINE
  5
1ED
330
1B7
100
AcDbEntity
  8
P-SANR-FIXT
100
AcDbLine
 10
582.6664074431878
 20
1137.277070127455
 30
0.0
 11
582.6664074431874
 21
1027.277070127454
 31
0.0
  0
LINE
  5
1EE
330
1B7
100
AcDbEntity
  8
P-SANR-FIXT
100
AcDbLine
 10
580.666407443188
 20
1216.277070127455
 30
0.0
 11
580.6664074431877
 21
1137.277070127455
 31
0.0
  0
LINE
  5
1EF
330
1B7
100
AcDbEntity
  8
P-SANR-FIXT
100
AcDbLine
 10
580.6664074431877
 20
1137.277070127455
 30
0.0
 11
580.6664074431875
 21
1058.277070127454
 31
0.0
  0
ENDBLK
  5
1F1
330
1B7
100
AcDbEntity
  8
0
100
AcDbBlockEnd
  0
BLOCK
  5
2A1
330
1F3
100
AcDbEntity
  8
0
100
AcDbBlockBegin
  2
Automatic flow rate regulator valve_Caleffi_121 DN15 - 1_2__-V2-Est - Idraulica
 70
     0
 10
0.0
 20
0.0
 30
0.0
  3
Automatic flow rate regulator valve_Caleffi_121 DN15 - 1_2__-V2-Est - Idraulica
  1

  0
ARC
  5
1F4
330
1F3
100
AcDbEntity
  8
M-PIPE
100
AcDbCircle
 10
1721.083162545682
 20
1538.482558849932
 30
0.0
 40
15.49999999999978
100
AcDbArc
 50
281.1599368721837
 51
78.84006312781609
1001
REVIT
1002
{
1070
     3
1000
790271
1002
}
  0
ARC
  5
1F5
330
1F3
100
AcDbEntity
  8
M-PIPE
100
AcDbCircle
 10
1721.083162545682
 20
1538.482558849932
 30
0.0
 40
15.50000000000005
100
AcDbArc
 50
101.159936872188
 51
258.8400631278108
1001
REVIT
1002
{
1070
     3
1000
790271
1002
}
  0
SPLINE
  5
1F6
330
1F3
100
AcDbEntity
  8
M-PIPE
100
AcDbSpline
210
0.0
220
0.0
230
1.0
 70
     8
 71
     3
 72
     9
 73
     5
 74
     0
 42
0.000000001
 43
0.0000000001
 40
-1.0
 40
-1.0
 40
-1.0
 40
-1.0
 40
-0.5
 40
0.0
 40
0.0
 40
0.0
 40
0.0
 10
1721.083162545682
 20
1527.28442669382
 30
0.0
 10
1721.589991253285
 20
1527.284658007039
 30
0.0
 10
1722.596819960889
 20
1527.342559295699
 30
0.0
 10
1723.589991253285
 20
1527.515337908802
 30
0.0
 10
1724.083162545682
 20
1527.630446546464
 30
0.0
1001
REVIT
1002
{
1070
     3
1000
790271
1002
}
  0
ARC
  5
1F7
330
1F3
100
AcDbEntity
  8
M-PIPE
100
AcDbCircle
 10
1721.083162545682
 20
1538.482558849932
 30
0.0
 40
11.50000000006284
100
AcDbArc
 50
285.1216653148206
 51
74.8783346851779
1001
REVIT
1002
{
1070
     3
1000
790271
1002
}
  0
SPLINE
  5
1F8
330
1F3
100
AcDbEntity
  8
M-PIPE
100
AcDbSpline
210
0.0
220
0.0
230
1.0
 70
     8
 71
     3
 72
     9
 73
     5
 74
     0
 42
0.000000001
 43
0.0000000001
 40
-1.0
 40
-1.0
 40
-1.0
 40
-1.0
 40
-0.5
 40
0.0
 40
0.0
 40
0.0
 40
0.0
 10
1724.083162545682
 20
1549.334671153421
 30
0.0
 10
1723.589991253285
 20
1549.449779791083
 30
0.0
 10
1722.596819960889
 20
1549.622558404185
 30
0.0
 10
1721.589991253286
 20
1549.680459692845
 30
0.0
 10
1721.083162545682
 20
1549.680691006064
 30
0.0
1001
REVIT
1002
{
1070
     3
1000
790271
1002
}
  0
SPLINE
  5
1F9
330
1F3
100
AcDbEntity
  8
M-PIPE
100
AcDbSpline
210
0.0
220
0.0
230
1.0
 70
     8
 71
     3
 72
     9
 73
     5
 74
     0
 42
0.000000001
 43
0.0000000001
 40
-1.0
 40
-1.0
 40
-1.0
 40
-1.0
 40
-0.5
 40
0.0
 40
0.0
 40
0.0
 40
0.0
 10
1721.083162545682
 20
1549.680691006064
 30
0.0
 10
1720.576333838079
 20
1549.680459692845
 30
0.0
 10
1719.569505130475
 20
1549.622558404185
 30
0.0
 10
1718.576333838078
 20
1549.449779791083
 30
0.0
 10
1718.083162545682
 20
1549.334671153421
 30
0.0
1001
REVIT
1002
{
1070
     3
1000
790271
1002
}
  0
ARC
  5
1FA
330
1F3
100
AcDbEntity
  8
M-PIPE
100
AcDbCircle
 10
1721.083162545682
 20
1538.482558849932
 30
0.0
 40
11.50000000006342
100
AcDbArc
 50
105.1216653148269
 51
254.8783346851714
1001
REVIT
1002
{
1070
     3
1000
790271
1002
}
  0
SPLINE
  5
1FB
330
1F3
100
AcDbEntity
  8
M-PIPE
100
AcDbSpline
210
0.0
220
0.0
230
1.0
 70
     8
 71
     3
 72
     9
 73
     5
 74
     0
 42
0.000000001
 43
0.0000000001
 40
-1.0
 40
-1.0
 40
-1.0
 40
-1.0
 40
-0.5
 40
0.0
 40
0.0
 40
0.0
 40
0.0
 10
1718.083162545681
 20
1527.630446546464
 30
0.0
 10
1718.576333838078
 20
1527.515337908802
 30
0.0
 10
1719.569505130474
 20
1527.342559295699
 30
0.0
 10
1720.576333838079
 20
1527.284658007039
 30
0.0
 10
1721.083162545682
 20
1527.28442669382
 30
0.0
1001
REVIT
1002
{
1070
     3
1000
790271
1002
}
  0
ARC
  5
1FC
330
1F3
100
AcDbEntity
  8
M-PIPE
100
AcDbCircle
 10
1721.083162545682
 20
1538.482558849932
 30
0.0
 40
8.5
100
AcDbArc
 50
269.9999999999981
 51
90.0
1001
REVIT
1002
{
1070
     3
1000
790271
1002
}
  0
ARC
  5
1FD
330
1F3
100
AcDbEntity
  8
M-PIPE
100
AcDbCircle
 10
1721.083162545682
 20
1538.482558849932
 30
0.0
 40
8.500000000000113
100
AcDbArc
 50
90.00000000000078
 51
269.9999999999989
1001
REVIT
1002
{
1070
     3
1000
790271
1002
}
  0
LINE
  5
1FE
330
1F3
100
AcDbEntity
  8
M-PIPE
100
AcDbLine
 10
1718.083162545681
 20
1505.982558849933
 30
0.0
 11
1718.083162545681
 21
1511.982558849933
 31
0.0
1001
REVIT
1002
{
1070
     3
1000
790271
1002
}
  0
LINE
  5
1FF
330
1F3
100
AcDbEntity
  8
M-PIPE
100
AcDbLine
 10
1718.083162545681
 20
1511.982558849933
 30
0.0
 11
1718.083162545681
 21
1527.630446546464
 31
0.0
1001
REVIT
1002
{
1070
     3
1000
790271
1002
}
  0
LINE
  5
200
330
1F3
100
AcDbEntity
  8
M-PIPE
100
AcDbLine
 10
1718.083162545682
 20
1564.98255885006
 30
0.0
 11
1718.083162545682
 21
1570.982558850059
 31
0.0
1001
REVIT
1002
{
1070
     3
1000
790271
1002
}
  0
LINE
  5
201
330
1F3
100
AcDbEntity
  8
M-PIPE
100
AcDbLine
 10
1718.083162545682
 20
1549.334671153421
 30
0.0
 11
1718.083162545682
 21
1564.98255885006
 31
0.0
1001
REVIT
1002
{
1070
     3
1000
790271
1002
}
  0
LINE
  5
202
330
1F3
100
AcDbEntity
  8
M-PIPE
100
AcDbLine
 10
1724.083162545682
 20
1570.982558850059
 30
0.0
 11
1724.083162545682
 21
1564.98255885006
 31
0.0
1001
REVIT
1002
{
1070
     3
1000
790271
1002
}
  0
LINE
  5
203
330
1F3
100
AcDbEntity
  8
M-PIPE
100
AcDbLine
 10
1724.083162545682
 20
1564.98255885006
 30
0.0
 11
1724.083162545682
 21
1549.334671153421
 31
0.0
1001
REVIT
1002
{
1070
     3
1000
790271
1002
}
  0
LINE
  5
204
330
1F3
100
AcDbEntity
  8
M-PIPE
100
AcDbLine
 10
1724.083162545682
 20
1511.982558849933
 30
0.0
 11
1724.083162545682
 21
1505.982558849932
 31
0.0
1001
REVIT
1002
{
1070
     3
1000
790271
1002
}
  0
LINE
  5
205
330
1F3
100
AcDbEntity
  8
M-PIPE
100
AcDbLine
 10
1724.083162545682
 20
1527.630446546464
 30
0.0
 11
1724.083162545682
 21
1511.982558849933
 31
0.0
1001
REVIT
1002
{
1070
     3
1000
790271
1002
}
  0
LINE
  5
206
330
1F3
100
AcDbEntity
  8
M-PIPE
100
AcDbLine
 10
1724.083162545682
 20
1505.982558849932
 30
0.0
 11
1718.083162545681
 21
1505.982558849933
 31
0.0
1001
REVIT
1002
{
1070
     3
1000
790271
1002
}
  0
LINE
  5
207
330
1F3
100
AcDbEntity
  8
M-PIPE
100
AcDbLine
 10
1724.083162545682
 20
1511.982558849933
 30
0.0
 11
1718.083162545681
 21
1511.982558849933
 31
0.0
1001
REVIT
1002
{
1070
     3
1000
790271
1002
}
  0
LINE
  5
208
330
1F3
100
AcDbEntity
  8
M-PIPE
100
AcDbLine
 10
1724.083162545682
 20
1564.98255885006
 30
0.0
 11
1718.083162545682
 21
1564.98255885006
 31
0.0
1001
REVIT
1002
{
1070
     3
1000
790271
1002
}
  0
LINE
  5
209
330
1F3
100
AcDbEntity
  8
M-PIPE
100
AcDbLine
 10
1724.083162545682
 20
1570.982558850059
 30
0.0
 11
1718.083162545682
 21
1570.982558850059
 31
0.0
1001
REVIT
1002
{
1070
     3
1000
790271
1002
}
  0
LINE
  5
20A
330
1F3
100
AcDbEntity
  8
M-PIPE
100
AcDbLine
 10
1739.083392443797
 20
1515.194369521384
 30
0.0
 11
1738.083162545685
 21
1515.77185252231
 31
0.0
1001
REVIT
1002
{
1070
     3
1000
790271
1002
}
  0
LINE
  5
20B
330
1F3
100
AcDbEntity
  8
M-PIPE
100
AcDbLine
 10
1704.083162545685
 20
1515.771852522311
 30
0.0
 11
1703.082932647541
 21
1515.194369521365
 31
0.0
1001
REVIT
1002
{
1070
     3
1000
790271
1002
}
  0
LINE
  5
20C
330
1F3
100
AcDbEntity
  8
M-PIPE
100
AcDbLine
 10
1738.083162545686
 20
1515.77185252231
 30
0.0
 11
1738.083162545686
 21
1522.896822804526
 31
0.0
1001
REVIT
1002
{
1070
     3
1000
790271
1002
}
  0
LINE
  5
20D
330
1F3
100
AcDbEntity
  8
M-PIPE
100
AcDbLine
 10
1704.083162545685
 20
1522.896822804527
 30
0.0
 11
1704.083162545685
 21
1515.771852522311
 31
0.0
1001
REVIT
1002
{
1070
     3
1000
790271
1002
}
  0
LINE
  5
20E
330
1F3
100
AcDbEntity
  8
M-PIPE
100
AcDbLine
 10
1738.083162545686
 20
1522.896822804526
 30
0.0
 11
1743.513802554681
 21
1526.032204275592
 31
0.0
1001
REVIT
1002
{
1070
     3
1000
790271
1002
}
  0
LINE
  5
20F
330
1F3
100
AcDbEntity
  8
M-PIPE
100
AcDbLine
 10
1743.523238980901
 20
1526.03765239881
 30
0.0
 11
1743.583162545686
 21
1526.072249285069
 31
0.0
1001
REVIT
1002
{
1070
     3
1000
790271
1002
}
  0
LINE
  5
210
330
1F3
100
AcDbEntity
  8
M-PIPE
100
AcDbLine
 10
1698.583162545684
 20
1526.07224928507
 30
0.0
 11
1698.64308611047
 21
1526.03765239881
 31
0.0
1001
REVIT
1002
{
1070
     3
1000
790271
1002
}
  0
LINE
  5
211
330
1F3
100
AcDbEntity
  8
M-PIPE
100
AcDbLine
 10
1698.652522536689
 20
1526.032204275593
 30
0.0
 11
1704.083162545685
 21
1522.896822804527
 31
0.0
1001
REVIT
1002
{
1070
     3
1000
790271
1002
}
  0
LINE
  5
212
330
1F3
100
AcDbEntity
  8
M-PIPE
100
AcDbLine
 10
1743.583162545686
 20
1526.072249285069
 30
0.0
 11
1743.583162545687
 21
1553.982558849798
 31
0.0
1001
REVIT
1002
{
1070
     3
1000
790271
1002
}
  0
LINE
  5
213
330
1F3
100
AcDbEntity
  8
M-PIPE
100
AcDbLine
 10
1698.583162545685
 20
1553.982558849799
 30
0.0
 11
1698.583162545684
 21
1526.07224928507
 31
0.0
1001
REVIT
1002
{
1070
     3
1000
790271
1002
}
  0
LINE
  5
214
330
1F3
100
AcDbEntity
  8
M-PIPE
100
AcDbLine
 10
1744.583162545686
 20
1553.982558849798
 30
0.0
 11
1744.583162545686
 21
1556.910762080137
 31
0.0
1001
REVIT
1002
{
1070
     3
1000
790271
1002
}
  0
LINE
  5
215
330
1F3
100
AcDbEntity
  8
M-PIPE
100
AcDbLine
 10
1697.583162545685
 20
1556.910762080138
 30
0.0
 11
1697.583162545685
 21
1553.982558849799
 31
0.0
1001
REVIT
1002
{
1070
     3
1000
790271
1002
}
  0
LINE
  5
216
330
1F3
100
AcDbEntity
  8
M-PIPE
100
AcDbLine
 10
1744.583162545686
 20
1556.910762080137
 30
0.0
 11
1740.583162545686
 21
1557.982558849861
 31
0.0
1001
REVIT
1002
{
1070
     3
1000
790271
1002
}
  0
LINE
  5
217
330
1F3
100
AcDbEntity
  8
M-PIPE
100
AcDbLine
 10
1701.583162545685
 20
1557.982558849862
 30
0.0
 11
1697.583162545685
 21
1556.910762080138
 31
0.0
1001
REVIT
1002
{
1070
     3
1000
790271
1002
}
  0
LINE
  5
218
330
1F3
100
AcDbEntity
  8
M-PIPE
100
AcDbLine
 10
1739.08316306658
 20
1499.982558849995
 30
0.0
 11
1721.083162545682
 21
1499.982558849995
 31
0.0
1001
REVIT
1002
{
1070
     3
1000
790271
1002
}
  0
SPLINE
  5
219
330
1F3
100
AcDbEntity
  8
M-PIPE
100
AcDbSpline
210
0.0
220
0.0
230
1.0
 70
    24
 71
     3
 72
     9
 73
     5
 74
     0
 42
0.000000001
 43
0.0000000001
 40
-1.0
 40
-1.0
 40
-1.0
 40
-1.0
 40
-0.5
 40
0.0
 40
0.0
 40
0.0
 40
0.0
 10
1739.083162545666
 20
1499.982558849995
 30
0.0
 10
1739.083162545666
 20
1500.04472534253
 30
0.0
 10
1739.083162545666
 20
1500.539904386587
 30
0.0
 10
1739.083162545666
 20
1501.776775548618
 30
0.0
 10
1739.083162545666
 20
1502.580634159126
 30
0.0
1001
REVIT
1002
{
1070
     3
1000
790271
1002
}
  0
SPLINE
  5
21A
330
1F3
100
AcDbEntity
  8
M-PIPE
100
AcDbSpline
210
0.0
220
0.0
230
1.0
 70
     8
 71
     3
 72
    13
 73
     9
 74
     0
 42
0.000000001
 43
0.0000000001
 40
-1.0
 40
-1.0
 40
-1.0
 40
-1.0
 40
-0.8333333333333332
 40
-0.75
 40
-0.6666666666666666
 40
-0.3333333333333333
 40
-0.1666666666666666
 40
0.0
 40
0.0
 40
0.0
 40
0.0
 10
1736.578353074093
 20
1502.580634159126
 30
0.0
 10
1735.899752015253
 20
1502.010429096197
 30
0.0
 10
1734.861457873441
 20
1501.298479213685
 30
0.0
 10
1733.431484949005
 20
1500.636330109825
 30
0.0
 10
1731.260127339991
 20
1499.928615930633
 30
0.0
 10
1728.426085996015
 20
1499.954444539808
 30
0.0
 10
1725.609107820739
 20
1501.081782793909
 30
0.0
 10
1724.248545326252
 20
1502.019163528351
 30
0.0
 10
1723.587972017252
 20
1502.580634159127
 30
0.0
1001
REVIT
1002
{
1070
     3
1000
790271
1002
}
  0
SPLINE
  5
21B
330
1F3
100
AcDbEntity
  8
M-PIPE
100
AcDbSpline
210
0.0
220
0.0
230
1.0
 70
     8
 71
     3
 72
     8
 73
     4
 74
     0
 42
0.000000001
 43
0.0000000001
 40
-0.5056742803494022
 40
-0.5056742803494022
 40
-0.5056742803494022
 40
-0.5056742803494022
 40
-0.5
 40
-0.5
 40
-0.5
 40
-0.5
 10
1730.0412427936
 20
1500.033957000752
 30
0.0
 10
1730.067626297461
 20
1500.033890069361
 30
0.0
 10
1730.094002018055
 20
1500.033975040898
 30
0.0
 10
1730.120369442738
 20
1500.034207615409
 30
0.0
1001
REVIT
1002
{
1070
     3
1000
790271
1002
}
  0
SPLINE
  5
21C
330
1F3
100
AcDbEntity
  8
M-PIPE
100
AcDbSpline
210
0.0
220
0.0
230
1.0
 70
    24
 71
     3
 72
     8
 73
     4
 74
     0
 42
0.000000001
 43
0.0000000001
 40
-0.1406195710601044
 40
-0.1406195710601044
 40
-0.1406195710601044
 40
-0.1406195710601044
 40
0.0
 40
0.0
 40
0.0
 40
0.0
 10
1739.083162545666
 20
1500.079729658512
 30
0.0
 10
1739.083162545666
 20
1500.032712622819
 30
0.0
 10
1739.083162545666
 20
1500.000322353313
 30
0.0
 10
1739.083162545666
 20
1499.982558849995
 30
0.0
1001
REVIT
1002
{
1070
     3
1000
790271
1002
}
  0
LINE
  5
21D
330
1F3
100
AcDbEntity
  8
M-PIPE
100
AcDbLine
 10
1729.458690387398
 20
1499.982558849995
 30
0.0
 11
1730.71273921918
 21
1499.982558849995
 31
0.0
1001
REVIT
1002
{
1070
     3
1000
790271
1002
}
  0
LINE
  5
21E
330
1F3
100
AcDbEntity
  8
M-PIPE
100
AcDbLine
 10
1739.042469515294
 20
1499.982558849995
 30
0.0
 11
1739.083162545666
 21
1499.982558849995
 31
0.0
1001
REVIT
1002
{
1070
     3
1000
790271
1002
}
  0
SPLINE
  5
21F
330
1F3
100
AcDbEntity
  8
M-PIPE
100
AcDbSpline
210
0.0
220
0.0
230
1.0
 70
     8
 71
     3
 72
    13
 73
     9
 74
     0
 42
0.000000001
 43
0.0000000001
 40
-1.0
 40
-1.0
 40
-1.0
 40
-1.0
 40
-0.8333333333333332
 40
-0.75
 40
-0.6666666666666666
 40
-0.3333333333333333
 40
-0.1666666666666666
 40
0.0
 40
0.0
 40
0.0
 40
0.0
 10
1718.578353074069
 20
1502.580634159127
 30
0.0
 10
1717.899752015232
 20
1502.010429096203
 30
0.0
 10
1716.861457873425
 20
1501.298479213699
 30
0.0
 10
1715.431484948996
 20
1500.636330109845
 30
0.0
 10
1713.260127339993
 20
1499.928615930661
 30
0.0
 10
1710.426085996035
 20
1499.954444539836
 30
0.0
 10
1707.609107820773
 20
1501.081782793925
 30
0.0
 10
1706.248545326292
 20
1502.019163528357
 30
0.0
 10
1705.587972017295
 20
1502.580634159127
 30
0.0
1001
REVIT
1002
{
1070
     3
1000
790271
1002
}
  0
SPLINE
  5
220
330
1F3
100
AcDbEntity
  8
M-PIPE
100
AcDbSpline
210
0.0
220
0.0
230
1.0
 70
    24
 71
     3
 72
     9
 73
     5
 74
     0
 42
0.000000001
 43
0.0000000001
 40
-1.0
 40
-1.0
 40
-1.0
 40
-1.0
 40
-0.5
 40
0.0
 40
0.0
 40
0.0
 40
0.0
 10
1703.083162545666
 20
1502.580634159127
 30
0.0
 10
1703.083162545666
 20
1501.77777060228
 30
0.0
 10
1703.083162545666
 20
1500.541894493912
 30
0.0
 10
1703.083162545666
 20
1500.045720396193
 30
0.0
 10
1703.083162545666
 20
1499.982558849995
 30
0.0
1001
REVIT
1002
{
1070
     3
1000
790271
1002
}
  0
LINE
  5
221
330
1F3
100
AcDbEntity
  8
M-PIPE
100
AcDbLine
 10
1721.083162545682
 20
1499.982558849995
 30
0.0
 11
1703.083162545666
 21
1499.982558849995
 31
0.0
1001
REVIT
1002
{
1070
     3
1000
790271
1002
}
  0
LINE
  5
222
330
1F3
100
AcDbEntity
  8
M-PIPE
100
AcDbLine
 10
1703.083162024784
 20
1499.982558849995
 30
0.0
 11
1703.125506471479
 21
1499.982558849995
 31
0.0
1001
REVIT
1002
{
1070
     3
1000
790271
1002
}
  0
LINE
  5
223
330
1F3
100
AcDbEntity
  8
M-PIPE
100
AcDbLine
 10
1711.622293669722
 20
1499.982558849995
 30
0.0
 11
1712.877048800527
 21
1499.982558849995
 31
0.0
1001
REVIT
1002
{
1070
     3
1000
790271
1002
}
  0
SPLINE
  5
224
330
1F3
100
AcDbEntity
  8
M-PIPE
100
AcDbSpline
210
0.0
220
0.0
230
1.0
 70
    24
 71
     3
 72
     8
 73
     4
 74
     0
 42
0.000000001
 43
0.0000000001
 40
-1.0
 40
-1.0
 40
-1.0
 40
-1.0
 40
-0.8812923035737899
 40
-0.8812923035737899
 40
-0.8812923035737899
 40
-0.8812923035737899
 10
1703.083162545666
 20
1499.982558849995
 30
0.0
 10
1703.083162545666
 20
1499.997318135841
 30
0.0
 10
1703.083162545666
 20
1500.022528988489
 30
0.0
 10
1703.083162545666
 20
1500.058191407942
 30
0.0
1001
REVIT
1002
{
1070
     3
1000
790271
1002
}
  0
SPLINE
  5
225
330
1F3
100
AcDbEntity
  8
M-PIPE
100
AcDbSpline
210
0.0
220
0.0
230
1.0
 70
     8
 71
     3
 72
     8
 73
     4
 74
     0
 42
0.000000001
 43
0.0000000001
 40
-0.5056742803480417
 40
-0.5056742803480417
 40
-0.5056742803480417
 40
-0.5056742803480417
 40
-0.5
 40
-0.5
 40
-0.5
 40
-0.5
 10
1712.041242793609
 20
1500.033957000778
 30
0.0
 10
1712.067626297464
 20
1500.033890069387
 30
0.0
 10
1712.094002018052
 20
1500.033975040925
 30
0.0
 10
1712.120369442728
 20
1500.034207615436
 30
0.0
1001
REVIT
1002
{
1070
     3
1000
790271
1002
}
  0
LINE
  5
226
330
1F3
100
AcDbEntity
  8
M-PIPE
100
AcDbLine
 10
1739.083162545666
 20
1502.580634159126
 30
0.0
 11
1736.578353074093
 21
1502.580634159126
 31
0.0
1001
REVIT
1002
{
1070
     3
1000
790271
1002
}
  0
LINE
  5
227
330
1F3
100
AcDbEntity
  8
M-PIPE
100
AcDbLine
 10
1739.083162545666
 20
1502.580634159126
 30
0.0
 11
1739.083162545666
 21
1514.328476849336
 31
0.0
1001
REVIT
1002
{
1070
     3
1000
790271
1002
}
  0
LINE
  5
228
330
1F3
100
AcDbEntity
  8
M-PIPE
100
AcDbLine
 10
1736.578353074093
 20
1514.328476849336
 30
0.0
 11
1736.578353074093
 21
1502.580634159126
 31
0.0
1001
REVIT
1002
{
1070
     3
1000
790271
1002
}
  0
LINE
  5
229
330
1F3
100
AcDbEntity
  8
M-PIPE
100
AcDbLine
 10
1723.587972017252
 20
1502.580634159127
 30
0.0
 11
1721.083162545682
 21
1502.580634159127
 31
0.0
1001
REVIT
1002
{
1070
     3
1000
790271
1002
}
  0
LINE
  5
22A
330
1F3
100
AcDbEntity
  8
M-PIPE
100
AcDbLine
 10
1723.587972017252
 20
1502.580634159127
 30
0.0
 11
1723.587972017252
 21
1505.982558849932
 31
0.0
1001
REVIT
1002
{
1070
     3
1000
790271
1002
}
  0
LINE
  5
22B
330
1F3
100
AcDbEntity
  8
M-PIPE
100
AcDbLine
 10
1718.578353074069
 20
1505.982558849932
 30
0.0
 11
1718.578353074069
 21
1502.580634159127
 31
0.0
1001
REVIT
1002
{
1070
     3
1000
790271
1002
}
  0
LINE
  5
22C
330
1F3
100
AcDbEntity
  8
M-PIPE
100
AcDbLine
 10
1721.083162545682
 20
1502.580634159127
 30
0.0
 11
1718.578353074069
 21
1502.580634159127
 31
0.0
1001
REVIT
1002
{
1070
     3
1000
790271
1002
}
  0
LINE
  5
22D
330
1F3
100
AcDbEntity
  8
M-PIPE
100
AcDbLine
 10
1705.587972017295
 20
1502.580634159127
 30
0.0
 11
1703.083162545666
 21
1502.580634159127
 31
0.0
1001
REVIT
1002
{
1070
     3
1000
790271
1002
}
  0
LINE
  5
22E
330
1F3
100
AcDbEntity
  8
M-PIPE
100
AcDbLine
 10
1705.587972017295
 20
1502.580634159127
 30
0.0
 11
1705.587972017295
 21
1514.328476849336
 31
0.0
1001
REVIT
1002
{
1070
     3
1000
790271
1002
}
  0
LINE
  5
22F
330
1F3
100
AcDbEntity
  8
M-PIPE
100
AcDbLine
 10
1703.083162545666
 20
1514.328476849336
 30
0.0
 11
1703.083162545666
 21
1502.580634159127
 31
0.0
1001
REVIT
1002
{
1070
     3
1000
790271
1002
}
  0
SPLINE
  5
230
330
1F3
100
AcDbEntity
  8
M-PIPE
100
AcDbSpline
210
0.0
220
0.0
230
1.0
 70
     8
 71
     3
 72
     9
 73
     5
 74
     0
 42
0.000000001
 43
0.0000000001
 40
-0.9634467282711025
 40
-0.9634467282711025
 40
-0.9634467282711025
 40
-0.9634467282711025
 40
-0.5
 40
0.0
 40
0.0
 40
0.0
 40
0.0
 10
1724.055097244221
 20
1514.450463529714
 30
0.0
 10
1726.030509336883
 20
1514.946446578604
 30
0.0
 10
1730.169747777832
 20
1515.461989376277
 30
0.0
 10
1734.376774656243
 20
1514.905784351811
 30
0.0
 10
1736.578353074093
 20
1514.328476849336
 30
0.0
1001
REVIT
1002
{
1070
     3
1000
790271
1002
}
  0
LINE
  5
231
330
1F3
100
AcDbEntity
  8
M-PIPE
100
AcDbLine
 10
1739.083162545666
 20
1514.328476849336
 30
0.0
 11
1736.578353074093
 21
1514.328476849336
 31
0.0
1001
REVIT
1002
{
1070
     3
1000
790271
1002
}
  0
SPLINE
  5
232
330
1F3
100
AcDbEntity
  8
M-PIPE
100
AcDbSpline
210
0.0
220
0.0
230
1.0
 70
    24
 71
     3
 72
     9
 73
     5
 74
     0
 42
0.000000001
 43
0.0000000001
 40
-1.0
 40
-1.0
 40
-1.0
 40
-1.0
 40
-0.5
 40
-0.4955503609475284
 40
-0.4955503609475284
 40
-0.4955503609475284
 40
-0.4955503609475284
 10
1739.083162545666
 20
1514.328476849336
 30
0.0
 10
1739.083162545666
 20
1514.90578435181
 30
0.0
 10
1739.083162545666
 20
1515.197006913051
 30
0.0
 10
1739.083162545666
 20
1515.194415242493
 30
0.0
 10
1739.083162545666
 20
1515.194369521383
 30
0.0
1001
REVIT
1002
{
1070
     3
1000
790271
1002
}
  0
SPLINE
  5
233
330
1F3
100
AcDbEntity
  8
M-PIPE
100
AcDbSpline
210
0.0
220
0.0
230
1.0
 70
    24
 71
     3
 72
     8
 73
     4
 74
     0
 42
0.000000001
 43
0.0000000001
 40
-0.5
 40
-0.5
 40
-0.5
 40
-0.5
 40
0.0
 40
0.0
 40
0.0
 40
0.0
 10
1703.083162545666
 20
1515.194438103029
 30
0.0
 10
1703.083162545666
 20
1515.194438103029
 30
0.0
 10
1703.083162545666
 20
1514.905784351798
 30
0.0
 10
1703.083162545666
 20
1514.328476849336
 30
0.0
1001
REVIT
1002
{
1070
     3
1000
790271
1002
}
  0
LINE
  5
234
330
1F3
100
AcDbEntity
  8
M-PIPE
100
AcDbLine
 10
1705.587972017296
 20
1514.328476849336
 30
0.0
 11
1703.083162545666
 21
1514.328476849336
 31
0.0
1001
REVIT
1002
{
1070
     3
1000
790271
1002
}
  0
SPLINE
  5
235
330
1F3
100
AcDbEntity
  8
M-PIPE
100
AcDbSpline
210
0.0
220
0.0
230
1.0
 70
     8
 71
     3
 72
     9
 73
     5
 74
     0
 42
0.000000001
 43
0.0000000001
 40
-1.0
 40
-1.0
 40
-1.0
 40
-1.0
 40
-0.5
 40
-0.0356126893515835
 40
-0.0356126893515835
 40
-0.0356126893515835
 40
-0.0356126893515835
 10
1705.587972017295
 20
1514.328476849336
 30
0.0
 10
1707.716520618381
 20
1514.905784351805
 30
0.0
 10
1711.857225654641
 20
1515.462532381528
 30
0.0
 10
1716.065851552359
 20
1514.945438941064
 30
0.0
 10
1718.108206167588
 20
1514.447440617114
 30
0.0
1001
REVIT
1002
{
1070
     3
1000
790271
1002
}
  0
LINE
  5
236
330
1F3
100
AcDbEntity
  8
M-PIPE
100
AcDbLine
 10
1738.083162545683
 20
1515.77185252231
 30
0.0
 11
1724.085152193264
 21
1515.77185252231
 31
0.0
1001
REVIT
1002
{
1070
     3
1000
790271
1002
}
  0
LINE
  5
237
330
1F3
100
AcDbEntity
  8
M-PIPE
100
AcDbLine
 10
1718.081172898099
 20
1515.77185252231
 30
0.0
 11
1704.083162545682
 21
1515.77185252231
 31
0.0
1001
REVIT
1002
{
1070
     3
1000
790271
1002
}
  0
LINE
  5
238
330
1F3
100
AcDbEntity
  8
M-PIPE
100
AcDbLine
 10
1738.083162545683
 20
1522.896822804526
 30
0.0
 11
1724.085152193264
 21
1522.896822804526
 31
0.0
1001
REVIT
1002
{
1070
     3
1000
790271
1002
}
  0
LINE
  5
239
330
1F3
100
AcDbEntity
  8
M-PIPE
100
AcDbLine
 10
1718.081172898099
 20
1522.896822804526
 30
0.0
 11
1704.083162545682
 21
1522.896822804526
 31
0.0
1001
REVIT
1002
{
1070
     3
1000
790271
1002
}
  0
LINE
  5
23A
330
1F3
100
AcDbEntity
  8
M-PIPE
100
AcDbLine
 10
1743.583162545683
 20
1526.072249285069
 30
0.0
 11
1730.360590076329
 21
1526.07224928507
 31
0.0
1001
REVIT
1002
{
1070
     3
1000
790271
1002
}
  0
LINE
  5
23B
330
1F3
100
AcDbEntity
  8
M-PIPE
100
AcDbLine
 10
1711.805735015036
 20
1526.07224928507
 30
0.0
 11
1698.583162545682
 21
1526.07224928507
 31
0.0
1001
REVIT
1002
{
1070
     3
1000
790271
1002
}
  0
LINE
  5
23C
330
1F3
100
AcDbEntity
  8
M-PIPE
100
AcDbLine
 10
1744.583162545684
 20
1553.982558849798
 30
0.0
 11
1724.08520337114
 21
1553.982558849798
 31
0.0
1001
REVIT
1002
{
1070
     3
1000
790271
1002
}
  0
LINE
  5
23D
330
1F3
100
AcDbEntity
  8
M-PIPE
100
AcDbLine
 10
1718.081121720224
 20
1553.982558849798
 30
0.0
 11
1697.583162545682
 21
1553.982558849799
 31
0.0
1001
REVIT
1002
{
1070
     3
1000
790271
1002
}
  0
LINE
  5
23E
330
1F3
100
AcDbEntity
  8
M-PIPE
100
AcDbLine
 10
1744.583162545684
 20
1556.910762080137
 30
0.0
 11
1724.08520337114
 21
1556.910762080137
 31
0.0
1001
REVIT
1002
{
1070
     3
1000
790271
1002
}
  0
LINE
  5
23F
330
1F3
100
AcDbEntity
  8
M-PIPE
100
AcDbLine
 10
1740.583162545684
 20
1557.982558849861
 30
0.0
 11
1739.083162545656
 21
1557.982558849861
 31
0.0
1001
REVIT
1002
{
1070
     3
1000
790271
1002
}
  0
LINE
  5
240
330
1F3
100
AcDbEntity
  8
M-PIPE
100
AcDbLine
 10
1736.578353074081
 20
1557.982558849861
 30
0.0
 11
1724.086270885311
 21
1557.982558849861
 31
0.0
1001
REVIT
1002
{
1070
     3
1000
790271
1002
}
  0
LINE
  5
241
330
1F3
100
AcDbEntity
  8
M-PIPE
100
AcDbLine
 10
1718.081121720224
 20
1556.910762080137
 30
0.0
 11
1697.583162545682
 21
1556.910762080138
 31
0.0
1001
REVIT
1002
{
1070
     3
1000
790271
1002
}
  0
LINE
  5
242
330
1F3
100
AcDbEntity
  8
M-PIPE
100
AcDbLine
 10
1718.080054206053
 20
1557.982558849861
 30
0.0
 11
1705.587972017279
 21
1557.982558849862
 31
0.0
1001
REVIT
1002
{
1070
     3
1000
790271
1002
}
  0
LINE
  5
243
330
1F3
100
AcDbEntity
  8
M-PIPE
100
AcDbLine
 10
1703.083162545656
 20
1557.982558849862
 30
0.0
 11
1701.583162545682
 21
1557.982558849862
 31
0.0
1001
REVIT
1002
{
1070
     3
1000
790271
1002
}
  0
LINE
  5
244
330
1F3
100
AcDbEntity
  8
M-PIPE
100
AcDbLine
 10
1739.083162545656
 20
1557.982558849861
 30
0.0
 11
1736.578353074081
 21
1557.982558849861
 31
0.0
1001
REVIT
1002
{
1070
     3
1000
790271
1002
}
  0
LINE
  5
245
330
1F3
100
AcDbEntity
  8
M-PIPE
100
AcDbLine
 10
1739.083162545657
 20
1557.982558849861
 30
0.0
 11
1739.083162545657
 21
1572.116533446207
 31
0.0
1001
REVIT
1002
{
1070
     3
1000
790271
1002
}
  0
LINE
  5
246
330
1F3
100
AcDbEntity
  8
M-PIPE
100
AcDbLine
 10
1736.57835307408
 20
1572.116533446207
 30
0.0
 11
1736.57835307408
 21
1557.982558849861
 31
0.0
1001
REVIT
1002
{
1070
     3
1000
790271
1002
}
  0
LINE
  5
247
330
1F3
100
AcDbEntity
  8
M-PIPE
100
AcDbLine
 10
1723.587972017227
 20
1570.982558850059
 30
0.0
 11
1723.587972017227
 21
1572.116533446207
 31
0.0
1001
REVIT
1002
{
1070
     3
1000
790271
1002
}
  0
LINE
  5
248
330
1F3
100
AcDbEntity
  8
M-PIPE
100
AcDbLine
 10
1718.578353074047
 20
1572.116533446207
 30
0.0
 11
1718.578353074047
 21
1570.982558850059
 31
0.0
1001
REVIT
1002
{
1070
     3
1000
790271
1002
}
  0
LINE
  5
249
330
1F3
100
AcDbEntity
  8
M-PIPE
100
AcDbLine
 10
1705.587972017279
 20
1557.982558849862
 30
0.0
 11
1703.083162545656
 21
1557.982558849862
 31
0.0
1001
REVIT
1002
{
1070
     3
1000
790271
1002
}
  0
LINE
  5
24A
330
1F3
100
AcDbEntity
  8
M-PIPE
100
AcDbLine
 10
1705.587972017279
 20
1557.982558849862
 30
0.0
 11
1705.587972017279
 21
1572.116533446208
 31
0.0
1001
REVIT
1002
{
1070
     3
1000
790271
1002
}
  0
LINE
  5
24B
330
1F3
100
AcDbEntity
  8
M-PIPE
100
AcDbLine
 10
1703.083162545657
 20
1572.116533446208
 30
0.0
 11
1703.083162545657
 21
1557.982558849862
 31
0.0
1001
REVIT
1002
{
1070
     3
1000
790271
1002
}
  0
LINE
  5
24C
330
1F3
100
AcDbEntity
  8
M-PIPE
100
AcDbLine
 10
1723.587972017225
 20
1572.116533446207
 30
0.0
 11
1721.083162545683
 21
1572.116533446207
 31
0.0
1001
REVIT
1002
{
1070
     3
1000
790271
1002
}
  0
SPLINE
  5
24D
330
1F3
100
AcDbEntity
  8
M-PIPE
100
AcDbSpline
210
0.0
220
0.0
230
1.0
 70
     8
 71
     3
 72
     9
 73
     5
 74
     0
 42
0.000000001
 43
0.0000000001
 40
-1.0
 40
-1.0
 40
-1.0
 40
-1.0
 40
-0.5
 40
0.0
 40
0.0
 40
0.0
 40
0.0
 10
1723.587972017225
 20
1572.116533446207
 30
0.0
 10
1725.716520618324
 20
1572.693840948683
 30
0.0
 10
1730.0101327289
 20
1573.271148451159
 30
0.0
 10
1734.376774656229
 20
1572.693840948683
 30
0.0
 10
1736.578353074081
 20
1572.116533446207
 30
0.0
1001
REVIT
1002
{
1070
     3
1000
790271
1002
}
  0
LINE
  5
24E
330
1F3
100
AcDbEntity
  8
M-PIPE
100
AcDbLine
 10
1739.083162545656
 20
1572.116533446207
 30
0.0
 11
1736.578353074081
 21
1572.116533446207
 31
0.0
1001
REVIT
1002
{
1070
     3
1000
790271
1002
}
  0
SPLINE
  5
24F
330
1F3
100
AcDbEntity
  8
M-PIPE
100
AcDbSpline
210
0.0
220
0.0
230
1.0
 70
    24
 71
     3
 72
     9
 73
     5
 74
     0
 42
0.000000001
 43
0.0000000001
 40
-1.0
 40
-1.0
 40
-1.0
 40
-1.0
 40
-0.5
 40
0.0
 40
0.0
 40
0.0
 40
0.0
 10
1739.083162545656
 20
1572.116533446207
 30
0.0
 10
1739.083162545658
 20
1572.398959293563
 30
0.0
 10
1739.083162545661
 20
1572.825722708214
 30
0.0
 10
1739.083162545665
 20
1572.976309562742
 30
0.0
 10
1739.083162545666
 20
1572.982558849976
 30
0.0
1001
REVIT
1002
{
1070
     3
1000
790271
1002
}
  0
SPLINE
  5
250
330
1F3
100
AcDbEntity
  8
M-PIPE
100
AcDbSpline
210
0.0
220
0.0
230
1.0
 70
    24
 71
     3
 72
     8
 73
     4
 74
     0
 42
0.000000001
 43
0.0000000001
 40
-1.0
 40
-1.0
 40
-1.0
 40
-1.0
 40
-0.8010821838735681
 40
-0.8010821838735681
 40
-0.8010821838735681
 40
-0.8010821838735681
 10
1739.083162545666
 20
1572.982558849976
 30
0.0
 10
1739.083162545667
 20
1572.980072660834
 30
0.0
 10
1739.083162545667
 20
1572.96665863538
 30
0.0
 10
1739.083162545668
 20
1572.942316773612
 30
0.0
1001
REVIT
1002
{
1070
     3
1000
790271
1002
}
  0
SPLINE
  5
251
330
1F3
100
AcDbEntity
  8
M-PIPE
100
AcDbSpline
210
0.0
220
0.0
230
1.0
 70
    24
 71
     3
 72
     9
 73
     5
 74
     0
 42
0.000000001
 43
0.0000000001
 40
-1.0
 40
-1.0
 40
-1.0
 40
-1.0
 40
-0.5
 40
0.0
 40
0.0
 40
0.0
 40
0.0
 10
1703.083162545666
 20
1572.982558849977
 30
0.0
 10
1703.083162545664
 20
1572.976309562726
 30
0.0
 10
1703.083162545661
 20
1572.825722708181
 30
0.0
 10
1703.083162545658
 20
1572.398959293547
 30
0.0
 10
1703.083162545656
 20
1572.116533446207
 30
0.0
1001
REVIT
1002
{
1070
     3
1000
790271
1002
}
  0
LINE
  5
252
330
1F3
100
AcDbEntity
  8
M-PIPE
100
AcDbLine
 10
1705.587972017279
 20
1572.116533446207
 30
0.0
 11
1703.083162545656
 21
1572.116533446208
 31
0.0
1001
REVIT
1002
{
1070
     3
1000
790271
1002
}
  0
SPLINE
  5
253
330
1F3
100
AcDbEntity
  8
M-PIPE
100
AcDbSpline
210
0.0
220
0.0
230
1.0
 70
     8
 71
     3
 72
     8
 73
     4
 74
     0
 42
0.000000001
 43
0.0000000001
 40
-1.0
 40
-1.0
 40
-1.0
 40
-1.0
 40
-0.5833333333331743
 40
-0.5833333333331743
 40
-0.5833333333331743
 40
-0.5833333333331743
 10
1705.587972017279
 20
1572.116533446208
 30
0.0
 10
1707.361762518184
 20
1572.597623031599
 30
0.0
 10
1709.14823180672
 20
1572.878258623077
 30
0.0
 10
1710.947379882886
 20
1572.958440220642
 30
0.0
1001
REVIT
1002
{
1070
     3
1000
790271
1002
}
  0
SPLINE
  5
254
330
1F3
100
AcDbEntity
  8
M-PIPE
100
AcDbSpline
210
0.0
220
0.0
230
1.0
 70
     8
 71
     3
 72
     9
 73
     5
 74
     0
 42
0.000000001
 43
0.0000000001
 40
-0.5765535706502652
 40
-0.5765535706502652
 40
-0.5765535706502652
 40
-0.5765535706502652
 40
-0.5
 40
0.0
 40
0.0
 40
0.0
 40
0.0
 10
1711.035214091684
 20
1572.962195012237
 30
0.0
 10
1711.365844801293
 20
1572.975728137353
 30
0.0
 10
1713.859171661274
 20
1573.026689650589
 30
0.0
 10
1716.376774656209
 20
1572.693840948675
 30
0.0
 10
1718.578353074046
 20
1572.116533446207
 30
0.0
1001
REVIT
1002
{
1070
     3
1000
790271
1002
}
  0
LINE
  5
255
330
1F3
100
AcDbEntity
  8
M-PIPE
100
AcDbLine
 10
1721.083162545683
 20
1572.116533446207
 30
0.0
 11
1718.578353074046
 21
1572.116533446207
 31
0.0
1001
REVIT
1002
{
1070
     3
1000
790271
1002
}
  0
LINE
  5
256
330
1F3
100
AcDbEntity
  8
M-PIPE
100
AcDbLine
 10
1739.08316254571
 20
1572.982558849976
 30
0.0
 11
1721.083162545683
 21
1572.982558849977
 31
0.0
1001
REVIT
1002
{
1070
     3
1000
790271
1002
}
  0
LINE
  5
257
330
1F3
100
AcDbEntity
  8
M-PIPE
100
AcDbLine
 10
1721.083162545683
 20
1572.982558849976
 30
0.0
 11
1710.996350570995
 21
1572.982558849977
 31
0.0
1001
REVIT
1002
{
1070
     3
1000
790271
1002
}
  0
LINE
  5
258
330
1F3
100
AcDbEntity
  8
M-PIPE
100
AcDbLine
 10
1710.718615100154
 20
1572.982558849977
 30
0.0
 11
1703.083162545656
 21
1572.982558849977
 31
0.0
1001
REVIT
1002
{
1070
     3
1000
790271
1002
}
  0
LINE
  5
259
330
1F3
100
AcDbEntity
  8
P-SANR-FIXT
100
AcDbLine
 10
1528.083162545699
 20
1999.982558850011
 30
0.0
 11
1528.083162545699
 21
1703.571039535047
 31
0.0
  0
LINE
  5
25A
330
1F3
100
AcDbEntity
  8
P-SANR-FIXT
100
AcDbLine
 10
1528.083162545699
 20
2118.489287673539
 30
0.0
 11
1528.083162545699
 21
1999.982558850011
 31
0.0
  0
LWPOLYLINE
  5
25B
330
1F3
100
AcDbEntity
  8
P-SANR-FIXT
100
AcDbPolyline
 90
       25
 70
   128
 43
0.0
 10
1542.338057675765
 20
1675.381668773438
 10
1541.227377379071
 20
1676.233800194722
 10
1540.151661676325
 20
1677.129665367317
 10
1539.112631483177
 20
1678.067831098055
 10
1538.111949026288
 20
1679.046796521898
 10
1537.151215184122
 20
1680.064995503002
 10
1536.231966925881
 20
1681.120799140202
 10
1535.355674852683
 20
1682.212518372905
 10
1534.523740844911
 20
1683.338406683226
 10
1533.737495819509
 20
1684.496662890045
 10
1532.998197600794
 20
1685.685434030512
 10
1532.307028908206
 20
1686.902818324394
 10
1531.665095464215
 20
1688.146868216517
 10
1531.073424225389
 20
1689.415593492434
 10
1530.532961739497
 20
1690.706964462352
 10
1530.044572631221
 20
1692.018915208196
 10
1529.609038218953
 20
1693.349346888642
 10
1529.227055264841
 20
1694.696131096811
 10
1528.899234860128
 20
1696.057113265267
 10
1528.626101447529
 20
1697.430116112871
 10
1528.40809198224
 20
1698.812943127955
 10
1528.245555232899
 20
1700.203382082285
 10
1528.138751223631
 20
1701.599208570144
 10
1528.087850818068
 20
1702.998189566911
 10
1528.083162545698
 20
1703.571039535048
  0
LWPOLYLINE
  5
25C
330
1F3
100
AcDbEntity
  8
P-SANR-FIXT
100
AcDbPolyline
 90
       17
 70
   128
 43
0.0
 10
1704.519575223003
 20
1620.113848102165
 10
1699.698300663057
 20
1620.210286452153
 10
1688.331652130787
 20
1620.893104942998
 10
1677.001401161785
 20
1622.029921958619
 10
1665.725673740609
 20
1623.618918834299
 10
1654.522508625772
 20
1625.657553514005
 10
1643.409828491579
 20
1628.142564617136
 10
1632.405411255664
 20
1631.069976656033
 10
1621.526861638121
 20
1634.435106395916
 10
1610.791582997705
 20
1638.232570347057
 10
1600.21674949017
 20
1642.456293377216
 10
1589.819278593284
 20
1647.099518430559
 10
1579.615804042473
 20
1652.154817337502
 10
1569.622649220392
 20
1657.614102698198
 10
1559.855801042999
 20
1663.468640820658
 10
1550.330884383894
 20
1669.709065692787
 10
1542.338057675764
 20
1675.381668773439
  0
LWPOLYLINE
  5
25D
330
1F3
100
AcDbEntity
  8
P-SANR-FIXT
100
AcDbPolyline
 90
        8
 70
   128
 43
0.0
 10
1711.374883324748
 20
1619.982558850011
 10
1711.304516521346
 20
1619.982558850011
 10
1711.228665245814
 20
1619.982558850011
 10
1711.168579063782
 20
1619.982558850011
 10
1711.124354100323
 20
1619.982558850011
 10
1711.096061105943
 20
1619.982558850011
 10
1711.083745343399
 20
1619.982558850011
 10
1711.083162545699
 20
1619.982558850011
  0
LWPOLYLINE
  5
25E
330
1F3
100
AcDbEntity
  8
P-SANR-FIXT
100
AcDbPolyline
 90
       11
 70
   128
 43
0.0
 10
1711.083162545699
 20
1619.982558850011
 10
1711.091161479089
 20
1619.982558850011
 10
1711.115145482673
 20
1619.982558850011
 10
1711.155076187161
 20
1619.982558850011
 10
1711.210889711943
 20
1619.982558850011
 10
1711.282496767287
 20
1619.982558850011
 10
1711.369782797179
 20
1619.982558850011
 10
1711.472608162592
 20
1619.982558850011
 10
1711.590808364874
 20
1619.982558850011
 10
1711.72419430892
 20
1619.982558850011
 10
1711.805722073344
 20
1619.982558850011
  0
LWPOLYLINE
  5
25F
330
1F3
100
AcDbEntity
  8
P-SANR-FIXT
100
AcDbPolyline
 90
       18
 70
   128
 43
0.0
 10
1541.720972346081
 20
2146.213948715207
 10
1550.482599008777
 20
2152.689825100955
 10
1559.496183289607
 20
2158.810149859684
 10
1568.747305376519
 20
2164.565131777381
 10
1578.221165447639
 20
2169.945564110641
 10
1587.902607347837
 20
2174.942839315495
 10
1597.776142835336
 20
2179.548962817644
 10
1607.825976359598
 20
2183.756565802071
 10
1618.036030330835
 20
2187.558917001577
 10
1628.389970840722
 20
2190.949933465365
 10
1638.871233793164
 20
2193.924190290474
 10
1649.463051403322
 20
2196.476929300457
 10
1660.148479022488
 20
2198.604066657452
 10
1670.910422245906
 20
2200.302199395455
 10
1681.731664260179
 20
2201.568610864332
 10
1692.59489338649
 20
2202.401275075889
 10
1703.482730775604
 20
2202.79885994501
 10
1707.748263772928
 20
2202.834051826707
  0
LWPOLYLINE
  5
260
330
1F3
100
AcDbEntity
  8
P-SANR-FIXT
100
AcDbPolyline
 90
       41
 70
   128
 43
0.0
 10
1721.083162545698
 20
2202.835939861859
 10
1720.559060170231
 20
2202.835939861859
 10
1720.035796246762
 20
2202.835939861859
 10
1719.514207885945
 20
2202.835939861859
 10
1718.995129517891
 20
2202.835939861859
 10
1718.479391557258
 20
2202.835939861859
 10
1717.967819074765
 20
2202.835939861859
 10
1717.461230477255
 20
2202.835939861859
 10
1716.960436198416
 20
2202.835939861859
 10
1716.466237402265
 20
2202.835939861859
 10
1715.979424701452
 20
2202.835939861859
 10
1715.500776892451
 20
2202.835939861859
 10
1715.031059709649
 20
2202.835939861859
 10
1714.571024600339
 20
2202.835939861859
 10
1714.121407522559
 20
2202.835939861859
 10
1713.68292776772
 20
2202.835939861859
 10
1713.256286809895
 20
2202.835939861859
 10
1712.842167183601
 20
2202.835939861859
 10
1712.441231391902
 20
2202.835939861859
 10
1712.054120846536
 20
2202.835939861859
 10
1711.681454841795
 20
2202.835939861859
 10
1711.32382956379
 20
2202.835939861859
 10
1710.981817136676
 20
2202.835939861859
 10
1710.655964707378
 20
2202.835939861859
 10
1710.34679357027
 20
2202.835939861859
 10
1710.054798333221
 20
2202.835939861859
 10
1709.780446126318
 20
2202.835939861859
 10
1709.52417585457
 20
2202.835939861859
 10
1709.286397495741
 20
2202.835939861859
 10
1709.067491444483
 20
2202.835939861859
 10
1708.867807903781
 20
2202.835939861859
 10
1708.687666324703
 20
2202.835939861859
 10
1708.527354895347
 20
2202.835939861859
 10
1708.387130079801
 20
2202.835939861859
 10
1708.267216207859
 20
2202.835939861859
 10
1708.167805116135
 20
2202.835939861859
 10
1708.089055841168
 20
2202.835939861859
 10
1708.031094365001
 20
2202.835939861859
 10
1707.99401341363
 20
2202.835939861859
 10
1707.977872308667
 20
2202.835939861859
 10
1707.977108490851
 20
2202.835939861859
  0
LWPOLYLINE
  5
261
330
1F3
100
AcDbEntity
  8
P-SANR-FIXT
100
AcDbPolyline
 90
       24
 70
   128
 43
0.0
 10
1707.977108490851
 20
2202.835939861859
 10
1707.987591936191
 20
2202.835939861859
 10
1708.019025500932
 20
2202.835939861859
 10
1708.071358898078
 20
2202.835939861859
 10
1708.144508405357
 20
2202.835939861859
 10
1708.238356999162
 20
2202.835939861859
 10
1708.352754541762
 20
2202.835939861859
 10
1708.487518021492
 20
2202.835939861859
 10
1708.642431845534
 20
2202.835939861859
 10
1708.817248184815
 20
2202.835939861859
 10
1709.011687370485
 20
2202.835939861859
 10
1709.225438341325
 20
2202.835939861859
 10
1709.458159141378
 20
2202.835939861859
 10
1709.70947746701
 20
2202.835939861859
 10
1709.978991262511
 20
2202.835939861859
 10
1710.266269363301
 20
2202.835939861859
 10
1710.570852185703
 20
2202.835939861859
 10
1710.892252462174
 20
2202.835939861859
 10
1711.229956020834
 20
2202.835939861859
 10
1711.583422608028
 20
2202.835939861859
 10
1711.95208675262
 20
2202.835939861859
 10
1712.335358670621
 20
2202.835939861859
 10
1712.732625208724
 20
2202.835939861859
 10
1712.957788557611
 20
2202.835939861859
  0
LWPOLYLINE
  5
262
330
1F3
100
AcDbEntity
  8
P-SANR-FIXT
100
AcDbPolyline
 90
       17
 70
   128
 43
0.0
 10
1728.905449506942
 20
2202.835939861859
 10
1728.478675656569
 20
2202.835939861859
 10
1728.040070562844
 20
2202.835939861859
 10
1727.590335900352
 20
2202.835939861859
 10
1727.130191148616
 20
2202.835939861859
 10
1726.66037244108
 20
2202.835939861859
 10
1726.181631387452
 20
2202.835939861859
 10
1725.694733871292
 20
2202.835939861859
 10
1725.200458824761
 20
2202.835939861859
 10
1724.699596982494
 20
2202.835939861859
 10
1724.192949616592
 20
2202.835939861859
 10
1723.681327254763
 20
2202.835939861859
 10
1723.165548383644
 20
2202.835939861859
 10
1722.646438139404
 20
2202.835939861859
 10
1722.124826987695
 20
2202.835939861859
 10
1721.601549395088
 20
2202.835939861859
 10
1721.083162545698
 20
2202.835939861859
  0
LWPOLYLINE
  5
263
330
1F3
100
AcDbEntity
  8
P-SANR-FIXT
100
AcDbPolyline
 90
       24
 70
   128
 43
0.0
 10
1528.083162545699
 20
2118.489287673539
 10
1528.111158812565
 20
2119.888914370071
 10
1528.195102825107
 20
2121.28630196246
 10
1528.334860290813
 20
2122.679214928651
 10
1528.530207627552
 20
2124.065424905038
 10
1528.780832321255
 20
2125.442714251366
 10
1529.086333425878
 20
2126.808879598489
 10
1529.446222204822
 20
2128.161735373283
 10
1529.859922912813
 20
2129.499117295103
 10
1530.326773716971
 20
2130.818885838167
 10
1530.846027755598
 20
2132.118929654342
 10
1531.416854333
 20
2133.397168950849
 10
1532.038340248424
 20
2134.651558817491
 10
1532.709491256981
 20
2135.88009249807
 10
1533.429233660229
 20
2137.08080460077
 10
1534.19641602386
 20
2138.251774242366
 10
1535.009811019749
 20
2139.391128121223
 10
1535.868117389416
 20
2140.497043514185
 10
1536.769962025768
 20
2141.567751192541
 10
1537.713902169767
 20
2142.601538252408
 10
1538.698427718548
 20
2143.596750855023
 10
1539.721963641253
 20
2144.551796872519
 10
1540.782872498749
 20
2145.465148435003
 10
1541.720972346081
 20
2146.213948715207
  0
LINE
  5
264
330
1F3
100
AcDbEntity
  8
P-SANR-FIXT
100
AcDbLine
 10
1721.418015725963
 20
1703.571039535046
 30
0.0
 11
1721.418015725963
 21
1889.995715267295
 31
0.0
  0
LINE
  5
265
330
1F3
100
AcDbEntity
  8
P-SANR-FIXT
100
AcDbLine
 10
1721.418015725963
 20
2109.969402432726
 30
0.0
 11
1721.418015725963
 21
2118.489287673538
 31
0.0
  0
SPLINE
  5
266
330
1F3
100
AcDbEntity
  8
P-SANR-FIXT
100
AcDbSpline
210
0.0
220
0.0
230
1.0
 70
    24
 71
     3
 72
    11
 73
     7
 74
     0
 42
0.000000001
 43
0.0000000001
 40
-1.0
 40
-1.0
 40
-1.0
 40
-1.0
 40
-0.75
 40
-0.5
 40
-0.25
 40
0.0
 40
0.0
 40
0.0
 40
0.0
 10
1721.418015725962
 20
1675.381668773438
 30
0.0
 10
1721.418015725962
 20
1677.032806465579
 30
0.0
 10
1721.418015725962
 20
1680.73151550881
 30
0.0
 10
1721.418015725962
 20
1687.624401599459
 30
0.0
 10
1721.418015725962
 20
1695.395545569027
 30
0.0
 10
1721.418015725962
 20
1700.789642950646
 30
0.0
 10
1721.418015725962
 20
1703.571039535046
 30
0.0
  0
SPLINE
  5
267
330
1F3
100
AcDbEntity
  8
P-SANR-FIXT
100
AcDbSpline
210
0.0
220
0.0
230
1.0
 70
    24
 71
     3
 72
    12
 73
     8
 74
     0
 42
0.000000001
 43
0.0000000001
 40
-0.9620658651392211
 40
-0.9620658651392211
 40
-0.9620658651392211
 40
-0.9620658651392211
 40
-0.8333333333333332
 40
-0.6666666666666666
 40
-0.3333333333333333
 40
-0.1666666666666666
 40
0.0
 40
0.0
 40
0.0
 40
0.0
 10
1721.418015725965
 20
1620.066280468777
 30
0.0
 10
1721.418015725965
 20
1620.253540616635
 30
0.0
 10
1721.418015725964
 20
1621.40431918004
 30
0.0
 10
1721.418015725964
 20
1627.392242874139
 30
0.0
 10
1721.418015725963
 20
1639.975005961837
 30
0.0
 10
1721.418015725962
 20
1658.403090892974
 30
0.0
 10
1721.418015725962
 20
1669.414219837085
 30
0.0
 10
1721.418015725962
 20
1675.381668773438
 30
0.0
  0
SPLINE
  5
268
330
1F3
100
AcDbEntity
  8
P-SANR-FIXT
100
AcDbSpline
210
0.0
220
0.0
230
1.0
 70
    24
 71
     3
 72
    12
 73
     8
 74
     0
 42
0.000000001
 43
0.0000000001
 40
-1.0
 40
-1.0
 40
-1.0
 40
-1.0
 40
-0.7857142857142857
 40
-0.5714285714285714
 40
-0.2857142857142857
 40
-0.1428571428571428
 40
-0.0703971720124678
 40
-0.0703971720124678
 40
-0.0703971720124678
 40
-0.0703971720124678
 10
1721.418015725962
 20
2146.213948715206
 30
0.0
 10
1721.418015725962
 20
2154.607929547509
 30
0.0
 10
1721.418015725962
 20
2169.663211034682
 30
0.0
 10
1721.418015725963
 20
2188.787430145691
 30
0.0
 10
1721.418015725964
 20
2199.164677220942
 30
0.0
 10
1721.418015725965
 20
2202.45456008986
 30
0.0
 10
1721.418015725965
 20
2202.831624823943
 30
0.0
 10
1721.418015725965
 20
2202.841120446815
 30
0.0
  0
SPLINE
  5
269
330
1F3
100
AcDbEntity
  8
P-SANR-FIXT
100
AcDbSpline
210
0.0
220
0.0
230
1.0
 70
    24
 71
     3
 72
    11
 73
     7
 74
     0
 42
0.000000001
 43
0.0000000001
 40
-1.0
 40
-1.0
 40
-1.0
 40
-1.0
 40
-0.75
 40
-0.5
 40
-0.25
 40
0.0
 40
0.0
 40
0.0
 40
0.0
 10
1721.418015725962
 20
2118.489287673538
 30
0.0
 10
1721.418015725962
 20
2121.203389279754
 30
0.0
 10
1721.418015725962
 20
2126.474208608741
 30
0.0
 10
1721.418015725962
 20
2134.081514354917
 30
0.0
 10
1721.418015725962
 20
2140.870211644719
 30
0.0
 10
1721.418015725962
 20
2144.556320654877
 30
0.0
 10
1721.418015725962
 20
2146.213948715206
 30
0.0
  0
LINE
  5
26A
330
1F3
100
AcDbEntity
  8
P-SANR-FIXT
100
AcDbLine
 10
1737.933162545692
 20
1652.821461833379
 30
0.0
 11
1740.083162545696
 21
1653.142734710906
 31
0.0
  0
LINE
  5
26B
330
1F3
100
AcDbEntity
  8
P-SANR-FIXT
100
AcDbLine
 10
1740.083162545696
 20
1653.142734710906
 30
0.0
 11
1740.083162545696
 21
1654.816011257718
 31
0.0
  0
LINE
  5
26C
330
1F3
100
AcDbEntity
  8
P-SANR-FIXT
100
AcDbLine
 10
1740.083162545696
 20
1643.48347644803
 30
0.0
 11
1737.933162545692
 21
1643.162203570502
 31
0.0
  0
LINE
  5
26D
330
1F3
100
AcDbEntity
  8
P-SANR-FIXT
100
AcDbLine
 10
1740.083162545696
 20
1643.48347644803
 30
0.0
 11
1740.083162545696
 21
1653.142734710906
 31
0.0
  0
LINE
  5
26E
330
1F3
100
AcDbEntity
  8
P-SANR-FIXT
100
AcDbLine
 10
1736.583162545652
 20
2214.982558850038
 30
0.0
 11
1736.583162545652
 21
2231.482558849964
 31
0.0
  0
LINE
  5
26F
330
1F3
100
AcDbEntity
  8
P-SANR-FIXT
100
AcDbLine
 10
1705.583162545719
 20
2231.482558849964
 30
0.0
 11
1705.583162545719
 21
2214.982558850038
 31
0.0
  0
LINE
  5
270
330
1F3
100
AcDbEntity
  8
P-SANR-FIXT
100
AcDbLine
 10
1715.583162545696
 20
2239.982558850026
 30
0.0
 11
1716.491635968485
 21
2239.982558850026
 31
0.0
  0
LINE
  5
271
330
1F3
100
AcDbEntity
  8
P-SANR-FIXT
100
AcDbLine
 10
1714.656746029241
 20
2239.982558850026
 30
0.0
 11
1715.583162545696
 21
2239.982558850026
 31
0.0
  0
LINE
  5
272
330
1F3
100
AcDbEntity
  8
P-SANR-FIXT
100
AcDbLine
 10
1715.583162545696
 20
2239.982558850026
 30
0.0
 11
1710.083162545695
 21
2239.982558850026
 31
0.0
  0
LINE
  5
273
330
1F3
100
AcDbEntity
  8
P-SANR-FIXT
100
AcDbLine
 10
1721.083162545696
 20
2239.982558850026
 30
0.0
 11
1715.583162545696
 21
2239.982558850026
 31
0.0
  0
LINE
  5
274
330
1F3
100
AcDbEntity
  8
P-SANR-FIXT
100
AcDbLine
 10
1721.083162545696
 20
2239.982558850026
 30
0.0
 11
1726.583162545696
 21
2239.982558850026
 31
0.0
  0
LINE
  5
275
330
1F3
100
AcDbEntity
  8
P-SANR-FIXT
100
AcDbLine
 10
1726.583162545696
 20
2239.982558850026
 30
0.0
 11
1732.083162545696
 21
2239.982558850026
 31
0.0
  0
LINE
  5
276
330
1F3
100
AcDbEntity
  8
P-SANR-FIXT
100
AcDbLine
 10
1727.509579061595
 20
2239.982558850026
 30
0.0
 11
1726.583162545696
 21
2239.982558850026
 31
0.0
  0
LINE
  5
277
330
1F3
100
AcDbEntity
  8
P-SANR-FIXT
100
AcDbLine
 10
1726.583162545696
 20
2239.982558850026
 30
0.0
 11
1725.674689123452
 21
2239.982558850026
 31
0.0
  0
LINE
  5
278
330
1F3
100
AcDbEntity
  8
P-SANR-FIXT
100
AcDbLine
 10
1721.083162545683
 20
2239.00012761222
 30
0.0
 11
1721.083162545683
 21
2231.482558849963
 31
0.0
  0
SPLINE
  5
279
330
1F3
100
AcDbEntity
  8
P-SANR-FIXT
100
AcDbSpline
210
0.0
220
0.0
230
1.0
 70
     8
 71
     3
 72
     9
 73
     5
 74
     0
 42
0.000000001
 43
0.0000000001
 40
0.0
 40
0.0
 40
0.0
 40
0.0
 40
0.5
 40
1.0
 40
1.0
 40
1.0
 40
1.0
 10
1732.083162545682
 20
2239.000127612226
 30
0.0
 10
1731.173145535846
 20
2239.317237440848
 30
0.0
 10
1729.346461859346
 20
2239.798085809104
 30
0.0
 10
1727.506478869186
 20
2239.972191599381
 30
0.0
 10
1726.583162545692
 20
2239.982558850026
 30
0.0
  0
SPLINE
  5
27A
330
1F3
100
AcDbEntity
  8
P-SANR-FIXT
100
AcDbSpline
210
0.0
220
0.0
230
1.0
 70
     8
 71
     3
 72
     9
 73
     5
 74
     0
 42
0.000000001
 43
0.0000000001
 40
0.0
 40
0.0
 40
0.0
 40
0.0
 40
0.5
 40
1.0
 40
1.0
 40
1.0
 40
1.0
 10
1726.583162545692
 20
2239.982558850026
 30
0.0
 10
1725.659846222194
 20
2239.972191599381
 30
0.0
 10
1723.819863232028
 20
2239.798085809103
 30
0.0
 10
1721.993179555521
 20
2239.317237440844
 30
0.0
 10
1721.083162545683
 20
2239.00012761222
 30
0.0
  0
LINE
  5
27B
330
1F3
100
AcDbEntity
  8
P-SANR-FIXT
100
AcDbLine
 10
1732.083162545682
 20
2231.482558849963
 30
0.0
 11
1732.083162545682
 21
2239.000127612226
 31
0.0
  0
SPLINE
  5
27C
330
1F3
100
AcDbEntity
  8
P-SANR-FIXT
100
AcDbSpline
210
0.0
220
0.0
230
1.0
 70
    24
 71
     3
 72
     9
 73
     5
 74
     0
 42
0.000000001
 43
0.0000000001
 40
0.0
 40
0.0
 40
0.0
 40
0.0
 40
0.5
 40
1.0
 40
1.0
 40
1.0
 40
1.0
 10
1732.083162545682
 20
2239.982558850026
 30
0.0
 10
1732.083162545682
 20
2239.972191599383
 30
0.0
 10
1732.083162545682
 20
2239.798085809107
 30
0.0
 10
1732.083162545682
 20
2239.31723744085
 30
0.0
 10
1732.083162545682
 20
2239.000127612226
 30
0.0
  0
SPLINE
  5
27D
330
1F3
100
AcDbEntity
  8
P-SANR-FIXT
100
AcDbSpline
210
0.0
220
0.0
230
1.0
 70
    24
 71
     3
 72
     9
 73
     5
 74
     0
 42
0.000000001
 43
0.0000000001
 40
-1.0
 40
-1.0
 40
-1.0
 40
-1.0
 40
-0.5
 40
0.0
 40
0.0
 40
0.0
 40
0.0
 10
1710.083162545683
 20
2239.982558850026
 30
0.0
 10
1710.083162545683
 20
2239.972191599376
 30
0.0
 10
1710.083162545683
 20
2239.79808580909
 30
0.0
 10
1710.083162545683
 20
2239.317237440834
 30
0.0
 10
1710.083162545683
 20
2239.000127612213
 30
0.0
  0
SPLINE
  5
27E
330
1F3
100
AcDbEntity
  8
P-SANR-FIXT
100
AcDbSpline
210
0.0
220
0.0
230
1.0
 70
     8
 71
     3
 72
     9
 73
     5
 74
     0
 42
0.000000001
 43
0.0000000001
 40
-1.0
 40
-1.0
 40
-1.0
 40
-1.0
 40
-0.5
 40
0.0
 40
0.0
 40
0.0
 40
0.0
 10
1715.583162545693
 20
2239.982558850026
 30
0.0
 10
1716.506478869187
 20
2239.972191599378
 30
0.0
 10
1718.346461859346
 20
2239.798085809096
 30
0.0
 10
1720.173145535847
 20
2239.31723744084
 30
0.0
 10
1721.083162545683
 20
2239.00012761222
 30
0.0
  0
SPLINE
  5
27F
330
1F3
100
AcDbEntity
  8
P-SANR-FIXT
100
AcDbSpline
210
0.0
220
0.0
230
1.0
 70
     8
 71
     3
 72
     9
 73
     5
 74
     0
 42
0.000000001
 43
0.0000000001
 40
-1.0
 40
-1.0
 40
-1.0
 40
-1.0
 40
-0.5
 40
0.0
 40
0.0
 40
0.0
 40
0.0
 10
1710.083162545683
 20
2239.000127612213
 30
0.0
 10
1710.993179555522
 20
2239.317237440836
 30
0.0
 10
1712.81986323203
 20
2239.798085809094
 30
0.0
 10
1714.659846222195
 20
2239.972191599377
 30
0.0
 10
1715.583162545693
 20
2239.982558850026
 30
0.0
  0
LINE
  5
280
330
1F3
100
AcDbEntity
  8
P-SANR-FIXT
100
AcDbLine
 10
1710.083162545683
 20
2231.482558849963
 30
0.0
 11
1710.083162545683
 21
2239.000127612213
 31
0.0
  0
LINE
  5
281
330
1F3
100
AcDbEntity
  8
P-SANR-FIXT
100
AcDbLine
 10
1721.083162545683
 20
2231.482558849963
 30
0.0
 11
1736.583162545649
 21
2231.482558849963
 31
0.0
  0
LINE
  5
282
330
1F3
100
AcDbEntity
  8
P-SANR-FIXT
100
AcDbLine
 10
1705.583162545717
 20
2231.482558849963
 30
0.0
 11
1721.083162545683
 21
2231.482558849963
 31
0.0
  0
LINE
  5
283
330
1F3
100
AcDbEntity
  8
P-SANR-FIXT
100
AcDbLine
 10
1721.083162545683
 20
2214.982558850037
 30
0.0
 11
1705.583162545717
 21
2214.982558850037
 31
0.0
  0
LINE
  5
284
330
1F3
100
AcDbEntity
  8
P-SANR-FIXT
100
AcDbLine
 10
1736.583162545649
 20
2214.982558850037
 30
0.0
 11
1721.083162545683
 21
2214.982558850037
 31
0.0
  0
LINE
  5
285
330
1F3
100
AcDbEntity
  8
P-SANR-FIXT
100
AcDbLine
 10
1707.633162545699
 20
2214.982558850038
 30
0.0
 11
1707.633162545699
 21
2202.812588017717
 31
0.0
  0
LINE
  5
286
330
1F3
100
AcDbEntity
  8
P-SANR-FIXT
100
AcDbLine
 10
1734.533162545699
 20
2130.044410471413
 30
0.0
 11
1734.533162545699
 21
2214.982558850038
 31
0.0
  0
LINE
  5
287
330
1F3
100
AcDbEntity
  8
P-SANR-FIXT
100
AcDbLine
 10
1704.233162545702
 20
1620.075839690622
 30
0.0
 11
1704.233162545702
 21
1572.982558849977
 31
0.0
  0
LINE
  5
288
330
1F3
100
AcDbEntity
  8
P-SANR-FIXT
100
AcDbLine
 10
1737.933162545695
 20
1572.982558849977
 30
0.0
 11
1737.933162545695
 21
1659.79901467594
 31
0.0
  0
LWPOLYLINE
  5
289
330
1F3
100
AcDbEntity
  8
P-SANR-FIXT
100
AcDbPolyline
 90
        3
 70
   128
 43
0.0
 10
1701.788874833738
 20
2130.058687482932
 10
1701.765081757504
 20
2130.058687482932
 10
1701.76395583858
 20
2130.058687482932
  0
LWPOLYLINE
  5
28A
330
1F3
100
AcDbEntity
  8
P-SANR-FIXT
100
AcDbPolyline
 90
        9
 70
   128
 43
0.0
 10
1740.402369252816
 20
2130.058687482932
 10
1749.451315696342
 20
2129.877684419677
 10
1758.485785755896
 20
2129.334964796198
 10
1767.491326206636
 20
2128.431396848121
 10
1776.453530104918
 20
2127.168426091412
 10
1785.358059836342
 20
2125.54807300986
 10
1794.190670052867
 20
2123.57292982274
 10
1802.937230462339
 20
2121.246156337811
 10
1805.679813487622
 20
2120.438722118129
  0
LWPOLYLINE
  5
28B
330
1F3
100
AcDbEntity
  8
P-SANR-FIXT
100
AcDbPolyline
 90
       22
 70
   128
 43
0.0
 10
1734.533104539777
 20
2130.058687482932
 10
1734.941913148398
 20
2130.058687482932
 10
1735.46907690345
 20
2130.058687482932
 10
1735.973226264361
 20
2130.058687482932
 10
1736.4535546997
 20
2130.058687482932
 10
1736.909293786434
 20
2130.058687482932
 10
1737.339714439245
 20
2130.058687482932
 10
1737.744128076906
 20
2130.058687482932
 10
1738.121887723866
 20
2130.058687482932
 10
1738.472389045275
 20
2130.058687482932
 10
1738.79507131379
 20
2130.058687482932
 10
1739.089418306614
 20
2130.058687482932
 10
1739.35495913135
 20
2130.058687482932
 10
1739.591268979324
 20
2130.058687482932
 10
1739.797969805191
 20
2130.058687482932
 10
1739.974730931721
 20
2130.058687482932
 10
1740.12126957882
 20
2130.058687482932
 10
1740.237351315913
 20
2130.058687482932
 10
1740.322790436981
 20
2130.058687482932
 10
1740.377450257659
 20
2130.058687482932
 10
1740.401243333893
 20
2130.058687482932
 10
1740.402369252817
 20
2130.058687482932
  0
LWPOLYLINE
  5
28C
330
1F3
100
AcDbEntity
  8
P-SANR-FIXT
100
AcDbPolyline
 90
       40
 70
   128
 43
0.0
 10
1740.402369252817
 20
2130.058687482932
 10
1740.386915948057
 20
2130.058687482932
 10
1740.340580755768
 20
2130.058687482932
 10
1740.263437802372
 20
2130.058687482932
 10
1740.15561050014
 20
2130.058687482932
 10
1740.017271349752
 20
2130.058687482932
 10
1739.848641664339
 20
2130.058687482932
 10
1739.649991215425
 20
2130.058687482932
 10
1739.421637801352
 20
2130.058687482932
 10
1739.163946738868
 20
2130.058687482932
 10
1738.877330278705
 20
2130.058687482932
 10
1738.562246946055
 20
2130.058687482932
 10
1738.219200807037
 20
2130.058687482932
 10
1737.848740662293
 20
2130.058687482932
 10
1737.45145916903
 20
2130.058687482932
 10
1737.027991892886
 20
2130.058687482932
 10
1736.579016291168
 20
2130.058687482932
 10
1736.105250629064
 20
2130.058687482932
 10
1735.607452830568
 20
2130.058687482932
 10
1735.086419265966
 20
2130.058687482932
 10
1734.542983477813
 20
2130.058687482932
 10
1733.978014847444
 20
2130.058687482932
 10
1733.392417204149
 20
2130.058687482932
 10
1732.787127379233
 20
2130.058687482932
 10
1732.163113707296
 20
2130.058687482932
 10
1731.521374477098
 20
2130.058687482932
 10
1730.86293633451
 20
2130.058687482932
 10
1730.1888526401
 20
2130.058687482932
 10
1729.500201783982
 20
2130.058687482932
 10
1728.798085460622
 20
2130.058687482932
 10
1728.083626906361
 20
2130.058687482932
 10
1727.357969102476
 20
2130.058687482932
 10
1726.622272946653
 20
2130.058687482932
 10
1725.877715395804
 20
2130.058687482932
 10
1725.125487583177
 20
2130.058687482932
 10
1724.366792912807
 20
2130.058687482932
 10
1723.60284513432
 20
2130.058687482932
 10
1722.834866401195
 20
2130.058687482932
 10
1722.064085315578
 20
2130.058687482932
 10
1721.418015768582
 20
2130.058687482932
  0
LWPOLYLINE
  5
28D
330
1F3
100
AcDbEntity
  8
P-SANR-FIXT
100
AcDbPolyline
 90
        3
 70
   128
 43
0.0
 10
1696.595464863453
 20
1659.794965646544
 10
1696.565267446143
 20
1659.794965646544
 10
1696.563838465574
 20
1659.794965646544
  0
LWPOLYLINE
  5
28E
330
1F3
100
AcDbEntity
  8
P-SANR-FIXT
100
AcDbPolyline
 90
       12
 70
   128
 43
0.0
 10
1809.937731541618
 20
1673.594902188317
 10
1804.165182134665
 20
1671.136615599539
 10
1798.298944907605
 20
1668.911135785171
 10
1792.348404588608
 20
1666.922023038174
 10
1786.323080772799
 20
1665.172459514622
 10
1780.232612692953
 20
1663.665244142931
 10
1774.086743798765
 20
1662.402788146174
 10
1767.895306169418
 20
1661.387111184637
 10
1761.668204784349
 20
1660.619838124792
 10
1755.415401677397
 20
1660.102196439858
 10
1749.146899999673
 20
1659.835014246107
 10
1745.602486625824
 20
1659.794965646544
  0
LWPOLYLINE
  5
28F
330
1F3
100
AcDbEntity
  8
P-SANR-FIXT
100
AcDbPolyline
 90
       41
 70
   128
 43
0.0
 10
1721.418015725966
 20
1659.794965646544
 10
1722.063673990369
 20
1659.794965646544
 10
1723.042616825893
 20
1659.794965646544
 10
1724.018424952563
 20
1659.794965646544
 10
1724.989537285537
 20
1659.794965646544
 10
1725.954400252244
 20
1659.794965646544
 10
1726.911470277762
 20
1659.794965646544
 10
1727.859216254215
 20
1659.794965646544
 10
1728.796121990216
 20
1659.794965646544
 10
1729.720688636448
 20
1659.794965646544
 10
1730.63143708351
 20
1659.794965646544
 10
1731.526910328167
 20
1659.794965646544
 10
1732.405675804253
 20
1659.794965646544
 10
1733.266327674466
 20
1659.794965646544
 10
1734.10748907941
 20
1659.794965646544
 10
1734.927814340275
 20
1659.794965646544
 10
1735.725991111636
 20
1659.794965646544
 10
1736.500742480929
 20
1659.794965646544
 10
1737.250829011234
 20
1659.794965646544
 10
1737.975050724112
 20
1659.794965646544
 10
1738.672249019316
 20
1659.794965646544
 10
1739.341308528299
 20
1659.794965646544
 10
1739.981158898575
 20
1659.794965646544
 10
1740.590776506043
 20
1659.794965646544
 10
1741.169186092577
 20
1659.794965646544
 10
1741.715462326225
 20
1659.794965646544
 10
1742.228731281548
 20
1659.794965646544
 10
1742.708171837707
 20
1659.794965646544
 10
1743.153016992088
 20
1659.794965646544
 10
1743.56255508734
 20
1659.794965646544
 10
1743.936130949872
 20
1659.794965646544
 10
1744.273146937999
 20
1659.794965646544
 10
1744.57306389803
 20
1659.794965646544
 10
1744.835402026809
 20
1659.794965646544
 10
1745.059741639292
 20
1659.794965646544
 10
1745.245723839958
 20
1659.794965646544
 10
1745.393051096956
 20
1659.794965646544
 10
1745.501487718106
 20
1659.794965646544
 10
1745.570860227944
 20
1659.794965646544
 10
1745.601057645255
 20
1659.794965646544
 10
1745.602486625824
 20
1659.794965646544
  0
LWPOLYLINE
  5
290
330
1F3
100
AcDbEntity
  8
P-SANR-FIXT
100
AcDbPolyline
 90
       22
 70
   128
 43
0.0
 10
1745.602486625824
 20
1659.794965646544
 10
1745.582873781814
 20
1659.794965646544
 10
1745.524066626154
 20
1659.794965646544
 10
1745.426159237746
 20
1659.794965646544
 10
1745.289308247526
 20
1659.794965646544
 10
1745.113732587887
 20
1659.794965646544
 10
1744.899713142428
 20
1659.794965646544
 10
1744.647592296607
 20
1659.794965646544
 10
1744.357773389995
 20
1659.794965646544
 10
1744.030720071017
 20
1659.794965646544
 10
1743.666955555217
 20
1659.794965646544
 10
1743.267061788221
 20
1659.794965646544
 10
1742.831678514749
 20
1659.794965646544
 10
1742.361502255163
 20
1659.794965646544
 10
1741.857285191178
 20
1659.794965646544
 10
1741.319833962538
 20
1659.794965646544
 10
1740.750008376557
 20
1659.794965646544
 10
1740.148720032616
 20
1659.794965646544
 10
1739.516930863799
 20
1659.794965646544
 10
1738.855651597999
 20
1659.794965646544
 10
1738.165940140979
 20
1659.794965646544
 10
1737.933162545695
 20
1659.794965646544
  0
LINE
  5
291
330
1F3
100
AcDbEntity
  8
P-SANR-FIXT
100
AcDbLine
 10
1830.583162545699
 20
2009.972553313987
 30
0.0
 11
1830.583162545699
 21
2086.926669961375
 31
0.0
  0
LINE
  5
292
330
1F3
100
AcDbEntity
  8
P-SANR-FIXT
100
AcDbLine
 10
1830.583162545698
 20
1705.515841224339
 30
0.0
 11
1830.583162545698
 21
1989.992564386034
 31
0.0
  0
LINE
  5
293
330
1F3
100
AcDbEntity
  8
P-SANR-FIXT
100
AcDbLine
 10
1742.083162545699
 20
1657.519762566312
 30
0.0
 11
1742.083162545699
 21
1659.802799239599
 31
0.0
  0
LWPOLYLINE
  5
294
330
1F3
100
AcDbEntity
  8
P-SANR-FIXT
100
AcDbPolyline
 90
       14
 70
   128
 43
0.0
 10
1742.083162545699
 20
1657.519762566312
 10
1742.058085409808
 20
1657.19464696829
 10
1741.984546541176
 20
1656.877235482155
 10
1741.866822886876
 20
1656.573094791777
 10
1741.710043283762
 20
1656.284798460592
 10
1741.518725475021
 20
1656.01242889463
 10
1741.296150165788
 20
1655.754640229197
 10
1741.044399922485
 20
1655.509582880258
 10
1740.764676855795
 20
1655.275455761986
 10
1740.457639063411
 20
1655.050745813674
 10
1740.123657109923
 20
1654.834284131164
 10
1739.762981282796
 20
1654.625218303514
 10
1739.375840498506
 20
1654.422957074363
 10
1739.349564126013
 20
1654.409935580265
  0
LINE
  5
295
330
1F3
100
AcDbEntity
  8
P-SANR-FIXT
100
AcDbLine
 10
1738.232470186006
 20
1653.858112729423
 30
0.0
 11
1739.349564126012
 21
1654.409935580265
 31
0.0
  0
LINE
  5
296
330
1F3
100
AcDbEntity
  8
P-SANR-FIXT
100
AcDbLine
 10
1738.232470186007
 20
1653.858112729423
 30
0.0
 11
1737.933162545695
 21
1653.717166771237
 31
0.0
  0
LWPOLYLINE
  5
297
330
1F3
100
AcDbEntity
  8
P-SANR-FIXT
100
AcDbPolyline
 90
       30
 70
   128
 43
0.0
 10
1830.5831625457
 20
1705.515841224339
 10
1830.555166278834
 20
1704.116214527807
 10
1830.471222266291
 20
1702.718826935418
 10
1830.331464800585
 20
1701.325913969227
 10
1830.136117463847
 20
1699.939703992841
 10
1829.885492770143
 20
1698.562414646512
 10
1829.579991665521
 20
1697.19624929939
 10
1829.220102886577
 20
1695.843393524595
 10
1828.806402178585
 20
1694.506011602775
 10
1828.339551374428
 20
1693.186243059711
 10
1827.820297335801
 20
1691.886199243537
 10
1827.249470758398
 20
1690.607959947029
 10
1826.627984842975
 20
1689.353570080387
 10
1825.956833834418
 20
1688.125036399808
 10
1825.237091431169
 20
1686.924324297109
 10
1824.469909067539
 20
1685.753354655513
 10
1823.65651407165
 20
1684.614000776656
 10
1822.798207701982
 20
1683.508085383693
 10
1821.896363065631
 20
1682.437377705338
 10
1820.952422921632
 20
1681.40359064547
 10
1819.967897372851
 20
1680.408378042856
 10
1818.944361450146
 20
1679.453332025359
 10
1817.88345259265
 20
1678.539980462876
 10
1816.786868028221
 20
1677.669784523066
 10
1815.656362058236
 20
1676.844136333804
 10
1814.493743251085
 20
1676.064356756063
 10
1813.300871548847
 20
1675.331693270823
 10
1812.079655291781
 20
1674.647317983366
 10
1810.832048165385
 20
1674.012325748162
 10
1809.937731541618
 20
1673.594902188317
  0
LWPOLYLINE
  5
298
330
1F3
100
AcDbEntity
  8
P-SANR-FIXT
100
AcDbPolyline
 90
       33
 70
   128
 43
0.0
 10
1805.679813487621
 20
2120.438722118129
 10
1807.011861896763
 20
2120.008157702149
 10
1808.325626824935
 20
2119.524669962792
 10
1809.619006528508
 20
2118.989032377302
 10
1810.889931875862
 20
2118.402101851552
 10
1812.136369657558
 20
2117.764817349179
 10
1813.356325839037
 20
2117.078198389439
 10
1814.547848750653
 20
2116.343343416197
 10
1815.709032209925
 20
2115.56142804065
 10
1816.838018571024
 20
2114.733703160598
 10
1817.93300169661
 20
2113.861492959279
 10
1818.992229847266
 20
2112.946192786952
 10
1820.014008483908
 20
2111.989266928639
 10
1820.996702978684
 20
2110.992246261581
 10
1821.938741230033
 20
2109.956725806159
 10
1822.838616177712
 20
2108.884362174201
 10
1823.694888213766
 20
2107.776870918761
 10
1824.506187485599
 20
2106.636023789595
 10
1825.271216087444
 20
2105.463645898741
 10
1825.988750136737
 20
2104.261612800732
 10
1826.657641732062
 20
2103.031847492103
 10
1827.276820789559
 20
2101.776317335013
 10
1827.845296754819
 20
2100.497030909882
 10
1828.362160187565
 20
2099.196034802089
 10
1828.826584216565
 20
2097.875410327875
 10
1829.237825862443
 20
2096.537270204681
 10
1829.595227226293
 20
2095.183755171251
 10
1829.898216542173
 20
2093.817030562902
 10
1830.146309091814
 20
2092.439282847456
 10
1830.339107980059
 20
2091.052716127354
 10
1830.476304769816
 20
2089.659548613562
 10
1830.557679975487
 20
2088.26200907691
 10
1830.583162545699
 20
2086.926669961375
  0
LINE
  5
299
330
1F3
100
AcDbEntity
  8
P-SANR-FIXT
100
AcDbLine
 10
1721.418519529447
 20
2129.982558850011
 30
0.0
 11
1721.799399832062
 21
2129.982558850011
 31
0.0
  0
ARC
  5
29A
330
1F3
100
AcDbEntity
  8
P-SANR-FIXT
100
AcDbCircle
 10
1721.083162545694
 20
1999.982558850011
 30
0.0
 40
110.0000000000004
100
AcDbArc
 50
90.00000000000047
 51
269.9999999999999
  0
ARC
  5
29B
330
1F3
100
AcDbEntity
  8
P-SANR-FIXT
100
AcDbCircle
 10
1721.083162545694
 20
1999.982558850011
 30
0.0
 40
110.0000000000002
100
AcDbArc
 50
269.9999999999998
 51
90.00000000000012
  0
ARC
  5
29C
330
1F3
100
AcDbEntity
  8
P-SANR-FIXT
100
AcDbCircle
 10
1721.083162545694
 20
1999.982558850011
 30
0.0
 40
79.00000000000004
100
AcDbArc
 50
90.0000000000004
 51
269.9999999999999
  0
ARC
  5
29D
330
1F3
100
AcDbEntity
  8
P-SANR-FIXT
100
AcDbCircle
 10
1721.083162545694
 20
1999.982558850011
 30
0.0
 40
50.8
100
AcDbArc
 50
90.00000000000063
 51
270.0
  0
ARC
  5
29E
330
1F3
100
AcDbEntity
  8
P-SANR-FIXT
100
AcDbCircle
 10
1721.083162545694
 20
1999.982558850011
 30
0.0
 40
79.0
100
AcDbArc
 50
269.9999999999998
 51
90.0
  0
ARC
  5
29F
330
1F3
100
AcDbEntity
  8
P-SANR-FIXT
100
AcDbCircle
 10
1721.083162545694
 20
1999.982558850011
 30
0.0
 40
50.79999999999995
100
AcDbArc
 50
269.9999999999999
 51
89.99999999999923
  0
LINE
  5
2A0
330
1F3
100
AcDbEntity
  8
P-SANR-FIXT
100
AcDbLine
 10
1673.350603371264
 20
2017.367690274864
 30
0.0
 11
1673.336444032736
 21
2017.328765099342
 31
0.0
  0
ENDBLK
  5
2A2
330
1F3
100
AcDbEntity
  8
0
100
AcDbBlockEnd
  0
ENDSEC
  0
SECTION
  2
ENTITIES
  0
INSERT
  5
1B6
330
71
100
AcDbEntity
  8
P-SANR-FIXT
100
AcDbBlockReference
  2
Automatic flow rate regulator valve_Caleffi_121 DN15 - 1_2__-859151-Est - Idraulica
 10
0.0
 20
0.0
 30
0.0
1001
REVIT
1002
{
1070
     1
1000
863131
1002
}
1002
{
1070
     5
1000
859151
1002
}
1002
{
1070
     2
1000
-2001160
1002
}
  0
INSERT
  5
1F2
330
71
100
AcDbEntity
  8
P-SANR-FIXT
100
AcDbBlockReference
  2
Automatic flow rate regulator valve_Caleffi_121 DN15 - 1_2__-V1-Est - Idraulica
 10
0.0
 20
0.0
 30
0.0
1001
REVIT
1002
{
1070
     1
1000
863152
1002
}
1002
{
1070
     5
1000
859151
1002
}
1002
{
1070
     2
1000
-2001160
1002
}
  0
INSERT
  5
2A3
330
71
100
AcDbEntity
  8
P-SANR-FIXT
100
AcDbBlockReference
  2
Automatic flow rate regulator valve_Caleffi_121 DN15 - 1_2__-V2-Est - Idraulica
 10
0.0
 20
0.0
 30
0.0
1001
REVIT
1002
{
1070
     1
1000
863172
1002
}
1002
{
1070
     5
1000
859151
1002
}
1002
{
1070
     2
1000
-2001160
1002
}
  0
ENDSEC
  0
SECTION
  2
OBJECTS
  0
DICTIONARY
  5
C
330
0
100
AcDbDictionary
281
     1
  3
ACAD_CIP_PREVIOUS_PRODUCT_INFO
350
7A
  3
ACAD_COLOR
350
63
  3
ACAD_DETAILVIEWSTYLE
350
6B
  3
ACAD_GROUP
350
D
  3
ACAD_IMAGE_VARS
350
7B
  3
ACAD_LAYOUT
350
62
  3
ACAD_MATERIAL
350
10
  3
ACAD_MLEADERSTYLE
350
66
  3
ACAD_MLINESTYLE
350
5F
  3
ACAD_PLOTSETTINGS
350
61
  3
ACAD_PLOTSTYLENAME
350
E
  3
ACAD_SCALELIST
350
42
  3
ACAD_SECTIONVIEWSTYLE
350
68
  3
ACAD_TABLESTYLE
350
64
  3
ACAD_VISUALSTYLE
350
29
  3
ACDB_RECOMPOSE_DATA
350
2AE
  3
AcDbVariableDictionary
350
7C
  3
REVIT_DICTIONARY
350
2A5
  0
DICTIONARY
  5
2AA
330
71
100
AcDbDictionary
280
     1
281
     1
  3
ACAD_SORTENTS
360
2AB
  0
XRECORD
  5
7A
102
{ACAD_REACTORS
330
C
102
}
330
C
100
AcDbXrecord
280
     1
300
RVT
300
2013
300
RVT2013
  0
DICTIONARY
  5
63
102
{ACAD_REACTORS
330
C
102
}
330
C
100
AcDbDictionary
281
     1
  0
DICTIONARY
  5
6B
102
{ACAD_REACTORS
330
C
102
}
330
C
100
AcDbDictionary
281
     1
  3
Imperial24
350
6C
  0
DICTIONARY
  5
D
102
{ACAD_REACTORS
330
C
102
}
330
C
100
AcDbDictionary
281
     1
  0
RASTERVARIABLES
  5
7B
102
{ACAD_REACTORS
330
C
102
}
330
C
100
AcDbRasterVariables
 90
        0
 70
     0
 71
     1
 72
     1
  0
DICTIONARY
  5
62
102
{ACAD_REACTORS
330
C
102
}
330
C
100
AcDbDictionary
281
     1
  3
Layout1
350
70
  3
Layout2
350
78
  3
Model
350
74
  0
DICTIONARY
  5
10
102
{ACAD_REACTORS
330
C
102
}
330
C
100
AcDbDictionary
281
     1
  3
ByBlock
350
19
  3
ByLayer
350
11
  3
Global
350
21
  0
DICTIONARY
  5
66
102
{ACAD_REACTORS
330
C
102
}
330
C
100
AcDbDictionary
281
     1
  3
Standard
350
67
  0
DICTIONARY
  5
5F
102
{ACAD_REACTORS
330
C
102
}
330
C
100
AcDbDictionary
281
     1
  3
Standard
350
60
  0
DICTIONARY
  5
61
102
{ACAD_REACTORS
330
C
102
}
330
C
100
AcDbDictionary
281
     1
  0
ACDBDICTIONARYWDFLT
  5
E
102
{ACAD_REACTORS
330
C
102
}
330
C
100
AcDbDictionary
281
     1
  3
Normal
350
F
100
AcDbDictionaryWithDefault
340
F
  0
DICTIONARY
  5
42
102
{ACAD_REACTORS
330
C
102
}
330
C
100
AcDbDictionary
281
     1
  3
A0
350
43
  3
A1
350
44
  3
A2
350
45
  3
A3
350
46
  3
A4
350
47
  3
A5
350
48
  3
A6
350
49
  3
A7
350
4A
  3
A8
350
4B
  3
A9
350
4C
  3
B0
350
4D
  3
B1
350
4E
  3
B2
350
4F
  3
B3
350
50
  3
B4
350
51
  3
B5
350
52
  3
B6
350
53
  0
DICTIONARY
  5
68
102
{ACAD_REACTORS
330
C
102
}
330
C
100
AcDbDictionary
281
     1
  3
Imperial24
350
6A
  0
DICTIONARY
  5
64
102
{ACAD_REACTORS
330
C
102
}
330
C
100
AcDbDictionary
281
     1
  3
Standard
350
65
  0
DICTIONARY
  5
29
102
{ACAD_REACTORS
330
C
102
}
330
C
100
AcDbDictionary
281
     1
  3
2dWireframe
350
2F
  3
Basic
350
2E
  3
Brighten
350
35
  3
ColorChange
350
39
  3
Conceptual
350
32
  3
Dim
350
34
  3
EdgeColorOff
350
41
  3
Facepattern
350
38
  3
Flat
350
2A
  3
FlatWithEdges
350
2B
  3
Gouraud
350
2C
  3
GouraudWithEdges
350
2D
  3
Hidden
350
31
  3
JitterOff
350
3F
  3
Linepattern
350
37
  3
OverhangOff
350
40
  3
Realistic
350
33
  3
Shaded
350
3E
  3
Shaded with edges
350
3D
  3
Shades of Gray
350
3A
  3
Sketchy
350
3B
  3
Thicken
350
36
  3
Wireframe
350
30
  3
X-Ray
350
3C
  0
XRECORD
  5
2AE
102
{ACAD_REACTORS
330
C
102
}
330
C
100
AcDbXrecord
280
     1
 90
        1
330
65
  0
DICTIONARY
  5
7C
102
{ACAD_REACTORS
330
C
102
}
330
C
100
AcDbDictionary
281
     1
  3
CANNOSCALE
350
81
  3
CMLEADERSTYLE
350
7E
  3
CTABLESTYLE
350
7D
  3
CVIEWDETAILSTYLE
350
7F
  3
CVIEWSECTIONSTYLE
350
80
  0
DICTIONARY
  5
2A5
102
{ACAD_REACTORS
330
C
102
}
330
C
100
AcDbDictionary
281
     1
  3
DRAWING_TOOL
350
2A9
  3
REVIT_CATEGORY_MAPPING
350
2A7
  3
REVIT_SUB_CATEGORY_MAPPING
350
2A8
  3
REVIT_TYPE_MAPPING
350
2A6
  0
SORTENTSTABLE
  5
2AB
102
{ACAD_REACTORS
330
2AA
102
}
330
2AA
100
AcDbSortentsTable
330
71
  0
ACDBDETAILVIEWSTYLE
  5
6C
102
{ACAD_REACTORS
330
6B
102
}
330
6B
100
AcDbModelDocViewStyle
 70
     0
  3
Imperial24
290
     1
100
AcDbDetailViewStyle
 70
     0
 71
     0
 90
        3
 71
     1
340
55
 62
   256
 40
0.24
340
0
 62
   256
 40
0.24
300

 40
0.36
280
     3
 71
     2
340
5D
 90
       25
 62
   256
 71
     3
340
55
 62
   256
 40
0.24
 90
        1
 40
0.75
 90
        1
300
%<\AcVar ViewType \f "%tc1">% %<\AcVar ViewDetailId>%\PSCALA %<\AcVar ViewScale \f "%sn">%
 71
     4
340
5D
 90
       25
 62
   256
340
5D
 90
       25
 62
   256
280
     0
  0
LAYOUT
  5
70
102
{ACAD_REACTORS
330
62
102
}
330
62
100
AcDbPlotSettings
  1

  2

  4

  6

 40
0.0
 41
0.0
 42
0.0
 43
0.0
 44
0.0
 45
0.0
 46
0.0
 47
0.0
 48
0.0
 49
0.0
140
0.0
141
0.0
142
1.0
143
1.0
 70
   688
 72
     0
 73
     0
 74
     5
  7

 75
    16
147
1.0
 76
     0
 77
     2
 78
   300
148
0.0
149
0.0
100
AcDbLayout
  1
Layout1
 70
     1
 71
     1
 10
0.0
 20
0.0
 11
12.0
 21
9.0
 12
0.0
 22
0.0
 32
0.0
 14
0.0
 24
0.0
 34
0.0
 15
0.0
 25
0.0
 35
0.0
146
0.0
 13
0.0
 23
0.0
 33
0.0
 16
1.0
 26
0.0
 36
0.0
 17
0.0
 27
1.0
 37
0.0
 76
     0
330
6D
  0
LAYOUT
  5
78
102
{ACAD_REACTORS
330
62
102
}
330
62
100
AcDbPlotSettings
  1

  2

  4

  6

 40
0.0
 41
0.0
 42
0.0
 43
0.0
 44
0.0
 45
0.0
 46
0.0
 47
0.0
 48
0.0
 49
0.0
140
0.0
141
0.0
142
1.0
143
1.0
 70
   688
 72
     0
 73
     0
 74
     5
  7

 75
    16
147
1.0
 76
     0
 77
     2
 78
   300
148
0.0
149
0.0
100
AcDbLayout
  1
Layout2
 70
     1
 71
     2
 10
0.0
 20
0.0
 11
12.0
 21
9.0
 12
0.0
 22
0.0
 32
0.0
 14
0.0
 24
0.0
 34
0.0
 15
0.0
 25
0.0
 35
0.0
146
0.0
 13
0.0
 23
0.0
 33
0.0
 16
1.0
 26
0.0
 36
0.0
 17
0.0
 27
1.0
 37
0.0
 76
     0
330
75
  0
LAYOUT
  5
74
102
{ACAD_REACTORS
330
62
102
}
330
62
100
AcDbPlotSettings
  1

  2

  4

  6

 40
0.0
 41
0.0
 42
0.0
 43
0.0
 44
0.0
 45
0.0
 46
0.0
 47
0.0
 48
0.0
 49
0.0
140
0.0
141
0.0
142
1.0
143
1.0
 70
  1712
 72
     0
 73
     0
 74
     0
  7

 75
     0
147
1.0
 76
     0
 77
     2
 78
   300
148
0.0
149
0.0
100
AcDbLayout
  1
Model
 70
     1
 71
     0
 10
0.0
 20
0.0
 11
12.0
 21
9.0
 12
0.0
 22
0.0
 32
0.0
 14
0.0
 24
0.0
 34
0.0
 15
0.0
 25
0.0
 35
0.0
146
0.0
 13
0.0
 23
0.0
 33
0.0
 16
1.0
 26
0.0
 36
0.0
 17
0.0
 27
1.0
 37
0.0
 76
     0
330
71
  0
MATERIAL
  5
19
102
{ACAD_XDICTIONARY
360
1A
102
}
102
{ACAD_REACTORS
330
10
102
}
330
10
100
AcDbMaterial
  1
ByBlock
 72
     0
 43
0.0208333333333333
 43
0.0
 43
0.0
 43
0.0
 43
0.0
 43
0.0208333333333333
 43
0.0
 43
0.0
 43
0.0
 43
0.0
 43
1.0
 43
0.0
 43
0.0
 43
0.0
 43
0.0
 43
1.0
 77
     0
 47
0.0208333333333333
 47
0.0
 47
0.0
 47
0.0
 47
0.0
 47
0.0208333333333333
 47
0.0
 47
0.0
 47
0.0
 47
0.0
 47
1.0
 47
0.0
 47
0.0
 47
0.0
 47
0.0
 47
1.0
171
     0
 49
0.0208333333333333
 49
0.0
 49
0.0
 49
0.0
 49
0.0
 49
0.0208333333333333
 49
0.0
 49
0.0
 49
0.0
 49
0.0
 49
1.0
 49
0.0
 49
0.0
 49
0.0
 49
0.0
 49
1.0
175
     0
142
0.0208333333333333
142
0.0
142
0.0
142
0.0
142
0.0
142
0.0208333333333333
142
0.0
142
0.0
142
0.0
142
0.0
142
1.0
142
0.0
142
0.0
142
0.0
142
0.0
142
1.0
179
     0
144
0.0208333333333333
144
0.0
144
0.0
144
0.0
144
0.0
144
0.0208333333333333
144
0.0
144
0.0
144
0.0
144
0.0
144
1.0
144
0.0
144
0.0
144
0.0
144
0.0
144
1.0
147
0.0208333333333333
147
0.0
147
0.0
147
0.0
147
0.0
147
0.0208333333333333
147
0.0
147
0.0
147
0.0
147
0.0
147
1.0
147
0.0
147
0.0
147
0.0
147
0.0
147
1.0
  0
MATERIAL
  5
11
102
{ACAD_XDICTIONARY
360
12
102
}
102
{ACAD_REACTORS
330
10
102
}
330
10
100
AcDbMaterial
  1
ByLayer
 72
     0
 43
0.0208333333333333
 43
0.0
 43
0.0
 43
0.0
 43
0.0
 43
0.0208333333333333
 43
0.0
 43
0.0
 43
0.0
 43
0.0
 43
1.0
 43
0.0
 43
0.0
 43
0.0
 43
0.0
 43
1.0
 77
     0
 47
0.0208333333333333
 47
0.0
 47
0.0
 47
0.0
 47
0.0
 47
0.0208333333333333
 47
0.0
 47
0.0
 47
0.0
 47
0.0
 47
1.0
 47
0.0
 47
0.0
 47
0.0
 47
0.0
 47
1.0
171
     0
 49
0.0208333333333333
 49
0.0
 49
0.0
 49
0.0
 49
0.0
 49
0.0208333333333333
 49
0.0
 49
0.0
 49
0.0
 49
0.0
 49
1.0
 49
0.0
 49
0.0
 49
0.0
 49
0.0
 49
1.0
175
     0
142
0.0208333333333333
142
0.0
142
0.0
142
0.0
142
0.0
142
0.0208333333333333
142
0.0
142
0.0
142
0.0
142
0.0
142
1.0
142
0.0
142
0.0
142
0.0
142
0.0
142
1.0
179
     0
144
0.0208333333333333
144
0.0
144
0.0
144
0.0
144
0.0
144
0.0208333333333333
144
0.0
144
0.0
144
0.0
144
0.0
144
1.0
144
0.0
144
0.0
144
0.0
144
0.0
144
1.0
147
0.0208333333333333
147
0.0
147
0.0
147
0.0
147
0.0
147
0.0208333333333333
147
0.0
147
0.0
147
0.0
147
0.0
147
1.0
147
0.0
147
0.0
147
0.0
147
0.0
147
1.0
  0
MATERIAL
  5
21
102
{ACAD_XDICTIONARY
360
22
102
}
102
{ACAD_REACTORS
330
10
102
}
330
10
100
AcDbMaterial
  1
Global
 72
     0
 43
0.0208333333333333
 43
0.0
 43
0.0
 43
0.0
 43
0.0
 43
0.0208333333333333
 43
0.0
 43
0.0
 43
0.0
 43
0.0
 43
1.0
 43
0.0
 43
0.0
 43
0.0
 43
0.0
 43
1.0
 77
     0
 47
0.0208333333333333
 47
0.0
 47
0.0
 47
0.0
 47
0.0
 47
0.0208333333333333
 47
0.0
 47
0.0
 47
0.0
 47
0.0
 47
1.0
 47
0.0
 47
0.0
 47
0.0
 47
0.0
 47
1.0
171
     0
 49
0.0208333333333333
 49
0.0
 49
0.0
 49
0.0
 49
0.0
 49
0.0208333333333333
 49
0.0
 49
0.0
 49
0.0
 49
0.0
 49
1.0
 49
0.0
 49
0.0
 49
0.0
 49
0.0
 49
1.0
175
     0
142
0.0208333333333333
142
0.0
142
0.0
142
0.0
142
0.0
142
0.0208333333333333
142
0.0
142
0.0
142
0.0
142
0.0
142
1.0
142
0.0
142
0.0
142
0.0
142
0.0
142
1.0
179
     0
144
0.0208333333333333
144
0.0
144
0.0
144
0.0
144
0.0
144
0.0208333333333333
144
0.0
144
0.0
144
0.0
144
0.0
144
1.0
144
0.0
144
0.0
144
0.0
144
0.0
144
1.0
147
0.0208333333333333
147
0.0
147
0.0
147
0.0
147
0.0
147
0.0208333333333333
147
0.0
147
0.0
147
0.0
147
0.0
147
1.0
147
0.0
147
0.0
147
0.0
147
0.0
147
1.0
  0
MLEADERSTYLE
  5
67
102
{ACAD_REACTORS
330
66
102
}
330
66
100
AcDbMLeaderStyle
179
     2
170
     2
171
     1
172
     0
 90
        2
 40
0.0
 41
0.0
173
     1
 91
-1056964608
340
5B
 92
       -2
290
     1
 42
0.09
291
     1
 43
0.36
  3
Standard
 44
0.18
300

342
55
174
     1
178
     6
175
     1
176
     0
 93
-1056964608
 45
0.18
292
     0
297
     0
 46
0.18
 94
-1056964608
 47
1.0
 49
1.0
140
1.0
293
     1
141
0.0
294
     1
177
     0
142
1.0
295
     1
296
     0
143
0.125
271
     0
272
     9
273
     9
298
     1
  0
MLINESTYLE
  5
60
102
{ACAD_REACTORS
330
5F
102
}
330
5F
100
AcDbMlineStyle
  2
STANDARD
 70
     0
  3

 62
   256
 51
90.0
 52
90.0
 71
     2
 49
0.5
 62
   256
  6
BYLAYER
 49
-0.5
 62
   256
  6
BYLAYER
  0
ACDBPLACEHOLDER
  5
F
102
{ACAD_REACTORS
330
E
102
}
330
E
  0
SCALE
  5
43
102
{ACAD_REACTORS
330
42
102
}
330
42
100
AcDbScale
 70
     0
300
1:1
140
1.0
141
1.0
290
     1
  0
SCALE
  5
44
102
{ACAD_REACTORS
330
42
102
}
330
42
100
AcDbScale
 70
     0
300
1/128" = 1'-0"
140
0.0078125
141
12.0
290
     0
  0
SCALE
  5
45
102
{ACAD_REACTORS
330
42
102
}
330
42
100
AcDbScale
 70
     0
300
1/64" = 1'-0"
140
0.015625
141
12.0
290
     0
  0
SCALE
  5
46
102
{ACAD_REACTORS
330
42
102
}
330
42
100
AcDbScale
 70
     0
300
1/32" = 1'-0"
140
0.03125
141
12.0
290
     0
  0
SCALE
  5
47
102
{ACAD_REACTORS
330
42
102
}
330
42
100
AcDbScale
 70
     0
300
1/16" = 1'-0"
140
0.0625
141
12.0
290
     0
  0
SCALE
  5
48
102
{ACAD_REACTORS
330
42
102
}
330
42
100
AcDbScale
 70
     0
300
3/32" = 1'-0"
140
0.09375
141
12.0
290
     0
  0
SCALE
  5
49
102
{ACAD_REACTORS
330
42
102
}
330
42
100
AcDbScale
 70
     0
300
1/8" = 1'-0"
140
0.125
141
12.0
290
     0
  0
SCALE
  5
4A
102
{ACAD_REACTORS
330
42
102
}
330
42
100
AcDbScale
 70
     0
300
3/16" = 1'-0"
140
0.1875
141
12.0
290
     0
  0
SCALE
  5
4B
102
{ACAD_REACTORS
330
42
102
}
330
42
100
AcDbScale
 70
     0
300
1/4" = 1'-0"
140
0.25
141
12.0
290
     0
  0
SCALE
  5
4C
102
{ACAD_REACTORS
330
42
102
}
330
42
100
AcDbScale
 70
     0
300
3/8" = 1'-0"
140
0.375
141
12.0
290
     0
  0
SCALE
  5
4D
102
{ACAD_REACTORS
330
42
102
}
330
42
100
AcDbScale
 70
     0
300
1/2" = 1'-0"
140
0.5
141
12.0
290
     0
  0
SCALE
  5
4E
102
{ACAD_REACTORS
330
42
102
}
330
42
100
AcDbScale
 70
     0
300
3/4" = 1'-0"
140
0.75
141
12.0
290
     0
  0
SCALE
  5
4F
102
{ACAD_REACTORS
330
42
102
}
330
42
100
AcDbScale
 70
     0
300
1" = 1'-0"
140
1.0
141
12.0
290
     0
  0
SCALE
  5
50
102
{ACAD_REACTORS
330
42
102
}
330
42
100
AcDbScale
 70
     0
300
1-1/2" = 1'-0"
140
1.5
141
12.0
290
     0
  0
SCALE
  5
51
102
{ACAD_REACTORS
330
42
102
}
330
42
100
AcDbScale
 70
     0
300
3" = 1'-0"
140
3.0
141
12.0
290
     0
  0
SCALE
  5
52
102
{ACAD_REACTORS
330
42
102
}
330
42
100
AcDbScale
 70
     0
300
6" = 1'-0"
140
6.0
141
12.0
290
     0
  0
SCALE
  5
53
102
{ACAD_REACTORS
330
42
102
}
330
42
100
AcDbScale
 70
     0
300
1'-0" = 1'-0"
140
12.0
141
12.0
290
     0
  0
ACDBSECTIONVIEWSTYLE
  5
6A
102
{ACAD_REACTORS
330
68
102
}
330
68
100
AcDbModelDocViewStyle
 70
     0
  3
Imperial24
290
     1
100
AcDbSectionViewStyle
 70
     0
 71
     0
 90
       78
 71
     1
340
55
 62
   256
 40
0.24
340
0
340
0
 62
   256
 40
0.24
300
I, O, Q, S, X, Z
 40
0.48
 90
        3
 40
0.18
 90
        1
 71
     2
340
69
 90
       25
 62
   256
340
5D
 90
       50
 62
   256
 40
0.24
 40
0.0
 40
0.24
 71
     3
340
55
 62
   256
 40
0.24
 90
        1
 40
0.75
 90
        1
300
%<\AcVar ViewType \f "%tc1">% %<\AcVar ViewSectionStartId>%-%<\AcVar ViewSectionEndId>%\PSCALA %<\AcVar ViewScale \f "%sn">%
 71
     4
 62
   256
 62
   257
300
ANSI31
 40
1.0
 90
        0
290
     0
290
     0
 90
        6
 40
0.0
 40
1.570796326794896
 40
0.2617993877991494
 40
1.308996938995747
 40
-0.2617993877991494
 40
1.832595714594046
  0
TABLESTYLE
  5
65
102
{ACAD_XDICTIONARY
360
2AC
102
}
102
{ACAD_REACTORS
330
64
102
}
330
64
100
AcDbTableStyle
280
     0
  3
Standard
 70
     0
 71
     0
 40
0.06
 41
0.06
280
     0
281
     0
  7
Standard
140
0.18
170
     2
 62
     0
 63
     7
283
     0
 90
      512
 91
        0
  1

274
    -2
284
     1
 64
     0
275
    -2
285
     1
 65
     0
276
    -2
286
     1
 66
     0
277
    -2
287
     1
 67
     0
278
    -2
288
     1
 68
     0
279
    -2
289
     1
 69
     0
  7
Standard
140
0.25
170
     5
 62
     0
 63
     7
283
     0
 90
      512
 91
        0
  1

274
    -2
284
     1
 64
     0
275
    -2
285
     1
 65
     0
276
    -2
286
     1
 66
     0
277
    -2
287
     1
 67
     0
278
    -2
288
     1
 68
     0
279
    -2
289
     1
 69
     0
  7
Standard
140
0.18
170
     5
 62
     0
 63
     7
283
     0
 90
      512
 91
        0
  1

274
    -2
284
     1
 64
     0
275
    -2
285
     1
 65
     0
276
    -2
286
     1
 66
     0
277
    -2
287
     1
 67
     0
278
    -2
288
     1
 68
     0
279
    -2
289
     1
 69
     0
  0
VISUALSTYLE
  5
2F
102
{ACAD_REACTORS
330
29
102
}
330
29
100
AcDbVisualStyle
  2
2dWireframe
 70
     4
177
     3
291
     0
 70
    58
 90
        0
176
     1
 90
        2
176
     1
 90
        0
176
     1
 90
        0
176
     1
 40
0.6
176
     1
 40
30.0
176
     1
 62
     7
420
 16777215
176
     1
 90
        1
176
     1
 90
        4
176
     1
 62
     7
176
     1
 62
   257
176
     1
 90
        1
176
     1
 90
        1
176
     1
 40
1.0
176
     1
 90
        0
176
     1
 62
   257
176
     1
 40
1.0
176
     1
 90
        1
176
     1
 90
        6
176
     1
 90
        2
176
     1
 62
     7
176
     1
 90
        5
176
     1
 90
        0
176
     1
 90
        0
176
     1
290
     0
176
     1
 90
        1
176
     1
 40
0.0
176
     1
 90
        0
176
     1
290
     1
176
     1
290
     1
176
     1
290
     0
176
     1
290
     0
176
     1
290
     0
176
     1
290
     0
176
     1
290
     0
176
     1
290
     0
176
     1
290
     0
176
     1
 90
       50
176
     1
 40
0.0
176
     1
 40
1.0
176
     1
 90
        0
176
     1
 62
    18
420
        0
176
     1
 90
       50
176
     1
 90
        3
176
     1
 62
     5
420
      255
176
     1
290
     0
176
     1
 90
       50
176
     1
 90
       50
176
     1
 90
       50
176
     1
290
     0
176
     1
 90
       50
176
     1
 62
   256
176
     0
 40
1.0
176
     0
 90
        2
176
     1
  1
strokes_ogs.tif
176
     1
290
     0
176
     1
 40
1.0
176
     1
 40
1.0
176
     1
  0
VISUALSTYLE
  5
2E
102
{ACAD_REACTORS
330
29
102
}
330
29
100
AcDbVisualStyle
  2
Basic
 70
     7
177
     3
291
     1
 70
    58
 90
        1
176
     1
 90
        0
176
     1
 90
        1
176
     1
 90
        0
176
     1
 40
0.6
176
     1
 40
30.0
176
     1
 62
     7
420
 16777215
176
     1
 90
        0
176
     1
 90
        4
176
     1
 62
     7
176
     1
 62
   257
176
     1
 90
        1
176
     1
 90
        1
176
     1
 40
1.0
176
     1
 90
        8
176
     1
 62
     7
176
     1
 40
1.0
176
     1
 90
        1
176
     1
 90
        6
176
     1
 90
        2
176
     1
 62
     7
176
     1
 90
        5
176
     1
 90
        0
176
     1
 90
        0
176
     1
290
     0
176
     1
 90
        1
176
     1
 40
0.0
176
     1
 90
        0
176
     1
290
     0
176
     1
290
     1
176
     1
290
     1
176
     1
290
     0
176
     1
290
     0
176
     1
290
     0
176
     1
290
     0
176
     1
290
     0
176
     1
290
     0
176
     1
 90
       50
176
     1
 40
0.0
176
     1
 40
1.0
176
     1
 90
        0
176
     1
 62
    18
420
        0
176
     1
 90
       50
176
     1
 90
        3
176
     1
 62
     5
420
      255
176
     1
290
     0
176
     1
 90
       50
176
     1
 90
       50
176
     1
 90
       50
176
     1
290
     0
176
     1
 90
       50
176
     1
 62
   256
176
     0
 40
1.0
176
     0
 90
        2
176
     1
  1
strokes_ogs.tif
176
     1
290
     0
176
     1
 40
1.0
176
     1
 40
1.0
176
     1
  0
VISUALSTYLE
  5
35
102
{ACAD_REACTORS
330
29
102
}
330
29
100
AcDbVisualStyle
  2
Brighten
 70
    12
177
     3
291
     1
 70
    58
 90
        2
176
     1
 90
        2
176
     1
 90
        0
176
     1
 90
        0
176
     1
 40
0.6
176
     1
 40
30.0
176
     1
 62
     7
420
 16777215
176
     1
 90
        1
176
     1
 90
        4
176
     1
 62
     7
176
     1
 62
   257
176
     1
 90
        1
176
     1
 90
        1
176
     1
 40
1.0
176
     1
 90
        8
176
     1
 62
     7
176
     1
 40
1.0
176
     1
 90
        1
176
     1
 90
        6
176
     1
 90
        2
176
     1
 62
     7
176
     1
 90
        5
176
     1
 90
        0
176
     1
 90
        0
176
     1
290
     0
176
     1
 90
        1
176
     1
 40
50.0
176
     1
 90
        0
176
     1
290
     0
176
     1
290
     1
176
     1
290
     1
176
     1
290
     0
176
     1
290
     0
176
     1
290
     0
176
     1
290
     0
176
     1
290
     0
176
     1
290
     0
176
     1
 90
       50
176
     1
 40
0.0
176
     1
 40
1.0
176
     1
 90
        0
176
     1
 62
    18
420
        0
176
     1
 90
       50
176
     1
 90
        3
176
     1
 62
     5
420
      255
176
     1
290
     0
176
     1
 90
       50
176
     1
 90
       50
176
     1
 90
       50
176
     1
290
     0
176
     1
 90
       50
176
     1
 62
   256
176
     0
 40
1.0
176
     0
 90
        2
176
     1
  1
strokes_ogs.tif
176
     1
290
     0
176
     1
 40
1.0
176
     1
 40
1.0
176
     1
  0
VISUALSTYLE
  5
39
102
{ACAD_REACTORS
330
29
102
}
330
29
100
AcDbVisualStyle
  2
ColorChange
 70
    16
177
     3
291
     1
 70
    58
 90
        2
176
     1
 90
        2
176
     1
 90
        3
176
     1
 90
        0
176
     1
 40
0.6
176
     1
 40
30.0
176
     1
 62
     8
420
  8421504
176
     1
 90
        1
176
     1
 90
        4
176
     1
 62
     7
176
     1
 62
   257
176
     1
 90
        1
176
     1
 90
        1
176
     1
 40
1.0
176
     1
 90
        8
176
     1
 62
     8
420
  8421504
176
     1
 40
1.0
176
     1
 90
        1
176
     1
 90
        6
176
     1
 90
        2
176
     1
 62
     7
176
     1
 90
        5
176
     1
 90
        0
176
     1
 90
        0
176
     1
290
     0
176
     1
 90
        1
176
     1
 40
0.0
176
     1
 90
        0
176
     1
290
     0
176
     1
290
     1
176
     1
290
     1
176
     1
290
     0
176
     1
290
     0
176
     1
290
     0
176
     1
290
     0
176
     1
290
     0
176
     1
290
     0
176
     1
 90
       50
176
     1
 40
0.0
176
     1
 40
1.0
176
     1
 90
        0
176
     1
 62
    18
420
        0
176
     1
 90
       50
176
     1
 90
        3
176
     1
 62
     5
420
      255
176
     1
290
     0
176
     1
 90
       50
176
     1
 90
       50
176
     1
 90
       50
176
     1
290
     0
176
     1
 90
       50
176
     1
 62
   256
176
     0
 40
1.0
176
     0
 90
        2
176
     1
  1
strokes_ogs.tif
176
     1
290
     0
176
     1
 40
1.0
176
     1
 40
1.0
176
     1
  0
VISUALSTYLE
  5
32
102
{ACAD_REACTORS
330
29
102
}
330
29
100
AcDbVisualStyle
  2
Conceptual
 70
     9
177
     3
291
     0
 70
    58
 90
        3
176
     1
 90
        2
176
     1
 90
        0
176
     1
 90
        0
176
     1
 40
0.6
176
     1
 40
30.0
176
     1
 62
     7
420
 16777215
176
     1
 90
        2
176
     1
 90
        2
176
     1
 62
     7
176
     1
 62
   257
176
     1
 90
        1
176
     1
 90
        1
176
     1
 40
179.0
176
     1
 90
        8
176
     1
 62
     7
176
     1
 40
1.0
176
     1
 90
        1
176
     1
 90
        6
176
     1
 90
        2
176
     1
 62
     7
176
     1
 90
        3
176
     1
 90
        0
176
     1
 90
        0
176
     1
290
     0
176
     1
 90
        1
176
     1
 40
0.0
176
     1
 90
        0
176
     1
290
     0
176
     1
290
     1
176
     1
290
     1
176
     1
290
     0
176
     1
290
     0
176
     1
290
     0
176
     1
290
     0
176
     1
290
     0
176
     1
290
     0
176
     1
 90
       50
176
     1
 40
0.0
176
     1
 40
1.0
176
     1
 90
        0
176
     1
 62
    18
420
        0
176
     1
 90
       50
176
     1
 90
        3
176
     1
 62
     5
420
      255
176
     1
290
     0
176
     1
 90
       50
176
     1
 90
       50
176
     1
 90
       50
176
     1
290
     0
176
     1
 90
       50
176
     1
 62
   256
176
     0
 40
1.0
176
     0
 90
        2
176
     1
  1
strokes_ogs.tif
176
     1
290
     0
176
     1
 40
1.0
176
     1
 40
1.0
176
     1
  0
VISUALSTYLE
  5
34
102
{ACAD_REACTORS
330
29
102
}
330
29
100
AcDbVisualStyle
  2
Dim
 70
    11
177
     3
291
     1
 70
    58
 90
        2
176
     1
 90
        2
176
     1
 90
        0
176
     1
 90
        0
176
     1
 40
0.6
176
     1
 40
30.0
176
     1
 62
     7
420
 16777215
176
     1
 90
        1
176
     1
 90
        4
176
     1
 62
     7
176
     1
 62
   257
176
     1
 90
        1
176
     1
 90
        1
176
     1
 40
1.0
176
     1
 90
        8
176
     1
 62
     7
176
     1
 40
1.0
176
     1
 90
        1
176
     1
 90
        6
176
     1
 90
        2
176
     1
 62
     7
176
     1
 90
        5
176
     1
 90
        0
176
     1
 90
        0
176
     1
290
     0
176
     1
 90
        1
176
     1
 40
-50.0
176
     1
 90
        0
176
     1
290
     0
176
     1
290
     1
176
     1
290
     1
176
     1
290
     0
176
     1
290
     0
176
     1
290
     0
176
     1
290
     0
176
     1
290
     0
176
     1
290
     0
176
     1
 90
       50
176
     1
 40
0.0
176
     1
 40
1.0
176
     1
 90
        0
176
     1
 62
    18
420
        0
176
     1
 90
       50
176
     1
 90
        3
176
     1
 62
     5
420
      255
176
     1
290
     0
176
     1
 90
       50
176
     1
 90
       50
176
     1
 90
       50
176
     1
290
     0
176
     1
 90
       50
176
     1
 62
   256
176
     0
 40
1.0
176
     0
 90
        2
176
     1
  1
strokes_ogs.tif
176
     1
290
     0
176
     1
 40
1.0
176
     1
 40
1.0
176
     1
  0
VISUALSTYLE
  5
41
102
{ACAD_REACTORS
330
29
102
}
330
29
100
AcDbVisualStyle
  2
EdgeColorOff
 70
    22
177
     3
291
     1
 70
    58
 90
        2
176
     0
 90
        2
176
     0
 90
        0
176
     0
 90
        0
176
     0
 40
0.6
176
     0
 40
30.0
176
     0
 62
     7
420
 16777215
176
     0
 90
        1
176
     0
 90
        4
176
     0
 62
     7
176
     0
 62
   257
176
     0
 90
        1
176
     0
 90
        1
176
     0
 40
1.0
176
     0
 90
        8
176
     2
 62
     7
176
     0
 40
1.0
176
     0
 90
        1
176
     0
 90
        6
176
     0
 90
        2
176
     0
 62
     7
176
     0
 90
        5
176
     0
 90
        0
176
     0
 90
        0
176
     0
290
     0
176
     0
 90
        1
176
     0
 40
0.0
176
     0
 90
        0
176
     0
290
     0
176
     0
290
     1
176
     0
290
     1
176
     0
290
     0
176
     0
290
     0
176
     0
290
     0
176
     0
290
     0
176
     0
290
     0
176
     0
290
     0
176
     0
 90
       50
176
     0
 40
0.0
176
     0
 40
1.0
176
     0
 90
        0
176
     0
 62
    18
420
        0
176
     0
 90
       50
176
     0
 90
        3
176
     0
 62
     5
420
      255
176
     0
290
     0
176
     0
 90
       50
176
     0
 90
       50
176
     0
 90
       50
176
     0
290
     0
176
     0
 90
       50
176
     0
 62
   256
176
     0
 40
1.0
176
     0
 90
        2
176
     0
  1
strokes_ogs.tif
176
     0
290
     0
176
     0
 40
1.0
176
     0
 40
1.0
176
     0
  0
VISUALSTYLE
  5
38
102
{ACAD_REACTORS
330
29
102
}
330
29
100
AcDbVisualStyle
  2
Facepattern
 70
    15
177
     3
291
     1
 70
    58
 90
        2
176
     1
 90
        2
176
     1
 90
        0
176
     1
 90
        0
176
     1
 40
0.6
176
     1
 40
30.0
176
     1
 62
     7
420
 16777215
176
     1
 90
        1
176
     1
 90
        4
176
     1
 62
     7
176
     1
 62
   257
176
     1
 90
        1
176
     1
 90
        1
176
     1
 40
1.0
176
     1
 90
        8
176
     1
 62
     7
176
     1
 40
1.0
176
     1
 90
        1
176
     1
 90
        6
176
     1
 90
        2
176
     1
 62
     7
176
     1
 90
        5
176
     1
 90
        0
176
     1
 90
        0
176
     1
290
     0
176
     1
 90
        1
176
     1
 40
0.0
176
     1
 90
        0
176
     1
290
     0
176
     1
290
     1
176
     1
290
     1
176
     1
290
     0
176
     1
290
     0
176
     1
290
     0
176
     1
290
     0
176
     1
290
     0
176
     1
290
     0
176
     1
 90
       50
176
     1
 40
0.0
176
     1
 40
1.0
176
     1
 90
        0
176
     1
 62
    18
420
        0
176
     1
 90
       50
176
     1
 90
        3
176
     1
 62
     5
420
      255
176
     1
290
     0
176
     1
 90
       50
176
     1
 90
       50
176
     1
 90
       50
176
     1
290
     0
176
     1
 90
       50
176
     1
 62
   256
176
     0
 40
1.0
176
     0
 90
        2
176
     1
  1
strokes_ogs.tif
176
     1
290
     0
176
     1
 40
1.0
176
     1
 40
1.0
176
     1
  0
VISUALSTYLE
  5
2A
102
{ACAD_REACTORS
330
29
102
}
330
29
100
AcDbVisualStyle
  2
Flat
 70
     0
177
     3
291
     1
 70
    58
 90
        2
176
     1
 90
        1
176
     1
 90
        1
176
     1
 90
        2
176
     1
 40
0.6
176
     1
 40
30.0
176
     1
 62
     7
420
 16777215
176
     1
 90
        0
176
     1
 90
        0
176
     1
 62
     7
176
     1
 62
   257
176
     1
 90
        1
176
     1
 90
        1
176
     1
 40
1.0
176
     1
 90
        8
176
     1
 62
     7
176
     1
 40
1.0
176
     1
 90
        1
176
     1
 90
        6
176
     1
 90
        2
176
     1
 62
     7
176
     1
 90
        5
176
     1
 90
        0
176
     1
 90
        0
176
     1
290
     0
176
     1
 90
       13
176
     1
 40
0.0
176
     1
 90
        0
176
     1
290
     0
176
     1
290
     1
176
     1
290
     1
176
     1
290
     0
176
     1
290
     0
176
     1
290
     0
176
     1
290
     0
176
     1
290
     0
176
     1
290
     0
176
     1
 90
       50
176
     1
 40
0.0
176
     1
 40
1.0
176
     1
 90
        0
176
     1
 62
    18
420
        0
176
     1
 90
       50
176
     1
 90
        3
176
     1
 62
     5
420
      255
176
     1
290
     0
176
     1
 90
       50
176
     1
 90
       50
176
     1
 90
       50
176
     1
290
     0
176
     1
 90
       50
176
     1
 62
   256
176
     0
 40
1.0
176
     0
 90
        2
176
     1
  1
strokes_ogs.tif
176
     1
290
     0
176
     1
 40
1.0
176
     1
 40
1.0
176
     1
  0
VISUALSTYLE
  5
2B
102
{ACAD_REACTORS
330
29
102
}
330
29
100
AcDbVisualStyle
  2
FlatWithEdges
 70
     1
177
     3
291
     1
 70
    58
 90
        2
176
     1
 90
        1
176
     1
 90
        1
176
     1
 90
        2
176
     1
 40
0.6
176
     1
 40
30.0
176
     1
 62
     7
420
 16777215
176
     1
 90
        1
176
     1
 90
        0
176
     1
 62
     7
176
     1
 62
   257
176
     1
 90
        1
176
     1
 90
        1
176
     1
 40
1.0
176
     1
 90
        0
176
     1
 62
   257
176
     1
 40
1.0
176
     1
 90
        1
176
     1
 90
        6
176
     1
 90
        2
176
     1
 62
     7
176
     1
 90
        5
176
     1
 90
        0
176
     1
 90
        0
176
     1
290
     0
176
     1
 90
       13
176
     1
 40
0.0
176
     1
 90
        0
176
     1
290
     0
176
     1
290
     1
176
     1
290
     1
176
     1
290
     0
176
     1
290
     0
176
     1
290
     0
176
     1
290
     0
176
     1
290
     0
176
     1
290
     0
176
     1
 90
       50
176
     1
 40
0.0
176
     1
 40
1.0
176
     1
 90
        0
176
     1
 62
    18
420
        0
176
     1
 90
       50
176
     1
 90
        3
176
     1
 62
     5
420
      255
176
     1
290
     0
176
     1
 90
       50
176
     1
 90
       50
176
     1
 90
       50
176
     1
290
     0
176
     1
 90
       50
176
     1
 62
   256
176
     0
 40
1.0
176
     0
 90
        2
176
     1
  1
strokes_ogs.tif
176
     1
290
     0
176
     1
 40
1.0
176
     1
 40
1.0
176
     1
  0
VISUALSTYLE
  5
2C
102
{ACAD_REACTORS
330
29
102
}
330
29
100
AcDbVisualStyle
  2
Gouraud
 70
     2
177
     3
291
     1
 70
    58
 90
        2
176
     1
 90
        2
176
     1
 90
        1
176
     1
 90
        2
176
     1
 40
0.6
176
     1
 40
30.0
176
     1
 62
     7
420
 16777215
176
     1
 90
        0
176
     1
 90
        0
176
     1
 62
     7
176
     1
 62
   257
176
     1
 90
        1
176
     1
 90
        1
176
     1
 40
1.0
176
     1
 90
        0
176
     1
 62
     7
176
     1
 40
1.0
176
     1
 90
        1
176
     1
 90
        6
176
     1
 90
        2
176
     1
 62
     7
176
     1
 90
        5
176
     1
 90
        0
176
     1
 90
        0
176
     1
290
     0
176
     1
 90
       13
176
     1
 40
0.0
176
     1
 90
        0
176
     1
290
     0
176
     1
290
     1
176
     1
290
     1
176
     1
290
     0
176
     1
290
     0
176
     1
290
     0
176
     1
290
     0
176
     1
290
     0
176
     1
290
     0
176
     1
 90
       50
176
     1
 40
0.0
176
     1
 40
1.0
176
     1
 90
        0
176
     1
 62
    18
420
        0
176
     1
 90
       50
176
     1
 90
        3
176
     1
 62
     5
420
      255
176
     1
290
     0
176
     1
 90
       50
176
     1
 90
       50
176
     1
 90
       50
176
     1
290
     0
176
     1
 90
       50
176
     1
 62
   256
176
     0
 40
1.0
176
     0
 90
        2
176
     1
  1
strokes_ogs.tif
176
     1
290
     0
176
     1
 40
1.0
176
     1
 40
1.0
176
     1
  0
VISUALSTYLE
  5
2D
102
{ACAD_REACTORS
330
29
102
}
330
29
100
AcDbVisualStyle
  2
GouraudWithEdges
 70
     3
177
     3
291
     1
 70
    58
 90
        2
176
     1
 90
        2
176
     1
 90
        1
176
     1
 90
        2
176
     1
 40
0.6
176
     1
 40
30.0
176
     1
 62
     7
420
 16777215
176
     1
 90
        1
176
     1
 90
        0
176
     1
 62
     7
176
     1
 62
   257
176
     1
 90
        1
176
     1
 90
        1
176
     1
 40
1.0
176
     1
 90
        0
176
     1
 62
   257
176
     1
 40
1.0
176
     1
 90
        1
176
     1
 90
        6
176
     1
 90
        2
176
     1
 62
     7
176
     1
 90
        5
176
     1
 90
        0
176
     1
 90
        0
176
     1
290
     0
176
     1
 90
       13
176
     1
 40
0.0
176
     1
 90
        0
176
     1
290
     0
176
     1
290
     1
176
     1
290
     1
176
     1
290
     0
176
     1
290
     0
176
     1
290
     0
176
     1
290
     0
176
     1
290
     0
176
     1
290
     0
176
     1
 90
       50
176
     1
 40
0.0
176
     1
 40
1.0
176
     1
 90
        0
176
     1
 62
    18
420
        0
176
     1
 90
       50
176
     1
 90
        3
176
     1
 62
     5
420
      255
176
     1
290
     0
176
     1
 90
       50
176
     1
 90
       50
176
     1
 90
       50
176
     1
290
     0
176
     1
 90
       50
176
     1
 62
   256
176
     0
 40
1.0
176
     0
 90
        2
176
     1
  1
strokes_ogs.tif
176
     1
290
     0
176
     1
 40
1.0
176
     1
 40
1.0
176
     1
  0
VISUALSTYLE
  5
31
102
{ACAD_REACTORS
330
29
102
}
330
29
100
AcDbVisualStyle
  2
Hidden
 70
     6
177
     3
291
     0
 70
    58
 90
        1
176
     1
 90
        2
176
     1
 90
        2
176
     1
 90
        0
176
     1
 40
0.6
176
     1
 40
30.0
176
     1
 62
     7
420
 16777215
176
     1
 90
        2
176
     1
 90
        2
176
     1
 62
     7
176
     1
 62
   257
176
     1
 90
        2
176
     1
 90
        1
176
     1
 40
40.0
176
     1
 90
        0
176
     1
 62
   257
176
     1
 40
1.0
176
     1
 90
        1
176
     1
 90
        6
176
     1
 90
        2
176
     1
 62
     7
176
     1
 90
        3
176
     1
 90
        0
176
     1
 90
        0
176
     1
290
     0
176
     1
 90
        1
176
     1
 40
0.0
176
     1
 90
        0
176
     1
290
     0
176
     1
290
     1
176
     1
290
     1
176
     1
290
     0
176
     1
290
     0
176
     1
290
     0
176
     1
290
     0
176
     1
290
     0
176
     1
290
     0
176
     1
 90
       50
176
     1
 40
0.0
176
     1
 40
1.0
176
     1
 90
        0
176
     1
 62
    18
420
        0
176
     1
 90
       50
176
     1
 90
        3
176
     1
 62
     5
420
      255
176
     1
290
     0
176
     1
 90
       50
176
     1
 90
       50
176
     1
 90
       50
176
     1
290
     0
176
     1
 90
       50
176
     1
 62
   256
176
     0
 40
1.0
176
     0
 90
        2
176
     1
  1
strokes_ogs.tif
176
     1
290
     0
176
     1
 40
1.0
176
     1
 40
1.0
176
     1
  0
VISUALSTYLE
  5
3F
102
{ACAD_REACTORS
330
29
102
}
330
29
100
AcDbVisualStyle
  2
JitterOff
 70
    20
177
     3
291
     1
 70
    58
 90
        2
176
     0
 90
        2
176
     0
 90
        0
176
     0
 90
        0
176
     0
 40
0.6
176
     0
 40
30.0
176
     0
 62
     7
420
 16777215
176
     0
 90
        1
176
     0
 90
        4
176
     0
 62
     7
176
     0
 62
   257
176
     0
 90
        1
176
     0
 90
        1
176
     0
 40
1.0
176
     0
 90
       10
176
     2
 62
     7
176
     0
 40
1.0
176
     0
 90
        1
176
     0
 90
        6
176
     0
 90
        2
176
     0
 62
     7
176
     0
 90
        5
176
     0
 90
        0
176
     0
 90
        0
176
     0
290
     0
176
     0
 90
        1
176
     0
 40
0.0
176
     0
 90
        0
176
     0
290
     0
176
     0
290
     1
176
     0
290
     1
176
     0
290
     0
176
     0
290
     0
176
     0
290
     0
176
     0
290
     0
176
     0
290
     0
176
     0
290
     0
176
     0
 90
       50
176
     0
 40
0.0
176
     0
 40
1.0
176
     0
 90
        0
176
     0
 62
    18
420
        0
176
     0
 90
       50
176
     0
 90
        3
176
     0
 62
     5
420
      255
176
     0
290
     0
176
     0
 90
       50
176
     0
 90
       50
176
     0
 90
       50
176
     0
290
     0
176
     0
 90
       50
176
     0
 62
   256
176
     0
 40
1.0
176
     0
 90
        2
176
     0
  1
strokes_ogs.tif
176
     0
290
     0
176
     0
 40
1.0
176
     0
 40
1.0
176
     0
  0
VISUALSTYLE
  5
37
102
{ACAD_REACTORS
330
29
102
}
330
29
100
AcDbVisualStyle
  2
Linepattern
 70
    14
177
     3
291
     1
 70
    58
 90
        2
176
     1
 90
        2
176
     1
 90
        0
176
     1
 90
        0
176
     1
 40
0.6
176
     1
 40
30.0
176
     1
 62
     7
420
 16777215
176
     1
 90
        1
176
     1
 90
        4
176
     1
 62
     7
176
     1
 62
   257
176
     1
 90
        7
176
     1
 90
        7
176
     1
 40
1.0
176
     1
 90
        8
176
     1
 62
     7
176
     1
 40
1.0
176
     1
 90
        1
176
     1
 90
        6
176
     1
 90
        2
176
     1
 62
     7
176
     1
 90
        5
176
     1
 90
        0
176
     1
 90
        0
176
     1
290
     0
176
     1
 90
        1
176
     1
 40
0.0
176
     1
 90
        0
176
     1
290
     0
176
     1
290
     1
176
     1
290
     1
176
     1
290
     0
176
     1
290
     0
176
     1
290
     0
176
     1
290
     0
176
     1
290
     0
176
     1
290
     0
176
     1
 90
       50
176
     1
 40
0.0
176
     1
 40
1.0
176
     1
 90
        0
176
     1
 62
    18
420
        0
176
     1
 90
       50
176
     1
 90
        3
176
     1
 62
     5
420
      255
176
     1
290
     0
176
     1
 90
       50
176
     1
 90
       50
176
     1
 90
       50
176
     1
290
     0
176
     1
 90
       50
176
     1
 62
   256
176
     0
 40
1.0
176
     0
 90
        2
176
     1
  1
strokes_ogs.tif
176
     1
290
     0
176
     1
 40
1.0
176
     1
 40
1.0
176
     1
  0
VISUALSTYLE
  5
40
102
{ACAD_REACTORS
330
29
102
}
330
29
100
AcDbVisualStyle
  2
OverhangOff
 70
    21
177
     3
291
     1
 70
    58
 90
        2
176
     0
 90
        2
176
     0
 90
        0
176
     0
 90
        0
176
     0
 40
0.6
176
     0
 40
30.0
176
     0
 62
     7
420
 16777215
176
     0
 90
        1
176
     0
 90
        4
176
     0
 62
     7
176
     0
 62
   257
176
     0
 90
        1
176
     0
 90
        1
176
     0
 40
1.0
176
     0
 90
        9
176
     2
 62
     7
176
     0
 40
1.0
176
     0
 90
        1
176
     0
 90
        6
176
     0
 90
        2
176
     0
 62
     7
176
     0
 90
        5
176
     0
 90
        0
176
     0
 90
        0
176
     0
290
     0
176
     0
 90
        1
176
     0
 40
0.0
176
     0
 90
        0
176
     0
290
     0
176
     0
290
     1
176
     0
290
     1
176
     0
290
     0
176
     0
290
     0
176
     0
290
     0
176
     0
290
     0
176
     0
290
     0
176
     0
290
     0
176
     0
 90
       50
176
     0
 40
0.0
176
     0
 40
1.0
176
     0
 90
        0
176
     0
 62
    18
420
        0
176
     0
 90
       50
176
     0
 90
        3
176
     0
 62
     5
420
      255
176
     0
290
     0
176
     0
 90
       50
176
     0
 90
       50
176
     0
 90
       50
176
     0
290
     0
176
     0
 90
       50
176
     0
 62
   256
176
     0
 40
1.0
176
     0
 90
        2
176
     0
  1
strokes_ogs.tif
176
     0
290
     0
176
     0
 40
1.0
176
     0
 40
1.0
176
     0
  0
VISUALSTYLE
  5
33
102
{ACAD_REACTORS
330
29
102
}
330
29
100
AcDbVisualStyle
  2
Realistic
 70
     8
177
     3
291
     0
 70
    58
 90
        2
176
     1
 90
        3
176
     1
 90
        0
176
     1
 90
        2
176
     1
 40
0.6
176
     1
 40
30.0
176
     1
 62
     7
420
 16777215
176
     1
 90
        0
176
     1
 90
        0
176
     1
 62
     7
176
     1
 62
   257
176
     1
 90
        1
176
     1
 90
        1
176
     1
 40
1.0
176
     1
 90
        8
176
     1
 62
   257
176
     1
 40
1.0
176
     1
 90
        1
176
     1
 90
        6
176
     1
 90
        2
176
     1
 62
     7
176
     1
 90
        3
176
     1
 90
        0
176
     1
 90
        0
176
     1
290
     0
176
     1
 90
       13
176
     1
 40
0.0
176
     1
 90
        0
176
     1
290
     0
176
     1
290
     1
176
     1
290
     1
176
     1
290
     0
176
     1
290
     0
176
     1
290
     0
176
     1
290
     0
176
     1
290
     0
176
     1
290
     0
176
     1
 90
       50
176
     1
 40
0.0
176
     1
 40
1.0
176
     1
 90
        0
176
     1
 62
    18
420
        0
176
     1
 90
       50
176
     1
 90
        3
176
     1
 62
     5
420
      255
176
     1
290
     0
176
     1
 90
       50
176
     1
 90
       50
176
     1
 90
       50
176
     1
290
     0
176
     1
 90
       50
176
     1
 62
   256
176
     0
 40
1.0
176
     0
 90
        2
176
     1
  1
strokes_ogs.tif
176
     1
290
     0
176
     1
 40
1.0
176
     1
 40
1.0
176
     1
  0
VISUALSTYLE
  5
3E
102
{ACAD_REACTORS
330
29
102
}
330
29
100
AcDbVisualStyle
  2
Shaded
 70
    27
177
     3
291
     0
 70
    58
 90
        2
176
     1
 90
        2
176
     1
 90
        1
176
     1
 90
        2
176
     1
 40
0.6
176
     1
 40
30.0
176
     1
 62
     7
420
 16777215
176
     1
 90
        0
176
     1
 90
        4
176
     1
 62
     7
176
     1
 62
   257
176
     1
 90
        1
176
     1
 90
        1
176
     1
 40
1.0
176
     1
 90
        8
176
     1
 62
   257
176
     1
 40
1.0
176
     1
 90
        1
176
     1
 90
        6
176
     1
 90
        2
176
     1
 62
     8
420
  7895160
176
     1
 90
        3
176
     1
 90
        0
176
     1
 90
        0
176
     1
290
     0
176
     1
 90
        5
176
     1
 40
0.0
176
     1
 90
        0
176
     1
290
     0
176
     1
290
     1
176
     1
290
     1
176
     1
290
     0
176
     1
290
     0
176
     1
290
     0
176
     1
290
     0
176
     1
290
     0
176
     1
290
     0
176
     1
 90
       50
176
     1
 40
0.0
176
     1
 40
1.0
176
     1
 90
        0
176
     1
 62
    18
420
        0
176
     1
 90
       50
176
     1
 90
        3
176
     1
 62
     5
420
      255
176
     1
290
     0
176
     1
 90
       50
176
     1
 90
       50
176
     1
 90
       50
176
     1
290
     0
176
     1
 90
       50
176
     1
 62
   256
176
     0
 40
1.0
176
     0
 90
        2
176
     1
  1
strokes_ogs.tif
176
     1
290
     0
176
     1
 40
1.0
176
     1
 40
1.0
176
     1
  0
VISUALSTYLE
  5
3D
102
{ACAD_REACTORS
330
29
102
}
330
29
100
AcDbVisualStyle
  2
Shaded with edges
 70
    26
177
     3
291
     0
 70
    58
 90
        2
176
     1
 90
        2
176
     1
 90
        1
176
     1
 90
        2
176
     1
 40
0.6
176
     1
 40
30.0
176
     1
 62
     7
420
 16777215
176
     1
 90
        1
176
     1
 90
       10
176
     1
 62
     7
176
     1
 62
   257
176
     1
 90
        2
176
     1
 90
        1
176
     1
 40
1.0
176
     1
 90
        8
176
     1
 62
   257
176
     1
 40
1.0
176
     1
 90
        1
176
     1
 90
        6
176
     1
 90
        2
176
     1
 62
     7
176
     1
 90
        3
176
     1
 90
        0
176
     1
 90
        0
176
     1
290
     0
176
     1
 90
        5
176
     1
 40
0.0
176
     1
 90
        0
176
     1
290
     0
176
     1
290
     1
176
     1
290
     1
176
     1
290
     0
176
     1
290
     0
176
     1
290
     0
176
     1
290
     0
176
     1
290
     0
176
     1
290
     0
176
     1
 90
       50
176
     1
 40
0.0
176
     1
 40
1.0
176
     1
 90
        0
176
     1
 62
    18
420
        0
176
     1
 90
       50
176
     1
 90
        3
176
     1
 62
     5
420
      255
176
     1
290
     0
176
     1
 90
       50
176
     1
 90
       50
176
     1
 90
       50
176
     1
290
     0
176
     1
 90
       50
176
     1
 62
   256
176
     0
 40
1.0
176
     0
 90
        2
176
     1
  1
strokes_ogs.tif
176
     1
290
     0
176
     1
 40
1.0
176
     1
 40
1.0
176
     1
  0
VISUALSTYLE
  5
3A
102
{ACAD_REACTORS
330
29
102
}
330
29
100
AcDbVisualStyle
  2
Shades of Gray
 70
    23
177
     3
291
     0
 70
    58
 90
        2
176
     1
 90
        2
176
     1
 90
        3
176
     1
 90
        0
176
     1
 40
0.6
176
     1
 40
30.0
176
     1
 62
     7
420
 16777215
176
     1
 90
        2
176
     1
 90
        2
176
     1
 62
     7
176
     1
 62
     7
176
     1
 90
        1
176
     1
 90
        1
176
     1
 40
40.0
176
     1
 90
        8
176
     1
 62
     7
176
     1
 40
1.0
176
     1
 90
        1
176
     1
 90
        6
176
     1
 90
        2
176
     1
 62
     7
176
     1
 90
        3
176
     1
 90
        0
176
     1
 90
        0
176
     1
290
     0
176
     1
 90
        1
176
     1
 40
0.0
176
     1
 90
        0
176
     1
290
     0
176
     1
290
     1
176
     1
290
     1
176
     1
290
     0
176
     1
290
     0
176
     1
290
     0
176
     1
290
     0
176
     1
290
     0
176
     1
290
     0
176
     1
 90
       50
176
     1
 40
0.0
176
     1
 40
1.0
176
     1
 90
        0
176
     1
 62
    18
420
        0
176
     1
 90
       50
176
     1
 90
        3
176
     1
 62
     5
420
      255
176
     1
290
     0
176
     1
 90
       50
176
     1
 90
       50
176
     1
 90
       50
176
     1
290
     0
176
     1
 90
       50
176
     1
 62
   256
176
     0
 40
1.0
176
     0
 90
        2
176
     1
  1
strokes_ogs.tif
176
     1
290
     0
176
     1
 40
1.0
176
     1
 40
1.0
176
     1
  0
VISUALSTYLE
  5
3B
102
{ACAD_REACTORS
330
29
102
}
330
29
100
AcDbVisualStyle
  2
Sketchy
 70
    24
177
     3
291
     0
 70
    58
 90
        1
176
     1
 90
        2
176
     1
 90
        2
176
     1
 90
        0
176
     1
 40
0.6
176
     1
 40
30.0
176
     1
 62
     7
420
 16777215
176
     1
 90
        2
176
     1
 90
        2
176
     1
 62
     7
176
     1
 62
     7
176
     1
 90
        1
176
     1
 90
        1
176
     1
 40
40.0
176
     1
 90
       11
176
     1
 62
     7
176
     1
 40
1.0
176
     1
 90
        1
176
     1
 90
        6
176
     1
 90
        2
176
     1
 62
     7
176
     1
 90
        6
176
     1
 90
        0
176
     1
 90
        0
176
     1
290
     0
176
     1
 90
        1
176
     1
 40
0.0
176
     1
 90
        0
176
     1
290
     0
176
     1
290
     1
176
     1
290
     1
176
     1
290
     0
176
     1
290
     0
176
     1
290
     0
176
     1
290
     0
176
     1
290
     0
176
     1
290
     0
176
     1
 90
       50
176
     1
 40
0.0
176
     1
 40
1.0
176
     1
 90
        0
176
     1
 62
    18
420
        0
176
     1
 90
       50
176
     1
 90
        3
176
     1
 62
     5
420
      255
176
     1
290
     0
176
     1
 90
       50
176
     1
 90
       50
176
     1
 90
       50
176
     1
290
     0
176
     1
 90
       50
176
     1
 62
   256
176
     0
 40
1.0
176
     0
 90
        2
176
     1
  1
strokes_ogs.tif
176
     1
290
     0
176
     1
 40
1.0
176
     1
 40
1.0
176
     1
  0
VISUALSTYLE
  5
36
102
{ACAD_REACTORS
330
29
102
}
330
29
100
AcDbVisualStyle
  2
Thicken
 70
    13
177
     3
291
     1
 70
    58
 90
        2
176
     1
 90
        2
176
     1
 90
        0
176
     1
 90
        0
176
     1
 40
0.6
176
     1
 40
30.0
176
     1
 62
     7
420
 16777215
176
     1
 90
        1
176
     1
 90
        4
176
     1
 62
     7
176
     1
 62
   257
176
     1
 90
        1
176
     1
 90
        1
176
     1
 40
1.0
176
     1
 90
       12
176
     1
 62
     7
176
     1
 40
1.0
176
     1
 90
        1
176
     1
 90
        6
176
     1
 90
        2
176
     1
 62
     7
176
     1
 90
        5
176
     1
 90
        0
176
     1
 90
        0
176
     1
290
     0
176
     1
 90
        1
176
     1
 40
0.0
176
     1
 90
        0
176
     1
290
     0
176
     1
290
     1
176
     1
290
     1
176
     1
290
     0
176
     1
290
     0
176
     1
290
     0
176
     1
290
     0
176
     1
290
     0
176
     1
290
     0
176
     1
 90
       50
176
     1
 40
0.0
176
     1
 40
1.0
176
     1
 90
        0
176
     1
 62
    18
420
        0
176
     1
 90
       50
176
     1
 90
        3
176
     1
 62
     5
420
      255
176
     1
290
     0
176
     1
 90
       50
176
     1
 90
       50
176
     1
 90
       50
176
     1
290
     0
176
     1
 90
       50
176
     1
 62
   256
176
     0
 40
1.0
176
     0
 90
        2
176
     1
  1
strokes_ogs.tif
176
     1
290
     0
176
     1
 40
1.0
176
     1
 40
1.0
176
     1
  0
VISUALSTYLE
  5
30
102
{ACAD_REACTORS
330
29
102
}
330
29
100
AcDbVisualStyle
  2
Wireframe
 70
     5
177
     3
291
     0
 70
    58
 90
        0
176
     1
 90
        2
176
     1
 90
        0
176
     1
 90
        0
176
     1
 40
0.6
176
     1
 40
30.0
176
     1
 62
     7
420
 16777215
176
     1
 90
        1
176
     1
 90
        4
176
     1
 62
     7
176
     1
 62
   257
176
     1
 90
        1
176
     1
 90
        1
176
     1
 40
1.0
176
     1
 90
        0
176
     1
 62
   257
176
     1
 40
1.0
176
     1
 90
        1
176
     1
 90
        6
176
     1
 90
        2
176
     1
 62
     7
176
     1
 90
        3
176
     1
 90
        0
176
     1
 90
        0
176
     1
290
     0
176
     1
 90
        1
176
     1
 40
0.0
176
     1
 90
        0
176
     1
290
     0
176
     1
290
     1
176
     1
290
     1
176
     1
290
     0
176
     1
290
     0
176
     1
290
     0
176
     1
290
     0
176
     1
290
     0
176
     1
290
     0
176
     1
 90
       50
176
     1
 40
0.0
176
     1
 40
1.0
176
     1
 90
        0
176
     1
 62
    18
420
        0
176
     1
 90
       50
176
     1
 90
        3
176
     1
 62
     5
420
      255
176
     1
290
     0
176
     1
 90
       50
176
     1
 90
       50
176
     1
 90
       50
176
     1
290
     0
176
     1
 90
       50
176
     1
 62
   256
176
     0
 40
1.0
176
     0
 90
        2
176
     1
  1
strokes_ogs.tif
176
     1
290
     0
176
     1
 40
1.0
176
     1
 40
1.0
176
     1
  0
VISUALSTYLE
  5
3C
102
{ACAD_REACTORS
330
29
102
}
330
29
100
AcDbVisualStyle
  2
X-Ray
 70
    25
177
     3
291
     0
 70
    58
 90
        2
176
     1
 90
        2
176
     1
 90
        1
176
     1
 90
        1
176
     1
 40
0.5
176
     1
 40
30.0
176
     1
 62
     7
420
 16777215
176
     1
 90
        1
176
     1
 90
        0
176
     1
 62
     7
176
     1
 62
   257
176
     1
 90
        1
176
     1
 90
        1
176
     1
 40
1.0
176
     1
 90
        8
176
     1
 62
     7
176
     1
 40
1.0
176
     1
 90
        1
176
     1
 90
        6
176
     1
 90
        2
176
     1
 62
     7
176
     1
 90
        3
176
     1
 90
        0
176
     1
 90
        0
176
     1
290
     0
176
     1
 90
       13
176
     1
 40
0.0
176
     1
 90
        0
176
     1
290
     0
176
     1
290
     1
176
     1
290
     1
176
     1
290
     0
176
     1
290
     0
176
     1
290
     0
176
     1
290
     0
176
     1
290
     0
176
     1
290
     0
176
     1
 90
       50
176
     1
 40
0.0
176
     1
 40
1.0
176
     1
 90
        0
176
     1
 62
    18
420
        0
176
     1
 90
       50
176
     1
 90
        3
176
     1
 62
     5
420
      255
176
     1
290
     0
176
     1
 90
       50
176
     1
 90
       50
176
     1
 90
       50
176
     1
290
     0
176
     1
 90
       50
176
     1
 62
   256
176
     0
 40
1.0
176
     0
 90
        2
176
     1
  1
strokes_ogs.tif
176
     1
290
     0
176
     1
 40
1.0
176
     1
 40
1.0
176
     1
  0
DICTIONARYVAR
  5
81
102
{ACAD_REACTORS
330
7C
102
}
330
7C
100
DictionaryVariables
280
     0
  1
1:1
  0
DICTIONARYVAR
  5
7E
102
{ACAD_REACTORS
330
7C
102
}
330
7C
100
DictionaryVariables
280
     0
  1
STANDARD
  0
DICTIONARYVAR
  5
7D
102
{ACAD_REACTORS
330
7C
102
}
330
7C
100
DictionaryVariables
280
     0
  1
STANDARD
  0
DICTIONARYVAR
  5
7F
102
{ACAD_REACTORS
330
7C
102
}
330
7C
100
DictionaryVariables
280
     0
  1
Imperial24
  0
DICTIONARYVAR
  5
80
102
{ACAD_REACTORS
330
7C
102
}
330
7C
100
DictionaryVariables
280
     0
  1
Imperial24
  0
XRECORD
  5
2A9
102
{ACAD_REACTORS
330
2A5
102
}
330
2A5
100
AcDbXrecord
280
     1
  1
BUILDING_ID
  1
Progetto per messa in tavola DXF, DWG
  1
FLOOR_ID
  1
694395
  0
XRECORD
  5
2A7
102
{ACAD_REACTORS
330
2A5
102
}
330
2A5
100
AcDbXrecord
280
     1
  1
-2001160
  1
Apparecchi idraulici
  0
XRECORD
  5
2A8
102
{ACAD_REACTORS
330
2A5
102
}
330
2A5
100
AcDbXrecord
280
     1
  1
790271
  1
Body
  1
924063
  1
Handle
  0
XRECORD
  5
2A6
102
{ACAD_REACTORS
330
2A5
102
}
330
2A5
100
AcDbXrecord
280
     1
  1
859151
  1
Automatic flow rate regulator valve_Caleffi_121 DN15 : 1/2''
  0
DICTIONARY
  5
1A
330
19
100
AcDbDictionary
280
     1
281
     1
  3
BUMPTILE
360
1C
  3
DIFFUSETILE
360
1B
  3
OPACITYTILE
360
1F
  3
REFLECTIONTILE
360
1E
  3
REFRACTIONTILE
360
20
  3
SPECULARTILE
360
1D
  0
DICTIONARY
  5
12
330
11
100
AcDbDictionary
280
     1
281
     1
  3
BUMPTILE
360
14
  3
DIFFUSETILE
360
13
  3
OPACITYTILE
360
17
  3
REFLECTIONTILE
360
16
  3
REFRACTIONTILE
360
18
  3
SPECULARTILE
360
15
  0
DICTIONARY
  5
22
330
21
100
AcDbDictionary
280
     1
281
     1
  3
BUMPTILE
360
24
  3
DIFFUSETILE
360
23
  3
OPACITYTILE
360
27
  3
REFLECTIONTILE
360
26
  3
REFRACTIONTILE
360
28
  3
SPECULARTILE
360
25
  0
DICTIONARY
  5
2AC
330
65
100
AcDbDictionary
280
     1
281
     1
  3
ACAD_ROUNDTRIP_2008_TABLESTYLE_CELLSTYLEMAP
360
2AD
  0
XRECORD
  5
1C
102
{ACAD_REACTORS
330
1A
102
}
330
1A
100
AcDbXrecord
280
     1
270
     1
271
     1
  0
XRECORD
  5
1B
102
{ACAD_REACTORS
330
1A
102
}
330
1A
100
AcDbXrecord
280
     1
270
     1
271
     1
  0
XRECORD
  5
1F
102
{ACAD_REACTORS
330
1A
102
}
330
1A
100
AcDbXrecord
280
     1
270
     1
271
     1
  0
XRECORD
  5
1E
102
{ACAD_REACTORS
330
1A
102
}
330
1A
100
AcDbXrecord
280
     1
270
     1
271
     1
  0
XRECORD
  5
20
102
{ACAD_REACTORS
330
1A
102
}
330
1A
100
AcDbXrecord
280
     1
270
     1
271
     1
  0
XRECORD
  5
1D
102
{ACAD_REACTORS
330
1A
102
}
330
1A
100
AcDbXrecord
280
     1
270
     1
271
     1
  0
XRECORD
  5
14
102
{ACAD_REACTORS
330
12
102
}
330
12
100
AcDbXrecord
280
     1
270
     1
271
     1
  0
XRECORD
  5
13
102
{ACAD_REACTORS
330
12
102
}
330
12
100
AcDbXrecord
280
     1
270
     1
271
     1
  0
XRECORD
  5
17
102
{ACAD_REACTORS
330
12
102
}
330
12
100
AcDbXrecord
280
     1
270
     1
271
     1
  0
XRECORD
  5
16
102
{ACAD_REACTORS
330
12
102
}
330
12
100
AcDbXrecord
280
     1
270
     1
271
     1
  0
XRECORD
  5
18
102
{ACAD_REACTORS
330
12
102
}
330
12
100
AcDbXrecord
280
     1
270
     1
271
     1
  0
XRECORD
  5
15
102
{ACAD_REACTORS
330
12
102
}
330
12
100
AcDbXrecord
280
     1
270
     1
271
     1
  0
XRECORD
  5
24
102
{ACAD_REACTORS
330
22
102
}
330
22
100
AcDbXrecord
280
     1
270
     1
271
     1
  0
XRECORD
  5
23
102
{ACAD_REACTORS
330
22
102
}
330
22
100
AcDbXrecord
280
     1
270
     1
271
     1
  0
XRECORD
  5
27
102
{ACAD_REACTORS
330
22
102
}
330
22
100
AcDbXrecord
280
     1
270
     1
271
     1
  0
XRECORD
  5
26
102
{ACAD_REACTORS
330
22
102
}
330
22
100
AcDbXrecord
280
     1
270
     1
271
     1
  0
XRECORD
  5
28
102
{ACAD_REACTORS
330
22
102
}
330
22
100
AcDbXrecord
280
     1
270
     1
271
     1
  0
XRECORD
  5
25
102
{ACAD_REACTORS
330
22
102
}
330
22
100
AcDbXrecord
280
     1
270
     1
271
     1
  0
CELLSTYLEMAP
  5
2AD
102
{ACAD_REACTORS
330
2AC
102
}
330
2AC
100
AcDbCellStyleMap
 90
        3
300
CELLSTYLE
  1
TABLEFORMAT_BEGIN
 90
        5
170
     1
 91
        0
 92
    32768
 62
   257
 93
        1
300
CONTENTFORMAT
  1
CONTENTFORMAT_BEGIN
 90
        0
 91
        0
 92
      512
 93
        0
300

 40
0.0
140
1.0
 94
        5
 62
     0
340
55
144
0.25
309
CONTENTFORMAT_END
171
     0
 94
        0
309
TABLEFORMAT_END
  1
CELLSTYLE_BEGIN
 90
        1
 91
        1
300
_TITLE
309
CELLSTYLE_END
300
CELLSTYLE
  1
TABLEFORMAT_BEGIN
 90
        5
170
     1
 91
        0
 92
        0
 62
   257
 93
        1
300
CONTENTFORMAT
  1
CONTENTFORMAT_BEGIN
 90
        0
 91
        0
 92
      512
 93
        0
300

 40
0.0
140
1.0
 94
        5
 62
     0
340
55
144
0.18
309
CONTENTFORMAT_END
171
     0
 94
        0
309
TABLEFORMAT_END
  1
CELLSTYLE_BEGIN
 90
        2
 91
        1
300
_HEADER
309
CELLSTYLE_END
300
CELLSTYLE
  1
TABLEFORMAT_BEGIN
 90
        5
170
     1
 91
        0
 92
        0
 62
   257
 93
        1
300
CONTENTFORMAT
  1
CONTENTFORMAT_BEGIN
 90
        0
 91
        0
 92
      512
 93
        0
300

 40
0.0
140
1.0
 94
        2
 62
     0
340
55
144
0.18
309
CONTENTFORMAT_END
171
     0
 94
        0
309
TABLEFORMAT_END
  1
CELLSTYLE_BEGIN
 90
        3
 91
        2
300
_DATA
309
CELLSTYLE_END
  0
ENDSEC
  0
EOF
