  0
SECTION
  2
HEADER
  9
$ACADVER
  1
AC1027
  9
$ACADMAINTVER
 70
    20
  9
$DWGCODEPAGE
  3
ANSI_1252
  9
$REQUIREDVERSIONS
160
                 0
  9
$INSBASE
 10
0.0
 20
0.0
 30
0.0
  9
$EXTMIN
 10
710.2787794873836
 20
1611.745878720054
 30
-0.00000001
  9
$EXTMAX
 10
1184.114353943098
 20
2065.397040377082
 30
0.00000001
  9
$LIMMIN
 10
0.0
 20
0.0
  9
$LIMMAX
 10
12.0
 20
9.0
  9
$ORTHOMODE
 70
     0
  9
$REGENMODE
 70
     1
  9
$FILLMODE
 70
     1
  9
$QTEXTMODE
 70
     0
  9
$MIRRTEXT
 70
     0
  9
$LTSCALE
 40
1.0
  9
$ATTMODE
 70
     1
  9
$TEXTSIZE
 40
0.2
  9
$TRACEWID
 40
0.05
  9
$TEXTSTYLE
  7
Standard
  9
$CLAYER
  8
0
  9
$CELTYPE
  6
ByLayer
  9
$CECOLOR
 62
   256
  9
$CELTSCALE
 40
1.0
  9
$DISPSILH
 70
     0
  9
$DIMSCALE
 40
1.0
  9
$DIMASZ
 40
0.18
  9
$DIMEXO
 40
0.0625
  9
$DIMDLI
 40
0.38
  9
$DIMRND
 40
0.0
  9
$DIMDLE
 40
0.0
  9
$DIMEXE
 40
0.18
  9
$DIMTP
 40
0.0
  9
$DIMTM
 40
0.0
  9
$DIMTXT
 40
0.18
  9
$DIMCEN
 40
0.09
  9
$DIMTSZ
 40
0.0
  9
$DIMTOL
 70
     0
  9
$DIMLIM
 70
     0
  9
$DIMTIH
 70
     1
  9
$DIMTOH
 70
     1
  9
$DIMSE1
 70
     0
  9
$DIMSE2
 70
     0
  9
$DIMTAD
 70
     0
  9
$DIMZIN
 70
     0
  9
$DIMBLK
  1

  9
$DIMASO
 70
     1
  9
$DIMSHO
 70
     1
  9
$DIMPOST
  1

  9
$DIMAPOST
  1

  9
$DIMALT
 70
     0
  9
$DIMALTD
 70
     2
  9
$DIMALTF
 40
25.4
  9
$DIMLFAC
 40
1.0
  9
$DIMTOFL
 70
     0
  9
$DIMTVP
 40
0.0
  9
$DIMTIX
 70
     0
  9
$DIMSOXD
 70
     0
  9
$DIMSAH
 70
     0
  9
$DIMBLK1
  1

  9
$DIMBLK2
  1

  9
$DIMSTYLE
  2
Standard
  9
$DIMCLRD
 70
     0
  9
$DIMCLRE
 70
     0
  9
$DIMCLRT
 70
     0
  9
$DIMTFAC
 40
1.0
  9
$DIMGAP
 40
0.09
  9
$DIMJUST
 70
     0
  9
$DIMSD1
 70
     0
  9
$DIMSD2
 70
     0
  9
$DIMTOLJ
 70
     1
  9
$DIMTZIN
 70
     0
  9
$DIMALTZ
 70
     0
  9
$DIMALTTZ
 70
     0
  9
$DIMUPT
 70
     0
  9
$DIMDEC
 70
     4
  9
$DIMTDEC
 70
     4
  9
$DIMALTU
 70
     2
  9
$DIMALTTD
 70
     2
  9
$DIMTXSTY
  7
Standard
  9
$DIMAUNIT
 70
     0
  9
$DIMADEC
 70
     0
  9
$DIMALTRND
 40
0.0
  9
$DIMAZIN
 70
     0
  9
$DIMDSEP
 70
    46
  9
$DIMATFIT
 70
     3
  9
$DIMFRAC
 70
     0
  9
$DIMLDRBLK
  1

  9
$DIMLUNIT
 70
     2
  9
$DIMLWD
 70
    -2
  9
$DIMLWE
 70
    -2
  9
$DIMTMOVE
 70
     0
  9
$DIMFXL
 40
1.0
  9
$DIMFXLON
 70
     0
  9
$DIMJOGANG
 40
0.7853981633974483
  9
$DIMTFILL
 70
     0
  9
$DIMTFILLCLR
 70
     0
  9
$DIMARCSYM
 70
     0
  9
$DIMLTYPE
  6

  9
$DIMLTEX1
  6

  9
$DIMLTEX2
  6

  9
$DIMTXTDIRECTION
 70
     0
  9
$LUNITS
 70
     2
  9
$LUPREC
 70
     4
  9
$SKETCHINC
 40
0.1
  9
$FILLETRAD
 40
0.0
  9
$AUNITS
 70
     0
  9
$AUPREC
 70
     0
  9
$MENU
  1
.
  9
$ELEVATION
 40
0.0
  9
$PELEVATION
 40
0.0
  9
$THICKNESS
 40
0.0
  9
$LIMCHECK
 70
     0
  9
$CHAMFERA
 40
0.0
  9
$CHAMFERB
 40
0.0
  9
$CHAMFERC
 40
0.0
  9
$CHAMFERD
 40
0.0
  9
$SKPOLY
 70
     0
  9
$TDCREATE
 40
2457589.352276748
  9
$TDUCREATE
 40
2457589.268943415
  9
$TDUPDATE
 40
2457589.352276748
  9
$TDUUPDATE
 40
2457589.268943415
  9
$TDINDWG
 40
0.0000184606
  9
$TDUSRTIMER
 40
0.0000184606
  9
$USRTIMER
 70
     1
  9
$ANGBASE
 50
0.0
  9
$ANGDIR
 70
     0
  9
$PDMODE
 70
     0
  9
$PDSIZE
 40
0.0
  9
$PLINEWID
 40
0.0
  9
$SPLFRAME
 70
     0
  9
$SPLINETYPE
 70
     6
  9
$SPLINESEGS
 70
     8
  9
$HANDSEED
  5
42B
  9
$SURFTAB1
 70
     6
  9
$SURFTAB2
 70
     6
  9
$SURFTYPE
 70
     6
  9
$SURFU
 70
     6
  9
$SURFV
 70
     6
  9
$UCSBASE
  2

  9
$UCSNAME
  2

  9
$UCSORG
 10
0.0
 20
0.0
 30
0.0
  9
$UCSXDIR
 10
1.0
 20
0.0
 30
0.0
  9
$UCSYDIR
 10
0.0
 20
1.0
 30
0.0
  9
$UCSORTHOREF
  2

  9
$UCSORTHOVIEW
 70
     0
  9
$UCSORGTOP
 10
0.0
 20
0.0
 30
0.0
  9
$UCSORGBOTTOM
 10
0.0
 20
0.0
 30
0.0
  9
$UCSORGLEFT
 10
0.0
 20
0.0
 30
0.0
  9
$UCSORGRIGHT
 10
0.0
 20
0.0
 30
0.0
  9
$UCSORGFRONT
 10
0.0
 20
0.0
 30
0.0
  9
$UCSORGBACK
 10
0.0
 20
0.0
 30
0.0
  9
$PUCSBASE
  2

  9
$PUCSNAME
  2

  9
$PUCSORG
 10
0.0
 20
0.0
 30
0.0
  9
$PUCSXDIR
 10
1.0
 20
0.0
 30
0.0
  9
$PUCSYDIR
 10
0.0
 20
1.0
 30
0.0
  9
$PUCSORTHOREF
  2

  9
$PUCSORTHOVIEW
 70
     0
  9
$PUCSORGTOP
 10
0.0
 20
0.0
 30
0.0
  9
$PUCSORGBOTTOM
 10
0.0
 20
0.0
 30
0.0
  9
$PUCSORGLEFT
 10
0.0
 20
0.0
 30
0.0
  9
$PUCSORGRIGHT
 10
0.0
 20
0.0
 30
0.0
  9
$PUCSORGFRONT
 10
0.0
 20
0.0
 30
0.0
  9
$PUCSORGBACK
 10
0.0
 20
0.0
 30
0.0
  9
$USERI1
 70
     0
  9
$USERI2
 70
     0
  9
$USERI3
 70
     0
  9
$USERI4
 70
     0
  9
$USERI5
 70
     0
  9
$USERR1
 40
0.0
  9
$USERR2
 40
0.0
  9
$USERR3
 40
0.0
  9
$USERR4
 40
0.0
  9
$USERR5
 40
0.0
  9
$WORLDVIEW
 70
     1
  9
$SHADEDGE
 70
     3
  9
$SHADEDIF
 70
    70
  9
$TILEMODE
 70
     1
  9
$MAXACTVP
 70
    64
  9
$PINSBASE
 10
0.0
 20
0.0
 30
0.0
  9
$PLIMCHECK
 70
     0
  9
$PEXTMIN
 10
1.000000000000000E+20
 20
1.000000000000000E+20
 30
1.000000000000000E+20
  9
$PEXTMAX
 10
-1.000000000000000E+20
 20
-1.000000000000000E+20
 30
-1.000000000000000E+20
  9
$PLIMMIN
 10
0.0
 20
0.0
  9
$PLIMMAX
 10
12.0
 20
9.0
  9
$UNITMODE
 70
     0
  9
$VISRETAIN
 70
     1
  9
$PLINEGEN
 70
     0
  9
$PSLTSCALE
 70
     1
  9
$TREEDEPTH
 70
  3020
  9
$CMLSTYLE
  2
Standard
  9
$CMLJUST
 70
     0
  9
$CMLSCALE
 40
1.0
  9
$PROXYGRAPHICS
 70
     1
  9
$MEASUREMENT
 70
     1
  9
$CELWEIGHT
370
    -1
  9
$ENDCAPS
280
     0
  9
$JOINSTYLE
280
     0
  9
$LWDISPLAY
290
     0
  9
$INSUNITS
 70
     4
  9
$HYPERLINKBASE
  1

  9
$STYLESHEET
  1

  9
$XEDIT
290
     1
  9
$CEPSNTYPE
380
     0
  9
$PSTYLEMODE
290
     1
  9
$FINGERPRINTGUID
  2
{3754004E-12C6-4A08-ADF4-5B32C675D26D}
  9
$VERSIONGUID
  2
{BF2663BA-33B9-4EFF-8C54-0EA51429B222}
  9
$EXTNAMES
290
     1
  9
$PSVPSCALE
 40
0.0
  9
$OLESTARTUP
290
     0
  9
$SORTENTS
280
   127
  9
$INDEXCTL
280
     0
  9
$HIDETEXT
280
     1
  9
$XCLIPFRAME
280
     2
  9
$HALOGAP
280
     0
  9
$OBSCOLOR
 70
   257
  9
$OBSLTYPE
280
     0
  9
$INTERSECTIONDISPLAY
280
     0
  9
$INTERSECTIONCOLOR
 70
   257
  9
$DIMASSOC
280
     2
  9
$PROJECTNAME
  1

  9
$CAMERADISPLAY
290
     0
  9
$LENSLENGTH
 40
50.0
  9
$CAMERAHEIGHT
 40
0.0
  9
$STEPSPERSEC
 40
2.0
  9
$STEPSIZE
 40
6.0
  9
$3DDWFPREC
 40
2.0
  9
$PSOLWIDTH
 40
0.25
  9
$PSOLHEIGHT
 40
4.0
  9
$LOFTANG1
 40
1.570796326794896
  9
$LOFTANG2
 40
1.570796326794896
  9
$LOFTMAG1
 40
0.0
  9
$LOFTMAG2
 40
0.0
  9
$LOFTPARAM
 70
     7
  9
$LOFTNORMALS
280
     1
  9
$LATITUDE
 40
37.795
  9
$LONGITUDE
 40
-122.394
  9
$NORTHDIRECTION
 40
0.0
  9
$TIMEZONE
 70
 -8000
  9
$LIGHTGLYPHDISPLAY
280
     1
  9
$TILEMODELIGHTSYNCH
280
     1
  9
$CMATERIAL
347
11
  9
$SOLIDHIST
280
     0
  9
$SHOWHIST
280
     1
  9
$DWFFRAME
280
     2
  9
$DGNFRAME
280
     0
  9
$REALWORLDSCALE
290
     1
  9
$INTERFERECOLOR
 62
     1
  9
$INTERFEREOBJVS
345
33
  9
$INTERFEREVPVS
346
30
  9
$CSHADOW
280
     0
  9
$SHADOWPLANELOCATION
 40
0.0
  0
ENDSEC
  0
SECTION
  2
CLASSES
  0
CLASS
  1
ACDBDICTIONARYWDFLT
  2
AcDbDictionaryWithDefault
  3
ObjectDBX Classes
 90
        0
 91
        1
280
     0
281
     0
  0
CLASS
  1
MATERIAL
  2
AcDbMaterial
  3
ObjectDBX Classes
 90
     1153
 91
        3
280
     0
281
     0
  0
CLASS
  1
VISUALSTYLE
  2
AcDbVisualStyle
  3
ObjectDBX Classes
 90
     4095
 91
       24
280
     0
281
     0
  0
CLASS
  1
SCALE
  2
AcDbScale
  3
ObjectDBX Classes
 90
     1153
 91
       17
280
     0
281
     0
  0
CLASS
  1
TABLESTYLE
  2
AcDbTableStyle
  3
ObjectDBX Classes
 90
     4095
 91
        1
280
     0
281
     0
  0
CLASS
  1
MLEADERSTYLE
  2
AcDbMLeaderStyle
  3
ACDB_MLEADERSTYLE_CLASS
 90
     4095
 91
        1
280
     0
281
     0
  0
CLASS
  1
ACDBSECTIONVIEWSTYLE
  2
AcDbSectionViewStyle
  3
ObjectDBX Classes
 90
     1025
 91
        1
280
     0
281
     0
  0
CLASS
  1
ACDBDETAILVIEWSTYLE
  2
AcDbDetailViewStyle
  3
ObjectDBX Classes
 90
     1025
 91
        1
280
     0
281
     0
  0
CLASS
  1
RASTERVARIABLES
  2
AcDbRasterVariables
  3
ISM
 90
        0
 91
        1
280
     0
281
     0
  0
CLASS
  1
DICTIONARYVAR
  2
AcDbDictionaryVar
  3
ObjectDBX Classes
 90
        0
 91
        5
280
     0
281
     0
  0
CLASS
  1
CELLSTYLEMAP
  2
AcDbCellStyleMap
  3
ObjectDBX Classes
 90
     1152
 91
        2
280
     0
281
     0
  0
CLASS
  1
SORTENTSTABLE
  2
AcDbSortentsTable
  3
ObjectDBX Classes
 90
        0
 91
        1
280
     0
281
     0
  0
ENDSEC
  0
SECTION
  2
TABLES
  0
TABLE
  2
VPORT
  5
8
330
0
100
AcDbSymbolTable
 70
     1
  0
VPORT
  5
57
330
8
100
AcDbSymbolTableRecord
100
AcDbViewportTableRecord
  2
*Active
 70
     0
 10
0.0
 20
0.0
 11
1.0
 21
1.0
 12
947.1965667152407
 22
1838.571459548568
 13
0.0
 23
0.0
 14
1.0
 24
1.0
 15
0.0
 25
0.0
 16
0.0
 26
0.0
 36
1.0
 17
0.0
 27
0.0
 37
0.0
 40
453.6511616570276
 41
1.044493246143049
 42
50.0
 43
0.0
 44
0.0
 50
0.0
 51
0.0
 71
     0
 72
  1000
 73
     1
 74
     1
 75
     0
 76
     0
 77
     0
 78
     0
281
     0
 65
     1
110
0.0
120
0.0
130
0.0
111
1.0
121
0.0
131
0.0
112
0.0
122
1.0
132
0.0
 79
     0
146
0.0
 60
     3
 61
     5
292
     1
282
     1
141
0.0
142
0.0
 63
   250
421
  3355443
  0
ENDTAB
  0
TABLE
  2
LTYPE
  5
5
330
0
100
AcDbSymbolTable
 70
     3
  0
LTYPE
  5
5B
330
5
100
AcDbSymbolTableRecord
100
AcDbLinetypeTableRecord
  2
ByBlock
 70
     0
  3

 72
    65
 73
     0
 40
0.0
  0
LTYPE
  5
5C
330
5
100
AcDbSymbolTableRecord
100
AcDbLinetypeTableRecord
  2
ByLayer
 70
     0
  3

 72
    65
 73
     0
 40
0.0
  0
LTYPE
  5
5D
330
5
100
AcDbSymbolTableRecord
100
AcDbLinetypeTableRecord
  2
Continuous
 70
     0
  3
Solid line
 72
    65
 73
     0
 40
0.0
  0
LTYPE
  5
69
330
5
100
AcDbSymbolTableRecord
100
AcDbLinetypeTableRecord
  2
PHANTOM2
 70
     0
  3
___ _ _ ___ _ _ ___ _ _ ___ _ _
 72
    65
 73
     6
 40
1.25
 49
0.625
 74
     0
 49
-0.125
 74
     0
 49
0.125
 74
     0
 49
-0.125
 74
     0
 49
0.125
 74
     0
 49
-0.125
 74
     0
  0
LTYPE
  5
86
330
5
100
AcDbSymbolTableRecord
100
AcDbLinetypeTableRecord
  2
Nascosto 1_5 mm
 70
     0
  3

 72
    65
 73
     2
 40
2.2
 49
1.5
 74
     0
 49
-0.7000000000000001
 74
     0
  0
ENDTAB
  0
TABLE
  2
LAYER
  5
2
330
0
100
AcDbSymbolTable
 70
     4
  0
LAYER
  5
54
330
2
100
AcDbSymbolTableRecord
100
AcDbLayerTableRecord
  2
0
 70
     0
 62
     7
  6
Continuous
370
    -3
390
F
347
21
348
0
  0
LAYER
  5
85
330
2
100
AcDbSymbolTableRecord
100
AcDbLayerTableRecord
  2
P-SANR-FIXT
 70
     0
 62
     6
  6
Continuous
370
    18
390
F
347
21
348
0
  0
LAYER
  5
88
330
2
100
AcDbSymbolTableRecord
100
AcDbLayerTableRecord
  2
M-PIPE
 70
     0
 62
     3
  6
Continuous
370
    18
390
F
347
21
348
0
  0
ENDTAB
  0
TABLE
  2
STYLE
  5
3
330
0
100
AcDbSymbolTable
 70
     2
  0
STYLE
  5
55
330
3
100
AcDbSymbolTableRecord
100
AcDbTextStyleTableRecord
  2
Standard
 70
     0
 40
0.0
 41
1.0
 50
0.0
 71
     0
 42
0.2
  3
txt
  4

  0
STYLE
  5
5A
330
3
100
AcDbSymbolTableRecord
100
AcDbTextStyleTableRecord
  2
Annotative
 70
     0
 40
0.0
 41
1.0
 50
0.0
 71
     0
 42
0.2
  3
txt
  4

1001
AcadAnnotative
1000
AnnotativeData
1002
{
1070
     1
1070
     1
1002
}
  0
ENDTAB
  0
TABLE
  2
VIEW
  5
6
330
0
100
AcDbSymbolTable
 70
     0
  0
ENDTAB
  0
TABLE
  2
UCS
  5
7
330
0
100
AcDbSymbolTable
 70
     0
  0
ENDTAB
  0
TABLE
  2
APPID
  5
9
330
0
100
AcDbSymbolTable
 70
     3
  0
APPID
  5
56
330
9
100
AcDbSymbolTableRecord
100
AcDbRegAppTableRecord
  2
ACAD
 70
     0
  0
APPID
  5
5E
330
9
100
AcDbSymbolTableRecord
100
AcDbRegAppTableRecord
  2
AcadAnnotative
 70
     0
  0
APPID
  5
79
330
9
100
AcDbSymbolTableRecord
100
AcDbRegAppTableRecord
  2
REVIT
 70
     0
  0
ENDTAB
  0
TABLE
  2
DIMSTYLE
  5
A
330
0
100
AcDbSymbolTable
 70
     2
100
AcDbDimStyleTable
 71
     0
  0
DIMSTYLE
105
58
330
A
100
AcDbSymbolTableRecord
100
AcDbDimStyleTableRecord
  2
Standard
 70
     0
340
55
  0
DIMSTYLE
105
59
330
A
100
AcDbSymbolTableRecord
100
AcDbDimStyleTableRecord
  2
Annotative
 70
     0
340
55
1001
AcadAnnotative
1000
AnnotativeData
1002
{
1070
     1
1070
     1
1002
}
  0
ENDTAB
  0
TABLE
  2
BLOCK_RECORD
  5
1
330
0
100
AcDbSymbolTable
 70
     4
  0
BLOCK_RECORD
  5
71
102
{ACAD_XDICTIONARY
360
426
102
}
330
1
100
AcDbSymbolTableRecord
100
AcDbBlockTableRecord
  2
*Model_Space
340
74
 70
     0
280
     1
281
     0
  0
BLOCK_RECORD
  5
6D
330
1
100
AcDbSymbolTableRecord
100
AcDbBlockTableRecord
  2
*Paper_Space
340
70
 70
     0
280
     1
281
     0
  0
BLOCK_RECORD
  5
75
330
1
100
AcDbSymbolTableRecord
100
AcDbBlockTableRecord
  2
*Paper_Space0
340
78
 70
     0
280
     1
281
     0
  0
BLOCK_RECORD
  5
87
330
1
100
AcDbSymbolTableRecord
100
AcDbBlockTableRecord
  2
Automatic flow rate regulator valve_Caleffi_121 DN15 - 1_2__-859151-Est - Idraulica
340
0
102
{BLKREFS
331
1EB
102
}
 70
     0
280
     1
281
     0
  0
BLOCK_RECORD
  5
1EC
330
1
100
AcDbSymbolTableRecord
100
AcDbBlockTableRecord
  2
Automatic flow rate regulator valve_Caleffi_121 DN15 - 1_2__-V1-Est - Idraulica
340
0
102
{BLKREFS
331
29F
102
}
 70
     0
280
     1
281
     0
  0
BLOCK_RECORD
  5
2A0
330
1
100
AcDbSymbolTableRecord
100
AcDbBlockTableRecord
  2
Automatic flow rate regulator valve_Caleffi_121 DN15 - 1_2__-V2-Est - Idraulica
340
0
102
{BLKREFS
331
41F
102
}
 70
     0
280
     1
281
     0
  0
ENDTAB
  0
ENDSEC
  0
SECTION
  2
BLOCKS
  0
BLOCK
  5
72
330
71
100
AcDbEntity
  8
0
100
AcDbBlockBegin
  2
*Model_Space
 70
     0
 10
0.0
 20
0.0
 30
0.0
  3
*Model_Space
  1

  0
ENDBLK
  5
73
330
71
100
AcDbEntity
  8
0
100
AcDbBlockEnd
  0
BLOCK
  5
6E
330
6D
100
AcDbEntity
 67
     1
  8
0
100
AcDbBlockBegin
  2
*Paper_Space
 70
     0
 10
0.0
 20
0.0
 30
0.0
  3
*Paper_Space
  1

  0
ENDBLK
  5
6F
330
6D
100
AcDbEntity
 67
     1
  8
0
100
AcDbBlockEnd
  0
BLOCK
  5
76
330
75
100
AcDbEntity
 67
     1
  8
0
100
AcDbBlockBegin
  2
*Paper_Space0
 70
     0
 10
0.0
 20
0.0
 30
0.0
  3
*Paper_Space0
  1

  0
ENDBLK
  5
77
330
75
100
AcDbEntity
 67
     1
  8
0
100
AcDbBlockEnd
  0
BLOCK
  5
1E9
330
87
100
AcDbEntity
  8
0
100
AcDbBlockBegin
  2
Automatic flow rate regulator valve_Caleffi_121 DN15 - 1_2__-859151-Est - Idraulica
 70
     0
 10
0.0
 20
0.0
 30
0.0
  3
Automatic flow rate regulator valve_Caleffi_121 DN15 - 1_2__-859151-Est - Idraulica
  1

  0
LINE
  5
89
330
87
100
AcDbEntity
  8
M-PIPE
100
AcDbLine
 10
724.5627954685486
 20
2002.425383468509
 30
0.0
 11
724.5627954685486
 21
2002.419561771192
 31
0.0
1001
REVIT
1002
{
1070
     3
1000
790271
1002
}
  0
LWPOLYLINE
  5
8A
330
87
100
AcDbEntity
  8
M-PIPE
100
AcDbPolyline
 90
        3
 70
   128
 43
0.0
 10
724.5627954685486
 20
1997.577277691858
 10
724.5627954685486
 20
1997.573240769625
 10
724.5627954685486
 20
1997.572674930327
1001
REVIT
1002
{
1070
     3
1000
790271
1002
}
  0
LINE
  5
8B
330
87
100
AcDbEntity
  8
M-PIPE
100
AcDbLine
 10
724.5627954685486
 20
1997.574616531482
 30
0.0
 11
724.5627954685486
 21
1997.580438228799
 31
0.0
1001
REVIT
1002
{
1070
     3
1000
790271
1002
}
  0
LWPOLYLINE
  5
8C
330
87
100
AcDbEntity
  8
M-PIPE
100
AcDbPolyline
 90
        3
 70
   128
 43
0.0
 10
724.5627954685486
 20
2002.422722308133
 10
724.5627954685486
 20
2002.426759230365
 10
724.5627954685486
 20
2002.427325069664
1001
REVIT
1002
{
1070
     3
1000
790271
1002
}
  0
LINE
  5
8D
330
87
100
AcDbEntity
  8
M-PIPE
100
AcDbLine
 10
741.2098817153973
 20
1980.019157466267
 30
0.0
 11
741.2372414126665
 21
1979.999999999995
 31
0.0
1001
REVIT
1002
{
1070
     3
1000
790271
1002
}
  0
LWPOLYLINE
  5
8E
330
87
100
AcDbEntity
  8
M-PIPE
100
AcDbPolyline
 90
        8
 70
   128
 43
0.0
 10
744.6027412009642
 20
2022.356548321605
 10
744.9964266097006
 20
2022.620636234183
 10
745.4003578118918
 20
2022.868769687224
 10
745.8138886037812
 20
2023.100551720137
 10
746.2363574243174
 20
2023.315611531112
 10
746.6670884135094
 20
2023.513605070329
 10
747.1053924936588
 20
2023.694215590361
 10
747.4106101044202
 20
2023.805928084317
1001
REVIT
1002
{
1070
     3
1000
790271
1002
}
  0
LWPOLYLINE
  5
8F
330
87
100
AcDbEntity
  8
M-PIPE
100
AcDbPolyline
 90
        9
 70
   128
 43
0.0
 10
747.4106101044202
 20
1976.194344061041
 10
747.2256659487165
 20
1976.259765629291
 10
746.7854254022456
 20
1976.435603304051
 10
746.3525686327941
 20
1976.628905253762
 10
745.9277881188553
 20
1976.839362236539
 10
745.5117634186364
 20
1977.066637566105
 10
745.1051600829101
 20
1977.310367650416
 10
744.7086285902769
 20
1977.57016257333
 10
744.6027412009644
 20
1977.643451678386
1001
REVIT
1002
{
1070
     3
1000
790271
1002
}
  0
LINE
  5
90
330
87
100
AcDbEntity
  8
M-PIPE
100
AcDbLine
 10
742.1639074431273
 20
2041.999999999996
 30
0.0
 11
742.1639074431273
 21
2042.500000000007
 31
0.0
1001
REVIT
1002
{
1070
     3
1000
790271
1002
}
  0
LINE
  5
91
330
87
100
AcDbEntity
  8
M-PIPE
100
AcDbLine
 10
714.1639074431273
 20
2042.500000000028
 30
0.0
 11
714.1639074431273
 21
2041.999999999996
 31
0.0
1001
REVIT
1002
{
1070
     3
1000
790271
1002
}
  0
LINE
  5
92
330
87
100
AcDbEntity
  8
M-PIPE
100
AcDbLine
 10
742.1639074431273
 20
2038.977350269186
 30
0.0
 11
742.1639074431271
 21
2041.999999999996
 31
0.0
1001
REVIT
1002
{
1070
     3
1000
790271
1002
}
  0
LINE
  5
93
330
87
100
AcDbEntity
  8
M-PIPE
100
AcDbLine
 10
714.1639074431274
 20
2041.999999999996
 30
0.0
 11
714.1639074431274
 21
2038.977350269185
 31
0.0
1001
REVIT
1002
{
1070
     3
1000
790271
1002
}
  0
LINE
  5
94
330
87
100
AcDbEntity
  8
M-PIPE
100
AcDbLine
 10
741.1639074431274
 20
2038.399999999996
 30
0.0
 11
742.0964936165379
 21
2038.938428878257
 31
0.0
1001
REVIT
1002
{
1070
     3
1000
790271
1002
}
  0
LINE
  5
95
330
87
100
AcDbEntity
  8
M-PIPE
100
AcDbLine
 10
742.1048477375571
 20
2038.943252132277
 30
0.0
 11
742.1639074431273
 21
2038.977350269186
 31
0.0
1001
REVIT
1002
{
1070
     3
1000
790271
1002
}
  0
LINE
  5
96
330
87
100
AcDbEntity
  8
M-PIPE
100
AcDbLine
 10
714.1639074431274
 20
2038.977350269185
 30
0.0
 11
714.2229671486976
 21
2038.943252132276
 31
0.0
1001
REVIT
1002
{
1070
     3
1000
790271
1002
}
  0
LINE
  5
97
330
87
100
AcDbEntity
  8
M-PIPE
100
AcDbLine
 10
714.2313212697167
 20
2038.938428878257
 30
0.0
 11
715.1639074431273
 21
2038.399999999996
 31
0.0
1001
REVIT
1002
{
1070
     3
1000
790271
1002
}
  0
LINE
  5
98
330
87
100
AcDbEntity
  8
M-PIPE
100
AcDbLine
 10
741.1639074431272
 20
2035.999999999996
 30
0.0
 11
741.1639074431272
 21
2038.399999999996
 31
0.0
1001
REVIT
1002
{
1070
     3
1000
790271
1002
}
  0
LINE
  5
99
330
87
100
AcDbEntity
  8
M-PIPE
100
AcDbLine
 10
715.1639074431273
 20
2038.399999999996
 30
0.0
 11
715.1639074431275
 21
2035.999999999996
 31
0.0
1001
REVIT
1002
{
1070
     3
1000
790271
1002
}
  0
LINE
  5
9A
330
87
100
AcDbEntity
  8
M-PIPE
100
AcDbLine
 10
744.6639074430645
 20
2022.358555749425
 30
0.0
 11
744.6639074430641
 21
2035.499999999997
 31
0.0
1001
REVIT
1002
{
1070
     3
1000
790271
1002
}
  0
LINE
  5
9B
330
87
100
AcDbEntity
  8
M-PIPE
100
AcDbLine
 10
711.6639074431907
 20
2035.499999999996
 30
0.0
 11
711.6639074431909
 21
2019.999999999996
 31
0.0
1001
REVIT
1002
{
1070
     3
1000
790271
1002
}
  0
LINE
  5
9C
330
87
100
AcDbEntity
  8
M-PIPE
100
AcDbLine
 10
744.6639074430326
 20
2035.499999999965
 30
0.0
 11
744.6178358313144
 21
2035.546071611683
 31
0.0
1001
REVIT
1002
{
1070
     3
1000
790271
1002
}
  0
LINE
  5
9D
330
87
100
AcDbEntity
  8
M-PIPE
100
AcDbLine
 10
744.6011199615782
 20
2035.56278748142
 30
0.0
 11
744.1639074430017
 21
2035.999999999996
 31
0.0
1001
REVIT
1002
{
1070
     3
1000
790271
1002
}
  0
LINE
  5
9E
330
87
100
AcDbEntity
  8
M-PIPE
100
AcDbLine
 10
712.1639074431278
 20
2035.999999999996
 30
0.0
 11
711.7266949246766
 21
2035.562787481545
 31
0.0
1001
REVIT
1002
{
1070
     3
1000
790271
1002
}
  0
LINE
  5
9F
330
87
100
AcDbEntity
  8
M-PIPE
100
AcDbLine
 10
711.7099790549401
 20
2035.546071611809
 30
0.0
 11
711.6639074430968
 21
2035.499999999965
 31
0.0
1001
REVIT
1002
{
1070
     3
1000
790271
1002
}
  0
LINE
  5
A0
330
87
100
AcDbEntity
  8
M-PIPE
100
AcDbLine
 10
714.163907443126
 20
2038.977350269185
 30
0.0
 11
742.1639074431258
 21
2038.977350269185
 31
0.0
1001
REVIT
1002
{
1070
     3
1000
790271
1002
}
  0
LINE
  5
A1
330
87
100
AcDbEntity
  8
M-PIPE
100
AcDbLine
 10
715.1639074431259
 20
2038.399999999995
 30
0.0
 11
741.1639074431259
 21
2038.399999999995
 31
0.0
1001
REVIT
1002
{
1070
     3
1000
790271
1002
}
  0
LINE
  5
A2
330
87
100
AcDbEntity
  8
M-PIPE
100
AcDbLine
 10
712.1639074431262
 20
2035.999999999995
 30
0.0
 11
744.1639074430002
 21
2035.999999999996
 31
0.0
1001
REVIT
1002
{
1070
     3
1000
790271
1002
}
  0
LINE
  5
A3
330
87
100
AcDbEntity
  8
M-PIPE
100
AcDbLine
 10
711.6639074431896
 20
2019.999999999995
 30
0.0
 11
743.0288224274383
 21
2019.999999999996
 31
0.0
1001
REVIT
1002
{
1070
     3
1000
790271
1002
}
  0
LINE
  5
A4
330
87
100
AcDbEntity
  8
M-PIPE
100
AcDbLine
 10
744.6639074430627
 20
2035.499999999996
 30
0.0
 11
711.6639074431893
 21
2035.499999999995
 31
0.0
1001
REVIT
1002
{
1070
     3
1000
790271
1002
}
  0
LINE
  5
A5
330
87
100
AcDbEntity
  8
M-PIPE
100
AcDbLine
 10
742.1639074431282
 20
1957.499999999985
 30
0.0
 11
742.1639074431282
 21
1957.999999999995
 31
0.0
1001
REVIT
1002
{
1070
     3
1000
790271
1002
}
  0
LINE
  5
A6
330
87
100
AcDbEntity
  8
M-PIPE
100
AcDbLine
 10
714.1639074431282
 20
1957.999999999995
 30
0.0
 11
714.1639074431282
 21
1957.499999999985
 31
0.0
1001
REVIT
1002
{
1070
     3
1000
790271
1002
}
  0
LINE
  5
A7
330
87
100
AcDbEntity
  8
M-PIPE
100
AcDbLine
 10
742.1639074431282
 20
1957.999999999995
 30
0.0
 11
742.1639074431282
 21
1961.022649730805
 31
0.0
1001
REVIT
1002
{
1070
     3
1000
790271
1002
}
  0
LINE
  5
A8
330
87
100
AcDbEntity
  8
M-PIPE
100
AcDbLine
 10
714.1639074431282
 20
1961.022649730805
 30
0.0
 11
714.1639074431282
 21
1957.999999999995
 31
0.0
1001
REVIT
1002
{
1070
     3
1000
790271
1002
}
  0
LINE
  5
A9
330
87
100
AcDbEntity
  8
M-PIPE
100
AcDbLine
 10
742.1639074431282
 20
1961.022649730805
 30
0.0
 11
742.1048477375582
 21
1961.056747867715
 31
0.0
1001
REVIT
1002
{
1070
     3
1000
790271
1002
}
  0
LINE
  5
AA
330
87
100
AcDbEntity
  8
M-PIPE
100
AcDbLine
 10
742.096493616539
 20
1961.061571121734
 30
0.0
 11
741.1639074431284
 21
1961.599999999995
 31
0.0
1001
REVIT
1002
{
1070
     3
1000
790271
1002
}
  0
LINE
  5
AB
330
87
100
AcDbEntity
  8
M-PIPE
100
AcDbLine
 10
715.1639074431281
 20
1961.599999999995
 30
0.0
 11
714.2313212697176
 21
1961.061571121734
 31
0.0
1001
REVIT
1002
{
1070
     3
1000
790271
1002
}
  0
LINE
  5
AC
330
87
100
AcDbEntity
  8
M-PIPE
100
AcDbLine
 10
714.2229671486983
 20
1961.056747867715
 30
0.0
 11
714.1639074431282
 21
1961.022649730805
 31
0.0
1001
REVIT
1002
{
1070
     3
1000
790271
1002
}
  0
LINE
  5
AD
330
87
100
AcDbEntity
  8
M-PIPE
100
AcDbLine
 10
741.163907443128
 20
1961.599999999995
 30
0.0
 11
741.163907443128
 21
1963.999999999995
 31
0.0
1001
REVIT
1002
{
1070
     3
1000
790271
1002
}
  0
LINE
  5
AE
330
87
100
AcDbEntity
  8
M-PIPE
100
AcDbLine
 10
715.1639074431283
 20
1963.999999999995
 30
0.0
 11
715.1639074431283
 21
1961.599999999995
 31
0.0
1001
REVIT
1002
{
1070
     3
1000
790271
1002
}
  0
LINE
  5
AF
330
87
100
AcDbEntity
  8
M-PIPE
100
AcDbLine
 10
744.6639074430649
 20
1964.499999999995
 30
0.0
 11
744.6639074430649
 21
1977.641444250566
 31
0.0
1001
REVIT
1002
{
1070
     3
1000
790271
1002
}
  0
LINE
  5
B0
330
87
100
AcDbEntity
  8
M-PIPE
100
AcDbLine
 10
711.6639074431915
 20
1979.999999999995
 30
0.0
 11
711.6639074431915
 21
1964.499999999995
 31
0.0
1001
REVIT
1002
{
1070
     3
1000
790271
1002
}
  0
LWPOLYLINE
  5
B1
330
87
100
AcDbEntity
  8
M-PIPE
100
AcDbPolyline
 90
       18
 70
   128
 43
0.0
 10
719.5384095608812
 20
2002.471234253649
 10
718.6622972631381
 20
2001.328539729076
 10
717.8325813550027
 20
2000.151724090783
 10
717.0505892049312
 20
1998.942669992749
 10
716.3175718335479
 20
1997.703311663614
 10
715.6347019122781
 20
1996.435631812323
 10
715.0030718873247
 20
1995.141658456213
 10
714.423692231987
 20
1993.823461676621
 10
713.8974898301192
 20
1992.483150307195
 10
713.4253064933139
 20
1991.122868560207
 10
713.0078976141826
 20
1989.744792596274
 10
712.6459309578897
 20
1988.351127042967
 10
712.3399855938697
 20
1986.944101467869
 10
712.0905509694404
 20
1985.525966811751
 10
711.8980261267908
 20
1984.098991787545
 10
711.7627190645991
 20
1982.665459250884
 10
711.6848462453015
 20
1981.227662548023
 10
711.663907443006
 20
1979.999999999995
1001
REVIT
1002
{
1070
     3
1000
790271
1002
}
  0
LINE
  5
B2
330
87
100
AcDbEntity
  8
M-PIPE
100
AcDbLine
 10
744.1639074430017
 20
1963.999999999995
 30
0.0
 11
744.6639074429701
 21
1964.499999999963
 31
0.0
1001
REVIT
1002
{
1070
     3
1000
790271
1002
}
  0
LINE
  5
B3
330
87
100
AcDbEntity
  8
M-PIPE
100
AcDbLine
 10
711.66390744316
 20
1964.499999999963
 30
0.0
 11
711.7099790549412
 21
1964.453928388182
 31
0.0
1001
REVIT
1002
{
1070
     3
1000
790271
1002
}
  0
LINE
  5
B4
330
87
100
AcDbEntity
  8
M-PIPE
100
AcDbLine
 10
711.7266949246774
 20
1964.437212518446
 30
0.0
 11
712.1639074431284
 21
1963.999999999995
 31
0.0
1001
REVIT
1002
{
1070
     3
1000
790271
1002
}
  0
LWPOLYLINE
  5
B5
330
87
100
AcDbEntity
  8
M-PIPE
100
AcDbPolyline
 90
       13
 70
   128
 43
0.0
 10
719.5384095608812
 20
2002.471234253649
 10
719.5228700614265
 20
2002.630467135949
 10
719.50097537497
 20
2002.788951234689
 10
719.47276052834
 20
2002.946433009122
 10
719.4382706592715
 20
2003.102660522001
 10
719.397560944198
 20
2003.257383842633
 10
719.3506965099793
 20
2003.41035544671
 10
719.2977523297127
 20
2003.561330612299
 10
719.2388131027926
 20
2003.710067811341
 10
719.1739731194091
 20
2003.856329096046
 10
719.1033361097038
 20
2003.999880479559
 10
719.0270150778237
 20
2004.14049231029
 10
719.0144501592327
 20
2004.162415008147
1001
REVIT
1002
{
1070
     3
1000
790271
1002
}
  0
LINE
  5
B6
330
87
100
AcDbEntity
  8
M-PIPE
100
AcDbLine
 10
712.8026915110231
 20
2014.921496591202
 30
0.0
 11
719.0144501592327
 21
2004.162415008147
 31
0.0
1001
REVIT
1002
{
1070
     3
1000
790271
1002
}
  0
LWPOLYLINE
  5
B7
330
87
100
AcDbEntity
  8
M-PIPE
100
AcDbPolyline
 90
       15
 70
   128
 43
0.0
 10
712.8026915110234
 20
2014.921496591202
 10
712.6386250283213
 20
2015.219266261824
 10
712.4865973921751
 20
2015.523358657876
 10
712.3468518143718
 20
2015.833287296393
 10
712.2196118580251
 20
2016.148556357669
 10
712.105081079922
 20
2016.468661478458
 10
712.0034427048754
 20
2016.793090558854
 10
711.9148593326038
 20
2017.121324581536
 10
711.8394726776061
 20
2017.452838442086
 10
711.7774033424487
 20
2017.787101789047
 10
711.7287506248269
 20
2018.12357987237
 10
711.6935923587105
 20
2018.4617343989
 10
711.6719847898249
 20
2018.801024393529
 10
711.6639624856714
 20
2019.140907064645
 10
711.6639074431909
 20
2019.171496591201
1001
REVIT
1002
{
1070
     3
1000
790271
1002
}
  0
LINE
  5
B8
330
87
100
AcDbEntity
  8
M-PIPE
100
AcDbLine
 10
711.6639074431909
 20
2019.999999999996
 30
0.0
 11
711.6639074431909
 21
2019.171496591201
 31
0.0
1001
REVIT
1002
{
1070
     3
1000
790271
1002
}
  0
LINE
  5
B9
330
87
100
AcDbEntity
  8
M-PIPE
100
AcDbLine
 10
742.1639074431269
 20
1961.022649730805
 30
0.0
 11
714.1639074431269
 21
1961.022649730805
 31
0.0
1001
REVIT
1002
{
1070
     3
1000
790271
1002
}
  0
LINE
  5
BA
330
87
100
AcDbEntity
  8
M-PIPE
100
AcDbLine
 10
741.1639074431267
 20
1961.599999999994
 30
0.0
 11
715.1639074431268
 21
1961.599999999994
 31
0.0
1001
REVIT
1002
{
1070
     3
1000
790271
1002
}
  0
LINE
  5
BB
330
87
100
AcDbEntity
  8
M-PIPE
100
AcDbLine
 10
744.1639074430002
 20
1963.999999999995
 30
0.0
 11
712.163907443127
 21
1963.999999999995
 31
0.0
1001
REVIT
1002
{
1070
     3
1000
790271
1002
}
  0
LINE
  5
BC
330
87
100
AcDbEntity
  8
M-PIPE
100
AcDbLine
 10
711.6639074431901
 20
1964.499999999994
 30
0.0
 11
744.6639074430635
 21
1964.499999999995
 31
0.0
1001
REVIT
1002
{
1070
     3
1000
790271
1002
}
  0
LINE
  5
BD
330
87
100
AcDbEntity
  8
M-PIPE
100
AcDbLine
 10
743.0385851037462
 20
1979.999999999995
 30
0.0
 11
712.0621966123581
 21
1979.999999999994
 31
0.0
1001
REVIT
1002
{
1070
     3
1000
790271
1002
}
  0
LINE
  5
BE
330
87
100
AcDbEntity
  8
M-PIPE
100
AcDbLine
 10
712.052430131646
 20
1979.999999999994
 30
0.0
 11
711.7582053057065
 21
1979.999999999994
 31
0.0
1001
REVIT
1002
{
1070
     3
1000
790271
1002
}
  0
LINE
  5
BF
330
87
100
AcDbEntity
  8
M-PIPE
100
AcDbLine
 10
711.7561236519543
 20
1979.999999999994
 30
0.0
 11
711.66390744319
 21
1979.999999999994
 31
0.0
1001
REVIT
1002
{
1070
     3
1000
790271
1002
}
  0
SPLINE
  5
C0
330
87
100
AcDbEntity
  8
M-PIPE
100
AcDbSpline
210
0.0
220
0.0
230
1.0
 70
     8
 71
     3
 72
    12
 73
     8
 74
     0
 42
0.000000001
 43
0.0000000001
 40
-1.0
 40
-1.0
 40
-1.0
 40
-1.0
 40
-0.8
 40
-0.6
 40
-0.4
 40
-0.2
 40
0.0
 40
0.0
 40
0.0
 40
0.0
 10
724.1240856900788
 20
2004.162415008147
 30
0.0
 10
723.6073252144146
 20
2003.973175628314
 30
0.0
 10
722.6271150112312
 20
2003.608992814698
 30
0.0
 10
721.3473369227292
 20
2003.134105549838
 30
0.0
 10
720.3403665509092
 20
2002.763744824027
 30
0.0
 10
719.6892848971391
 20
2002.525468532039
 30
0.0
 10
719.5383165366171
 20
2002.47243555972
 30
0.0
 10
719.5384095608797
 20
2002.471234253649
 30
0.0
1001
REVIT
1002
{
1070
     3
1000
790271
1002
}
  0
SPLINE
  5
C1
330
87
100
AcDbEntity
  8
M-PIPE
100
AcDbSpline
210
0.0
220
0.0
230
1.0
 70
     8
 71
     3
 72
    12
 73
     8
 74
     0
 42
0.000000001
 43
0.0000000001
 40
-0.345966668010187
 40
-0.345966668010187
 40
-0.345966668010187
 40
-0.345966668010187
 40
-0.2857142857142857
 40
-0.25
 40
-0.2142857142857143
 40
-0.1428571428571428
 40
0.0
 40
0.0
 40
0.0
 40
0.0
 10
731.1613982097604
 20
2007.397364468892
 30
0.0
 10
730.7448748481221
 20
2007.166199885296
 30
0.0
 10
730.0778981837509
 20
2006.807759270961
 30
0.0
 10
729.1553721106395
 20
2006.341961893594
 30
0.0
 10
728.1593602678445
 20
2005.850367900867
 30
0.0
 10
726.4297829241018
 20
2005.051798668147
 30
0.0
 10
725.0018471111859
 20
2004.489645478976
 30
0.0
 10
724.1240856900788
 20
2004.162415008147
 30
0.0
1001
REVIT
1002
{
1070
     3
1000
790271
1002
}
  0
LINE
  5
C2
330
87
100
AcDbEntity
  8
M-PIPE
100
AcDbLine
 10
743.0288224273739
 20
2019.999999999996
 30
0.0
 11
711.6639074431896
 21
2019.999999999995
 31
0.0
1001
REVIT
1002
{
1070
     3
1000
790271
1002
}
  0
LINE
  5
C3
330
87
100
AcDbEntity
  8
P-SANR-FIXT
100
AcDbLine
 10
804.28740320497
 20
2065.397040377082
 30
0.0
 11
803.6664074431898
 21
2064.776044615301
 31
0.0
  0
LINE
  5
C4
330
87
100
AcDbEntity
  8
P-SANR-FIXT
100
AcDbLine
 10
827.6664074431888
 20
2064.776044615301
 30
0.0
 11
827.0454116814084
 21
2065.397040377082
 31
0.0
  0
LINE
  5
C5
330
87
100
AcDbEntity
  8
P-SANR-FIXT
100
AcDbLine
 10
803.6664074431898
 20
2064.776044615301
 30
0.0
 11
803.6664074431898
 21
2063.397040377081
 31
0.0
  0
LINE
  5
C6
330
87
100
AcDbEntity
  8
P-SANR-FIXT
100
AcDbLine
 10
827.6664074431888
 20
2063.397040377081
 30
0.0
 11
827.6664074431888
 21
2064.776044615301
 31
0.0
  0
LINE
  5
C7
330
87
100
AcDbEntity
  8
P-SANR-FIXT
100
AcDbLine
 10
827.0454116814068
 20
2065.397040377081
 30
0.0
 11
804.2874032049686
 21
2065.397040377081
 31
0.0
  0
LINE
  5
C8
330
87
100
AcDbEntity
  8
P-SANR-FIXT
100
AcDbLine
 10
803.6664074431882
 20
2064.7760446153
 30
0.0
 11
827.6664074431874
 21
2064.7760446153
 31
0.0
  0
LINE
  5
C9
330
87
100
AcDbEntity
  8
P-SANR-FIXT
100
AcDbLine
 10
803.6664074431868
 20
2063.397040377081
 30
0.0
 11
804.5021069097161
 21
2063.397040377081
 31
0.0
  0
LINE
  5
CA
330
87
100
AcDbEntity
  8
P-SANR-FIXT
100
AcDbLine
 10
804.5021069097161
 20
2063.397040377081
 30
0.0
 11
814.8307079766579
 21
2063.397040377081
 31
0.0
  0
LINE
  5
CB
330
87
100
AcDbEntity
  8
P-SANR-FIXT
100
AcDbLine
 10
814.8307079766581
 20
2063.397040377081
 30
0.0
 11
816.5021069097166
 21
2063.397040377081
 31
0.0
  0
LINE
  5
CC
330
87
100
AcDbEntity
  8
P-SANR-FIXT
100
AcDbLine
 10
816.5021069097166
 20
2063.397040377081
 30
0.0
 11
826.830707976658
 21
2063.397040377081
 31
0.0
  0
LINE
  5
CD
330
87
100
AcDbEntity
  8
P-SANR-FIXT
100
AcDbLine
 10
826.830707976658
 20
2063.397040377081
 30
0.0
 11
827.6664074431874
 21
2063.397040377081
 31
0.0
  0
LINE
  5
CE
330
87
100
AcDbEntity
  8
P-SANR-FIXT
100
AcDbLine
 10
827.6664074431874
 20
2052.870000000115
 30
0.0
 11
826.830707976658
 21
2052.870000000115
 31
0.0
  0
LINE
  5
CF
330
87
100
AcDbEntity
  8
P-SANR-FIXT
100
AcDbLine
 10
826.830707976658
 20
2052.870000000115
 30
0.0
 11
816.5021069097166
 21
2052.870000000115
 31
0.0
  0
LINE
  5
D0
330
87
100
AcDbEntity
  8
P-SANR-FIXT
100
AcDbLine
 10
816.5021069097168
 20
2052.870000000115
 30
0.0
 11
814.8307079766581
 21
2052.870000000115
 31
0.0
  0
LINE
  5
D1
330
87
100
AcDbEntity
  8
P-SANR-FIXT
100
AcDbLine
 10
814.8307079766579
 20
2052.870000000115
 30
0.0
 11
804.5021069097161
 21
2052.870000000115
 31
0.0
  0
LINE
  5
D2
330
87
100
AcDbEntity
  8
P-SANR-FIXT
100
AcDbLine
 10
804.5021069097161
 20
2052.870000000115
 30
0.0
 11
803.6664074431868
 21
2052.870000000115
 31
0.0
  0
LINE
  5
D3
330
87
100
AcDbEntity
  8
P-SANR-FIXT
100
AcDbLine
 10
803.6664074431868
 20
2052.870000000115
 30
0.0
 11
803.6664074431868
 21
2063.397040377081
 31
0.0
  0
LINE
  5
D4
330
87
100
AcDbEntity
  8
P-SANR-FIXT
100
AcDbLine
 10
804.5021069097161
 20
2052.870000000115
 30
0.0
 11
804.5021069097161
 21
2063.397040377081
 31
0.0
  0
LINE
  5
D5
330
87
100
AcDbEntity
  8
P-SANR-FIXT
100
AcDbLine
 10
814.8307079766581
 20
2052.870000000115
 30
0.0
 11
814.8307079766581
 21
2063.397040377081
 31
0.0
  0
LINE
  5
D6
330
87
100
AcDbEntity
  8
P-SANR-FIXT
100
AcDbLine
 10
816.5021069097166
 20
2052.870000000115
 30
0.0
 11
816.5021069097166
 21
2063.397040377081
 31
0.0
  0
LINE
  5
D7
330
87
100
AcDbEntity
  8
P-SANR-FIXT
100
AcDbLine
 10
826.830707976658
 20
2052.870000000115
 30
0.0
 11
826.830707976658
 21
2063.397040377081
 31
0.0
  0
LINE
  5
D8
330
87
100
AcDbEntity
  8
P-SANR-FIXT
100
AcDbLine
 10
827.6664074431874
 20
2052.870000000115
 30
0.0
 11
827.6664074431874
 21
2063.397040377081
 31
0.0
  0
LINE
  5
D9
330
87
100
AcDbEntity
  8
P-SANR-FIXT
100
AcDbLine
 10
745.6821913317276
 20
1948.376581611703
 30
0.0
 11
745.6821913317276
 21
1956.623418388204
 31
0.0
  0
LINE
  5
DA
330
87
100
AcDbEntity
  8
P-SANR-FIXT
100
AcDbLine
 10
710.2787794873851
 20
1956.411620867214
 30
0.0
 11
710.2787794873851
 21
1948.588379132693
 31
0.0
  0
LINE
  5
DB
330
87
100
AcDbEntity
  8
P-SANR-FIXT
100
AcDbLine
 10
710.2787794873851
 20
1948.588379132693
 30
0.0
 11
712.1639074431948
 21
1947.499999999949
 31
0.0
  0
LINE
  5
DC
330
87
100
AcDbEntity
  8
P-SANR-FIXT
100
AcDbLine
 10
744.1639074431897
 20
1947.49999999995
 30
0.0
 11
745.6821913317276
 21
1948.376581611703
 31
0.0
  0
LINE
  5
DD
330
87
100
AcDbEntity
  8
P-SANR-FIXT
100
AcDbLine
 10
712.1639074432417
 20
1957.499999999985
 30
0.0
 11
710.2787794873851
 21
1956.411620867214
 31
0.0
  0
LINE
  5
DE
330
87
100
AcDbEntity
  8
P-SANR-FIXT
100
AcDbLine
 10
745.6821913317276
 20
1956.623418388204
 30
0.0
 11
744.1639074431423
 21
1957.499999999985
 31
0.0
  0
LINE
  5
DF
330
87
100
AcDbEntity
  8
P-SANR-FIXT
100
AcDbLine
 10
744.1639074431883
 20
1947.499999999949
 30
0.0
 11
744.0907830973955
 21
1947.499999999949
 31
0.0
  0
LINE
  5
E0
330
87
100
AcDbEntity
  8
P-SANR-FIXT
100
AcDbLine
 10
744.0881403560654
 20
1947.499999999949
 30
0.0
 11
743.8720784562605
 21
1947.499999999949
 31
0.0
  0
LINE
  5
E1
330
87
100
AcDbEntity
  8
P-SANR-FIXT
100
AcDbLine
 10
743.8594121334468
 20
1947.499999999949
 30
0.0
 11
743.5097925990088
 21
1947.499999999949
 31
0.0
  0
LINE
  5
E2
330
87
100
AcDbEntity
  8
P-SANR-FIXT
100
AcDbLine
 10
743.4794320752883
 20
1947.499999999949
 30
0.0
 11
743.0072370151783
 21
1947.499999999949
 31
0.0
  0
LINE
  5
E3
330
87
100
AcDbEntity
  8
P-SANR-FIXT
100
AcDbLine
 10
743.0072370151775
 20
1947.499999999948
 30
0.0
 11
742.9459799633683
 21
1947.499999999948
 31
0.0
  0
LINE
  5
E4
330
87
100
AcDbEntity
  8
P-SANR-FIXT
100
AcDbLine
 10
740.5392731085481
 20
1947.499999999949
 30
0.0
 11
739.4854580101375
 21
1947.499999999949
 31
0.0
  0
LINE
  5
E5
330
87
100
AcDbEntity
  8
P-SANR-FIXT
100
AcDbLine
 10
739.1301702479566
 20
1947.499999999949
 30
0.0
 11
738.3169513775102
 21
1947.499999999949
 31
0.0
  0
LINE
  5
E6
330
87
100
AcDbEntity
  8
P-SANR-FIXT
100
AcDbLine
 10
738.2199545161681
 20
1947.499999999949
 30
0.0
 11
737.2524226179467
 21
1947.499999999949
 31
0.0
  0
LINE
  5
E7
330
87
100
AcDbEntity
  8
P-SANR-FIXT
100
AcDbLine
 10
737.0569283796048
 20
1947.499999999949
 30
0.0
 11
734.289769047292
 21
1947.499999999949
 31
0.0
  0
LINE
  5
E8
330
87
100
AcDbEntity
  8
P-SANR-FIXT
100
AcDbLine
 10
734.0625192108815
 20
1947.499999999949
 30
0.0
 11
731.7576602770418
 21
1947.499999999949
 31
0.0
  0
LINE
  5
E9
330
87
100
AcDbEntity
  8
P-SANR-FIXT
100
AcDbLine
 10
731.2874312320284
 20
1947.499999999949
 30
0.0
 11
729.7332185331967
 21
1947.499999999949
 31
0.0
  0
LINE
  5
EA
330
87
100
AcDbEntity
  8
P-SANR-FIXT
100
AcDbLine
 10
729.3709852461752
 20
1947.499999999949
 30
0.0
 11
728.163907443191
 21
1947.499999999949
 31
0.0
  0
LINE
  5
EB
330
87
100
AcDbEntity
  8
P-SANR-FIXT
100
AcDbLine
 10
728.163907443191
 20
1947.499999999949
 30
0.0
 11
726.7694155592287
 21
1947.499999999948
 31
0.0
  0
LINE
  5
EC
330
87
100
AcDbEntity
  8
P-SANR-FIXT
100
AcDbLine
 10
726.5948324461182
 20
1947.499999999948
 30
0.0
 11
725.3855366005206
 21
1947.499999999948
 31
0.0
  0
LINE
  5
ED
330
87
100
AcDbEntity
  8
P-SANR-FIXT
100
AcDbLine
 10
725.040059731657
 20
1947.499999999948
 30
0.0
 11
724.0228027215513
 21
1947.499999999948
 31
0.0
  0
LINE
  5
EE
330
87
100
AcDbEntity
  8
P-SANR-FIXT
100
AcDbLine
 10
723.5150935681028
 20
1947.499999999948
 30
0.0
 11
722.6915851499812
 21
1947.499999999948
 31
0.0
  0
LINE
  5
EF
330
87
100
AcDbEntity
  8
P-SANR-FIXT
100
AcDbLine
 10
722.035143474729
 20
1947.499999999948
 30
0.0
 11
720.6149582556244
 21
1947.499999999948
 31
0.0
  0
LINE
  5
F0
330
87
100
AcDbEntity
  8
P-SANR-FIXT
100
AcDbLine
 10
720.1639074431923
 20
1947.499999999948
 30
0.0
 11
719.268663954232
 21
1947.499999999948
 31
0.0
  0
LINE
  5
F1
330
87
100
AcDbEntity
  8
P-SANR-FIXT
100
AcDbLine
 10
718.9866844615757
 20
1947.499999999948
 30
0.0
 11
718.0096064872342
 21
1947.499999999948
 31
0.0
  0
LINE
  5
F2
330
87
100
AcDbEntity
  8
P-SANR-FIXT
100
AcDbLine
 10
717.879305688208
 20
1947.499999999948
 30
0.0
 11
715.9071963532892
 21
1947.499999999948
 31
0.0
  0
LINE
  5
F3
330
87
100
AcDbEntity
  8
P-SANR-FIXT
100
AcDbLine
 10
715.7902786159652
 20
1947.499999999948
 30
0.0
 11
715.0574747345691
 21
1947.499999999948
 31
0.0
  0
LINE
  5
F4
330
87
100
AcDbEntity
  8
P-SANR-FIXT
100
AcDbLine
 10
714.8504851068768
 20
1947.499999999948
 30
0.0
 11
714.3075009826421
 21
1947.499999999948
 31
0.0
  0
LINE
  5
F5
330
87
100
AcDbEntity
  8
P-SANR-FIXT
100
AcDbLine
 10
714.0402802198691
 20
1947.499999999948
 30
0.0
 11
713.6629828506068
 21
1947.499999999948
 31
0.0
  0
LINE
  5
F6
330
87
100
AcDbEntity
  8
P-SANR-FIXT
100
AcDbLine
 10
713.367800260951
 20
1947.499999999948
 30
0.0
 11
712.8397604218682
 21
1947.499999999948
 31
0.0
  0
LINE
  5
F7
330
87
100
AcDbEntity
  8
P-SANR-FIXT
100
AcDbLine
 10
712.8356197655469
 20
1947.499999999948
 30
0.0
 11
712.558400059515
 21
1947.499999999948
 31
0.0
  0
LINE
  5
F8
330
87
100
AcDbEntity
  8
P-SANR-FIXT
100
AcDbLine
 10
712.4407396155279
 20
1947.499999999948
 30
0.0
 11
712.2860118810059
 21
1947.499999999948
 31
0.0
  0
LINE
  5
F9
330
87
100
AcDbEntity
  8
P-SANR-FIXT
100
AcDbLine
 10
712.236063191517
 20
1947.499999999948
 30
0.0
 11
712.1639074431934
 21
1947.499999999948
 31
0.0
  0
LINE
  5
FA
330
87
100
AcDbEntity
  8
P-SANR-FIXT
100
AcDbLine
 10
740.7582577420148
 20
1957.499999999984
 30
0.0
 11
743.0072370150143
 21
1957.499999999984
 31
0.0
  0
LINE
  5
FB
330
87
100
AcDbEntity
  8
P-SANR-FIXT
100
AcDbLine
 10
743.0072370150135
 20
1957.499999999984
 30
0.0
 11
744.1639074431409
 21
1957.499999999985
 31
0.0
  0
LINE
  5
FC
330
87
100
AcDbEntity
  8
P-SANR-FIXT
100
AcDbLine
 10
712.1639074432404
 20
1957.499999999984
 30
0.0
 11
728.1639074431908
 21
1957.499999999984
 31
0.0
  0
LINE
  5
FD
330
87
100
AcDbEntity
  8
P-SANR-FIXT
100
AcDbLine
 10
728.1639074431907
 20
1957.499999999984
 30
0.0
 11
740.7582577420141
 21
1957.499999999984
 31
0.0
  0
SPLINE
  5
FE
330
87
100
AcDbEntity
  8
P-SANR-FIXT
100
AcDbSpline
210
0.0
220
0.0
230
1.0
 70
     8
 71
     3
 72
     9
 73
     5
 74
     0
 42
0.000000001
 43
0.0000000001
 40
0.0
 40
0.0
 40
0.0
 40
0.0
 40
0.5
 40
1.0
 40
1.0
 40
1.0
 40
1.0
 10
721.6296324484691
 20
1948.240651213574
 30
0.0
 10
722.7056212176171
 20
1947.998917526956
 30
0.0
 10
724.8706558192188
 20
1947.633741971401
 30
0.0
 10
727.0618045474317
 20
1947.505150051206
 30
0.0
 10
728.163907443191
 20
1947.499999999948
 30
0.0
  0
SPLINE
  5
FF
330
87
100
AcDbEntity
  8
P-SANR-FIXT
100
AcDbSpline
210
0.0
220
0.0
230
1.0
 70
     8
 71
     3
 72
     9
 73
     5
 74
     0
 42
0.000000001
 43
0.0000000001
 40
0.0
 40
0.0
 40
0.0
 40
0.0
 40
0.5
 40
1.0
 40
1.0
 40
1.0
 40
1.0
 10
728.163907443191
 20
1947.499999999948
 30
0.0
 10
729.2029583147421
 20
1947.504137725801
 30
0.0
 10
731.2699143408682
 20
1947.618694947621
 30
0.0
 10
733.3145789330416
 20
1947.945815709673
 30
0.0
 10
734.3313383706402
 20
1948.162516975757
 30
0.0
  0
SPLINE
  5
100
330
87
100
AcDbEntity
  8
P-SANR-FIXT
100
AcDbSpline
210
0.0
220
0.0
230
1.0
 70
     8
 71
     3
 72
     9
 73
     5
 74
     0
 42
0.000000001
 43
0.0000000001
 40
0.0
 40
0.0
 40
0.0
 40
0.0
 40
0.5
 40
1.0
 40
1.0
 40
1.0
 40
1.0
 10
734.3313383706402
 20
1956.837483024149
 30
0.0
 10
733.3145789330411
 20
1957.054184290228
 30
0.0
 10
731.269914340867
 20
1957.38130505228
 30
0.0
 10
729.2029583147416
 20
1957.495862274118
 30
0.0
 10
728.163907443191
 20
1957.499999999984
 30
0.0
  0
SPLINE
  5
101
330
87
100
AcDbEntity
  8
P-SANR-FIXT
100
AcDbSpline
210
0.0
220
0.0
230
1.0
 70
     8
 71
     3
 72
     9
 73
     5
 74
     0
 42
0.000000001
 43
0.0000000001
 40
0.0
 40
0.0
 40
0.0
 40
0.0
 40
0.5
 40
1.0
 40
1.0
 40
1.0
 40
1.0
 10
728.163907443191
 20
1957.499999999984
 30
0.0
 10
727.0618045474322
 20
1957.494849948713
 30
0.0
 10
724.8706558192199
 20
1957.366258028501
 30
0.0
 10
722.7056212176176
 20
1957.001082472945
 30
0.0
 10
721.6296324484691
 20
1956.759348786331
 30
0.0
  0
SPLINE
  5
102
330
87
100
AcDbEntity
  8
P-SANR-FIXT
100
AcDbSpline
210
0.0
220
0.0
230
1.0
 70
     8
 71
     3
 72
    10
 73
     6
 74
     0
 42
0.000000001
 43
0.0000000001
 40
0.0
 40
0.0
 40
0.0
 40
0.0
 40
0.4
 40
0.7
 40
1.0
 40
1.0
 40
1.0
 40
1.0
 10
734.3313383706402
 20
1948.162516975757
 30
0.0
 10
735.0212429233797
 20
1948.306995838109
 30
0.0
 10
736.2457045605298
 20
1948.460722961393
 30
0.0
 10
737.7433665354057
 20
1948.411603925667
 30
0.0
 10
738.4038470372508
 20
1948.248840864719
 30
0.0
 10
738.6614653895625
 20
1948.13573897736
 30
0.0
  0
SPLINE
  5
103
330
87
100
AcDbEntity
  8
P-SANR-FIXT
100
AcDbSpline
210
0.0
220
0.0
230
1.0
 70
     8
 71
     3
 72
    10
 73
     6
 74
     0
 42
0.000000001
 43
0.0000000001
 40
0.0
 40
0.0
 40
0.0
 40
0.0
 40
0.4
 40
0.7
 40
1.0
 40
1.0
 40
1.0
 40
1.0
 10
738.6614653895625
 20
1956.864261022545
 30
0.0
 10
738.3179742531468
 20
1956.713458506067
 30
0.0
 10
737.4868149742792
 20
1956.547048422979
 30
0.0
 10
735.8935824096871
 20
1956.576801287165
 30
0.0
 10
734.8487667851949
 20
1956.729123877385
 30
0.0
 10
734.3313383706402
 20
1956.837483024149
 30
0.0
  0
SPLINE
  5
104
330
87
100
AcDbEntity
  8
P-SANR-FIXT
100
AcDbSpline
210
0.0
220
0.0
230
1.0
 70
     8
 71
     3
 72
    10
 73
     6
 74
     0
 42
0.000000001
 43
0.0000000001
 40
0.0
 40
0.0
 40
0.0
 40
0.0
 40
0.4
 40
0.7
 40
1.0
 40
1.0
 40
1.0
 40
1.0
 10
717.299505429547
 20
1948.267148415398
 30
0.0
 10
717.6444262570157
 20
1948.412239161533
 30
0.0
 10
718.477665400501
 20
1948.566692698717
 30
0.0
 10
720.0718264568488
 20
1948.517495137334
 30
0.0
 10
721.1144339600208
 20
1948.35415623859
 30
0.0
 10
721.6296324484691
 20
1948.240651213574
 30
0.0
  0
SPLINE
  5
105
330
87
100
AcDbEntity
  8
P-SANR-FIXT
100
AcDbSpline
210
0.0
220
0.0
230
1.0
 70
     8
 71
     3
 72
    10
 73
     6
 74
     0
 42
0.000000001
 43
0.0000000001
 40
0.0
 40
0.0
 40
0.0
 40
0.0
 40
0.4
 40
0.7
 40
1.0
 40
1.0
 40
1.0
 40
1.0
 10
721.6296324484691
 20
1956.759348786331
 30
0.0
 10
720.9427011305381
 20
1956.608008752976
 30
0.0
 10
719.719583856404
 20
1956.44100371163
 30
0.0
 10
718.220839383831
 20
1956.471022715456
 30
0.0
 10
717.5581960501487
 20
1956.624033524906
 30
0.0
 10
717.299505429547
 20
1956.732851584507
 30
0.0
  0
SPLINE
  5
106
330
87
100
AcDbEntity
  8
P-SANR-FIXT
100
AcDbSpline
210
0.0
220
0.0
230
1.0
 70
     8
 71
     3
 72
     9
 73
     5
 74
     0
 42
0.000000001
 43
0.0000000001
 40
0.0
 40
0.0
 40
0.0
 40
0.0
 40
0.5
 40
1.0
 40
1.0
 40
1.0
 40
1.0
 10
743.0072370151775
 20
1947.499999999948
 30
0.0
 10
743.3445620332407
 20
1947.556442495001
 30
0.0
 10
744.0160672738825
 20
1947.712273770369
 30
0.0
 10
744.6812829235546
 20
1947.953997616264
 30
0.0
 10
745.0123183506483
 20
1948.096332681843
 30
0.0
  0
SPLINE
  5
107
330
87
100
AcDbEntity
  8
P-SANR-FIXT
100
AcDbSpline
210
0.0
220
0.0
230
1.0
 70
     8
 71
     3
 72
     9
 73
     5
 74
     0
 42
0.000000001
 43
0.0000000001
 40
0.0
 40
0.0
 40
0.0
 40
0.0
 40
0.5
 40
1.0
 40
1.0
 40
1.0
 40
1.0
 10
745.0123183506483
 20
1956.903667318063
 30
0.0
 10
744.6812829235279
 20
1957.046002383654
 30
0.0
 10
744.0160672738016
 20
1957.287726229565
 30
0.0
 10
743.3445620331051
 20
1957.443557504934
 30
0.0
 10
743.0072370150143
 20
1957.499999999984
 30
0.0
  0
SPLINE
  5
108
330
87
100
AcDbEntity
  8
P-SANR-FIXT
100
AcDbSpline
210
0.0
220
0.0
230
1.0
 70
     8
 71
     3
 72
     9
 73
     5
 74
     0
 42
0.000000001
 43
0.0000000001
 40
0.0
 40
0.0
 40
0.0
 40
0.0
 40
0.5
 40
1.0
 40
1.0
 40
1.0
 40
1.0
 10
740.7582577420148
 20
1957.499999999984
 30
0.0
 10
740.4053087613155
 20
1957.440755545657
 30
0.0
 10
739.7028943885405
 20
1957.275554595089
 30
0.0
 10
739.0074471930138
 20
1957.016929560698
 30
0.0
 10
738.6614653895625
 20
1956.864261022545
 30
0.0
  0
SPLINE
  5
109
330
87
100
AcDbEntity
  8
P-SANR-FIXT
100
AcDbSpline
210
0.0
220
0.0
230
1.0
 70
     8
 71
     3
 72
     9
 73
     5
 74
     0
 42
0.000000001
 43
0.0000000001
 40
0.0
 40
0.0
 40
0.0
 40
0.0
 40
0.5
 40
1.0
 40
1.0
 40
1.0
 40
1.0
 10
738.6614653895625
 20
1948.13573897736
 30
0.0
 10
739.0074471929872
 20
1947.983070439221
 30
0.0
 10
739.7028943884598
 20
1947.724445404845
 30
0.0
 10
740.4053087611798
 20
1947.559244454279
 30
0.0
 10
740.7582577418516
 20
1947.499999999948
 30
0.0
  0
SPLINE
  5
10A
330
87
100
AcDbEntity
  8
P-SANR-FIXT
100
AcDbSpline
210
0.0
220
0.0
230
1.0
 70
     8
 71
     3
 72
     9
 73
     5
 74
     0
 42
0.000000001
 43
0.0000000001
 40
0.0
 40
0.0
 40
0.0
 40
0.0
 40
0.5
 40
1.0
 40
1.0
 40
1.0
 40
1.0
 10
745.0123183506483
 20
1948.096332681843
 30
0.0
 10
745.2278027070966
 20
1948.188855280775
 30
0.0
 10
745.5644667985824
 20
1948.328086034683
 30
0.0
 10
745.6821913317261
 20
1948.375687900681
 30
0.0
 10
745.6821913317261
 20
1948.376581611703
 30
0.0
  0
SPLINE
  5
10B
330
87
100
AcDbEntity
  8
P-SANR-FIXT
100
AcDbSpline
210
0.0
220
0.0
230
1.0
 70
     8
 71
     3
 72
     9
 73
     5
 74
     0
 42
0.000000001
 43
0.0000000001
 40
0.0
 40
0.0
 40
0.0
 40
0.0
 40
0.5
 40
1.0
 40
1.0
 40
1.0
 40
1.0
 10
745.6821913317261
 20
1956.623418388204
 30
0.0
 10
745.6821913317261
 20
1956.624312099225
 30
0.0
 10
745.5644667985824
 20
1956.671913965223
 30
0.0
 10
745.2278027070966
 20
1956.811144719131
 30
0.0
 10
745.0123183506483
 20
1956.903667318063
 30
0.0
  0
SPLINE
  5
10C
330
87
100
AcDbEntity
  8
P-SANR-FIXT
100
AcDbSpline
210
0.0
220
0.0
230
1.0
 70
     8
 71
     3
 72
     9
 73
     5
 74
     0
 42
0.000000001
 43
0.0000000001
 40
0.0
 40
0.0
 40
0.0
 40
0.0
 40
0.5
 40
1.0
 40
1.0
 40
1.0
 40
1.0
 10
710.2787794873836
 20
1948.588379132692
 30
0.0
 10
710.2787794873836
 20
1948.587463143928
 30
0.0
 10
710.3965464413339
 20
1948.539464720781
 30
0.0
 10
710.7332080447252
 20
1948.3991334064
 30
0.0
 10
710.9486524684615
 20
1948.3058845264
 30
0.0
  0
SPLINE
  5
10D
330
87
100
AcDbEntity
  8
P-SANR-FIXT
100
AcDbSpline
210
0.0
220
0.0
230
1.0
 70
     8
 71
     3
 72
     9
 73
     5
 74
     0
 42
0.000000001
 43
0.0000000001
 40
0.0
 40
0.0
 40
0.0
 40
0.0
 40
0.5
 40
1.0
 40
1.0
 40
1.0
 40
1.0
 10
710.9486524684615
 20
1956.694115473505
 30
0.0
 10
710.7332080447252
 20
1956.600866593505
 30
0.0
 10
710.3965464413338
 20
1956.460535279124
 30
0.0
 10
710.2787794873836
 20
1956.412536855977
 30
0.0
 10
710.2787794873836
 20
1956.411620867213
 30
0.0
  0
SPLINE
  5
10E
330
87
100
AcDbEntity
  8
P-SANR-FIXT
100
AcDbSpline
210
0.0
220
0.0
230
1.0
 70
     8
 71
     3
 72
     9
 73
     5
 74
     0
 42
0.000000001
 43
0.0000000001
 40
0.0
 40
0.0
 40
0.0
 40
0.0
 40
0.5
 40
1.0
 40
1.0
 40
1.0
 40
1.0
 10
717.299505429547
 20
1956.732851584507
 30
0.0
 10
716.2232563801569
 20
1957.189348692274
 30
0.0
 10
714.0885318372528
 20
1957.639389781542
 30
0.0
 10
711.9893544061
 20
1957.163524618273
 30
0.0
 10
710.9486524684615
 20
1956.694115473505
 30
0.0
  0
SPLINE
  5
10F
330
87
100
AcDbEntity
  8
P-SANR-FIXT
100
AcDbSpline
210
0.0
220
0.0
230
1.0
 70
     8
 71
     3
 72
     9
 73
     5
 74
     0
 42
0.000000001
 43
0.0000000001
 40
0.0
 40
0.0
 40
0.0
 40
0.0
 40
0.5
 40
1.0
 40
1.0
 40
1.0
 40
1.0
 10
710.9486524684615
 20
1948.3058845264
 30
0.0
 10
711.9893544061
 20
1947.836475381632
 30
0.0
 10
714.0885318372528
 20
1947.360610218363
 30
0.0
 10
716.2232563801569
 20
1947.810651307631
 30
0.0
 10
717.299505429547
 20
1948.267148415398
 30
0.0
  0
LINE
  5
110
330
87
100
AcDbEntity
  8
P-SANR-FIXT
100
AcDbLine
 10
712.6639074431919
 20
1945.040341184416
 30
0.0
 11
717.1639074431904
 21
1942.442264973063
 31
0.0
  0
LINE
  5
111
330
87
100
AcDbEntity
  8
P-SANR-FIXT
100
AcDbLine
 10
739.1639074431903
 20
1942.442264973063
 30
0.0
 11
743.6639074431891
 21
1945.040341184416
 31
0.0
  0
LWPOLYLINE
  5
112
330
87
100
AcDbEntity
  8
P-SANR-FIXT
100
AcDbPolyline
 90
       28
 70
   128
 43
0.0
 10
744.163907443189
 20
1945.9063665882
 10
744.16310754985
 20
1945.866377254014
 10
744.1607091494916
 20
1945.826451894231
 10
744.1567160790429
 20
1945.786654380912
 10
744.1511347265646
 20
1945.747048381586
 10
744.1439740210303
 20
1945.707697257405
 10
744.135245418041
 20
1945.668663961773
 10
744.1249628814997
 20
1945.630010939636
 10
744.1131428612716
 20
1945.591800027584
 10
744.0998042668669
 20
1945.554092354925
 10
744.0849684371919
 20
1945.516948245892
 10
744.0686591064091
 20
1945.480427123134
 10
744.0509023659683
 20
1945.444587412659
 10
744.0317266228667
 20
1945.409486450357
 10
744.0111625542023
 20
1945.37518039028
 10
743.9892430580989
 20
1945.341724114805
 10
743.9660032010735
 20
1945.309171146838
 10
743.94148016194
 20
1945.277573564182
 10
743.9157131723298
 20
1945.246981916229
 10
743.8887434539299
 20
1945.21744514309
 10
743.8606141525363
 20
1945.189010497301
 10
743.8313702690303
 20
1945.161723468229
 10
743.8010585873877
 20
1945.135627709301
 10
743.7697275998325
 20
1945.110764968164
 10
743.7374274292616
 20
1945.087175019899
 10
743.7042097490573
 20
1945.064895603392
 10
743.6701277004218
 20
1945.043962360957
 10
743.6639074431891
 20
1945.040341184416
  0
LWPOLYLINE
  5
113
330
87
100
AcDbEntity
  8
P-SANR-FIXT
100
AcDbPolyline
 90
       28
 70
   128
 43
0.0
 10
712.6639074431919
 20
1945.040341184416
 10
712.6296756105753
 20
1945.061028579461
 10
712.5962984349276
 20
1945.083068334991
 10
712.5638293126095
 20
1945.106425192099
 10
712.5323201872906
 20
1945.131061784795
 10
712.5018214668498
 20
1945.156938699787
 10
712.4723819427336
 20
1945.184014539531
 10
712.4440487119004
 20
1945.21224598846
 10
712.416867101476
 20
1945.241587882277
 10
712.3908805962379
 20
1945.271993280212
 10
712.3661307690515
 20
1945.303413540113
 10
712.3426572143604
 20
1945.335798396268
 10
712.3204974848444
 20
1945.369096039816
 10
712.2996870313444
 20
1945.40325320163
 10
712.2802591461459
 20
1945.438215237537
 10
712.262244909721
 20
1945.473926215738
 10
712.2456731410055
 20
1945.510329006286
 10
712.230570351294
 20
1945.547365372482
 10
712.2169607018279
 20
1945.58497606404
 10
712.2048659651437
 20
1945.623100911876
 10
712.1943054902398
 20
1945.661678924369
 10
712.1852961716231
 20
1945.700648384925
 10
712.1778524222818
 20
1945.739946950723
 10
712.1719861506265
 20
1945.77951175244
 10
712.167706741441
 20
1945.819279494834
 10
712.1650210408668
 20
1945.859186557999
 10
712.1639333454517
 20
1945.899169099148
 10
712.1639074431918
 20
1945.9063665882
  0
LINE
  5
114
330
87
100
AcDbEntity
  8
P-SANR-FIXT
100
AcDbLine
 10
712.1639074431918
 20
1947.49999999995
 30
0.0
 11
712.1639074431918
 21
1945.9063665882
 31
0.0
  0
LINE
  5
115
330
87
100
AcDbEntity
  8
P-SANR-FIXT
100
AcDbLine
 10
744.163907443189
 20
1945.9063665882
 30
0.0
 11
744.163907443189
 21
1947.49999999995
 31
0.0
  0
LINE
  5
116
330
87
100
AcDbEntity
  8
P-SANR-FIXT
100
AcDbLine
 10
712.2409518164353
 20
1947.499999999948
 30
0.0
 11
712.2860318028646
 21
1947.499999999948
 31
0.0
  0
LINE
  5
117
330
87
100
AcDbEntity
  8
P-SANR-FIXT
100
AcDbLine
 10
712.4406774425977
 20
1947.499999999948
 30
0.0
 11
712.5584605738236
 21
1947.499999999948
 31
0.0
  0
LINE
  5
118
330
87
100
AcDbEntity
  8
P-SANR-FIXT
100
AcDbLine
 10
712.7646692090788
 20
1947.499999999948
 30
0.0
 11
712.852862071475
 21
1947.499999999948
 31
0.0
  0
LINE
  5
119
330
87
100
AcDbEntity
  8
P-SANR-FIXT
100
AcDbLine
 10
713.3818349230097
 20
1947.499999999948
 30
0.0
 11
713.3944639574234
 21
1947.499999999948
 31
0.0
  0
LINE
  5
11A
330
87
100
AcDbEntity
  8
P-SANR-FIXT
100
AcDbLine
 10
713.6459988964641
 20
1947.499999999948
 30
0.0
 11
714.0531672136164
 21
1947.499999999948
 31
0.0
  0
LINE
  5
11B
330
87
100
AcDbEntity
  8
P-SANR-FIXT
100
AcDbLine
 10
714.2931801836509
 20
1947.499999999948
 30
0.0
 11
714.478627102335
 21
1947.499999999948
 31
0.0
  0
LINE
  5
11C
330
87
100
AcDbEntity
  8
P-SANR-FIXT
100
AcDbLine
 10
715.0471053601933
 20
1947.499999999948
 30
0.0
 11
715.7957401893862
 21
1947.499999999948
 31
0.0
  0
LINE
  5
11D
330
87
100
AcDbEntity
  8
P-SANR-FIXT
100
AcDbLine
 10
715.9017344257853
 20
1947.499999999948
 30
0.0
 11
718.978687820722
 21
1947.499999999948
 31
0.0
  0
LINE
  5
11E
330
87
100
AcDbEntity
  8
P-SANR-FIXT
100
AcDbLine
 10
719.274783714876
 20
1947.499999999948
 30
0.0
 11
720.1550942101142
 21
1947.499999999948
 31
0.0
  0
LINE
  5
11F
330
87
100
AcDbEntity
  8
P-SANR-FIXT
100
AcDbLine
 10
721.3938851562317
 20
1947.499999999948
 30
0.0
 11
723.519352607118
 21
1947.499999999948
 31
0.0
  0
LINE
  5
120
330
87
100
AcDbEntity
  8
P-SANR-FIXT
100
AcDbLine
 10
724.0185660627211
 20
1947.499999999948
 30
0.0
 11
725.0424622909312
 21
1947.499999999948
 31
0.0
  0
LINE
  5
121
330
87
100
AcDbEntity
  8
P-SANR-FIXT
100
AcDbLine
 10
725.3834701771831
 20
1947.499999999948
 30
0.0
 11
726.5956331979161
 21
1947.499999999948
 31
0.0
  0
LINE
  5
122
330
87
100
AcDbEntity
  8
P-SANR-FIXT
100
AcDbLine
 10
726.7689462634764
 20
1947.499999999948
 30
0.0
 11
729.3717762268569
 21
1947.499999999948
 31
0.0
  0
LINE
  5
123
330
87
100
AcDbEntity
  8
P-SANR-FIXT
100
AcDbLine
 10
729.7321816884617
 20
1947.499999999948
 30
0.0
 11
730.5740176345596
 21
1947.499999999948
 31
0.0
  0
LINE
  5
124
330
87
100
AcDbEntity
  8
P-SANR-FIXT
100
AcDbLine
 10
731.7615680784315
 20
1947.499999999948
 30
0.0
 11
732.8084622792598
 21
1947.499999999948
 31
0.0
  0
LINE
  5
125
330
87
100
AcDbEntity
  8
P-SANR-FIXT
100
AcDbLine
 10
732.9254478763345
 20
1947.499999999948
 30
0.0
 11
734.0659681572986
 21
1947.499999999948
 31
0.0
  0
LINE
  5
126
330
87
100
AcDbEntity
  8
P-SANR-FIXT
100
AcDbLine
 10
734.2868423610299
 20
1947.499999999948
 30
0.0
 11
735.1755892753629
 21
1947.499999999948
 31
0.0
  0
LINE
  5
127
330
87
100
AcDbEntity
  8
P-SANR-FIXT
100
AcDbLine
 10
736.2424718355114
 20
1947.499999999948
 30
0.0
 11
737.0530311715018
 21
1947.499999999948
 31
0.0
  0
LINE
  5
128
330
87
100
AcDbEntity
  8
P-SANR-FIXT
100
AcDbLine
 10
737.2584423878573
 20
1947.499999999948
 30
0.0
 11
738.2231889480786
 21
1947.499999999948
 31
0.0
  0
LINE
  5
129
330
87
100
AcDbEntity
  8
P-SANR-FIXT
100
AcDbLine
 10
738.3141999898064
 20
1947.499999999948
 30
0.0
 11
739.1410924477765
 21
1947.499999999948
 31
0.0
  0
LINE
  5
12A
330
87
100
AcDbEntity
  8
P-SANR-FIXT
100
AcDbLine
 10
739.9921138518292
 20
1947.499999999948
 30
0.0
 11
740.7695384975378
 21
1947.499999999948
 31
0.0
  0
LINE
  5
12B
330
87
100
AcDbEntity
  8
P-SANR-FIXT
100
AcDbLine
 10
740.8310946306751
 20
1947.499999999948
 30
0.0
 11
742.9459799633683
 21
1947.499999999948
 31
0.0
  0
LINE
  5
12C
330
87
100
AcDbEntity
  8
P-SANR-FIXT
100
AcDbLine
 10
743.0146348512931
 20
1947.499999999948
 30
0.0
 11
743.4749528149031
 21
1947.499999999948
 31
0.0
  0
LINE
  5
12D
330
87
100
AcDbEntity
  8
P-SANR-FIXT
100
AcDbLine
 10
743.5159762260987
 20
1947.499999999948
 30
0.0
 11
743.8564719296392
 21
1947.499999999948
 31
0.0
  0
LINE
  5
12E
330
87
100
AcDbEntity
  8
P-SANR-FIXT
100
AcDbLine
 10
743.8768832713705
 20
1947.499999999948
 30
0.0
 11
744.0868630699427
 21
1947.499999999948
 31
0.0
  0
LINE
  5
12F
330
87
100
AcDbEntity
  8
P-SANR-FIXT
100
AcDbLine
 10
744.0944981440329
 20
1947.499999999948
 30
0.0
 11
744.1639074431876
 21
1947.499999999948
 31
0.0
  0
LINE
  5
130
330
87
100
AcDbEntity
  8
P-SANR-FIXT
100
AcDbLine
 10
717.163907443189
 20
1942.442264973063
 30
0.0
 11
739.163907443189
 21
1942.442264973063
 31
0.0
  0
LINE
  5
131
330
87
100
AcDbEntity
  8
P-SANR-FIXT
100
AcDbLine
 10
717.1639074431904
 20
2057.557735026928
 30
0.0
 11
712.6639074431919
 21
2054.959658815576
 31
0.0
  0
LINE
  5
132
330
87
100
AcDbEntity
  8
P-SANR-FIXT
100
AcDbLine
 10
743.6639074431891
 20
2054.959658815576
 30
0.0
 11
739.1639074431903
 21
2057.557735026928
 31
0.0
  0
LWPOLYLINE
  5
133
330
87
100
AcDbEntity
  8
P-SANR-FIXT
100
AcDbPolyline
 90
       28
 70
   128
 43
0.0
 10
743.6639074431891
 20
2054.959658815576
 10
743.6981392758056
 20
2054.938971420531
 10
743.7315164514533
 20
2054.916931665001
 10
743.7639855737712
 20
2054.893574807893
 10
743.7954946990901
 20
2054.868938215196
 10
743.825993419531
 20
2054.843061300204
 10
743.8554329436471
 20
2054.81598546046
 10
743.8837661744803
 20
2054.787754011532
 10
743.9109477849049
 20
2054.758412117714
 10
743.936934290143
 20
2054.72800671978
 10
743.9616841173293
 20
2054.696586459878
 10
743.9851576720205
 20
2054.664201603722
 10
744.0073174015362
 20
2054.630903960175
 10
744.0281278550364
 20
2054.596746798361
 10
744.0475557402349
 20
2054.561784762455
 10
744.0655699766597
 20
2054.526073784253
 10
744.0821417453754
 20
2054.489670993706
 10
744.0972445350869
 20
2054.45263462751
 10
744.1108541845529
 20
2054.415023935952
 10
744.1229489212371
 20
2054.376899088115
 10
744.1335093961409
 20
2054.338321075623
 10
744.1425187147578
 20
2054.299351615066
 10
744.1499624640993
 20
2054.260053049268
 10
744.1558287357544
 20
2054.220488247551
 10
744.16010814494
 20
2054.180720505157
 10
744.1627938455143
 20
2054.140813441992
 10
744.1638815409293
 20
2054.100830900843
 10
744.163907443189
 20
2054.093633411791
  0
LWPOLYLINE
  5
134
330
87
100
AcDbEntity
  8
P-SANR-FIXT
100
AcDbPolyline
 90
       28
 70
   128
 43
0.0
 10
712.1639074431918
 20
2054.093633411791
 10
712.164707336531
 20
2054.133622745978
 10
712.1671057368892
 20
2054.17354810576
 10
712.171098807338
 20
2054.21334561908
 10
712.1766801598161
 20
2054.252951618405
 10
712.1838408653506
 20
2054.292302742586
 10
712.1925694683397
 20
2054.331336038218
 10
712.202852004881
 20
2054.369989060355
 10
712.2146720251094
 20
2054.408199972407
 10
712.2280106195138
 20
2054.445907645066
 10
712.2428464491888
 20
2054.483051754099
 10
712.2591557799718
 20
2054.519572876857
 10
712.2769125204126
 20
2054.555412587333
 10
712.2960882635143
 20
2054.590513549635
 10
712.3166523321785
 20
2054.624819609712
 10
712.3385718282823
 20
2054.658275885186
 10
712.3618116853075
 20
2054.690828853154
 10
712.3863347244409
 20
2054.72242643581
 10
712.4121017140509
 20
2054.753018083763
 10
712.4390714324509
 20
2054.782554856902
 10
712.4672007338446
 20
2054.810989502691
 10
712.4964446173504
 20
2054.838276531762
 10
712.5267562989932
 20
2054.86437229069
 10
712.5580872865485
 20
2054.889235031827
 10
712.5903874571194
 20
2054.912824980092
 10
712.6236051373238
 20
2054.935104396599
 10
712.6576871859591
 20
2054.956037639034
 10
712.6639074431919
 20
2054.959658815576
  0
LINE
  5
135
330
87
100
AcDbEntity
  8
P-SANR-FIXT
100
AcDbLine
 10
712.1639074431918
 20
2054.093633411791
 30
0.0
 11
712.1639074431918
 21
2052.500000000042
 31
0.0
  0
LINE
  5
136
330
87
100
AcDbEntity
  8
P-SANR-FIXT
100
AcDbLine
 10
744.163907443189
 20
2052.500000000042
 30
0.0
 11
744.163907443189
 21
2054.093633411791
 31
0.0
  0
LINE
  5
137
330
87
100
AcDbEntity
  8
P-SANR-FIXT
100
AcDbLine
 10
739.163907443189
 20
2057.557735026927
 30
0.0
 11
717.163907443189
 21
2057.557735026927
 31
0.0
  0
LINE
  5
138
330
87
100
AcDbEntity
  8
P-SANR-FIXT
100
AcDbLine
 10
712.2409518164353
 20
2052.500000000041
 30
0.0
 11
712.2860318028442
 21
2052.500000000041
 31
0.0
  0
LINE
  5
139
330
87
100
AcDbEntity
  8
P-SANR-FIXT
100
AcDbLine
 10
712.4309022634232
 20
2052.500000000041
 30
0.0
 11
712.5584605738031
 21
2052.500000000041
 31
0.0
  0
LINE
  5
13A
330
87
100
AcDbEntity
  8
P-SANR-FIXT
100
AcDbLine
 10
712.8476906715105
 20
2052.500000000041
 30
0.0
 11
712.852862071475
 21
2052.500000000041
 31
0.0
  0
LINE
  5
13B
330
87
100
AcDbEntity
  8
P-SANR-FIXT
100
AcDbLine
 10
713.2001078234189
 20
2052.500000000041
 30
0.0
 11
713.3818349230097
 21
2052.500000000041
 31
0.0
  0
LINE
  5
13C
330
87
100
AcDbEntity
  8
P-SANR-FIXT
100
AcDbLine
 10
713.6459988964612
 20
2052.500000000041
 30
0.0
 11
714.6933814557128
 21
2052.500000000041
 31
0.0
  0
LINE
  5
13D
330
87
100
AcDbEntity
  8
P-SANR-FIXT
100
AcDbLine
 10
715.0471053601903
 20
2052.500000000041
 30
0.0
 11
715.7957401893862
 21
2052.500000000041
 31
0.0
  0
LINE
  5
13E
330
87
100
AcDbEntity
  8
P-SANR-FIXT
100
AcDbLine
 10
715.9017344257826
 20
2052.500000000041
 30
0.0
 11
718.9786878207193
 21
2052.500000000041
 31
0.0
  0
LINE
  5
13F
330
87
100
AcDbEntity
  8
P-SANR-FIXT
100
AcDbLine
 10
719.274783714876
 20
2052.500000000041
 30
0.0
 11
720.1550942101114
 21
2052.500000000041
 31
0.0
  0
LINE
  5
140
330
87
100
AcDbEntity
  8
P-SANR-FIXT
100
AcDbLine
 10
720.2996044206301
 20
2052.500000000041
 30
0.0
 11
720.6215596539736
 21
2052.500000000041
 31
0.0
  0
LINE
  5
141
330
87
100
AcDbEntity
  8
P-SANR-FIXT
100
AcDbLine
 10
721.3938851562293
 20
2052.500000000041
 30
0.0
 11
723.519352607118
 21
2052.500000000041
 31
0.0
  0
LINE
  5
142
330
87
100
AcDbEntity
  8
P-SANR-FIXT
100
AcDbLine
 10
724.0185660627186
 20
2052.500000000041
 30
0.0
 11
725.2770811709747
 21
2052.500000000041
 31
0.0
  0
LINE
  5
143
330
87
100
AcDbEntity
  8
P-SANR-FIXT
100
AcDbLine
 10
725.3834701771807
 20
2052.500000000041
 30
0.0
 11
726.5956331979161
 21
2052.500000000041
 31
0.0
  0
LINE
  5
144
330
87
100
AcDbEntity
  8
P-SANR-FIXT
100
AcDbLine
 10
726.7689462634742
 20
2052.500000000041
 30
0.0
 11
729.5588686229035
 21
2052.500000000041
 31
0.0
  0
LINE
  5
145
330
87
100
AcDbEntity
  8
P-SANR-FIXT
100
AcDbLine
 10
729.7321816884617
 20
2052.500000000041
 30
0.0
 11
730.9443447091969
 21
2052.500000000041
 31
0.0
  0
LINE
  5
146
330
87
100
AcDbEntity
  8
P-SANR-FIXT
100
AcDbLine
 10
731.2853525954466
 20
2052.500000000041
 30
0.0
 11
732.3092488236591
 21
2052.500000000041
 31
0.0
  0
LINE
  5
147
330
87
100
AcDbEntity
  8
P-SANR-FIXT
100
AcDbLine
 10
732.7376164556818
 20
2052.500000000041
 30
0.0
 11
733.6426643346849
 21
2052.500000000041
 31
0.0
  0
LINE
  5
148
330
87
100
AcDbEntity
  8
P-SANR-FIXT
100
AcDbLine
 10
734.2868423610299
 20
2052.500000000041
 30
0.0
 11
734.9339297301483
 21
2052.500000000041
 31
0.0
  0
LINE
  5
149
330
87
100
AcDbEntity
  8
P-SANR-FIXT
100
AcDbLine
 10
735.2302355925806
 20
2052.500000000041
 30
0.0
 11
735.7062552324042
 21
2052.500000000041
 31
0.0
  0
LINE
  5
14A
330
87
100
AcDbEntity
  8
P-SANR-FIXT
100
AcDbLine
 10
736.172720676266
 20
2052.500000000041
 30
0.0
 11
737.0530311715018
 21
2052.500000000041
 31
0.0
  0
LINE
  5
14B
330
87
100
AcDbEntity
  8
P-SANR-FIXT
100
AcDbLine
 10
737.3491270656581
 20
2052.500000000041
 30
0.0
 11
738.3141999898064
 21
2052.500000000041
 31
0.0
  0
LINE
  5
14C
330
87
100
AcDbEntity
  8
P-SANR-FIXT
100
AcDbLine
 10
738.4537218428069
 20
2052.500000000041
 30
0.0
 11
740.4260804605947
 21
2052.500000000041
 31
0.0
  0
LINE
  5
14D
330
87
100
AcDbEntity
  8
P-SANR-FIXT
100
AcDbLine
 10
740.5320746969915
 20
2052.500000000041
 30
0.0
 11
741.2807095261871
 21
2052.500000000041
 31
0.0
  0
LINE
  5
14E
330
87
100
AcDbEntity
  8
P-SANR-FIXT
100
AcDbLine
 10
741.6344334311408
 20
2052.500000000041
 30
0.0
 11
742.6818159899166
 21
2052.500000000041
 31
0.0
  0
LINE
  5
14F
330
87
100
AcDbEntity
  8
P-SANR-FIXT
100
AcDbLine
 10
742.6975061241706
 20
2052.500000000041
 30
0.0
 11
743.1277070629568
 21
2052.500000000041
 31
0.0
  0
LINE
  5
150
330
87
100
AcDbEntity
  8
P-SANR-FIXT
100
AcDbLine
 10
743.7693543125755
 20
2052.500000000041
 30
0.0
 11
743.8969126229546
 21
2052.500000000041
 31
0.0
  0
LINE
  5
151
330
87
100
AcDbEntity
  8
P-SANR-FIXT
100
AcDbLine
 10
744.0417830835362
 20
2052.500000000041
 30
0.0
 11
744.0868630699427
 21
2052.500000000041
 31
0.0
  0
LINE
  5
152
330
87
100
AcDbEntity
  8
P-SANR-FIXT
100
AcDbLine
 10
745.8656133653617
 20
2043.482480372281
 30
0.0
 11
745.8656133653617
 21
2051.517519627794
 31
0.0
  0
LINE
  5
153
330
87
100
AcDbEntity
  8
P-SANR-FIXT
100
AcDbLine
 10
710.4622015210193
 20
2051.517519627794
 30
0.0
 11
710.4622015210193
 21
2043.482480372281
 31
0.0
  0
LINE
  5
154
330
87
100
AcDbEntity
  8
P-SANR-FIXT
100
AcDbLine
 10
712.1639074431918
 20
2052.500000000042
 30
0.0
 11
710.4622015210193
 21
2051.517519627794
 31
0.0
  0
LINE
  5
155
330
87
100
AcDbEntity
  8
P-SANR-FIXT
100
AcDbLine
 10
745.8656133653617
 20
2051.517519627794
 30
0.0
 11
744.163907443189
 21
2052.500000000042
 31
0.0
  0
LINE
  5
156
330
87
100
AcDbEntity
  8
P-SANR-FIXT
100
AcDbLine
 10
710.4622015210193
 20
2043.482480372281
 30
0.0
 11
712.163907443238
 21
2042.500000000007
 31
0.0
  0
LINE
  5
157
330
87
100
AcDbEntity
  8
P-SANR-FIXT
100
AcDbLine
 10
744.163907443143
 20
2042.500000000007
 30
0.0
 11
745.8656133653617
 21
2043.482480372281
 31
0.0
  0
LINE
  5
158
330
87
100
AcDbEntity
  8
P-SANR-FIXT
100
AcDbLine
 10
728.1639074431889
 20
2042.500000000006
 30
0.0
 11
714.3075009826791
 21
2042.500000000006
 31
0.0
  0
LINE
  5
159
330
87
100
AcDbEntity
  8
P-SANR-FIXT
100
AcDbLine
 10
714.3075009826791
 20
2042.500000000006
 30
0.0
 11
712.1639074432366
 21
2042.500000000006
 31
0.0
  0
LINE
  5
15A
330
87
100
AcDbEntity
  8
P-SANR-FIXT
100
AcDbLine
 10
713.8985166046772
 20
2042.500000000006
 30
0.0
 11
714.1545913562436
 21
2042.500000000006
 31
0.0
  0
LINE
  5
15B
330
87
100
AcDbEntity
  8
P-SANR-FIXT
100
AcDbLine
 10
742.1732235300022
 20
2042.500000000006
 30
0.0
 11
742.4292982810486
 21
2042.500000000006
 31
0.0
  0
LINE
  5
15C
330
87
100
AcDbEntity
  8
P-SANR-FIXT
100
AcDbLine
 10
744.1639074431415
 20
2042.500000000006
 30
0.0
 11
742.0203139036988
 21
2042.500000000006
 31
0.0
  0
LINE
  5
15D
330
87
100
AcDbEntity
  8
P-SANR-FIXT
100
AcDbLine
 10
742.0203139036988
 20
2042.500000000006
 30
0.0
 11
728.163907443189
 21
2042.500000000006
 31
0.0
  0
LINE
  5
15E
330
87
100
AcDbEntity
  8
P-SANR-FIXT
100
AcDbLine
 10
714.307500982639
 20
2052.500000000041
 30
0.0
 11
714.8504851068769
 21
2052.500000000041
 31
0.0
  0
LINE
  5
15F
330
87
100
AcDbEntity
  8
P-SANR-FIXT
100
AcDbLine
 10
715.0574747345662
 20
2052.500000000041
 30
0.0
 11
715.7902786159653
 21
2052.500000000041
 31
0.0
  0
LINE
  5
160
330
87
100
AcDbEntity
  8
P-SANR-FIXT
100
AcDbLine
 10
715.9071963532864
 20
2052.500000000041
 30
0.0
 11
717.8793056882051
 21
2052.500000000041
 31
0.0
  0
LINE
  5
161
330
87
100
AcDbEntity
  8
P-SANR-FIXT
100
AcDbLine
 10
718.0096064872342
 20
2052.500000000041
 30
0.0
 11
718.9866844615728
 21
2052.500000000041
 31
0.0
  0
LINE
  5
162
330
87
100
AcDbEntity
  8
P-SANR-FIXT
100
AcDbLine
 10
719.2686639542317
 20
2052.500000000041
 30
0.0
 11
720.3036723345879
 21
2052.500000000041
 31
0.0
  0
LINE
  5
163
330
87
100
AcDbEntity
  8
P-SANR-FIXT
100
AcDbLine
 10
720.6149582556244
 20
2052.500000000041
 30
0.0
 11
722.0351434747287
 21
2052.500000000041
 31
0.0
  0
LINE
  5
164
330
87
100
AcDbEntity
  8
P-SANR-FIXT
100
AcDbLine
 10
722.6915851499787
 20
2052.500000000041
 30
0.0
 11
723.5150935681027
 21
2052.500000000041
 31
0.0
  0
LINE
  5
165
330
87
100
AcDbEntity
  8
P-SANR-FIXT
100
AcDbLine
 10
724.0228027215489
 20
2052.500000000041
 30
0.0
 11
725.040059731657
 21
2052.500000000041
 31
0.0
  0
LINE
  5
166
330
87
100
AcDbEntity
  8
P-SANR-FIXT
100
AcDbLine
 10
725.2777513864118
 20
2052.500000000041
 30
0.0
 11
726.594832446118
 21
2052.500000000041
 31
0.0
  0
LINE
  5
167
330
87
100
AcDbEntity
  8
P-SANR-FIXT
100
AcDbLine
 10
726.7694155592263
 20
2052.500000000041
 30
0.0
 11
728.1639074431889
 21
2052.500000000041
 31
0.0
  0
LINE
  5
168
330
87
100
AcDbEntity
  8
P-SANR-FIXT
100
AcDbLine
 10
728.1639074431886
 20
2052.500000000041
 30
0.0
 11
730.9422782858594
 21
2052.500000000041
 31
0.0
  0
LINE
  5
169
330
87
100
AcDbEntity
  8
P-SANR-FIXT
100
AcDbLine
 10
731.2877551547209
 20
2052.500000000041
 30
0.0
 11
732.7406748594172
 21
2052.500000000041
 31
0.0
  0
LINE
  5
16A
330
87
100
AcDbEntity
  8
P-SANR-FIXT
100
AcDbLine
 10
732.8127213182749
 20
2052.500000000041
 30
0.0
 11
733.6362297363989
 21
2052.500000000041
 31
0.0
  0
LINE
  5
16B
330
87
100
AcDbEntity
  8
P-SANR-FIXT
100
AcDbLine
 10
734.2926714116491
 20
2052.500000000041
 30
0.0
 11
735.7128566307534
 21
2052.500000000041
 31
0.0
  0
LINE
  5
16C
330
87
100
AcDbEntity
  8
P-SANR-FIXT
100
AcDbLine
 10
736.163907443188
 20
2052.500000000041
 30
0.0
 11
737.0591509321463
 21
2052.500000000041
 31
0.0
  0
LINE
  5
16D
330
87
100
AcDbEntity
  8
P-SANR-FIXT
100
AcDbLine
 10
737.3411304248048
 20
2052.500000000041
 30
0.0
 11
738.3182083991438
 21
2052.500000000041
 31
0.0
  0
LINE
  5
16E
330
87
100
AcDbEntity
  8
P-SANR-FIXT
100
AcDbLine
 10
738.4485091981725
 20
2052.500000000041
 30
0.0
 11
740.4206185330913
 21
2052.500000000041
 31
0.0
  0
LINE
  5
16F
330
87
100
AcDbEntity
  8
P-SANR-FIXT
100
AcDbLine
 10
740.5375362704129
 20
2052.500000000041
 30
0.0
 11
741.2703401518115
 21
2052.500000000041
 31
0.0
  0
LINE
  5
170
330
87
100
AcDbEntity
  8
P-SANR-FIXT
100
AcDbLine
 10
741.4773297795011
 20
2052.500000000041
 30
0.0
 11
742.0203139037385
 21
2052.500000000041
 31
0.0
  0
LINE
  5
171
330
87
100
AcDbEntity
  8
P-SANR-FIXT
100
AcDbLine
 10
742.2875346665088
 20
2052.500000000041
 30
0.0
 11
742.6824507821586
 21
2052.500000000041
 31
0.0
  0
LINE
  5
172
330
87
100
AcDbEntity
  8
P-SANR-FIXT
100
AcDbLine
 10
742.9600146254268
 20
2052.500000000041
 30
0.0
 11
743.3622694442735
 21
2052.500000000041
 31
0.0
  0
LINE
  5
173
330
87
100
AcDbEntity
  8
P-SANR-FIXT
100
AcDbLine
 10
743.4880544645097
 20
2052.500000000041
 30
0.0
 11
743.7694148268872
 21
2052.500000000041
 31
0.0
  0
LINE
  5
174
330
87
100
AcDbEntity
  8
P-SANR-FIXT
100
AcDbLine
 10
743.8870752708454
 20
2052.500000000041
 30
0.0
 11
744.0418030053987
 21
2052.500000000041
 31
0.0
  0
LINE
  5
175
330
87
100
AcDbEntity
  8
P-SANR-FIXT
100
AcDbLine
 10
744.0917516948618
 20
2052.500000000041
 30
0.0
 11
744.1639074431876
 21
2052.500000000041
 31
0.0
  0
LINE
  5
176
330
87
100
AcDbEntity
  8
P-SANR-FIXT
100
AcDbLine
 10
712.1639074431905
 20
2052.500000000041
 30
0.0
 11
712.2360631915161
 21
2052.500000000041
 31
0.0
  0
LINE
  5
177
330
87
100
AcDbEntity
  8
P-SANR-FIXT
100
AcDbLine
 10
712.2860118809791
 20
2052.500000000041
 30
0.0
 11
712.4407396155332
 21
2052.500000000041
 31
0.0
  0
LINE
  5
178
330
87
100
AcDbEntity
  8
P-SANR-FIXT
100
AcDbLine
 10
712.5584000594891
 20
2052.500000000041
 30
0.0
 11
712.8356197655468
 21
2052.500000000041
 31
0.0
  0
LINE
  5
179
330
87
100
AcDbEntity
  8
P-SANR-FIXT
100
AcDbLine
 10
712.8397604218681
 20
2052.500000000041
 30
0.0
 11
713.367800260951
 21
2052.500000000041
 31
0.0
  0
LINE
  5
17A
330
87
100
AcDbEntity
  8
P-SANR-FIXT
100
AcDbLine
 10
713.6629828506038
 20
2052.500000000041
 30
0.0
 11
714.040280219869
 21
2052.500000000041
 31
0.0
  0
SPLINE
  5
17B
330
87
100
AcDbEntity
  8
P-SANR-FIXT
100
AcDbSpline
210
0.0
220
0.0
230
1.0
 70
     8
 71
     3
 72
    10
 73
     6
 74
     0
 42
0.000000001
 43
0.0000000001
 40
0.0
 40
0.0
 40
0.0
 40
0.0
 40
0.4
 40
0.7
 40
1.0
 40
1.0
 40
1.0
 40
1.0
 10
717.4829274631811
 20
2043.201096703583
 30
0.0
 10
717.8274939773196
 20
2043.349148056952
 30
0.0
 10
718.6598396524057
 20
2043.509493150519
 30
0.0
 10
720.2538418583091
 20
2043.4698249677
 30
0.0
 10
721.297270389733
 20
2043.311967561332
 30
0.0
 10
721.8130544821033
 20
2043.201096703583
 30
0.0
  0
SPLINE
  5
17C
330
87
100
AcDbEntity
  8
P-SANR-FIXT
100
AcDbSpline
210
0.0
220
0.0
230
1.0
 70
     8
 71
     3
 72
    10
 73
     6
 74
     0
 42
0.000000001
 43
0.0000000001
 40
0.0
 40
0.0
 40
0.0
 40
0.0
 40
0.4
 40
0.7
 40
1.0
 40
1.0
 40
1.0
 40
1.0
 10
721.8130544821033
 20
2051.798903296491
 30
0.0
 10
721.125342358943
 20
2051.651075486159
 30
0.0
 10
719.9014230604085
 20
2051.490610761089
 30
0.0
 10
718.4033025451718
 20
2051.52998641875
 30
0.0
 10
717.741352348785
 20
2051.687864781464
 30
0.0
 10
717.4829274631811
 20
2051.798903296491
 30
0.0
  0
SPLINE
  5
17D
330
87
100
AcDbEntity
  8
P-SANR-FIXT
100
AcDbSpline
210
0.0
220
0.0
230
1.0
 70
     8
 71
     3
 72
     9
 73
     5
 74
     0
 42
0.000000001
 43
0.0000000001
 40
0.0
 40
0.0
 40
0.0
 40
0.0
 40
0.5
 40
1.0
 40
1.0
 40
1.0
 40
1.0
 10
721.8130544821033
 20
2043.201096703583
 30
0.0
 10
722.8594503112064
 20
2042.972022052825
 30
0.0
 10
724.9643216338238
 20
2042.626097951471
 30
0.0
 10
727.0933522852637
 20
2042.50462425044
 30
0.0
 10
728.163907443189
 20
2042.500000000006
 30
0.0
  0
SPLINE
  5
17E
330
87
100
AcDbEntity
  8
P-SANR-FIXT
100
AcDbSpline
210
0.0
220
0.0
230
1.0
 70
     8
 71
     3
 72
     9
 73
     5
 74
     0
 42
0.000000001
 43
0.0000000001
 40
0.0
 40
0.0
 40
0.0
 40
0.0
 40
0.5
 40
1.0
 40
1.0
 40
1.0
 40
1.0
 10
728.163907443189
 20
2042.500000000006
 30
0.0
 10
729.2344626011144
 20
2042.50462425044
 30
0.0
 10
731.3634932525541
 20
2042.626097951471
 30
0.0
 10
733.4683645751714
 20
2042.972022052826
 30
0.0
 10
734.5147604042745
 20
2043.201096703583
 30
0.0
  0
SPLINE
  5
17F
330
87
100
AcDbEntity
  8
P-SANR-FIXT
100
AcDbSpline
210
0.0
220
0.0
230
1.0
 70
     8
 71
     3
 72
     9
 73
     5
 74
     0
 42
0.000000001
 43
0.0000000001
 40
0.0
 40
0.0
 40
0.0
 40
0.0
 40
0.5
 40
1.0
 40
1.0
 40
1.0
 40
1.0
 10
734.5147604042745
 20
2051.798903296491
 30
0.0
 10
733.4683645751718
 20
2052.027977947253
 30
0.0
 10
731.363493252555
 20
2052.373902048607
 30
0.0
 10
729.2344626011149
 20
2052.49537574962
 30
0.0
 10
728.163907443189
 20
2052.500000000041
 30
0.0
  0
SPLINE
  5
180
330
87
100
AcDbEntity
  8
P-SANR-FIXT
100
AcDbSpline
210
0.0
220
0.0
230
1.0
 70
     8
 71
     3
 72
     9
 73
     5
 74
     0
 42
0.000000001
 43
0.0000000001
 40
0.0
 40
0.0
 40
0.0
 40
0.0
 40
0.5
 40
1.0
 40
1.0
 40
1.0
 40
1.0
 10
728.163907443189
 20
2052.500000000041
 30
0.0
 10
727.093352285263
 20
2052.49537574962
 30
0.0
 10
724.9643216338228
 20
2052.373902048607
 30
0.0
 10
722.8594503112059
 20
2052.027977947253
 30
0.0
 10
721.8130544821033
 20
2051.798903296491
 30
0.0
  0
SPLINE
  5
181
330
87
100
AcDbEntity
  8
P-SANR-FIXT
100
AcDbSpline
210
0.0
220
0.0
230
1.0
 70
     8
 71
     3
 72
    10
 73
     6
 74
     0
 42
0.000000001
 43
0.0000000001
 40
0.0
 40
0.0
 40
0.0
 40
0.0
 40
0.4
 40
0.7
 40
1.0
 40
1.0
 40
1.0
 40
1.0
 10
734.5147604042745
 20
2043.201096703583
 30
0.0
 10
735.2038934325515
 20
2043.349148056952
 30
0.0
 10
736.4275415290129
 20
2043.509493150519
 30
0.0
 10
737.9258147294867
 20
2043.4698249677
 30
0.0
 10
738.5869953770115
 20
2043.311967561332
 30
0.0
 10
738.8448874231967
 20
2043.201096703583
 30
0.0
  0
SPLINE
  5
182
330
87
100
AcDbEntity
  8
P-SANR-FIXT
100
AcDbSpline
210
0.0
220
0.0
230
1.0
 70
     8
 71
     3
 72
    10
 73
     6
 74
     0
 42
0.000000001
 43
0.0000000001
 40
0.0
 40
0.0
 40
0.0
 40
0.0
 40
0.4
 40
0.7
 40
1.0
 40
1.0
 40
1.0
 40
1.0
 10
738.8448874231967
 20
2051.798903296491
 30
0.0
 10
738.5010313616166
 20
2051.651075486159
 30
0.0
 10
737.6689781576605
 20
2051.490610761089
 30
0.0
 10
736.0756011419761
 20
2051.52998641875
 30
0.0
 10
735.0316101754822
 20
2051.687864781464
 30
0.0
 10
734.5147604042745
 20
2051.798903296491
 30
0.0
  0
SPLINE
  5
183
330
87
100
AcDbEntity
  8
P-SANR-FIXT
100
AcDbSpline
210
0.0
220
0.0
230
1.0
 70
     8
 71
     3
 72
     9
 73
     5
 74
     0
 42
0.000000001
 43
0.0000000001
 40
0.0
 40
0.0
 40
0.0
 40
0.0
 40
0.5
 40
1.0
 40
1.0
 40
1.0
 40
1.0
 10
738.8448874231967
 20
2043.201096703583
 30
0.0
 10
739.3680853377483
 20
2042.972022052826
 30
0.0
 10
740.420520999057
 20
2042.626097951471
 30
0.0
 10
741.485036324777
 20
2042.50462425044
 30
0.0
 10
742.0203139037397
 20
2042.500000000006
 30
0.0
  0
SPLINE
  5
184
330
87
100
AcDbEntity
  8
P-SANR-FIXT
100
AcDbSpline
210
0.0
220
0.0
230
1.0
 70
     8
 71
     3
 72
     9
 73
     5
 74
     0
 42
0.000000001
 43
0.0000000001
 40
0.0
 40
0.0
 40
0.0
 40
0.0
 40
0.5
 40
1.0
 40
1.0
 40
1.0
 40
1.0
 10
742.0203139037397
 20
2042.500000000006
 30
0.0
 10
742.5555914827024
 20
2042.50462425044
 30
0.0
 10
743.6201068084222
 20
2042.626097951471
 30
0.0
 10
744.6725424697308
 20
2042.972022052826
 30
0.0
 10
745.1957403842826
 20
2043.201096703583
 30
0.0
  0
SPLINE
  5
185
330
87
100
AcDbEntity
  8
P-SANR-FIXT
100
AcDbSpline
210
0.0
220
0.0
230
1.0
 70
     8
 71
     3
 72
     9
 73
     5
 74
     0
 42
0.000000001
 43
0.0000000001
 40
0.0
 40
0.0
 40
0.0
 40
0.0
 40
0.5
 40
1.0
 40
1.0
 40
1.0
 40
1.0
 10
745.1957403842826
 20
2051.798903296491
 30
0.0
 10
744.6725424697311
 20
2052.027977947253
 30
0.0
 10
743.6201068084227
 20
2052.373902048607
 30
0.0
 10
742.5555914827025
 20
2052.49537574962
 30
0.0
 10
742.0203139037397
 20
2052.500000000041
 30
0.0
  0
SPLINE
  5
186
330
87
100
AcDbEntity
  8
P-SANR-FIXT
100
AcDbSpline
210
0.0
220
0.0
230
1.0
 70
     8
 71
     3
 72
     9
 73
     5
 74
     0
 42
0.000000001
 43
0.0000000001
 40
0.0
 40
0.0
 40
0.0
 40
0.0
 40
0.5
 40
1.0
 40
1.0
 40
1.0
 40
1.0
 10
742.0203139037397
 20
2052.500000000041
 30
0.0
 10
741.4850363247767
 20
2052.49537574962
 30
0.0
 10
740.4205209990565
 20
2052.373902048607
 30
0.0
 10
739.3680853377479
 20
2052.027977947253
 30
0.0
 10
738.8448874231967
 20
2051.798903296491
 30
0.0
  0
SPLINE
  5
187
330
87
100
AcDbEntity
  8
P-SANR-FIXT
100
AcDbSpline
210
0.0
220
0.0
230
1.0
 70
     8
 71
     3
 72
     9
 73
     5
 74
     0
 42
0.000000001
 43
0.0000000001
 40
0.0
 40
0.0
 40
0.0
 40
0.0
 40
0.5
 40
1.0
 40
1.0
 40
1.0
 40
1.0
 10
745.1957403842826
 20
2043.201096703583
 30
0.0
 10
745.4112045981799
 20
2043.29398635168
 30
0.0
 10
745.7478674353332
 20
2043.433773277893
 30
0.0
 10
745.8656133653603
 20
2043.481575464145
 30
0.0
 10
745.8656133653603
 20
2043.482480372281
 30
0.0
  0
SPLINE
  5
188
330
87
100
AcDbEntity
  8
P-SANR-FIXT
100
AcDbSpline
210
0.0
220
0.0
230
1.0
 70
     8
 71
     3
 72
     9
 73
     5
 74
     0
 42
0.000000001
 43
0.0000000001
 40
0.0
 40
0.0
 40
0.0
 40
0.0
 40
0.5
 40
1.0
 40
1.0
 40
1.0
 40
1.0
 10
745.8656133653603
 20
2051.517519627793
 30
0.0
 10
745.8656133653603
 20
2051.518424535929
 30
0.0
 10
745.7478674353332
 20
2051.566226722181
 30
0.0
 10
745.4112045981799
 20
2051.706013648394
 30
0.0
 10
745.1957403842826
 20
2051.798903296491
 30
0.0
  0
SPLINE
  5
189
330
87
100
AcDbEntity
  8
P-SANR-FIXT
100
AcDbSpline
210
0.0
220
0.0
230
1.0
 70
     8
 71
     3
 72
     9
 73
     5
 74
     0
 42
0.000000001
 43
0.0000000001
 40
0.0
 40
0.0
 40
0.0
 40
0.0
 40
0.5
 40
1.0
 40
1.0
 40
1.0
 40
1.0
 10
710.4622015210179
 20
2043.482480372281
 30
0.0
 10
710.4622015210179
 20
2043.481575464145
 30
0.0
 10
710.579947451045
 20
2043.433773277893
 30
0.0
 10
710.9166102881983
 20
2043.293986351679
 30
0.0
 10
711.1320745020957
 20
2043.201096703583
 30
0.0
  0
SPLINE
  5
18A
330
87
100
AcDbEntity
  8
P-SANR-FIXT
100
AcDbSpline
210
0.0
220
0.0
230
1.0
 70
     8
 71
     3
 72
     9
 73
     5
 74
     0
 42
0.000000001
 43
0.0000000001
 40
0.0
 40
0.0
 40
0.0
 40
0.0
 40
0.5
 40
1.0
 40
1.0
 40
1.0
 40
1.0
 10
711.1320745020956
 20
2051.798903296491
 30
0.0
 10
710.9166102881983
 20
2051.706013648394
 30
0.0
 10
710.579947451045
 20
2051.566226722181
 30
0.0
 10
710.4622015210179
 20
2051.518424535929
 30
0.0
 10
710.4622015210179
 20
2051.517519627793
 30
0.0
  0
SPLINE
  5
18B
330
87
100
AcDbEntity
  8
P-SANR-FIXT
100
AcDbSpline
210
0.0
220
0.0
230
1.0
 70
     8
 71
     3
 72
     9
 73
     5
 74
     0
 42
0.000000001
 43
0.0000000001
 40
0.0
 40
0.0
 40
0.0
 40
0.0
 40
0.5
 40
1.0
 40
1.0
 40
1.0
 40
1.0
 10
717.4829274631811
 20
2051.798903296491
 30
0.0
 10
716.9597295486298
 20
2052.027977947253
 30
0.0
 10
715.9072938873214
 20
2052.373902048607
 30
0.0
 10
714.8427785616013
 20
2052.49537574962
 30
0.0
 10
714.3075009826384
 20
2052.500000000041
 30
0.0
  0
SPLINE
  5
18C
330
87
100
AcDbEntity
  8
P-SANR-FIXT
100
AcDbSpline
210
0.0
220
0.0
230
1.0
 70
     8
 71
     3
 72
     9
 73
     5
 74
     0
 42
0.000000001
 43
0.0000000001
 40
0.0796399271658361
 40
0.0796399271658361
 40
0.0796399271658361
 40
0.0796399271658361
 40
0.5
 40
1.0
 40
1.0
 40
1.0
 40
1.0
 10
714.0519540246925
 20
2052.493519608129
 30
0.0
 10
713.6027441731498
 20
2052.474603855514
 30
0.0
 10
712.6238921785419
 20
2052.34635267837
 30
0.0
 10
711.655272416647
 20
2052.027977947253
 30
0.0
 10
711.1320745020956
 20
2051.798903296491
 30
0.0
  0
SPLINE
  5
18D
330
87
100
AcDbEntity
  8
P-SANR-FIXT
100
AcDbSpline
210
0.0
220
0.0
230
1.0
 70
     8
 71
     3
 72
     9
 73
     5
 74
     0
 42
0.000000001
 43
0.0000000001
 40
0.0
 40
0.0
 40
0.0
 40
0.0
 40
0.5
 40
1.0
 40
1.0
 40
1.0
 40
1.0
 10
711.1320745020956
 20
2043.201096703583
 30
0.0
 10
711.6552724166472
 20
2042.972022052825
 30
0.0
 10
712.7077080779558
 20
2042.626097951471
 30
0.0
 10
713.7722234036756
 20
2042.50462425044
 30
0.0
 10
714.3075009826384
 20
2042.500000000006
 30
0.0
  0
SPLINE
  5
18E
330
87
100
AcDbEntity
  8
P-SANR-FIXT
100
AcDbSpline
210
0.0
220
0.0
230
1.0
 70
     8
 71
     3
 72
     9
 73
     5
 74
     0
 42
0.000000001
 43
0.0000000001
 40
0.0
 40
0.0
 40
0.0
 40
0.0
 40
0.5
 40
1.0
 40
1.0
 40
1.0
 40
1.0
 10
714.3075009826384
 20
2042.500000000006
 30
0.0
 10
714.842778561601
 20
2042.50462425044
 30
0.0
 10
715.9072938873208
 20
2042.626097951471
 30
0.0
 10
716.9597295486295
 20
2042.972022052825
 30
0.0
 10
717.4829274631811
 20
2043.201096703583
 30
0.0
  0
LINE
  5
18F
330
87
100
AcDbEntity
  8
P-SANR-FIXT
100
AcDbLine
 10
747.4106101044202
 20
1967.250000000005
 30
0.0
 11
767.6434538399043
 21
1967.250000000005
 31
0.0
  0
LINE
  5
190
330
87
100
AcDbEntity
  8
P-SANR-FIXT
100
AcDbLine
 10
767.6434538399043
 20
2032.749999999987
 30
0.0
 11
747.4106101044202
 21
2032.749999999987
 31
0.0
  0
LINE
  5
191
330
87
100
AcDbEntity
  8
P-SANR-FIXT
100
AcDbLine
 10
767.6434538399043
 20
1967.250000000005
 30
0.0
 11
768.2106101044208
 21
1967.817156264522
 31
0.0
  0
LINE
  5
192
330
87
100
AcDbEntity
  8
P-SANR-FIXT
100
AcDbLine
 10
768.2106101044208
 20
2032.18284373547
 30
0.0
 11
767.6434538399043
 21
2032.749999999987
 31
0.0
  0
LINE
  5
193
330
87
100
AcDbEntity
  8
P-SANR-FIXT
100
AcDbLine
 10
768.2106101044194
 20
2032.182843735469
 30
0.0
 11
768.2106101044194
 21
1967.817156264521
 31
0.0
  0
LINE
  5
194
330
87
100
AcDbEntity
  8
P-SANR-FIXT
100
AcDbLine
 10
747.4106101044188
 20
1967.250000000004
 30
0.0
 11
747.4106101044188
 21
2032.749999999986
 31
0.0
  0
LINE
  5
195
330
87
100
AcDbEntity
  8
P-SANR-FIXT
100
AcDbLine
 10
767.6434538399027
 20
1967.250000000004
 30
0.0
 11
767.6434538399027
 21
2032.749999999986
 31
0.0
  0
LINE
  5
196
330
87
100
AcDbEntity
  8
P-SANR-FIXT
100
AcDbLine
 10
801.0269860253862
 20
1883.05000000001
 30
0.0
 11
793.6664074431896
 21
1883.05000000001
 31
0.0
  0
LINE
  5
197
330
87
100
AcDbEntity
  8
P-SANR-FIXT
100
AcDbLine
 10
793.6664074431896
 20
1870.149999999951
 30
0.0
 11
800.2464074431889
 21
1870.149999999951
 31
0.0
  0
LINE
  5
198
330
87
100
AcDbEntity
  8
P-SANR-FIXT
100
AcDbLine
 10
793.6664074431896
 20
1880.350000000044
 30
0.0
 11
789.1664074431896
 21
1880.350000000044
 31
0.0
  0
LINE
  5
199
330
87
100
AcDbEntity
  8
P-SANR-FIXT
100
AcDbLine
 10
789.1664074431897
 20
1872.849999999917
 30
0.0
 11
793.6664074431896
 21
1872.849999999917
 31
0.0
  0
LINE
  5
19A
330
87
100
AcDbEntity
  8
P-SANR-FIXT
100
AcDbLine
 10
804.1714435505953
 20
1891.699999999996
 30
0.0
 11
804.1714435505953
 21
1889.899999999981
 31
0.0
  0
LINE
  5
19B
330
87
100
AcDbEntity
  8
P-SANR-FIXT
100
AcDbLine
 10
827.1613713357833
 20
1889.899999999981
 30
0.0
 11
827.1613713357833
 21
1891.699999999996
 31
0.0
  0
LINE
  5
19C
330
87
100
AcDbEntity
  8
P-SANR-FIXT
100
AcDbLine
 10
801.0269860253862
 20
1889.899999999981
 30
0.0
 11
801.0269860253862
 21
1883.05000000001
 31
0.0
  0
LINE
  5
19D
330
87
100
AcDbEntity
  8
P-SANR-FIXT
100
AcDbLine
 10
830.3058288609925
 20
1876.380578582178
 30
0.0
 11
830.3058288609925
 21
1889.899999999981
 31
0.0
  0
LINE
  5
19E
330
87
100
AcDbEntity
  8
P-SANR-FIXT
100
AcDbLine
 10
800.2464074431889
 20
1870.149999999951
 30
0.0
 11
800.2464074431889
 21
1866.099999999965
 31
0.0
  0
LINE
  5
19F
330
87
100
AcDbEntity
  8
P-SANR-FIXT
100
AcDbLine
 10
831.0864074431899
 20
1866.099999999965
 30
0.0
 11
831.0864074431899
 21
1876.380578582178
 31
0.0
  0
LINE
  5
1A0
330
87
100
AcDbEntity
  8
P-SANR-FIXT
100
AcDbLine
 10
801.16640744319
 20
1866.099999999965
 30
0.0
 11
801.16640744319
 21
1864.599999999965
 31
0.0
  0
LINE
  5
1A1
330
87
100
AcDbEntity
  8
P-SANR-FIXT
100
AcDbLine
 10
830.1664074431887
 20
1864.599999999965
 30
0.0
 11
830.1664074431887
 21
1866.099999999965
 31
0.0
  0
LINE
  5
1A2
330
87
100
AcDbEntity
  8
P-SANR-FIXT
100
AcDbLine
 10
803.9164074431884
 20
1864.599999999965
 30
0.0
 11
803.9164074431884
 21
1861.599999999965
 31
0.0
  0
LINE
  5
1A3
330
87
100
AcDbEntity
  8
P-SANR-FIXT
100
AcDbLine
 10
827.4164074431901
 20
1861.599999999965
 30
0.0
 11
827.4164074431901
 21
1864.599999999965
 31
0.0
  0
LINE
  5
1A4
330
87
100
AcDbEntity
  8
P-SANR-FIXT
100
AcDbLine
 10
802.2164074431886
 20
1861.599999999965
 30
0.0
 11
802.2164074431886
 21
1859.599999999993
 31
0.0
  0
LINE
  5
1A5
330
87
100
AcDbEntity
  8
P-SANR-FIXT
100
AcDbLine
 10
829.11640744319
 20
1859.599999999993
 30
0.0
 11
829.11640744319
 21
1861.599999999965
 31
0.0
  0
LINE
  5
1A6
330
87
100
AcDbEntity
  8
P-SANR-FIXT
100
AcDbLine
 10
800.8664074432019
 20
1859.599999999993
 30
0.0
 11
800.8664074432019
 21
1850.599999999993
 31
0.0
  0
LINE
  5
1A7
330
87
100
AcDbEntity
  8
P-SANR-FIXT
100
AcDbLine
 10
830.4664074431768
 20
1850.599999999993
 30
0.0
 11
830.4664074431768
 21
1859.599999999993
 31
0.0
  0
LINE
  5
1A8
330
87
100
AcDbEntity
  8
P-SANR-FIXT
100
AcDbLine
 10
808.1664074431888
 20
1850.599999999993
 30
0.0
 11
808.1664074431888
 21
1827.599999999996
 31
0.0
  0
LINE
  5
1A9
330
87
100
AcDbEntity
  8
P-SANR-FIXT
100
AcDbLine
 10
823.16640744319
 20
1827.599999999996
 30
0.0
 11
823.16640744319
 21
1850.599999999993
 31
0.0
  0
LINE
  5
1AA
330
87
100
AcDbEntity
  8
P-SANR-FIXT
100
AcDbLine
 10
789.1664074431881
 20
1872.849999999917
 30
0.0
 11
789.1664074431881
 21
1880.350000000043
 31
0.0
  0
SPLINE
  5
1AB
330
87
100
AcDbEntity
  8
P-SANR-FIXT
100
AcDbSpline
210
0.0
220
0.0
230
1.0
 70
     8
 71
     3
 72
    25
 73
    21
 74
     0
 42
0.000000001
 43
0.0000000001
 40
0.0
 40
0.0
 40
0.0
 40
0.0
 40
0.1428571428571428
 40
0.2142857142857143
 40
0.2857142857142857
 40
0.3214285714285714
 40
0.3571428571428571
 40
0.3928571428571428
 40
0.4285714285714286
 40
0.4642857142857144
 40
0.5
 40
0.5714285714285714
 40
0.6071428571428572
 40
0.6428571428571428
 40
0.6785714285714287
 40
0.7142857142857144
 40
0.75
 40
0.7857142857142857
 40
0.8571428571428571
 40
1.0
 40
1.0
 40
1.0
 40
1.0
 10
800.2464074431873
 20
1870.14999999995
 30
0.0
 10
800.2485772473468
 20
1870.14999999995
 30
0.0
 10
800.279612043929
 20
1870.230467620011
 30
0.0
 10
800.3870904594469
 20
1870.4910852973
 30
0.0
 10
800.4750284120998
 20
1870.714963027048
 30
0.0
 10
800.5546857632189
 20
1870.92819249575
 30
0.0
 10
800.6212893202677
 20
1871.104577280149
 30
0.0
 10
800.6916052590572
 20
1871.296927569555
 30
0.0
 10
800.7626761102503
 20
1871.504865463911
 30
0.0
 10
800.8361368451664
 20
1871.727503775817
 30
0.0
 10
800.9396277748249
 20
1872.042755201766
 30
0.0
 10
801.0423168995199
 20
1872.385326409717
 30
0.0
 10
801.1408868657543
 20
1872.752948967359
 30
0.0
 10
801.2156961182693
 20
1873.039910630911
 30
0.0
 10
801.28758513851
 20
1873.337845789374
 30
0.0
 10
801.3532968098328
 20
1873.646339467109
 30
0.0
 10
801.4141378088966
 20
1873.964622746396
 30
0.0
 10
801.491527386811
 20
1874.400423126777
 30
0.0
 10
801.6030170446416
 20
1875.19017909484
 30
0.0
 10
801.6474825029614
 20
1875.901946410237
 30
0.0
 10
801.6584794822716
 20
1876.380578582177
 30
0.0
  0
SPLINE
  5
1AC
330
87
100
AcDbEntity
  8
P-SANR-FIXT
100
AcDbSpline
210
0.0
220
0.0
230
1.0
 70
     8
 71
     3
 72
    26
 73
    22
 74
     0
 42
0.000000001
 43
0.0000000001
 40
0.0
 40
0.0
 40
0.0
 40
0.0
 40
0.1428571428571428
 40
0.2142857142857143
 40
0.2857142857142857
 40
0.3214285714285714
 40
0.3571428571428571
 40
0.3928571428571428
 40
0.4285714285714286
 40
0.4642857142857144
 40
0.5
 40
0.5357142857142857
 40
0.5714285714285714
 40
0.6071428571428572
 40
0.6428571428571428
 40
0.6785714285714287
 40
0.7142857142857144
 40
0.75
 40
0.7857142857142857
 40
0.8571428571428571
 40
1.0
 40
1.0
 40
1.0
 40
1.0
 10
802.5226520739547
 20
1876.380578582177
 30
0.0
 10
802.5278661388311
 20
1876.88043945091
 30
0.0
 10
802.5009883390001
 20
1877.62998420631
 30
0.0
 10
802.3797301799842
 20
1878.590707329717
 30
0.0
 10
802.2785676851734
 20
1879.166667603132
 30
0.0
 10
802.1875747957023
 20
1879.607180835372
 30
0.0
 10
802.1109494443791
 20
1879.926726405564
 30
0.0
 10
802.0304191002539
 20
1880.234886765226
 30
0.0
 10
801.9500075280458
 20
1880.531305788221
 30
0.0
 10
801.8677212704412
 20
1880.814651785128
 30
0.0
 10
801.7814740936193
 20
1881.083887598056
 30
0.0
 10
801.6953599149701
 20
1881.338847837167
 30
0.0
 10
801.6133543264606
 20
1881.579244750528
 30
0.0
 10
801.533726070539
 20
1881.804049727972
 30
0.0
 10
801.4543681429049
 20
1882.012187347645
 30
0.0
 10
801.3790075090662
 20
1882.203290896549
 30
0.0
 10
801.3110445389413
 20
1882.376802292986
 30
0.0
 10
801.249352014998
 20
1882.532047656562
 30
0.0
 10
801.1725552348449
 20
1882.713555988633
 30
0.0
 10
801.0655249522651
 20
1882.962029766414
 30
0.0
 10
801.0296891702701
 20
1883.050000000009
 30
0.0
 10
801.0269860253846
 20
1883.050000000009
 30
0.0
  0
LINE
  5
1AD
330
87
100
AcDbEntity
  8
P-SANR-FIXT
100
AcDbLine
 10
793.6664074431882
 20
1883.050000000009
 30
0.0
 11
793.6664074431882
 21
1870.14999999995
 31
0.0
  0
LINE
  5
1AE
330
87
100
AcDbEntity
  8
P-SANR-FIXT
100
AcDbLine
 10
801.0269860253846
 20
1889.89999999998
 30
0.0
 11
830.3058288609911
 21
1889.89999999998
 31
0.0
  0
LINE
  5
1AF
330
87
100
AcDbEntity
  8
P-SANR-FIXT
100
AcDbLine
 10
801.6584794822716
 20
1876.380578582177
 30
0.0
 11
831.0864074431881
 21
1876.380578582177
 31
0.0
  0
LINE
  5
1B0
330
87
100
AcDbEntity
  8
P-SANR-FIXT
100
AcDbLine
 10
800.2464074431873
 20
1866.099999999964
 30
0.0
 11
831.0864074431881
 21
1866.099999999964
 31
0.0
  0
LINE
  5
1B1
330
87
100
AcDbEntity
  8
P-SANR-FIXT
100
AcDbLine
 10
801.1664074431884
 20
1864.599999999964
 30
0.0
 11
830.1664074431872
 21
1864.599999999964
 31
0.0
  0
LINE
  5
1B2
330
87
100
AcDbEntity
  8
P-SANR-FIXT
100
AcDbLine
 10
802.216407443187
 20
1861.599999999964
 30
0.0
 11
829.1164074431886
 21
1861.599999999964
 31
0.0
  0
LINE
  5
1B3
330
87
100
AcDbEntity
  8
P-SANR-FIXT
100
AcDbLine
 10
800.8664074432003
 20
1859.599999999992
 30
0.0
 11
830.4664074431753
 21
1859.599999999992
 31
0.0
  0
LINE
  5
1B4
330
87
100
AcDbEntity
  8
P-SANR-FIXT
100
AcDbLine
 10
800.8664074432003
 20
1850.599999999992
 30
0.0
 11
830.4664074431753
 21
1850.599999999992
 31
0.0
  0
LINE
  5
1B5
330
87
100
AcDbEntity
  8
P-SANR-FIXT
100
AcDbLine
 10
808.1664074431872
 20
1827.599999999995
 30
0.0
 11
823.1664074431884
 21
1827.599999999995
 31
0.0
  0
LINE
  5
1B6
330
87
100
AcDbEntity
  8
P-SANR-FIXT
100
AcDbLine
 10
804.8834758828833
 20
2052.870000000116
 30
0.0
 11
806.5664074431897
 21
2051.898359010746
 31
0.0
  0
LINE
  5
1B7
330
87
100
AcDbEntity
  8
P-SANR-FIXT
100
AcDbLine
 10
824.766407443189
 20
2051.898359010746
 30
0.0
 11
826.4493390034953
 21
2052.870000000116
 31
0.0
  0
LINE
  5
1B8
330
87
100
AcDbEntity
  8
P-SANR-FIXT
100
AcDbLine
 10
806.5664074431897
 20
2051.898359010746
 30
0.0
 11
806.5664074431897
 21
2051.100000000056
 31
0.0
  0
LINE
  5
1B9
330
87
100
AcDbEntity
  8
P-SANR-FIXT
100
AcDbLine
 10
824.766407443189
 20
2051.100000000056
 30
0.0
 11
824.766407443189
 21
2051.898359010746
 31
0.0
  0
LINE
  5
1BA
330
87
100
AcDbEntity
  8
P-SANR-FIXT
100
AcDbLine
 10
801.6664074431895
 20
2051.100000000056
 30
0.0
 11
801.6664074431895
 21
2050.100000000056
 31
0.0
  0
LINE
  5
1BB
330
87
100
AcDbEntity
  8
P-SANR-FIXT
100
AcDbLine
 10
829.6664074431891
 20
2050.100000000056
 30
0.0
 11
829.6664074431891
 21
2051.100000000056
 31
0.0
  0
LINE
  5
1BC
330
87
100
AcDbEntity
  8
P-SANR-FIXT
100
AcDbLine
 10
773.6664074431894
 20
2050.100000000056
 30
0.0
 11
773.6664074431894
 21
2029.700000000056
 31
0.0
  0
LINE
  5
1BD
330
87
100
AcDbEntity
  8
P-SANR-FIXT
100
AcDbLine
 10
857.6664074431892
 20
2029.700000000056
 30
0.0
 11
857.6664074431892
 21
2050.100000000056
 31
0.0
  0
LINE
  5
1BE
330
87
100
AcDbEntity
  8
P-SANR-FIXT
100
AcDbLine
 10
857.6664074431876
 20
2029.700000000055
 30
0.0
 11
773.6664074431878
 21
2029.700000000055
 31
0.0
  0
LINE
  5
1BF
330
87
100
AcDbEntity
  8
P-SANR-FIXT
100
AcDbLine
 10
806.5664074431881
 20
2051.898359010745
 30
0.0
 11
824.7664074431876
 21
2051.898359010745
 31
0.0
  0
LINE
  5
1C0
330
87
100
AcDbEntity
  8
P-SANR-FIXT
100
AcDbLine
 10
801.6664074431881
 20
2051.100000000055
 30
0.0
 11
829.6664074431875
 21
2051.100000000055
 31
0.0
  0
LINE
  5
1C1
330
87
100
AcDbEntity
  8
P-SANR-FIXT
100
AcDbLine
 10
773.6664074431878
 20
2050.100000000055
 30
0.0
 11
857.6664074431876
 21
2050.100000000055
 31
0.0
  0
LINE
  5
1C2
330
87
100
AcDbEntity
  8
P-SANR-FIXT
100
AcDbLine
 10
789.1003818185139
 20
1915.265991874432
 30
0.0
 11
793.4653464081695
 21
1907.684737587135
 31
0.0
  0
LINE
  5
1C3
330
87
100
AcDbEntity
  8
P-SANR-FIXT
100
AcDbLine
 10
837.867468478209
 20
1907.684737587135
 30
0.0
 11
842.2324330678648
 21
1915.265991874432
 31
0.0
  0
LINE
  5
1C4
330
87
100
AcDbEntity
  8
P-SANR-FIXT
100
AcDbLine
 10
778.8828615332188
 20
2029.700000000056
 30
0.0
 11
781.1664074431893
 21
2028.381594154227
 31
0.0
  0
LINE
  5
1C5
330
87
100
AcDbEntity
  8
P-SANR-FIXT
100
AcDbLine
 10
850.1664074431893
 20
2028.381594154227
 30
0.0
 11
852.4499533531596
 21
2029.700000000056
 31
0.0
  0
LINE
  5
1C6
330
87
100
AcDbEntity
  8
P-SANR-FIXT
100
AcDbLine
 10
781.1664074431889
 20
2028.381594154227
 30
0.0
 11
781.1664074431889
 21
2025.499999999996
 31
0.0
  0
LINE
  5
1C7
330
87
100
AcDbEntity
  8
P-SANR-FIXT
100
AcDbLine
 10
781.1664074431889
 20
1974.499999999995
 30
0.0
 11
781.1664074431889
 21
1964.999999999995
 31
0.0
  0
LINE
  5
1C8
330
87
100
AcDbEntity
  8
P-SANR-FIXT
100
AcDbLine
 10
850.1664074431895
 20
1964.999999999995
 30
0.0
 11
850.1664074431895
 21
2028.381594154227
 31
0.0
  0
LWPOLYLINE
  5
1C9
330
87
100
AcDbEntity
  8
P-SANR-FIXT
100
AcDbPolyline
 90
       80
 70
   128
 43
0.0
 10
785.1664074431893
 20
1960.999999999996
 10
785.1908041900294
 20
1960.999999999996
 10
785.2639554009595
 20
1960.999999999996
 10
785.3857440496463
 20
1960.999999999996
 10
785.5559753002327
 20
1960.999999999996
 10
785.7743768190315
 20
1960.999999999996
 10
786.0405992102023
 20
1960.999999999996
 10
786.3542165747108
 20
1960.999999999996
 10
786.7147271916749
 20
1960.999999999996
 10
787.1215543210123
 20
1960.999999999996
 10
787.5740471261013
 20
1960.999999999996
 10
788.0714817149804
 20
1960.999999999996
 10
788.6130622984211
 20
1960.999999999996
 10
789.1979224630209
 20
1960.999999999996
 10
789.8251265572802
 20
1960.999999999996
 10
790.4936711884442
 20
1960.999999999996
 10
791.2024868277185
 20
1960.999999999996
 10
791.9504395212862
 20
1960.999999999996
 10
792.7363327043921
 20
1960.999999999996
 10
793.5589091155918
 20
1960.999999999996
 10
794.4168528081007
 20
1960.999999999996
 10
795.3087912550294
 20
1960.999999999996
 10
796.2332975451325
 20
1960.999999999996
 10
797.1888926655638
 20
1960.999999999996
 10
798.1740478679795
 20
1960.999999999996
 10
799.187187114211
 20
1960.999999999996
 10
800.2266895975896
 20
1960.999999999996
 10
801.2908923358905
 20
1960.999999999996
 10
802.3780928317497
 20
1960.999999999996
 10
803.486551796298
 20
1960.999999999996
 10
804.614495931651
 20
1960.999999999996
 10
805.7601207678068
 20
1960.999999999996
 10
806.9215935494149
 20
1960.999999999996
 10
808.0970561677919
 20
1960.999999999996
 10
809.284628133501
 20
1960.999999999996
 10
810.482409584732
 20
1960.999999999996
 10
811.688484326676
 20
1960.999999999996
 10
812.9009228970279
 20
1960.999999999996
 10
814.1177856527152
 20
1960.999999999996
 10
815.3371258729125
 20
1960.999999999996
 10
816.5569928733786
 20
1960.999999999996
 10
817.7754351271383
 20
1960.999999999996
 10
818.9905033865056
 20
1960.999999999996
 10
820.2002538014662
 20
1960.999999999996
 10
821.4027510294224
 20
1960.999999999996
 10
822.5960713313286
 20
1960.999999999996
 10
823.7783056492633
 20
1960.999999999996
 10
824.9475626605143
 20
1960.999999999996
 10
826.1019718032921
 20
1960.999999999996
 10
827.2396862692282
 20
1960.999999999996
 10
828.3588859578774
 20
1960.999999999996
 10
829.4577803884873
 20
1960.999999999996
 10
830.5346115643875
 20
1960.999999999996
 10
831.5876567854081
 20
1960.999999999996
 10
832.6152314038331
 20
1960.999999999996
 10
833.6156915194775
 20
1960.999999999996
 10
834.5874366095761
 20
1960.999999999996
 10
835.5289120892795
 20
1960.999999999996
 10
836.4386117986576
 20
1960.999999999996
 10
837.3150804122342
 20
1960.999999999996
 10
838.1569157671973
 20
1960.999999999996
 10
838.9627711065616
 20
1960.999999999996
 10
839.7313572336901
 20
1960.999999999996
 10
840.4614445747361
 20
1960.999999999996
 10
841.1518651456972
 20
1960.999999999996
 10
841.8015144209423
 20
1960.999999999996
 10
842.4093531002151
 20
1960.999999999996
 10
842.974408771294
 20
1960.999999999996
 10
843.4957774656441
 20
1960.999999999996
 10
843.972625104574
 20
1960.999999999996
 10
844.4041888335835
 20
1960.999999999996
 10
844.7897782427681
 20
1960.999999999996
 10
845.1287764713276
 20
1960.999999999996
 10
845.4206411944124
 20
1960.999999999996
 10
845.6649054907266
 20
1960.999999999996
 10
845.861178589503
 20
1960.999999999996
 10
846.0091464956528
 20
1960.999999999996
 10
846.1085724920913
 20
1960.999999999996
 10
846.1592975184334
 20
1960.999999999996
 10
846.1664074431894
 20
1960.999999999996
  0
LWPOLYLINE
  5
1CA
330
87
100
AcDbEntity
  8
P-SANR-FIXT
100
AcDbPolyline
 90
       41
 70
   128
 43
0.0
 10
850.1664074431893
 20
1964.999999999995
 10
850.1632078698333
 20
1964.840042663249
 10
850.1536142683997
 20
1964.680341224119
 10
850.1376419866048
 20
1964.52115117084
 10
850.1153165766918
 20
1964.362727173539
 10
850.0866737545543
 20
1964.205322676815
 10
850.0517593425975
 20
1964.049189494287
 10
850.0106291964325
 20
1963.894577405739
 10
849.963349115519
 20
1963.741733757531
 10
849.9099947379011
 20
1963.590903066895
 10
849.8506514192008
 20
1963.442326630761
 10
849.7854140960692
 20
1963.296242139731
 10
849.7143871343064
 20
1963.15288329783
 10
849.6376841618999
 20
1963.012479448621
 10
849.5554278872431
 20
1962.875255208312
 10
849.4677499028281
 20
1962.741430106415
 10
849.3747904747264
 20
1962.611218234546
 10
849.2766983181931
 20
1962.484827903922
 10
849.1736303597528
 20
1962.36246131211
 10
849.0657514861531
 20
1962.244314219553
 10
848.9532342805782
 20
1962.130575636398
 10
848.8362587465546
 20
1962.021427520112
 10
848.7150120199837
 20
1961.9170444844
 10
848.5896880697632
 20
1961.81759351985
 10
848.4604873874792
 20
1961.723233726791
 10
848.327616666662
 20
1961.634116060764
 10
848.1912884721205
 20
1961.550383091022
 10
848.0517208998843
 20
1961.472168772456
 10
847.9091372282962
 20
1961.39959823129
 10
847.7637655608145
 20
1961.332787564909
 10
847.6158384610959
 20
1961.271843656127
 10
847.4655925809443
 20
1961.216864002198
 10
847.3132682817173
 20
1961.167936558839
 10
847.1591092497989
 20
1961.125139599522
 10
847.003362106755
 20
1961.088541590254
 10
846.8462760147904
 20
1961.058201080042
 10
846.688102278142
 20
1961.034166607229
 10
846.5290939410467
 20
1961.016476621845
 10
846.3695053829237
 20
1961.005159424093
 10
846.2095919114224
 20
1961.000233119076
 10
846.1664074431894
 20
1960.999999999996
  0
LWPOLYLINE
  5
1CB
330
87
100
AcDbEntity
  8
P-SANR-FIXT
100
AcDbPolyline
 90
       41
 70
   128
 43
0.0
 10
785.1664074431893
 20
1960.999999999996
 10
785.0064501064426
 20
1961.003199573352
 10
784.8467486673126
 20
1961.012793174785
 10
784.6875586140336
 20
1961.02876545658
 10
784.5291346167323
 20
1961.051090866493
 10
784.3717301200089
 20
1961.079733688631
 10
784.2155969374807
 20
1961.114648100587
 10
784.0609848489328
 20
1961.155778246752
 10
783.9081412007248
 20
1961.203058327666
 10
783.7573105100889
 20
1961.256412705284
 10
783.6087340739546
 20
1961.315756023984
 10
783.4626495829252
 20
1961.380993347116
 10
783.3192907410232
 20
1961.452020308879
 10
783.1788868918143
 20
1961.528723281285
 10
783.0416626515058
 20
1961.610979555942
 10
782.9078375496091
 20
1961.698657540357
 10
782.7776256777397
 20
1961.791616968459
 10
782.6512353471153
 20
1961.889709124992
 10
782.5288687553034
 20
1961.992777083432
 10
782.4107216627472
 20
1962.100655957032
 10
782.2969830795912
 20
1962.213173162607
 10
782.1878349633059
 20
1962.330148696631
 10
782.0834519275933
 20
1962.451395423201
 10
781.9840009630439
 20
1962.576719373422
 10
781.8896411699851
 20
1962.705920055706
 10
781.8005235039577
 20
1962.838790776523
 10
781.7167905342158
 20
1962.975118971065
 10
781.6385762156495
 20
1963.114686543301
 10
781.5660056744832
 20
1963.257270214889
 10
781.4991950081022
 20
1963.402641882371
 10
781.4382510993204
 20
1963.550568982089
 10
781.383271445391
 20
1963.700814862241
 10
781.3343440020324
 20
1963.853139161468
 10
781.2915470427161
 20
1964.007298193386
 10
781.254949033448
 20
1964.16304533643
 10
781.2246085232353
 20
1964.320131428395
 10
781.2005740504226
 20
1964.478305165043
 10
781.1828840650386
 20
1964.637313502138
 10
781.1715668672869
 20
1964.796902060261
 10
781.1666405622694
 20
1964.956815531763
 10
781.1664074431893
 20
1964.999999999995
  0
LWPOLYLINE
  5
1CC
330
87
100
AcDbEntity
  8
P-SANR-FIXT
100
AcDbPolyline
 90
        4
 70
   128
 43
0.0
 10
846.1664074431894
 20
1960.999999999996
 10
846.1420106963492
 20
1960.999999999996
 10
846.0688594854191
 20
1960.999999999996
 10
846.0441929441785
 20
1960.999999999996
  0
LWPOLYLINE
  5
1CD
330
87
100
AcDbEntity
  8
P-SANR-FIXT
100
AcDbPolyline
 90
        4
 70
   128
 43
0.0
 10
785.2934142951556
 20
1960.999999999996
 10
785.2242423942873
 20
1960.999999999996
 10
785.173517367945
 20
1960.999999999996
 10
785.1664074431893
 20
1960.999999999996
  0
LWPOLYLINE
  5
1CE
330
87
100
AcDbEntity
  8
P-SANR-FIXT
100
AcDbPolyline
 90
       15
 70
   128
 43
0.0
 10
844.1664074431892
 20
1922.500976325003
 10
844.1548089897734
 20
1921.921130979296
 10
844.1200321845771
 20
1921.34221326245
 10
844.0621326630704
 20
1920.765149319313
 10
843.9812030521357
 20
1920.190862329096
 10
843.8773728218873
 20
1919.620271028474
 10
843.7508080785436
 20
1919.054288241809
 10
843.6017112986954
 20
1918.493819420823
 10
843.4303210053846
 20
1917.939761196069
 10
843.2369113865192
 20
1917.392999942514
 10
843.0217918562311
 20
1916.854410361527
 10
842.7853065598785
 20
1916.324854081545
 10
842.5278338234889
 20
1915.805178279651
 10
842.2497855485151
 20
1915.296214326268
 10
842.2324330678648
 20
1915.265991874432
  0
LWPOLYLINE
  5
1CF
330
87
100
AcDbEntity
  8
P-SANR-FIXT
100
AcDbPolyline
 90
       15
 70
   128
 43
0.0
 10
789.1003818185139
 20
1915.265991874432
 10
788.8211110876802
 20
1915.774286088405
 10
788.5623900908313
 20
1916.293341571806
 10
788.3246327263718
 20
1916.822327946587
 10
788.1082193553655
 20
1917.360398947393
 10
787.9134961930408
 20
1917.906693775405
 10
787.7407747549183
 20
1918.460338475435
 10
787.5903313584537
 20
1919.020447334068
 10
787.4624066809887
 20
1919.586124296614
 10
787.3572053747181
 20
1920.156464400602
 10
787.27489573929
 20
1920.730555223534
 10
787.2156094525627
 20
1921.307478342558
 10
787.179441359948
 20
1921.886310803755
 10
787.1664493226785
 20
1922.466126598665
 10
787.1664074431894
 20
1922.500976325003
  0
LWPOLYLINE
  5
1D0
330
87
100
AcDbEntity
  8
P-SANR-FIXT
100
AcDbPolyline
 90
       15
 70
   128
 43
0.0
 10
837.8674684782094
 20
1907.684737587135
 10
837.4052272685533
 20
1906.843423026077
 10
836.9769994117001
 20
1905.984296708724
 10
836.5834699808704
 20
1905.108733053914
 10
836.2252685392052
 20
1904.218132776717
 10
835.9029681325987
 20
1903.313920647594
 10
835.6170843729476
 20
1902.397543213061
 10
835.3680746132821
 20
1901.470466481531
 10
835.1563372160988
 20
1900.534173578008
 10
834.9822109160644
 20
1899.590162371406
 10
834.8459742781145
 20
1898.639943078277
 10
834.7478452518071
 20
1897.685035846789
 10
834.6879808226516
 20
1896.726968324808
 10
834.666476760964
 20
1895.767273215992
 10
834.6664074431894
 20
1895.709590910329
  0
LWPOLYLINE
  5
1D1
330
87
100
AcDbEntity
  8
P-SANR-FIXT
100
AcDbPolyline
 90
       15
 70
   128
 43
0.0
 10
796.6664074431893
 20
1895.709590910329
 10
796.6472100030528
 20
1896.669334930808
 10
796.5896483944523
 20
1897.627543565589
 10
796.4938147036821
 20
1898.582683885263
 10
796.3598622442043
 20
1899.533227869071
 10
796.1880053113791
 20
1900.47765484941
 10
795.978518839638
 20
1901.41445394458
 10
795.7317379626478
 20
1902.342126475868
 10
795.4480574771679
 20
1903.259188365116
 10
795.1279312114597
 20
1904.164172508931
 10
794.7718712992585
 20
1905.055631125737
 10
794.3804473604683
 20
1905.932138071913
 10
793.9542855898921
 20
1906.792291123325
 10
793.4940677554528
 20
1907.634714218579
 10
793.4653464081693
 20
1907.684737587135
  0
LINE
  5
1D2
330
87
100
AcDbEntity
  8
P-SANR-FIXT
100
AcDbLine
 10
796.6664074431893
 20
1895.709590910328
 30
0.0
 11
796.6664074431893
 21
1892.199999999996
 31
0.0
  0
LINE
  5
1D3
330
87
100
AcDbEntity
  8
P-SANR-FIXT
100
AcDbLine
 10
834.6664074431894
 20
1892.199999999996
 30
0.0
 11
834.6664074431894
 21
1895.709590910328
 31
0.0
  0
LINE
  5
1D4
330
87
100
AcDbEntity
  8
P-SANR-FIXT
100
AcDbLine
 10
768.2106101161894
 20
1970.999999999996
 30
0.0
 11
769.7035030800566
 21
1970.999999999996
 31
0.0
  0
LINE
  5
1D5
330
87
100
AcDbEntity
  8
P-SANR-FIXT
100
AcDbLine
 10
769.7035030800565
 20
2028.999999999996
 30
0.0
 11
768.2106101161894
 21
2028.999999999996
 31
0.0
  0
LINE
  5
1D6
330
87
100
AcDbEntity
  8
P-SANR-FIXT
100
AcDbLine
 10
769.7035030800566
 20
1970.999999999995
 30
0.0
 11
769.7427892548731
 21
1971.068045650812
 31
0.0
  0
LINE
  5
1D7
330
87
100
AcDbEntity
  8
P-SANR-FIXT
100
AcDbLine
 10
769.7551166478278
 20
1971.089397321735
 30
0.0
 11
771.4932889145445
 21
1974.099999999995
 31
0.0
  0
LINE
  5
1D8
330
87
100
AcDbEntity
  8
P-SANR-FIXT
100
AcDbLine
 10
771.4932889145442
 20
2025.899999999996
 30
0.0
 11
769.7551166478277
 21
2028.910602678257
 31
0.0
  0
LINE
  5
1D9
330
87
100
AcDbEntity
  8
P-SANR-FIXT
100
AcDbLine
 10
769.7427892548731
 20
2028.931954349179
 30
0.0
 11
769.7035030800565
 21
2028.999999999996
 31
0.0
  0
LWPOLYLINE
  5
1DA
330
87
100
AcDbEntity
  8
P-SANR-FIXT
100
AcDbPolyline
 90
       28
 70
   128
 43
0.0
 10
771.4932889145442
 20
2025.899999999996
 10
771.5098388305805
 20
2025.872614533902
 10
771.5274706350044
 20
2025.845912793385
 10
771.5461561206906
 20
2025.81993749553
 10
771.5658653948477
 20
2025.794730195275
 10
771.5865669268413
 20
2025.770331218922
 10
771.6082275986369
 20
2025.746779599629
 10
771.6308127577796
 20
2025.724113014963
 10
771.6542862728332
 20
2025.702367726623
 10
771.6786105911808
 20
2025.681578522433
 10
771.7037467991023
 20
2025.661778660683
 10
771.7296546840265
 20
2025.64299981693
 10
771.7562927988645
 20
2025.625272033318
 10
771.7836185283155
 20
2025.608623670518
 10
771.8115881570411
 20
2025.593081362359
 10
771.8401569396021
 20
2025.578669973219
 10
771.8692791720403
 20
2025.565412558247
 10
771.8989082649969
 20
2025.553330326477
 10
771.928996818243
 20
2025.542442606905
 10
771.9594966965126
 20
2025.532766817558
 10
771.9903591065063
 20
2025.524318437634
 10
772.021534674952
 20
2025.517110982741
 10
772.0529735275903
 20
2025.511155983268
 10
772.0846253689639
 20
2025.506462965944
 10
772.1164395628789
 20
2025.503039438595
 10
772.1483652134107
 20
2025.500890878136
 10
772.1803512463301
 20
2025.500020721803
 10
772.1861092375718
 20
2025.499999999996
  0
LWPOLYLINE
  5
1DB
330
87
100
AcDbEntity
  8
P-SANR-FIXT
100
AcDbPolyline
 90
       28
 70
   128
 43
0.0
 10
772.186109237572
 20
1974.499999999995
 10
772.1541177702227
 20
1974.499360085324
 10
772.1221774823966
 20
1974.497441365037
 10
772.090339471741
 20
1974.494246908678
 10
772.0586546722807
 20
1974.489781826696
 10
772.027173772936
 20
1974.484053262268
 10
771.9959471364302
 20
1974.477070379877
 10
771.9650247187206
 20
1974.468844350644
 10
771.9344559890791
 20
1974.459388334461
 10
771.904289850952
 20
1974.448717458938
 10
771.874574563725
 20
1974.436848795198
 10
771.8453576655191
 20
1974.423801330571
 10
771.8166858971386
 20
1974.409595938219
 10
771.788605127297
 20
1974.394255343737
 10
771.7611602792352
 20
1974.377804088806
 10
771.7343952588561
 20
1974.360268491923
 10
771.708352884482
 20
1974.341676606303
 10
771.6830748183572
 20
1974.322058174996
 10
771.6586014999948
 20
1974.301444583308
 10
771.6349720814835
 20
1974.279868808588
 10
771.6122243648523
 20
1974.257365367473
 10
771.5903947415952
 20
1974.233970260668
 10
771.5695181344528
 20
1974.209720915354
 10
771.5496279415427
 20
1974.18465612531
 10
771.5307559829311
 20
1974.158815988853
 10
771.5129324497256
 20
1974.13224184469
 10
771.4961858557773
 20
1974.104976205781
 10
771.4932889145445
 20
1974.099999999995
  0
LINE
  5
1DC
330
87
100
AcDbEntity
  8
P-SANR-FIXT
100
AcDbLine
 10
772.186109237572
 20
1974.499999999995
 30
0.0
 11
781.1664074431889
 21
1974.499999999995
 31
0.0
  0
LINE
  5
1DD
330
87
100
AcDbEntity
  8
P-SANR-FIXT
100
AcDbLine
 10
781.1664074431889
 20
2025.499999999996
 30
0.0
 11
772.1861092375718
 21
2025.499999999996
 31
0.0
  0
LINE
  5
1DE
330
87
100
AcDbEntity
  8
P-SANR-FIXT
100
AcDbLine
 10
796.6664074431893
 20
1892.199999999996
 30
0.0
 11
797.1664074431893
 21
1891.699999999996
 31
0.0
  0
LINE
  5
1DF
330
87
100
AcDbEntity
  8
P-SANR-FIXT
100
AcDbLine
 10
834.1664074431893
 20
1891.699999999996
 30
0.0
 11
834.6664074431894
 21
1892.199999999996
 31
0.0
  0
LINE
  5
1E0
330
87
100
AcDbEntity
  8
P-SANR-FIXT
100
AcDbLine
 10
787.1664074431891
 20
1960.999999999996
 30
0.0
 11
787.1664074431891
 21
1922.500976325003
 31
0.0
  0
LINE
  5
1E1
330
87
100
AcDbEntity
  8
P-SANR-FIXT
100
AcDbLine
 10
844.1664074431894
 20
1922.500976325003
 30
0.0
 11
844.1664074431894
 21
1960.999999999996
 31
0.0
  0
LINE
  5
1E2
330
87
100
AcDbEntity
  8
P-SANR-FIXT
100
AcDbLine
 10
781.1664074431875
 20
2028.381594154227
 30
0.0
 11
850.166407443188
 21
2028.381594154227
 31
0.0
  0
SPLINE
  5
1E3
330
87
100
AcDbEntity
  8
P-SANR-FIXT
100
AcDbSpline
210
0.0
220
0.0
230
1.0
 70
     8
 71
     3
 72
    10
 73
     6
 74
     0
 42
0.000000001
 43
0.0000000001
 40
0.0
 40
0.0
 40
0.0
 40
0.0
 40
0.3333333333333333
 40
0.6666666666666666
 40
1.0
 40
1.0
 40
1.0
 40
1.0
 10
781.1664074431875
 20
2025.499999999995
 30
0.0
 10
781.1664074431875
 20
2025.490495222524
 30
0.0
 10
781.413645006482
 20
2025.172780254432
 30
0.0
 10
782.4620684191646
 20
2023.722909601152
 30
0.0
 10
783.498867693038
 20
2022.261827621586
 30
0.0
 10
784.0794265218468
 20
2021.394797585509
 30
0.0
  0
SPLINE
  5
1E4
330
87
100
AcDbEntity
  8
P-SANR-FIXT
100
AcDbSpline
210
0.0
220
0.0
230
1.0
 70
     8
 71
     3
 72
    29
 73
    25
 74
     0
 42
0.000000001
 43
0.0000000001
 40
0.0
 40
0.0
 40
0.0
 40
0.0
 40
0.125
 40
0.1875
 40
0.25
 40
0.265625
 40
0.28125
 40
0.3125
 40
0.34375
 40
0.375
 40
0.40625
 40
0.4375
 40
0.5
 40
0.5625
 40
0.59375
 40
0.625
 40
0.65625
 40
0.6875
 40
0.71875
 40
0.75
 40
0.78125
 40
0.8125
 40
0.875
 40
1.0
 40
1.0
 40
1.0
 40
1.0
 10
784.0794265218468
 20
2021.394797585509
 30
0.0
 10
784.8629421686678
 20
2020.231419284587
 30
0.0
 10
786.1623570030041
 20
2018.244508766237
 30
0.0
 10
787.9936340645437
 20
2015.087086099419
 30
0.0
 10
788.9955158441527
 20
2013.134223016979
 30
0.0
 10
789.6173245836892
 20
2011.764472876954
 30
0.0
 10
790.0307154179459
 20
2010.828745921328
 30
0.0
 10
790.5293972854742
 20
2009.622846763598
 30
0.0
 10
791.0756136392986
 20
2008.123192804353
 30
0.0
 10
791.5295404459635
 20
2006.589440284873
 30
0.0
 10
791.8963178555161
 20
2004.99600515636
 30
0.0
 10
792.2883789965377
 20
2002.78201586948
 30
0.0
 10
792.5217852347944
 20
2000.000916399084
 30
0.0
 10
792.2888020062964
 20
1997.2205702858
 30
0.0
 10
791.8970611881709
 20
1995.007347239755
 30
0.0
 10
791.530581471242
 20
1993.414354036534
 30
0.0
 10
791.0768476406881
 20
1991.880826885487
 30
0.0
 10
790.531408319407
 20
1990.381618349142
 30
0.0
 10
789.9316257421782
 20
1988.934082267023
 30
0.0
 10
789.3107645289953
 20
1987.547531561902
 30
0.0
 10
788.6676777077727
 20
1986.220941546564
 30
0.0
 10
787.7653525071869
 20
1984.522161597893
 30
0.0
 10
786.1665742267672
 20
1981.76029674509
 30
0.0
 10
784.8639540778482
 20
1979.770584792753
 30
0.0
 10
784.0794265218468
 20
1978.605202414479
 30
0.0
  0
SPLINE
  5
1E5
330
87
100
AcDbEntity
  8
P-SANR-FIXT
100
AcDbSpline
210
0.0
220
0.0
230
1.0
 70
     8
 71
     3
 72
    10
 73
     6
 74
     0
 42
0.000000001
 43
0.0000000001
 40
0.0
 40
0.0
 40
0.0
 40
0.0
 40
0.3333333333333333
 40
0.6666666666666666
 40
1.0
 40
1.0
 40
1.0
 40
1.0
 10
784.0794265218468
 20
1978.605202414479
 30
0.0
 10
783.498867693038
 20
1977.738172378403
 30
0.0
 10
782.4620684191646
 20
1976.277090398837
 30
0.0
 10
781.413645006482
 20
1974.827219745558
 30
0.0
 10
781.1664074431875
 20
1974.509504777465
 30
0.0
 10
781.1664074431875
 20
1974.499999999995
 30
0.0
  0
LINE
  5
1E6
330
87
100
AcDbEntity
  8
P-SANR-FIXT
100
AcDbLine
 10
796.6664074431878
 20
1892.199999999995
 30
0.0
 11
834.6664074431878
 21
1892.199999999995
 31
0.0
  0
LINE
  5
1E7
330
87
100
AcDbEntity
  8
P-SANR-FIXT
100
AcDbLine
 10
834.1664074431879
 20
1891.699999999995
 30
0.0
 11
797.1664074431878
 21
1891.699999999995
 31
0.0
  0
LINE
  5
1E8
330
87
100
AcDbEntity
  8
P-SANR-FIXT
100
AcDbLine
 10
769.7035030800551
 20
1970.999999999994
 30
0.0
 11
769.703503080055
 21
2028.999999999995
 31
0.0
  0
ENDBLK
  5
1EA
330
87
100
AcDbEntity
  8
0
100
AcDbBlockEnd
  0
BLOCK
  5
29D
330
1EC
100
AcDbEntity
  8
0
100
AcDbBlockBegin
  2
Automatic flow rate regulator valve_Caleffi_121 DN15 - 1_2__-V1-Est - Idraulica
 70
     0
 10
0.0
 20
0.0
 30
0.0
  3
Automatic flow rate regulator valve_Caleffi_121 DN15 - 1_2__-V1-Est - Idraulica
  1

  0
LINE
  5
1ED
330
1EC
100
AcDbEntity
  8
M-PIPE
100
AcDbLine
 10
735.393686036271
 20
1637.837580254595
 30
0.0
 11
744.6027412009639
 21
1631.389330408488
 31
0.0
1001
REVIT
1002
{
1070
     3
1000
790271
1002
}
  0
LINE
  5
1EE
330
1EC
100
AcDbEntity
  8
M-PIPE
100
AcDbLine
 10
744.6027412009645
 20
1676.102427051707
 30
0.0
 11
735.3938410412394
 21
1669.654285741247
 31
0.0
1001
REVIT
1002
{
1070
     3
1000
790271
1002
}
  0
LWPOLYLINE
  5
1EF
330
1EC
100
AcDbEntity
  8
M-PIPE
100
AcDbPolyline
 90
        9
 70
   128
 43
0.0
 10
747.4106101044202
 20
1629.940222791143
 10
747.225665948716
 20
1630.005644359394
 10
746.7854254022453
 20
1630.181482034154
 10
746.3525686327939
 20
1630.374783983864
 10
745.9277881188551
 20
1630.585240966641
 10
745.511763418636
 20
1630.812516296207
 10
745.1051600829099
 20
1631.056246380518
 10
744.7086285902765
 20
1631.316041303431
 10
744.6027412009639
 20
1631.389330408488
1001
REVIT
1002
{
1070
     3
1000
790271
1002
}
  0
LWPOLYLINE
  5
1F0
330
1EC
100
AcDbEntity
  8
M-PIPE
100
AcDbPolyline
 90
        8
 70
   128
 43
0.0
 10
744.6027412009645
 20
1676.102427051707
 10
744.9964266097012
 20
1676.366514964285
 10
745.400357811892
 20
1676.614648417327
 10
745.8138886037817
 20
1676.846430450239
 10
746.2363574243179
 20
1677.061490261214
 10
746.6670884135098
 20
1677.25948380043
 10
747.105392493659
 20
1677.440094320463
 10
747.4106101044202
 20
1677.551806814419
1001
REVIT
1002
{
1070
     3
1000
790271
1002
}
  0
ARC
  5
1F1
330
1EC
100
AcDbEntity
  8
M-PIPE
100
AcDbCircle
 10
728.163907443126
 20
1653.745878730097
 30
0.0
 40
16.49999999993662
100
AcDbArc
 50
315.998611919089
 51
344.0013880809051
1001
REVIT
1002
{
1070
     3
1000
790271
1002
}
  0
ARC
  5
1F2
330
1EC
100
AcDbEntity
  8
M-PIPE
100
AcDbCircle
 10
728.163907443126
 20
1653.745878730097
 30
0.0
 40
16.49999999993661
100
AcDbArc
 50
255.9986119185631
 51
284.0013880814343
1001
REVIT
1002
{
1070
     3
1000
790271
1002
}
  0
ARC
  5
1F3
330
1EC
100
AcDbEntity
  8
M-PIPE
100
AcDbCircle
 10
728.163907443126
 20
1653.745878730097
 30
0.0
 40
16.49999999993671
100
AcDbArc
 50
195.9986119173337
 51
224.0013880826629
1001
REVIT
1002
{
1070
     3
1000
790271
1002
}
  0
ARC
  5
1F4
330
1EC
100
AcDbEntity
  8
M-PIPE
100
AcDbCircle
 10
728.163907443126
 20
1653.745878730097
 30
0.0
 40
16.49999999993672
100
AcDbArc
 50
135.9986119166381
 51
164.0013880833605
1001
REVIT
1002
{
1070
     3
1000
790271
1002
}
  0
ARC
  5
1F5
330
1EC
100
AcDbEntity
  8
M-PIPE
100
AcDbCircle
 10
728.163907443126
 20
1653.745878730097
 30
0.0
 40
16.49999999993664
100
AcDbArc
 50
75.99861191716655
 51
104.001388082835
1001
REVIT
1002
{
1070
     3
1000
790271
1002
}
  0
ARC
  5
1F6
330
1EC
100
AcDbEntity
  8
M-PIPE
100
AcDbCircle
 10
728.163907443126
 20
1653.745878730097
 30
0.0
 40
16.49999999993662
100
AcDbArc
 50
15.99861191839392
 51
44.00138808160778
1001
REVIT
1002
{
1070
     3
1000
790271
1002
}
  0
LWPOLYLINE
  5
1F7
330
1EC
100
AcDbEntity
  8
M-PIPE
100
AcDbPolyline
 90
        3
 70
   128
 43
0.0
 10
735.5246493856979
 20
1669.745878730098
 10
735.0880469626368
 20
1669.745878730098
 10
734.5147604042765
 20
1669.745878730098
1001
REVIT
1002
{
1070
     3
1000
790271
1002
}
  0
LWPOLYLINE
  5
1F8
330
1EC
100
AcDbEntity
  8
M-PIPE
100
AcDbPolyline
 90
        3
 70
   128
 43
0.0
 10
734.5147604042759
 20
1637.745878730098
 10
734.9208845590343
 20
1637.745878730098
 10
735.5246493856977
 20
1637.745878730098
1001
REVIT
1002
{
1070
     3
1000
790271
1002
}
  0
ARC
  5
1F9
330
1EC
100
AcDbEntity
  8
M-PIPE
100
AcDbCircle
 10
728.1639074430634
 20
1653.745878730097
 30
0.0
 40
16.49999999987367
100
AcDbArc
 50
329.9635508784161
 51
331.8749999999987
1001
REVIT
1002
{
1070
     3
1000
790271
1002
}
  0
ARC
  5
1FA
330
1EC
100
AcDbEntity
  8
M-PIPE
100
AcDbCircle
 10
728.1639074430634
 20
1653.745878730097
 30
0.0
 40
16.49999999987382
100
AcDbArc
 50
324.9650345961407
 51
326.2499999999989
1001
REVIT
1002
{
1070
     3
1000
790271
1002
}
  0
ARC
  5
1FB
330
1EC
100
AcDbEntity
  8
M-PIPE
100
AcDbCircle
 10
728.1639074430634
 20
1653.745878730097
 30
0.0
 40
16.49999999987372
100
AcDbArc
 50
319.9756283838897
 51
320.6249999999991
1001
REVIT
1002
{
1070
     3
1000
790271
1002
}
  0
ARC
  5
1FC
330
1EC
100
AcDbEntity
  8
M-PIPE
100
AcDbCircle
 10
728.1639074430634
 20
1653.745878730097
 30
0.0
 40
16.49999999987367
100
AcDbArc
 50
280.0075140750096
 51
281.2499999999987
1001
REVIT
1002
{
1070
     3
1000
790271
1002
}
  0
ARC
  5
1FD
330
1EC
100
AcDbEntity
  8
M-PIPE
100
AcDbCircle
 10
728.1639074430634
 20
1653.745878730097
 30
0.0
 40
16.49999999987372
100
AcDbArc
 50
275.0016869634251
 51
275.6249999999988
1001
REVIT
1002
{
1070
     3
1000
790271
1002
}
  0
ARC
  5
1FE
330
1EC
100
AcDbEntity
  8
M-PIPE
100
AcDbCircle
 10
728.1639074430634
 20
1653.745878730097
 30
0.0
 40
16.49999999987378
100
AcDbArc
 50
264.3749999999989
 51
264.9983130370066
1001
REVIT
1002
{
1070
     3
1000
790271
1002
}
  0
ARC
  5
1FF
330
1EC
100
AcDbEntity
  8
M-PIPE
100
AcDbCircle
 10
728.1639074430634
 20
1653.745878730097
 30
0.0
 40
16.49999999987372
100
AcDbArc
 50
258.7499999999993
 51
259.992485925421
1001
REVIT
1002
{
1070
     3
1000
790271
1002
}
  0
ARC
  5
200
330
1EC
100
AcDbEntity
  8
M-PIPE
100
AcDbCircle
 10
728.1639074430634
 20
1653.745878730097
 30
0.0
 40
16.49999999987376
100
AcDbArc
 50
219.3749999999989
 51
220.0243716162538
1001
REVIT
1002
{
1070
     3
1000
790271
1002
}
  0
ARC
  5
201
330
1EC
100
AcDbEntity
  8
M-PIPE
100
AcDbCircle
 10
728.1639074430634
 20
1653.745878730097
 30
0.0
 40
16.49999999987386
100
AcDbArc
 50
213.7499999999999
 51
215.0349654039851
1001
REVIT
1002
{
1070
     3
1000
790271
1002
}
  0
ARC
  5
202
330
1EC
100
AcDbEntity
  8
M-PIPE
100
AcDbCircle
 10
728.1639074430634
 20
1653.745878730097
 30
0.0
 40
16.49999999987378
100
AcDbArc
 50
208.1249999999994
 51
210.0364491216923
1001
REVIT
1002
{
1070
     3
1000
790271
1002
}
  0
ARC
  5
203
330
1EC
100
AcDbEntity
  8
M-PIPE
100
AcDbCircle
 10
728.1639074430634
 20
1653.745878730097
 30
0.0
 40
16.4999999998737
100
AcDbArc
 50
200.0245229163292
 51
205.0321276962449
1001
REVIT
1002
{
1070
     3
1000
790271
1002
}
  0
ARC
  5
204
330
1EC
100
AcDbEntity
  8
M-PIPE
100
AcDbCircle
 10
728.1639074430634
 20
1653.745878730097
 30
0.0
 40
16.49999999987379
100
AcDbArc
 50
196.0024470274742
 51
196.8749999999991
1001
REVIT
1002
{
1070
     3
1000
790271
1002
}
  0
ARC
  5
205
330
1EC
100
AcDbEntity
  8
M-PIPE
100
AcDbCircle
 10
728.1639074430634
 20
1653.745878730097
 30
0.0
 40
16.49999999987376
100
AcDbArc
 50
163.124999999999
 51
163.9975529730741
1001
REVIT
1002
{
1070
     3
1000
790271
1002
}
  0
ARC
  5
206
330
1EC
100
AcDbEntity
  8
M-PIPE
100
AcDbCircle
 10
728.1639074430634
 20
1653.745878730097
 30
0.0
 40
16.49999999987367
100
AcDbArc
 50
154.967872303753
 51
159.9754770836693
1001
REVIT
1002
{
1070
     3
1000
790271
1002
}
  0
ARC
  5
207
330
1EC
100
AcDbEntity
  8
M-PIPE
100
AcDbCircle
 10
728.1639074430634
 20
1653.745878730097
 30
0.0
 40
16.49999999987377
100
AcDbArc
 50
149.9635508783061
 51
151.8749999999993
1001
REVIT
1002
{
1070
     3
1000
790271
1002
}
  0
ARC
  5
208
330
1EC
100
AcDbEntity
  8
M-PIPE
100
AcDbCircle
 10
728.1639074430634
 20
1653.745878730097
 30
0.0
 40
16.49999999987382
100
AcDbArc
 50
144.9650345960135
 51
146.2499999999994
1001
REVIT
1002
{
1070
     3
1000
790271
1002
}
  0
ARC
  5
209
330
1EC
100
AcDbEntity
  8
M-PIPE
100
AcDbCircle
 10
728.1639074430634
 20
1653.745878730097
 30
0.0
 40
16.49999999987374
100
AcDbArc
 50
139.9756283837438
 51
140.6249999999998
1001
REVIT
1002
{
1070
     3
1000
790271
1002
}
  0
ARC
  5
20A
330
1EC
100
AcDbEntity
  8
M-PIPE
100
AcDbCircle
 10
728.1639074430634
 20
1653.745878730097
 30
0.0
 40
16.4999999998737
100
AcDbArc
 50
100.0075140745769
 51
101.2499999999993
1001
REVIT
1002
{
1070
     3
1000
790271
1002
}
  0
ARC
  5
20B
330
1EC
100
AcDbEntity
  8
M-PIPE
100
AcDbCircle
 10
728.1639074430634
 20
1653.745878730097
 30
0.0
 40
16.49999999987372
100
AcDbArc
 50
95.00168696299153
 51
95.6249999999992
1001
REVIT
1002
{
1070
     3
1000
790271
1002
}
  0
ARC
  5
20C
330
1EC
100
AcDbEntity
  8
M-PIPE
100
AcDbCircle
 10
728.1639074430634
 20
1653.745878730097
 30
0.0
 40
16.49999999987366
100
AcDbArc
 50
84.37499999999959
 51
84.99831303657252
1001
REVIT
1002
{
1070
     3
1000
790271
1002
}
  0
ARC
  5
20D
330
1EC
100
AcDbEntity
  8
M-PIPE
100
AcDbCircle
 10
728.1639074430634
 20
1653.745878730097
 30
0.0
 40
16.49999999987376
100
AcDbArc
 50
78.74999999999925
 51
79.99248592498886
1001
REVIT
1002
{
1070
     3
1000
790271
1002
}
  0
ARC
  5
20E
330
1EC
100
AcDbEntity
  8
M-PIPE
100
AcDbCircle
 10
728.1639074430634
 20
1653.745878730097
 30
0.0
 40
16.49999999987376
100
AcDbArc
 50
39.37499999999906
 51
40.02437161610876
1001
REVIT
1002
{
1070
     3
1000
790271
1002
}
  0
ARC
  5
20F
330
1EC
100
AcDbEntity
  8
M-PIPE
100
AcDbCircle
 10
728.1639074430634
 20
1653.745878730097
 30
0.0
 40
16.4999999998737
100
AcDbArc
 50
33.74999999999945
 51
35.03496540385763
1001
REVIT
1002
{
1070
     3
1000
790271
1002
}
  0
ARC
  5
210
330
1EC
100
AcDbEntity
  8
M-PIPE
100
AcDbCircle
 10
728.1639074430634
 20
1653.745878730097
 30
0.0
 40
16.49999999987369
100
AcDbArc
 50
28.12499999999943
 51
30.03644912158206
1001
REVIT
1002
{
1070
     3
1000
790271
1002
}
  0
ARC
  5
211
330
1EC
100
AcDbEntity
  8
P-SANR-FIXT
100
AcDbCircle
 10
815.6664074431878
 20
1653.745878730054
 30
0.0
 40
11.37900423821907
100
AcDbArc
 50
180.0
 51
0.0
  0
ARC
  5
212
330
1EC
100
AcDbEntity
  8
P-SANR-FIXT
100
AcDbCircle
 10
815.6664074431878
 20
1653.745878730054
 30
0.0
 40
11.99999999999954
100
AcDbArc
 50
0.0
 51
180.0
  0
ARC
  5
213
330
1EC
100
AcDbEntity
  8
P-SANR-FIXT
100
AcDbCircle
 10
815.6664074431878
 20
1653.745878730054
 30
0.0
 40
11.37900423821907
100
AcDbArc
 50
0.0
 51
180.0
  0
ARC
  5
214
330
1EC
100
AcDbEntity
  8
P-SANR-FIXT
100
AcDbCircle
 10
815.6664074431878
 20
1653.745878730054
 30
0.0
 40
11.99999999999954
100
AcDbArc
 50
180.0
 51
0.0
  0
ARC
  5
215
330
1EC
100
AcDbEntity
  8
P-SANR-FIXT
100
AcDbCircle
 10
815.6664074431867
 20
1653.745878730054
 30
0.0
 40
13.40000000000054
100
AcDbArc
 50
26.4243920788235
 51
33.57560792117904
  0
LINE
  5
216
330
1EC
100
AcDbEntity
  8
P-SANR-FIXT
100
AcDbLine
 10
826.8307079766577
 20
1661.156573272292
 30
0.0
 11
816.5021069097155
 21
1667.119793878643
 31
0.0
  0
ARC
  5
217
330
1EC
100
AcDbEntity
  8
P-SANR-FIXT
100
AcDbCircle
 10
815.6664074431867
 20
1653.745878730054
 30
0.0
 40
13.4000000000005
100
AcDbArc
 50
86.42439207882269
 51
93.57560792117878
  0
LINE
  5
218
330
1EC
100
AcDbEntity
  8
P-SANR-FIXT
100
AcDbLine
 10
814.8307079766572
 20
1667.119793878643
 30
0.0
 11
804.5021069097156
 21
1661.156573272291
 31
0.0
  0
ARC
  5
219
330
1EC
100
AcDbEntity
  8
P-SANR-FIXT
100
AcDbCircle
 10
815.6664074431867
 20
1653.745878730054
 30
0.0
 40
13.40000000000047
100
AcDbArc
 50
146.4243920788238
 51
153.5756079211811
  0
LINE
  5
21A
330
1EC
100
AcDbEntity
  8
P-SANR-FIXT
100
AcDbLine
 10
803.6664074431865
 20
1659.709099336404
 30
0.0
 11
803.6664074431868
 21
1647.782658123702
 31
0.0
  0
ARC
  5
21B
330
1EC
100
AcDbEntity
  8
P-SANR-FIXT
100
AcDbCircle
 10
815.6664074431867
 20
1653.745878730054
 30
0.0
 40
13.40000000000049
100
AcDbArc
 50
206.4243920788245
 51
213.5756079211799
  0
LINE
  5
21C
330
1EC
100
AcDbEntity
  8
P-SANR-FIXT
100
AcDbLine
 10
804.5021069097161
 20
1646.335184187815
 30
0.0
 11
814.8307079766579
 21
1640.371963581465
 31
0.0
  0
ARC
  5
21D
330
1EC
100
AcDbEntity
  8
P-SANR-FIXT
100
AcDbCircle
 10
815.6664074431867
 20
1653.745878730054
 30
0.0
 40
13.40000000000059
100
AcDbArc
 50
266.4243920788243
 51
273.5756079211804
  0
LINE
  5
21E
330
1EC
100
AcDbEntity
  8
P-SANR-FIXT
100
AcDbLine
 10
816.5021069097166
 20
1640.371963581465
 30
0.0
 11
826.830707976658
 21
1646.335184187816
 31
0.0
  0
ARC
  5
21F
330
1EC
100
AcDbEntity
  8
P-SANR-FIXT
100
AcDbCircle
 10
815.6664074431867
 20
1653.745878730054
 30
0.0
 40
13.40000000000072
100
AcDbArc
 50
326.4243920788226
 51
333.5756079211798
  0
LINE
  5
220
330
1EC
100
AcDbEntity
  8
P-SANR-FIXT
100
AcDbLine
 10
827.6664074431874
 20
1647.782658123703
 30
0.0
 11
827.6664074431868
 21
1659.709099336405
 31
0.0
  0
SPLINE
  5
221
330
1EC
100
AcDbEntity
  8
P-SANR-FIXT
100
AcDbSpline
210
0.0
220
0.0
230
1.0
 70
    24
 71
     3
 72
     8
 73
     4
 74
     0
 42
0.000000001
 43
0.0000000001
 40
0.9717599534747371
 40
0.9717599534747371
 40
0.9717599534747371
 40
0.9717599534747371
 40
1.0
 40
1.0
 40
1.0
 40
1.0
 10
721.8120107639435
 20
1637.745878730054
 30
0.0
 10
721.7511971660967
 20
1637.745878730054
 30
0.0
 10
721.690404394272
 20
1637.745878730054
 30
0.0
 10
721.6296324484691
 20
1637.745878730054
 30
0.0
  0
SPLINE
  5
222
330
1EC
100
AcDbEntity
  8
P-SANR-FIXT
100
AcDbSpline
210
0.0
220
0.0
230
1.0
 70
     8
 71
     3
 72
    10
 73
     6
 74
     0
 42
0.000000001
 43
0.0000000001
 40
0.0
 40
0.0
 40
0.0
 40
0.0
 40
0.4
 40
0.7
 40
0.8353993938859021
 40
0.8353993938859021
 40
0.8353993938859021
 40
0.8353993938859021
 10
717.2995054295474
 20
1667.245878730053
 30
0.0
 10
717.6437258001864
 20
1667.842085901
 30
0.0
 10
718.4766689691716
 20
1668.775378725612
 30
0.0
 10
719.8078875432761
 20
1669.451433364955
 30
0.0
 10
720.5475498969307
 20
1669.633003237729
 30
0.0
 10
720.7795129178083
 20
1669.672993783057
 30
0.0
  0
SPLINE
  5
223
330
1EC
100
AcDbEntity
  8
P-SANR-FIXT
100
AcDbSpline
210
0.0
220
0.0
230
1.0
 70
     8
 71
     3
 72
    10
 73
     6
 74
     0
 42
0.000000001
 43
0.0000000001
 40
0.1645559737893823
 40
0.1645559737893823
 40
0.1645559737893823
 40
0.1645559737893823
 40
0.4
 40
0.7
 40
1.0
 40
1.0
 40
1.0
 40
1.0
 10
720.7805441982631
 20
1637.819097442156
 30
0.0
 10
720.3772558818484
 20
1637.888774096674
 30
0.0
 10
719.4729565002583
 20
1638.15979362591
 30
0.0
 10
718.220839383831
 20
1638.973971766795
 30
0.0
 10
717.5581960501485
 20
1639.797813431731
 30
0.0
 10
717.299505429547
 20
1640.245878730054
 30
0.0
  0
SPLINE
  5
224
330
1EC
100
AcDbEntity
  8
P-SANR-FIXT
100
AcDbSpline
210
0.0
220
0.0
230
1.0
 70
    24
 71
     3
 72
     8
 73
     4
 74
     0
 42
0.000000001
 43
0.0000000001
 40
0.0
 40
0.0
 40
0.0
 40
0.0
 40
0.0282400465252629
 40
0.0282400465252629
 40
0.0282400465252629
 40
0.0282400465252629
 10
721.6296324484696
 20
1669.745878730054
 30
0.0
 10
721.6904043942726
 20
1669.745878730054
 30
0.0
 10
721.7511971660973
 20
1669.745878730054
 30
0.0
 10
721.8120107639439
 20
1669.745878730054
 30
0.0
  0
SPLINE
  5
225
330
1EC
100
AcDbEntity
  8
P-SANR-FIXT
100
AcDbSpline
210
0.0
220
0.0
230
1.0
 70
    24
 71
     3
 72
     8
 73
     4
 74
     0
 42
0.000000001
 43
0.0000000001
 40
0.0
 40
0.0
 40
0.0
 40
0.0
 40
0.2447051047721673
 40
0.2447051047721673
 40
0.2447051047721673
 40
0.2447051047721673
 10
710.9486524684615
 20
1656.245878730054
 30
0.0
 10
711.4579826218344
 20
1657.128064433523
 30
0.0
 10
711.9694413571713
 20
1658.013936949101
 30
0.0
 10
712.4830286744725
 20
1658.90349627679
 30
0.0
  0
SPLINE
  5
226
330
1EC
100
AcDbEntity
  8
P-SANR-FIXT
100
AcDbSpline
210
0.0
220
0.0
230
1.0
 70
    24
 71
     3
 72
     8
 73
     4
 74
     0
 42
0.000000001
 43
0.0000000001
 40
0.7756840176646988
 40
0.7756840176646988
 40
0.7756840176646988
 40
0.7756840176646988
 40
1.0
 40
1.0
 40
1.0
 40
1.0
 10
715.856352195481
 20
1664.746264005543
 30
0.0
 10
716.3356146260225
 20
1665.5763708854
 30
0.0
 10
716.8166657040447
 20
1666.40957579357
 30
0.0
 10
717.2995054295474
 20
1667.245878730053
 30
0.0
  0
SPLINE
  5
227
330
1EC
100
AcDbEntity
  8
P-SANR-FIXT
100
AcDbSpline
210
0.0
220
0.0
230
1.0
 70
     8
 71
     3
 72
     9
 73
     5
 74
     0
 42
0.000000001
 43
0.0000000001
 40
0.0
 40
0.0
 40
0.0
 40
0.0
 40
0.5
 40
1.0
 40
1.0
 40
1.0
 40
1.0
 10
710.9486524684615
 20
1651.245878730054
 30
0.0
 10
710.7332080447252
 20
1651.619039418172
 30
0.0
 10
710.3965464413338
 20
1652.42622533055
 30
0.0
 10
710.2787794873836
 20
1653.304102951529
 30
0.0
 10
710.2787794873836
 20
1653.745878730054
 30
0.0
  0
SPLINE
  5
228
330
1EC
100
AcDbEntity
  8
P-SANR-FIXT
100
AcDbSpline
210
0.0
220
0.0
230
1.0
 70
     8
 71
     3
 72
     9
 73
     5
 74
     0
 42
0.000000001
 43
0.0000000001
 40
0.0
 40
0.0
 40
0.0
 40
0.0
 40
0.5
 40
1.0
 40
1.0
 40
1.0
 40
1.0
 10
710.2787794873836
 20
1653.745878730054
 30
0.0
 10
710.2787794873836
 20
1654.187654508579
 30
0.0
 10
710.3965464413338
 20
1655.065532129558
 30
0.0
 10
710.7332080447254
 20
1655.872718041935
 30
0.0
 10
710.9486524684615
 20
1656.245878730054
 30
0.0
  0
SPLINE
  5
229
330
1EC
100
AcDbEntity
  8
P-SANR-FIXT
100
AcDbSpline
210
0.0
220
0.0
230
1.0
 70
    24
 71
     3
 72
     8
 73
     4
 74
     0
 42
0.000000001
 43
0.0000000001
 40
0.0
 40
0.0
 40
0.0
 40
0.0
 40
0.2243159823568367
 40
0.2243159823568367
 40
0.2243159823568367
 40
0.2243159823568367
 10
717.299505429547
 20
1640.245878730054
 30
0.0
 10
716.816665703998
 20
1641.082181666618
 30
0.0
 10
716.3356146259298
 20
1641.915386574868
 30
0.0
 10
715.8563521953428
 20
1642.745493454803
 30
0.0
  0
SPLINE
  5
22A
330
1EC
100
AcDbEntity
  8
P-SANR-FIXT
100
AcDbSpline
210
0.0
220
0.0
230
1.0
 70
    24
 71
     3
 72
     8
 73
     4
 74
     0
 42
0.000000001
 43
0.0000000001
 40
0.7552948952180546
 40
0.7552948952180546
 40
0.7552948952180546
 40
0.7552948952180546
 40
1.0
 40
1.0
 40
1.0
 40
1.0
 10
712.4830286745338
 20
1648.588261183212
 30
0.0
 10
711.9694413572122
 20
1649.477820510936
 30
0.0
 10
711.4579826218546
 20
1650.36369302655
 30
0.0
 10
710.9486524684615
 20
1651.245878730054
 30
0.0
  0
LWPOLYLINE
  5
22B
330
1EC
100
AcDbEntity
  8
P-SANR-FIXT
100
AcDbPolyline
 90
       80
 70
   128
 43
0.0
 10
712.1639074431918
 20
1653.745878730054
 10
712.1767057366162
 20
1653.106049383068
 10
712.2150801423499
 20
1652.467243626548
 10
712.2789692695299
 20
1651.830483413432
 10
712.3682709091817
 20
1651.196787424227
 10
712.4828421977318
 20
1650.567169437334
 10
712.6224998455593
 20
1649.94263670722
 10
712.7870204302194
 20
1649.324188353029
 10
712.9761407538727
 20
1648.712813760197
 10
713.1895582643449
 20
1648.109490997653
 10
713.4269315391455
 20
1647.515185253117
 10
713.6878808316724
 20
1646.930847288999
 10
713.9719886787233
 20
1646.357411921391
 10
714.2788005683493
 20
1645.795796524555
 10
714.607825666977
 20
1645.246899563321
 10
714.9585376046368
 20
1644.711599155735
 10
715.3303753170429
 20
1644.190751668257
 10
715.7227439431766
 20
1643.68519034576
 10
716.1350157769373
 20
1643.195723978512
 10
716.5665312713371
 20
1642.723135608286
 10
717.0166000936368
 20
1642.268181275663
 10
717.4845022297306
 20
1641.831588810521
 10
717.9694891360142
 20
1641.414056667672
 10
718.4707849368958
 20
1641.016252809474
 10
718.987587666032
 20
1640.63881363724
 10
719.5190705493009
 20
1640.282342973129
 10
720.0643833274666
 20
1639.947411094162
 10
720.6226536164114
 20
1639.634553819896
 10
721.1929883027636
 20
1639.344271655232
 10
721.7744749726906
 20
1639.077028989708
 10
722.3661833715643
 20
1638.83325335458
 10
722.9671668921705
 20
1638.613334738863
 10
723.5764640890796
 20
1638.417624965428
 10
724.1931002167529
 20
1638.246437128164
 10
724.8160887889281
 20
1638.10004509109
 10
725.4444331567867
 20
1637.97868305024
 10
726.0771281033803
 20
1637.882545158989
 10
726.7131614517618
 20
1637.811785217454
 10
727.3515156842533
 20
1637.766516426446
 10
727.9911695702582
 20
1637.746811206376
 10
728.631099800011
 20
1637.752701081392
 10
729.2702826216554
 20
1637.784176628949
 10
729.9076954790283
 20
1637.841187494887
 10
730.5423186475323
 20
1637.923642473981
 10
731.1731368654762
 20
1638.031409655854
 10
731.7991409582795
 20
1638.164316636004
 10
732.4193294529339
 20
1638.322150791617
 10
733.0327101801475
 20
1638.50465962171
 10
733.6383018616044
 20
1638.711551151091
 10
734.2351356798006
 20
1638.942494397445
 10
734.8222568279443
 20
1639.197119900845
 10
735.3987260374443
 20
1639.475020314802
 10
735.9636210805396
 20
1639.775751057936
 10
736.5160382456651
 20
1640.098831025209
 10
737.0550937831995
 20
1640.443743357597
 10
737.5799253192752
 20
1640.809936268942
 10
738.0896932353924
 20
1641.196823928705
 10
738.5835820116303
 20
1641.603787399161
 10
739.060801531304
 20
1642.030175625571
 10
739.5205883449834
 20
1642.475306477733
 10
739.9622068918493
 20
1642.938467841237
 10
740.3849506764338
 20
1643.418918756706
 10
740.7881433988618
 20
1643.915890605164
 10
741.1711400367876
 20
1644.42858833767
 10
741.5333278772919
 20
1644.956191747222
 10
741.8741274970924
 20
1645.497856780911
 10
742.1929936894978
 20
1646.052716890237
 10
742.4894163366211
 20
1646.619884417385
 10
742.7629212254604
 20
1647.198452015303
 10
743.0130708065384
 20
1647.787494099254
 10
743.2394648938875
 20
1648.386068327561
 10
743.4417413052631
 20
1648.993217109145
 10
743.6195764415568
 20
1649.607969135477
 10
743.7726858044864
 20
1650.229340934453
 10
743.9008244517332
 20
1650.856338443747
 10
744.0037873887962
 20
1651.487958601097
 10
744.0814098969403
 20
1652.123190948989
 10
744.1335677967114
 20
1652.761019251176
 10
744.160177646596
 20
1653.400423118437
 10
744.163907443189
 20
1653.745878730054
  0
LWPOLYLINE
  5
22C
330
1EC
100
AcDbEntity
  8
P-SANR-FIXT
100
AcDbPolyline
 90
       37
 70
   128
 43
0.0
 10
744.163907443189
 20
1653.745878730054
 10
744.1511091497647
 20
1654.385708077041
 10
744.1127347440309
 20
1655.024513833561
 10
744.0488456168508
 20
1655.661274046677
 10
743.959543977199
 20
1656.294970035882
 10
743.8449726886489
 20
1656.924588022775
 10
743.7053150408216
 20
1657.549120752889
 10
743.5407944561614
 20
1658.167569107081
 10
743.351674132508
 20
1658.778943699912
 10
743.1382566220362
 20
1659.382266462456
 10
742.9008833472352
 20
1659.976572206992
 10
742.6399340547085
 20
1660.56091017111
 10
742.3558262076576
 20
1661.134345538718
 10
742.0490143180316
 20
1661.695960935554
 10
741.7199892194039
 20
1662.244857896788
 10
741.3692772817441
 20
1662.780158304374
 10
740.997439569338
 20
1663.301005791852
 10
740.6050709432041
 20
1663.806567114349
 10
740.1927991094437
 20
1664.296033481597
 10
739.7612836150439
 20
1664.768621851823
 10
739.3112147927439
 20
1665.223576184446
 10
738.8433126566503
 20
1665.660168649587
 10
738.3583257503669
 20
1666.077700792437
 10
737.857029949485
 20
1666.475504650636
 10
737.340227220349
 20
1666.852943822869
 10
736.8087443370797
 20
1667.20941448698
 10
736.2634315589141
 20
1667.544346365947
 10
735.7051612699696
 20
1667.857203640213
 10
735.1348265836171
 20
1668.147485804877
 10
734.5533399136901
 20
1668.414728470402
 10
733.9616315148166
 20
1668.658504105529
 10
733.3606479942102
 20
1668.878422721246
 10
732.7513507973011
 20
1669.074132494681
 10
732.134714669628
 20
1669.245320331945
 10
731.5117260974526
 20
1669.391712369018
 10
730.883381729594
 20
1669.513074409868
 10
730.2507013013639
 20
1669.609210095057
  0
LWPOLYLINE
  5
22D
330
1EC
100
AcDbEntity
  8
P-SANR-FIXT
100
AcDbPolyline
 90
       44
 70
   128
 43
0.0
 10
730.2506867830004
 20
1669.60921230112
 10
729.6146534346192
 20
1669.679972242655
 10
728.9762992021275
 20
1669.725241033663
 10
728.3366453161225
 20
1669.744946253732
 10
727.6967150863697
 20
1669.739056378717
 10
727.0575322647253
 20
1669.70758083116
 10
726.4201194073524
 20
1669.650569965222
 10
725.7854962388487
 20
1669.568114986128
 10
725.1546780209045
 20
1669.460347804255
 10
724.5286739281013
 20
1669.327440824104
 10
723.908485433447
 20
1669.169606668492
 10
723.2951047062333
 20
1668.987097838398
 10
722.6895130247765
 20
1668.780206309018
 10
722.0926792065803
 20
1668.549263062664
 10
721.5055580584365
 20
1668.294637559264
 10
720.9290888489364
 20
1668.016737145307
 10
720.3641938058411
 20
1667.716006402174
 10
719.8117766407157
 20
1667.392926434899
 10
719.2727211031813
 20
1667.048014102513
 10
718.7478895671055
 20
1666.681821191167
 10
718.2381216509883
 20
1666.294933531404
 10
717.7442328747505
 20
1665.887970060948
 10
717.2670133550768
 20
1665.461581834537
 10
716.8072265413974
 20
1665.016450982376
 10
716.3656079945313
 20
1664.553289618872
 10
715.9428642099469
 20
1664.072838703404
 10
715.5396714875189
 20
1663.575866854945
 10
715.1566748495931
 20
1663.063169122439
 10
714.794487009089
 20
1662.535565712888
 10
714.4536873892883
 20
1661.993900679197
 10
714.1348211968832
 20
1661.439040569872
 10
713.8383985497596
 20
1660.871873042724
 10
713.5648936609203
 20
1660.293305444806
 10
713.3147440798424
 20
1659.704263360855
 10
713.0883499924932
 20
1659.105689132548
 10
712.8860735811177
 20
1658.498540350963
 10
712.7082384448241
 20
1657.883788324632
 10
712.5551290818943
 20
1657.262416525656
 10
712.4269904346476
 20
1656.635419016362
 10
712.3240274975846
 20
1656.003798859012
 10
712.2464049894404
 20
1655.36856651112
 10
712.1942470896694
 20
1654.730738208933
 10
712.167637239785
 20
1654.091334341672
 10
712.1639074431918
 20
1653.745878730054
  0
ARC
  5
22E
330
1EC
100
AcDbEntity
  8
P-SANR-FIXT
100
AcDbCircle
 10
728.163907443189
 20
1653.745878730054
 30
0.0
 40
11.0
100
AcDbArc
 50
0.0
 51
180.0
  0
ARC
  5
22F
330
1EC
100
AcDbEntity
  8
P-SANR-FIXT
100
AcDbCircle
 10
728.163907443189
 20
1653.745878730054
 30
0.0
 40
11.0
100
AcDbArc
 50
180.0
 51
0.0
  0
ARC
  5
230
330
1EC
100
AcDbEntity
  8
P-SANR-FIXT
100
AcDbCircle
 10
728.163907443189
 20
1653.745878730054
 30
0.0
 40
15.99999999999859
100
AcDbArc
 50
213.7763607328342
 51
214.9999999999983
  0
ARC
  5
231
330
1EC
100
AcDbEntity
  8
P-SANR-FIXT
100
AcDbCircle
 10
728.163907443189
 20
1653.745878730054
 30
0.0
 40
15.99999999999859
100
AcDbArc
 50
219.3935715059904
 51
219.9999999999985
  0
ARC
  5
232
330
1EC
100
AcDbEntity
  8
P-SANR-FIXT
100
AcDbCircle
 10
728.163907443189
 20
1653.745878730054
 30
0.0
 40
15.99999999999858
100
AcDbArc
 50
229.9999999999987
 51
230.6064284940087
  0
ARC
  5
233
330
1EC
100
AcDbEntity
  8
P-SANR-FIXT
100
AcDbCircle
 10
728.163907443189
 20
1653.745878730054
 30
0.0
 40
15.99999999999855
100
AcDbArc
 50
234.9999999999984
 51
236.2236392671649
  0
ARC
  5
234
330
1EC
100
AcDbEntity
  8
P-SANR-FIXT
100
AcDbCircle
 10
728.163907443189
 20
1653.745878730054
 30
0.0
 40
15.99999999999863
100
AcDbArc
 50
244.9999999999989
 51
249.9999999999992
  0
ARC
  5
235
330
1EC
100
AcDbEntity
  8
P-SANR-FIXT
100
AcDbCircle
 10
728.163907443189
 20
1653.745878730054
 30
0.0
 40
15.99999999999858
100
AcDbArc
 50
253.1090614893352
 51
254.9999999999992
  0
ARC
  5
236
330
1EC
100
AcDbEntity
  8
P-SANR-FIXT
100
AcDbCircle
 10
728.163907443189
 20
1653.745878730054
 30
0.0
 40
15.99999999999857
100
AcDbArc
 50
258.741227781587
 51
259.9999999999988
  0
ARC
  5
237
330
1EC
100
AcDbEntity
  8
P-SANR-FIXT
100
AcDbCircle
 10
728.163907443189
 20
1653.745878730054
 30
0.0
 40
15.9999999999985
100
AcDbArc
 50
264.372118637193
 51
264.9999999999986
  0
ARC
  5
238
330
1EC
100
AcDbEntity
  8
P-SANR-FIXT
100
AcDbCircle
 10
728.163907443189
 20
1653.745878730054
 30
0.0
 40
15.99999999999853
100
AcDbArc
 50
274.9999999999982
 51
275.6278813628049
  0
ARC
  5
239
330
1EC
100
AcDbEntity
  8
P-SANR-FIXT
100
AcDbCircle
 10
728.163907443189
 20
1653.745878730054
 30
0.0
 40
15.99999999999863
100
AcDbArc
 50
279.9999999999986
 51
281.2587722184117
  0
ARC
  5
23A
330
1EC
100
AcDbEntity
  8
P-SANR-FIXT
100
AcDbCircle
 10
728.163907443189
 20
1653.745878730054
 30
0.0
 40
15.99999999999857
100
AcDbArc
 50
284.9999999999984
 51
286.8909385106629
  0
ARC
  5
23B
330
1EC
100
AcDbEntity
  8
P-SANR-FIXT
100
AcDbCircle
 10
728.163907443189
 20
1653.745878730054
 30
0.0
 40
15.99999999999861
100
AcDbArc
 50
289.9999999999984
 51
294.9999999999985
  0
ARC
  5
23C
330
1EC
100
AcDbEntity
  8
P-SANR-FIXT
100
AcDbCircle
 10
728.163907443189
 20
1653.745878730054
 30
0.0
 40
15.99999999999857
100
AcDbArc
 50
298.1518079189325
 51
299.9999999999985
  0
ARC
  5
23D
330
1EC
100
AcDbEntity
  8
P-SANR-FIXT
100
AcDbCircle
 10
728.163907443189
 20
1653.745878730054
 30
0.0
 40
15.99999999999859
100
AcDbArc
 50
303.776360732834
 51
304.9999999999983
  0
ARC
  5
23E
330
1EC
100
AcDbEntity
  8
P-SANR-FIXT
100
AcDbCircle
 10
728.163907443189
 20
1653.745878730054
 30
0.0
 40
15.99999999999859
100
AcDbArc
 50
309.39357150599
 51
309.9999999999985
  0
ARC
  5
23F
330
1EC
100
AcDbEntity
  8
P-SANR-FIXT
100
AcDbCircle
 10
728.163907443189
 20
1653.745878730054
 30
0.0
 40
15.99999999999864
100
AcDbArc
 50
319.9999999999977
 51
320.6064284940083
  0
ARC
  5
240
330
1EC
100
AcDbEntity
  8
P-SANR-FIXT
100
AcDbCircle
 10
728.163907443189
 20
1653.745878730054
 30
0.0
 40
15.99999999999862
100
AcDbArc
 50
324.999999999998
 51
326.2236392671639
  0
ARC
  5
241
330
1EC
100
AcDbEntity
  8
P-SANR-FIXT
100
AcDbCircle
 10
728.163907443189
 20
1653.745878730054
 30
0.0
 40
15.99999999999858
100
AcDbArc
 50
329.9999999999981
 51
331.8481920810649
  0
ARC
  5
242
330
1EC
100
AcDbEntity
  8
P-SANR-FIXT
100
AcDbCircle
 10
728.163907443189
 20
1653.745878730054
 30
0.0
 40
15.99999999999872
100
AcDbArc
 50
334.9999999999976
 51
339.9999999999977
  0
ARC
  5
243
330
1EC
100
AcDbEntity
  8
P-SANR-FIXT
100
AcDbCircle
 10
728.163907443189
 20
1653.745878730054
 30
0.0
 40
15.99999999999858
100
AcDbArc
 50
343.1090614893351
 51
344.9999999999987
  0
ARC
  5
244
330
1EC
100
AcDbEntity
  8
P-SANR-FIXT
100
AcDbCircle
 10
728.163907443189
 20
1653.745878730054
 30
0.0
 40
15.99999999999857
100
AcDbArc
 50
348.7412277815867
 51
349.9999999999986
  0
ARC
  5
245
330
1EC
100
AcDbEntity
  8
P-SANR-FIXT
100
AcDbCircle
 10
728.163907443189
 20
1653.745878730054
 30
0.0
 40
15.99999999999849
100
AcDbArc
 50
354.3721186371935
 51
354.9999999999986
  0
ARC
  5
246
330
1EC
100
AcDbEntity
  8
P-SANR-FIXT
100
AcDbCircle
 10
728.163907443189
 20
1653.745878730054
 30
0.0
 40
15.99999999999857
100
AcDbArc
 50
5.000000000000239
 51
5.627881362805345
  0
ARC
  5
247
330
1EC
100
AcDbEntity
  8
P-SANR-FIXT
100
AcDbCircle
 10
728.163907443189
 20
1653.745878730054
 30
0.0
 40
15.99999999999858
100
AcDbArc
 50
10.00000000000025
 51
11.25877221841138
  0
ARC
  5
248
330
1EC
100
AcDbEntity
  8
P-SANR-FIXT
100
AcDbCircle
 10
728.163907443189
 20
1653.745878730054
 30
0.0
 40
15.99999999999866
100
AcDbArc
 50
15.00000000000006
 51
16.89093851066376
  0
ARC
  5
249
330
1EC
100
AcDbEntity
  8
P-SANR-FIXT
100
AcDbCircle
 10
728.163907443189
 20
1653.745878730054
 30
0.0
 40
15.99999999999857
100
AcDbArc
 50
22.53197650287738
 51
24.99999999999952
  0
ARC
  5
24A
330
1EC
100
AcDbEntity
  8
P-SANR-FIXT
100
AcDbCircle
 10
728.163907443189
 20
1653.745878730054
 30
0.0
 40
15.99999999999862
100
AcDbArc
 50
28.15180791893303
 51
29.99999999999853
  0
ARC
  5
24B
330
1EC
100
AcDbEntity
  8
P-SANR-FIXT
100
AcDbCircle
 10
728.163907443189
 20
1653.745878730054
 30
0.0
 40
15.99999999999859
100
AcDbArc
 50
33.77636073283437
 51
34.9999999999983
  0
ARC
  5
24C
330
1EC
100
AcDbEntity
  8
P-SANR-FIXT
100
AcDbCircle
 10
728.163907443189
 20
1653.745878730054
 30
0.0
 40
15.99999999999859
100
AcDbArc
 50
39.39357150599067
 51
39.99999999999912
  0
ARC
  5
24D
330
1EC
100
AcDbEntity
  8
P-SANR-FIXT
100
AcDbCircle
 10
728.163907443189
 20
1653.745878730054
 30
0.0
 40
15.99999999999858
100
AcDbArc
 50
49.99999999999916
 51
50.60642849400996
  0
ARC
  5
24E
330
1EC
100
AcDbEntity
  8
P-SANR-FIXT
100
AcDbCircle
 10
728.163907443189
 20
1653.745878730054
 30
0.0
 40
15.99999999999862
100
AcDbArc
 50
54.99999999999861
 51
56.22363926716547
  0
ARC
  5
24F
330
1EC
100
AcDbEntity
  8
P-SANR-FIXT
100
AcDbCircle
 10
728.163907443189
 20
1653.745878730054
 30
0.0
 40
15.99999999999855
100
AcDbArc
 50
64.97235179159931
 51
69.99999999999822
  0
ARC
  5
250
330
1EC
100
AcDbEntity
  8
P-SANR-FIXT
100
AcDbCircle
 10
728.163907443189
 20
1653.745878730054
 30
0.0
 40
15.99999999999858
100
AcDbArc
 50
73.10906148933556
 51
74.99999999999885
  0
ARC
  5
251
330
1EC
100
AcDbEntity
  8
P-SANR-FIXT
100
AcDbCircle
 10
728.163907443189
 20
1653.745878730054
 30
0.0
 40
15.99999999999846
100
AcDbArc
 50
78.74122778158735
 51
79.99999999999833
  0
ARC
  5
252
330
1EC
100
AcDbEntity
  8
P-SANR-FIXT
100
AcDbCircle
 10
728.163907443189
 20
1653.745878730054
 30
0.0
 40
15.9999999999986
100
AcDbArc
 50
84.37211863719388
 51
84.99999999999898
  0
ARC
  5
253
330
1EC
100
AcDbEntity
  8
P-SANR-FIXT
100
AcDbCircle
 10
728.163907443189
 20
1653.745878730054
 30
0.0
 40
15.99999999999853
100
AcDbArc
 50
94.99999999999863
 51
95.62788136280536
  0
ARC
  5
254
330
1EC
100
AcDbEntity
  8
P-SANR-FIXT
100
AcDbCircle
 10
728.163907443189
 20
1653.745878730054
 30
0.0
 40
15.9999999999985
100
AcDbArc
 50
99.99999999999864
 51
101.2587722184117
  0
ARC
  5
255
330
1EC
100
AcDbEntity
  8
P-SANR-FIXT
100
AcDbCircle
 10
728.163907443189
 20
1653.745878730054
 30
0.0
 40
15.99999999999868
100
AcDbArc
 50
104.9999999999987
 51
106.8909385106639
  0
ARC
  5
256
330
1EC
100
AcDbEntity
  8
P-SANR-FIXT
100
AcDbCircle
 10
728.163907443189
 20
1653.745878730054
 30
0.0
 40
15.99999999999847
100
AcDbArc
 50
109.9999999999985
 51
112.5225954302081
  0
ARC
  5
257
330
1EC
100
AcDbEntity
  8
P-SANR-FIXT
100
AcDbCircle
 10
728.163907443189
 20
1653.745878730054
 30
0.0
 40
15.99999999999855
100
AcDbArc
 50
114.5865459173445
 51
115.0276482083989
  0
ARC
  5
258
330
1EC
100
AcDbEntity
  8
P-SANR-FIXT
100
AcDbCircle
 10
728.163907443189
 20
1653.745878730054
 30
0.0
 40
15.99999999999852
100
AcDbArc
 50
118.1518079189335
 51
119.9999999999988
  0
ARC
  5
259
330
1EC
100
AcDbEntity
  8
P-SANR-FIXT
100
AcDbCircle
 10
728.163907443189
 20
1653.745878730054
 30
0.0
 40
15.99999999999859
100
AcDbArc
 50
123.7763607328347
 51
124.9999999999986
  0
ARC
  5
25A
330
1EC
100
AcDbEntity
  8
P-SANR-FIXT
100
AcDbCircle
 10
728.163907443189
 20
1653.745878730054
 30
0.0
 40
15.99999999999859
100
AcDbArc
 50
129.3935715059908
 51
129.999999999999
  0
ARC
  5
25B
330
1EC
100
AcDbEntity
  8
P-SANR-FIXT
100
AcDbCircle
 10
728.163907443189
 20
1653.745878730054
 30
0.0
 40
15.99999999999865
100
AcDbArc
 50
139.999999999999
 51
140.6064284940095
  0
ARC
  5
25C
330
1EC
100
AcDbEntity
  8
P-SANR-FIXT
100
AcDbCircle
 10
728.163907443189
 20
1653.745878730054
 30
0.0
 40
15.99999999999855
100
AcDbArc
 50
144.9999999999992
 51
146.223639267166
  0
ARC
  5
25D
330
1EC
100
AcDbEntity
  8
P-SANR-FIXT
100
AcDbCircle
 10
728.163907443189
 20
1653.745878730054
 30
0.0
 40
15.99999999999862
100
AcDbArc
 50
149.9999999999989
 51
151.848192081066
  0
ARC
  5
25E
330
1EC
100
AcDbEntity
  8
P-SANR-FIXT
100
AcDbCircle
 10
728.163907443189
 20
1653.745878730054
 30
0.0
 40
15.99999999999857
100
AcDbArc
 50
154.9999999999996
 51
159.9999999999998
  0
ARC
  5
25F
330
1EC
100
AcDbEntity
  8
P-SANR-FIXT
100
AcDbCircle
 10
728.163907443189
 20
1653.745878730054
 30
0.0
 40
15.99999999999858
100
AcDbArc
 50
163.1090614893357
 51
164.9999999999999
  0
ARC
  5
260
330
1EC
100
AcDbEntity
  8
P-SANR-FIXT
100
AcDbCircle
 10
728.163907443189
 20
1653.745878730054
 30
0.0
 40
15.99999999999846
100
AcDbArc
 50
168.7412277815879
 51
169.9999999999999
  0
ARC
  5
261
330
1EC
100
AcDbEntity
  8
P-SANR-FIXT
100
AcDbCircle
 10
728.163907443189
 20
1653.745878730054
 30
0.0
 40
15.99999999999862
100
AcDbArc
 50
174.3721186371947
 51
174.9999999999998
  0
ARC
  5
262
330
1EC
100
AcDbEntity
  8
P-SANR-FIXT
100
AcDbCircle
 10
728.163907443189
 20
1653.745878730054
 30
0.0
 40
15.99999999999856
100
AcDbArc
 50
184.999999999999
 51
185.6278813628057
  0
ARC
  5
263
330
1EC
100
AcDbEntity
  8
P-SANR-FIXT
100
AcDbCircle
 10
728.163907443189
 20
1653.745878730054
 30
0.0
 40
15.99999999999854
100
AcDbArc
 50
189.9999999999989
 51
191.2587722184116
  0
ARC
  5
264
330
1EC
100
AcDbEntity
  8
P-SANR-FIXT
100
AcDbCircle
 10
728.163907443189
 20
1653.745878730054
 30
0.0
 40
15.99999999999849
100
AcDbArc
 50
194.9999999999994
 51
196.8909385106638
  0
ARC
  5
265
330
1EC
100
AcDbEntity
  8
P-SANR-FIXT
100
AcDbCircle
 10
728.163907443189
 20
1653.745878730054
 30
0.0
 40
15.99999999999845
100
AcDbArc
 50
202.5225954302069
 51
204.9999999999993
  0
ARC
  5
266
330
1EC
100
AcDbEntity
  8
P-SANR-FIXT
100
AcDbCircle
 10
728.163907443189
 20
1653.745878730054
 30
0.0
 40
15.99999999999847
100
AcDbArc
 50
208.1518079189329
 51
209.9999999999982
  0
SPLINE
  5
267
330
1EC
100
AcDbEntity
  8
P-SANR-FIXT
100
AcDbSpline
210
0.0
220
0.0
230
1.0
 70
     8
 71
     3
 72
    10
 73
     6
 74
     0
 42
0.000000001
 43
0.0000000001
 40
0.0
 40
0.0
 40
0.0
 40
0.0
 40
0.4
 40
0.7
 40
1.0
 40
1.0
 40
1.0
 40
1.0
 10
721.8130544821033
 20
1637.745878730054
 30
0.0
 10
721.125342358943
 20
1637.745878730054
 30
0.0
 10
719.9014230604085
 20
1638.000020876147
 30
0.0
 10
718.4033025451718
 20
1638.974953891249
 30
0.0
 10
717.741352348785
 20
1639.798273698248
 30
0.0
 10
717.4829274631811
 20
1640.245878730054
 30
0.0
  0
SPLINE
  5
268
330
1EC
100
AcDbEntity
  8
P-SANR-FIXT
100
AcDbSpline
210
0.0
220
0.0
230
1.0
 70
    24
 71
     3
 72
     8
 73
     4
 74
     0
 42
0.000000001
 43
0.0000000001
 40
0.8492707004782893
 40
0.8492707004782893
 40
0.8492707004782893
 40
0.8492707004782893
 40
1.0
 40
1.0
 40
1.0
 40
1.0
 10
727.1973699195615
 20
1637.745878730054
 30
0.0
 10
727.5190002105396
 20
1637.745878730054
 30
0.0
 10
727.8411793850821
 20
1637.745878730054
 30
0.0
 10
728.163907443189
 20
1637.745878730054
 30
0.0
  0
SPLINE
  5
269
330
1EC
100
AcDbEntity
  8
P-SANR-FIXT
100
AcDbSpline
210
0.0
220
0.0
230
1.0
 70
    24
 71
     3
 72
     8
 73
     4
 74
     0
 42
0.000000001
 43
0.0000000001
 40
0.0
 40
0.0
 40
0.0
 40
0.0
 40
0.1507292995216577
 40
0.1507292995216577
 40
0.1507292995216577
 40
0.1507292995216577
 10
728.163907443189
 20
1637.745878730054
 30
0.0
 10
728.4866355012957
 20
1637.745878730054
 30
0.0
 10
728.8088146758382
 20
1637.745878730054
 30
0.0
 10
729.1304449668161
 20
1637.745878730054
 30
0.0
  0
SPLINE
  5
26A
330
1EC
100
AcDbEntity
  8
P-SANR-FIXT
100
AcDbSpline
210
0.0
220
0.0
230
1.0
 70
    24
 71
     3
 72
     9
 73
     5
 74
     0
 42
0.000000001
 43
0.0000000001
 40
0.0
 40
0.0
 40
0.0
 40
0.0
 40
0.5
 40
1.0
 40
1.0
 40
1.0
 40
1.0
 10
734.5147604042745
 20
1637.745878730054
 30
0.0
 10
733.4683645751718
 20
1637.745878730054
 30
0.0
 10
731.363493252555
 20
1637.745878730054
 30
0.0
 10
729.2344626011149
 20
1637.745878730054
 30
0.0
 10
728.163907443189
 20
1637.745878730054
 30
0.0
  0
SPLINE
  5
26B
330
1EC
100
AcDbEntity
  8
P-SANR-FIXT
100
AcDbSpline
210
0.0
220
0.0
230
1.0
 70
    24
 71
     3
 72
     9
 73
     5
 74
     0
 42
0.000000001
 43
0.0000000001
 40
0.0
 40
0.0
 40
0.0
 40
0.0
 40
0.5
 40
1.0
 40
1.0
 40
1.0
 40
1.0
 10
728.163907443189
 20
1637.745878730054
 30
0.0
 10
727.093352285263
 20
1637.745878730054
 30
0.0
 10
724.9643216338228
 20
1637.745878730054
 30
0.0
 10
722.8594503112059
 20
1637.745878730054
 30
0.0
 10
721.8130544821033
 20
1637.745878730054
 30
0.0
  0
SPLINE
  5
26C
330
1EC
100
AcDbEntity
  8
P-SANR-FIXT
100
AcDbSpline
210
0.0
220
0.0
230
1.0
 70
     8
 71
     3
 72
    10
 73
     6
 74
     0
 42
0.000000001
 43
0.0000000001
 40
0.0
 40
0.0
 40
0.0
 40
0.0
 40
0.4
 40
0.7
 40
1.0
 40
1.0
 40
1.0
 40
1.0
 10
738.8448874231967
 20
1640.245878730054
 30
0.0
 10
738.5010313616166
 20
1639.650302560907
 30
0.0
 10
737.6689781576605
 20
1638.71742842924
 30
0.0
 10
736.0756011419761
 20
1637.907484512666
 30
0.0
 10
735.0316101754822
 20
1637.745878730054
 30
0.0
 10
734.5147604042745
 20
1637.745878730054
 30
0.0
  0
SPLINE
  5
26D
330
1EC
100
AcDbEntity
  8
P-SANR-FIXT
100
AcDbSpline
210
0.0
220
0.0
230
1.0
 70
    24
 71
     3
 72
     8
 73
     4
 74
     0
 42
0.000000001
 43
0.0000000001
 40
0.0827373800100406
 40
0.0827373800100406
 40
0.0827373800100406
 40
0.0827373800100406
 40
0.1545288320252412
 40
0.1545288320252412
 40
0.1545288320252412
 40
0.1545288320252412
 10
742.2857906174208
 20
1646.205697886376
 30
0.0
 10
742.3625038242039
 20
1646.338569058136
 30
0.0
 10
742.4392121581782
 20
1646.471431789943
 30
0.0
 10
742.5158859990085
 20
1646.604234777873
 30
0.0
  0
SPLINE
  5
26E
330
1EC
100
AcDbEntity
  8
P-SANR-FIXT
100
AcDbSpline
210
0.0
220
0.0
230
1.0
 70
    24
 71
     3
 72
     9
 73
     5
 74
     0
 42
0.000000001
 43
0.0000000001
 40
0.0
 40
0.0
 40
0.0
 40
0.0
 40
0.5
 40
0.917262619989977
 40
0.917262619989977
 40
0.917262619989977
 40
0.917262619989977
 10
745.1957403842826
 20
1651.245878730054
 30
0.0
 10
744.6725424697311
 20
1650.339673359637
 30
0.0
 10
743.7071825776683
 20
1648.667620978995
 30
0.0
 10
742.7316592097345
 20
1646.977964941762
 30
0.0
 10
742.2857906174208
 20
1646.205697886376
 30
0.0
  0
SPLINE
  5
26F
330
1EC
100
AcDbEntity
  8
P-SANR-FIXT
100
AcDbSpline
210
0.0
220
0.0
230
1.0
 70
    24
 71
     3
 72
     9
 73
     5
 74
     0
 42
0.000000001
 43
0.0000000001
 40
0.1607416419101626
 40
0.1607416419101626
 40
0.1607416419101626
 40
0.1607416419101626
 40
0.5
 40
1.0
 40
1.0
 40
1.0
 40
1.0
 10
741.5050018608118
 20
1644.853332089951
 30
0.0
 10
741.1431245550516
 20
1644.226542210268
 30
0.0
 10
740.2513507628531
 20
1642.681944693322
 30
0.0
 10
739.3680853377479
 20
1641.152084100471
 30
0.0
 10
738.8448874231967
 20
1640.245878730054
 30
0.0
  0
SPLINE
  5
270
330
1EC
100
AcDbEntity
  8
P-SANR-FIXT
100
AcDbSpline
210
0.0
220
0.0
230
1.0
 70
     8
 71
     3
 72
     9
 73
     5
 74
     0
 42
0.000000001
 43
0.0000000001
 40
0.0
 40
0.0
 40
0.0
 40
0.0
 40
0.5
 40
1.0
 40
1.0
 40
1.0
 40
1.0
 10
745.1957403842826
 20
1656.245878730053
 30
0.0
 10
745.4112045981799
 20
1655.87268376437
 30
0.0
 10
745.7478674353332
 20
1655.06545441369
 30
0.0
 10
745.8656133653603
 20
1654.187614928256
 30
0.0
 10
745.8656133653603
 20
1653.745878730054
 30
0.0
  0
SPLINE
  5
271
330
1EC
100
AcDbEntity
  8
P-SANR-FIXT
100
AcDbSpline
210
0.0
220
0.0
230
1.0
 70
     8
 71
     3
 72
     9
 73
     5
 74
     0
 42
0.000000001
 43
0.0000000001
 40
0.0
 40
0.0
 40
0.0
 40
0.0
 40
0.5
 40
1.0
 40
1.0
 40
1.0
 40
1.0
 10
745.8656133653603
 20
1653.745878730054
 30
0.0
 10
745.8656133653603
 20
1653.304142531852
 30
0.0
 10
745.7478674353332
 20
1652.426303046417
 30
0.0
 10
745.4112045981799
 20
1651.619073695737
 30
0.0
 10
745.1957403842826
 20
1651.245878730054
 30
0.0
  0
SPLINE
  5
272
330
1EC
100
AcDbEntity
  8
P-SANR-FIXT
100
AcDbSpline
210
0.0
220
0.0
230
1.0
 70
    24
 71
     3
 72
     8
 73
     4
 74
     0
 42
0.000000001
 43
0.0000000001
 40
0.8454711679748093
 40
0.8454711679748093
 40
0.8454711679748093
 40
0.8454711679748093
 40
0.917262619990069
 40
0.917262619990069
 40
0.917262619990069
 40
0.917262619990069
 10
742.5157434615431
 20
1660.887769564367
 30
0.0
 10
742.4391547722446
 20
1661.020425065517
 30
0.0
 10
742.3624371554125
 20
1661.153303875705
 30
0.0
 10
742.2856835305867
 20
1661.286245053569
 30
0.0
  0
SPLINE
  5
273
330
1EC
100
AcDbEntity
  8
P-SANR-FIXT
100
AcDbSpline
210
0.0
220
0.0
230
1.0
 70
    24
 71
     3
 72
     9
 73
     5
 74
     0
 42
0.000000001
 43
0.0000000001
 40
0.0
 40
0.0
 40
0.0
 40
0.0
 40
0.5
 40
0.8392583580897456
 40
0.8392583580897456
 40
0.8392583580897456
 40
0.8392583580897456
 10
738.8448874231971
 20
1667.245878730053
 30
0.0
 10
739.3680853377484
 20
1666.339673359636
 30
0.0
 10
740.2513507628532
 20
1664.809812766786
 30
0.0
 10
741.1431245550517
 20
1663.26521524984
 30
0.0
 10
741.5050018608117
 20
1662.638425370157
 30
0.0
  0
SPLINE
  5
274
330
1EC
100
AcDbEntity
  8
P-SANR-FIXT
100
AcDbSpline
210
0.0
220
0.0
230
1.0
 70
    24
 71
     3
 72
     9
 73
     5
 74
     0
 42
0.000000001
 43
0.0000000001
 40
0.0827373800099259
 40
0.0827373800099259
 40
0.0827373800099259
 40
0.0827373800099259
 40
0.5
 40
1.0
 40
1.0
 40
1.0
 40
1.0
 10
742.2857906174207
 20
1661.286059573732
 30
0.0
 10
742.7316592097345
 20
1660.513792518345
 30
0.0
 10
743.7071825776686
 20
1658.824136481112
 30
0.0
 10
744.6725424697312
 20
1657.15208410047
 30
0.0
 10
745.1957403842826
 20
1656.245878730053
 30
0.0
  0
SPLINE
  5
275
330
1EC
100
AcDbEntity
  8
P-SANR-FIXT
100
AcDbSpline
210
0.0
220
0.0
230
1.0
 70
     8
 71
     3
 72
    10
 73
     6
 74
     0
 42
0.000000001
 43
0.0000000001
 40
0.0
 40
0.0
 40
0.0
 40
0.0
 40
0.4
 40
0.7
 40
1.0
 40
1.0
 40
1.0
 40
1.0
 10
734.514760404275
 20
1669.745878730053
 30
0.0
 10
735.2024725274352
 20
1669.745878730053
 30
0.0
 10
736.4263918259698
 20
1669.49173658396
 30
0.0
 10
737.9245123412065
 20
1668.516803568859
 30
0.0
 10
738.5864625375933
 20
1667.693483761859
 30
0.0
 10
738.8448874231971
 20
1667.245878730053
 30
0.0
  0
SPLINE
  5
276
330
1EC
100
AcDbEntity
  8
P-SANR-FIXT
100
AcDbSpline
210
0.0
220
0.0
230
1.0
 70
    24
 71
     3
 72
     8
 73
     4
 74
     0
 42
0.000000001
 43
0.0000000001
 40
0.8492707004783607
 40
0.8492707004783607
 40
0.8492707004783607
 40
0.8492707004783607
 40
1.0
 40
1.0
 40
1.0
 40
1.0
 10
729.1304449668165
 20
1669.745878730053
 30
0.0
 10
728.8088146758386
 20
1669.745878730053
 30
0.0
 10
728.4866355012962
 20
1669.745878730053
 30
0.0
 10
728.1639074431893
 20
1669.745878730054
 30
0.0
  0
SPLINE
  5
277
330
1EC
100
AcDbEntity
  8
P-SANR-FIXT
100
AcDbSpline
210
0.0
220
0.0
230
1.0
 70
    24
 71
     3
 72
     8
 73
     4
 74
     0
 42
0.000000001
 43
0.0000000001
 40
0.0
 40
0.0
 40
0.0
 40
0.0
 40
0.1507292995216842
 40
0.1507292995216842
 40
0.1507292995216842
 40
0.1507292995216842
 10
728.1639074431893
 20
1669.745878730054
 30
0.0
 10
727.8411793850827
 20
1669.745878730054
 30
0.0
 10
727.5190002105402
 20
1669.745878730054
 30
0.0
 10
727.1973699195622
 20
1669.745878730054
 30
0.0
  0
SPLINE
  5
278
330
1EC
100
AcDbEntity
  8
P-SANR-FIXT
100
AcDbSpline
210
0.0
220
0.0
230
1.0
 70
    24
 71
     3
 72
     9
 73
     5
 74
     0
 42
0.000000001
 43
0.0000000001
 40
0.0
 40
0.0
 40
0.0
 40
0.0
 40
0.5
 40
1.0
 40
1.0
 40
1.0
 40
1.0
 10
721.8130544821039
 20
1669.745878730054
 30
0.0
 10
722.8594503112065
 20
1669.745878730054
 30
0.0
 10
724.9643216338234
 20
1669.745878730054
 30
0.0
 10
727.0933522852636
 20
1669.745878730054
 30
0.0
 10
728.1639074431893
 20
1669.745878730054
 30
0.0
  0
SPLINE
  5
279
330
1EC
100
AcDbEntity
  8
P-SANR-FIXT
100
AcDbSpline
210
0.0
220
0.0
230
1.0
 70
    24
 71
     3
 72
     9
 73
     5
 74
     0
 42
0.000000001
 43
0.0000000001
 40
0.0
 40
0.0
 40
0.0
 40
0.0
 40
0.5
 40
1.0
 40
1.0
 40
1.0
 40
1.0
 10
728.1639074431893
 20
1669.745878730054
 30
0.0
 10
729.2344626011153
 20
1669.745878730053
 30
0.0
 10
731.3634932525554
 20
1669.745878730053
 30
0.0
 10
733.4683645751725
 20
1669.745878730053
 30
0.0
 10
734.514760404275
 20
1669.745878730053
 30
0.0
  0
SPLINE
  5
27A
330
1EC
100
AcDbEntity
  8
P-SANR-FIXT
100
AcDbSpline
210
0.0
220
0.0
230
1.0
 70
     8
 71
     3
 72
    10
 73
     6
 74
     0
 42
0.000000001
 43
0.0000000001
 40
0.0
 40
0.0
 40
0.0
 40
0.0
 40
0.4
 40
0.7
 40
1.0
 40
1.0
 40
1.0
 40
1.0
 10
717.4829274631816
 20
1667.245878730053
 30
0.0
 10
717.8267835247616
 20
1667.841454899201
 30
0.0
 10
718.6588367287177
 20
1668.774329030868
 30
0.0
 10
720.2522137444023
 20
1669.584272947442
 30
0.0
 10
721.2962047108962
 20
1669.745878730054
 30
0.0
 10
721.8130544821039
 20
1669.745878730054
 30
0.0
  0
SPLINE
  5
27B
330
1EC
100
AcDbEntity
  8
P-SANR-FIXT
100
AcDbSpline
210
0.0
220
0.0
230
1.0
 70
    24
 71
     3
 72
     8
 73
     4
 74
     0
 42
0.000000001
 43
0.0000000001
 40
0.0827373800100381
 40
0.0827373800100381
 40
0.0827373800100381
 40
0.0827373800100381
 40
0.1545288320252212
 40
0.1545288320252212
 40
0.1545288320252212
 40
0.1545288320252212
 10
714.0420242689575
 20
1661.286059573732
 30
0.0
 10
713.9653110621743
 20
1661.153188401972
 30
0.0
 10
713.8886027282003
 20
1661.020325670165
 30
0.0
 10
713.8119288873698
 20
1660.887522682235
 30
0.0
  0
SPLINE
  5
27C
330
1EC
100
AcDbEntity
  8
P-SANR-FIXT
100
AcDbSpline
210
0.0
220
0.0
230
1.0
 70
    24
 71
     3
 72
     9
 73
     5
 74
     0
 42
0.000000001
 43
0.0000000001
 40
0.0
 40
0.0
 40
0.0
 40
0.0
 40
0.5
 40
0.9172626199899795
 40
0.9172626199899795
 40
0.9172626199899795
 40
0.9172626199899795
 10
711.1320745020957
 20
1656.245878730054
 30
0.0
 10
711.655272416647
 20
1657.152084100471
 30
0.0
 10
712.6206323087098
 20
1658.824136481113
 30
0.0
 10
713.5961556766439
 20
1660.513792518345
 30
0.0
 10
714.0420242689574
 20
1661.286059573732
 30
0.0
  0
SPLINE
  5
27D
330
1EC
100
AcDbEntity
  8
P-SANR-FIXT
100
AcDbSpline
210
0.0
220
0.0
230
1.0
 70
    24
 71
     3
 72
     9
 73
     5
 74
     0
 42
0.000000001
 43
0.0000000001
 40
0.1607416419101473
 40
0.1607416419101473
 40
0.1607416419101473
 40
0.1607416419101473
 40
0.5
 40
1.0
 40
1.0
 40
1.0
 40
1.0
 10
714.8228130255666
 20
1662.638425370157
 30
0.0
 10
715.1846903313266
 20
1663.26521524984
 30
0.0
 10
716.0764641235251
 20
1664.809812766786
 30
0.0
 10
716.9597295486302
 20
1666.339673359637
 30
0.0
 10
717.4829274631816
 20
1667.245878730053
 30
0.0
  0
SPLINE
  5
27E
330
1EC
100
AcDbEntity
  8
P-SANR-FIXT
100
AcDbSpline
210
0.0
220
0.0
230
1.0
 70
     8
 71
     3
 72
     9
 73
     5
 74
     0
 42
0.000000001
 43
0.0000000001
 40
0.0
 40
0.0
 40
0.0
 40
0.0
 40
0.5
 40
1.0
 40
1.0
 40
1.0
 40
1.0
 10
711.1320745020956
 20
1651.245878730054
 30
0.0
 10
710.9166102881983
 20
1651.619073695737
 30
0.0
 10
710.579947451045
 20
1652.426303046417
 30
0.0
 10
710.4622015210179
 20
1653.304142531852
 30
0.0
 10
710.4622015210179
 20
1653.745878730054
 30
0.0
  0
SPLINE
  5
27F
330
1EC
100
AcDbEntity
  8
P-SANR-FIXT
100
AcDbSpline
210
0.0
220
0.0
230
1.0
 70
     8
 71
     3
 72
     9
 73
     5
 74
     0
 42
0.000000001
 43
0.0000000001
 40
0.0
 40
0.0
 40
0.0
 40
0.0
 40
0.5
 40
1.0
 40
1.0
 40
1.0
 40
1.0
 10
710.4622015210179
 20
1653.745878730054
 30
0.0
 10
710.4622015210179
 20
1654.187614928256
 30
0.0
 10
710.579947451045
 20
1655.06545441369
 30
0.0
 10
710.9166102881983
 20
1655.872683764371
 30
0.0
 10
711.1320745020957
 20
1656.245878730054
 30
0.0
  0
SPLINE
  5
280
330
1EC
100
AcDbEntity
  8
P-SANR-FIXT
100
AcDbSpline
210
0.0
220
0.0
230
1.0
 70
    24
 71
     3
 72
     9
 73
     5
 74
     0
 42
0.000000001
 43
0.0000000001
 40
0.0
 40
0.0
 40
0.0
 40
0.0
 40
0.5
 40
0.8392583580897657
 40
0.8392583580897657
 40
0.8392583580897657
 40
0.8392583580897657
 10
717.4829274631811
 20
1640.245878730054
 30
0.0
 10
716.9597295486298
 20
1641.152084100471
 30
0.0
 10
716.0764641235249
 20
1642.681944693322
 30
0.0
 10
715.1846903313265
 20
1644.226542210268
 30
0.0
 10
714.8228130255663
 20
1644.85333208995
 30
0.0
  0
SPLINE
  5
281
330
1EC
100
AcDbEntity
  8
P-SANR-FIXT
100
AcDbSpline
210
0.0
220
0.0
230
1.0
 70
    24
 71
     3
 72
     9
 73
     5
 74
     0
 42
0.000000001
 43
0.0000000001
 40
0.0827373800099284
 40
0.0827373800099284
 40
0.0827373800099284
 40
0.0827373800099284
 40
0.5
 40
1.0
 40
1.0
 40
1.0
 40
1.0
 10
714.0420242689574
 20
1646.205697886376
 30
0.0
 10
713.5961556766436
 20
1646.977964941763
 30
0.0
 10
712.6206323087096
 20
1648.667620978995
 30
0.0
 10
711.655272416647
 20
1650.339673359637
 30
0.0
 10
711.1320745020956
 20
1651.245878730054
 30
0.0
  0
SPLINE
  5
282
330
1EC
100
AcDbEntity
  8
P-SANR-FIXT
100
AcDbSpline
210
0.0
220
0.0
230
1.0
 70
    24
 71
     3
 72
     8
 73
     4
 74
     0
 42
0.000000001
 43
0.0000000001
 40
0.8454711679747022
 40
0.8454711679747022
 40
0.8454711679747022
 40
0.8454711679747022
 40
0.9172626199900385
 40
0.9172626199900385
 40
0.9172626199900385
 40
0.9172626199900385
 10
713.8120714248348
 20
1646.603987895741
 30
0.0
 10
713.8886601141333
 20
1646.471332394591
 30
0.0
 10
713.9653777309655
 20
1646.338453584402
 30
0.0
 10
714.0421313557912
 20
1646.205512406539
 30
0.0
  0
LINE
  5
283
330
1EC
100
AcDbEntity
  8
P-SANR-FIXT
100
AcDbLine
 10
747.4106101044202
 20
1620.995878730064
 30
0.0
 11
767.6434538399043
 21
1620.995878730064
 31
0.0
  0
LINE
  5
284
330
1EC
100
AcDbEntity
  8
P-SANR-FIXT
100
AcDbLine
 10
767.6434538399043
 20
1686.495878730045
 30
0.0
 11
747.4106101044202
 21
1686.495878730045
 31
0.0
  0
LINE
  5
285
330
1EC
100
AcDbEntity
  8
P-SANR-FIXT
100
AcDbLine
 10
767.6434538399043
 20
1620.995878730064
 30
0.0
 11
768.2106101044208
 21
1621.563034994581
 31
0.0
  0
LINE
  5
286
330
1EC
100
AcDbEntity
  8
P-SANR-FIXT
100
AcDbLine
 10
768.2106101044208
 20
1685.928722465529
 30
0.0
 11
767.6434538399043
 21
1686.495878730045
 31
0.0
  0
LINE
  5
287
330
1EC
100
AcDbEntity
  8
P-SANR-FIXT
100
AcDbLine
 10
768.2106101044194
 20
1653.745878730054
 30
0.0
 11
768.2106101044194
 21
1621.56303499458
 31
0.0
  0
LINE
  5
288
330
1EC
100
AcDbEntity
  8
P-SANR-FIXT
100
AcDbLine
 10
768.2106101044194
 20
1685.928722465527
 30
0.0
 11
768.2106101044194
 21
1653.745878730054
 31
0.0
  0
LINE
  5
289
330
1EC
100
AcDbEntity
  8
P-SANR-FIXT
100
AcDbLine
 10
747.4106101044188
 20
1620.995878730063
 30
0.0
 11
747.4106101044188
 21
1653.745878730054
 31
0.0
  0
LINE
  5
28A
330
1EC
100
AcDbEntity
  8
P-SANR-FIXT
100
AcDbLine
 10
747.4106101044188
 20
1653.745878730054
 30
0.0
 11
747.4106101044188
 21
1686.495878730044
 31
0.0
  0
LINE
  5
28B
330
1EC
100
AcDbEntity
  8
P-SANR-FIXT
100
AcDbLine
 10
767.6434538399027
 20
1620.995878730063
 30
0.0
 11
767.6434538399027
 21
1653.745878730054
 31
0.0
  0
LINE
  5
28C
330
1EC
100
AcDbEntity
  8
P-SANR-FIXT
100
AcDbLine
 10
767.6434538399027
 20
1653.745878730054
 30
0.0
 11
767.6434538399027
 21
1686.495878730044
 31
0.0
  0
ARC
  5
28D
330
1EC
100
AcDbEntity
  8
P-SANR-FIXT
100
AcDbCircle
 10
815.6664074431878
 20
1653.745878730054
 30
0.0
 40
13.99999999999966
100
AcDbArc
 50
180.0
 51
0.0
  0
ARC
  5
28E
330
1EC
100
AcDbEntity
  8
P-SANR-FIXT
100
AcDbCircle
 10
815.6664074431878
 20
1653.745878730054
 30
0.0
 40
13.99999999999966
100
AcDbArc
 50
0.0
 51
180.0
  0
ARC
  5
28F
330
1EC
100
AcDbEntity
  8
P-SANR-FIXT
100
AcDbCircle
 10
815.6664074431878
 20
1653.745878730054
 30
0.0
 40
41.99999999999994
100
AcDbArc
 50
179.9999999999998
 51
359.9999999999991
  0
ARC
  5
290
330
1EC
100
AcDbEntity
  8
P-SANR-FIXT
100
AcDbCircle
 10
815.6664074431878
 20
1653.745878730054
 30
0.0
 40
41.99999999999991
100
AcDbArc
 50
359.9999999999996
 51
179.9999999999996
  0
LINE
  5
291
330
1EC
100
AcDbEntity
  8
P-SANR-FIXT
100
AcDbLine
 10
768.2106101161894
 20
1624.745878730054
 30
0.0
 11
769.7035030800565
 21
1624.745878730054
 31
0.0
  0
LINE
  5
292
330
1EC
100
AcDbEntity
  8
P-SANR-FIXT
100
AcDbLine
 10
769.7035030800565
 20
1682.745878730054
 30
0.0
 11
768.2106101161894
 21
1682.745878730054
 31
0.0
  0
LINE
  5
293
330
1EC
100
AcDbEntity
  8
P-SANR-FIXT
100
AcDbLine
 10
769.7035030800565
 20
1624.745878730054
 30
0.0
 11
769.7427892548729
 21
1624.813924380871
 31
0.0
  0
LINE
  5
294
330
1EC
100
AcDbEntity
  8
P-SANR-FIXT
100
AcDbLine
 10
769.7551166478277
 20
1624.835276051794
 30
0.0
 11
771.4932889145442
 21
1627.845878730054
 31
0.0
  0
LINE
  5
295
330
1EC
100
AcDbEntity
  8
P-SANR-FIXT
100
AcDbLine
 10
771.4932889145442
 20
1679.645878730054
 30
0.0
 11
769.7551166478277
 21
1682.656481408315
 31
0.0
  0
LINE
  5
296
330
1EC
100
AcDbEntity
  8
P-SANR-FIXT
100
AcDbLine
 10
769.7427892548729
 20
1682.677833079238
 30
0.0
 11
769.7035030800565
 21
1682.745878730055
 31
0.0
  0
LWPOLYLINE
  5
297
330
1EC
100
AcDbEntity
  8
P-SANR-FIXT
100
AcDbPolyline
 90
       28
 70
   128
 43
0.0
 10
772.1861092375718
 20
1628.245878730054
 10
772.1541177702227
 20
1628.245238815383
 10
772.1221774823966
 20
1628.243320095096
 10
772.0903394717407
 20
1628.240125638737
 10
772.0586546722804
 20
1628.235660556755
 10
772.0271737729357
 20
1628.229931992327
 10
771.9959471364302
 20
1628.222949109936
 10
771.9650247187206
 20
1628.214723080703
 10
771.934455989079
 20
1628.205267064521
 10
771.9042898509518
 20
1628.194596188996
 10
771.8745745637249
 20
1628.182727525256
 10
771.8453576655191
 20
1628.16968006063
 10
771.8166858971386
 20
1628.155474668278
 10
771.7886051272968
 20
1628.140134073796
 10
771.7611602792352
 20
1628.123682818865
 10
771.7343952588557
 20
1628.106147221982
 10
771.708352884482
 20
1628.087555336362
 10
771.6830748183572
 20
1628.067936905055
 10
771.6586014999948
 20
1628.047323313367
 10
771.6349720814835
 20
1628.025747538647
 10
771.6122243648522
 20
1628.003244097532
 10
771.5903947415952
 20
1627.979848990727
 10
771.5695181344527
 20
1627.955599645413
 10
771.5496279415427
 20
1627.930534855369
 10
771.5307559829311
 20
1627.904694718912
 10
771.5129324497255
 20
1627.878120574749
 10
771.4961858557773
 20
1627.85085493584
 10
771.4932889145442
 20
1627.845878730054
  0
LWPOLYLINE
  5
298
330
1EC
100
AcDbEntity
  8
P-SANR-FIXT
100
AcDbPolyline
 90
       28
 70
   128
 43
0.0
 10
771.4932889145442
 20
1679.645878730054
 10
771.5098388305805
 20
1679.618493263961
 10
771.5274706350045
 20
1679.591791523443
 10
771.5461561206906
 20
1679.565816225589
 10
771.5658653948477
 20
1679.540608925333
 10
771.5865669268413
 20
1679.516209948981
 10
771.6082275986369
 20
1679.492658329688
 10
771.6308127577796
 20
1679.469991745022
 10
771.6542862728333
 20
1679.448246456682
 10
771.678610591181
 20
1679.427457252491
 10
771.7037467991023
 20
1679.407657390743
 10
771.7296546840266
 20
1679.388878546989
 10
771.7562927988648
 20
1679.371150763377
 10
771.7836185283156
 20
1679.354502400577
 10
771.8115881570412
 20
1679.338960092418
 10
771.8401569396021
 20
1679.324548703278
 10
771.8692791720403
 20
1679.311291288306
 10
771.8989082649969
 20
1679.299209056536
 10
771.928996818243
 20
1679.288321336963
 10
771.9594966965127
 20
1679.278645547616
 10
771.9903591065063
 20
1679.270197167693
 10
772.021534674952
 20
1679.2629897128
 10
772.0529735275905
 20
1679.257034713327
 10
772.0846253689641
 20
1679.252341696003
 10
772.1164395628789
 20
1679.248918168654
 10
772.148365213411
 20
1679.246769608195
 10
772.1803512463302
 20
1679.245899451862
 10
772.1861092375718
 20
1679.245878730055
  0
LINE
  5
299
330
1EC
100
AcDbEntity
  8
P-SANR-FIXT
100
AcDbLine
 10
772.1861092375718
 20
1628.245878730054
 30
0.0
 11
782.3437912467152
 21
1628.245878730054
 31
0.0
  0
LINE
  5
29A
330
1EC
100
AcDbEntity
  8
P-SANR-FIXT
100
AcDbLine
 10
782.3437912467152
 20
1679.245878730055
 30
0.0
 11
772.1861092375718
 21
1679.245878730055
 31
0.0
  0
LINE
  5
29B
330
1EC
100
AcDbEntity
  8
P-SANR-FIXT
100
AcDbLine
 10
769.703503080055
 20
1624.745878730054
 30
0.0
 11
769.703503080055
 21
1653.745878730054
 31
0.0
  0
LINE
  5
29C
330
1EC
100
AcDbEntity
  8
P-SANR-FIXT
100
AcDbLine
 10
769.703503080055
 20
1653.745878730054
 30
0.0
 11
769.703503080055
 21
1682.745878730054
 31
0.0
  0
ENDBLK
  5
29E
330
1EC
100
AcDbEntity
  8
0
100
AcDbBlockEnd
  0
BLOCK
  5
41D
330
2A0
100
AcDbEntity
  8
0
100
AcDbBlockBegin
  2
Automatic flow rate regulator valve_Caleffi_121 DN15 - 1_2__-V2-Est - Idraulica
 70
     0
 10
0.0
 20
0.0
 30
0.0
  3
Automatic flow rate regulator valve_Caleffi_121 DN15 - 1_2__-V2-Est - Idraulica
  1

  0
LINE
  5
2A1
330
2A0
100
AcDbEntity
  8
M-PIPE
100
AcDbLine
 10
1156.114353943054
 20
2041.982558850012
 30
0.0
 11
1156.114353943054
 21
2042.482558850022
 31
0.0
1001
REVIT
1002
{
1070
     3
1000
790271
1002
}
  0
LINE
  5
2A2
330
2A0
100
AcDbEntity
  8
M-PIPE
100
AcDbLine
 10
1128.114353943054
 20
2042.482558850022
 30
0.0
 11
1128.114353943054
 21
2041.982558850012
 31
0.0
1001
REVIT
1002
{
1070
     3
1000
790271
1002
}
  0
LINE
  5
2A3
330
2A0
100
AcDbEntity
  8
M-PIPE
100
AcDbLine
 10
1156.114353943054
 20
2038.959909119201
 30
0.0
 11
1156.114353943054
 21
2041.982558850012
 31
0.0
1001
REVIT
1002
{
1070
     3
1000
790271
1002
}
  0
LINE
  5
2A4
330
2A0
100
AcDbEntity
  8
M-PIPE
100
AcDbLine
 10
1128.114353943054
 20
2041.982558850012
 30
0.0
 11
1128.114353943054
 21
2038.959909119201
 31
0.0
1001
REVIT
1002
{
1070
     3
1000
790271
1002
}
  0
LINE
  5
2A5
330
2A0
100
AcDbEntity
  8
M-PIPE
100
AcDbLine
 10
1155.114353943054
 20
2038.382558850011
 30
0.0
 11
1156.046940116464
 21
2038.920987728273
 31
0.0
1001
REVIT
1002
{
1070
     3
1000
790271
1002
}
  0
LINE
  5
2A6
330
2A0
100
AcDbEntity
  8
M-PIPE
100
AcDbLine
 10
1156.055294237484
 20
2038.925810982292
 30
0.0
 11
1156.114353943054
 21
2038.959909119201
 31
0.0
1001
REVIT
1002
{
1070
     3
1000
790271
1002
}
  0
LINE
  5
2A7
330
2A0
100
AcDbEntity
  8
M-PIPE
100
AcDbLine
 10
1128.114353943054
 20
2038.959909119201
 30
0.0
 11
1128.173413648624
 21
2038.925810982292
 31
0.0
1001
REVIT
1002
{
1070
     3
1000
790271
1002
}
  0
LINE
  5
2A8
330
2A0
100
AcDbEntity
  8
M-PIPE
100
AcDbLine
 10
1128.181767769643
 20
2038.920987728273
 30
0.0
 11
1129.114353943054
 21
2038.382558850011
 31
0.0
1001
REVIT
1002
{
1070
     3
1000
790271
1002
}
  0
LINE
  5
2A9
330
2A0
100
AcDbEntity
  8
M-PIPE
100
AcDbLine
 10
1155.114353943054
 20
2035.982558850012
 30
0.0
 11
1155.114353943054
 21
2038.382558850011
 31
0.0
1001
REVIT
1002
{
1070
     3
1000
790271
1002
}
  0
LINE
  5
2AA
330
2A0
100
AcDbEntity
  8
M-PIPE
100
AcDbLine
 10
1129.114353943054
 20
2038.382558850011
 30
0.0
 11
1129.114353943054
 21
2035.982558850012
 31
0.0
1001
REVIT
1002
{
1070
     3
1000
790271
1002
}
  0
LINE
  5
2AB
330
2A0
100
AcDbEntity
  8
M-PIPE
100
AcDbLine
 10
1158.61435394299
 20
2019.982558850012
 30
0.0
 11
1158.61435394299
 21
2035.482558850012
 31
0.0
1001
REVIT
1002
{
1070
     3
1000
790271
1002
}
  0
LINE
  5
2AC
330
2A0
100
AcDbEntity
  8
M-PIPE
100
AcDbLine
 10
1125.614353943117
 20
2035.482558850012
 30
0.0
 11
1125.614353943117
 21
2019.982558850012
 31
0.0
1001
REVIT
1002
{
1070
     3
1000
790271
1002
}
  0
LINE
  5
2AD
330
2A0
100
AcDbEntity
  8
M-PIPE
100
AcDbLine
 10
1158.614353943022
 20
2035.482558849981
 30
0.0
 11
1158.114353942991
 21
2035.982558850012
 31
0.0
1001
REVIT
1002
{
1070
     3
1000
790271
1002
}
  0
LINE
  5
2AE
330
2A0
100
AcDbEntity
  8
M-PIPE
100
AcDbLine
 10
1126.114353943117
 20
2035.982558850012
 30
0.0
 11
1125.614353943149
 21
2035.482558850043
 31
0.0
1001
REVIT
1002
{
1070
     3
1000
790271
1002
}
  0
LINE
  5
2AF
330
2A0
100
AcDbEntity
  8
M-PIPE
100
AcDbLine
 10
1142.114353943052
 20
2038.9599091192
 30
0.0
 11
1156.114353943052
 21
2038.9599091192
 31
0.0
1001
REVIT
1002
{
1070
     3
1000
790271
1002
}
  0
LINE
  5
2B0
330
2A0
100
AcDbEntity
  8
M-PIPE
100
AcDbLine
 10
1128.114353943052
 20
2038.9599091192
 30
0.0
 11
1142.114353943052
 21
2038.9599091192
 31
0.0
1001
REVIT
1002
{
1070
     3
1000
790271
1002
}
  0
LINE
  5
2B1
330
2A0
100
AcDbEntity
  8
M-PIPE
100
AcDbLine
 10
1142.114353943052
 20
2038.382558850011
 30
0.0
 11
1155.114353943052
 21
2038.382558850011
 31
0.0
1001
REVIT
1002
{
1070
     3
1000
790271
1002
}
  0
LINE
  5
2B2
330
2A0
100
AcDbEntity
  8
M-PIPE
100
AcDbLine
 10
1129.114353943052
 20
2038.382558850011
 30
0.0
 11
1142.114353943052
 21
2038.382558850011
 31
0.0
1001
REVIT
1002
{
1070
     3
1000
790271
1002
}
  0
LINE
  5
2B3
330
2A0
100
AcDbEntity
  8
M-PIPE
100
AcDbLine
 10
1142.114353943052
 20
2035.98255885001
 30
0.0
 11
1158.114353942989
 21
2035.982558850011
 31
0.0
1001
REVIT
1002
{
1070
     3
1000
790271
1002
}
  0
LINE
  5
2B4
330
2A0
100
AcDbEntity
  8
M-PIPE
100
AcDbLine
 10
1126.114353943115
 20
2035.982558850011
 30
0.0
 11
1142.114353943052
 21
2035.98255885001
 31
0.0
1001
REVIT
1002
{
1070
     3
1000
790271
1002
}
  0
LINE
  5
2B5
330
2A0
100
AcDbEntity
  8
M-PIPE
100
AcDbLine
 10
1142.114353943052
 20
2019.98255885001
 30
0.0
 11
1158.614353942989
 21
2019.982558850011
 31
0.0
1001
REVIT
1002
{
1070
     3
1000
790271
1002
}
  0
LINE
  5
2B6
330
2A0
100
AcDbEntity
  8
M-PIPE
100
AcDbLine
 10
1158.614353942989
 20
2035.482558850011
 30
0.0
 11
1142.114353943052
 21
2035.482558850011
 31
0.0
1001
REVIT
1002
{
1070
     3
1000
790271
1002
}
  0
LINE
  5
2B7
330
2A0
100
AcDbEntity
  8
M-PIPE
100
AcDbLine
 10
1125.614353943116
 20
2019.982558850011
 30
0.0
 11
1142.114353943052
 21
2019.98255885001
 31
0.0
1001
REVIT
1002
{
1070
     3
1000
790271
1002
}
  0
LINE
  5
2B8
330
2A0
100
AcDbEntity
  8
M-PIPE
100
AcDbLine
 10
1142.114353943052
 20
2035.482558850011
 30
0.0
 11
1125.614353943116
 21
2035.482558850011
 31
0.0
1001
REVIT
1002
{
1070
     3
1000
790271
1002
}
  0
LINE
  5
2B9
330
2A0
100
AcDbEntity
  8
M-PIPE
100
AcDbLine
 10
1156.114353943054
 20
1957.48255885
 30
0.0
 11
1156.114353943054
 21
1957.982558850011
 31
0.0
1001
REVIT
1002
{
1070
     3
1000
790271
1002
}
  0
LINE
  5
2BA
330
2A0
100
AcDbEntity
  8
M-PIPE
100
AcDbLine
 10
1128.114353943054
 20
1957.982558850011
 30
0.0
 11
1128.114353943054
 21
1957.48255885
 31
0.0
1001
REVIT
1002
{
1070
     3
1000
790271
1002
}
  0
LINE
  5
2BB
330
2A0
100
AcDbEntity
  8
M-PIPE
100
AcDbLine
 10
1156.114353943054
 20
1957.982558850011
 30
0.0
 11
1156.114353943054
 21
1961.005208580822
 31
0.0
1001
REVIT
1002
{
1070
     3
1000
790271
1002
}
  0
LINE
  5
2BC
330
2A0
100
AcDbEntity
  8
M-PIPE
100
AcDbLine
 10
1128.114353943054
 20
1961.005208580822
 30
0.0
 11
1128.114353943054
 21
1957.982558850011
 31
0.0
1001
REVIT
1002
{
1070
     3
1000
790271
1002
}
  0
LINE
  5
2BD
330
2A0
100
AcDbEntity
  8
M-PIPE
100
AcDbLine
 10
1156.114353943054
 20
1961.005208580822
 30
0.0
 11
1156.055294237484
 21
1961.03930671773
 31
0.0
1001
REVIT
1002
{
1070
     3
1000
790271
1002
}
  0
LINE
  5
2BE
330
2A0
100
AcDbEntity
  8
M-PIPE
100
AcDbLine
 10
1156.046940116465
 20
1961.04412997175
 30
0.0
 11
1155.114353943054
 21
1961.582558850011
 31
0.0
1001
REVIT
1002
{
1070
     3
1000
790271
1002
}
  0
LINE
  5
2BF
330
2A0
100
AcDbEntity
  8
M-PIPE
100
AcDbLine
 10
1129.114353943054
 20
1961.582558850011
 30
0.0
 11
1128.181767769643
 21
1961.04412997175
 31
0.0
1001
REVIT
1002
{
1070
     3
1000
790271
1002
}
  0
LINE
  5
2C0
330
2A0
100
AcDbEntity
  8
M-PIPE
100
AcDbLine
 10
1128.173413648625
 20
1961.03930671773
 30
0.0
 11
1128.114353943054
 21
1961.005208580822
 31
0.0
1001
REVIT
1002
{
1070
     3
1000
790271
1002
}
  0
LINE
  5
2C1
330
2A0
100
AcDbEntity
  8
M-PIPE
100
AcDbLine
 10
1155.114353943054
 20
1961.582558850011
 30
0.0
 11
1155.114353943054
 21
1963.982558850011
 31
0.0
1001
REVIT
1002
{
1070
     3
1000
790271
1002
}
  0
LINE
  5
2C2
330
2A0
100
AcDbEntity
  8
M-PIPE
100
AcDbLine
 10
1129.114353943054
 20
1963.982558850011
 30
0.0
 11
1129.114353943054
 21
1961.582558850011
 31
0.0
1001
REVIT
1002
{
1070
     3
1000
790271
1002
}
  0
LINE
  5
2C3
330
2A0
100
AcDbEntity
  8
M-PIPE
100
AcDbLine
 10
1158.61435394299
 20
1964.482558850011
 30
0.0
 11
1158.61435394299
 21
1979.982558850011
 31
0.0
1001
REVIT
1002
{
1070
     3
1000
790271
1002
}
  0
LINE
  5
2C4
330
2A0
100
AcDbEntity
  8
M-PIPE
100
AcDbLine
 10
1125.614353943117
 20
1979.982558850011
 30
0.0
 11
1125.614353943117
 21
1964.482558850011
 31
0.0
1001
REVIT
1002
{
1070
     3
1000
790271
1002
}
  0
LWPOLYLINE
  5
2C5
330
2A0
100
AcDbEntity
  8
M-PIPE
100
AcDbPolyline
 90
        3
 70
   128
 43
0.0
 10
1126.114353943054
 20
1999.966560983231
 10
1126.114353943054
 20
1999.918592976064
 10
1126.114353943054
 20
1999.896259574637
1001
REVIT
1002
{
1070
     3
1000
790271
1002
}
  0
LWPOLYLINE
  5
2C6
330
2A0
100
AcDbEntity
  8
M-PIPE
100
AcDbPolyline
 90
       28
 70
   128
 43
0.0
 10
1126.114353943054
 20
1997.338942443564
 10
1126.114353943054
 20
1996.92766107028
 10
1126.114353943054
 20
1996.489271148205
 10
1126.114353943054
 20
1996.024474007697
 10
1126.114353943054
 20
1995.53401322503
 10
1126.114353943054
 20
1995.018673432829
 10
1126.114353943054
 20
1994.47927906483
 10
1126.114353943054
 20
1993.916693036955
 10
1126.114353943054
 20
1993.331815366838
 10
1126.114353943054
 20
1992.725581733983
 10
1126.114353943054
 20
1992.09896198288
 10
1126.114353943054
 20
1991.45295857146
 10
1126.114353943054
 20
1990.788604967374
 10
1126.114353943054
 20
1990.106963994667
 10
1126.114353943054
 20
1989.409126133486
 10
1126.114353943054
 20
1988.696207775545
 10
1126.114353943054
 20
1987.969349438136
 10
1126.114353943054
 20
1987.229713939545
 10
1126.114353943054
 20
1986.478484538787
 10
1126.114353943054
 20
1985.71686304265
 10
1126.114353943054
 20
1984.946067883059
 10
1126.114353943054
 20
1984.167332167839
 10
1126.114353943054
 20
1983.381901708016
 10
1126.114353943054
 20
1982.591033024774
 10
1126.114353943054
 20
1981.795991339297
 10
1126.114353943054
 20
1980.998048548683
 10
1126.114353943054
 20
1980.198481191176
 10
1126.114353943054
 20
1979.982558850011
1001
REVIT
1002
{
1070
     3
1000
790271
1002
}
  0
LWPOLYLINE
  5
2C7
330
2A0
100
AcDbEntity
  8
M-PIPE
100
AcDbPolyline
 90
       28
 70
   128
 43
0.0
 10
1158.114353943054
 20
1979.982558850011
 10
1158.114353943054
 20
1980.782345533744
 10
1158.114353943054
 20
1981.580852729395
 10
1158.114353943054
 20
1982.37680299579
 10
1158.114353943054
 20
1983.168922982296
 10
1158.114353943054
 20
1983.955945465913
 10
1158.114353943054
 20
1984.736611378554
 10
1158.114353943054
 20
1985.509671821293
 10
1158.114353943054
 20
1986.273890062333
 10
1158.114353943054
 20
1987.028043515513
 10
1158.114353943054
 20
1987.770925696184
 10
1158.114353943054
 20
1988.501348151331
 10
1158.114353943054
 20
1989.218142360841
 10
1158.114353943054
 20
1989.920161606886
 10
1158.114353943054
 20
1990.606282808429
 10
1158.114353943054
 20
1991.275408317912
 10
1158.114353943054
 20
1991.926467677259
 10
1158.114353943054
 20
1992.558419330381
 10
1158.114353943054
 20
1993.170252289441
 10
1158.114353943054
 20
1993.760987752223
 10
1158.114353943054
 20
1994.329680668002
 10
1158.114353943054
 20
1994.875421249428
 10
1158.114353943054
 20
1995.397336427991
 10
1158.114353943054
 20
1995.894591250739
 10
1158.114353943054
 20
1996.366390216032
 10
1158.114353943054
 20
1996.81197854617
 10
1158.114353943054
 20
1997.230643394878
 10
1158.114353943054
 20
1997.313621511936
1001
REVIT
1002
{
1070
     3
1000
790271
1002
}
  0
LWPOLYLINE
  5
2C8
330
2A0
100
AcDbEntity
  8
M-PIPE
100
AcDbPolyline
 90
        4
 70
   128
 43
0.0
 10
1158.114353943054
 20
1999.900175740764
 10
1158.114353943054
 20
1999.956761729523
 10
1158.114353943054
 20
1999.981393254611
 10
1158.114353943054
 20
1999.982558850011
1001
REVIT
1002
{
1070
     3
1000
790271
1002
}
  0
LINE
  5
2C9
330
2A0
100
AcDbEntity
  8
M-PIPE
100
AcDbLine
 10
1158.114353942991
 20
1963.982558850011
 30
0.0
 11
1158.614353942959
 21
1964.482558849979
 31
0.0
1001
REVIT
1002
{
1070
     3
1000
790271
1002
}
  0
LINE
  5
2CA
330
2A0
100
AcDbEntity
  8
M-PIPE
100
AcDbLine
 10
1125.614353943086
 20
1964.482558850042
 30
0.0
 11
1126.114353943117
 21
1963.982558850011
 31
0.0
1001
REVIT
1002
{
1070
     3
1000
790271
1002
}
  0
LINE
  5
2CB
330
2A0
100
AcDbEntity
  8
M-PIPE
100
AcDbLine
 10
1152.243084222304
 20
2005.841124440709
 30
0.0
 11
1157.475569875096
 21
2014.904055441217
 31
0.0
1001
REVIT
1002
{
1070
     3
1000
790271
1002
}
  0
LINE
  5
2CC
330
2A0
100
AcDbEntity
  8
M-PIPE
100
AcDbLine
 10
1126.753138011012
 20
2014.904055441217
 30
0.0
 11
1131.985623663803
 21
2005.841124440708
 31
0.0
1001
REVIT
1002
{
1070
     3
1000
790271
1002
}
  0
LWPOLYLINE
  5
2CD
330
2A0
100
AcDbEntity
  8
M-PIPE
100
AcDbPolyline
 90
       15
 70
   128
 43
0.0
 10
1158.614353942928
 20
2019.154055441218
 10
1158.607554849546
 20
2018.814146100631
 10
1158.5871684465
 20
2018.47478054248
 10
1158.553227347685
 20
2018.136501679262
 10
1158.505785851621
 20
2017.799850684997
 10
1158.444919854578
 20
2017.46536612946
 10
1158.37072672917
 20
2017.133583116587
 10
1158.283325168569
 20
2016.805032428422
 10
1158.182854996629
 20
2016.480239675981
 10
1158.06947694419
 20
2016.159724458379
 10
1157.943372391952
 20
2015.843999531594
 10
1157.804743080298
 20
2015.533569988157
 10
1157.653810786551
 20
2015.228932449115
 10
1157.490816970188
 20
2014.930574269546
 10
1157.475569875096
 20
2014.904055441217
1001
REVIT
1002
{
1070
     3
1000
790271
1002
}
  0
LWPOLYLINE
  5
2CE
330
2A0
100
AcDbEntity
  8
M-PIPE
100
AcDbPolyline
 90
       15
 70
   128
 43
0.0
 10
1126.753138011012
 20
2014.904055441217
 10
1126.589071528311
 20
2015.20182511184
 10
1126.437043892164
 20
2015.505917507891
 10
1126.297298314361
 20
2015.815846146409
 10
1126.170058358014
 20
2016.131115207684
 10
1126.055527579911
 20
2016.451220328474
 10
1125.953889204865
 20
2016.77564940887
 10
1125.865305832593
 20
2017.103883431552
 10
1125.789919177595
 20
2017.435397292102
 10
1125.727849842438
 20
2017.769660639063
 10
1125.679197124816
 20
2018.106138722386
 10
1125.6440388587
 20
2018.444293248915
 10
1125.622431289814
 20
2018.783583243545
 10
1125.614408985661
 20
2019.12346591466
 10
1125.61435394318
 20
2019.154055441217
1001
REVIT
1002
{
1070
     3
1000
790271
1002
}
  0
LINE
  5
2CF
330
2A0
100
AcDbEntity
  8
M-PIPE
100
AcDbLine
 10
1158.614353942928
 20
2019.154055441218
 30
0.0
 11
1158.614353942928
 21
2019.982558850012
 31
0.0
1001
REVIT
1002
{
1070
     3
1000
790271
1002
}
  0
LINE
  5
2D0
330
2A0
100
AcDbEntity
  8
M-PIPE
100
AcDbLine
 10
1125.61435394318
 20
2019.982558850012
 30
0.0
 11
1125.61435394318
 21
2019.154055441217
 31
0.0
1001
REVIT
1002
{
1070
     3
1000
790271
1002
}
  0
LINE
  5
2D1
330
2A0
100
AcDbEntity
  8
M-PIPE
100
AcDbLine
 10
1156.114353943052
 20
1961.005208580821
 30
0.0
 11
1142.114353943052
 21
1961.00520858082
 31
0.0
1001
REVIT
1002
{
1070
     3
1000
790271
1002
}
  0
LINE
  5
2D2
330
2A0
100
AcDbEntity
  8
M-PIPE
100
AcDbLine
 10
1142.114353943052
 20
1961.00520858082
 30
0.0
 11
1128.114353943052
 21
1961.00520858082
 31
0.0
1001
REVIT
1002
{
1070
     3
1000
790271
1002
}
  0
LINE
  5
2D3
330
2A0
100
AcDbEntity
  8
M-PIPE
100
AcDbLine
 10
1155.114353943052
 20
1961.58255885001
 30
0.0
 11
1142.114353943052
 21
1961.58255885001
 31
0.0
1001
REVIT
1002
{
1070
     3
1000
790271
1002
}
  0
LINE
  5
2D4
330
2A0
100
AcDbEntity
  8
M-PIPE
100
AcDbLine
 10
1142.114353943052
 20
1961.58255885001
 30
0.0
 11
1129.114353943052
 21
1961.58255885001
 31
0.0
1001
REVIT
1002
{
1070
     3
1000
790271
1002
}
  0
LINE
  5
2D5
330
2A0
100
AcDbEntity
  8
M-PIPE
100
AcDbLine
 10
1158.114353942989
 20
1963.98255885001
 30
0.0
 11
1142.114353943052
 21
1963.98255885001
 31
0.0
1001
REVIT
1002
{
1070
     3
1000
790271
1002
}
  0
LINE
  5
2D6
330
2A0
100
AcDbEntity
  8
M-PIPE
100
AcDbLine
 10
1142.114353943052
 20
1963.98255885001
 30
0.0
 11
1126.114353943115
 21
1963.98255885001
 31
0.0
1001
REVIT
1002
{
1070
     3
1000
790271
1002
}
  0
LINE
  5
2D7
330
2A0
100
AcDbEntity
  8
M-PIPE
100
AcDbLine
 10
1142.114353943052
 20
1964.48255885001
 30
0.0
 11
1158.614353942989
 21
1964.48255885001
 31
0.0
1001
REVIT
1002
{
1070
     3
1000
790271
1002
}
  0
LINE
  5
2D8
330
2A0
100
AcDbEntity
  8
M-PIPE
100
AcDbLine
 10
1125.614353943116
 20
1964.48255885001
 30
0.0
 11
1142.114353943052
 21
1964.48255885001
 31
0.0
1001
REVIT
1002
{
1070
     3
1000
790271
1002
}
  0
LINE
  5
2D9
330
2A0
100
AcDbEntity
  8
M-PIPE
100
AcDbLine
 10
1158.614353942989
 20
1979.98255885001
 30
0.0
 11
1145.679644290853
 21
1979.98255885001
 31
0.0
1001
REVIT
1002
{
1070
     3
1000
790271
1002
}
  0
LINE
  5
2DA
330
2A0
100
AcDbEntity
  8
M-PIPE
100
AcDbLine
 10
1145.417771220877
 20
1979.98255885001
 30
0.0
 11
1143.907835680933
 21
1979.98255885001
 31
0.0
1001
REVIT
1002
{
1070
     3
1000
790271
1002
}
  0
LINE
  5
2DB
330
2A0
100
AcDbEntity
  8
M-PIPE
100
AcDbLine
 10
1143.731636758483
 20
1979.98255885001
 30
0.0
 11
1142.114353943052
 21
1979.98255885001
 31
0.0
1001
REVIT
1002
{
1070
     3
1000
790271
1002
}
  0
LINE
  5
2DC
330
2A0
100
AcDbEntity
  8
M-PIPE
100
AcDbLine
 10
1147.908519450109
 20
1979.98255885001
 30
0.0
 11
1146.907796240623
 21
1979.98255885001
 31
0.0
1001
REVIT
1002
{
1070
     3
1000
790271
1002
}
  0
LINE
  5
2DD
330
2A0
100
AcDbEntity
  8
M-PIPE
100
AcDbLine
 10
1145.674688886353
 20
1979.98255885001
 30
0.0
 11
1145.417464360355
 21
1979.98255885001
 31
0.0
1001
REVIT
1002
{
1070
     3
1000
790271
1002
}
  0
LINE
  5
2DE
330
2A0
100
AcDbEntity
  8
M-PIPE
100
AcDbLine
 10
1145.334527360446
 20
1979.98255885001
 30
0.0
 11
1143.905785560705
 21
1979.98255885001
 31
0.0
1001
REVIT
1002
{
1070
     3
1000
790271
1002
}
  0
LINE
  5
2DF
330
2A0
100
AcDbEntity
  8
M-PIPE
100
AcDbLine
 10
1143.731354683621
 20
1979.98255885001
 30
0.0
 11
1142.114353943052
 21
1979.98255885001
 31
0.0
1001
REVIT
1002
{
1070
     3
1000
790271
1002
}
  0
LINE
  5
2E0
330
2A0
100
AcDbEntity
  8
M-PIPE
100
AcDbLine
 10
1142.114353943052
 20
1979.98255885001
 30
0.0
 11
1140.444475763046
 21
1979.98255885001
 31
0.0
1001
REVIT
1002
{
1070
     3
1000
790271
1002
}
  0
LINE
  5
2E1
330
2A0
100
AcDbEntity
  8
M-PIPE
100
AcDbLine
 10
1140.320872205171
 20
1979.98255885001
 30
0.0
 11
1137.324656768371
 21
1979.98255885001
 31
0.0
1001
REVIT
1002
{
1070
     3
1000
790271
1002
}
  0
LINE
  5
2E2
330
2A0
100
AcDbEntity
  8
M-PIPE
100
AcDbLine
 10
1136.821826037048
 20
1979.98255885001
 30
0.0
 11
1125.614353943116
 21
1979.98255885001
 31
0.0
1001
REVIT
1002
{
1070
     3
1000
790271
1002
}
  0
LINE
  5
2E3
330
2A0
100
AcDbEntity
  8
M-PIPE
100
AcDbLine
 10
1142.114353943052
 20
1979.98255885001
 30
0.0
 11
1140.497353202482
 21
1979.98255885001
 31
0.0
1001
REVIT
1002
{
1070
     3
1000
790271
1002
}
  0
LINE
  5
2E4
330
2A0
100
AcDbEntity
  8
M-PIPE
100
AcDbLine
 10
1140.445284530004
 20
1979.98255885001
 30
0.0
 11
1138.894180525658
 21
1979.98255885001
 31
0.0
1001
REVIT
1002
{
1070
     3
1000
790271
1002
}
  0
LINE
  5
2E5
330
2A0
100
AcDbEntity
  8
M-PIPE
100
AcDbLine
 10
1138.554018999751
 20
1979.98255885001
 30
0.0
 11
1137.95456622723
 21
1979.98255885001
 31
0.0
1001
REVIT
1002
{
1070
     3
1000
790271
1002
}
  0
LINE
  5
2E6
330
2A0
100
AcDbEntity
  8
M-PIPE
100
AcDbLine
 10
1137.32091164548
 20
1979.98255885001
 30
0.0
 11
1136.829888951769
 21
1979.98255885001
 31
0.0
1001
REVIT
1002
{
1070
     3
1000
790271
1002
}
  0
LINE
  5
2E7
330
2A0
100
AcDbEntity
  8
M-PIPE
100
AcDbLine
 10
1135.469313709782
 20
1979.98255885001
 30
0.0
 11
1135.172214117171
 21
1979.98255885001
 31
0.0
1001
REVIT
1002
{
1070
     3
1000
790271
1002
}
  0
SPLINE
  5
2E8
330
2A0
100
AcDbEntity
  8
M-PIPE
100
AcDbSpline
210
0.0
220
0.0
230
1.0
 70
     8
 71
     3
 72
    12
 73
     8
 74
     0
 42
0.000000001
 43
0.0000000001
 40
-1.0
 40
-1.0
 40
-1.0
 40
-1.0
 40
-0.8
 40
-0.6
 40
-0.4
 40
-0.2
 40
0.0
 40
0.0
 40
0.0
 40
0.0
 10
1150.323641901991
 20
2004.144973858162
 30
0.0
 10
1149.947571991497
 20
2003.95573447833
 30
0.0
 10
1149.132484051092
 20
2003.591551664714
 30
0.0
 10
1147.675604240544
 20
2003.116664399854
 30
0.0
 10
1145.987837024236
 20
2002.746303674042
 30
0.0
 10
1144.106073763916
 20
2002.508027382055
 30
0.0
 10
1142.780536771151
 20
2002.454994409736
 30
0.0
 10
1142.114353943052
 20
2002.453793103664
 30
0.0
1001
REVIT
1002
{
1070
     3
1000
790271
1002
}
  0
SPLINE
  5
2E9
330
2A0
100
AcDbEntity
  8
M-PIPE
100
AcDbSpline
210
0.0
220
0.0
230
1.0
 70
     8
 71
     3
 72
    11
 73
     7
 74
     0
 42
0.000000001
 43
0.0000000001
 40
-1.0
 40
-1.0
 40
-1.0
 40
-1.0
 40
-0.6
 40
-0.4
 40
-0.2
 40
0.0
 40
0.0
 40
0.0
 40
0.0
 10
1142.114353943052
 20
2002.453793103664
 30
0.0
 10
1140.781988286855
 20
2002.456195715807
 30
0.0
 10
1138.803512485126
 20
2002.621591265796
 30
0.0
 10
1136.55309370345
 20
2003.116902557443
 30
0.0
 10
1135.096226675615
 20
2003.591483619688
 30
0.0
 10
1134.281135894606
 20
2003.95573447833
 30
0.0
 10
1133.905065984113
 20
2004.144973858162
 30
0.0
1001
REVIT
1002
{
1070
     3
1000
790271
1002
}
  0
SPLINE
  5
2EA
330
2A0
100
AcDbEntity
  8
M-PIPE
100
AcDbSpline
210
0.0
220
0.0
230
1.0
 70
     8
 71
     3
 72
     9
 73
     5
 74
     0
 42
0.000000001
 43
0.0000000001
 40
-0.2025260679684679
 40
-0.2025260679684679
 40
-0.2025260679684679
 40
-0.2025260679684679
 40
-0.1428571428571428
 40
0.0
 40
0.0
 40
0.0
 40
0.0
 10
1152.243153142137
 20
2005.841231284218
 30
0.0
 10
1152.129352453297
 20
2005.644086725353
 30
0.0
 10
1151.673483886339
 20
2005.003507478986
 30
0.0
 10
1150.96615506143
 20
2004.472204328991
 30
0.0
 10
1150.323641901991
 20
2004.144973858162
 30
0.0
1001
REVIT
1002
{
1070
     3
1000
790271
1002
}
  0
SPLINE
  5
2EB
330
2A0
100
AcDbEntity
  8
M-PIPE
100
AcDbSpline
210
0.0
220
0.0
230
1.0
 70
     8
 71
     3
 72
     9
 73
     5
 74
     0
 42
0.000000001
 43
0.0000000001
 40
-1.0
 40
-1.0
 40
-1.0
 40
-1.0
 40
-0.8571428571428571
 40
-0.7974739320315607
 40
-0.7974739320315607
 40
-0.7974739320315607
 40
-0.7974739320315607
 10
1133.905065984113
 20
2004.144973858162
 30
0.0
 10
1133.262552824674
 20
2004.472204328991
 30
0.0
 10
1132.555245688272
 20
2005.003480608329
 30
0.0
 10
1132.099337314989
 20
2005.644109172158
 30
0.0
 10
1131.985546315076
 20
2005.841241727068
 30
0.0
1001
REVIT
1002
{
1070
     3
1000
790271
1002
}
  0
LINE
  5
2EC
330
2A0
100
AcDbEntity
  8
M-PIPE
100
AcDbLine
 10
1158.614353942926
 20
2019.982558850011
 30
0.0
 11
1142.114353943052
 21
2019.982558850011
 31
0.0
1001
REVIT
1002
{
1070
     3
1000
790271
1002
}
  0
LINE
  5
2ED
330
2A0
100
AcDbEntity
  8
M-PIPE
100
AcDbLine
 10
1142.114353943052
 20
2019.982558850011
 30
0.0
 11
1125.614353943178
 21
2019.982558850011
 31
0.0
1001
REVIT
1002
{
1070
     3
1000
790271
1002
}
  0
LINE
  5
2EE
330
2A0
100
AcDbEntity
  8
P-SANR-FIXT
100
AcDbLine
 10
1154.114353943097
 20
2064.758603465317
 30
0.0
 11
1153.493358181317
 21
2065.379599227097
 31
0.0
  0
LINE
  5
2EF
330
2A0
100
AcDbEntity
  8
P-SANR-FIXT
100
AcDbLine
 10
1130.114353943098
 20
2064.758603465317
 30
0.0
 11
1130.114353943098
 21
2063.379599227097
 31
0.0
  0
LINE
  5
2F0
330
2A0
100
AcDbEntity
  8
P-SANR-FIXT
100
AcDbLine
 10
1130.735349704878
 20
2065.379599227097
 30
0.0
 11
1130.114353943098
 21
2064.758603465317
 31
0.0
  0
LINE
  5
2F1
330
2A0
100
AcDbEntity
  8
P-SANR-FIXT
100
AcDbLine
 10
1154.114353943097
 20
2063.379599227097
 30
0.0
 11
1154.114353943097
 21
2064.758603465317
 31
0.0
  0
LINE
  5
2F2
330
2A0
100
AcDbEntity
  8
P-SANR-FIXT
100
AcDbLine
 10
1153.493358181315
 20
2065.379599227097
 30
0.0
 11
1142.114353943096
 21
2065.379599227097
 31
0.0
  0
LINE
  5
2F3
330
2A0
100
AcDbEntity
  8
P-SANR-FIXT
100
AcDbLine
 10
1142.114353943096
 20
2064.758603465316
 30
0.0
 11
1130.114353943096
 21
2064.758603465316
 31
0.0
  0
LINE
  5
2F4
330
2A0
100
AcDbEntity
  8
P-SANR-FIXT
100
AcDbLine
 10
1130.735349704877
 20
2065.379599227097
 30
0.0
 11
1142.114353943096
 21
2065.379599227097
 31
0.0
  0
LINE
  5
2F5
330
2A0
100
AcDbEntity
  8
P-SANR-FIXT
100
AcDbLine
 10
1142.114353943096
 20
2064.758603465316
 30
0.0
 11
1154.114353943096
 21
2064.758603465316
 31
0.0
  0
LINE
  5
2F6
330
2A0
100
AcDbEntity
  8
P-SANR-FIXT
100
AcDbLine
 10
1128.714353943097
 20
2063.379599227097
 30
0.0
 11
1128.714353943097
 21
2056.154653230889
 31
0.0
  0
LINE
  5
2F7
330
2A0
100
AcDbEntity
  8
P-SANR-FIXT
100
AcDbLine
 10
1155.514353943098
 20
2056.154653230888
 30
0.0
 11
1155.514353943098
 21
2063.379599227097
 31
0.0
  0
LINE
  5
2F8
330
2A0
100
AcDbEntity
  8
P-SANR-FIXT
100
AcDbLine
 10
1128.714353943095
 20
2063.379599227096
 30
0.0
 11
1128.740438794507
 21
2063.379599227096
 31
0.0
  0
LINE
  5
2F9
330
2A0
100
AcDbEntity
  8
P-SANR-FIXT
100
AcDbLine
 10
1128.740438794507
 20
2063.379599227096
 30
0.0
 11
1134.703659400858
 21
2063.379599227096
 31
0.0
  0
LINE
  5
2FA
330
2A0
100
AcDbEntity
  8
P-SANR-FIXT
100
AcDbLine
 10
1134.703659400858
 20
2063.379599227096
 30
0.0
 11
1136.151133336745
 21
2063.379599227096
 31
0.0
  0
LINE
  5
2FB
330
2A0
100
AcDbEntity
  8
P-SANR-FIXT
100
AcDbLine
 10
1136.151133336745
 20
2063.379599227096
 30
0.0
 11
1148.077574549447
 21
2063.379599227096
 31
0.0
  0
LINE
  5
2FC
330
2A0
100
AcDbEntity
  8
P-SANR-FIXT
100
AcDbLine
 10
1148.077574549447
 20
2063.379599227096
 30
0.0
 11
1149.525048485334
 21
2063.379599227096
 31
0.0
  0
LINE
  5
2FD
330
2A0
100
AcDbEntity
  8
P-SANR-FIXT
100
AcDbLine
 10
1149.525048485334
 20
2063.379599227096
 30
0.0
 11
1155.488269091685
 21
2063.379599227096
 31
0.0
  0
LINE
  5
2FE
330
2A0
100
AcDbEntity
  8
P-SANR-FIXT
100
AcDbLine
 10
1155.488269091685
 20
2063.379599227096
 30
0.0
 11
1155.514353943096
 21
2063.379599227096
 31
0.0
  0
LINE
  5
2FF
330
2A0
100
AcDbEntity
  8
P-SANR-FIXT
100
AcDbLine
 10
1128.740438794507
 20
2056.169713326872
 30
0.0
 11
1128.740438794507
 21
2063.379599227096
 31
0.0
  0
LINE
  5
300
330
2A0
100
AcDbEntity
  8
P-SANR-FIXT
100
AcDbLine
 10
1134.703659400858
 20
2057.540293876943
 30
0.0
 11
1134.703659400858
 21
2063.379599227096
 31
0.0
  0
LINE
  5
301
330
2A0
100
AcDbEntity
  8
P-SANR-FIXT
100
AcDbLine
 10
1136.151133336745
 20
2057.540293876943
 30
0.0
 11
1136.151133336745
 21
2063.379599227096
 31
0.0
  0
LINE
  5
302
330
2A0
100
AcDbEntity
  8
P-SANR-FIXT
100
AcDbLine
 10
1148.077574549447
 20
2057.540293876943
 30
0.0
 11
1148.077574549447
 21
2063.379599227096
 31
0.0
  0
LINE
  5
303
330
2A0
100
AcDbEntity
  8
P-SANR-FIXT
100
AcDbLine
 10
1149.525048485334
 20
2057.540293876943
 30
0.0
 11
1149.525048485334
 21
2063.379599227096
 31
0.0
  0
LINE
  5
304
330
2A0
100
AcDbEntity
  8
P-SANR-FIXT
100
AcDbLine
 10
1155.488269091685
 20
2056.169713326871
 30
0.0
 11
1155.488269091685
 21
2063.379599227096
 31
0.0
  0
LINE
  5
305
330
2A0
100
AcDbEntity
  8
P-SANR-FIXT
100
AcDbLine
 10
1126.114353943098
 20
1956.741907636348
 30
0.0
 11
1126.114353943098
 21
1948.223210063591
 31
0.0
  0
LINE
  5
306
330
2A0
100
AcDbEntity
  8
P-SANR-FIXT
100
AcDbLine
 10
1158.114353943097
 20
1948.223210063591
 30
0.0
 11
1158.114353943097
 21
1956.741907636348
 31
0.0
  0
LINE
  5
307
330
2A0
100
AcDbEntity
  8
P-SANR-FIXT
100
AcDbLine
 10
1158.114353943093
 20
1947.482558849964
 30
0.0
 11
1158.042198194768
 21
1947.482558849964
 31
0.0
  0
LINE
  5
308
330
2A0
100
AcDbEntity
  8
P-SANR-FIXT
100
AcDbLine
 10
1157.992249505294
 20
1947.482558849964
 30
0.0
 11
1157.851389811034
 21
1947.482558849964
 31
0.0
  0
LINE
  5
309
330
2A0
100
AcDbEntity
  8
P-SANR-FIXT
100
AcDbLine
 10
1157.719861326779
 20
1947.482558849964
 30
0.0
 11
1157.438500964416
 21
1947.482558849964
 31
0.0
  0
LINE
  5
30A
330
2A0
100
AcDbEntity
  8
P-SANR-FIXT
100
AcDbLine
 10
1157.312715944165
 20
1947.482558849964
 30
0.0
 11
1156.910461125334
 21
1947.482558849964
 31
0.0
  0
LINE
  5
30B
330
2A0
100
AcDbEntity
  8
P-SANR-FIXT
100
AcDbLine
 10
1156.61527853568
 20
1947.482558849964
 30
0.0
 11
1156.237981166415
 21
1947.482558849964
 31
0.0
  0
LINE
  5
30C
330
2A0
100
AcDbEntity
  8
P-SANR-FIXT
100
AcDbLine
 10
1155.970760403645
 20
1947.482558849964
 30
0.0
 11
1155.427776279408
 21
1947.482558849964
 31
0.0
  0
LINE
  5
30D
330
2A0
100
AcDbEntity
  8
P-SANR-FIXT
100
AcDbLine
 10
1155.368716615018
 20
1947.482558849964
 30
0.0
 11
1154.487982770319
 21
1947.482558849964
 31
0.0
  0
LINE
  5
30E
330
2A0
100
AcDbEntity
  8
P-SANR-FIXT
100
AcDbLine
 10
1154.371065032997
 20
1947.482558849964
 30
0.0
 11
1152.398955698078
 21
1947.482558849964
 31
0.0
  0
LINE
  5
30F
330
2A0
100
AcDbEntity
  8
P-SANR-FIXT
100
AcDbLine
 10
1152.26865489905
 20
1947.482558849964
 30
0.0
 11
1151.291576924711
 21
1947.482558849964
 31
0.0
  0
LINE
  5
310
330
2A0
100
AcDbEntity
  8
P-SANR-FIXT
100
AcDbLine
 10
1151.009597432053
 20
1947.482558849964
 30
0.0
 11
1150.114353943094
 21
1947.482558849964
 31
0.0
  0
LINE
  5
311
330
2A0
100
AcDbEntity
  8
P-SANR-FIXT
100
AcDbLine
 10
1149.66330313066
 20
1947.482558849964
 30
0.0
 11
1148.243117911555
 21
1947.482558849964
 31
0.0
  0
LINE
  5
312
330
2A0
100
AcDbEntity
  8
P-SANR-FIXT
100
AcDbLine
 10
1147.586676236305
 20
1947.482558849964
 30
0.0
 11
1146.763167818182
 21
1947.482558849964
 31
0.0
  0
LINE
  5
313
330
2A0
100
AcDbEntity
  8
P-SANR-FIXT
100
AcDbLine
 10
1146.255458664735
 20
1947.482558849964
 30
0.0
 11
1143.683428940166
 21
1947.482558849964
 31
0.0
  0
LINE
  5
314
330
2A0
100
AcDbEntity
  8
P-SANR-FIXT
100
AcDbLine
 10
1143.508845827058
 20
1947.482558849964
 30
0.0
 11
1142.114353943096
 21
1947.482558849964
 31
0.0
  0
LINE
  5
315
330
2A0
100
AcDbEntity
  8
P-SANR-FIXT
100
AcDbLine
 10
1142.114353943096
 20
1947.482558849964
 30
0.0
 11
1139.335983100425
 21
1947.482558849964
 31
0.0
  0
LINE
  5
316
330
2A0
100
AcDbEntity
  8
P-SANR-FIXT
100
AcDbLine
 10
1138.990506231563
 20
1947.482558849964
 30
0.0
 11
1137.973249221456
 21
1947.482558849964
 31
0.0
  0
LINE
  5
317
330
2A0
100
AcDbEntity
  8
P-SANR-FIXT
100
AcDbLine
 10
1137.465540068009
 20
1947.482558849964
 30
0.0
 11
1135.985589974635
 21
1947.482558849964
 31
0.0
  0
LINE
  5
318
330
2A0
100
AcDbEntity
  8
P-SANR-FIXT
100
AcDbLine
 10
1135.47072845017
 20
1947.482558849964
 30
0.0
 11
1134.565404755531
 21
1947.482558849964
 31
0.0
  0
LINE
  5
319
330
2A0
100
AcDbEntity
  8
P-SANR-FIXT
100
AcDbLine
 10
1134.114353943097
 20
1947.482558849964
 30
0.0
 11
1133.219110454138
 21
1947.482558849964
 31
0.0
  0
LINE
  5
31A
330
2A0
100
AcDbEntity
  8
P-SANR-FIXT
100
AcDbLine
 10
1132.985383004586
 20
1947.482558849964
 30
0.0
 11
1131.960052987141
 21
1947.482558849964
 31
0.0
  0
LINE
  5
31B
330
2A0
100
AcDbEntity
  8
P-SANR-FIXT
100
AcDbLine
 10
1131.829752188113
 20
1947.482558849964
 30
0.0
 11
1129.857642853194
 21
1947.482558849964
 31
0.0
  0
LINE
  5
31C
330
2A0
100
AcDbEntity
  8
P-SANR-FIXT
100
AcDbLine
 10
1129.740725115872
 20
1947.482558849964
 30
0.0
 11
1129.007921234474
 21
1947.482558849964
 31
0.0
  0
LINE
  5
31D
330
2A0
100
AcDbEntity
  8
P-SANR-FIXT
100
AcDbLine
 10
1128.800931606783
 20
1947.482558849964
 30
0.0
 11
1128.00200907254
 21
1947.482558849964
 31
0.0
  0
LINE
  5
31E
330
2A0
100
AcDbEntity
  8
P-SANR-FIXT
100
AcDbLine
 10
1127.990726719776
 20
1947.482558849964
 30
0.0
 11
1127.613429350511
 21
1947.482558849964
 31
0.0
  0
LINE
  5
31F
330
2A0
100
AcDbEntity
  8
P-SANR-FIXT
100
AcDbLine
 10
1127.318246760858
 20
1947.482558849964
 30
0.0
 11
1126.915991942028
 21
1947.482558849964
 31
0.0
  0
LINE
  5
320
330
2A0
100
AcDbEntity
  8
P-SANR-FIXT
100
AcDbLine
 10
1126.790206921775
 20
1947.482558849964
 30
0.0
 11
1126.508846559413
 21
1947.482558849964
 31
0.0
  0
LINE
  5
321
330
2A0
100
AcDbEntity
  8
P-SANR-FIXT
100
AcDbLine
 10
1126.391186115437
 20
1947.482558849964
 30
0.0
 11
1126.236458380898
 21
1947.482558849964
 31
0.0
  0
LINE
  5
322
330
2A0
100
AcDbEntity
  8
P-SANR-FIXT
100
AcDbLine
 10
1126.186509691423
 20
1947.482558849964
 30
0.0
 11
1126.114353943098
 21
1947.482558849964
 31
0.0
  0
LINE
  5
323
330
2A0
100
AcDbEntity
  8
P-SANR-FIXT
100
AcDbLine
 10
1126.114353943145
 20
1957.482558849999
 30
0.0
 11
1142.114353943096
 21
1957.482558849999
 31
0.0
  0
LINE
  5
324
330
2A0
100
AcDbEntity
  8
P-SANR-FIXT
100
AcDbLine
 10
1142.114353943096
 20
1957.482558849999
 30
0.0
 11
1158.114353943046
 21
1957.482558849999
 31
0.0
  0
SPLINE
  5
325
330
2A0
100
AcDbEntity
  8
P-SANR-FIXT
100
AcDbSpline
210
0.0
220
0.0
230
1.0
 70
    24
 71
     3
 72
     9
 73
     5
 74
     0
 42
0.000000001
 43
0.0000000001
 40
0.0
 40
0.0
 40
0.0
 40
0.0
 40
0.5
 40
1.0
 40
1.0
 40
1.0
 40
1.0
 10
1158.114353943095
 20
1948.22321006359
 30
0.0
 10
1158.114353943095
 20
1947.981476376972
 30
0.0
 10
1158.114353943095
 20
1947.616300821416
 30
0.0
 10
1158.114353943095
 20
1947.487708901221
 30
0.0
 10
1158.114353943095
 20
1947.482558849964
 30
0.0
  0
SPLINE
  5
326
330
2A0
100
AcDbEntity
  8
P-SANR-FIXT
100
AcDbSpline
210
0.0
220
0.0
230
1.0
 70
    24
 71
     3
 72
     9
 73
     5
 74
     0
 42
0.000000001
 43
0.0000000001
 40
0.0
 40
0.0
 40
0.0
 40
0.0
 40
0.5
 40
1.0
 40
1.0
 40
1.0
 40
1.0
 10
1158.114353943095
 20
1957.482558849999
 30
0.0
 10
1158.114353943095
 20
1957.477408798729
 30
0.0
 10
1158.114353943095
 20
1957.348816878516
 30
0.0
 10
1158.114353943095
 20
1956.98364132296
 30
0.0
 10
1158.114353943095
 20
1956.741907636347
 30
0.0
  0
SPLINE
  5
327
330
2A0
100
AcDbEntity
  8
P-SANR-FIXT
100
AcDbSpline
210
0.0
220
0.0
230
1.0
 70
     8
 71
     3
 72
     8
 73
     4
 74
     0
 42
0.000000001
 43
0.0000000001
 40
0.0
 40
0.0
 40
0.0
 40
0.0
 40
0.0903051388122444
 40
0.0903051388122444
 40
0.0903051388122444
 40
0.0903051388122444
 10
1158.114353943095
 20
1948.145075825772
 30
0.0
 10
1158.114353943095
 20
1948.177693785073
 30
0.0
 10
1158.106920363173
 20
1948.207425133418
 30
0.0
 10
1158.092123478594
 20
1948.234214764059
 30
0.0
  0
SPLINE
  5
328
330
2A0
100
AcDbEntity
  8
P-SANR-FIXT
100
AcDbSpline
210
0.0
220
0.0
230
1.0
 70
     8
 71
     3
 72
     8
 73
     4
 74
     0
 42
0.000000001
 43
0.0000000001
 40
0.909694861187315
 40
0.909694861187315
 40
0.909694861187315
 40
0.909694861187315
 40
1.0
 40
1.0
 40
1.0
 40
1.0
 10
1158.092335609792
 20
1956.73097919267
 30
0.0
 10
1158.107015522253
 20
1956.757723445151
 30
0.0
 10
1158.114353943095
 20
1956.787423914864
 30
0.0
 10
1158.114353943095
 20
1956.820041874165
 30
0.0
  0
SPLINE
  5
329
330
2A0
100
AcDbEntity
  8
P-SANR-FIXT
100
AcDbSpline
210
0.0
220
0.0
230
1.0
 70
     8
 71
     3
 72
    10
 73
     6
 74
     0
 42
0.000000001
 43
0.0000000001
 40
0.0
 40
0.0
 40
0.0
 40
0.0
 40
0.4
 40
0.7
 40
1.0
 40
1.0
 40
1.0
 40
1.0
 10
1126.114353943096
 20
1948.22321006359
 30
0.0
 10
1126.114353943096
 20
1948.374784135461
 30
0.0
 10
1126.368404268896
 20
1948.541664975299
 30
0.0
 10
1127.343566184201
 20
1948.511357178572
 30
0.0
 10
1128.167198564886
 20
1948.358364675154
 30
0.0
 10
1128.614353943096
 20
1948.249707265414
 30
0.0
  0
SPLINE
  5
32A
330
2A0
100
AcDbEntity
  8
P-SANR-FIXT
100
AcDbSpline
210
0.0
220
0.0
230
1.0
 70
     8
 71
     3
 72
    10
 73
     6
 74
     0
 42
0.000000001
 43
0.0000000001
 40
0.0
 40
0.0
 40
0.0
 40
0.0
 40
0.4
 40
0.7
 40
1.0
 40
1.0
 40
1.0
 40
1.0
 10
1128.614353943096
 20
1956.715410434522
 30
0.0
 10
1128.018146772149
 20
1956.570533888204
 30
0.0
 10
1127.084853947538
 20
1956.415965270768
 30
0.0
 10
1126.27559475452
 20
1956.464864006134
 30
0.0
 10
1126.114353943096
 20
1956.628227082443
 30
0.0
 10
1126.114353943096
 20
1956.741907636347
 30
0.0
  0
SPLINE
  5
32B
330
2A0
100
AcDbEntity
  8
P-SANR-FIXT
100
AcDbSpline
210
0.0
220
0.0
230
1.0
 70
     8
 71
     3
 72
    10
 73
     6
 74
     0
 42
0.000000001
 43
0.0000000001
 40
0.0
 40
0.0
 40
0.0
 40
0.0
 40
0.4
 40
0.7
 40
1.0
 40
1.0
 40
1.0
 40
1.0
 10
1155.614353943095
 20
1948.249707265414
 30
0.0
 10
1156.21177434086
 20
1948.394798011548
 30
0.0
 10
1157.144602606941
 20
1948.549251548733
 30
0.0
 10
1157.95368351136
 20
1948.50005398735
 30
0.0
 10
1158.114353943095
 20
1948.336715088606
 30
0.0
 10
1158.114353943095
 20
1948.22321006359
 30
0.0
  0
SPLINE
  5
32C
330
2A0
100
AcDbEntity
  8
P-SANR-FIXT
100
AcDbSpline
210
0.0
220
0.0
230
1.0
 70
     8
 71
     3
 72
    10
 73
     6
 74
     0
 42
0.000000001
 43
0.0000000001
 40
0.0
 40
0.0
 40
0.0
 40
0.0
 40
0.4
 40
0.7
 40
1.0
 40
1.0
 40
1.0
 40
1.0
 10
1158.114353943095
 20
1956.741907636347
 30
0.0
 10
1158.114353943095
 20
1956.590567602992
 30
0.0
 10
1157.86080631615
 20
1956.423562561646
 30
0.0
 10
1156.886260906355
 20
1956.453581565472
 30
0.0
 10
1156.062419241419
 20
1956.606592374922
 30
0.0
 10
1155.614353943095
 20
1956.715410434522
 30
0.0
  0
SPLINE
  5
32D
330
2A0
100
AcDbEntity
  8
P-SANR-FIXT
100
AcDbSpline
210
0.0
220
0.0
230
1.0
 70
     8
 71
     3
 72
     8
 73
     4
 74
     0
 42
0.000000001
 43
0.0000000001
 40
0.9096046821991416
 40
0.9096046821991416
 40
0.9096046821991416
 40
0.9096046821991416
 40
1.0
 40
1.0
 40
1.0
 40
1.0
 10
1126.136351058928
 20
1948.234112455531
 30
0.0
 10
1126.121681739744
 20
1948.207370980516
 30
0.0
 10
1126.114353943096
 20
1948.177678211781
 30
0.0
 10
1126.114353943096
 20
1948.145075825772
 30
0.0
  0
SPLINE
  5
32E
330
2A0
100
AcDbEntity
  8
P-SANR-FIXT
100
AcDbSpline
210
0.0
220
0.0
230
1.0
 70
     8
 71
     3
 72
     8
 73
     4
 74
     0
 42
0.000000001
 43
0.0000000001
 40
0.0
 40
0.0
 40
0.0
 40
0.0
 40
0.0903953178012725
 40
0.0903953178012725
 40
0.0903953178012725
 40
0.0903953178012725
 10
1126.114353943096
 20
1956.820041874165
 30
0.0
 10
1126.114353943096
 20
1956.787439488156
 30
0.0
 10
1126.12178820771
 20
1956.757715244263
 30
0.0
 10
1126.136589565148
 20
1956.730927283178
 30
0.0
  0
SPLINE
  5
32F
330
2A0
100
AcDbEntity
  8
P-SANR-FIXT
100
AcDbSpline
210
0.0
220
0.0
230
1.0
 70
    24
 71
     3
 72
     9
 73
     5
 74
     0
 42
0.000000001
 43
0.0000000001
 40
0.0
 40
0.0
 40
0.0
 40
0.0
 40
0.5
 40
1.0
 40
1.0
 40
1.0
 40
1.0
 10
1126.114353943096
 20
1947.482558849964
 30
0.0
 10
1126.114353943096
 20
1947.487708901221
 30
0.0
 10
1126.114353943096
 20
1947.616300821416
 30
0.0
 10
1126.114353943096
 20
1947.981476376972
 30
0.0
 10
1126.114353943096
 20
1948.22321006359
 30
0.0
  0
SPLINE
  5
330
330
2A0
100
AcDbEntity
  8
P-SANR-FIXT
100
AcDbSpline
210
0.0
220
0.0
230
1.0
 70
    24
 71
     3
 72
     9
 73
     5
 74
     0
 42
0.000000001
 43
0.0000000001
 40
0.0
 40
0.0
 40
0.0
 40
0.0
 40
0.5
 40
1.0
 40
1.0
 40
1.0
 40
1.0
 10
1126.114353943096
 20
1956.741907636347
 30
0.0
 10
1126.114353943096
 20
1956.98364132296
 30
0.0
 10
1126.114353943096
 20
1957.348816878516
 30
0.0
 10
1126.114353943096
 20
1957.477408798729
 30
0.0
 10
1126.114353943096
 20
1957.482558849999
 30
0.0
  0
SPLINE
  5
331
330
2A0
100
AcDbEntity
  8
P-SANR-FIXT
100
AcDbSpline
210
0.0
220
0.0
230
1.0
 70
     8
 71
     3
 72
     9
 73
     5
 74
     0
 42
0.000000001
 43
0.0000000001
 40
0.0
 40
0.0
 40
0.0
 40
0.0
 40
0.5
 40
1.0
 40
1.0
 40
1.0
 40
1.0
 10
1128.614353943096
 20
1948.249707265414
 30
0.0
 10
1130.478471978237
 20
1947.793210157646
 30
0.0
 10
1134.175923346711
 20
1947.343169068379
 30
0.0
 10
1137.81180531157
 20
1947.819034231647
 30
0.0
 10
1139.614353943095
 20
1948.288443376415
 30
0.0
  0
SPLINE
  5
332
330
2A0
100
AcDbEntity
  8
P-SANR-FIXT
100
AcDbSpline
210
0.0
220
0.0
230
1.0
 70
     8
 71
     3
 72
     9
 73
     5
 74
     0
 42
0.000000001
 43
0.0000000001
 40
0.0
 40
0.0
 40
0.0
 40
0.0
 40
0.5
 40
1.0
 40
1.0
 40
1.0
 40
1.0
 10
1139.614353943095
 20
1956.676674323521
 30
0.0
 10
1137.81180531157
 20
1957.146083468289
 30
0.0
 10
1134.175923346711
 20
1957.621948631558
 30
0.0
 10
1130.478471978237
 20
1957.17190754229
 30
0.0
 10
1128.614353943096
 20
1956.715410434522
 30
0.0
  0
SPLINE
  5
333
330
2A0
100
AcDbEntity
  8
P-SANR-FIXT
100
AcDbSpline
210
0.0
220
0.0
230
1.0
 70
     8
 71
     3
 72
     9
 73
     5
 74
     0
 42
0.000000001
 43
0.0000000001
 40
0.0
 40
0.0
 40
0.0
 40
0.0
 40
0.5
 40
1.0
 40
1.0
 40
1.0
 40
1.0
 10
1139.614353943095
 20
1948.288443376415
 30
0.0
 10
1139.987514631214
 20
1948.381692256415
 30
0.0
 10
1140.794700543592
 20
1948.522023570797
 30
0.0
 10
1141.672578164571
 20
1948.570021993943
 30
0.0
 10
1142.114353943096
 20
1948.570937982708
 30
0.0
  0
SPLINE
  5
334
330
2A0
100
AcDbEntity
  8
P-SANR-FIXT
100
AcDbSpline
210
0.0
220
0.0
230
1.0
 70
     8
 71
     3
 72
     9
 73
     5
 74
     0
 42
0.000000001
 43
0.0000000001
 40
0.0
 40
0.0
 40
0.0
 40
0.0
 40
0.5
 40
1.0
 40
1.0
 40
1.0
 40
1.0
 10
1142.114353943096
 20
1948.570937982708
 30
0.0
 10
1142.55612972162
 20
1948.570021993943
 30
0.0
 10
1143.434007342599
 20
1948.522023570797
 30
0.0
 10
1144.241193254977
 20
1948.381692256415
 30
0.0
 10
1144.614353943095
 20
1948.288443376415
 30
0.0
  0
SPLINE
  5
335
330
2A0
100
AcDbEntity
  8
P-SANR-FIXT
100
AcDbSpline
210
0.0
220
0.0
230
1.0
 70
     8
 71
     3
 72
     9
 73
     5
 74
     0
 42
0.000000001
 43
0.0000000001
 40
0.0
 40
0.0
 40
0.0
 40
0.0
 40
0.5
 40
1.0
 40
1.0
 40
1.0
 40
1.0
 10
1144.614353943095
 20
1956.676674323521
 30
0.0
 10
1144.241193254977
 20
1956.583425443521
 30
0.0
 10
1143.434007342599
 20
1956.443094129139
 30
0.0
 10
1142.55612972162
 20
1956.395095705993
 30
0.0
 10
1142.114353943096
 20
1956.394179717229
 30
0.0
  0
SPLINE
  5
336
330
2A0
100
AcDbEntity
  8
P-SANR-FIXT
100
AcDbSpline
210
0.0
220
0.0
230
1.0
 70
     8
 71
     3
 72
     9
 73
     5
 74
     0
 42
0.000000001
 43
0.0000000001
 40
0.0
 40
0.0
 40
0.0
 40
0.0
 40
0.5
 40
1.0
 40
1.0
 40
1.0
 40
1.0
 10
1142.114353943096
 20
1956.394179717229
 30
0.0
 10
1141.672578164571
 20
1956.395095705993
 30
0.0
 10
1140.794700543592
 20
1956.443094129139
 30
0.0
 10
1139.987514631214
 20
1956.583425443521
 30
0.0
 10
1139.614353943095
 20
1956.676674323521
 30
0.0
  0
SPLINE
  5
337
330
2A0
100
AcDbEntity
  8
P-SANR-FIXT
100
AcDbSpline
210
0.0
220
0.0
230
1.0
 70
     8
 71
     3
 72
     9
 73
     5
 74
     0
 42
0.000000001
 43
0.0000000001
 40
0.0
 40
0.0
 40
0.0
 40
0.0
 40
0.5
 40
1.0
 40
1.0
 40
1.0
 40
1.0
 10
1155.614353943095
 20
1956.715410434522
 30
0.0
 10
1153.750235907954
 20
1957.17190754229
 30
0.0
 10
1150.052784539479
 20
1957.621948631558
 30
0.0
 10
1146.41690257462
 20
1957.146083468289
 30
0.0
 10
1144.614353943095
 20
1956.676674323521
 30
0.0
  0
SPLINE
  5
338
330
2A0
100
AcDbEntity
  8
P-SANR-FIXT
100
AcDbSpline
210
0.0
220
0.0
230
1.0
 70
     8
 71
     3
 72
     9
 73
     5
 74
     0
 42
0.000000001
 43
0.0000000001
 40
0.0
 40
0.0
 40
0.0
 40
0.0
 40
0.5
 40
1.0
 40
1.0
 40
1.0
 40
1.0
 10
1144.614353943095
 20
1948.288443376415
 30
0.0
 10
1146.41690257462
 20
1947.819034231647
 30
0.0
 10
1150.052784539479
 20
1947.343169068379
 30
0.0
 10
1153.750235907954
 20
1947.793210157646
 30
0.0
 10
1155.614353943095
 20
1948.249707265414
 30
0.0
  0
LINE
  5
339
330
2A0
100
AcDbEntity
  8
P-SANR-FIXT
100
AcDbLine
 10
1153.114353943097
 20
1942.424823823079
 30
0.0
 11
1157.614353943096
 21
1945.022900034432
 31
0.0
  0
LINE
  5
33A
330
2A0
100
AcDbEntity
  8
P-SANR-FIXT
100
AcDbLine
 10
1126.614353943099
 20
1945.022900034432
 30
0.0
 11
1131.114353943097
 21
1942.424823823079
 31
0.0
  0
LWPOLYLINE
  5
33B
330
2A0
100
AcDbEntity
  8
P-SANR-FIXT
100
AcDbPolyline
 90
       28
 70
   128
 43
0.0
 10
1158.114353943096
 20
1945.888925438216
 10
1158.113554049757
 20
1945.848936104029
 10
1158.111155649399
 20
1945.809010744247
 10
1158.10716257895
 20
1945.769213230927
 10
1158.101581226472
 20
1945.729607231602
 10
1158.094420520937
 20
1945.690256107421
 10
1158.085691917948
 20
1945.651222811789
 10
1158.075409381407
 20
1945.612569789652
 10
1158.063589361179
 20
1945.5743588776
 10
1158.050250766774
 20
1945.536651204941
 10
1158.035414937099
 20
1945.499507095907
 10
1158.019105606316
 20
1945.46298597315
 10
1158.001348865875
 20
1945.427146262675
 10
1157.982173122773
 20
1945.392045300373
 10
1157.961609054109
 20
1945.357739240295
 10
1157.939689558006
 20
1945.324282964821
 10
1157.91644970098
 20
1945.291729996854
 10
1157.891926661847
 20
1945.260132414198
 10
1157.866159672237
 20
1945.229540766245
 10
1157.839189953837
 20
1945.200003993106
 10
1157.811060652443
 20
1945.171569347317
 10
1157.781816768937
 20
1945.144282318245
 10
1157.751505087294
 20
1945.118186559317
 10
1157.72017409974
 20
1945.09332381818
 10
1157.687873929168
 20
1945.069733869915
 10
1157.654656248964
 20
1945.047454453408
 10
1157.620574200329
 20
1945.026521210973
 10
1157.614353943096
 20
1945.022900034432
  0
LWPOLYLINE
  5
33C
330
2A0
100
AcDbEntity
  8
P-SANR-FIXT
100
AcDbPolyline
 90
       28
 70
   128
 43
0.0
 10
1126.614353943099
 20
1945.022900034432
 10
1126.580122110482
 20
1945.043587429477
 10
1126.546744934834
 20
1945.065627185007
 10
1126.514275812517
 20
1945.088984042115
 10
1126.482766687197
 20
1945.113620634811
 10
1126.452267966757
 20
1945.139497549803
 10
1126.422828442641
 20
1945.166573389547
 10
1126.394495211807
 20
1945.194804838476
 10
1126.367313601383
 20
1945.224146732293
 10
1126.341327096145
 20
1945.254552130228
 10
1126.316577268958
 20
1945.285972390129
 10
1126.293103714267
 20
1945.318357246285
 10
1126.270943984751
 20
1945.351654889832
 10
1126.250133531251
 20
1945.385812051646
 10
1126.230705646053
 20
1945.420774087553
 10
1126.212691409628
 20
1945.456485065754
 10
1126.196119640912
 20
1945.492887856302
 10
1126.181016851201
 20
1945.529924222497
 10
1126.167407201735
 20
1945.567534914055
 10
1126.155312465051
 20
1945.605659761892
 10
1126.144751990146
 20
1945.644237774384
 10
1126.13574267153
 20
1945.683207234941
 10
1126.128298922188
 20
1945.722505800739
 10
1126.122432650533
 20
1945.762070602457
 10
1126.118153241348
 20
1945.80183834485
 10
1126.115467540773
 20
1945.841745408015
 10
1126.114379845359
 20
1945.881727949164
 10
1126.114353943099
 20
1945.888925438216
  0
LINE
  5
33D
330
2A0
100
AcDbEntity
  8
P-SANR-FIXT
100
AcDbLine
 10
1158.114353943096
 20
1945.888925438216
 30
0.0
 11
1158.114353943096
 21
1947.482558849965
 31
0.0
  0
LINE
  5
33E
330
2A0
100
AcDbEntity
  8
P-SANR-FIXT
100
AcDbLine
 10
1126.114353943099
 20
1947.482558849965
 30
0.0
 11
1126.114353943099
 21
1945.888925438216
 31
0.0
  0
LINE
  5
33F
330
2A0
100
AcDbEntity
  8
P-SANR-FIXT
100
AcDbLine
 10
1142.114353943096
 20
1947.482558849964
 30
0.0
 11
1143.50931512281
 21
1947.482558849964
 31
0.0
  0
LINE
  5
340
330
2A0
100
AcDbEntity
  8
P-SANR-FIXT
100
AcDbLine
 10
1143.682628188368
 20
1947.482558849964
 30
0.0
 11
1144.894791209104
 21
1947.482558849964
 31
0.0
  0
LINE
  5
341
330
2A0
100
AcDbEntity
  8
P-SANR-FIXT
100
AcDbLine
 10
1145.235799095353
 20
1947.482558849964
 30
0.0
 11
1146.259695323565
 21
1947.482558849964
 31
0.0
  0
LINE
  5
342
330
2A0
100
AcDbEntity
  8
P-SANR-FIXT
100
AcDbLine
 10
1146.758908779166
 20
1947.482558849964
 30
0.0
 11
1147.593110834591
 21
1947.482558849964
 31
0.0
  0
LINE
  5
343
330
2A0
100
AcDbEntity
  8
P-SANR-FIXT
100
AcDbLine
 10
1148.884376230055
 20
1947.482558849964
 30
0.0
 11
1151.003477671408
 21
1947.482558849964
 31
0.0
  0
LINE
  5
344
330
2A0
100
AcDbEntity
  8
P-SANR-FIXT
100
AcDbLine
 10
1151.299573565564
 20
1947.482558849964
 30
0.0
 11
1152.264646489713
 21
1947.482558849964
 31
0.0
  0
LINE
  5
345
330
2A0
100
AcDbEntity
  8
P-SANR-FIXT
100
AcDbLine
 10
1152.404168342713
 20
1947.482558849964
 30
0.0
 11
1154.376526960501
 21
1947.482558849964
 31
0.0
  0
LINE
  5
346
330
2A0
100
AcDbEntity
  8
P-SANR-FIXT
100
AcDbLine
 10
1154.482521196898
 20
1947.482558849964
 30
0.0
 11
1155.231156026093
 21
1947.482558849964
 31
0.0
  0
LINE
  5
347
330
2A0
100
AcDbEntity
  8
P-SANR-FIXT
100
AcDbLine
 10
1155.36453074058
 20
1947.482558849964
 30
0.0
 11
1155.985081202635
 21
1947.482558849964
 31
0.0
  0
LINE
  5
348
330
2A0
100
AcDbEntity
  8
P-SANR-FIXT
100
AcDbLine
 10
1156.632262489822
 20
1947.482558849964
 30
0.0
 11
1156.896426463275
 21
1947.482558849964
 31
0.0
  0
LINE
  5
349
330
2A0
100
AcDbEntity
  8
P-SANR-FIXT
100
AcDbLine
 10
1157.252368106161
 20
1947.482558849964
 30
0.0
 11
1157.42539931481
 21
1947.482558849964
 31
0.0
  0
LINE
  5
34A
330
2A0
100
AcDbEntity
  8
P-SANR-FIXT
100
AcDbLine
 10
1157.719800812468
 20
1947.482558849964
 30
0.0
 11
1157.857915991864
 21
1947.482558849964
 31
0.0
  0
LINE
  5
34B
330
2A0
100
AcDbEntity
  8
P-SANR-FIXT
100
AcDbLine
 10
1157.979122906682
 20
1947.482558849964
 30
0.0
 11
1158.037309569849
 21
1947.482558849964
 31
0.0
  0
LINE
  5
34C
330
2A0
100
AcDbEntity
  8
P-SANR-FIXT
100
AcDbLine
 10
1126.191398316342
 20
1947.482558849964
 30
0.0
 11
1126.249584979509
 21
1947.482558849964
 31
0.0
  0
LINE
  5
34D
330
2A0
100
AcDbEntity
  8
P-SANR-FIXT
100
AcDbLine
 10
1126.391123942506
 20
1947.482558849964
 30
0.0
 11
1126.508907073725
 21
1947.482558849964
 31
0.0
  0
LINE
  5
34E
330
2A0
100
AcDbEntity
  8
P-SANR-FIXT
100
AcDbLine
 10
1126.803308571382
 20
1947.482558849964
 30
0.0
 11
1126.97633978003
 21
1947.482558849964
 31
0.0
  0
LINE
  5
34F
330
2A0
100
AcDbEntity
  8
P-SANR-FIXT
100
AcDbLine
 10
1127.332281422916
 20
1947.482558849964
 30
0.0
 11
1127.596445396369
 21
1947.482558849964
 31
0.0
  0
LINE
  5
350
330
2A0
100
AcDbEntity
  8
P-SANR-FIXT
100
AcDbLine
 10
1128.003613713523
 20
1947.482558849964
 30
0.0
 11
1128.013779031649
 21
1947.482558849964
 31
0.0
  0
LINE
  5
351
330
2A0
100
AcDbEntity
  8
P-SANR-FIXT
100
AcDbLine
 10
1128.243626683556
 20
1947.482558849964
 30
0.0
 11
1128.810840146256
 21
1947.482558849964
 31
0.0
  0
LINE
  5
352
330
2A0
100
AcDbEntity
  8
P-SANR-FIXT
100
AcDbLine
 10
1128.997551860098
 20
1947.482558849964
 30
0.0
 11
1129.746186689293
 21
1947.482558849964
 31
0.0
  0
LINE
  5
353
330
2A0
100
AcDbEntity
  8
P-SANR-FIXT
100
AcDbLine
 10
1129.85218092569
 20
1947.482558849964
 30
0.0
 11
1131.824539543478
 21
1947.482558849964
 31
0.0
  0
LINE
  5
354
330
2A0
100
AcDbEntity
  8
P-SANR-FIXT
100
AcDbLine
 10
1131.964061396478
 20
1947.482558849964
 30
0.0
 11
1132.929134320627
 21
1947.482558849964
 31
0.0
  0
LINE
  5
355
330
2A0
100
AcDbEntity
  8
P-SANR-FIXT
100
AcDbLine
 10
1132.979786330297
 20
1947.482558849964
 30
0.0
 11
1134.105540710019
 21
1947.482558849964
 31
0.0
  0
LINE
  5
356
330
2A0
100
AcDbEntity
  8
P-SANR-FIXT
100
AcDbLine
 10
1134.57200615388
 20
1947.482558849964
 30
0.0
 11
1135.344331656136
 21
1947.482558849964
 31
0.0
  0
LINE
  5
357
330
2A0
100
AcDbEntity
  8
P-SANR-FIXT
100
AcDbLine
 10
1135.465184445653
 20
1947.482558849964
 30
0.0
 11
1135.991419025255
 21
1947.482558849964
 31
0.0
  0
LINE
  5
358
330
2A0
100
AcDbEntity
  8
P-SANR-FIXT
100
AcDbLine
 10
1136.635597051599
 20
1947.482558849964
 30
0.0
 11
1137.469799107024
 21
1947.482558849964
 31
0.0
  0
LINE
  5
359
330
2A0
100
AcDbEntity
  8
P-SANR-FIXT
100
AcDbLine
 10
1137.969012562626
 20
1947.482558849964
 30
0.0
 11
1138.992908790838
 21
1947.482558849964
 31
0.0
  0
LINE
  5
35A
330
2A0
100
AcDbEntity
  8
P-SANR-FIXT
100
AcDbLine
 10
1139.333916677087
 20
1947.482558849964
 30
0.0
 11
1140.546079697823
 21
1947.482558849964
 31
0.0
  0
LINE
  5
35B
330
2A0
100
AcDbEntity
  8
P-SANR-FIXT
100
AcDbLine
 10
1140.719392763381
 20
1947.482558849964
 30
0.0
 11
1142.114353943096
 21
1947.482558849964
 31
0.0
  0
LINE
  5
35C
330
2A0
100
AcDbEntity
  8
P-SANR-FIXT
100
AcDbLine
 10
1142.114353943096
 20
1942.424823823078
 30
0.0
 11
1153.114353943096
 21
1942.424823823078
 31
0.0
  0
LINE
  5
35D
330
2A0
100
AcDbEntity
  8
P-SANR-FIXT
100
AcDbLine
 10
1131.114353943095
 20
1942.424823823078
 30
0.0
 11
1142.114353943096
 21
1942.424823823078
 31
0.0
  0
LINE
  5
35E
330
2A0
100
AcDbEntity
  8
P-SANR-FIXT
100
AcDbLine
 10
1131.114353943097
 20
2057.540293876944
 30
0.0
 11
1126.614353943099
 21
2054.942217665591
 31
0.0
  0
LWPOLYLINE
  5
35F
330
2A0
100
AcDbEntity
  8
P-SANR-FIXT
100
AcDbPolyline
 90
       28
 70
   128
 43
0.0
 10
1157.614353943096
 20
2054.942217665591
 10
1157.648585775713
 20
2054.921530270546
 10
1157.68196295136
 20
2054.899490515015
 10
1157.714432073678
 20
2054.876133657908
 10
1157.745941198997
 20
2054.851497065212
 10
1157.776439919438
 20
2054.82562015022
 10
1157.805879443554
 20
2054.798544310476
 10
1157.834212674387
 20
2054.770312861547
 10
1157.861394284812
 20
2054.74097096773
 10
1157.88738079005
 20
2054.710565569795
 10
1157.912130617236
 20
2054.679145309894
 10
1157.935604171927
 20
2054.646760453739
 10
1157.957763901443
 20
2054.613462810191
 10
1157.978574354943
 20
2054.579305648377
 10
1157.998002240142
 20
2054.54434361247
 10
1158.016016476567
 20
2054.50863263427
 10
1158.032588245282
 20
2054.472229843721
 10
1158.047691034994
 20
2054.435193477525
 10
1158.06130068446
 20
2054.397582785968
 10
1158.073395421144
 20
2054.359457938131
 10
1158.083955896048
 20
2054.320879925639
 10
1158.092965214665
 20
2054.281910465082
 10
1158.100408964006
 20
2054.242611899284
 10
1158.106275235661
 20
2054.203047097566
 10
1158.110554644847
 20
2054.163279355173
 10
1158.113240345421
 20
2054.123372292008
 10
1158.114328040836
 20
2054.083389750859
 10
1158.114353943096
 20
2054.076192261807
  0
LINE
  5
360
330
2A0
100
AcDbEntity
  8
P-SANR-FIXT
100
AcDbLine
 10
1157.614353943096
 20
2054.942217665591
 30
0.0
 11
1153.114353943097
 21
2057.540293876944
 31
0.0
  0
LWPOLYLINE
  5
361
330
2A0
100
AcDbEntity
  8
P-SANR-FIXT
100
AcDbPolyline
 90
       28
 70
   128
 43
0.0
 10
1126.114353943099
 20
2054.076192261807
 10
1126.115153836438
 20
2054.116181595993
 10
1126.117552236796
 20
2054.156106955776
 10
1126.121545307245
 20
2054.195904469096
 10
1126.127126659723
 20
2054.235510468421
 10
1126.134287365258
 20
2054.274861592602
 10
1126.143015968247
 20
2054.313894888234
 10
1126.153298504788
 20
2054.352547910371
 10
1126.165118525016
 20
2054.390758822423
 10
1126.178457119421
 20
2054.428466495082
 10
1126.193292949096
 20
2054.465610604116
 10
1126.209602279879
 20
2054.502131726873
 10
1126.22735902032
 20
2054.537971437348
 10
1126.246534763421
 20
2054.573072399651
 10
1126.267098832085
 20
2054.607378459728
 10
1126.289018328189
 20
2054.640834735202
 10
1126.312258185214
 20
2054.67338770317
 10
1126.336781224348
 20
2054.704985285825
 10
1126.362548213958
 20
2054.735576933778
 10
1126.389517932358
 20
2054.765113706917
 10
1126.417647233751
 20
2054.793548352706
 10
1126.446891117257
 20
2054.820835381778
 10
1126.4772027989
 20
2054.846931140706
 10
1126.508533786455
 20
2054.871793881843
 10
1126.540833957026
 20
2054.895383830108
 10
1126.574051637231
 20
2054.917663246615
 10
1126.608133685866
 20
2054.93859648905
 10
1126.614353943099
 20
2054.942217665591
  0
LINE
  5
362
330
2A0
100
AcDbEntity
  8
P-SANR-FIXT
100
AcDbLine
 10
1158.114353943096
 20
2052.482558850058
 30
0.0
 11
1158.114353943096
 21
2054.076192261807
 31
0.0
  0
LINE
  5
363
330
2A0
100
AcDbEntity
  8
P-SANR-FIXT
100
AcDbLine
 10
1126.114353943099
 20
2054.076192261807
 30
0.0
 11
1126.114353943099
 21
2052.482558850058
 31
0.0
  0
LINE
  5
364
330
2A0
100
AcDbEntity
  8
P-SANR-FIXT
100
AcDbLine
 10
1142.114353943096
 20
2057.540293876943
 30
0.0
 11
1131.114353943095
 21
2057.540293876943
 31
0.0
  0
LINE
  5
365
330
2A0
100
AcDbEntity
  8
P-SANR-FIXT
100
AcDbLine
 10
1153.114353943096
 20
2057.540293876943
 30
0.0
 11
1142.114353943096
 21
2057.540293876943
 31
0.0
  0
LINE
  5
366
330
2A0
100
AcDbEntity
  8
P-SANR-FIXT
100
AcDbLine
 10
1142.114353943096
 20
2052.482558850057
 30
0.0
 11
1143.50931512281
 21
2052.482558850057
 31
0.0
  0
LINE
  5
367
330
2A0
100
AcDbEntity
  8
P-SANR-FIXT
100
AcDbLine
 10
1143.682628188368
 20
2052.482558850057
 30
0.0
 11
1144.894791209104
 21
2052.482558850057
 31
0.0
  0
LINE
  5
368
330
2A0
100
AcDbEntity
  8
P-SANR-FIXT
100
AcDbLine
 10
1145.235799095353
 20
2052.482558850057
 30
0.0
 11
1146.259695323565
 21
2052.482558850057
 31
0.0
  0
LINE
  5
369
330
2A0
100
AcDbEntity
  8
P-SANR-FIXT
100
AcDbLine
 10
1146.758908779166
 20
2052.482558850057
 30
0.0
 11
1147.593110834591
 21
2052.482558850057
 31
0.0
  0
LINE
  5
36A
330
2A0
100
AcDbEntity
  8
P-SANR-FIXT
100
AcDbLine
 10
1147.907539953481
 20
2052.482558850057
 30
0.0
 11
1148.237288860936
 21
2052.482558850057
 31
0.0
  0
LINE
  5
36B
330
2A0
100
AcDbEntity
  8
P-SANR-FIXT
100
AcDbLine
 10
1148.884376230055
 20
2052.482558850057
 30
0.0
 11
1151.003477671408
 21
2052.482558850057
 31
0.0
  0
LINE
  5
36C
330
2A0
100
AcDbEntity
  8
P-SANR-FIXT
100
AcDbLine
 10
1151.299573565565
 20
2052.482558850057
 30
0.0
 11
1152.264646489713
 21
2052.482558850057
 31
0.0
  0
LINE
  5
36D
330
2A0
100
AcDbEntity
  8
P-SANR-FIXT
100
AcDbLine
 10
1152.404168342713
 20
2052.482558850057
 30
0.0
 11
1154.376526960501
 21
2052.482558850057
 31
0.0
  0
LINE
  5
36E
330
2A0
100
AcDbEntity
  8
P-SANR-FIXT
100
AcDbLine
 10
1154.482521196898
 20
2052.482558850057
 30
0.0
 11
1155.231156026094
 21
2052.482558850057
 31
0.0
  0
LINE
  5
36F
330
2A0
100
AcDbEntity
  8
P-SANR-FIXT
100
AcDbLine
 10
1155.36453074058
 20
2052.482558850057
 30
0.0
 11
1155.985081202636
 21
2052.482558850057
 31
0.0
  0
LINE
  5
370
330
2A0
100
AcDbEntity
  8
P-SANR-FIXT
100
AcDbLine
 10
1156.632262489823
 20
2052.482558850057
 30
0.0
 11
1156.896426463275
 21
2052.482558850057
 31
0.0
  0
LINE
  5
371
330
2A0
100
AcDbEntity
  8
P-SANR-FIXT
100
AcDbLine
 10
1157.245357482477
 20
2052.482558850057
 30
0.0
 11
1157.42539931481
 21
2052.482558850057
 31
0.0
  0
LINE
  5
372
330
2A0
100
AcDbEntity
  8
P-SANR-FIXT
100
AcDbLine
 10
1157.719800812481
 20
2052.482558850057
 30
0.0
 11
1157.857915991864
 21
2052.482558850057
 31
0.0
  0
LINE
  5
373
330
2A0
100
AcDbEntity
  8
P-SANR-FIXT
100
AcDbLine
 10
1157.979122906683
 20
2052.482558850057
 30
0.0
 11
1158.037309569849
 21
2052.482558850057
 31
0.0
  0
LINE
  5
374
330
2A0
100
AcDbEntity
  8
P-SANR-FIXT
100
AcDbLine
 10
1126.191398316342
 20
2052.482558850057
 30
0.0
 11
1126.249584979508
 21
2052.482558850057
 31
0.0
  0
LINE
  5
375
330
2A0
100
AcDbEntity
  8
P-SANR-FIXT
100
AcDbLine
 10
1126.39112394251
 20
2052.482558850057
 30
0.0
 11
1126.508907073711
 21
2052.482558850057
 31
0.0
  0
LINE
  5
376
330
2A0
100
AcDbEntity
  8
P-SANR-FIXT
100
AcDbLine
 10
1126.803308571382
 20
2052.482558850057
 30
0.0
 11
1126.983350403715
 21
2052.482558850057
 31
0.0
  0
LINE
  5
377
330
2A0
100
AcDbEntity
  8
P-SANR-FIXT
100
AcDbLine
 10
1127.332281422916
 20
2052.482558850057
 30
0.0
 11
1127.596445396368
 21
2052.482558850057
 31
0.0
  0
LINE
  5
378
330
2A0
100
AcDbEntity
  8
P-SANR-FIXT
100
AcDbLine
 10
1128.003613713523
 20
2052.482558850057
 30
0.0
 11
1128.013779031649
 21
2052.482558850057
 31
0.0
  0
LINE
  5
379
330
2A0
100
AcDbEntity
  8
P-SANR-FIXT
100
AcDbLine
 10
1128.243626683555
 20
2052.482558850057
 30
0.0
 11
1128.810840146256
 21
2052.482558850057
 31
0.0
  0
LINE
  5
37A
330
2A0
100
AcDbEntity
  8
P-SANR-FIXT
100
AcDbLine
 10
1128.997551860097
 20
2052.482558850057
 30
0.0
 11
1129.746186689293
 21
2052.482558850057
 31
0.0
  0
LINE
  5
37B
330
2A0
100
AcDbEntity
  8
P-SANR-FIXT
100
AcDbLine
 10
1129.852180925689
 20
2052.482558850057
 30
0.0
 11
1131.824539543477
 21
2052.482558850057
 31
0.0
  0
LINE
  5
37C
330
2A0
100
AcDbEntity
  8
P-SANR-FIXT
100
AcDbLine
 10
1131.964061396478
 20
2052.482558850057
 30
0.0
 11
1132.929134320626
 21
2052.482558850057
 31
0.0
  0
LINE
  5
37D
330
2A0
100
AcDbEntity
  8
P-SANR-FIXT
100
AcDbLine
 10
1132.979786330297
 20
2052.482558850057
 30
0.0
 11
1135.344331656136
 21
2052.482558850057
 31
0.0
  0
LINE
  5
37E
330
2A0
100
AcDbEntity
  8
P-SANR-FIXT
100
AcDbLine
 10
1135.465184445653
 20
2052.482558850057
 30
0.0
 11
1136.450018065048
 21
2052.482558850057
 31
0.0
  0
LINE
  5
37F
330
2A0
100
AcDbEntity
  8
P-SANR-FIXT
100
AcDbLine
 10
1136.635597051599
 20
2052.482558850057
 30
0.0
 11
1137.954602727658
 21
2052.482558850057
 31
0.0
  0
LINE
  5
380
330
2A0
100
AcDbEntity
  8
P-SANR-FIXT
100
AcDbLine
 10
1137.969012562625
 20
2052.482558850057
 30
0.0
 11
1138.992908790838
 21
2052.482558850057
 31
0.0
  0
LINE
  5
381
330
2A0
100
AcDbEntity
  8
P-SANR-FIXT
100
AcDbLine
 10
1139.333916677087
 20
2052.482558850057
 30
0.0
 11
1140.546079697823
 21
2052.482558850057
 31
0.0
  0
LINE
  5
382
330
2A0
100
AcDbEntity
  8
P-SANR-FIXT
100
AcDbLine
 10
1140.719392763381
 20
2052.482558850057
 30
0.0
 11
1142.114353943096
 21
2052.482558850057
 31
0.0
  0
LINE
  5
383
330
2A0
100
AcDbEntity
  8
P-SANR-FIXT
100
AcDbLine
 10
1158.114353943097
 20
2043.183655553599
 30
0.0
 11
1158.114353943097
 21
2051.781462146508
 31
0.0
  0
LINE
  5
384
330
2A0
100
AcDbEntity
  8
P-SANR-FIXT
100
AcDbLine
 10
1126.114353943098
 20
2051.781462146508
 30
0.0
 11
1126.114353943098
 21
2043.183655553599
 31
0.0
  0
LINE
  5
385
330
2A0
100
AcDbEntity
  8
P-SANR-FIXT
100
AcDbLine
 10
1158.114353943048
 20
2042.482558850021
 30
0.0
 11
1150.114353943072
 21
2042.482558850021
 31
0.0
  0
LINE
  5
386
330
2A0
100
AcDbEntity
  8
P-SANR-FIXT
100
AcDbLine
 10
1150.114353943072
 20
2042.482558850021
 30
0.0
 11
1142.114353943096
 21
2042.482558850021
 31
0.0
  0
LINE
  5
387
330
2A0
100
AcDbEntity
  8
P-SANR-FIXT
100
AcDbLine
 10
1142.114353943096
 20
2042.482558850021
 30
0.0
 11
1134.114353943119
 21
2042.482558850021
 31
0.0
  0
LINE
  5
388
330
2A0
100
AcDbEntity
  8
P-SANR-FIXT
100
AcDbLine
 10
1134.114353943119
 20
2042.482558850021
 30
0.0
 11
1126.114353943143
 21
2042.482558850021
 31
0.0
  0
LINE
  5
389
330
2A0
100
AcDbEntity
  8
P-SANR-FIXT
100
AcDbLine
 10
1150.114353943095
 20
2052.482558850057
 30
0.0
 11
1151.009597432053
 21
2052.482558850057
 31
0.0
  0
LINE
  5
38A
330
2A0
100
AcDbEntity
  8
P-SANR-FIXT
100
AcDbLine
 10
1151.291576924711
 20
2052.482558850057
 30
0.0
 11
1152.26865489905
 21
2052.482558850057
 31
0.0
  0
LINE
  5
38B
330
2A0
100
AcDbEntity
  8
P-SANR-FIXT
100
AcDbLine
 10
1152.398955698079
 20
2052.482558850057
 30
0.0
 11
1154.371065032998
 21
2052.482558850057
 31
0.0
  0
LINE
  5
38C
330
2A0
100
AcDbEntity
  8
P-SANR-FIXT
100
AcDbLine
 10
1154.487982770319
 20
2052.482558850057
 30
0.0
 11
1155.368716615017
 21
2052.482558850057
 31
0.0
  0
LINE
  5
38D
330
2A0
100
AcDbEntity
  8
P-SANR-FIXT
100
AcDbLine
 10
1155.427776279408
 20
2052.482558850057
 30
0.0
 11
1155.970760403645
 21
2052.482558850057
 31
0.0
  0
LINE
  5
38E
330
2A0
100
AcDbEntity
  8
P-SANR-FIXT
100
AcDbLine
 10
1156.237981166415
 20
2052.482558850057
 30
0.0
 11
1156.615278535681
 21
2052.482558850057
 31
0.0
  0
LINE
  5
38F
330
2A0
100
AcDbEntity
  8
P-SANR-FIXT
100
AcDbLine
 10
1156.910461125333
 20
2052.482558850057
 30
0.0
 11
1157.31271594418
 21
2052.482558850057
 31
0.0
  0
LINE
  5
390
330
2A0
100
AcDbEntity
  8
P-SANR-FIXT
100
AcDbLine
 10
1157.438500964416
 20
2052.482558850057
 30
0.0
 11
1157.719861326794
 21
2052.482558850057
 31
0.0
  0
LINE
  5
391
330
2A0
100
AcDbEntity
  8
P-SANR-FIXT
100
AcDbLine
 10
1157.851389811034
 20
2052.482558850057
 30
0.0
 11
1157.992249505304
 21
2052.482558850057
 31
0.0
  0
LINE
  5
392
330
2A0
100
AcDbEntity
  8
P-SANR-FIXT
100
AcDbLine
 10
1158.042198194769
 20
2052.482558850057
 30
0.0
 11
1158.114353943094
 21
2052.482558850057
 31
0.0
  0
LINE
  5
393
330
2A0
100
AcDbEntity
  8
P-SANR-FIXT
100
AcDbLine
 10
1126.114353943097
 20
2052.482558850057
 30
0.0
 11
1126.186509691422
 21
2052.482558850057
 31
0.0
  0
LINE
  5
394
330
2A0
100
AcDbEntity
  8
P-SANR-FIXT
100
AcDbLine
 10
1126.236458380888
 20
2052.482558850057
 30
0.0
 11
1126.391186115439
 21
2052.482558850057
 31
0.0
  0
LINE
  5
395
330
2A0
100
AcDbEntity
  8
P-SANR-FIXT
100
AcDbLine
 10
1126.508846559397
 20
2052.482558850057
 30
0.0
 11
1126.790206921775
 21
2052.482558850057
 31
0.0
  0
LINE
  5
396
330
2A0
100
AcDbEntity
  8
P-SANR-FIXT
100
AcDbLine
 10
1126.915991942013
 20
2052.482558850057
 30
0.0
 11
1127.318246760857
 21
2052.482558850057
 31
0.0
  0
LINE
  5
397
330
2A0
100
AcDbEntity
  8
P-SANR-FIXT
100
AcDbLine
 10
1127.61342935051
 20
2052.482558850057
 30
0.0
 11
1127.990726719775
 21
2052.482558850057
 31
0.0
  0
LINE
  5
398
330
2A0
100
AcDbEntity
  8
P-SANR-FIXT
100
AcDbLine
 10
1128.00200907254
 20
2052.482558850057
 30
0.0
 11
1128.800931606783
 21
2052.482558850057
 31
0.0
  0
LINE
  5
399
330
2A0
100
AcDbEntity
  8
P-SANR-FIXT
100
AcDbLine
 10
1129.007921234473
 20
2052.482558850057
 30
0.0
 11
1129.740725115872
 21
2052.482558850057
 31
0.0
  0
LINE
  5
39A
330
2A0
100
AcDbEntity
  8
P-SANR-FIXT
100
AcDbLine
 10
1129.857642853193
 20
2052.482558850057
 30
0.0
 11
1131.829752188112
 21
2052.482558850057
 31
0.0
  0
LINE
  5
39B
330
2A0
100
AcDbEntity
  8
P-SANR-FIXT
100
AcDbLine
 10
1131.960052987141
 20
2052.482558850057
 30
0.0
 11
1132.985383004586
 21
2052.482558850057
 31
0.0
  0
LINE
  5
39C
330
2A0
100
AcDbEntity
  8
P-SANR-FIXT
100
AcDbLine
 10
1133.219110454138
 20
2052.482558850057
 30
0.0
 11
1134.114353943096
 21
2052.482558850057
 31
0.0
  0
LINE
  5
39D
330
2A0
100
AcDbEntity
  8
P-SANR-FIXT
100
AcDbLine
 10
1134.565404755531
 20
2052.482558850057
 30
0.0
 11
1135.47072845017
 21
2052.482558850057
 31
0.0
  0
LINE
  5
39E
330
2A0
100
AcDbEntity
  8
P-SANR-FIXT
100
AcDbLine
 10
1135.985589974635
 20
2052.482558850057
 30
0.0
 11
1137.465540068009
 21
2052.482558850057
 31
0.0
  0
LINE
  5
39F
330
2A0
100
AcDbEntity
  8
P-SANR-FIXT
100
AcDbLine
 10
1137.958593079084
 20
2052.482558850057
 30
0.0
 11
1138.990506231563
 21
2052.482558850057
 31
0.0
  0
LINE
  5
3A0
330
2A0
100
AcDbEntity
  8
P-SANR-FIXT
100
AcDbLine
 10
1139.335983100425
 20
2052.482558850057
 30
0.0
 11
1142.114353943096
 21
2052.482558850057
 31
0.0
  0
LINE
  5
3A1
330
2A0
100
AcDbEntity
  8
P-SANR-FIXT
100
AcDbLine
 10
1142.114353943096
 20
2052.482558850057
 30
0.0
 11
1143.508845827058
 21
2052.482558850057
 31
0.0
  0
LINE
  5
3A2
330
2A0
100
AcDbEntity
  8
P-SANR-FIXT
100
AcDbLine
 10
1143.683428940166
 20
2052.482558850057
 30
0.0
 11
1146.255458664735
 21
2052.482558850057
 31
0.0
  0
LINE
  5
3A3
330
2A0
100
AcDbEntity
  8
P-SANR-FIXT
100
AcDbLine
 10
1146.763167818181
 20
2052.482558850057
 30
0.0
 11
1147.907117496391
 21
2052.482558850057
 31
0.0
  0
LINE
  5
3A4
330
2A0
100
AcDbEntity
  8
P-SANR-FIXT
100
AcDbLine
 10
1148.243117911555
 20
2052.482558850057
 30
0.0
 11
1149.66330313066
 21
2052.482558850057
 31
0.0
  0
SPLINE
  5
3A5
330
2A0
100
AcDbEntity
  8
P-SANR-FIXT
100
AcDbSpline
210
0.0
220
0.0
230
1.0
 70
     8
 71
     3
 72
    10
 73
     6
 74
     0
 42
0.000000001
 43
0.0000000001
 40
0.0
 40
0.0
 40
0.0
 40
0.0
 40
0.4
 40
0.7
 40
1.0
 40
1.0
 40
1.0
 40
1.0
 10
1155.614353943095
 20
2043.183655553598
 30
0.0
 10
1156.21116065217
 20
2043.331706906967
 30
0.0
 10
1157.143552768371
 20
2043.492052000535
 30
0.0
 10
1157.95331203693
 20
2043.452383817716
 30
0.0
 10
1158.114353943095
 20
2043.294526411348
 30
0.0
 10
1158.114353943095
 20
2043.183655553598
 30
0.0
  0
SPLINE
  5
3A6
330
2A0
100
AcDbEntity
  8
P-SANR-FIXT
100
AcDbSpline
210
0.0
220
0.0
230
1.0
 70
     8
 71
     3
 72
    10
 73
     6
 74
     0
 42
0.000000001
 43
0.0000000001
 40
0.0
 40
0.0
 40
0.0
 40
0.0
 40
0.4
 40
0.7
 40
1.0
 40
1.0
 40
1.0
 40
1.0
 10
1158.114353943095
 20
2051.781462146507
 30
0.0
 10
1158.114353943095
 20
2051.633634336174
 30
0.0
 10
1157.860211797002
 20
2051.473169611104
 30
0.0
 10
1156.885278781901
 20
2051.512545268765
 30
0.0
 10
1156.061958974901
 20
2051.67042363148
 30
0.0
 10
1155.614353943095
 20
2051.781462146507
 30
0.0
  0
SPLINE
  5
3A7
330
2A0
100
AcDbEntity
  8
P-SANR-FIXT
100
AcDbSpline
210
0.0
220
0.0
230
1.0
 70
    24
 71
     3
 72
     9
 73
     5
 74
     0
 42
0.000000001
 43
0.0000000001
 40
0.0
 40
0.0
 40
0.0
 40
0.0
 40
0.5
 40
1.0
 40
1.0
 40
1.0
 40
1.0
 10
1158.114353943095
 20
2043.183655553598
 30
0.0
 10
1158.114353943095
 20
2042.95458090284
 30
0.0
 10
1158.114353943095
 20
2042.608656801487
 30
0.0
 10
1158.114353943095
 20
2042.487183100456
 30
0.0
 10
1158.114353943095
 20
2042.482558850021
 30
0.0
  0
SPLINE
  5
3A8
330
2A0
100
AcDbEntity
  8
P-SANR-FIXT
100
AcDbSpline
210
0.0
220
0.0
230
1.0
 70
    24
 71
     3
 72
     9
 73
     5
 74
     0
 42
0.000000001
 43
0.0000000001
 40
0.0
 40
0.0
 40
0.0
 40
0.0
 40
0.5
 40
1.0
 40
1.0
 40
1.0
 40
1.0
 10
1158.114353943095
 20
2052.482558850057
 30
0.0
 10
1158.114353943095
 20
2052.477934599636
 30
0.0
 10
1158.114353943095
 20
2052.356460898623
 30
0.0
 10
1158.114353943095
 20
2052.010536797268
 30
0.0
 10
1158.114353943095
 20
2051.781462146507
 30
0.0
  0
SPLINE
  5
3A9
330
2A0
100
AcDbEntity
  8
P-SANR-FIXT
100
AcDbSpline
210
0.0
220
0.0
230
1.0
 70
    24
 71
     3
 72
     9
 73
     5
 74
     0
 42
0.000000001
 43
0.0000000001
 40
0.0
 40
0.0
 40
0.0
 40
0.0
 40
0.5
 40
1.0
 40
1.0
 40
1.0
 40
1.0
 10
1126.114353943096
 20
2042.482558850021
 30
0.0
 10
1126.114353943096
 20
2042.487183100456
 30
0.0
 10
1126.114353943096
 20
2042.608656801487
 30
0.0
 10
1126.114353943096
 20
2042.95458090284
 30
0.0
 10
1126.114353943096
 20
2043.183655553598
 30
0.0
  0
SPLINE
  5
3AA
330
2A0
100
AcDbEntity
  8
P-SANR-FIXT
100
AcDbSpline
210
0.0
220
0.0
230
1.0
 70
    24
 71
     3
 72
     9
 73
     5
 74
     0
 42
0.000000001
 43
0.0000000001
 40
0.0
 40
0.0
 40
0.0
 40
0.0
 40
0.5
 40
1.0
 40
1.0
 40
1.0
 40
1.0
 10
1126.114353943096
 20
2051.781462146507
 30
0.0
 10
1126.114353943096
 20
2052.010536797269
 30
0.0
 10
1126.114353943096
 20
2052.356460898623
 30
0.0
 10
1126.114353943096
 20
2052.477934599636
 30
0.0
 10
1126.114353943096
 20
2052.482558850057
 30
0.0
  0
SPLINE
  5
3AB
330
2A0
100
AcDbEntity
  8
P-SANR-FIXT
100
AcDbSpline
210
0.0
220
0.0
230
1.0
 70
     8
 71
     3
 72
    10
 73
     6
 74
     0
 42
0.000000001
 43
0.0000000001
 40
0.0
 40
0.0
 40
0.0
 40
0.0
 40
0.4
 40
0.7
 40
1.0
 40
1.0
 40
1.0
 40
1.0
 10
1126.114353943096
 20
2043.183655553598
 30
0.0
 10
1126.114353943096
 20
2043.331706906967
 30
0.0
 10
1126.36899038435
 20
2043.492052000535
 30
0.0
 10
1127.344557154071
 20
2043.452383817716
 30
0.0
 10
1128.167671816235
 20
2043.294526411348
 30
0.0
 10
1128.614353943096
 20
2043.183655553598
 30
0.0
  0
SPLINE
  5
3AC
330
2A0
100
AcDbEntity
  8
P-SANR-FIXT
100
AcDbSpline
210
0.0
220
0.0
230
1.0
 70
     8
 71
     3
 72
    10
 73
     6
 74
     0
 42
0.000000001
 43
0.0000000001
 40
0.0
 40
0.0
 40
0.0
 40
0.0
 40
0.4
 40
0.7
 40
1.0
 40
1.0
 40
1.0
 40
1.0
 10
1128.614353943096
 20
2051.781462146507
 30
0.0
 10
1128.018777773949
 20
2051.633634336174
 30
0.0
 10
1127.085903642282
 20
2051.473169611104
 30
0.0
 10
1126.275959725707
 20
2051.512545268765
 30
0.0
 10
1126.114353943096
 20
2051.67042363148
 30
0.0
 10
1126.114353943096
 20
2051.781462146507
 30
0.0
  0
SPLINE
  5
3AD
330
2A0
100
AcDbEntity
  8
P-SANR-FIXT
100
AcDbSpline
210
0.0
220
0.0
230
1.0
 70
     8
 71
     3
 72
     9
 73
     5
 74
     0
 42
0.000000001
 43
0.0000000001
 40
0.0
 40
0.0
 40
0.0
 40
0.0
 40
0.5
 40
1.0
 40
1.0
 40
1.0
 40
1.0
 10
1128.614353943096
 20
2043.183655553598
 30
0.0
 10
1129.520559313513
 20
2042.95458090284
 30
0.0
 10
1131.343431350597
 20
2042.608656801486
 30
0.0
 10
1133.18722598018
 20
2042.487183100456
 30
0.0
 10
1134.114353943096
 20
2042.482558850021
 30
0.0
  0
SPLINE
  5
3AE
330
2A0
100
AcDbEntity
  8
P-SANR-FIXT
100
AcDbSpline
210
0.0
220
0.0
230
1.0
 70
     8
 71
     3
 72
     9
 73
     5
 74
     0
 42
0.000000001
 43
0.0000000001
 40
0.0
 40
0.0
 40
0.0
 40
0.0
 40
0.5
 40
1.0
 40
1.0
 40
1.0
 40
1.0
 10
1134.114353943096
 20
2042.482558850021
 30
0.0
 10
1135.041481906011
 20
2042.487183100456
 30
0.0
 10
1136.885276535594
 20
2042.608656801486
 30
0.0
 10
1138.708148572678
 20
2042.95458090284
 30
0.0
 10
1139.614353943095
 20
2043.183655553598
 30
0.0
  0
SPLINE
  5
3AF
330
2A0
100
AcDbEntity
  8
P-SANR-FIXT
100
AcDbSpline
210
0.0
220
0.0
230
1.0
 70
     8
 71
     3
 72
     9
 73
     5
 74
     0
 42
0.000000001
 43
0.0000000001
 40
0.0
 40
0.0
 40
0.0
 40
0.0
 40
0.5
 40
1.0
 40
1.0
 40
1.0
 40
1.0
 10
1139.614353943095
 20
2051.781462146507
 30
0.0
 10
1138.708148572678
 20
2052.010536797268
 30
0.0
 10
1136.885276535595
 20
2052.356460898623
 30
0.0
 10
1135.041481906012
 20
2052.477934599636
 30
0.0
 10
1134.114353943096
 20
2052.482558850057
 30
0.0
  0
SPLINE
  5
3B0
330
2A0
100
AcDbEntity
  8
P-SANR-FIXT
100
AcDbSpline
210
0.0
220
0.0
230
1.0
 70
     8
 71
     3
 72
     9
 73
     5
 74
     0
 42
0.000000001
 43
0.0000000001
 40
0.0
 40
0.0
 40
0.0
 40
0.0
 40
0.5
 40
1.0
 40
1.0
 40
1.0
 40
1.0
 10
1134.114353943096
 20
2052.482558850057
 30
0.0
 10
1133.187225980179
 20
2052.477934599636
 30
0.0
 10
1131.343431350596
 20
2052.356460898623
 30
0.0
 10
1129.520559313513
 20
2052.010536797268
 30
0.0
 10
1128.614353943096
 20
2051.781462146507
 30
0.0
  0
SPLINE
  5
3B1
330
2A0
100
AcDbEntity
  8
P-SANR-FIXT
100
AcDbSpline
210
0.0
220
0.0
230
1.0
 70
     8
 71
     3
 72
     9
 73
     5
 74
     0
 42
0.000000001
 43
0.0000000001
 40
0.0
 40
0.0
 40
0.0
 40
0.0
 40
0.5
 40
1.0
 40
1.0
 40
1.0
 40
1.0
 10
1139.614353943095
 20
2043.183655553598
 30
0.0
 10
1139.987548908779
 20
2043.276545201695
 30
0.0
 10
1140.794778259459
 20
2043.416332127909
 30
0.0
 10
1141.672617744893
 20
2043.46413431416
 30
0.0
 10
1142.114353943096
 20
2043.465039222296
 30
0.0
  0
SPLINE
  5
3B2
330
2A0
100
AcDbEntity
  8
P-SANR-FIXT
100
AcDbSpline
210
0.0
220
0.0
230
1.0
 70
     8
 71
     3
 72
     9
 73
     5
 74
     0
 42
0.000000001
 43
0.0000000001
 40
0.0
 40
0.0
 40
0.0
 40
0.0
 40
0.5
 40
1.0
 40
1.0
 40
1.0
 40
1.0
 10
1142.114353943096
 20
2043.465039222296
 30
0.0
 10
1142.556090141297
 20
2043.46413431416
 30
0.0
 10
1143.433929626732
 20
2043.416332127908
 30
0.0
 10
1144.241158977412
 20
2043.276545201695
 30
0.0
 10
1144.614353943095
 20
2043.183655553598
 30
0.0
  0
SPLINE
  5
3B3
330
2A0
100
AcDbEntity
  8
P-SANR-FIXT
100
AcDbSpline
210
0.0
220
0.0
230
1.0
 70
     8
 71
     3
 72
     9
 73
     5
 74
     0
 42
0.000000001
 43
0.0000000001
 40
0.0
 40
0.0
 40
0.0
 40
0.0
 40
0.5
 40
1.0
 40
1.0
 40
1.0
 40
1.0
 10
1144.614353943095
 20
2051.781462146507
 30
0.0
 10
1144.241158977412
 20
2051.68857249841
 30
0.0
 10
1143.433929626732
 20
2051.548785572197
 30
0.0
 10
1142.556090141297
 20
2051.500983385944
 30
0.0
 10
1142.114353943096
 20
2051.500078477809
 30
0.0
  0
SPLINE
  5
3B4
330
2A0
100
AcDbEntity
  8
P-SANR-FIXT
100
AcDbSpline
210
0.0
220
0.0
230
1.0
 70
     8
 71
     3
 72
     9
 73
     5
 74
     0
 42
0.000000001
 43
0.0000000001
 40
0.0
 40
0.0
 40
0.0
 40
0.0
 40
0.5
 40
1.0
 40
1.0
 40
1.0
 40
1.0
 10
1142.114353943096
 20
2051.500078477809
 30
0.0
 10
1141.672617744893
 20
2051.500983385944
 30
0.0
 10
1140.794778259459
 20
2051.548785572197
 30
0.0
 10
1139.987548908779
 20
2051.68857249841
 30
0.0
 10
1139.614353943095
 20
2051.781462146507
 30
0.0
  0
SPLINE
  5
3B5
330
2A0
100
AcDbEntity
  8
P-SANR-FIXT
100
AcDbSpline
210
0.0
220
0.0
230
1.0
 70
     8
 71
     3
 72
     9
 73
     5
 74
     0
 42
0.000000001
 43
0.0000000001
 40
0.0
 40
0.0
 40
0.0
 40
0.0
 40
0.5
 40
1.0
 40
1.0
 40
1.0
 40
1.0
 10
1155.614353943095
 20
2051.781462146507
 30
0.0
 10
1154.708148572678
 20
2052.010536797268
 30
0.0
 10
1152.885276535594
 20
2052.356460898623
 30
0.0
 10
1151.041481906012
 20
2052.477934599636
 30
0.0
 10
1150.114353943095
 20
2052.482558850057
 30
0.0
  0
SPLINE
  5
3B6
330
2A0
100
AcDbEntity
  8
P-SANR-FIXT
100
AcDbSpline
210
0.0
220
0.0
230
1.0
 70
     8
 71
     3
 72
     9
 73
     5
 74
     0
 42
0.000000001
 43
0.0000000001
 40
0.0
 40
0.0
 40
0.0
 40
0.0
 40
0.5
 40
1.0
 40
1.0
 40
1.0
 40
1.0
 10
1150.114353943095
 20
2052.482558850057
 30
0.0
 10
1149.187225980179
 20
2052.477934599636
 30
0.0
 10
1147.343431350596
 20
2052.356460898623
 30
0.0
 10
1145.520559313512
 20
2052.010536797268
 30
0.0
 10
1144.614353943095
 20
2051.781462146507
 30
0.0
  0
SPLINE
  5
3B7
330
2A0
100
AcDbEntity
  8
P-SANR-FIXT
100
AcDbSpline
210
0.0
220
0.0
230
1.0
 70
     8
 71
     3
 72
     9
 73
     5
 74
     0
 42
0.000000001
 43
0.0000000001
 40
0.0
 40
0.0
 40
0.0
 40
0.0
 40
0.5
 40
1.0
 40
1.0
 40
1.0
 40
1.0
 10
1144.614353943095
 20
2043.183655553598
 30
0.0
 10
1145.520559313513
 20
2042.95458090284
 30
0.0
 10
1147.343431350597
 20
2042.608656801487
 30
0.0
 10
1149.187225980179
 20
2042.487183100456
 30
0.0
 10
1150.114353943095
 20
2042.482558850021
 30
0.0
  0
SPLINE
  5
3B8
330
2A0
100
AcDbEntity
  8
P-SANR-FIXT
100
AcDbSpline
210
0.0
220
0.0
230
1.0
 70
     8
 71
     3
 72
     9
 73
     5
 74
     0
 42
0.000000001
 43
0.0000000001
 40
0.0
 40
0.0
 40
0.0
 40
0.0
 40
0.5
 40
1.0
 40
1.0
 40
1.0
 40
1.0
 10
1150.114353943095
 20
2042.482558850021
 30
0.0
 10
1151.041481906011
 20
2042.487183100456
 30
0.0
 10
1152.885276535594
 20
2042.608656801487
 30
0.0
 10
1154.708148572678
 20
2042.95458090284
 30
0.0
 10
1155.614353943095
 20
2043.183655553598
 30
0.0
  0
ARC
  5
3B9
330
2A0
100
AcDbEntity
  8
P-SANR-FIXT
100
AcDbCircle
 10
1142.114353943096
 20
1999.982558850011
 30
0.0
 40
32.74999999999083
100
AcDbArc
 50
300.2593761045854
 51
59.74062389541384
  0
ARC
  5
3BA
330
2A0
100
AcDbEntity
  8
P-SANR-FIXT
100
AcDbCircle
 10
1142.114353943096
 20
1999.982558850011
 30
0.0
 40
32.74999999999066
100
AcDbArc
 50
120.2593761047662
 51
239.7406238952326
  0
LINE
  5
3BB
330
2A0
100
AcDbEntity
  8
P-SANR-FIXT
100
AcDbLine
 10
1153.609317835692
 20
1889.882558849997
 30
0.0
 11
1153.609317835692
 21
1891.682558850011
 31
0.0
  0
LINE
  5
3BC
330
2A0
100
AcDbEntity
  8
P-SANR-FIXT
100
AcDbLine
 10
1130.619390050504
 20
1891.682558850011
 30
0.0
 11
1130.619390050504
 21
1889.882558849997
 31
0.0
  0
LINE
  5
3BD
330
2A0
100
AcDbEntity
  8
P-SANR-FIXT
100
AcDbLine
 10
1156.753775360901
 20
1876.363137432193
 30
0.0
 11
1156.753775360901
 21
1889.882558849997
 31
0.0
  0
LINE
  5
3BE
330
2A0
100
AcDbEntity
  8
P-SANR-FIXT
100
AcDbLine
 10
1127.474932525294
 20
1889.882558849997
 30
0.0
 11
1127.474932525294
 21
1876.363137432193
 31
0.0
  0
LINE
  5
3BF
330
2A0
100
AcDbEntity
  8
P-SANR-FIXT
100
AcDbLine
 10
1157.534353943098
 20
1866.08255884998
 30
0.0
 11
1157.534353943098
 21
1876.363137432193
 31
0.0
  0
LINE
  5
3C0
330
2A0
100
AcDbEntity
  8
P-SANR-FIXT
100
AcDbLine
 10
1126.694353943097
 20
1876.363137432193
 30
0.0
 11
1126.694353943097
 21
1866.08255884998
 31
0.0
  0
LINE
  5
3C1
330
2A0
100
AcDbEntity
  8
P-SANR-FIXT
100
AcDbLine
 10
1156.614353943097
 20
1864.582558849981
 30
0.0
 11
1156.614353943097
 21
1866.08255884998
 31
0.0
  0
LINE
  5
3C2
330
2A0
100
AcDbEntity
  8
P-SANR-FIXT
100
AcDbLine
 10
1127.614353943098
 20
1866.08255884998
 30
0.0
 11
1127.614353943098
 21
1864.582558849981
 31
0.0
  0
LINE
  5
3C3
330
2A0
100
AcDbEntity
  8
P-SANR-FIXT
100
AcDbLine
 10
1153.864353943099
 20
1861.58255884998
 30
0.0
 11
1153.864353943099
 21
1864.582558849981
 31
0.0
  0
LINE
  5
3C4
330
2A0
100
AcDbEntity
  8
P-SANR-FIXT
100
AcDbLine
 10
1130.364353943097
 20
1864.582558849981
 30
0.0
 11
1130.364353943097
 21
1861.58255884998
 31
0.0
  0
LINE
  5
3C5
330
2A0
100
AcDbEntity
  8
P-SANR-FIXT
100
AcDbLine
 10
1155.564353943098
 20
1859.582558850009
 30
0.0
 11
1155.564353943098
 21
1861.58255884998
 31
0.0
  0
LINE
  5
3C6
330
2A0
100
AcDbEntity
  8
P-SANR-FIXT
100
AcDbLine
 10
1128.664353943097
 20
1861.58255884998
 30
0.0
 11
1128.664353943097
 21
1859.582558850009
 31
0.0
  0
LINE
  5
3C7
330
2A0
100
AcDbEntity
  8
P-SANR-FIXT
100
AcDbLine
 10
1156.914353943085
 20
1850.582558850009
 30
0.0
 11
1156.914353943085
 21
1859.582558850009
 31
0.0
  0
LINE
  5
3C8
330
2A0
100
AcDbEntity
  8
P-SANR-FIXT
100
AcDbLine
 10
1127.31435394311
 20
1859.582558850009
 30
0.0
 11
1127.31435394311
 21
1850.582558850009
 31
0.0
  0
LINE
  5
3C9
330
2A0
100
AcDbEntity
  8
P-SANR-FIXT
100
AcDbLine
 10
1149.614353943098
 20
1827.582558850011
 30
0.0
 11
1149.614353943098
 21
1850.582558850009
 31
0.0
  0
LINE
  5
3CA
330
2A0
100
AcDbEntity
  8
P-SANR-FIXT
100
AcDbLine
 10
1134.614353943097
 20
1850.582558850009
 30
0.0
 11
1134.614353943097
 21
1827.582558850011
 31
0.0
  0
ARC
  5
3CB
330
2A0
100
AcDbEntity
  8
P-SANR-FIXT
100
AcDbCircle
 10
1142.114353943096
 20
1876.582558849996
 30
0.0
 40
3.750000000063209
100
AcDbArc
 50
269.9999999999997
 51
90.0
  0
ARC
  5
3CC
330
2A0
100
AcDbEntity
  8
P-SANR-FIXT
100
AcDbCircle
 10
1142.114353943096
 20
1876.582558849996
 30
0.0
 40
3.750000000063437
100
AcDbArc
 50
90.0
 51
269.9999999999997
  0
SPLINE
  5
3CD
330
2A0
100
AcDbEntity
  8
P-SANR-FIXT
100
AcDbSpline
210
0.0
220
0.0
230
1.0
 70
     8
 71
     3
 72
     8
 73
     4
 74
     0
 42
0.000000001
 43
0.0000000001
 40
0.1126271867333081
 40
0.1126271867333081
 40
0.1126271867333081
 40
0.1126271867333081
 40
0.1428571428571428
 40
0.1428571428571428
 40
0.1428571428571428
 40
0.1428571428571428
 10
1143.238743848507
 20
1870.231346967221
 30
0.0
 10
1143.338021810136
 20
1870.248912752439
 30
0.0
 10
1143.4368125537
 20
1870.268791167259
 30
0.0
 10
1143.535009087918
 20
1870.290958182449
 30
0.0
  0
SPLINE
  5
3CE
330
2A0
100
AcDbEntity
  8
P-SANR-FIXT
100
AcDbSpline
210
0.0
220
0.0
230
1.0
 70
     8
 71
     3
 72
    10
 73
     6
 74
     0
 42
0.000000001
 43
0.0000000001
 40
0.2265250231610457
 40
0.2265250231610457
 40
0.2265250231610457
 40
0.2265250231610457
 40
0.2857142857142857
 40
0.3214285714285714
 40
0.3410372669498027
 40
0.3410372669498027
 40
0.3410372669498027
 40
0.3410372669498027
 10
1144.3344287874
 20
1870.52667606812
 30
0.0
 10
1144.518650346688
 20
1870.594218459465
 30
0.0
 10
1144.808544597496
 20
1870.715790346162
 30
0.0
 10
1145.145092399362
 20
1870.886712041023
 30
0.0
 10
1145.303664214955
 20
1870.975871268737
 30
0.0
 10
1145.359347065108
 20
1871.00828628934
 30
0.0
  0
SPLINE
  5
3CF
330
2A0
100
AcDbEntity
  8
P-SANR-FIXT
100
AcDbSpline
210
0.0
220
0.0
230
1.0
 70
     8
 71
     3
 72
     8
 73
     4
 74
     0
 42
0.000000001
 43
0.0000000001
 40
0.4285714285714286
 40
0.4285714285714286
 40
0.4285714285714286
 40
0.4285714285714286
 40
0.4552969128865504
 40
0.4552969128865504
 40
0.4552969128865504
 40
0.4552969128865504
 10
1146.072518280928
 20
1871.489874383519
 30
0.0
 10
1146.141611548536
 20
1871.543575385871
 30
0.0
 10
1146.20956563967
 20
1871.598648379281
 30
0.0
 10
1146.276319322232
 20
1871.655030457321
 30
0.0
  0
SPLINE
  5
3D0
330
2A0
100
AcDbEntity
  8
P-SANR-FIXT
100
AcDbSpline
210
0.0
220
0.0
230
1.0
 70
     8
 71
     3
 72
     8
 73
     4
 74
     0
 42
0.000000001
 43
0.0000000001
 40
0.5684234018593129
 40
0.5684234018593129
 40
0.5684234018593129
 40
0.5684234018593129
 40
0.5714285714285714
 40
0.5714285714285714
 40
0.5714285714285714
 40
0.5714285714285714
 10
1147.057580865895
 20
1872.439249765227
 30
0.0
 10
1147.06389068909
 20
1872.446777862147
 30
0.0
 10
1147.070183644076
 20
1872.454320800481
 30
0.0
 10
1147.076459700663
 20
1872.461878511617
 30
0.0
  0
SPLINE
  5
3D1
330
2A0
100
AcDbEntity
  8
P-SANR-FIXT
100
AcDbSpline
210
0.0
220
0.0
230
1.0
 70
     8
 71
     3
 72
     8
 73
     4
 74
     0
 42
0.000000001
 43
0.0000000001
 40
0.6809174518789046
 40
0.6809174518789046
 40
0.6809174518789046
 40
0.6809174518789046
 40
0.7142857142857144
 40
0.7142857142857144
 40
0.7142857142857144
 40
0.7142857142857144
 10
1147.691266881251
 20
1873.342104882854
 30
0.0
 10
1147.746261676975
 20
1873.436752595008
 30
0.0
 10
1147.79882512659
 20
1873.532958725513
 30
0.0
 10
1147.849162150996
 20
1873.630529917383
 30
0.0
  0
SPLINE
  5
3D2
330
2A0
100
AcDbEntity
  8
P-SANR-FIXT
100
AcDbSpline
210
0.0
220
0.0
230
1.0
 70
     8
 71
     3
 72
     9
 73
     5
 74
     0
 42
0.000000001
 43
0.0000000001
 40
0.7949950094912941
 40
0.7949950094912941
 40
0.7949950094912941
 40
0.7949950094912941
 40
0.8571428571428571
 40
0.9088933037578897
 40
0.9088933037578897
 40
0.9088933037578897
 40
0.9088933037578897
 10
1148.169888711764
 20
1874.361522883098
 30
0.0
 10
1148.240671298597
 20
1874.554505653396
 30
0.0
 10
1148.361843609846
 20
1874.913921381286
 30
0.0
 10
1148.421459694572
 20
1875.287553247607
 30
0.0
 10
1148.443777488213
 20
1875.458515048293
 30
0.0
  0
SPLINE
  5
3D3
330
2A0
100
AcDbEntity
  8
P-SANR-FIXT
100
AcDbSpline
210
0.0
220
0.0
230
1.0
 70
     8
 71
     3
 72
     8
 73
     4
 74
     0
 42
0.000000001
 43
0.0000000001
 40
0.0
 40
0.0
 40
0.0
 40
0.0
 40
0.0210889920830378
 40
0.0210889920830378
 40
0.0210889920830378
 40
0.0210889920830378
 10
1148.560620633343
 20
1876.363137432193
 30
0.0
 10
1148.563132367962
 20
1876.436928365516
 30
0.0
 10
1148.564370147638
 20
1876.510715716907
 30
0.0
 10
1148.564341728869
 20
1876.584458547129
 30
0.0
  0
SPLINE
  5
3D4
330
2A0
100
AcDbEntity
  8
P-SANR-FIXT
100
AcDbSpline
210
0.0
220
0.0
230
1.0
 70
     8
 71
     3
 72
     8
 73
     4
 74
     0
 42
0.000000001
 43
0.0000000001
 40
0.1287371869164294
 40
0.1287371869164294
 40
0.1287371869164294
 40
0.1287371869164294
 40
0.1428571428571428
 40
0.1428571428571428
 40
0.1428571428571428
 40
0.1428571428571428
 10
1148.465963299829
 20
1877.704788431989
 30
0.0
 10
1148.457424723652
 20
1877.753143804149
 30
0.0
 10
1148.448336277534
 20
1877.801385538355
 30
0.0
 10
1148.438700289559
 20
1877.849501346861
 30
0.0
  0
SPLINE
  5
3D5
330
2A0
100
AcDbEntity
  8
P-SANR-FIXT
100
AcDbSpline
210
0.0
220
0.0
230
1.0
 70
     8
 71
     3
 72
    10
 73
     6
 74
     0
 42
0.000000001
 43
0.0000000001
 40
0.2381267307806486
 40
0.2381267307806486
 40
0.2381267307806486
 40
0.2381267307806486
 40
0.2857142857142857
 40
0.3214285714285714
 40
0.3483576774367025
 40
0.3483576774367025
 40
0.3483576774367025
 40
0.3483576774367025
 10
1148.170368479796
 20
1878.80225548027
 30
0.0
 10
1148.113758419249
 20
1878.956690676417
 30
0.0
 10
1148.004519731031
 20
1879.222742435716
 30
0.0
 10
1147.837670408367
 20
1879.562649770225
 30
0.0
 10
1147.733664798262
 20
1879.750258467957
 30
0.0
 10
1147.687293060359
 20
1879.829841491056
 30
0.0
  0
SPLINE
  5
3D6
330
2A0
100
AcDbEntity
  8
P-SANR-FIXT
100
AcDbSpline
210
0.0
220
0.0
230
1.0
 70
     8
 71
     3
 72
     8
 73
     4
 74
     0
 42
0.000000001
 43
0.0000000001
 40
0.4285714285714286
 40
0.4285714285714286
 40
0.4285714285714286
 40
0.4285714285714286
 40
0.4581451304226895
 40
0.4581451304226895
 40
0.4581451304226895
 40
0.4581451304226895
 10
1147.229474802545
 20
1880.511685800555
 30
0.0
 10
1147.168013366349
 20
1880.59169952382
 30
0.0
 10
1147.104711627577
 20
1880.670219254832
 30
0.0
 10
1147.039666338209
 20
1880.747146810866
 30
0.0
  0
SPLINE
  5
3D7
330
2A0
100
AcDbEntity
  8
P-SANR-FIXT
100
AcDbSpline
210
0.0
220
0.0
230
1.0
 70
     8
 71
     3
 72
     8
 73
     4
 74
     0
 42
0.000000001
 43
0.0000000001
 40
0.56656545724847
 40
0.56656545724847
 40
0.56656545724847
 40
0.56656545724847
 40
0.5714285714285714
 40
0.5714285714285714
 40
0.5714285714285714
 40
0.5714285714285714
 10
1146.255750144622
 20
1881.527388209639
 30
0.0
 10
1146.243029951798
 20
1881.538041682386
 30
0.0
 10
1146.230267008257
 20
1881.548647378192
 30
0.0
 10
1146.217461746927
 20
1881.559204944558
 30
0.0
  0
SPLINE
  5
3D8
330
2A0
100
AcDbEntity
  8
P-SANR-FIXT
100
AcDbSpline
210
0.0
220
0.0
230
1.0
 70
     8
 71
     3
 72
    13
 73
     9
 74
     0
 42
0.000000001
 43
0.0000000001
 40
0.6735812698738438
 40
0.6735812698738438
 40
0.6735812698738438
 40
0.6735812698738438
 40
0.6785714285714287
 40
0.7142857142857144
 40
0.75
 40
0.7857142857142857
 40
0.8571428571428571
 40
0.892123062920306
 40
0.892123062920306
 40
0.892123062920306
 40
0.892123062920306
 10
1145.358588332385
 20
1882.157273439615
 30
0.0
 10
1145.343801711269
 20
1882.165878606009
 30
0.0
 10
1145.222883374062
 20
1882.235608954366
 30
0.0
 10
1144.991218195676
 20
1882.359268546677
 30
0.0
 10
1144.65584649333
 20
1882.514934985249
 30
0.0
 10
1144.195949682123
 20
1882.694376921276
 30
0.0
 10
1143.724136746862
 20
1882.848157071479
 30
0.0
 10
1143.358522399248
 20
1882.901401243995
 30
0.0
 10
1143.237580911023
 20
1882.915315493139
 30
0.0
  0
SPLINE
  5
3D9
330
2A0
100
AcDbEntity
  8
P-SANR-FIXT
100
AcDbSpline
210
0.0
220
0.0
230
1.0
 70
     8
 71
     3
 72
    13
 73
     9
 74
     0
 42
0.000000001
 43
0.0000000001
 40
0.1078769370796977
 40
0.1078769370796977
 40
0.1078769370796977
 40
0.1078769370796977
 40
0.1428571428571428
 40
0.2142857142857143
 40
0.25
 40
0.2857142857142857
 40
0.3214285714285714
 40
0.3264187301261561
 40
0.3264187301261561
 40
0.3264187301261561
 40
0.3264187301261561
 10
1140.988830211115
 20
1882.933561292808
 30
0.0
 10
1140.868813011895
 20
1882.912304367919
 30
0.0
 10
1140.505928973301
 20
1882.837370256068
 30
0.0
 10
1140.032539438024
 20
1882.696114840223
 30
0.0
 10
1139.572902739122
 20
1882.514606503822
 30
0.0
 10
1139.237478043442
 20
1882.359361153531
 30
0.0
 10
1139.005824911067
 20
1882.23560559255
 30
0.0
 10
1138.884906180917
 20
1882.16587861313
 30
0.0
 10
1138.870119563341
 20
1882.15727345094
 30
0.0
  0
SPLINE
  5
3DA
330
2A0
100
AcDbEntity
  8
P-SANR-FIXT
100
AcDbSpline
210
0.0
220
0.0
230
1.0
 70
     8
 71
     3
 72
     8
 73
     4
 74
     0
 42
0.000000001
 43
0.0000000001
 40
0.4285714285714286
 40
0.4285714285714286
 40
0.4285714285714286
 40
0.4285714285714286
 40
0.4334345427515186
 40
0.4334345427515186
 40
0.4334345427515186
 40
0.4334345427515186
 10
1138.011246139264
 20
1881.559204944558
 30
0.0
 10
1137.998440728626
 20
1881.548647245881
 30
0.0
 10
1137.985677625973
 20
1881.538041326067
 30
0.0
 10
1137.972957252402
 20
1881.527387642378
 30
0.0
  0
SPLINE
  5
3DB
330
2A0
100
AcDbEntity
  8
P-SANR-FIXT
100
AcDbSpline
210
0.0
220
0.0
230
1.0
 70
     8
 71
     3
 72
     8
 73
     4
 74
     0
 42
0.000000001
 43
0.0000000001
 40
0.541854869577315
 40
0.541854869577315
 40
0.541854869577315
 40
0.541854869577315
 40
0.5714285714285714
 40
0.5714285714285714
 40
0.5714285714285714
 40
0.5714285714285714
 10
1137.188991790857
 20
1880.747089648074
 30
0.0
 10
1137.123955984218
 20
1880.670172967462
 30
0.0
 10
1137.060683456284
 20
1880.591685816417
 30
0.0
 10
1136.999233083647
 20
1880.511685800555
 30
0.0
  0
SPLINE
  5
3DC
330
2A0
100
AcDbEntity
  8
P-SANR-FIXT
100
AcDbSpline
210
0.0
220
0.0
230
1.0
 70
     8
 71
     3
 72
    11
 73
     7
 74
     0
 42
0.000000001
 43
0.0000000001
 40
0.6516423225632946
 40
0.6516423225632946
 40
0.6516423225632946
 40
0.6516423225632946
 40
0.6785714285714287
 40
0.7142857142857144
 40
0.75
 40
0.7618732692193426
 40
0.7618732692193426
 40
0.7618732692193426
 40
0.7618732692193426
 10
1136.541415040585
 20
1879.829841976548
 30
0.0
 10
1136.495043244071
 20
1879.750259148409
 30
0.0
 10
1136.390995523473
 20
1879.562656929704
 30
0.0
 10
1136.242358155484
 20
1879.259318983158
 30
0.0
 10
1136.129996563102
 20
1878.994706615218
 30
0.0
 10
1136.072798500555
 20
1878.840717532064
 30
0.0
 10
1136.058844070278
 20
1878.802153010851
 30
0.0
  0
SPLINE
  5
3DD
330
2A0
100
AcDbEntity
  8
P-SANR-FIXT
100
AcDbSpline
210
0.0
220
0.0
230
1.0
 70
     8
 71
     3
 72
     8
 73
     4
 74
     0
 42
0.000000001
 43
0.0000000001
 40
0.8571428571428571
 40
0.8571428571428571
 40
0.8571428571428571
 40
0.8571428571428571
 40
0.8712628130835712
 40
0.8712628130835712
 40
0.8712628130835712
 40
0.8712628130835712
 10
1135.790007596633
 20
1877.849501346861
 30
0.0
 10
1135.780370926683
 20
1877.80138540678
 30
0.0
 10
1135.772292146131
 20
1877.753039722221
 30
0.0
 10
1135.765474015729
 20
1877.704507369033
 30
0.0
  0
SPLINE
  5
3DE
330
2A0
100
AcDbEntity
  8
P-SANR-FIXT
100
AcDbSpline
210
0.0
220
0.0
230
1.0
 70
     8
 71
     3
 72
     8
 73
     4
 74
     0
 42
0.000000001
 43
0.0000000001
 40
0.978911007916961
 40
0.978911007916961
 40
0.978911007916961
 40
0.978911007916961
 40
1.0
 40
1.0
 40
1.0
 40
1.0
 10
1135.664365772822
 20
1876.584458472947
 30
0.0
 10
1135.66433758819
 20
1876.510715687897
 30
0.0
 10
1135.665575518229
 20
1876.436928365516
 30
0.0
 10
1135.668087252849
 20
1876.363137432193
 30
0.0
  0
SPLINE
  5
3DF
330
2A0
100
AcDbEntity
  8
P-SANR-FIXT
100
AcDbSpline
210
0.0
220
0.0
230
1.0
 70
     8
 71
     3
 72
     9
 73
     5
 74
     0
 42
0.000000001
 43
0.0000000001
 40
0.0911066962421161
 40
0.0911066962421161
 40
0.0911066962421161
 40
0.0911066962421161
 40
0.1428571428571428
 40
0.2050049905086992
 40
0.2050049905086992
 40
0.2050049905086992
 40
0.2050049905086992
 10
1135.763662278953
 20
1875.455366971777
 30
0.0
 10
1135.793792302258
 20
1875.285558494006
 30
0.0
 10
1135.874949471971
 20
1874.915111317675
 30
0.0
 10
1135.9880233508
 20
1874.554524453954
 30
0.0
 10
1136.058814248428
 20
1874.361529879617
 30
0.0
  0
SPLINE
  5
3E0
330
2A0
100
AcDbEntity
  8
P-SANR-FIXT
100
AcDbSpline
210
0.0
220
0.0
230
1.0
 70
     8
 71
     3
 72
     8
 73
     4
 74
     0
 42
0.000000001
 43
0.0000000001
 40
0.2857142857142857
 40
0.2857142857142857
 40
0.2857142857142857
 40
0.2857142857142857
 40
0.3190825481210965
 40
0.3190825481210965
 40
0.3190825481210965
 40
0.3190825481210965
 10
1136.379545735195
 20
1873.630529917383
 30
0.0
 10
1136.42978060715
 20
1873.532936661557
 30
0.0
 10
1136.482444376831
 20
1873.436755265196
 30
0.0
 10
1136.537440712444
 20
1873.342105311348
 30
0.0
  0
SPLINE
  5
3E1
330
2A0
100
AcDbEntity
  8
P-SANR-FIXT
100
AcDbSpline
210
0.0
220
0.0
230
1.0
 70
     8
 71
     3
 72
     8
 73
     4
 74
     0
 42
0.000000001
 43
0.0000000001
 40
0.4285714285714286
 40
0.4285714285714286
 40
0.4285714285714286
 40
0.4285714285714286
 40
0.4315765981406872
 40
0.4315765981406872
 40
0.4315765981406872
 40
0.4315765981406872
 10
1137.152248185528
 20
1872.461878511617
 30
0.0
 10
1137.158525263395
 20
1872.454319667821
 30
0.0
 10
1137.164819409068
 20
1872.446775437613
 30
0.0
 10
1137.171130530821
 20
1872.439245913623
 30
0.0
  0
SPLINE
  5
3E2
330
2A0
100
AcDbEntity
  8
P-SANR-FIXT
100
AcDbSpline
210
0.0
220
0.0
230
1.0
 70
     8
 71
     3
 72
     8
 73
     4
 74
     0
 42
0.000000001
 43
0.0000000001
 40
0.5447030871134496
 40
0.5447030871134496
 40
0.5447030871134496
 40
0.5447030871134496
 40
0.5714285714285714
 40
0.5714285714285714
 40
0.5714285714285714
 40
0.5714285714285714
 10
1137.952390004477
 20
1871.6550288203
 30
0.0
 10
1138.019144283086
 20
1871.598646057487
 30
0.0
 10
1138.087099574673
 20
1871.543581889311
 30
0.0
 10
1138.156189605264
 20
1871.489874383519
 30
0.0
  0
SPLINE
  5
3E3
330
2A0
100
AcDbEntity
  8
P-SANR-FIXT
100
AcDbSpline
210
0.0
220
0.0
230
1.0
 70
     8
 71
     3
 72
     9
 73
     5
 74
     0
 42
0.000000001
 43
0.0000000001
 40
0.6589627330501972
 40
0.6589627330501972
 40
0.6589627330501972
 40
0.6589627330501972
 40
0.7142857142857144
 40
0.7734749768389542
 40
0.7734749768389542
 40
0.7734749768389542
 40
0.7734749768389542
 10
1138.86936633803
 20
1871.008282130387
 30
0.0
 10
1139.026474282621
 20
1870.916822607836
 30
0.0
 10
1139.359964361259
 20
1870.739537525073
 30
0.0
 10
1139.710680975744
 20
1870.597170417578
 30
0.0
 10
1139.894586788181
 20
1870.528130355227
 30
0.0
  0
SPLINE
  5
3E4
330
2A0
100
AcDbEntity
  8
P-SANR-FIXT
100
AcDbSpline
210
0.0
220
0.0
230
1.0
 70
     8
 71
     3
 72
     8
 73
     4
 74
     0
 42
0.000000001
 43
0.0000000001
 40
0.8571428571428571
 40
0.8571428571428571
 40
0.8571428571428571
 40
0.8571428571428571
 40
0.8873728132666919
 40
0.8873728132666919
 40
0.8873728132666919
 40
0.8873728132666919
 10
1140.693698798273
 20
1870.290958182449
 30
0.0
 10
1140.791895041403
 20
1870.268791387483
 30
0.0
 10
1140.891139606312
 20
1870.252630176677
 30
0.0
 10
1140.991037257054
 20
1870.240138900291
 30
0.0
  0
ARC
  5
3E5
330
2A0
100
AcDbEntity
  8
P-SANR-FIXT
100
AcDbCircle
 10
1142.114353943096
 20
1876.582558849996
 30
0.0
 40
6.450000000029604
100
AcDbArc
 50
269.9999999999997
 51
90.0
  0
ARC
  5
3E6
330
2A0
100
AcDbEntity
  8
P-SANR-FIXT
100
AcDbCircle
 10
1142.114353943096
 20
1876.582558849996
 30
0.0
 40
6.450000000029604
100
AcDbArc
 50
90.0
 51
269.9999999999997
  0
LINE
  5
3E7
330
2A0
100
AcDbEntity
  8
P-SANR-FIXT
100
AcDbLine
 10
1142.114353943096
 20
1889.882558849995
 30
0.0
 11
1156.753775360899
 21
1889.882558849995
 31
0.0
  0
LINE
  5
3E8
330
2A0
100
AcDbEntity
  8
P-SANR-FIXT
100
AcDbLine
 10
1127.474932525293
 20
1889.882558849995
 30
0.0
 11
1142.114353943096
 21
1889.882558849995
 31
0.0
  0
LINE
  5
3E9
330
2A0
100
AcDbEntity
  8
P-SANR-FIXT
100
AcDbLine
 10
1148.502268604886
 20
1876.363137432193
 30
0.0
 11
1148.486413833744
 21
1876.363137432193
 31
0.0
  0
LINE
  5
3EA
330
2A0
100
AcDbEntity
  8
P-SANR-FIXT
100
AcDbLine
 10
1135.742294052447
 20
1876.363137432193
 30
0.0
 11
1135.726439281306
 21
1876.363137432193
 31
0.0
  0
LINE
  5
3EB
330
2A0
100
AcDbEntity
  8
P-SANR-FIXT
100
AcDbLine
 10
1148.560620633343
 20
1876.363137432193
 30
0.0
 11
1157.534353943096
 21
1876.363137432193
 31
0.0
  0
LINE
  5
3EC
330
2A0
100
AcDbEntity
  8
P-SANR-FIXT
100
AcDbLine
 10
1148.51000140773
 20
1876.363137432193
 30
0.0
 11
1148.494823561041
 21
1876.363137432193
 31
0.0
  0
LINE
  5
3ED
330
2A0
100
AcDbEntity
  8
P-SANR-FIXT
100
AcDbLine
 10
1135.733884325151
 20
1876.363137432193
 30
0.0
 11
1135.718706478462
 21
1876.363137432193
 31
0.0
  0
LINE
  5
3EE
330
2A0
100
AcDbEntity
  8
P-SANR-FIXT
100
AcDbLine
 10
1126.694353943095
 20
1876.363137432193
 30
0.0
 11
1135.668087252849
 21
1876.363137432193
 31
0.0
  0
LINE
  5
3EF
330
2A0
100
AcDbEntity
  8
P-SANR-FIXT
100
AcDbLine
 10
1142.114353943096
 20
1866.08255884998
 30
0.0
 11
1157.534353943096
 21
1866.08255884998
 31
0.0
  0
LINE
  5
3F0
330
2A0
100
AcDbEntity
  8
P-SANR-FIXT
100
AcDbLine
 10
1126.694353943095
 20
1866.08255884998
 30
0.0
 11
1142.114353943096
 21
1866.08255884998
 31
0.0
  0
LINE
  5
3F1
330
2A0
100
AcDbEntity
  8
P-SANR-FIXT
100
AcDbLine
 10
1142.114353943096
 20
1864.58255884998
 30
0.0
 11
1156.614353943095
 21
1864.58255884998
 31
0.0
  0
LINE
  5
3F2
330
2A0
100
AcDbEntity
  8
P-SANR-FIXT
100
AcDbLine
 10
1127.614353943097
 20
1864.58255884998
 30
0.0
 11
1142.114353943096
 21
1864.58255884998
 31
0.0
  0
LINE
  5
3F3
330
2A0
100
AcDbEntity
  8
P-SANR-FIXT
100
AcDbLine
 10
1142.114353943096
 20
1861.58255884998
 30
0.0
 11
1155.564353943097
 21
1861.58255884998
 31
0.0
  0
LINE
  5
3F4
330
2A0
100
AcDbEntity
  8
P-SANR-FIXT
100
AcDbLine
 10
1128.664353943095
 20
1861.58255884998
 30
0.0
 11
1142.114353943096
 21
1861.58255884998
 31
0.0
  0
LINE
  5
3F5
330
2A0
100
AcDbEntity
  8
P-SANR-FIXT
100
AcDbLine
 10
1142.114353943096
 20
1859.582558850008
 30
0.0
 11
1156.914353943083
 21
1859.582558850008
 31
0.0
  0
LINE
  5
3F6
330
2A0
100
AcDbEntity
  8
P-SANR-FIXT
100
AcDbLine
 10
1127.314353943108
 20
1859.582558850008
 30
0.0
 11
1142.114353943096
 21
1859.582558850008
 31
0.0
  0
LINE
  5
3F7
330
2A0
100
AcDbEntity
  8
P-SANR-FIXT
100
AcDbLine
 10
1142.114353943096
 20
1850.582558850008
 30
0.0
 11
1156.914353943083
 21
1850.582558850008
 31
0.0
  0
LINE
  5
3F8
330
2A0
100
AcDbEntity
  8
P-SANR-FIXT
100
AcDbLine
 10
1127.314353943108
 20
1850.582558850008
 30
0.0
 11
1142.114353943096
 21
1850.582558850008
 31
0.0
  0
LINE
  5
3F9
330
2A0
100
AcDbEntity
  8
P-SANR-FIXT
100
AcDbLine
 10
1142.114353943096
 20
1827.582558850011
 30
0.0
 11
1149.614353943096
 21
1827.582558850011
 31
0.0
  0
LINE
  5
3FA
330
2A0
100
AcDbEntity
  8
P-SANR-FIXT
100
AcDbLine
 10
1134.614353943095
 20
1827.582558850011
 30
0.0
 11
1142.114353943096
 21
1827.582558850011
 31
0.0
  0
LINE
  5
3FB
330
2A0
100
AcDbEntity
  8
P-SANR-FIXT
100
AcDbLine
 10
1184.114353943098
 20
2029.682558850071
 30
0.0
 11
1184.114353943098
 21
2050.082558850072
 31
0.0
  0
LINE
  5
3FC
330
2A0
100
AcDbEntity
  8
P-SANR-FIXT
100
AcDbLine
 10
1100.114353943098
 20
2050.082558850072
 30
0.0
 11
1100.114353943098
 21
2029.682558850071
 31
0.0
  0
LINE
  5
3FD
330
2A0
100
AcDbEntity
  8
P-SANR-FIXT
100
AcDbLine
 10
1184.114353943096
 20
2029.682558850071
 30
0.0
 11
1158.628736270122
 21
2029.682558850071
 31
0.0
  0
LINE
  5
3FE
330
2A0
100
AcDbEntity
  8
P-SANR-FIXT
100
AcDbLine
 10
1125.599971615982
 20
2029.682558850071
 30
0.0
 11
1100.114353943096
 21
2029.682558850071
 31
0.0
  0
LINE
  5
3FF
330
2A0
100
AcDbEntity
  8
P-SANR-FIXT
100
AcDbLine
 10
1158.129615796702
 20
2050.082558850071
 30
0.0
 11
1184.114353943096
 21
2050.082558850071
 31
0.0
  0
LINE
  5
400
330
2A0
100
AcDbEntity
  8
P-SANR-FIXT
100
AcDbLine
 10
1100.114353943096
 20
2050.082558850071
 30
0.0
 11
1126.099092089489
 21
2050.082558850071
 31
0.0
  0
LINE
  5
401
330
2A0
100
AcDbEntity
  8
P-SANR-FIXT
100
AcDbLine
 10
1164.315414978117
 20
1907.667296437151
 30
0.0
 11
1168.680379567773
 21
1915.248550724447
 31
0.0
  0
LINE
  5
402
330
2A0
100
AcDbEntity
  8
P-SANR-FIXT
100
AcDbLine
 10
1115.548328318422
 20
1915.248550724447
 30
0.0
 11
1119.913292908078
 21
1907.667296437151
 31
0.0
  0
LINE
  5
403
330
2A0
100
AcDbEntity
  8
P-SANR-FIXT
100
AcDbLine
 10
1176.614353943098
 20
2028.364153004243
 30
0.0
 11
1178.897899853068
 21
2029.682558850071
 31
0.0
  0
LINE
  5
404
330
2A0
100
AcDbEntity
  8
P-SANR-FIXT
100
AcDbLine
 10
1105.330808033127
 20
2029.682558850071
 30
0.0
 11
1107.614353943098
 21
2028.364153004243
 31
0.0
  0
LINE
  5
405
330
2A0
100
AcDbEntity
  8
P-SANR-FIXT
100
AcDbLine
 10
1176.614353943098
 20
1964.982558850012
 30
0.0
 11
1176.614353943098
 21
2028.364153004243
 31
0.0
  0
LINE
  5
406
330
2A0
100
AcDbEntity
  8
P-SANR-FIXT
100
AcDbLine
 10
1107.614353943098
 20
2028.364153004243
 30
0.0
 11
1107.614353943098
 21
1964.982558850012
 31
0.0
  0
LWPOLYLINE
  5
407
330
2A0
100
AcDbEntity
  8
P-SANR-FIXT
100
AcDbPolyline
 90
       41
 70
   128
 43
0.0
 10
1176.614353943098
 20
1964.982558850012
 10
1176.611154369741
 20
1964.822601513265
 10
1176.601560768308
 20
1964.662900074135
 10
1176.585588486513
 20
1964.503710020856
 10
1176.5632630766
 20
1964.345286023554
 10
1176.534620254463
 20
1964.187881526831
 10
1176.499705842506
 20
1964.031748344303
 10
1176.458575696341
 20
1963.877136255755
 10
1176.411295615428
 20
1963.724292607547
 10
1176.35794123781
 20
1963.573461916911
 10
1176.298597919109
 20
1963.424885480777
 10
1176.233360595978
 20
1963.278800989748
 10
1176.162333634215
 20
1963.135442147845
 10
1176.085630661808
 20
1962.995038298636
 10
1176.003374387151
 20
1962.857814058328
 10
1175.915696402736
 20
1962.723988956432
 10
1175.822736974635
 20
1962.593777084562
 10
1175.724644818101
 20
1962.467386753937
 10
1175.621576859661
 20
1962.345020162126
 10
1175.513697986061
 20
1962.226873069569
 10
1175.401180780486
 20
1962.113134486413
 10
1175.284205246463
 20
1962.003986370128
 10
1175.162958519892
 20
1961.899603334416
 10
1175.037634569672
 20
1961.800152369866
 10
1174.908433887387
 20
1961.705792576807
 10
1174.77556316657
 20
1961.61667491078
 10
1174.639234972029
 20
1961.532941941038
 10
1174.499667399793
 20
1961.454727622471
 10
1174.357083728205
 20
1961.382157081305
 10
1174.211712060723
 20
1961.315346414924
 10
1174.063784961004
 20
1961.254402506143
 10
1173.913539080853
 20
1961.199422852213
 10
1173.761214781626
 20
1961.150495408854
 10
1173.607055749707
 20
1961.107698449538
 10
1173.451308606663
 20
1961.07110044027
 10
1173.294222514698
 20
1961.040759930057
 10
1173.13604877805
 20
1961.016725457245
 10
1172.977040440955
 20
1960.999035471861
 10
1172.817451882832
 20
1960.987718274109
 10
1172.657538411331
 20
1960.982791969092
 10
1172.614353943097
 20
1960.982558850011
  0
LWPOLYLINE
  5
408
330
2A0
100
AcDbEntity
  8
P-SANR-FIXT
100
AcDbPolyline
 90
       30
 70
   128
 43
0.0
 10
1156.114353943054
 20
1960.982558850011
 10
1156.198618797113
 20
1960.982558850011
 10
1157.269198147331
 20
1960.982558850011
 10
1158.315532979684
 20
1960.982558850011
 10
1159.335949381646
 20
1960.982558850011
 10
1160.328814904651
 20
1960.982558850011
 10
1161.292541175661
 20
1960.982558850011
 10
1162.225586438228
 20
1960.982558850011
 10
1163.126458018969
 20
1960.982558850011
 10
1163.993714715533
 20
1960.982558850011
 10
1164.825969102209
 20
1960.982558850011
 10
1165.621889749516
 20
1960.982558850011
 10
1166.380203354207
 20
1960.982558850011
 10
1167.099696776278
 20
1960.982558850011
 10
1167.779218979738
 20
1960.982558850011
 10
1168.41768287402
 20
1960.982558850011
 10
1169.014067053089
 20
1960.982558850011
 10
1169.567417429481
 20
1960.982558850011
 10
1170.076848760637
 20
1960.982558850011
 10
1170.541546065098
 20
1960.982558850011
 10
1170.960765926309
 20
1960.982558850011
 10
1171.333837681919
 20
1960.982558850011
 10
1171.660164496705
 20
1960.982558850011
 10
1171.939224317375
 20
1960.982558850011
 10
1172.170570707746
 20
1960.982558850011
 10
1172.353833562944
 20
1960.982558850011
 10
1172.488719701496
 20
1960.982558850011
 10
1172.575013334353
 20
1960.982558850011
 10
1172.612576410112
 20
1960.982558850011
 10
1172.614353943097
 20
1960.982558850011
  0
LWPOLYLINE
  5
409
330
2A0
100
AcDbEntity
  8
P-SANR-FIXT
100
AcDbPolyline
 90
       11
 70
   128
 43
0.0
 10
1172.614353943097
 20
1960.982558850011
 10
1172.589957196257
 20
1960.982558850011
 10
1172.516805985327
 20
1960.982558850011
 10
1172.39501733664
 20
1960.982558850011
 10
1172.224786086054
 20
1960.982558850011
 10
1172.006384567255
 20
1960.982558850011
 10
1171.740162176085
 20
1960.982558850011
 10
1171.426544811576
 20
1960.982558850011
 10
1171.066034194612
 20
1960.982558850011
 10
1170.659207065275
 20
1960.982558850011
 10
1170.614353943098
 20
1960.982558850011
  0
LWPOLYLINE
  5
40A
330
2A0
100
AcDbEntity
  8
P-SANR-FIXT
100
AcDbPolyline
 90
       41
 70
   128
 43
0.0
 10
1111.614353943098
 20
1960.982558850011
 10
1111.454396606351
 20
1960.985758423367
 10
1111.294695167221
 20
1960.995352024801
 10
1111.135505113942
 20
1961.011324306596
 10
1110.977081116641
 20
1961.033649716509
 10
1110.819676619917
 20
1961.062292538647
 10
1110.663543437389
 20
1961.097206950603
 10
1110.508931348841
 20
1961.138337096769
 10
1110.356087700633
 20
1961.185617177681
 10
1110.205257009997
 20
1961.2389715553
 10
1110.056680573863
 20
1961.298314874
 10
1109.910596082834
 20
1961.363552197132
 10
1109.767237240932
 20
1961.434579158894
 10
1109.626833391723
 20
1961.511282131301
 10
1109.489609151414
 20
1961.593538405958
 10
1109.355784049517
 20
1961.681216390373
 10
1109.225572177648
 20
1961.774175818474
 10
1109.099181847024
 20
1961.872267975008
 10
1108.976815255212
 20
1961.975335933448
 10
1108.858668162655
 20
1962.083214807048
 10
1108.744929579499
 20
1962.195732012623
 10
1108.635781463214
 20
1962.312707546646
 10
1108.531398427502
 20
1962.433954273217
 10
1108.431947462952
 20
1962.559278223437
 10
1108.337587669893
 20
1962.688478905722
 10
1108.248470003866
 20
1962.821349626539
 10
1108.164737034124
 20
1962.95767782108
 10
1108.086522715558
 20
1963.097245393317
 10
1108.013952174392
 20
1963.239829064905
 10
1107.947141508011
 20
1963.385200732386
 10
1107.886197599229
 20
1963.533127832105
 10
1107.8312179453
 20
1963.683373712256
 10
1107.782290501941
 20
1963.835698011483
 10
1107.739493542625
 20
1963.989857043402
 10
1107.702895533356
 20
1964.145604186446
 10
1107.672555023144
 20
1964.302690278411
 10
1107.648520550331
 20
1964.460864015059
 10
1107.630830564947
 20
1964.619872352155
 10
1107.619513367195
 20
1964.779460910277
 10
1107.614587062178
 20
1964.939374381778
 10
1107.614353943098
 20
1964.982558850012
  0
LWPOLYLINE
  5
40B
330
2A0
100
AcDbEntity
  8
P-SANR-FIXT
100
AcDbPolyline
 90
       11
 70
   128
 43
0.0
 10
1113.614353943098
 20
1960.982558850011
 10
1113.267941959887
 20
1960.982558850011
 10
1112.894870204276
 20
1960.982558850011
 10
1112.568543389491
 20
1960.982558850011
 10
1112.28948356882
 20
1960.982558850011
 10
1112.058137178449
 20
1960.982558850011
 10
1111.874874323251
 20
1960.982558850011
 10
1111.7399881847
 20
1960.982558850011
 10
1111.653694551842
 20
1960.982558850011
 10
1111.616131476084
 20
1960.982558850011
 10
1111.614353943098
 20
1960.982558850011
  0
LWPOLYLINE
  5
40C
330
2A0
100
AcDbEntity
  8
P-SANR-FIXT
100
AcDbPolyline
 90
       29
 70
   128
 43
0.0
 10
1111.614353943098
 20
1960.982558850011
 10
1111.638750689938
 20
1960.982558850011
 10
1111.711901900868
 20
1960.982558850011
 10
1111.833690549555
 20
1960.982558850011
 10
1112.003921800141
 20
1960.982558850011
 10
1112.22232331894
 20
1960.982558850011
 10
1112.488545710111
 20
1960.982558850011
 10
1112.802163074619
 20
1960.982558850011
 10
1113.162673691583
 20
1960.982558850011
 10
1113.569500820921
 20
1960.982558850011
 10
1114.02199362601
 20
1960.982558850011
 10
1114.519428214889
 20
1960.982558850011
 10
1115.061008798329
 20
1960.982558850011
 10
1115.645868962929
 20
1960.982558850011
 10
1116.273073057189
 20
1960.982558850011
 10
1116.941617688352
 20
1960.982558850011
 10
1117.650433327627
 20
1960.982558850011
 10
1118.398386021194
 20
1960.982558850011
 10
1119.1842792043
 20
1960.982558850011
 10
1120.0068556155
 20
1960.982558850011
 10
1120.864799308009
 20
1960.982558850011
 10
1121.756737754938
 20
1960.982558850011
 10
1122.681244045041
 20
1960.982558850011
 10
1123.636839165472
 20
1960.982558850011
 10
1124.621994367888
 20
1960.982558850011
 10
1125.635133614119
 20
1960.982558850011
 10
1126.674636097498
 20
1960.982558850011
 10
1127.738838835798
 20
1960.982558850011
 10
1128.114353943054
 20
1960.982558850011
  0
LWPOLYLINE
  5
40D
330
2A0
100
AcDbEntity
  8
P-SANR-FIXT
100
AcDbPolyline
 90
       15
 70
   128
 43
0.0
 10
1170.614353943097
 20
1922.483535175018
 10
1170.602755489682
 20
1921.903689829312
 10
1170.567978684486
 20
1921.324772112465
 10
1170.510079162979
 20
1920.747708169329
 10
1170.429149552044
 20
1920.173421179112
 10
1170.325319321796
 20
1919.60282987849
 10
1170.198754578452
 20
1919.036847091825
 10
1170.049657798604
 20
1918.476378270839
 10
1169.878267505293
 20
1917.922320046085
 10
1169.684857886428
 20
1917.37555879253
 10
1169.46973835614
 20
1916.836969211543
 10
1169.233253059787
 20
1916.307412931562
 10
1168.975780323397
 20
1915.787737129667
 10
1168.697732048423
 20
1915.278773176284
 10
1168.680379567773
 20
1915.248550724448
  0
LWPOLYLINE
  5
40E
330
2A0
100
AcDbEntity
  8
P-SANR-FIXT
100
AcDbPolyline
 90
       15
 70
   128
 43
0.0
 10
1115.548328318422
 20
1915.248550724448
 10
1115.269057587588
 20
1915.756844938421
 10
1115.01033659074
 20
1916.275900421821
 10
1114.77257922628
 20
1916.804886796603
 10
1114.556165855274
 20
1917.342957797409
 10
1114.361442692949
 20
1917.889252625421
 10
1114.188721254826
 20
1918.442897325451
 10
1114.038277858362
 20
1919.003006184084
 10
1113.910353180897
 20
1919.568683146629
 10
1113.805151874627
 20
1920.139023250618
 10
1113.722842239198
 20
1920.71311407355
 10
1113.663555952471
 20
1921.290037192574
 10
1113.627387859856
 20
1921.868869653771
 10
1113.614395822587
 20
1922.44868544868
 10
1113.614353943098
 20
1922.483535175018
  0
LWPOLYLINE
  5
40F
330
2A0
100
AcDbEntity
  8
P-SANR-FIXT
100
AcDbPolyline
 90
       15
 70
   128
 43
0.0
 10
1164.315414978118
 20
1907.667296437151
 10
1163.853173768462
 20
1906.825981876093
 10
1163.424945911608
 20
1905.96685555874
 10
1163.031416480779
 20
1905.09129190393
 10
1162.673215039114
 20
1904.200691626733
 10
1162.350914632507
 20
1903.296479497609
 10
1162.065030872856
 20
1902.380102063077
 10
1161.81602111319
 20
1901.453025331546
 10
1161.604283716007
 20
1900.516732428023
 10
1161.430157415973
 20
1899.572721221422
 10
1161.293920778023
 20
1898.622501928293
 10
1161.195791751715
 20
1897.667594696805
 10
1161.13592732256
 20
1896.709527174823
 10
1161.114423260872
 20
1895.749832066007
 10
1161.114353943098
 20
1895.692149760345
  0
LWPOLYLINE
  5
410
330
2A0
100
AcDbEntity
  8
P-SANR-FIXT
100
AcDbPolyline
 90
       15
 70
   128
 43
0.0
 10
1123.114353943098
 20
1895.692149760345
 10
1123.095156502961
 20
1896.651893780824
 10
1123.03759489436
 20
1897.610102415605
 10
1122.94176120359
 20
1898.565242735279
 10
1122.807808744112
 20
1899.515786719086
 10
1122.635951811288
 20
1900.460213699426
 10
1122.426465339547
 20
1901.397012794596
 10
1122.179684462556
 20
1902.324685325883
 10
1121.896003977076
 20
1903.241747215131
 10
1121.575877711368
 20
1904.146731358947
 10
1121.219817799167
 20
1905.038189975752
 10
1120.828393860377
 20
1905.914696921929
 10
1120.402232089801
 20
1906.77484997334
 10
1119.942014255361
 20
1907.617273068595
 10
1119.913292908077
 20
1907.667296437151
  0
LINE
  5
411
330
2A0
100
AcDbEntity
  8
P-SANR-FIXT
100
AcDbLine
 10
1161.114353943098
 20
1892.182558850011
 30
0.0
 11
1161.114353943098
 21
1895.692149760344
 31
0.0
  0
LINE
  5
412
330
2A0
100
AcDbEntity
  8
P-SANR-FIXT
100
AcDbLine
 10
1123.114353943098
 20
1895.692149760344
 30
0.0
 11
1123.114353943098
 21
1892.182558850011
 31
0.0
  0
LINE
  5
413
330
2A0
100
AcDbEntity
  8
P-SANR-FIXT
100
AcDbLine
 10
1160.614353943097
 20
1891.682558850011
 30
0.0
 11
1161.114353943098
 21
1892.182558850011
 31
0.0
  0
LINE
  5
414
330
2A0
100
AcDbEntity
  8
P-SANR-FIXT
100
AcDbLine
 10
1123.114353943098
 20
1892.182558850011
 30
0.0
 11
1123.614353943098
 21
1891.682558850011
 31
0.0
  0
LINE
  5
415
330
2A0
100
AcDbEntity
  8
P-SANR-FIXT
100
AcDbLine
 10
1170.614353943098
 20
1922.483535175018
 30
0.0
 11
1170.614353943098
 21
1960.982558850011
 31
0.0
  0
LINE
  5
416
330
2A0
100
AcDbEntity
  8
P-SANR-FIXT
100
AcDbLine
 10
1113.614353943098
 20
1960.982558850011
 30
0.0
 11
1113.614353943098
 21
1922.483535175018
 31
0.0
  0
LINE
  5
417
330
2A0
100
AcDbEntity
  8
P-SANR-FIXT
100
AcDbLine
 10
1158.626755163071
 20
2028.364153004242
 30
0.0
 11
1176.614353943096
 21
2028.364153004242
 31
0.0
  0
LINE
  5
418
330
2A0
100
AcDbEntity
  8
P-SANR-FIXT
100
AcDbLine
 10
1107.614353943096
 20
2028.364153004242
 30
0.0
 11
1125.601952723034
 21
2028.364153004242
 31
0.0
  0
LINE
  5
419
330
2A0
100
AcDbEntity
  8
P-SANR-FIXT
100
AcDbLine
 10
1142.114353943096
 20
1892.182558850011
 30
0.0
 11
1161.114353943096
 21
1892.182558850011
 31
0.0
  0
LINE
  5
41A
330
2A0
100
AcDbEntity
  8
P-SANR-FIXT
100
AcDbLine
 10
1123.114353943096
 20
1892.182558850011
 30
0.0
 11
1142.114353943096
 21
1892.182558850011
 31
0.0
  0
LINE
  5
41B
330
2A0
100
AcDbEntity
  8
P-SANR-FIXT
100
AcDbLine
 10
1160.614353943096
 20
1891.682558850011
 30
0.0
 11
1142.114353943096
 21
1891.682558850011
 31
0.0
  0
LINE
  5
41C
330
2A0
100
AcDbEntity
  8
P-SANR-FIXT
100
AcDbLine
 10
1142.114353943096
 20
1891.682558850011
 30
0.0
 11
1123.614353943096
 21
1891.682558850011
 31
0.0
  0
ENDBLK
  5
41E
330
2A0
100
AcDbEntity
  8
0
100
AcDbBlockEnd
  0
ENDSEC
  0
SECTION
  2
ENTITIES
  0
INSERT
  5
1EB
330
71
100
AcDbEntity
  8
P-SANR-FIXT
100
AcDbBlockReference
  2
Automatic flow rate regulator valve_Caleffi_121 DN15 - 1_2__-859151-Est - Idraulica
 10
0.0
 20
0.0
 30
0.0
1001
REVIT
1002
{
1070
     1
1000
863131
1002
}
1002
{
1070
     5
1000
859151
1002
}
1002
{
1070
     2
1000
-2001160
1002
}
  0
INSERT
  5
29F
330
71
100
AcDbEntity
  8
P-SANR-FIXT
100
AcDbBlockReference
  2
Automatic flow rate regulator valve_Caleffi_121 DN15 - 1_2__-V1-Est - Idraulica
 10
0.0
 20
0.0
 30
0.0
1001
REVIT
1002
{
1070
     1
1000
863152
1002
}
1002
{
1070
     5
1000
859151
1002
}
1002
{
1070
     2
1000
-2001160
1002
}
  0
INSERT
  5
41F
330
71
100
AcDbEntity
  8
P-SANR-FIXT
100
AcDbBlockReference
  2
Automatic flow rate regulator valve_Caleffi_121 DN15 - 1_2__-V2-Est - Idraulica
 10
0.0
 20
0.0
 30
0.0
1001
REVIT
1002
{
1070
     1
1000
863172
1002
}
1002
{
1070
     5
1000
859151
1002
}
1002
{
1070
     2
1000
-2001160
1002
}
  0
ENDSEC
  0
SECTION
  2
OBJECTS
  0
DICTIONARY
  5
C
330
0
100
AcDbDictionary
281
     1
  3
ACAD_CIP_PREVIOUS_PRODUCT_INFO
350
7A
  3
ACAD_COLOR
350
63
  3
ACAD_DETAILVIEWSTYLE
350
6B
  3
ACAD_GROUP
350
D
  3
ACAD_IMAGE_VARS
350
7B
  3
ACAD_LAYOUT
350
62
  3
ACAD_MATERIAL
350
10
  3
ACAD_MLEADERSTYLE
350
66
  3
ACAD_MLINESTYLE
350
5F
  3
ACAD_PLOTSETTINGS
350
61
  3
ACAD_PLOTSTYLENAME
350
E
  3
ACAD_SCALELIST
350
42
  3
ACAD_SECTIONVIEWSTYLE
350
68
  3
ACAD_TABLESTYLE
350
64
  3
ACAD_VISUALSTYLE
350
29
  3
ACDB_RECOMPOSE_DATA
350
42A
  3
AcDbVariableDictionary
350
7C
  3
REVIT_DICTIONARY
350
421
  0
DICTIONARY
  5
426
330
71
100
AcDbDictionary
280
     1
281
     1
  3
ACAD_SORTENTS
360
427
  0
XRECORD
  5
7A
102
{ACAD_REACTORS
330
C
102
}
330
C
100
AcDbXrecord
280
     1
300
RVT
300
2013
300
RVT2013
  0
DICTIONARY
  5
63
102
{ACAD_REACTORS
330
C
102
}
330
C
100
AcDbDictionary
281
     1
  0
DICTIONARY
  5
6B
102
{ACAD_REACTORS
330
C
102
}
330
C
100
AcDbDictionary
281
     1
  3
Imperial24
350
6C
  0
DICTIONARY
  5
D
102
{ACAD_REACTORS
330
C
102
}
330
C
100
AcDbDictionary
281
     1
  0
RASTERVARIABLES
  5
7B
102
{ACAD_REACTORS
330
C
102
}
330
C
100
AcDbRasterVariables
 90
        0
 70
     0
 71
     1
 72
     1
  0
DICTIONARY
  5
62
102
{ACAD_REACTORS
330
C
102
}
330
C
100
AcDbDictionary
281
     1
  3
Layout1
350
70
  3
Layout2
350
78
  3
Model
350
74
  0
DICTIONARY
  5
10
102
{ACAD_REACTORS
330
C
102
}
330
C
100
AcDbDictionary
281
     1
  3
ByBlock
350
19
  3
ByLayer
350
11
  3
Global
350
21
  0
DICTIONARY
  5
66
102
{ACAD_REACTORS
330
C
102
}
330
C
100
AcDbDictionary
281
     1
  3
Standard
350
67
  0
DICTIONARY
  5
5F
102
{ACAD_REACTORS
330
C
102
}
330
C
100
AcDbDictionary
281
     1
  3
Standard
350
60
  0
DICTIONARY
  5
61
102
{ACAD_REACTORS
330
C
102
}
330
C
100
AcDbDictionary
281
     1
  0
ACDBDICTIONARYWDFLT
  5
E
102
{ACAD_REACTORS
330
C
102
}
330
C
100
AcDbDictionary
281
     1
  3
Normal
350
F
100
AcDbDictionaryWithDefault
340
F
  0
DICTIONARY
  5
42
102
{ACAD_REACTORS
330
C
102
}
330
C
100
AcDbDictionary
281
     1
  3
A0
350
43
  3
A1
350
44
  3
A2
350
45
  3
A3
350
46
  3
A4
350
47
  3
A5
350
48
  3
A6
350
49
  3
A7
350
4A
  3
A8
350
4B
  3
A9
350
4C
  3
B0
350
4D
  3
B1
350
4E
  3
B2
350
4F
  3
B3
350
50
  3
B4
350
51
  3
B5
350
52
  3
B6
350
53
  0
DICTIONARY
  5
68
102
{ACAD_REACTORS
330
C
102
}
330
C
100
AcDbDictionary
281
     1
  3
Imperial24
350
6A
  0
DICTIONARY
  5
64
102
{ACAD_REACTORS
330
C
102
}
330
C
100
AcDbDictionary
281
     1
  3
Standard
350
65
  0
DICTIONARY
  5
29
102
{ACAD_REACTORS
330
C
102
}
330
C
100
AcDbDictionary
281
     1
  3
2dWireframe
350
2F
  3
Basic
350
2E
  3
Brighten
350
35
  3
ColorChange
350
39
  3
Conceptual
350
32
  3
Dim
350
34
  3
EdgeColorOff
350
41
  3
Facepattern
350
38
  3
Flat
350
2A
  3
FlatWithEdges
350
2B
  3
Gouraud
350
2C
  3
GouraudWithEdges
350
2D
  3
Hidden
350
31
  3
JitterOff
350
3F
  3
Linepattern
350
37
  3
OverhangOff
350
40
  3
Realistic
350
33
  3
Shaded
350
3E
  3
Shaded with edges
350
3D
  3
Shades of Gray
350
3A
  3
Sketchy
350
3B
  3
Thicken
350
36
  3
Wireframe
350
30
  3
X-Ray
350
3C
  0
XRECORD
  5
42A
102
{ACAD_REACTORS
330
C
102
}
330
C
100
AcDbXrecord
280
     1
 90
        1
330
65
  0
DICTIONARY
  5
7C
102
{ACAD_REACTORS
330
C
102
}
330
C
100
AcDbDictionary
281
     1
  3
CANNOSCALE
350
81
  3
CMLEADERSTYLE
350
7E
  3
CTABLESTYLE
350
7D
  3
CVIEWDETAILSTYLE
350
7F
  3
CVIEWSECTIONSTYLE
350
80
  0
DICTIONARY
  5
421
102
{ACAD_REACTORS
330
C
102
}
330
C
100
AcDbDictionary
281
     1
  3
DRAWING_TOOL
350
425
  3
REVIT_CATEGORY_MAPPING
350
423
  3
REVIT_SUB_CATEGORY_MAPPING
350
424
  3
REVIT_TYPE_MAPPING
350
422
  0
SORTENTSTABLE
  5
427
102
{ACAD_REACTORS
330
426
102
}
330
426
100
AcDbSortentsTable
330
71
  0
ACDBDETAILVIEWSTYLE
  5
6C
102
{ACAD_REACTORS
330
6B
102
}
330
6B
100
AcDbModelDocViewStyle
 70
     0
  3
Imperial24
290
     1
100
AcDbDetailViewStyle
 70
     0
 71
     0
 90
        3
 71
     1
340
55
 62
   256
 40
0.24
340
0
 62
   256
 40
0.24
300

 40
0.36
280
     3
 71
     2
340
5D
 90
       25
 62
   256
 71
     3
340
55
 62
   256
 40
0.24
 90
        1
 40
0.75
 90
        1
300
%<\AcVar ViewType \f "%tc1">% %<\AcVar ViewDetailId>%\PSCALA %<\AcVar ViewScale \f "%sn">%
 71
     4
340
5D
 90
       25
 62
   256
340
5D
 90
       25
 62
   256
280
     0
  0
LAYOUT
  5
70
102
{ACAD_REACTORS
330
62
102
}
330
62
100
AcDbPlotSettings
  1

  2

  4

  6

 40
0.0
 41
0.0
 42
0.0
 43
0.0
 44
0.0
 45
0.0
 46
0.0
 47
0.0
 48
0.0
 49
0.0
140
0.0
141
0.0
142
1.0
143
1.0
 70
   688
 72
     0
 73
     0
 74
     5
  7

 75
    16
147
1.0
 76
     0
 77
     2
 78
   300
148
0.0
149
0.0
100
AcDbLayout
  1
Layout1
 70
     1
 71
     1
 10
0.0
 20
0.0
 11
12.0
 21
9.0
 12
0.0
 22
0.0
 32
0.0
 14
0.0
 24
0.0
 34
0.0
 15
0.0
 25
0.0
 35
0.0
146
0.0
 13
0.0
 23
0.0
 33
0.0
 16
1.0
 26
0.0
 36
0.0
 17
0.0
 27
1.0
 37
0.0
 76
     0
330
6D
  0
LAYOUT
  5
78
102
{ACAD_REACTORS
330
62
102
}
330
62
100
AcDbPlotSettings
  1

  2

  4

  6

 40
0.0
 41
0.0
 42
0.0
 43
0.0
 44
0.0
 45
0.0
 46
0.0
 47
0.0
 48
0.0
 49
0.0
140
0.0
141
0.0
142
1.0
143
1.0
 70
   688
 72
     0
 73
     0
 74
     5
  7

 75
    16
147
1.0
 76
     0
 77
     2
 78
   300
148
0.0
149
0.0
100
AcDbLayout
  1
Layout2
 70
     1
 71
     2
 10
0.0
 20
0.0
 11
12.0
 21
9.0
 12
0.0
 22
0.0
 32
0.0
 14
0.0
 24
0.0
 34
0.0
 15
0.0
 25
0.0
 35
0.0
146
0.0
 13
0.0
 23
0.0
 33
0.0
 16
1.0
 26
0.0
 36
0.0
 17
0.0
 27
1.0
 37
0.0
 76
     0
330
75
  0
LAYOUT
  5
74
102
{ACAD_REACTORS
330
62
102
}
330
62
100
AcDbPlotSettings
  1

  2

  4

  6

 40
0.0
 41
0.0
 42
0.0
 43
0.0
 44
0.0
 45
0.0
 46
0.0
 47
0.0
 48
0.0
 49
0.0
140
0.0
141
0.0
142
1.0
143
1.0
 70
  1712
 72
     0
 73
     0
 74
     0
  7

 75
     0
147
1.0
 76
     0
 77
     2
 78
   300
148
0.0
149
0.0
100
AcDbLayout
  1
Model
 70
     1
 71
     0
 10
0.0
 20
0.0
 11
12.0
 21
9.0
 12
0.0
 22
0.0
 32
0.0
 14
0.0
 24
0.0
 34
0.0
 15
0.0
 25
0.0
 35
0.0
146
0.0
 13
0.0
 23
0.0
 33
0.0
 16
1.0
 26
0.0
 36
0.0
 17
0.0
 27
1.0
 37
0.0
 76
     0
330
71
  0
MATERIAL
  5
19
102
{ACAD_XDICTIONARY
360
1A
102
}
102
{ACAD_REACTORS
330
10
102
}
330
10
100
AcDbMaterial
  1
ByBlock
 72
     0
 43
0.0208333333333333
 43
0.0
 43
0.0
 43
0.0
 43
0.0
 43
0.0208333333333333
 43
0.0
 43
0.0
 43
0.0
 43
0.0
 43
1.0
 43
0.0
 43
0.0
 43
0.0
 43
0.0
 43
1.0
 77
     0
 47
0.0208333333333333
 47
0.0
 47
0.0
 47
0.0
 47
0.0
 47
0.0208333333333333
 47
0.0
 47
0.0
 47
0.0
 47
0.0
 47
1.0
 47
0.0
 47
0.0
 47
0.0
 47
0.0
 47
1.0
171
     0
 49
0.0208333333333333
 49
0.0
 49
0.0
 49
0.0
 49
0.0
 49
0.0208333333333333
 49
0.0
 49
0.0
 49
0.0
 49
0.0
 49
1.0
 49
0.0
 49
0.0
 49
0.0
 49
0.0
 49
1.0
175
     0
142
0.0208333333333333
142
0.0
142
0.0
142
0.0
142
0.0
142
0.0208333333333333
142
0.0
142
0.0
142
0.0
142
0.0
142
1.0
142
0.0
142
0.0
142
0.0
142
0.0
142
1.0
179
     0
144
0.0208333333333333
144
0.0
144
0.0
144
0.0
144
0.0
144
0.0208333333333333
144
0.0
144
0.0
144
0.0
144
0.0
144
1.0
144
0.0
144
0.0
144
0.0
144
0.0
144
1.0
147
0.0208333333333333
147
0.0
147
0.0
147
0.0
147
0.0
147
0.0208333333333333
147
0.0
147
0.0
147
0.0
147
0.0
147
1.0
147
0.0
147
0.0
147
0.0
147
0.0
147
1.0
  0
MATERIAL
  5
11
102
{ACAD_XDICTIONARY
360
12
102
}
102
{ACAD_REACTORS
330
10
102
}
330
10
100
AcDbMaterial
  1
ByLayer
 72
     0
 43
0.0208333333333333
 43
0.0
 43
0.0
 43
0.0
 43
0.0
 43
0.0208333333333333
 43
0.0
 43
0.0
 43
0.0
 43
0.0
 43
1.0
 43
0.0
 43
0.0
 43
0.0
 43
0.0
 43
1.0
 77
     0
 47
0.0208333333333333
 47
0.0
 47
0.0
 47
0.0
 47
0.0
 47
0.0208333333333333
 47
0.0
 47
0.0
 47
0.0
 47
0.0
 47
1.0
 47
0.0
 47
0.0
 47
0.0
 47
0.0
 47
1.0
171
     0
 49
0.0208333333333333
 49
0.0
 49
0.0
 49
0.0
 49
0.0
 49
0.0208333333333333
 49
0.0
 49
0.0
 49
0.0
 49
0.0
 49
1.0
 49
0.0
 49
0.0
 49
0.0
 49
0.0
 49
1.0
175
     0
142
0.0208333333333333
142
0.0
142
0.0
142
0.0
142
0.0
142
0.0208333333333333
142
0.0
142
0.0
142
0.0
142
0.0
142
1.0
142
0.0
142
0.0
142
0.0
142
0.0
142
1.0
179
     0
144
0.0208333333333333
144
0.0
144
0.0
144
0.0
144
0.0
144
0.0208333333333333
144
0.0
144
0.0
144
0.0
144
0.0
144
1.0
144
0.0
144
0.0
144
0.0
144
0.0
144
1.0
147
0.0208333333333333
147
0.0
147
0.0
147
0.0
147
0.0
147
0.0208333333333333
147
0.0
147
0.0
147
0.0
147
0.0
147
1.0
147
0.0
147
0.0
147
0.0
147
0.0
147
1.0
  0
MATERIAL
  5
21
102
{ACAD_XDICTIONARY
360
22
102
}
102
{ACAD_REACTORS
330
10
102
}
330
10
100
AcDbMaterial
  1
Global
 72
     0
 43
0.0208333333333333
 43
0.0
 43
0.0
 43
0.0
 43
0.0
 43
0.0208333333333333
 43
0.0
 43
0.0
 43
0.0
 43
0.0
 43
1.0
 43
0.0
 43
0.0
 43
0.0
 43
0.0
 43
1.0
 77
     0
 47
0.0208333333333333
 47
0.0
 47
0.0
 47
0.0
 47
0.0
 47
0.0208333333333333
 47
0.0
 47
0.0
 47
0.0
 47
0.0
 47
1.0
 47
0.0
 47
0.0
 47
0.0
 47
0.0
 47
1.0
171
     0
 49
0.0208333333333333
 49
0.0
 49
0.0
 49
0.0
 49
0.0
 49
0.0208333333333333
 49
0.0
 49
0.0
 49
0.0
 49
0.0
 49
1.0
 49
0.0
 49
0.0
 49
0.0
 49
0.0
 49
1.0
175
     0
142
0.0208333333333333
142
0.0
142
0.0
142
0.0
142
0.0
142
0.0208333333333333
142
0.0
142
0.0
142
0.0
142
0.0
142
1.0
142
0.0
142
0.0
142
0.0
142
0.0
142
1.0
179
     0
144
0.0208333333333333
144
0.0
144
0.0
144
0.0
144
0.0
144
0.0208333333333333
144
0.0
144
0.0
144
0.0
144
0.0
144
1.0
144
0.0
144
0.0
144
0.0
144
0.0
144
1.0
147
0.0208333333333333
147
0.0
147
0.0
147
0.0
147
0.0
147
0.0208333333333333
147
0.0
147
0.0
147
0.0
147
0.0
147
1.0
147
0.0
147
0.0
147
0.0
147
0.0
147
1.0
  0
MLEADERSTYLE
  5
67
102
{ACAD_REACTORS
330
66
102
}
330
66
100
AcDbMLeaderStyle
179
     2
170
     2
171
     1
172
     0
 90
        2
 40
0.0
 41
0.0
173
     1
 91
-1056964608
340
5B
 92
       -2
290
     1
 42
0.09
291
     1
 43
0.36
  3
Standard
 44
0.18
300

342
55
174
     1
178
     6
175
     1
176
     0
 93
-1056964608
 45
0.18
292
     0
297
     0
 46
0.18
 94
-1056964608
 47
1.0
 49
1.0
140
1.0
293
     1
141
0.0
294
     1
177
     0
142
1.0
295
     1
296
     0
143
0.125
271
     0
272
     9
273
     9
298
     1
  0
MLINESTYLE
  5
60
102
{ACAD_REACTORS
330
5F
102
}
330
5F
100
AcDbMlineStyle
  2
STANDARD
 70
     0
  3

 62
   256
 51
90.0
 52
90.0
 71
     2
 49
0.5
 62
   256
  6
BYLAYER
 49
-0.5
 62
   256
  6
BYLAYER
  0
ACDBPLACEHOLDER
  5
F
102
{ACAD_REACTORS
330
E
102
}
330
E
  0
SCALE
  5
43
102
{ACAD_REACTORS
330
42
102
}
330
42
100
AcDbScale
 70
     0
300
1:1
140
1.0
141
1.0
290
     1
  0
SCALE
  5
44
102
{ACAD_REACTORS
330
42
102
}
330
42
100
AcDbScale
 70
     0
300
1/128" = 1'-0"
140
0.0078125
141
12.0
290
     0
  0
SCALE
  5
45
102
{ACAD_REACTORS
330
42
102
}
330
42
100
AcDbScale
 70
     0
300
1/64" = 1'-0"
140
0.015625
141
12.0
290
     0
  0
SCALE
  5
46
102
{ACAD_REACTORS
330
42
102
}
330
42
100
AcDbScale
 70
     0
300
1/32" = 1'-0"
140
0.03125
141
12.0
290
     0
  0
SCALE
  5
47
102
{ACAD_REACTORS
330
42
102
}
330
42
100
AcDbScale
 70
     0
300
1/16" = 1'-0"
140
0.0625
141
12.0
290
     0
  0
SCALE
  5
48
102
{ACAD_REACTORS
330
42
102
}
330
42
100
AcDbScale
 70
     0
300
3/32" = 1'-0"
140
0.09375
141
12.0
290
     0
  0
SCALE
  5
49
102
{ACAD_REACTORS
330
42
102
}
330
42
100
AcDbScale
 70
     0
300
1/8" = 1'-0"
140
0.125
141
12.0
290
     0
  0
SCALE
  5
4A
102
{ACAD_REACTORS
330
42
102
}
330
42
100
AcDbScale
 70
     0
300
3/16" = 1'-0"
140
0.1875
141
12.0
290
     0
  0
SCALE
  5
4B
102
{ACAD_REACTORS
330
42
102
}
330
42
100
AcDbScale
 70
     0
300
1/4" = 1'-0"
140
0.25
141
12.0
290
     0
  0
SCALE
  5
4C
102
{ACAD_REACTORS
330
42
102
}
330
42
100
AcDbScale
 70
     0
300
3/8" = 1'-0"
140
0.375
141
12.0
290
     0
  0
SCALE
  5
4D
102
{ACAD_REACTORS
330
42
102
}
330
42
100
AcDbScale
 70
     0
300
1/2" = 1'-0"
140
0.5
141
12.0
290
     0
  0
SCALE
  5
4E
102
{ACAD_REACTORS
330
42
102
}
330
42
100
AcDbScale
 70
     0
300
3/4" = 1'-0"
140
0.75
141
12.0
290
     0
  0
SCALE
  5
4F
102
{ACAD_REACTORS
330
42
102
}
330
42
100
AcDbScale
 70
     0
300
1" = 1'-0"
140
1.0
141
12.0
290
     0
  0
SCALE
  5
50
102
{ACAD_REACTORS
330
42
102
}
330
42
100
AcDbScale
 70
     0
300
1-1/2" = 1'-0"
140
1.5
141
12.0
290
     0
  0
SCALE
  5
51
102
{ACAD_REACTORS
330
42
102
}
330
42
100
AcDbScale
 70
     0
300
3" = 1'-0"
140
3.0
141
12.0
290
     0
  0
SCALE
  5
52
102
{ACAD_REACTORS
330
42
102
}
330
42
100
AcDbScale
 70
     0
300
6" = 1'-0"
140
6.0
141
12.0
290
     0
  0
SCALE
  5
53
102
{ACAD_REACTORS
330
42
102
}
330
42
100
AcDbScale
 70
     0
300
1'-0" = 1'-0"
140
12.0
141
12.0
290
     0
  0
ACDBSECTIONVIEWSTYLE
  5
6A
102
{ACAD_REACTORS
330
68
102
}
330
68
100
AcDbModelDocViewStyle
 70
     0
  3
Imperial24
290
     1
100
AcDbSectionViewStyle
 70
     0
 71
     0
 90
       78
 71
     1
340
55
 62
   256
 40
0.24
340
0
340
0
 62
   256
 40
0.24
300
I, O, Q, S, X, Z
 40
0.48
 90
        3
 40
0.18
 90
        1
 71
     2
340
69
 90
       25
 62
   256
340
5D
 90
       50
 62
   256
 40
0.24
 40
0.0
 40
0.24
 71
     3
340
55
 62
   256
 40
0.24
 90
        1
 40
0.75
 90
        1
300
%<\AcVar ViewType \f "%tc1">% %<\AcVar ViewSectionStartId>%-%<\AcVar ViewSectionEndId>%\PSCALA %<\AcVar ViewScale \f "%sn">%
 71
     4
 62
   256
 62
   257
300
ANSI31
 40
1.0
 90
        0
290
     0
290
     0
 90
        6
 40
0.0
 40
1.570796326794896
 40
0.2617993877991494
 40
1.308996938995747
 40
-0.2617993877991494
 40
1.832595714594046
  0
TABLESTYLE
  5
65
102
{ACAD_XDICTIONARY
360
428
102
}
102
{ACAD_REACTORS
330
64
102
}
330
64
100
AcDbTableStyle
280
     0
  3
Standard
 70
     0
 71
     0
 40
0.06
 41
0.06
280
     0
281
     0
  7
Standard
140
0.18
170
     2
 62
     0
 63
     7
283
     0
 90
      512
 91
        0
  1

274
    -2
284
     1
 64
     0
275
    -2
285
     1
 65
     0
276
    -2
286
     1
 66
     0
277
    -2
287
     1
 67
     0
278
    -2
288
     1
 68
     0
279
    -2
289
     1
 69
     0
  7
Standard
140
0.25
170
     5
 62
     0
 63
     7
283
     0
 90
      512
 91
        0
  1

274
    -2
284
     1
 64
     0
275
    -2
285
     1
 65
     0
276
    -2
286
     1
 66
     0
277
    -2
287
     1
 67
     0
278
    -2
288
     1
 68
     0
279
    -2
289
     1
 69
     0
  7
Standard
140
0.18
170
     5
 62
     0
 63
     7
283
     0
 90
      512
 91
        0
  1

274
    -2
284
     1
 64
     0
275
    -2
285
     1
 65
     0
276
    -2
286
     1
 66
     0
277
    -2
287
     1
 67
     0
278
    -2
288
     1
 68
     0
279
    -2
289
     1
 69
     0
  0
VISUALSTYLE
  5
2F
102
{ACAD_REACTORS
330
29
102
}
330
29
100
AcDbVisualStyle
  2
2dWireframe
 70
     4
177
     3
291
     0
 70
    58
 90
        0
176
     1
 90
        2
176
     1
 90
        0
176
     1
 90
        0
176
     1
 40
0.6
176
     1
 40
30.0
176
     1
 62
     7
420
 16777215
176
     1
 90
        1
176
     1
 90
        4
176
     1
 62
     7
176
     1
 62
   257
176
     1
 90
        1
176
     1
 90
        1
176
     1
 40
1.0
176
     1
 90
        0
176
     1
 62
   257
176
     1
 40
1.0
176
     1
 90
        1
176
     1
 90
        6
176
     1
 90
        2
176
     1
 62
     7
176
     1
 90
        5
176
     1
 90
        0
176
     1
 90
        0
176
     1
290
     0
176
     1
 90
        1
176
     1
 40
0.0
176
     1
 90
        0
176
     1
290
     1
176
     1
290
     1
176
     1
290
     0
176
     1
290
     0
176
     1
290
     0
176
     1
290
     0
176
     1
290
     0
176
     1
290
     0
176
     1
290
     0
176
     1
 90
       50
176
     1
 40
0.0
176
     1
 40
1.0
176
     1
 90
        0
176
     1
 62
    18
420
        0
176
     1
 90
       50
176
     1
 90
        3
176
     1
 62
     5
420
      255
176
     1
290
     0
176
     1
 90
       50
176
     1
 90
       50
176
     1
 90
       50
176
     1
290
     0
176
     1
 90
       50
176
     1
 62
   256
176
     0
 40
1.0
176
     0
 90
        2
176
     1
  1
strokes_ogs.tif
176
     1
290
     0
176
     1
 40
1.0
176
     1
 40
1.0
176
     1
  0
VISUALSTYLE
  5
2E
102
{ACAD_REACTORS
330
29
102
}
330
29
100
AcDbVisualStyle
  2
Basic
 70
     7
177
     3
291
     1
 70
    58
 90
        1
176
     1
 90
        0
176
     1
 90
        1
176
     1
 90
        0
176
     1
 40
0.6
176
     1
 40
30.0
176
     1
 62
     7
420
 16777215
176
     1
 90
        0
176
     1
 90
        4
176
     1
 62
     7
176
     1
 62
   257
176
     1
 90
        1
176
     1
 90
        1
176
     1
 40
1.0
176
     1
 90
        8
176
     1
 62
     7
176
     1
 40
1.0
176
     1
 90
        1
176
     1
 90
        6
176
     1
 90
        2
176
     1
 62
     7
176
     1
 90
        5
176
     1
 90
        0
176
     1
 90
        0
176
     1
290
     0
176
     1
 90
        1
176
     1
 40
0.0
176
     1
 90
        0
176
     1
290
     0
176
     1
290
     1
176
     1
290
     1
176
     1
290
     0
176
     1
290
     0
176
     1
290
     0
176
     1
290
     0
176
     1
290
     0
176
     1
290
     0
176
     1
 90
       50
176
     1
 40
0.0
176
     1
 40
1.0
176
     1
 90
        0
176
     1
 62
    18
420
        0
176
     1
 90
       50
176
     1
 90
        3
176
     1
 62
     5
420
      255
176
     1
290
     0
176
     1
 90
       50
176
     1
 90
       50
176
     1
 90
       50
176
     1
290
     0
176
     1
 90
       50
176
     1
 62
   256
176
     0
 40
1.0
176
     0
 90
        2
176
     1
  1
strokes_ogs.tif
176
     1
290
     0
176
     1
 40
1.0
176
     1
 40
1.0
176
     1
  0
VISUALSTYLE
  5
35
102
{ACAD_REACTORS
330
29
102
}
330
29
100
AcDbVisualStyle
  2
Brighten
 70
    12
177
     3
291
     1
 70
    58
 90
        2
176
     1
 90
        2
176
     1
 90
        0
176
     1
 90
        0
176
     1
 40
0.6
176
     1
 40
30.0
176
     1
 62
     7
420
 16777215
176
     1
 90
        1
176
     1
 90
        4
176
     1
 62
     7
176
     1
 62
   257
176
     1
 90
        1
176
     1
 90
        1
176
     1
 40
1.0
176
     1
 90
        8
176
     1
 62
     7
176
     1
 40
1.0
176
     1
 90
        1
176
     1
 90
        6
176
     1
 90
        2
176
     1
 62
     7
176
     1
 90
        5
176
     1
 90
        0
176
     1
 90
        0
176
     1
290
     0
176
     1
 90
        1
176
     1
 40
50.0
176
     1
 90
        0
176
     1
290
     0
176
     1
290
     1
176
     1
290
     1
176
     1
290
     0
176
     1
290
     0
176
     1
290
     0
176
     1
290
     0
176
     1
290
     0
176
     1
290
     0
176
     1
 90
       50
176
     1
 40
0.0
176
     1
 40
1.0
176
     1
 90
        0
176
     1
 62
    18
420
        0
176
     1
 90
       50
176
     1
 90
        3
176
     1
 62
     5
420
      255
176
     1
290
     0
176
     1
 90
       50
176
     1
 90
       50
176
     1
 90
       50
176
     1
290
     0
176
     1
 90
       50
176
     1
 62
   256
176
     0
 40
1.0
176
     0
 90
        2
176
     1
  1
strokes_ogs.tif
176
     1
290
     0
176
     1
 40
1.0
176
     1
 40
1.0
176
     1
  0
VISUALSTYLE
  5
39
102
{ACAD_REACTORS
330
29
102
}
330
29
100
AcDbVisualStyle
  2
ColorChange
 70
    16
177
     3
291
     1
 70
    58
 90
        2
176
     1
 90
        2
176
     1
 90
        3
176
     1
 90
        0
176
     1
 40
0.6
176
     1
 40
30.0
176
     1
 62
     8
420
  8421504
176
     1
 90
        1
176
     1
 90
        4
176
     1
 62
     7
176
     1
 62
   257
176
     1
 90
        1
176
     1
 90
        1
176
     1
 40
1.0
176
     1
 90
        8
176
     1
 62
     8
420
  8421504
176
     1
 40
1.0
176
     1
 90
        1
176
     1
 90
        6
176
     1
 90
        2
176
     1
 62
     7
176
     1
 90
        5
176
     1
 90
        0
176
     1
 90
        0
176
     1
290
     0
176
     1
 90
        1
176
     1
 40
0.0
176
     1
 90
        0
176
     1
290
     0
176
     1
290
     1
176
     1
290
     1
176
     1
290
     0
176
     1
290
     0
176
     1
290
     0
176
     1
290
     0
176
     1
290
     0
176
     1
290
     0
176
     1
 90
       50
176
     1
 40
0.0
176
     1
 40
1.0
176
     1
 90
        0
176
     1
 62
    18
420
        0
176
     1
 90
       50
176
     1
 90
        3
176
     1
 62
     5
420
      255
176
     1
290
     0
176
     1
 90
       50
176
     1
 90
       50
176
     1
 90
       50
176
     1
290
     0
176
     1
 90
       50
176
     1
 62
   256
176
     0
 40
1.0
176
     0
 90
        2
176
     1
  1
strokes_ogs.tif
176
     1
290
     0
176
     1
 40
1.0
176
     1
 40
1.0
176
     1
  0
VISUALSTYLE
  5
32
102
{ACAD_REACTORS
330
29
102
}
330
29
100
AcDbVisualStyle
  2
Conceptual
 70
     9
177
     3
291
     0
 70
    58
 90
        3
176
     1
 90
        2
176
     1
 90
        0
176
     1
 90
        0
176
     1
 40
0.6
176
     1
 40
30.0
176
     1
 62
     7
420
 16777215
176
     1
 90
        2
176
     1
 90
        2
176
     1
 62
     7
176
     1
 62
   257
176
     1
 90
        1
176
     1
 90
        1
176
     1
 40
179.0
176
     1
 90
        8
176
     1
 62
     7
176
     1
 40
1.0
176
     1
 90
        1
176
     1
 90
        6
176
     1
 90
        2
176
     1
 62
     7
176
     1
 90
        3
176
     1
 90
        0
176
     1
 90
        0
176
     1
290
     0
176
     1
 90
        1
176
     1
 40
0.0
176
     1
 90
        0
176
     1
290
     0
176
     1
290
     1
176
     1
290
     1
176
     1
290
     0
176
     1
290
     0
176
     1
290
     0
176
     1
290
     0
176
     1
290
     0
176
     1
290
     0
176
     1
 90
       50
176
     1
 40
0.0
176
     1
 40
1.0
176
     1
 90
        0
176
     1
 62
    18
420
        0
176
     1
 90
       50
176
     1
 90
        3
176
     1
 62
     5
420
      255
176
     1
290
     0
176
     1
 90
       50
176
     1
 90
       50
176
     1
 90
       50
176
     1
290
     0
176
     1
 90
       50
176
     1
 62
   256
176
     0
 40
1.0
176
     0
 90
        2
176
     1
  1
strokes_ogs.tif
176
     1
290
     0
176
     1
 40
1.0
176
     1
 40
1.0
176
     1
  0
VISUALSTYLE
  5
34
102
{ACAD_REACTORS
330
29
102
}
330
29
100
AcDbVisualStyle
  2
Dim
 70
    11
177
     3
291
     1
 70
    58
 90
        2
176
     1
 90
        2
176
     1
 90
        0
176
     1
 90
        0
176
     1
 40
0.6
176
     1
 40
30.0
176
     1
 62
     7
420
 16777215
176
     1
 90
        1
176
     1
 90
        4
176
     1
 62
     7
176
     1
 62
   257
176
     1
 90
        1
176
     1
 90
        1
176
     1
 40
1.0
176
     1
 90
        8
176
     1
 62
     7
176
     1
 40
1.0
176
     1
 90
        1
176
     1
 90
        6
176
     1
 90
        2
176
     1
 62
     7
176
     1
 90
        5
176
     1
 90
        0
176
     1
 90
        0
176
     1
290
     0
176
     1
 90
        1
176
     1
 40
-50.0
176
     1
 90
        0
176
     1
290
     0
176
     1
290
     1
176
     1
290
     1
176
     1
290
     0
176
     1
290
     0
176
     1
290
     0
176
     1
290
     0
176
     1
290
     0
176
     1
290
     0
176
     1
 90
       50
176
     1
 40
0.0
176
     1
 40
1.0
176
     1
 90
        0
176
     1
 62
    18
420
        0
176
     1
 90
       50
176
     1
 90
        3
176
     1
 62
     5
420
      255
176
     1
290
     0
176
     1
 90
       50
176
     1
 90
       50
176
     1
 90
       50
176
     1
290
     0
176
     1
 90
       50
176
     1
 62
   256
176
     0
 40
1.0
176
     0
 90
        2
176
     1
  1
strokes_ogs.tif
176
     1
290
     0
176
     1
 40
1.0
176
     1
 40
1.0
176
     1
  0
VISUALSTYLE
  5
41
102
{ACAD_REACTORS
330
29
102
}
330
29
100
AcDbVisualStyle
  2
EdgeColorOff
 70
    22
177
     3
291
     1
 70
    58
 90
        2
176
     0
 90
        2
176
     0
 90
        0
176
     0
 90
        0
176
     0
 40
0.6
176
     0
 40
30.0
176
     0
 62
     7
420
 16777215
176
     0
 90
        1
176
     0
 90
        4
176
     0
 62
     7
176
     0
 62
   257
176
     0
 90
        1
176
     0
 90
        1
176
     0
 40
1.0
176
     0
 90
        8
176
     2
 62
     7
176
     0
 40
1.0
176
     0
 90
        1
176
     0
 90
        6
176
     0
 90
        2
176
     0
 62
     7
176
     0
 90
        5
176
     0
 90
        0
176
     0
 90
        0
176
     0
290
     0
176
     0
 90
        1
176
     0
 40
0.0
176
     0
 90
        0
176
     0
290
     0
176
     0
290
     1
176
     0
290
     1
176
     0
290
     0
176
     0
290
     0
176
     0
290
     0
176
     0
290
     0
176
     0
290
     0
176
     0
290
     0
176
     0
 90
       50
176
     0
 40
0.0
176
     0
 40
1.0
176
     0
 90
        0
176
     0
 62
    18
420
        0
176
     0
 90
       50
176
     0
 90
        3
176
     0
 62
     5
420
      255
176
     0
290
     0
176
     0
 90
       50
176
     0
 90
       50
176
     0
 90
       50
176
     0
290
     0
176
     0
 90
       50
176
     0
 62
   256
176
     0
 40
1.0
176
     0
 90
        2
176
     0
  1
strokes_ogs.tif
176
     0
290
     0
176
     0
 40
1.0
176
     0
 40
1.0
176
     0
  0
VISUALSTYLE
  5
38
102
{ACAD_REACTORS
330
29
102
}
330
29
100
AcDbVisualStyle
  2
Facepattern
 70
    15
177
     3
291
     1
 70
    58
 90
        2
176
     1
 90
        2
176
     1
 90
        0
176
     1
 90
        0
176
     1
 40
0.6
176
     1
 40
30.0
176
     1
 62
     7
420
 16777215
176
     1
 90
        1
176
     1
 90
        4
176
     1
 62
     7
176
     1
 62
   257
176
     1
 90
        1
176
     1
 90
        1
176
     1
 40
1.0
176
     1
 90
        8
176
     1
 62
     7
176
     1
 40
1.0
176
     1
 90
        1
176
     1
 90
        6
176
     1
 90
        2
176
     1
 62
     7
176
     1
 90
        5
176
     1
 90
        0
176
     1
 90
        0
176
     1
290
     0
176
     1
 90
        1
176
     1
 40
0.0
176
     1
 90
        0
176
     1
290
     0
176
     1
290
     1
176
     1
290
     1
176
     1
290
     0
176
     1
290
     0
176
     1
290
     0
176
     1
290
     0
176
     1
290
     0
176
     1
290
     0
176
     1
 90
       50
176
     1
 40
0.0
176
     1
 40
1.0
176
     1
 90
        0
176
     1
 62
    18
420
        0
176
     1
 90
       50
176
     1
 90
        3
176
     1
 62
     5
420
      255
176
     1
290
     0
176
     1
 90
       50
176
     1
 90
       50
176
     1
 90
       50
176
     1
290
     0
176
     1
 90
       50
176
     1
 62
   256
176
     0
 40
1.0
176
     0
 90
        2
176
     1
  1
strokes_ogs.tif
176
     1
290
     0
176
     1
 40
1.0
176
     1
 40
1.0
176
     1
  0
VISUALSTYLE
  5
2A
102
{ACAD_REACTORS
330
29
102
}
330
29
100
AcDbVisualStyle
  2
Flat
 70
     0
177
     3
291
     1
 70
    58
 90
        2
176
     1
 90
        1
176
     1
 90
        1
176
     1
 90
        2
176
     1
 40
0.6
176
     1
 40
30.0
176
     1
 62
     7
420
 16777215
176
     1
 90
        0
176
     1
 90
        0
176
     1
 62
     7
176
     1
 62
   257
176
     1
 90
        1
176
     1
 90
        1
176
     1
 40
1.0
176
     1
 90
        8
176
     1
 62
     7
176
     1
 40
1.0
176
     1
 90
        1
176
     1
 90
        6
176
     1
 90
        2
176
     1
 62
     7
176
     1
 90
        5
176
     1
 90
        0
176
     1
 90
        0
176
     1
290
     0
176
     1
 90
       13
176
     1
 40
0.0
176
     1
 90
        0
176
     1
290
     0
176
     1
290
     1
176
     1
290
     1
176
     1
290
     0
176
     1
290
     0
176
     1
290
     0
176
     1
290
     0
176
     1
290
     0
176
     1
290
     0
176
     1
 90
       50
176
     1
 40
0.0
176
     1
 40
1.0
176
     1
 90
        0
176
     1
 62
    18
420
        0
176
     1
 90
       50
176
     1
 90
        3
176
     1
 62
     5
420
      255
176
     1
290
     0
176
     1
 90
       50
176
     1
 90
       50
176
     1
 90
       50
176
     1
290
     0
176
     1
 90
       50
176
     1
 62
   256
176
     0
 40
1.0
176
     0
 90
        2
176
     1
  1
strokes_ogs.tif
176
     1
290
     0
176
     1
 40
1.0
176
     1
 40
1.0
176
     1
  0
VISUALSTYLE
  5
2B
102
{ACAD_REACTORS
330
29
102
}
330
29
100
AcDbVisualStyle
  2
FlatWithEdges
 70
     1
177
     3
291
     1
 70
    58
 90
        2
176
     1
 90
        1
176
     1
 90
        1
176
     1
 90
        2
176
     1
 40
0.6
176
     1
 40
30.0
176
     1
 62
     7
420
 16777215
176
     1
 90
        1
176
     1
 90
        0
176
     1
 62
     7
176
     1
 62
   257
176
     1
 90
        1
176
     1
 90
        1
176
     1
 40
1.0
176
     1
 90
        0
176
     1
 62
   257
176
     1
 40
1.0
176
     1
 90
        1
176
     1
 90
        6
176
     1
 90
        2
176
     1
 62
     7
176
     1
 90
        5
176
     1
 90
        0
176
     1
 90
        0
176
     1
290
     0
176
     1
 90
       13
176
     1
 40
0.0
176
     1
 90
        0
176
     1
290
     0
176
     1
290
     1
176
     1
290
     1
176
     1
290
     0
176
     1
290
     0
176
     1
290
     0
176
     1
290
     0
176
     1
290
     0
176
     1
290
     0
176
     1
 90
       50
176
     1
 40
0.0
176
     1
 40
1.0
176
     1
 90
        0
176
     1
 62
    18
420
        0
176
     1
 90
       50
176
     1
 90
        3
176
     1
 62
     5
420
      255
176
     1
290
     0
176
     1
 90
       50
176
     1
 90
       50
176
     1
 90
       50
176
     1
290
     0
176
     1
 90
       50
176
     1
 62
   256
176
     0
 40
1.0
176
     0
 90
        2
176
     1
  1
strokes_ogs.tif
176
     1
290
     0
176
     1
 40
1.0
176
     1
 40
1.0
176
     1
  0
VISUALSTYLE
  5
2C
102
{ACAD_REACTORS
330
29
102
}
330
29
100
AcDbVisualStyle
  2
Gouraud
 70
     2
177
     3
291
     1
 70
    58
 90
        2
176
     1
 90
        2
176
     1
 90
        1
176
     1
 90
        2
176
     1
 40
0.6
176
     1
 40
30.0
176
     1
 62
     7
420
 16777215
176
     1
 90
        0
176
     1
 90
        0
176
     1
 62
     7
176
     1
 62
   257
176
     1
 90
        1
176
     1
 90
        1
176
     1
 40
1.0
176
     1
 90
        0
176
     1
 62
     7
176
     1
 40
1.0
176
     1
 90
        1
176
     1
 90
        6
176
     1
 90
        2
176
     1
 62
     7
176
     1
 90
        5
176
     1
 90
        0
176
     1
 90
        0
176
     1
290
     0
176
     1
 90
       13
176
     1
 40
0.0
176
     1
 90
        0
176
     1
290
     0
176
     1
290
     1
176
     1
290
     1
176
     1
290
     0
176
     1
290
     0
176
     1
290
     0
176
     1
290
     0
176
     1
290
     0
176
     1
290
     0
176
     1
 90
       50
176
     1
 40
0.0
176
     1
 40
1.0
176
     1
 90
        0
176
     1
 62
    18
420
        0
176
     1
 90
       50
176
     1
 90
        3
176
     1
 62
     5
420
      255
176
     1
290
     0
176
     1
 90
       50
176
     1
 90
       50
176
     1
 90
       50
176
     1
290
     0
176
     1
 90
       50
176
     1
 62
   256
176
     0
 40
1.0
176
     0
 90
        2
176
     1
  1
strokes_ogs.tif
176
     1
290
     0
176
     1
 40
1.0
176
     1
 40
1.0
176
     1
  0
VISUALSTYLE
  5
2D
102
{ACAD_REACTORS
330
29
102
}
330
29
100
AcDbVisualStyle
  2
GouraudWithEdges
 70
     3
177
     3
291
     1
 70
    58
 90
        2
176
     1
 90
        2
176
     1
 90
        1
176
     1
 90
        2
176
     1
 40
0.6
176
     1
 40
30.0
176
     1
 62
     7
420
 16777215
176
     1
 90
        1
176
     1
 90
        0
176
     1
 62
     7
176
     1
 62
   257
176
     1
 90
        1
176
     1
 90
        1
176
     1
 40
1.0
176
     1
 90
        0
176
     1
 62
   257
176
     1
 40
1.0
176
     1
 90
        1
176
     1
 90
        6
176
     1
 90
        2
176
     1
 62
     7
176
     1
 90
        5
176
     1
 90
        0
176
     1
 90
        0
176
     1
290
     0
176
     1
 90
       13
176
     1
 40
0.0
176
     1
 90
        0
176
     1
290
     0
176
     1
290
     1
176
     1
290
     1
176
     1
290
     0
176
     1
290
     0
176
     1
290
     0
176
     1
290
     0
176
     1
290
     0
176
     1
290
     0
176
     1
 90
       50
176
     1
 40
0.0
176
     1
 40
1.0
176
     1
 90
        0
176
     1
 62
    18
420
        0
176
     1
 90
       50
176
     1
 90
        3
176
     1
 62
     5
420
      255
176
     1
290
     0
176
     1
 90
       50
176
     1
 90
       50
176
     1
 90
       50
176
     1
290
     0
176
     1
 90
       50
176
     1
 62
   256
176
     0
 40
1.0
176
     0
 90
        2
176
     1
  1
strokes_ogs.tif
176
     1
290
     0
176
     1
 40
1.0
176
     1
 40
1.0
176
     1
  0
VISUALSTYLE
  5
31
102
{ACAD_REACTORS
330
29
102
}
330
29
100
AcDbVisualStyle
  2
Hidden
 70
     6
177
     3
291
     0
 70
    58
 90
        1
176
     1
 90
        2
176
     1
 90
        2
176
     1
 90
        0
176
     1
 40
0.6
176
     1
 40
30.0
176
     1
 62
     7
420
 16777215
176
     1
 90
        2
176
     1
 90
        2
176
     1
 62
     7
176
     1
 62
   257
176
     1
 90
        2
176
     1
 90
        1
176
     1
 40
40.0
176
     1
 90
        0
176
     1
 62
   257
176
     1
 40
1.0
176
     1
 90
        1
176
     1
 90
        6
176
     1
 90
        2
176
     1
 62
     7
176
     1
 90
        3
176
     1
 90
        0
176
     1
 90
        0
176
     1
290
     0
176
     1
 90
        1
176
     1
 40
0.0
176
     1
 90
        0
176
     1
290
     0
176
     1
290
     1
176
     1
290
     1
176
     1
290
     0
176
     1
290
     0
176
     1
290
     0
176
     1
290
     0
176
     1
290
     0
176
     1
290
     0
176
     1
 90
       50
176
     1
 40
0.0
176
     1
 40
1.0
176
     1
 90
        0
176
     1
 62
    18
420
        0
176
     1
 90
       50
176
     1
 90
        3
176
     1
 62
     5
420
      255
176
     1
290
     0
176
     1
 90
       50
176
     1
 90
       50
176
     1
 90
       50
176
     1
290
     0
176
     1
 90
       50
176
     1
 62
   256
176
     0
 40
1.0
176
     0
 90
        2
176
     1
  1
strokes_ogs.tif
176
     1
290
     0
176
     1
 40
1.0
176
     1
 40
1.0
176
     1
  0
VISUALSTYLE
  5
3F
102
{ACAD_REACTORS
330
29
102
}
330
29
100
AcDbVisualStyle
  2
JitterOff
 70
    20
177
     3
291
     1
 70
    58
 90
        2
176
     0
 90
        2
176
     0
 90
        0
176
     0
 90
        0
176
     0
 40
0.6
176
     0
 40
30.0
176
     0
 62
     7
420
 16777215
176
     0
 90
        1
176
     0
 90
        4
176
     0
 62
     7
176
     0
 62
   257
176
     0
 90
        1
176
     0
 90
        1
176
     0
 40
1.0
176
     0
 90
       10
176
     2
 62
     7
176
     0
 40
1.0
176
     0
 90
        1
176
     0
 90
        6
176
     0
 90
        2
176
     0
 62
     7
176
     0
 90
        5
176
     0
 90
        0
176
     0
 90
        0
176
     0
290
     0
176
     0
 90
        1
176
     0
 40
0.0
176
     0
 90
        0
176
     0
290
     0
176
     0
290
     1
176
     0
290
     1
176
     0
290
     0
176
     0
290
     0
176
     0
290
     0
176
     0
290
     0
176
     0
290
     0
176
     0
290
     0
176
     0
 90
       50
176
     0
 40
0.0
176
     0
 40
1.0
176
     0
 90
        0
176
     0
 62
    18
420
        0
176
     0
 90
       50
176
     0
 90
        3
176
     0
 62
     5
420
      255
176
     0
290
     0
176
     0
 90
       50
176
     0
 90
       50
176
     0
 90
       50
176
     0
290
     0
176
     0
 90
       50
176
     0
 62
   256
176
     0
 40
1.0
176
     0
 90
        2
176
     0
  1
strokes_ogs.tif
176
     0
290
     0
176
     0
 40
1.0
176
     0
 40
1.0
176
     0
  0
VISUALSTYLE
  5
37
102
{ACAD_REACTORS
330
29
102
}
330
29
100
AcDbVisualStyle
  2
Linepattern
 70
    14
177
     3
291
     1
 70
    58
 90
        2
176
     1
 90
        2
176
     1
 90
        0
176
     1
 90
        0
176
     1
 40
0.6
176
     1
 40
30.0
176
     1
 62
     7
420
 16777215
176
     1
 90
        1
176
     1
 90
        4
176
     1
 62
     7
176
     1
 62
   257
176
     1
 90
        7
176
     1
 90
        7
176
     1
 40
1.0
176
     1
 90
        8
176
     1
 62
     7
176
     1
 40
1.0
176
     1
 90
        1
176
     1
 90
        6
176
     1
 90
        2
176
     1
 62
     7
176
     1
 90
        5
176
     1
 90
        0
176
     1
 90
        0
176
     1
290
     0
176
     1
 90
        1
176
     1
 40
0.0
176
     1
 90
        0
176
     1
290
     0
176
     1
290
     1
176
     1
290
     1
176
     1
290
     0
176
     1
290
     0
176
     1
290
     0
176
     1
290
     0
176
     1
290
     0
176
     1
290
     0
176
     1
 90
       50
176
     1
 40
0.0
176
     1
 40
1.0
176
     1
 90
        0
176
     1
 62
    18
420
        0
176
     1
 90
       50
176
     1
 90
        3
176
     1
 62
     5
420
      255
176
     1
290
     0
176
     1
 90
       50
176
     1
 90
       50
176
     1
 90
       50
176
     1
290
     0
176
     1
 90
       50
176
     1
 62
   256
176
     0
 40
1.0
176
     0
 90
        2
176
     1
  1
strokes_ogs.tif
176
     1
290
     0
176
     1
 40
1.0
176
     1
 40
1.0
176
     1
  0
VISUALSTYLE
  5
40
102
{ACAD_REACTORS
330
29
102
}
330
29
100
AcDbVisualStyle
  2
OverhangOff
 70
    21
177
     3
291
     1
 70
    58
 90
        2
176
     0
 90
        2
176
     0
 90
        0
176
     0
 90
        0
176
     0
 40
0.6
176
     0
 40
30.0
176
     0
 62
     7
420
 16777215
176
     0
 90
        1
176
     0
 90
        4
176
     0
 62
     7
176
     0
 62
   257
176
     0
 90
        1
176
     0
 90
        1
176
     0
 40
1.0
176
     0
 90
        9
176
     2
 62
     7
176
     0
 40
1.0
176
     0
 90
        1
176
     0
 90
        6
176
     0
 90
        2
176
     0
 62
     7
176
     0
 90
        5
176
     0
 90
        0
176
     0
 90
        0
176
     0
290
     0
176
     0
 90
        1
176
     0
 40
0.0
176
     0
 90
        0
176
     0
290
     0
176
     0
290
     1
176
     0
290
     1
176
     0
290
     0
176
     0
290
     0
176
     0
290
     0
176
     0
290
     0
176
     0
290
     0
176
     0
290
     0
176
     0
 90
       50
176
     0
 40
0.0
176
     0
 40
1.0
176
     0
 90
        0
176
     0
 62
    18
420
        0
176
     0
 90
       50
176
     0
 90
        3
176
     0
 62
     5
420
      255
176
     0
290
     0
176
     0
 90
       50
176
     0
 90
       50
176
     0
 90
       50
176
     0
290
     0
176
     0
 90
       50
176
     0
 62
   256
176
     0
 40
1.0
176
     0
 90
        2
176
     0
  1
strokes_ogs.tif
176
     0
290
     0
176
     0
 40
1.0
176
     0
 40
1.0
176
     0
  0
VISUALSTYLE
  5
33
102
{ACAD_REACTORS
330
29
102
}
330
29
100
AcDbVisualStyle
  2
Realistic
 70
     8
177
     3
291
     0
 70
    58
 90
        2
176
     1
 90
        3
176
     1
 90
        0
176
     1
 90
        2
176
     1
 40
0.6
176
     1
 40
30.0
176
     1
 62
     7
420
 16777215
176
     1
 90
        0
176
     1
 90
        0
176
     1
 62
     7
176
     1
 62
   257
176
     1
 90
        1
176
     1
 90
        1
176
     1
 40
1.0
176
     1
 90
        8
176
     1
 62
   257
176
     1
 40
1.0
176
     1
 90
        1
176
     1
 90
        6
176
     1
 90
        2
176
     1
 62
     7
176
     1
 90
        3
176
     1
 90
        0
176
     1
 90
        0
176
     1
290
     0
176
     1
 90
       13
176
     1
 40
0.0
176
     1
 90
        0
176
     1
290
     0
176
     1
290
     1
176
     1
290
     1
176
     1
290
     0
176
     1
290
     0
176
     1
290
     0
176
     1
290
     0
176
     1
290
     0
176
     1
290
     0
176
     1
 90
       50
176
     1
 40
0.0
176
     1
 40
1.0
176
     1
 90
        0
176
     1
 62
    18
420
        0
176
     1
 90
       50
176
     1
 90
        3
176
     1
 62
     5
420
      255
176
     1
290
     0
176
     1
 90
       50
176
     1
 90
       50
176
     1
 90
       50
176
     1
290
     0
176
     1
 90
       50
176
     1
 62
   256
176
     0
 40
1.0
176
     0
 90
        2
176
     1
  1
strokes_ogs.tif
176
     1
290
     0
176
     1
 40
1.0
176
     1
 40
1.0
176
     1
  0
VISUALSTYLE
  5
3E
102
{ACAD_REACTORS
330
29
102
}
330
29
100
AcDbVisualStyle
  2
Shaded
 70
    27
177
     3
291
     0
 70
    58
 90
        2
176
     1
 90
        2
176
     1
 90
        1
176
     1
 90
        2
176
     1
 40
0.6
176
     1
 40
30.0
176
     1
 62
     7
420
 16777215
176
     1
 90
        0
176
     1
 90
        4
176
     1
 62
     7
176
     1
 62
   257
176
     1
 90
        1
176
     1
 90
        1
176
     1
 40
1.0
176
     1
 90
        8
176
     1
 62
   257
176
     1
 40
1.0
176
     1
 90
        1
176
     1
 90
        6
176
     1
 90
        2
176
     1
 62
     8
420
  7895160
176
     1
 90
        3
176
     1
 90
        0
176
     1
 90
        0
176
     1
290
     0
176
     1
 90
        5
176
     1
 40
0.0
176
     1
 90
        0
176
     1
290
     0
176
     1
290
     1
176
     1
290
     1
176
     1
290
     0
176
     1
290
     0
176
     1
290
     0
176
     1
290
     0
176
     1
290
     0
176
     1
290
     0
176
     1
 90
       50
176
     1
 40
0.0
176
     1
 40
1.0
176
     1
 90
        0
176
     1
 62
    18
420
        0
176
     1
 90
       50
176
     1
 90
        3
176
     1
 62
     5
420
      255
176
     1
290
     0
176
     1
 90
       50
176
     1
 90
       50
176
     1
 90
       50
176
     1
290
     0
176
     1
 90
       50
176
     1
 62
   256
176
     0
 40
1.0
176
     0
 90
        2
176
     1
  1
strokes_ogs.tif
176
     1
290
     0
176
     1
 40
1.0
176
     1
 40
1.0
176
     1
  0
VISUALSTYLE
  5
3D
102
{ACAD_REACTORS
330
29
102
}
330
29
100
AcDbVisualStyle
  2
Shaded with edges
 70
    26
177
     3
291
     0
 70
    58
 90
        2
176
     1
 90
        2
176
     1
 90
        1
176
     1
 90
        2
176
     1
 40
0.6
176
     1
 40
30.0
176
     1
 62
     7
420
 16777215
176
     1
 90
        1
176
     1
 90
       10
176
     1
 62
     7
176
     1
 62
   257
176
     1
 90
        2
176
     1
 90
        1
176
     1
 40
1.0
176
     1
 90
        8
176
     1
 62
   257
176
     1
 40
1.0
176
     1
 90
        1
176
     1
 90
        6
176
     1
 90
        2
176
     1
 62
     7
176
     1
 90
        3
176
     1
 90
        0
176
     1
 90
        0
176
     1
290
     0
176
     1
 90
        5
176
     1
 40
0.0
176
     1
 90
        0
176
     1
290
     0
176
     1
290
     1
176
     1
290
     1
176
     1
290
     0
176
     1
290
     0
176
     1
290
     0
176
     1
290
     0
176
     1
290
     0
176
     1
290
     0
176
     1
 90
       50
176
     1
 40
0.0
176
     1
 40
1.0
176
     1
 90
        0
176
     1
 62
    18
420
        0
176
     1
 90
       50
176
     1
 90
        3
176
     1
 62
     5
420
      255
176
     1
290
     0
176
     1
 90
       50
176
     1
 90
       50
176
     1
 90
       50
176
     1
290
     0
176
     1
 90
       50
176
     1
 62
   256
176
     0
 40
1.0
176
     0
 90
        2
176
     1
  1
strokes_ogs.tif
176
     1
290
     0
176
     1
 40
1.0
176
     1
 40
1.0
176
     1
  0
VISUALSTYLE
  5
3A
102
{ACAD_REACTORS
330
29
102
}
330
29
100
AcDbVisualStyle
  2
Shades of Gray
 70
    23
177
     3
291
     0
 70
    58
 90
        2
176
     1
 90
        2
176
     1
 90
        3
176
     1
 90
        0
176
     1
 40
0.6
176
     1
 40
30.0
176
     1
 62
     7
420
 16777215
176
     1
 90
        2
176
     1
 90
        2
176
     1
 62
     7
176
     1
 62
     7
176
     1
 90
        1
176
     1
 90
        1
176
     1
 40
40.0
176
     1
 90
        8
176
     1
 62
     7
176
     1
 40
1.0
176
     1
 90
        1
176
     1
 90
        6
176
     1
 90
        2
176
     1
 62
     7
176
     1
 90
        3
176
     1
 90
        0
176
     1
 90
        0
176
     1
290
     0
176
     1
 90
        1
176
     1
 40
0.0
176
     1
 90
        0
176
     1
290
     0
176
     1
290
     1
176
     1
290
     1
176
     1
290
     0
176
     1
290
     0
176
     1
290
     0
176
     1
290
     0
176
     1
290
     0
176
     1
290
     0
176
     1
 90
       50
176
     1
 40
0.0
176
     1
 40
1.0
176
     1
 90
        0
176
     1
 62
    18
420
        0
176
     1
 90
       50
176
     1
 90
        3
176
     1
 62
     5
420
      255
176
     1
290
     0
176
     1
 90
       50
176
     1
 90
       50
176
     1
 90
       50
176
     1
290
     0
176
     1
 90
       50
176
     1
 62
   256
176
     0
 40
1.0
176
     0
 90
        2
176
     1
  1
strokes_ogs.tif
176
     1
290
     0
176
     1
 40
1.0
176
     1
 40
1.0
176
     1
  0
VISUALSTYLE
  5
3B
102
{ACAD_REACTORS
330
29
102
}
330
29
100
AcDbVisualStyle
  2
Sketchy
 70
    24
177
     3
291
     0
 70
    58
 90
        1
176
     1
 90
        2
176
     1
 90
        2
176
     1
 90
        0
176
     1
 40
0.6
176
     1
 40
30.0
176
     1
 62
     7
420
 16777215
176
     1
 90
        2
176
     1
 90
        2
176
     1
 62
     7
176
     1
 62
     7
176
     1
 90
        1
176
     1
 90
        1
176
     1
 40
40.0
176
     1
 90
       11
176
     1
 62
     7
176
     1
 40
1.0
176
     1
 90
        1
176
     1
 90
        6
176
     1
 90
        2
176
     1
 62
     7
176
     1
 90
        6
176
     1
 90
        0
176
     1
 90
        0
176
     1
290
     0
176
     1
 90
        1
176
     1
 40
0.0
176
     1
 90
        0
176
     1
290
     0
176
     1
290
     1
176
     1
290
     1
176
     1
290
     0
176
     1
290
     0
176
     1
290
     0
176
     1
290
     0
176
     1
290
     0
176
     1
290
     0
176
     1
 90
       50
176
     1
 40
0.0
176
     1
 40
1.0
176
     1
 90
        0
176
     1
 62
    18
420
        0
176
     1
 90
       50
176
     1
 90
        3
176
     1
 62
     5
420
      255
176
     1
290
     0
176
     1
 90
       50
176
     1
 90
       50
176
     1
 90
       50
176
     1
290
     0
176
     1
 90
       50
176
     1
 62
   256
176
     0
 40
1.0
176
     0
 90
        2
176
     1
  1
strokes_ogs.tif
176
     1
290
     0
176
     1
 40
1.0
176
     1
 40
1.0
176
     1
  0
VISUALSTYLE
  5
36
102
{ACAD_REACTORS
330
29
102
}
330
29
100
AcDbVisualStyle
  2
Thicken
 70
    13
177
     3
291
     1
 70
    58
 90
        2
176
     1
 90
        2
176
     1
 90
        0
176
     1
 90
        0
176
     1
 40
0.6
176
     1
 40
30.0
176
     1
 62
     7
420
 16777215
176
     1
 90
        1
176
     1
 90
        4
176
     1
 62
     7
176
     1
 62
   257
176
     1
 90
        1
176
     1
 90
        1
176
     1
 40
1.0
176
     1
 90
       12
176
     1
 62
     7
176
     1
 40
1.0
176
     1
 90
        1
176
     1
 90
        6
176
     1
 90
        2
176
     1
 62
     7
176
     1
 90
        5
176
     1
 90
        0
176
     1
 90
        0
176
     1
290
     0
176
     1
 90
        1
176
     1
 40
0.0
176
     1
 90
        0
176
     1
290
     0
176
     1
290
     1
176
     1
290
     1
176
     1
290
     0
176
     1
290
     0
176
     1
290
     0
176
     1
290
     0
176
     1
290
     0
176
     1
290
     0
176
     1
 90
       50
176
     1
 40
0.0
176
     1
 40
1.0
176
     1
 90
        0
176
     1
 62
    18
420
        0
176
     1
 90
       50
176
     1
 90
        3
176
     1
 62
     5
420
      255
176
     1
290
     0
176
     1
 90
       50
176
     1
 90
       50
176
     1
 90
       50
176
     1
290
     0
176
     1
 90
       50
176
     1
 62
   256
176
     0
 40
1.0
176
     0
 90
        2
176
     1
  1
strokes_ogs.tif
176
     1
290
     0
176
     1
 40
1.0
176
     1
 40
1.0
176
     1
  0
VISUALSTYLE
  5
30
102
{ACAD_REACTORS
330
29
102
}
330
29
100
AcDbVisualStyle
  2
Wireframe
 70
     5
177
     3
291
     0
 70
    58
 90
        0
176
     1
 90
        2
176
     1
 90
        0
176
     1
 90
        0
176
     1
 40
0.6
176
     1
 40
30.0
176
     1
 62
     7
420
 16777215
176
     1
 90
        1
176
     1
 90
        4
176
     1
 62
     7
176
     1
 62
   257
176
     1
 90
        1
176
     1
 90
        1
176
     1
 40
1.0
176
     1
 90
        0
176
     1
 62
   257
176
     1
 40
1.0
176
     1
 90
        1
176
     1
 90
        6
176
     1
 90
        2
176
     1
 62
     7
176
     1
 90
        3
176
     1
 90
        0
176
     1
 90
        0
176
     1
290
     0
176
     1
 90
        1
176
     1
 40
0.0
176
     1
 90
        0
176
     1
290
     0
176
     1
290
     1
176
     1
290
     1
176
     1
290
     0
176
     1
290
     0
176
     1
290
     0
176
     1
290
     0
176
     1
290
     0
176
     1
290
     0
176
     1
 90
       50
176
     1
 40
0.0
176
     1
 40
1.0
176
     1
 90
        0
176
     1
 62
    18
420
        0
176
     1
 90
       50
176
     1
 90
        3
176
     1
 62
     5
420
      255
176
     1
290
     0
176
     1
 90
       50
176
     1
 90
       50
176
     1
 90
       50
176
     1
290
     0
176
     1
 90
       50
176
     1
 62
   256
176
     0
 40
1.0
176
     0
 90
        2
176
     1
  1
strokes_ogs.tif
176
     1
290
     0
176
     1
 40
1.0
176
     1
 40
1.0
176
     1
  0
VISUALSTYLE
  5
3C
102
{ACAD_REACTORS
330
29
102
}
330
29
100
AcDbVisualStyle
  2
X-Ray
 70
    25
177
     3
291
     0
 70
    58
 90
        2
176
     1
 90
        2
176
     1
 90
        1
176
     1
 90
        1
176
     1
 40
0.5
176
     1
 40
30.0
176
     1
 62
     7
420
 16777215
176
     1
 90
        1
176
     1
 90
        0
176
     1
 62
     7
176
     1
 62
   257
176
     1
 90
        1
176
     1
 90
        1
176
     1
 40
1.0
176
     1
 90
        8
176
     1
 62
     7
176
     1
 40
1.0
176
     1
 90
        1
176
     1
 90
        6
176
     1
 90
        2
176
     1
 62
     7
176
     1
 90
        3
176
     1
 90
        0
176
     1
 90
        0
176
     1
290
     0
176
     1
 90
       13
176
     1
 40
0.0
176
     1
 90
        0
176
     1
290
     0
176
     1
290
     1
176
     1
290
     1
176
     1
290
     0
176
     1
290
     0
176
     1
290
     0
176
     1
290
     0
176
     1
290
     0
176
     1
290
     0
176
     1
 90
       50
176
     1
 40
0.0
176
     1
 40
1.0
176
     1
 90
        0
176
     1
 62
    18
420
        0
176
     1
 90
       50
176
     1
 90
        3
176
     1
 62
     5
420
      255
176
     1
290
     0
176
     1
 90
       50
176
     1
 90
       50
176
     1
 90
       50
176
     1
290
     0
176
     1
 90
       50
176
     1
 62
   256
176
     0
 40
1.0
176
     0
 90
        2
176
     1
  1
strokes_ogs.tif
176
     1
290
     0
176
     1
 40
1.0
176
     1
 40
1.0
176
     1
  0
DICTIONARYVAR
  5
81
102
{ACAD_REACTORS
330
7C
102
}
330
7C
100
DictionaryVariables
280
     0
  1
1:1
  0
DICTIONARYVAR
  5
7E
102
{ACAD_REACTORS
330
7C
102
}
330
7C
100
DictionaryVariables
280
     0
  1
STANDARD
  0
DICTIONARYVAR
  5
7D
102
{ACAD_REACTORS
330
7C
102
}
330
7C
100
DictionaryVariables
280
     0
  1
STANDARD
  0
DICTIONARYVAR
  5
7F
102
{ACAD_REACTORS
330
7C
102
}
330
7C
100
DictionaryVariables
280
     0
  1
Imperial24
  0
DICTIONARYVAR
  5
80
102
{ACAD_REACTORS
330
7C
102
}
330
7C
100
DictionaryVariables
280
     0
  1
Imperial24
  0
XRECORD
  5
425
102
{ACAD_REACTORS
330
421
102
}
330
421
100
AcDbXrecord
280
     1
  1
BUILDING_ID
  1
Progetto per messa in tavola DXF, DWG
  1
FLOOR_ID
  1
694395
  0
XRECORD
  5
423
102
{ACAD_REACTORS
330
421
102
}
330
421
100
AcDbXrecord
280
     1
  1
-2001160
  1
Apparecchi idraulici
  0
XRECORD
  5
424
102
{ACAD_REACTORS
330
421
102
}
330
421
100
AcDbXrecord
280
     1
  1
790271
  1
Body
  0
XRECORD
  5
422
102
{ACAD_REACTORS
330
421
102
}
330
421
100
AcDbXrecord
280
     1
  1
859151
  1
Automatic flow rate regulator valve_Caleffi_121 DN15 : 1/2''
  0
DICTIONARY
  5
1A
330
19
100
AcDbDictionary
280
     1
281
     1
  3
BUMPTILE
360
1C
  3
DIFFUSETILE
360
1B
  3
OPACITYTILE
360
1F
  3
REFLECTIONTILE
360
1E
  3
REFRACTIONTILE
360
20
  3
SPECULARTILE
360
1D
  0
DICTIONARY
  5
12
330
11
100
AcDbDictionary
280
     1
281
     1
  3
BUMPTILE
360
14
  3
DIFFUSETILE
360
13
  3
OPACITYTILE
360
17
  3
REFLECTIONTILE
360
16
  3
REFRACTIONTILE
360
18
  3
SPECULARTILE
360
15
  0
DICTIONARY
  5
22
330
21
100
AcDbDictionary
280
     1
281
     1
  3
BUMPTILE
360
24
  3
DIFFUSETILE
360
23
  3
OPACITYTILE
360
27
  3
REFLECTIONTILE
360
26
  3
REFRACTIONTILE
360
28
  3
SPECULARTILE
360
25
  0
DICTIONARY
  5
428
330
65
100
AcDbDictionary
280
     1
281
     1
  3
ACAD_ROUNDTRIP_2008_TABLESTYLE_CELLSTYLEMAP
360
429
  0
XRECORD
  5
1C
102
{ACAD_REACTORS
330
1A
102
}
330
1A
100
AcDbXrecord
280
     1
270
     1
271
     1
  0
XRECORD
  5
1B
102
{ACAD_REACTORS
330
1A
102
}
330
1A
100
AcDbXrecord
280
     1
270
     1
271
     1
  0
XRECORD
  5
1F
102
{ACAD_REACTORS
330
1A
102
}
330
1A
100
AcDbXrecord
280
     1
270
     1
271
     1
  0
XRECORD
  5
1E
102
{ACAD_REACTORS
330
1A
102
}
330
1A
100
AcDbXrecord
280
     1
270
     1
271
     1
  0
XRECORD
  5
20
102
{ACAD_REACTORS
330
1A
102
}
330
1A
100
AcDbXrecord
280
     1
270
     1
271
     1
  0
XRECORD
  5
1D
102
{ACAD_REACTORS
330
1A
102
}
330
1A
100
AcDbXrecord
280
     1
270
     1
271
     1
  0
XRECORD
  5
14
102
{ACAD_REACTORS
330
12
102
}
330
12
100
AcDbXrecord
280
     1
270
     1
271
     1
  0
XRECORD
  5
13
102
{ACAD_REACTORS
330
12
102
}
330
12
100
AcDbXrecord
280
     1
270
     1
271
     1
  0
XRECORD
  5
17
102
{ACAD_REACTORS
330
12
102
}
330
12
100
AcDbXrecord
280
     1
270
     1
271
     1
  0
XRECORD
  5
16
102
{ACAD_REACTORS
330
12
102
}
330
12
100
AcDbXrecord
280
     1
270
     1
271
     1
  0
XRECORD
  5
18
102
{ACAD_REACTORS
330
12
102
}
330
12
100
AcDbXrecord
280
     1
270
     1
271
     1
  0
XRECORD
  5
15
102
{ACAD_REACTORS
330
12
102
}
330
12
100
AcDbXrecord
280
     1
270
     1
271
     1
  0
XRECORD
  5
24
102
{ACAD_REACTORS
330
22
102
}
330
22
100
AcDbXrecord
280
     1
270
     1
271
     1
  0
XRECORD
  5
23
102
{ACAD_REACTORS
330
22
102
}
330
22
100
AcDbXrecord
280
     1
270
     1
271
     1
  0
XRECORD
  5
27
102
{ACAD_REACTORS
330
22
102
}
330
22
100
AcDbXrecord
280
     1
270
     1
271
     1
  0
XRECORD
  5
26
102
{ACAD_REACTORS
330
22
102
}
330
22
100
AcDbXrecord
280
     1
270
     1
271
     1
  0
XRECORD
  5
28
102
{ACAD_REACTORS
330
22
102
}
330
22
100
AcDbXrecord
280
     1
270
     1
271
     1
  0
XRECORD
  5
25
102
{ACAD_REACTORS
330
22
102
}
330
22
100
AcDbXrecord
280
     1
270
     1
271
     1
  0
CELLSTYLEMAP
  5
429
102
{ACAD_REACTORS
330
428
102
}
330
428
100
AcDbCellStyleMap
 90
        3
300
CELLSTYLE
  1
TABLEFORMAT_BEGIN
 90
        5
170
     1
 91
        0
 92
    32768
 62
   257
 93
        1
300
CONTENTFORMAT
  1
CONTENTFORMAT_BEGIN
 90
        0
 91
        0
 92
      512
 93
        0
300

 40
0.0
140
1.0
 94
        5
 62
     0
340
55
144
0.25
309
CONTENTFORMAT_END
171
     0
 94
        0
309
TABLEFORMAT_END
  1
CELLSTYLE_BEGIN
 90
        1
 91
        1
300
_TITLE
309
CELLSTYLE_END
300
CELLSTYLE
  1
TABLEFORMAT_BEGIN
 90
        5
170
     1
 91
        0
 92
        0
 62
   257
 93
        1
300
CONTENTFORMAT
  1
CONTENTFORMAT_BEGIN
 90
        0
 91
        0
 92
      512
 93
        0
300

 40
0.0
140
1.0
 94
        5
 62
     0
340
55
144
0.18
309
CONTENTFORMAT_END
171
     0
 94
        0
309
TABLEFORMAT_END
  1
CELLSTYLE_BEGIN
 90
        2
 91
        1
300
_HEADER
309
CELLSTYLE_END
300
CELLSTYLE
  1
TABLEFORMAT_BEGIN
 90
        5
170
     1
 91
        0
 92
        0
 62
   257
 93
        1
300
CONTENTFORMAT
  1
CONTENTFORMAT_BEGIN
 90
        0
 91
        0
 92
      512
 93
        0
300

 40
0.0
140
1.0
 94
        2
 62
     0
340
55
144
0.18
309
CONTENTFORMAT_END
171
     0
 94
        0
309
TABLEFORMAT_END
  1
CELLSTYLE_BEGIN
 90
        3
 91
        2
300
_DATA
309
CELLSTYLE_END
  0
ENDSEC
  0
EOF
