  0
SECTION
  2
HEADER
  9
$ACADVER
  1
AC1027
  9
$ACADMAINTVER
 70
    20
  9
$DWGCODEPAGE
  3
ANSI_1252
  9
$REQUIREDVERSIONS
160
                 0
  9
$INSBASE
 10
0.0
 20
0.0
 30
0.0
  9
$EXTMIN
 10
545.278709259278
 20
1653.805266564654
 30
-0.00000001
  9
$EXTMAX
 10
1215.964353953078
 20
2177.374720262089
 30
0.00000001
  9
$LIMMIN
 10
0.0
 20
0.0
  9
$LIMMAX
 10
12.0
 20
9.0
  9
$ORTHOMODE
 70
     0
  9
$REGENMODE
 70
     1
  9
$FILLMODE
 70
     1
  9
$QTEXTMODE
 70
     0
  9
$MIRRTEXT
 70
     0
  9
$LTSCALE
 40
1.0
  9
$ATTMODE
 70
     1
  9
$TEXTSIZE
 40
0.2
  9
$TRACEWID
 40
0.05
  9
$TEXTSTYLE
  7
Standard
  9
$CLAYER
  8
0
  9
$CELTYPE
  6
ByLayer
  9
$CECOLOR
 62
   256
  9
$CELTSCALE
 40
1.0
  9
$DISPSILH
 70
     0
  9
$DIMSCALE
 40
1.0
  9
$DIMASZ
 40
0.18
  9
$DIMEXO
 40
0.0625
  9
$DIMDLI
 40
0.38
  9
$DIMRND
 40
0.0
  9
$DIMDLE
 40
0.0
  9
$DIMEXE
 40
0.18
  9
$DIMTP
 40
0.0
  9
$DIMTM
 40
0.0
  9
$DIMTXT
 40
0.18
  9
$DIMCEN
 40
0.09
  9
$DIMTSZ
 40
0.0
  9
$DIMTOL
 70
     0
  9
$DIMLIM
 70
     0
  9
$DIMTIH
 70
     1
  9
$DIMTOH
 70
     1
  9
$DIMSE1
 70
     0
  9
$DIMSE2
 70
     0
  9
$DIMTAD
 70
     0
  9
$DIMZIN
 70
     0
  9
$DIMBLK
  1

  9
$DIMASO
 70
     1
  9
$DIMSHO
 70
     1
  9
$DIMPOST
  1

  9
$DIMAPOST
  1

  9
$DIMALT
 70
     0
  9
$DIMALTD
 70
     2
  9
$DIMALTF
 40
25.4
  9
$DIMLFAC
 40
1.0
  9
$DIMTOFL
 70
     0
  9
$DIMTVP
 40
0.0
  9
$DIMTIX
 70
     0
  9
$DIMSOXD
 70
     0
  9
$DIMSAH
 70
     0
  9
$DIMBLK1
  1

  9
$DIMBLK2
  1

  9
$DIMSTYLE
  2
Standard
  9
$DIMCLRD
 70
     0
  9
$DIMCLRE
 70
     0
  9
$DIMCLRT
 70
     0
  9
$DIMTFAC
 40
1.0
  9
$DIMGAP
 40
0.09
  9
$DIMJUST
 70
     0
  9
$DIMSD1
 70
     0
  9
$DIMSD2
 70
     0
  9
$DIMTOLJ
 70
     1
  9
$DIMTZIN
 70
     0
  9
$DIMALTZ
 70
     0
  9
$DIMALTTZ
 70
     0
  9
$DIMUPT
 70
     0
  9
$DIMDEC
 70
     4
  9
$DIMTDEC
 70
     4
  9
$DIMALTU
 70
     2
  9
$DIMALTTD
 70
     2
  9
$DIMTXSTY
  7
Standard
  9
$DIMAUNIT
 70
     0
  9
$DIMADEC
 70
     0
  9
$DIMALTRND
 40
0.0
  9
$DIMAZIN
 70
     0
  9
$DIMDSEP
 70
    46
  9
$DIMATFIT
 70
     3
  9
$DIMFRAC
 70
     0
  9
$DIMLDRBLK
  1

  9
$DIMLUNIT
 70
     2
  9
$DIMLWD
 70
    -2
  9
$DIMLWE
 70
    -2
  9
$DIMTMOVE
 70
     0
  9
$DIMFXL
 40
1.0
  9
$DIMFXLON
 70
     0
  9
$DIMJOGANG
 40
0.7853981633974483
  9
$DIMTFILL
 70
     0
  9
$DIMTFILLCLR
 70
     0
  9
$DIMARCSYM
 70
     0
  9
$DIMLTYPE
  6

  9
$DIMLTEX1
  6

  9
$DIMLTEX2
  6

  9
$DIMTXTDIRECTION
 70
     0
  9
$LUNITS
 70
     2
  9
$LUPREC
 70
     4
  9
$SKETCHINC
 40
0.1
  9
$FILLETRAD
 40
0.0
  9
$AUNITS
 70
     0
  9
$AUPREC
 70
     0
  9
$MENU
  1
.
  9
$ELEVATION
 40
0.0
  9
$PELEVATION
 40
0.0
  9
$THICKNESS
 40
0.0
  9
$LIMCHECK
 70
     0
  9
$CHAMFERA
 40
0.0
  9
$CHAMFERB
 40
0.0
  9
$CHAMFERC
 40
0.0
  9
$CHAMFERD
 40
0.0
  9
$SKPOLY
 70
     0
  9
$TDCREATE
 40
2457571.599971377
  9
$TDUCREATE
 40
2457571.516638044
  9
$TDUPDATE
 40
2457571.599971377
  9
$TDUUPDATE
 40
2457571.516638044
  9
$TDINDWG
 40
0.0000345486
  9
$TDUSRTIMER
 40
0.0000345486
  9
$USRTIMER
 70
     1
  9
$ANGBASE
 50
0.0
  9
$ANGDIR
 70
     0
  9
$PDMODE
 70
     0
  9
$PDSIZE
 40
0.0
  9
$PLINEWID
 40
0.0
  9
$SPLFRAME
 70
     0
  9
$SPLINETYPE
 70
     6
  9
$SPLINESEGS
 70
     8
  9
$HANDSEED
  5
334
  9
$SURFTAB1
 70
     6
  9
$SURFTAB2
 70
     6
  9
$SURFTYPE
 70
     6
  9
$SURFU
 70
     6
  9
$SURFV
 70
     6
  9
$UCSBASE
  2

  9
$UCSNAME
  2

  9
$UCSORG
 10
0.0
 20
0.0
 30
0.0
  9
$UCSXDIR
 10
1.0
 20
0.0
 30
0.0
  9
$UCSYDIR
 10
0.0
 20
1.0
 30
0.0
  9
$UCSORTHOREF
  2

  9
$UCSORTHOVIEW
 70
     0
  9
$UCSORGTOP
 10
0.0
 20
0.0
 30
0.0
  9
$UCSORGBOTTOM
 10
0.0
 20
0.0
 30
0.0
  9
$UCSORGLEFT
 10
0.0
 20
0.0
 30
0.0
  9
$UCSORGRIGHT
 10
0.0
 20
0.0
 30
0.0
  9
$UCSORGFRONT
 10
0.0
 20
0.0
 30
0.0
  9
$UCSORGBACK
 10
0.0
 20
0.0
 30
0.0
  9
$PUCSBASE
  2

  9
$PUCSNAME
  2

  9
$PUCSORG
 10
0.0
 20
0.0
 30
0.0
  9
$PUCSXDIR
 10
1.0
 20
0.0
 30
0.0
  9
$PUCSYDIR
 10
0.0
 20
1.0
 30
0.0
  9
$PUCSORTHOREF
  2

  9
$PUCSORTHOVIEW
 70
     0
  9
$PUCSORGTOP
 10
0.0
 20
0.0
 30
0.0
  9
$PUCSORGBOTTOM
 10
0.0
 20
0.0
 30
0.0
  9
$PUCSORGLEFT
 10
0.0
 20
0.0
 30
0.0
  9
$PUCSORGRIGHT
 10
0.0
 20
0.0
 30
0.0
  9
$PUCSORGFRONT
 10
0.0
 20
0.0
 30
0.0
  9
$PUCSORGBACK
 10
0.0
 20
0.0
 30
0.0
  9
$USERI1
 70
     0
  9
$USERI2
 70
     0
  9
$USERI3
 70
     0
  9
$USERI4
 70
     0
  9
$USERI5
 70
     0
  9
$USERR1
 40
0.0
  9
$USERR2
 40
0.0
  9
$USERR3
 40
0.0
  9
$USERR4
 40
0.0
  9
$USERR5
 40
0.0
  9
$WORLDVIEW
 70
     1
  9
$SHADEDGE
 70
     3
  9
$SHADEDIF
 70
    70
  9
$TILEMODE
 70
     1
  9
$MAXACTVP
 70
    64
  9
$PINSBASE
 10
0.0
 20
0.0
 30
0.0
  9
$PLIMCHECK
 70
     0
  9
$PEXTMIN
 10
1.000000000000000E+20
 20
1.000000000000000E+20
 30
1.000000000000000E+20
  9
$PEXTMAX
 10
-1.000000000000000E+20
 20
-1.000000000000000E+20
 30
-1.000000000000000E+20
  9
$PLIMMIN
 10
0.0
 20
0.0
  9
$PLIMMAX
 10
12.0
 20
9.0
  9
$UNITMODE
 70
     0
  9
$VISRETAIN
 70
     1
  9
$PLINEGEN
 70
     0
  9
$PSLTSCALE
 70
     1
  9
$TREEDEPTH
 70
  3020
  9
$CMLSTYLE
  2
Standard
  9
$CMLJUST
 70
     0
  9
$CMLSCALE
 40
1.0
  9
$PROXYGRAPHICS
 70
     1
  9
$MEASUREMENT
 70
     1
  9
$CELWEIGHT
370
    -1
  9
$ENDCAPS
280
     0
  9
$JOINSTYLE
280
     0
  9
$LWDISPLAY
290
     0
  9
$INSUNITS
 70
     4
  9
$HYPERLINKBASE
  1

  9
$STYLESHEET
  1

  9
$XEDIT
290
     1
  9
$CEPSNTYPE
380
     0
  9
$PSTYLEMODE
290
     1
  9
$FINGERPRINTGUID
  2
{2730D83C-CAB8-478F-A771-CE383FC70DF2}
  9
$VERSIONGUID
  2
{3840DA11-C545-497E-8056-972308CDE153}
  9
$EXTNAMES
290
     1
  9
$PSVPSCALE
 40
0.0
  9
$OLESTARTUP
290
     0
  9
$SORTENTS
280
   127
  9
$INDEXCTL
280
     0
  9
$HIDETEXT
280
     1
  9
$XCLIPFRAME
280
     2
  9
$HALOGAP
280
     0
  9
$OBSCOLOR
 70
   257
  9
$OBSLTYPE
280
     0
  9
$INTERSECTIONDISPLAY
280
     0
  9
$INTERSECTIONCOLOR
 70
   257
  9
$DIMASSOC
280
     2
  9
$PROJECTNAME
  1

  9
$CAMERADISPLAY
290
     0
  9
$LENSLENGTH
 40
50.0
  9
$CAMERAHEIGHT
 40
0.0
  9
$STEPSPERSEC
 40
2.0
  9
$STEPSIZE
 40
6.0
  9
$3DDWFPREC
 40
2.0
  9
$PSOLWIDTH
 40
0.25
  9
$PSOLHEIGHT
 40
4.0
  9
$LOFTANG1
 40
1.570796326794896
  9
$LOFTANG2
 40
1.570796326794896
  9
$LOFTMAG1
 40
0.0
  9
$LOFTMAG2
 40
0.0
  9
$LOFTPARAM
 70
     7
  9
$LOFTNORMALS
280
     1
  9
$LATITUDE
 40
37.795
  9
$LONGITUDE
 40
-122.394
  9
$NORTHDIRECTION
 40
0.0
  9
$TIMEZONE
 70
 -8000
  9
$LIGHTGLYPHDISPLAY
280
     1
  9
$TILEMODELIGHTSYNCH
280
     1
  9
$CMATERIAL
347
11
  9
$SOLIDHIST
280
     0
  9
$SHOWHIST
280
     1
  9
$DWFFRAME
280
     2
  9
$DGNFRAME
280
     0
  9
$REALWORLDSCALE
290
     1
  9
$INTERFERECOLOR
 62
     1
  9
$INTERFEREOBJVS
345
33
  9
$INTERFEREVPVS
346
30
  9
$CSHADOW
280
     0
  9
$SHADOWPLANELOCATION
 40
0.0
  0
ENDSEC
  0
SECTION
  2
CLASSES
  0
CLASS
  1
ACDBDICTIONARYWDFLT
  2
AcDbDictionaryWithDefault
  3
ObjectDBX Classes
 90
        0
 91
        1
280
     0
281
     0
  0
CLASS
  1
MATERIAL
  2
AcDbMaterial
  3
ObjectDBX Classes
 90
     1153
 91
        3
280
     0
281
     0
  0
CLASS
  1
VISUALSTYLE
  2
AcDbVisualStyle
  3
ObjectDBX Classes
 90
     4095
 91
       24
280
     0
281
     0
  0
CLASS
  1
SCALE
  2
AcDbScale
  3
ObjectDBX Classes
 90
     1153
 91
       17
280
     0
281
     0
  0
CLASS
  1
TABLESTYLE
  2
AcDbTableStyle
  3
ObjectDBX Classes
 90
     4095
 91
        1
280
     0
281
     0
  0
CLASS
  1
MLEADERSTYLE
  2
AcDbMLeaderStyle
  3
ACDB_MLEADERSTYLE_CLASS
 90
     4095
 91
        1
280
     0
281
     0
  0
CLASS
  1
ACDBSECTIONVIEWSTYLE
  2
AcDbSectionViewStyle
  3
ObjectDBX Classes
 90
     1025
 91
        1
280
     0
281
     0
  0
CLASS
  1
ACDBDETAILVIEWSTYLE
  2
AcDbDetailViewStyle
  3
ObjectDBX Classes
 90
     1025
 91
        1
280
     0
281
     0
  0
CLASS
  1
RASTERVARIABLES
  2
AcDbRasterVariables
  3
ISM
 90
        0
 91
        1
280
     0
281
     0
  0
CLASS
  1
DICTIONARYVAR
  2
AcDbDictionaryVar
  3
ObjectDBX Classes
 90
        0
 91
        5
280
     0
281
     0
  0
CLASS
  1
CELLSTYLEMAP
  2
AcDbCellStyleMap
  3
ObjectDBX Classes
 90
     1152
 91
        2
280
     0
281
     0
  0
CLASS
  1
SORTENTSTABLE
  2
AcDbSortentsTable
  3
ObjectDBX Classes
 90
        0
 91
        1
280
     0
281
     0
  0
ENDSEC
  0
SECTION
  2
TABLES
  0
TABLE
  2
VPORT
  5
8
330
0
100
AcDbSymbolTable
 70
     1
  0
VPORT
  5
57
330
8
100
AcDbSymbolTableRecord
100
AcDbViewportTableRecord
  2
*Active
 70
     0
 10
0.0
 20
0.0
 11
1.0
 21
1.0
 12
880.6215316061779
 22
1915.589993413371
 13
0.0
 23
0.0
 14
1.0
 24
1.0
 15
0.0
 25
0.0
 16
0.0
 26
0.0
 36
1.0
 17
0.0
 27
0.0
 37
0.0
 40
523.569453697434
 41
1.280986963539288
 42
50.0
 43
0.0
 44
0.0
 50
0.0
 51
0.0
 71
     0
 72
  1000
 73
     1
 74
     1
 75
     0
 76
     0
 77
     0
 78
     0
281
     0
 65
     1
110
0.0
120
0.0
130
0.0
111
1.0
121
0.0
131
0.0
112
0.0
122
1.0
132
0.0
 79
     0
146
0.0
 60
     3
 61
     5
292
     1
282
     1
141
0.0
142
0.0
 63
   250
421
  3355443
  0
ENDTAB
  0
TABLE
  2
LTYPE
  5
5
330
0
100
AcDbSymbolTable
 70
     3
  0
LTYPE
  5
5B
330
5
100
AcDbSymbolTableRecord
100
AcDbLinetypeTableRecord
  2
ByBlock
 70
     0
  3

 72
    65
 73
     0
 40
0.0
  0
LTYPE
  5
5C
330
5
100
AcDbSymbolTableRecord
100
AcDbLinetypeTableRecord
  2
ByLayer
 70
     0
  3

 72
    65
 73
     0
 40
0.0
  0
LTYPE
  5
5D
330
5
100
AcDbSymbolTableRecord
100
AcDbLinetypeTableRecord
  2
Continuous
 70
     0
  3
Solid line
 72
    65
 73
     0
 40
0.0
  0
LTYPE
  5
69
330
5
100
AcDbSymbolTableRecord
100
AcDbLinetypeTableRecord
  2
PHANTOM2
 70
     0
  3
___ _ _ ___ _ _ ___ _ _ ___ _ _
 72
    65
 73
     6
 40
1.25
 49
0.625
 74
     0
 49
-0.125
 74
     0
 49
0.125
 74
     0
 49
-0.125
 74
     0
 49
0.125
 74
     0
 49
-0.125
 74
     0
  0
LTYPE
  5
86
330
5
100
AcDbSymbolTableRecord
100
AcDbLinetypeTableRecord
  2
Nascosto 1_5 mm
 70
     0
  3

 72
    65
 73
     2
 40
2.2
 49
1.5
 74
     0
 49
-0.7000000000000001
 74
     0
  0
ENDTAB
  0
TABLE
  2
LAYER
  5
2
330
0
100
AcDbSymbolTable
 70
     4
  0
LAYER
  5
54
330
2
100
AcDbSymbolTableRecord
100
AcDbLayerTableRecord
  2
0
 70
     0
 62
     7
  6
Continuous
370
    -3
390
F
347
21
348
0
  0
LAYER
  5
85
330
2
100
AcDbSymbolTableRecord
100
AcDbLayerTableRecord
  2
P-SANR-FIXT
 70
     0
 62
     6
  6
Continuous
370
    18
390
F
347
21
348
0
  0
LAYER
  5
88
330
2
100
AcDbSymbolTableRecord
100
AcDbLayerTableRecord
  2
M-PIPE
 70
     0
 62
     3
  6
Continuous
370
    18
390
F
347
21
348
0
  0
ENDTAB
  0
TABLE
  2
STYLE
  5
3
330
0
100
AcDbSymbolTable
 70
     2
  0
STYLE
  5
55
330
3
100
AcDbSymbolTableRecord
100
AcDbTextStyleTableRecord
  2
Standard
 70
     0
 40
0.0
 41
1.0
 50
0.0
 71
     0
 42
0.2
  3
txt
  4

  0
STYLE
  5
5A
330
3
100
AcDbSymbolTableRecord
100
AcDbTextStyleTableRecord
  2
Annotative
 70
     0
 40
0.0
 41
1.0
 50
0.0
 71
     0
 42
0.2
  3
txt
  4

1001
AcadAnnotative
1000
AnnotativeData
1002
{
1070
     1
1070
     1
1002
}
  0
ENDTAB
  0
TABLE
  2
VIEW
  5
6
330
0
100
AcDbSymbolTable
 70
     0
  0
ENDTAB
  0
TABLE
  2
UCS
  5
7
330
0
100
AcDbSymbolTable
 70
     0
  0
ENDTAB
  0
TABLE
  2
APPID
  5
9
330
0
100
AcDbSymbolTable
 70
     3
  0
APPID
  5
56
330
9
100
AcDbSymbolTableRecord
100
AcDbRegAppTableRecord
  2
ACAD
 70
     0
  0
APPID
  5
5E
330
9
100
AcDbSymbolTableRecord
100
AcDbRegAppTableRecord
  2
AcadAnnotative
 70
     0
  0
APPID
  5
79
330
9
100
AcDbSymbolTableRecord
100
AcDbRegAppTableRecord
  2
REVIT
 70
     0
  0
ENDTAB
  0
TABLE
  2
DIMSTYLE
  5
A
330
0
100
AcDbSymbolTable
 70
     2
100
AcDbDimStyleTable
 71
     0
  0
DIMSTYLE
105
58
330
A
100
AcDbSymbolTableRecord
100
AcDbDimStyleTableRecord
  2
Standard
 70
     0
340
55
  0
DIMSTYLE
105
59
330
A
100
AcDbSymbolTableRecord
100
AcDbDimStyleTableRecord
  2
Annotative
 70
     0
340
55
1001
AcadAnnotative
1000
AnnotativeData
1002
{
1070
     1
1070
     1
1002
}
  0
ENDTAB
  0
TABLE
  2
BLOCK_RECORD
  5
1
330
0
100
AcDbSymbolTable
 70
     4
  0
BLOCK_RECORD
  5
71
102
{ACAD_XDICTIONARY
360
32F
102
}
330
1
100
AcDbSymbolTableRecord
100
AcDbBlockTableRecord
  2
*Model_Space
340
74
 70
     0
280
     1
281
     0
  0
BLOCK_RECORD
  5
6D
330
1
100
AcDbSymbolTableRecord
100
AcDbBlockTableRecord
  2
*Paper_Space
340
70
 70
     0
280
     1
281
     0
  0
BLOCK_RECORD
  5
75
330
1
100
AcDbSymbolTableRecord
100
AcDbBlockTableRecord
  2
*Paper_Space0
340
78
 70
     0
280
     1
281
     0
  0
BLOCK_RECORD
  5
87
330
1
100
AcDbSymbolTableRecord
100
AcDbBlockTableRecord
  2
Automatic flow rate regulator valve_Caleffi_121 DN15 - 1 1_2__-946934-Est - Idraulica
340
0
102
{BLKREFS
331
19A
102
}
 70
     0
280
     1
281
     0
  0
BLOCK_RECORD
  5
19B
330
1
100
AcDbSymbolTableRecord
100
AcDbBlockTableRecord
  2
Automatic flow rate regulator valve_Caleffi_121 DN15 - 1 1_2__-V1-Est - Idraulica
340
0
102
{BLKREFS
331
291
102
}
 70
     0
280
     1
281
     0
  0
BLOCK_RECORD
  5
292
330
1
100
AcDbSymbolTableRecord
100
AcDbBlockTableRecord
  2
Automatic flow rate regulator valve_Caleffi_121 DN15 - 1 1_2__-V2-Est - Idraulica
340
0
102
{BLKREFS
331
328
102
}
 70
     0
280
     1
281
     0
  0
ENDTAB
  0
ENDSEC
  0
SECTION
  2
BLOCKS
  0
BLOCK
  5
72
330
71
100
AcDbEntity
  8
0
100
AcDbBlockBegin
  2
*Model_Space
 70
     0
 10
0.0
 20
0.0
 30
0.0
  3
*Model_Space
  1

  0
ENDBLK
  5
73
330
71
100
AcDbEntity
  8
0
100
AcDbBlockEnd
  0
BLOCK
  5
6E
330
6D
100
AcDbEntity
 67
     1
  8
0
100
AcDbBlockBegin
  2
*Paper_Space
 70
     0
 10
0.0
 20
0.0
 30
0.0
  3
*Paper_Space
  1

  0
ENDBLK
  5
6F
330
6D
100
AcDbEntity
 67
     1
  8
0
100
AcDbBlockEnd
  0
BLOCK
  5
76
330
75
100
AcDbEntity
 67
     1
  8
0
100
AcDbBlockBegin
  2
*Paper_Space0
 70
     0
 10
0.0
 20
0.0
 30
0.0
  3
*Paper_Space0
  1

  0
ENDBLK
  5
77
330
75
100
AcDbEntity
 67
     1
  8
0
100
AcDbBlockEnd
  0
BLOCK
  5
198
330
87
100
AcDbEntity
  8
0
100
AcDbBlockBegin
  2
Automatic flow rate regulator valve_Caleffi_121 DN15 - 1 1_2__-946934-Est - Idraulica
 70
     0
 10
0.0
 20
0.0
 30
0.0
  3
Automatic flow rate regulator valve_Caleffi_121 DN15 - 1 1_2__-946934-Est - Idraulica
  1

  0
LWPOLYLINE
  5
89
330
87
100
AcDbEntity
  8
M-PIPE
100
AcDbPolyline
 90
        3
 70
   128
 43
0.0
 10
588.1639473696378
 20
2108.750177039343
 10
585.0788281399164
 20
2120.345988367679
 10
584.0241231980222
 20
2124.802337511631
1001
REVIT
1002
{
1070
     3
1000
923097
1002
}
  0
LWPOLYLINE
  5
8A
330
87
100
AcDbEntity
  8
M-PIPE
100
AcDbPolyline
 90
        3
 70
   128
 43
0.0
 10
643.412696831692
 20
2146.418010569812
 10
648.6682721135222
 20
2135.630993860778
 10
650.5595373898227
 20
2131.460314556166
1001
REVIT
1002
{
1070
     3
1000
923097
1002
}
  0
ELLIPSE
  5
8B
330
87
100
AcDbEntity
  8
M-PIPE
100
AcDbEllipse
 10
561.7247959507361
 20
2077.104975757228
 30
0.0
 11
-102.6060429976968
 21
281.907786235774
 31
0.0
210
0.0
220
0.0
230
0.9999999999999998
 40
0.2588190451030421
 41
4.791451455487143
 42
4.836688948174556
1001
REVIT
1002
{
1070
     3
1000
923097
1002
}
  0
LINE
  5
8C
330
87
100
AcDbEntity
  8
M-PIPE
100
AcDbLine
 10
626.356138256358
 20
2125.843531020922
 30
0.0
 11
610.3152256431611
 21
2120.005116299254
 31
0.0
1001
REVIT
1002
{
1070
     3
1000
923097
1002
}
  0
ELLIPSE
  5
8D
330
87
100
AcDbEntity
  8
M-PIPE
100
AcDbEllipse
 10
691.1542457052295
 20
2124.213442905313
 30
0.0
 11
-102.606042997693
 21
281.9077862357755
 31
0.0
210
0.0
220
0.0
230
0.9999999999999998
 40
0.2588190451030393
 41
1.446496359005032
 42
1.491733851692444
1001
REVIT
1002
{
1070
     3
1000
923097
1002
}
  0
LINE
  5
8E
330
87
100
AcDbEntity
  8
M-PIPE
100
AcDbLine
 10
606.032963055906
 20
2132.812900110633
 30
0.0
 11
584.0241231980204
 21
2124.802337511632
 31
0.0
1001
REVIT
1002
{
1070
     3
1000
923097
1002
}
  0
LINE
  5
8F
330
87
100
AcDbEntity
  8
M-PIPE
100
AcDbLine
 10
606.0329630559058
 20
2132.812900110633
 30
0.0
 11
606.0543164139237
 21
2132.820672097353
 31
0.0
1001
REVIT
1002
{
1070
     3
1000
923097
1002
}
  0
LINE
  5
90
330
87
100
AcDbEntity
  8
M-PIPE
100
AcDbLine
 10
621.3825036157865
 20
2138.399675984091
 30
0.0
 11
621.4038569738043
 21
2138.407447970811
 31
0.0
1001
REVIT
1002
{
1070
     3
1000
923097
1002
}
  0
LINE
  5
91
330
87
100
AcDbEntity
  8
M-PIPE
100
AcDbLine
 10
643.4126968316905
 20
2146.418010569812
 30
0.0
 11
621.4038569738053
 21
2138.407447970809
 31
0.0
1001
REVIT
1002
{
1070
     3
1000
923097
1002
}
  0
LINE
  5
92
330
87
100
AcDbEntity
  8
M-PIPE
100
AcDbLine
 10
611.1609767190984
 20
2120.312944516495
 30
0.0
 11
606.5437047841941
 21
2132.998794897128
 31
0.0
1001
REVIT
1002
{
1070
     3
1000
923097
1002
}
  0
LINE
  5
93
330
87
100
AcDbEntity
  8
M-PIPE
100
AcDbLine
 10
620.8931152455176
 20
2138.221553184317
 30
0.0
 11
625.510387180422
 21
2125.535702803686
 31
0.0
1001
REVIT
1002
{
1070
     3
1000
923097
1002
}
  0
LINE
  5
94
330
87
100
AcDbEntity
  8
M-PIPE
100
AcDbLine
 10
670.0774899180507
 20
2087.483735231397
 30
0.0
 11
668.7094093447545
 21
2091.242505714523
 31
0.0
1001
REVIT
1002
{
1070
     3
1000
923097
1002
}
  0
LINE
  5
95
330
87
100
AcDbEntity
  8
M-PIPE
100
AcDbLine
 10
600.1118480273917
 20
2066.275035251752
 30
0.0
 11
601.4799286006876
 21
2062.516264768627
 31
0.0
1001
REVIT
1002
{
1070
     3
1000
923097
1002
}
  0
LWPOLYLINE
  5
96
330
87
100
AcDbEntity
  8
M-PIPE
100
AcDbPolyline
 90
        4
 70
   128
 43
0.0
 10
598.3568378594387
 20
2078.406397059515
 10
594.0534814368535
 20
2089.607375790151
 10
590.2014869220828
 20
2100.971483290617
 10
587.8820395834124
 20
2108.647570996327
1001
REVIT
1002
{
1070
     3
1000
923097
1002
}
  0
LWPOLYLINE
  5
97
330
87
100
AcDbEntity
  8
M-PIPE
100
AcDbPolyline
 90
        4
 70
   128
 43
0.0
 10
650.8414451760626
 20
2131.562920599145
 10
655.4926460127757
 20
2120.501856825685
 10
659.6978018092248
 20
2109.263642298833
 10
662.2559360728786
 20
2101.663766805659
1001
REVIT
1002
{
1070
     3
1000
923097
1002
}
  0
LINE
  5
98
330
87
100
AcDbEntity
  8
M-PIPE
100
AcDbLine
 10
601.4799286006862
 20
2062.516264768627
 30
0.0
 11
670.0774899180493
 21
2087.483735231396
 31
0.0
1001
REVIT
1002
{
1070
     3
1000
923097
1002
}
  0
LINE
  5
99
330
87
100
AcDbEntity
  8
M-PIPE
100
AcDbLine
 10
668.7094093447532
 20
2091.242505714522
 30
0.0
 11
667.29987041359
 21
2090.729475499539
 31
0.0
1001
REVIT
1002
{
1070
     3
1000
923097
1002
}
  0
LINE
  5
9A
330
87
100
AcDbEntity
  8
M-PIPE
100
AcDbLine
 10
667.2998704135893
 20
2090.729475499539
 30
0.0
 11
663.1956286936749
 21
2102.005786948988
 31
0.0
1001
REVIT
1002
{
1070
     3
1000
923097
1002
}
  0
LINE
  5
9B
330
87
100
AcDbEntity
  8
M-PIPE
100
AcDbLine
 10
660.4438766120887
 20
2101.00423109921
 30
0.0
 11
664.5481183320031
 21
2089.727919649762
 31
0.0
1001
REVIT
1002
{
1070
     3
1000
923097
1002
}
  0
LINE
  5
9C
330
87
100
AcDbEntity
  8
M-PIPE
100
AcDbLine
 10
664.5481183320015
 20
2089.727919649761
 30
0.0
 11
650.7855507473752
 21
2084.71875470188
 31
0.0
1001
REVIT
1002
{
1070
     3
1000
923097
1002
}
  0
LINE
  5
9D
330
87
100
AcDbEntity
  8
M-PIPE
100
AcDbLine
 10
650.7855507473728
 20
2084.71875470188
 30
0.0
 11
646.6813090274584
 21
2095.995066151328
 31
0.0
1001
REVIT
1002
{
1070
     3
1000
923097
1002
}
  0
LINE
  5
9E
330
87
100
AcDbEntity
  8
M-PIPE
100
AcDbLine
 10
640.0379918317983
 20
2093.577096435319
 30
0.0
 11
644.1422335517127
 21
2082.30078498587
 31
0.0
1001
REVIT
1002
{
1070
     3
1000
923097
1002
}
  0
LINE
  5
9F
330
87
100
AcDbEntity
  8
M-PIPE
100
AcDbLine
 10
644.1422335517099
 20
2082.300784985869
 30
0.0
 11
624.6790238204318
 21
2075.216755980404
 31
0.0
1001
REVIT
1002
{
1070
     3
1000
923097
1002
}
  0
LINE
  5
A0
330
87
100
AcDbEntity
  8
M-PIPE
100
AcDbLine
 10
624.6790238204292
 20
2075.216755980403
 30
0.0
 11
620.5747821005148
 21
2086.493067429852
 31
0.0
1001
REVIT
1002
{
1070
     3
1000
923097
1002
}
  0
LINE
  5
A1
330
87
100
AcDbEntity
  8
M-PIPE
100
AcDbLine
 10
613.9314649049035
 20
2084.07509771386
 30
0.0
 11
618.035706624818
 21
2072.798786264411
 31
0.0
1001
REVIT
1002
{
1070
     3
1000
923097
1002
}
  0
LINE
  5
A2
330
87
100
AcDbEntity
  8
M-PIPE
100
AcDbLine
 10
618.0357066248172
 20
2072.798786264411
 30
0.0
 11
604.2731390401134
 21
2067.789621316503
 31
0.0
1001
REVIT
1002
{
1070
     3
1000
923097
1002
}
  0
LINE
  5
A3
330
87
100
AcDbEntity
  8
M-PIPE
100
AcDbLine
 10
604.2731390401134
 20
2067.789621316503
 30
0.0
 11
600.1688973201988
 21
2079.065932765951
 31
0.0
1001
REVIT
1002
{
1070
     3
1000
923097
1002
}
  0
LINE
  5
A4
330
87
100
AcDbEntity
  8
M-PIPE
100
AcDbLine
 10
597.417145238661
 20
2078.064376916191
 30
0.0
 11
601.5213869585758
 21
2066.788065466742
 31
0.0
1001
REVIT
1002
{
1070
     3
1000
923097
1002
}
  0
LINE
  5
A5
330
87
100
AcDbEntity
  8
M-PIPE
100
AcDbLine
 10
601.5213869585762
 20
2066.788065466742
 30
0.0
 11
600.1118480273902
 21
2066.275035251752
 31
0.0
1001
REVIT
1002
{
1070
     3
1000
923097
1002
}
  0
LINE
  5
A6
330
87
100
AcDbEntity
  8
M-PIPE
100
AcDbLine
 10
600.1688973201992
 20
2079.065932765951
 30
0.0
 11
597.4171452386618
 21
2078.064376916192
 31
0.0
1001
REVIT
1002
{
1070
     3
1000
923097
1002
}
  0
LINE
  5
A7
330
87
100
AcDbEntity
  8
M-PIPE
100
AcDbLine
 10
600.1688973201991
 20
2079.065932765951
 30
0.0
 11
613.9314649049033
 21
2084.07509771386
 31
0.0
1001
REVIT
1002
{
1070
     3
1000
923097
1002
}
  0
LINE
  5
A8
330
87
100
AcDbEntity
  8
M-PIPE
100
AcDbLine
 10
620.5747821005175
 20
2086.493067429853
 30
0.0
 11
613.9314649049034
 21
2084.07509771386
 31
0.0
1001
REVIT
1002
{
1070
     3
1000
923097
1002
}
  0
LINE
  5
A9
330
87
100
AcDbEntity
  8
M-PIPE
100
AcDbLine
 10
620.5747821005172
 20
2086.493067429853
 30
0.0
 11
640.0379918317964
 21
2093.577096435318
 31
0.0
1001
REVIT
1002
{
1070
     3
1000
923097
1002
}
  0
LINE
  5
AA
330
87
100
AcDbEntity
  8
M-PIPE
100
AcDbLine
 10
646.6813090274609
 20
2095.995066151329
 30
0.0
 11
640.0379918317966
 21
2093.577096435318
 31
0.0
1001
REVIT
1002
{
1070
     3
1000
923097
1002
}
  0
LINE
  5
AB
330
87
100
AcDbEntity
  8
M-PIPE
100
AcDbLine
 10
646.6813090274607
 20
2095.995066151329
 30
0.0
 11
660.4438766120876
 21
2101.00423109921
 31
0.0
1001
REVIT
1002
{
1070
     3
1000
923097
1002
}
  0
LINE
  5
AC
330
87
100
AcDbEntity
  8
M-PIPE
100
AcDbLine
 10
663.1956286936755
 20
2102.005786948988
 30
0.0
 11
660.4438766120878
 21
2101.00423109921
 31
0.0
1001
REVIT
1002
{
1070
     3
1000
923097
1002
}
  0
LINE
  5
AD
330
87
100
AcDbEntity
  8
M-PIPE
100
AcDbLine
 10
650.8414451760613
 20
2131.562920599143
 30
0.0
 11
587.8820395834111
 21
2108.647570996327
 31
0.0
1001
REVIT
1002
{
1070
     3
1000
923097
1002
}
  0
LINE
  5
AE
330
87
100
AcDbEntity
  8
P-SANR-FIXT
100
AcDbLine
 10
693.3784275062245
 20
2072.077047875456
 30
0.0
 11
692.6157957173565
 21
2071.67154936043
 31
0.0
  0
LINE
  5
AF
330
87
100
AcDbEntity
  8
P-SANR-FIXT
100
AcDbLine
 10
709.9185062442248
 20
2066.710076955731
 30
0.0
 11
709.4866392823372
 21
2067.45809247583
 31
0.0
  0
LINE
  5
B0
330
87
100
AcDbEntity
  8
P-SANR-FIXT
100
AcDbLine
 10
692.6157957173564
 20
2071.67154936043
 30
0.0
 11
691.1273539959441
 21
2066.480736202362
 31
0.0
  0
LINE
  5
B1
330
87
100
AcDbEntity
  8
P-SANR-FIXT
100
AcDbLine
 10
708.4300645228126
 20
2061.519263797662
 30
0.0
 11
709.9185062442249
 21
2066.710076955731
 31
0.0
  0
LINE
  5
B2
330
87
100
AcDbEntity
  8
P-SANR-FIXT
100
AcDbLine
 10
708.4300645228111
 20
2061.519263797661
 30
0.0
 11
691.1273539959426
 21
2066.480736202362
 31
0.0
  0
LINE
  5
B3
330
87
100
AcDbEntity
  8
P-SANR-FIXT
100
AcDbLine
 10
693.3784275062231
 20
2072.077047875456
 30
0.0
 11
709.4866392823355
 21
2067.458092475829
 31
0.0
  0
LINE
  5
B4
330
87
100
AcDbEntity
  8
P-SANR-FIXT
100
AcDbLine
 10
692.6157957173549
 20
2071.67154936043
 30
0.0
 11
709.9185062442233
 21
2066.710076955729
 31
0.0
  0
LWPOLYLINE
  5
B5
330
87
100
AcDbEntity
  8
P-SANR-FIXT
100
AcDbPolyline
 90
        7
 70
   128
 43
0.0
 10
600.906807406333
 20
2172.450431294289
 10
604.5129720989207
 20
2173.681869656827
 10
608.2137765063178
 20
2174.782473099909
 10
611.9556330638125
 20
2175.734203473422
 10
615.7325555991335
 20
2176.535538211793
 10
619.5385018419244
 20
2177.185195350382
 10
620.416007109238
 20
2177.312860456082
  0
LWPOLYLINE
  5
B6
330
87
100
AcDbEntity
  8
P-SANR-FIXT
100
AcDbPolyline
 90
        7
 70
   128
 43
0.0
 10
581.7817828600208
 20
2163.251152805401
 10
585.0968566027865
 20
2165.230437342995
 10
588.4884289109713
 20
2167.075571072319
 10
591.9510739923788
 20
2168.783602173013
 10
595.4792523535372
 20
2170.351798159677
 10
599.0673196617064
 20
2171.777650253262
 10
599.8991841156979
 20
2172.084758383343
  0
LWPOLYLINE
  5
B7
330
87
100
AcDbEntity
  8
P-SANR-FIXT
100
AcDbPolyline
 90
       80
 70
   128
 43
0.0
 10
599.8991841156973
 20
2172.084758383343
 10
599.8995680469918
 20
2172.084898122906
 10
599.900719226667
 20
2172.085317118042
 10
599.9026358130812
 20
2172.086014698448
 10
599.9053147401048
 20
2172.086989748145
 10
599.908751722026
 20
2172.088240707259
 10
599.9129412604069
 20
2172.089765574526
 10
599.9178766528802
 20
2172.09156191048
 10
599.9235500038702
 20
2172.09362684137
 10
599.929952237226
 20
2172.095957063743
 10
599.9370731107397
 20
2172.098548849744
 10
599.9449012325329
 20
2172.101398053067
 10
599.9534240792806
 20
2172.104500115595
 10
599.962628016246
 20
2172.107850074688
 10
599.9724983190937
 20
2172.111442571128
 10
599.9830191974441
 20
2172.115271857686
 10
599.9941738201368
 20
2172.119331808321
 10
600.0059443421546
 20
2172.123615927977
 10
600.0183119331731
 20
2172.128117362977
 10
600.0312568076854
 20
2172.132828911986
 10
600.0447582566533
 20
2172.137743037529
 10
600.058794680639
 20
2172.142851878056
 10
600.073343624358
 20
2172.148147260509
 10
600.0883818126043
 20
2172.153620713409
 10
600.1038851874843
 20
2172.159263480395
 10
600.1198289469058
 20
2172.165066534248
 10
600.1361875842544
 20
2172.171020591315
 10
600.1529349292008
 20
2172.177116126379
 10
600.1700441895646
 20
2172.183343387882
 10
600.1874879941798
 20
2172.189692413534
 10
600.2052384366801
 20
2172.196153046249
 10
600.2232671201437
 20
2172.202714950393
 10
600.241545202523
 20
2172.209367628318
 10
600.2600434427858
 20
2172.216100437161
 10
600.278732247693
 20
2172.222902605861
 10
600.2975817191443
 20
2172.229763252401
 10
600.3165617020057
 20
2172.23667140121
 10
600.335641832354
 20
2172.243616000722
 10
600.3547915860504
 20
2172.250585941061
 10
600.3739803275742
 20
2172.257570071808
 10
600.3931773590326
 20
2172.264557219845
 10
600.4123519692702
 20
2172.271536207226
 10
600.4314734830009
 20
2172.278495869058
 10
600.4505113098818
 20
2172.285425071368
 10
600.4694349934513
 20
2172.292312728909
 10
600.4882142598522
 20
2172.299147822901
 10
600.5068190662645
 20
2172.305919418649
 10
600.5252196489667
 20
2172.312616683046
 10
600.5433865709518
 20
2172.319228901897
 10
600.5612907690201
 20
2172.325745497062
 10
600.5789036002737
 20
2172.332156043379
 10
600.59619688794
 20
2172.338450285343
 10
600.613142966448
 20
2172.344618153507
 10
600.6297147256868
 20
2172.350649780599
 10
600.6458856543765
 20
2172.356535517304
 10
600.6616298824813
 20
2172.362265947695
 10
600.6769222225945
 20
2172.367831904308
 10
600.6917382102344
 20
2172.3732244828
 10
600.7060541429811
 20
2172.378435056196
 10
600.719847118396
 20
2172.383455288689
 10
600.7330950706611
 20
2172.388277148979
 10
600.7457768058787
 20
2172.392892923116
 10
600.7578720359779
 20
2172.397295226849
 10
600.7693614111705
 20
2172.40147701743
 10
600.780226550907
 20
2172.405431604885
 10
600.7904500732819
 20
2172.409152662718
 10
600.8000156228401
 20
2172.412634238032
 10
600.8089078967433
 20
2172.415870761048
 10
600.8171126692495
 20
2172.418857054019
 10
600.8246168144735
 20
2172.421588339514
 10
600.8314083273835
 20
2172.424060248059
 10
600.8374763430075
 20
2172.426268825127
 10
600.8428111538153
 20
2172.428210537467
 10
600.8474042252474
 20
2172.429882278752
 10
600.8512482093691
 20
2172.431281374553
 10
600.854336956626
 20
2172.432405586615
 10
600.8566655256815
 20
2172.43325311644
 10
600.8582301913219
 20
2172.43382260816
 10
600.8590284504157
 20
2172.43411315071
 10
600.859140339211
 20
2172.434153874901
  0
LWPOLYLINE
  5
B8
330
87
100
AcDbEntity
  8
P-SANR-FIXT
100
AcDbPolyline
 90
       80
 70
   128
 43
0.0
 10
600.859140339211
 20
2172.434153874901
 10
600.8587564079166
 20
2172.434014135337
 10
600.8576052282414
 20
2172.433595140201
 10
600.8556886418273
 20
2172.432897559795
 10
600.8530097148039
 20
2172.431922510099
 10
600.8495727328826
 20
2172.430671550984
 10
600.8453831945015
 20
2172.429146683718
 10
600.8404478020285
 20
2172.427350347763
 10
600.8347744510381
 20
2172.425285416874
 10
600.8283722176822
 20
2172.4229551945
 10
600.8212513441685
 20
2172.420363408499
 10
600.8134232223754
 20
2172.417514205176
 10
600.8049003756278
 20
2172.414412142648
 10
600.7956964386623
 20
2172.411062183555
 10
600.7858261358149
 20
2172.407469687115
 10
600.7753052574644
 20
2172.403640400558
 10
600.7641506347717
 20
2172.399580449923
 10
600.752380112754
 20
2172.395296330266
 10
600.7400125217355
 20
2172.390794895266
 10
600.7270676472232
 20
2172.386083346257
 10
600.7135661982551
 20
2172.381169220714
 10
600.6995297742697
 20
2172.376060380187
 10
600.6849808305504
 20
2172.370764997733
 10
600.6699426423042
 20
2172.365291544835
 10
600.6544392674242
 20
2172.359648777848
 10
600.6384955080027
 20
2172.353845723996
 10
600.6221368706539
 20
2172.347891666928
 10
600.6053895257077
 20
2172.341796131865
 10
600.5882802653437
 20
2172.335568870362
 10
600.5708364607286
 20
2172.329219844709
 10
600.5530860182284
 20
2172.322759211994
 10
600.5350573347648
 20
2172.31619730785
 10
600.5167792523853
 20
2172.309544629925
 10
600.4982810121227
 20
2172.302811821083
 10
600.4795922072154
 20
2172.296009652383
 10
600.4607427357642
 20
2172.289149005843
 10
600.4417627529028
 20
2172.282240857035
 10
600.4226826225545
 20
2172.275296257522
 10
600.403532868858
 20
2172.268326317183
 10
600.3843441273342
 20
2172.261342186435
 10
600.3651470958758
 20
2172.254355038397
 10
600.3459724856384
 20
2172.247376051018
 10
600.3268509719076
 20
2172.240416389186
 10
600.3078131450267
 20
2172.233487186876
 10
600.2888894614573
 20
2172.226599529334
 10
600.2701101950561
 20
2172.219764435343
 10
600.2515053886439
 20
2172.212992839595
 10
600.2331048059415
 20
2172.206295575197
 10
600.2149378839567
 20
2172.199683356347
 10
600.1970336858883
 20
2172.193166761182
 10
600.1794208546348
 20
2172.186756214864
 10
600.1621275669684
 20
2172.180461972901
 10
600.1451814884606
 20
2172.174294104737
 10
600.1286097292219
 20
2172.168262477644
 10
600.112438800532
 20
2172.16237674094
 10
600.0966945724272
 20
2172.156646310549
 10
600.0814022323139
 20
2172.151080353936
 10
600.0665862446742
 20
2172.145687775443
 10
600.0522703119274
 20
2172.140477202048
 10
600.0384773365125
 20
2172.135456969555
 10
600.0252293842473
 20
2172.130635109265
 10
600.0125476490296
 20
2172.126019335127
 10
600.0004524189308
 20
2172.121617031394
 10
599.9889630437381
 20
2172.117435240814
 10
599.9780979040015
 20
2172.113480653359
 10
599.9678743816265
 20
2172.109759595525
 10
599.958308832068
 20
2172.106278020212
 10
599.9494165581652
 20
2172.103041497196
 10
599.9412117856588
 20
2172.100055204224
 10
599.9337076404349
 20
2172.097323918729
 10
599.9269161275249
 20
2172.094852010184
 10
599.9208481119008
 20
2172.092643433117
 10
599.9155133010933
 20
2172.090701720777
 10
599.9109202296614
 20
2172.089029979491
 10
599.9070762455396
 20
2172.087630883691
 10
599.9039874982825
 20
2172.086506671627
 10
599.9016589292268
 20
2172.085659141803
 10
599.9000942635866
 20
2172.085089650083
 10
599.8992960044928
 20
2172.084799107534
 10
599.8991841156973
 20
2172.084758383343
  0
LWPOLYLINE
  5
B9
330
87
100
AcDbEntity
  8
P-SANR-FIXT
100
AcDbPolyline
 90
       30
 70
   128
 43
0.0
 10
620.416007109238
 20
2177.312860456082
 10
620.6727013147873
 20
2177.343781156749
 10
620.9304266905835
 20
2177.364412093784
 10
621.188770931004
 20
2177.374720262089
 10
621.4473207403746
 20
2177.374689170793
 10
621.7056624941548
 20
2177.364318869637
 10
621.9633829006483
 20
2177.343625948889
 10
622.2200696621822
 20
2177.312643512808
 10
622.4753121346951
 20
2177.271421126683
 10
622.7287019846795
 20
2177.220024737539
 10
622.9798338424294
 20
2177.158536568633
 10
623.2283059505443
 20
2177.08705498792
 10
623.4737208066555
 20
2177.005694350679
 10
623.7156857993455
 20
2176.914584816575
 10
623.9538138362429
 20
2176.813872141426
 10
624.1877239632864
 20
2176.703717444028
 10
624.4170419741711
 20
2176.5842969484
 10
624.6414010089976
 20
2176.455801701857
 10
624.8604421411713
 20
2176.318437269385
 10
625.0738149516071
 20
2176.172423404773
 10
625.281178089325
 20
2176.017993699055
 10
625.4821998175401
 20
2175.855395206818
 10
625.6765585443696
 20
2175.684888050964
 10
625.8639433373113
 20
2175.506745006569
 10
626.0440544206701
 20
2175.321251064502
 10
626.216603655134
 20
2175.1287029755
 10
626.3813149987365
 20
2174.929408775431
 10
626.5379249484643
 20
2174.723687292503
 10
626.6861829618067
 20
2174.511867637201
 10
626.6944628513138
 20
2174.499488653316
  0
LWPOLYLINE
  5
BA
330
87
100
AcDbEntity
  8
P-SANR-FIXT
100
AcDbPolyline
 90
       30
 70
   128
 43
0.0
 10
578.7806072636941
 20
2157.060271410494
 10
578.7574311052035
 20
2157.317780382317
 10
578.7445710974982
 20
2157.576010173578
 10
578.7420478138468
 20
2157.834547671693
 10
578.7498652909653
 20
2158.092979271819
 10
578.7680110225577
 20
2158.350891538525
 10
578.7964559793245
 20
2158.607871867202
 10
578.8351546554025
 20
2158.863509144143
 10
578.8840451411656
 20
2159.117394404239
 10
578.9430492222658
 20
2159.369121485234
 10
579.0120725047602
 20
2159.618287677495
 10
579.0910045661211
 20
2159.864494368268
 10
579.179719131888
 20
2160.107347679369
 10
579.2780742776809
 20
2160.346459097308
 10
579.3859126562474
 20
2160.581446094821
 10
579.5030617491867
 20
2160.811932742842
 10
579.6293341429397
 20
2161.037550311901
 10
579.7645278286137
 20
2161.257937862017
 10
579.9084265251511
 20
2161.472742820123
 10
580.0608000253344
 20
2161.68162154411
 10
580.2214045640678
 20
2161.884239872576
 10
580.3899832083499
 20
2162.08027365942
 10
580.5662662683111
 20
2162.269409292401
 10
580.7499717286608
 20
2162.451344194852
 10
580.9408056998509
 20
2162.625787309741
 10
581.1384628882364
 20
2162.792459565295
 10
581.3426270844805
 20
2162.951094321463
 10
581.5529716694219
 20
2163.101437796473
 10
581.7691601365957
 20
2163.243249472837
 10
581.7817828600206
 20
2163.251152805401
  0
LWPOLYLINE
  5
BB
330
87
100
AcDbEntity
  8
P-SANR-FIXT
100
AcDbPolyline
 90
        4
 70
   128
 43
0.0
 10
626.694462851314
 20
2174.499488653316
 10
633.2866639380309
 20
2164.177794692674
 10
639.4608342978448
 20
2153.600739253995
 10
643.3505021475704
 20
2146.395373556064
  0
LWPOLYLINE
  5
BC
330
87
100
AcDbEntity
  8
P-SANR-FIXT
100
AcDbPolyline
 90
        3
 70
   128
 43
0.0
 10
584.0848459549518
 20
2124.832368526128
 10
581.6951763935171
 20
2136.836507473605
 10
580.8760366437273
 20
2142.027770936769
  0
LWPOLYLINE
  5
BD
330
87
100
AcDbEntity
  8
P-SANR-FIXT
100
AcDbPolyline
 90
        3
 70
   128
 43
0.0
 10
580.8665355320132
 20
2142.087983829762
 10
579.7862807682011
 20
2148.934052632707
 10
578.780607263694
 20
2157.060271410494
  0
SPLINE
  5
BE
330
87
100
AcDbEntity
  8
P-SANR-FIXT
100
AcDbSpline
210
0.0
220
0.0
230
1.0
 70
     8
 71
     3
 72
     9
 73
     5
 74
     0
 42
0.000000001
 43
0.0000000001
 40
0.0
 40
0.0
 40
0.0
 40
0.0
 40
0.5
 40
1.0
 40
1.0
 40
1.0
 40
1.0
 10
582.3977853587191
 20
2158.376816569122
 30
0.0
 10
582.2419026715876
 20
2158.455243147716
 30
0.0
 10
581.9533579091281
 20
2158.485384679675
 30
0.0
 10
581.7130002559093
 20
2158.262738411577
 30
0.0
 10
581.6053735564933
 20
2158.08840225983
 30
0.0
  0
SPLINE
  5
BF
330
87
100
AcDbEntity
  8
P-SANR-FIXT
100
AcDbSpline
210
0.0
220
0.0
230
1.0
 70
     8
 71
     3
 72
     9
 73
     5
 74
     0
 42
0.000000001
 43
0.0000000001
 40
0.0
 40
0.0
 40
0.0
 40
0.0
 40
0.5
 40
1.0
 40
1.0
 40
1.0
 40
1.0
 10
603.5299468605062
 20
2166.068294341478
 30
0.0
 10
603.2229968466879
 20
2166.091736910038
 30
0.0
 10
602.6506538034758
 20
2166.018584315518
 30
0.0
 10
602.165192014291
 20
2165.706727437383
 30
0.0
 10
601.9451232544999
 20
2165.49146572233
 30
0.0
  0
SPLINE
  5
C0
330
87
100
AcDbEntity
  8
P-SANR-FIXT
100
AcDbSpline
210
0.0
220
0.0
230
1.0
 70
     8
 71
     3
 72
     9
 73
     5
 74
     0
 42
0.000000001
 43
0.0000000001
 40
0.0
 40
0.0
 40
0.0
 40
0.0
 40
0.5
 40
1.0
 40
1.0
 40
1.0
 40
1.0
 10
623.8696965585071
 20
2173.471357803975
 30
0.0
 10
623.6751886052267
 20
2173.5357259354
 30
0.0
 10
623.3479496981452
 20
2173.551783950477
 30
0.0
 10
623.1462861895543
 20
2173.343221199265
 30
0.0
 10
623.0772847562901
 20
2173.182943494687
 30
0.0
  0
SPLINE
  5
C1
330
87
100
AcDbEntity
  8
P-SANR-FIXT
100
AcDbSpline
210
0.0
220
0.0
230
1.0
 70
     8
 71
     3
 72
    23
 73
    19
 74
     0
 42
0.000000001
 43
0.0000000001
 40
0.0
 40
0.0
 40
0.0
 40
0.0
 40
0.25
 40
0.3125
 40
0.375
 40
0.4375
 40
0.46875
 40
0.5
 40
0.53125
 40
0.5625
 40
0.625
 40
0.6875
 40
0.71875
 40
0.75
 40
0.78125
 40
0.8125
 40
0.875
 40
1.0
 40
1.0
 40
1.0
 40
1.0
 10
640.7134204307077
 20
2149.292573561294
 30
0.0
 10
639.5099371467049
 20
2151.514509480716
 30
0.0
 10
637.9432322045929
 20
2154.254130244219
 30
0.0
 10
635.9987305339321
 20
2157.505467795946
 30
0.0
 10
635.0171175089644
 20
2159.126681859127
 30
0.0
 10
634.182699216697
 20
2160.465424070403
 30
0.0
 10
633.5035990673032
 20
2161.527303736642
 30
0.0
 10
632.9853134392525
 20
2162.315165708806
 30
0.0
 10
632.467368280723
 20
2163.106432025597
 30
0.0
 10
631.7838108735933
 20
2164.174045262788
 30
0.0
 10
630.9245773554462
 20
2165.507982124259
 30
0.0
 10
630.0310323042907
 20
2166.799688145224
 30
0.0
 10
629.2819743975449
 20
2167.783859107214
 30
0.0
 10
628.6988735920498
 20
2168.489039370504
 30
0.0
 10
628.100004506809
 20
2169.16659329697
 30
0.0
 10
627.293082893007
 20
2170.048645491261
 30
0.0
 10
625.8617164983339
 20
2171.530238271435
 30
0.0
 10
624.6384494870702
 20
2172.709401538793
 30
0.0
 10
623.8696965585071
 20
2173.471357803975
 30
0.0
  0
LINE
  5
C2
330
87
100
AcDbEntity
  8
P-SANR-FIXT
100
AcDbLine
 10
632.8977827262134
 20
2146.447914075051
 30
0.0
 11
640.713420430707
 21
2149.292573561296
 31
0.0
  0
SPLINE
  5
C3
330
87
100
AcDbEntity
  8
P-SANR-FIXT
100
AcDbSpline
210
0.0
220
0.0
230
1.0
 70
     8
 71
     3
 72
     9
 73
     5
 74
     0
 42
0.000000001
 43
0.0000000001
 40
0.0
 40
0.0
 40
0.0
 40
0.0
 40
0.5
 40
1.0
 40
1.0
 40
1.0
 40
1.0
 10
624.7862470844292
 20
2165.713037921346
 30
0.0
 10
625.9563302368057
 20
2162.498260881307
 30
0.0
 10
628.6130595590959
 20
2156.121665233653
 30
0.0
 10
631.4815145941807
 20
2149.697609276827
 30
0.0
 10
632.8977827262141
 20
2146.44791407505
 30
0.0
  0
SPLINE
  5
C4
330
87
100
AcDbEntity
  8
P-SANR-FIXT
100
AcDbSpline
210
0.0
220
0.0
230
1.0
 70
     8
 71
     3
 72
    21
 73
    17
 74
     0
 42
0.000000001
 43
0.0000000001
 40
0.0
 40
0.0
 40
0.0
 40
0.0
 40
0.1666666666666666
 40
0.25
 40
0.2916666666666666
 40
0.3333333333333333
 40
0.375
 40
0.4166666666666666
 40
0.5
 40
0.5833333333333333
 40
0.625
 40
0.6666666666666666
 40
0.7083333333333333
 40
0.75
 40
0.8333333333333332
 40
1.0
 40
1.0
 40
1.0
 40
1.0
 10
623.0772847562901
 20
2173.182943494687
 30
0.0
 10
623.0261460737246
 20
2172.8298746736
 30
0.0
 10
623.0083575887471
 20
2172.286795979031
 30
0.0
 10
623.0704620088767
 20
2171.622586984669
 30
0.0
 10
623.1271332107511
 20
2171.233000887077
 30
0.0
 10
623.1790297231306
 20
2170.936411570841
 30
0.0
 10
623.2419568065181
 20
2170.631700632311
 30
0.0
 10
623.3406521769649
 20
2170.212292299781
 30
0.0
 10
623.4853352055513
 20
2169.670099125498
 30
0.0
 10
623.6473365572177
 20
2169.116567291133
 30
0.0
 10
623.7819582853391
 20
2168.674951055044
 30
0.0
 10
623.8838562479514
 20
2168.347376126757
 30
0.0
 10
623.987417485242
 20
2168.021957794237
 30
0.0
 10
624.1298561419694
 20
2167.585963634846
 30
0.0
 10
624.3884058950272
 20
2166.820363155272
 30
0.0
 10
624.6243227150984
 20
2166.157921469741
 30
0.0
 10
624.7862470844292
 20
2165.713037921346
 30
0.0
  0
SPLINE
  5
C5
330
87
100
AcDbEntity
  8
P-SANR-FIXT
100
AcDbSpline
210
0.0
220
0.0
230
1.0
 70
     8
 71
     3
 72
    23
 73
    19
 74
     0
 42
0.000000001
 43
0.0000000001
 40
0.0
 40
0.0
 40
0.0
 40
0.0
 40
0.25
 40
0.3125
 40
0.375
 40
0.4375
 40
0.46875
 40
0.5
 40
0.53125
 40
0.5625
 40
0.625
 40
0.6875
 40
0.71875
 40
0.75
 40
0.78125
 40
0.8125
 40
0.875
 40
1.0
 40
1.0
 40
1.0
 40
1.0
 10
620.2944256255428
 20
2141.860667238578
 30
0.0
 10
619.2455870228624
 20
2144.138889218849
 30
0.0
 10
617.8807391577176
 20
2146.951979949892
 30
0.0
 10
616.1480306084325
 20
2150.280403893555
 30
0.0
 10
615.2636869020007
 20
2151.937021093353
 30
0.0
 10
614.5043893218875
 20
2153.303105007801
 30
0.0
 10
613.8806639691469
 20
2154.385139451728
 30
0.0
 10
613.4017358695648
 20
2155.187326392734
 30
0.0
 10
612.9181689932195
 20
2155.991105380929
 30
0.0
 10
612.2727736932432
 20
2157.072608489173
 30
0.0
 10
611.4508870135384
 20
2158.420138488141
 30
0.0
 10
610.5807303805745
 20
2159.720357197131
 30
0.0
 10
609.8354600105584
 20
2160.705906709748
 30
0.0
 10
609.244188796738
 20
2161.408113187617
 30
0.0
 10
608.622026564522
 20
2162.077189101942
 30
0.0
 10
607.7603138452619
 20
2162.93929896478
 30
0.0
 10
606.1590889947873
 20
2164.359068323092
 30
0.0
 10
604.6216873744514
 20
2165.423895943315
 30
0.0
 10
603.5299468605062
 20
2166.068294341478
 30
0.0
  0
LINE
  5
C6
330
87
100
AcDbEntity
  8
P-SANR-FIXT
100
AcDbLine
 10
604.6631502164125
 20
2136.17134826604
 30
0.0
 11
620.2944256255423
 21
2141.86066723858
 31
0.0
  0
SPLINE
  5
C7
330
87
100
AcDbEntity
  8
P-SANR-FIXT
100
AcDbSpline
210
0.0
220
0.0
230
1.0
 70
     8
 71
     3
 72
    23
 73
    19
 74
     0
 42
0.000000001
 43
0.0000000001
 40
0.0
 40
0.0
 40
0.0
 40
0.0
 40
0.125
 40
0.1875
 40
0.21875
 40
0.25
 40
0.28125
 40
0.3125
 40
0.375
 40
0.4375
 40
0.46875
 40
0.5
 40
0.53125
 40
0.5625
 40
0.625
 40
0.6875
 40
0.75
 40
1.0
 40
1.0
 40
1.0
 40
1.0
 10
601.9451232544997
 20
2165.49146572233
 30
0.0
 10
601.5230128065057
 20
2164.296070634905
 30
0.0
 10
601.029752839136
 20
2162.492142640889
 30
0.0
 10
600.715753592381
 20
2160.375288719237
 30
0.0
 10
600.6097968902479
 20
2159.160975990403
 30
0.0
 10
600.5632666772081
 20
2158.248515930125
 30
0.0
 10
600.5616962729001
 20
2157.330532749624
 30
0.0
 10
600.624285062771
 20
2156.096507462352
 30
0.0
 10
600.793470885467
 20
2154.541156243335
 30
0.0
 10
601.0300447486238
 20
2152.980589801408
 30
0.0
 10
601.2308200632786
 20
2151.737258252948
 30
0.0
 10
601.3770455193154
 20
2150.810697028976
 30
0.0
 10
601.5258011363082
 20
2149.888337132133
 30
0.0
 10
601.7435181296193
 20
2148.658527730511
 30
0.0
 10
602.0399642516992
 20
2147.123979662451
 30
0.0
 10
602.4273706796043
 20
2145.286492084972
 30
0.0
 10
603.2395085946496
 20
2141.623007831906
 30
0.0
 10
604.0021943386914
 20
2138.59074801258
 30
0.0
 10
604.663150216413
 20
2136.171348266037
 30
0.0
  0
SPLINE
  5
C8
330
87
100
AcDbEntity
  8
P-SANR-FIXT
100
AcDbSpline
210
0.0
220
0.0
230
1.0
 70
     8
 71
     3
 72
    21
 73
    17
 74
     0
 42
0.000000001
 43
0.0000000001
 40
0.0
 40
0.0
 40
0.0
 40
0.0
 40
0.1666666666666666
 40
0.25
 40
0.2916666666666666
 40
0.3333333333333333
 40
0.375
 40
0.4166666666666666
 40
0.5
 40
0.5833333333333333
 40
0.625
 40
0.6666666666666666
 40
0.7083333333333333
 40
0.75
 40
0.8333333333333332
 40
1.0
 40
1.0
 40
1.0
 40
1.0
 10
585.8902070118166
 20
2151.55603710409
 30
0.0
 10
585.728282642486
 20
2152.000920652485
 30
0.0
 10
585.4831961039409
 20
2152.660024833434
 30
0.0
 10
585.1891382033012
 20
2153.412701404214
 30
0.0
 10
585.0180009012202
 20
2153.838250110932
 30
0.0
 10
584.8881585394609
 20
2154.154102896422
 30
0.0
 10
584.7556558023383
 20
2154.47053859776
 30
0.0
 10
584.5749165842947
 20
2154.895369440238
 30
0.0
 10
584.34321341482
 20
2155.423531887646
 30
0.0
 10
584.105531990396
 20
2155.93187641401
 30
0.0
 10
583.91154655094
 20
2156.316601997798
 30
0.0
 10
583.7638870776674
 20
2156.590472868531
 30
0.0
 10
583.6129981749507
 20
2156.851031901267
 30
0.0
 10
583.4059897177936
 20
2157.185899712835
 30
0.0
 10
583.026619151909
 20
2157.734633273803
 30
0.0
 10
582.6639081258881
 20
2158.139221472216
 30
0.0
 10
582.3977853587191
 20
2158.376816569122
 30
0.0
  0
SPLINE
  5
C9
330
87
100
AcDbEntity
  8
P-SANR-FIXT
100
AcDbSpline
210
0.0
220
0.0
230
1.0
 70
     8
 71
     3
 72
     9
 73
     5
 74
     0
 42
0.000000001
 43
0.0000000001
 40
0.0
 40
0.0
 40
0.0
 40
0.0
 40
0.5
 40
1.0
 40
1.0
 40
1.0
 40
1.0
 10
592.0597931157415
 20
2131.584101429565
 30
0.0
 10
591.0558536372916
 20
2134.983871987983
 30
0.0
 10
589.1239141042746
 20
2141.748791711489
 30
0.0
 10
587.0602901641933
 20
2148.341260064051
 30
0.0
 10
585.8902070118166
 20
2151.55603710409
 30
0.0
  0
LINE
  5
CA
330
87
100
AcDbEntity
  8
P-SANR-FIXT
100
AcDbLine
 10
584.2441554112475
 20
2128.739441943323
 30
0.0
 11
592.0597931157413
 21
2131.584101429567
 31
0.0
  0
SPLINE
  5
CB
330
87
100
AcDbEntity
  8
P-SANR-FIXT
100
AcDbSpline
210
0.0
220
0.0
230
1.0
 70
     8
 71
     3
 72
    23
 73
    19
 74
     0
 42
0.000000001
 43
0.0000000001
 40
0.0
 40
0.0
 40
0.0
 40
0.0
 40
0.125
 40
0.1875
 40
0.21875
 40
0.25
 40
0.28125
 40
0.3125
 40
0.375
 40
0.4375
 40
0.46875
 40
0.5
 40
0.53125
 40
0.5625
 40
0.625
 40
0.6875
 40
0.75
 40
1.0
 40
1.0
 40
1.0
 40
1.0
 10
581.6053735564933
 20
2158.08840225983
 30
0.0
 10
581.5062506938188
 20
2157.010565039596
 30
0.0
 10
581.3271253354466
 20
2155.320972692926
 30
0.0
 10
581.1829845444379
 20
2153.265942193291
 30
0.0
 10
581.1318189477407
 20
2152.071571795973
 30
0.0
 10
581.1085818816632
 20
2151.167589747873
 30
0.0
 10
581.1151818856744
 20
2150.252580352812
 30
0.0
 10
581.1739831388178
 20
2149.017176514907
 30
0.0
 10
581.319780543338
 20
2147.453312607824
 30
0.0
 10
581.5190075680766
 20
2145.879153028331
 30
0.0
 10
581.6816207755961
 20
2144.621931608768
 30
0.0
 10
581.7934679494596
 20
2143.682857713363
 30
0.0
 10
581.9028660379934
 20
2142.746172847653
 30
0.0
 10
582.0652082346652
 20
2141.496208668304
 30
0.0
 10
582.2865336446096
 20
2139.934318897022
 30
0.0
 10
582.5766707540021
 20
2138.06142818286
 30
0.0
 10
583.1770155477157
 20
2134.320857537741
 30
0.0
 10
583.737844214823
 20
2131.215127750782
 30
0.0
 10
584.244155411248
 20
2128.739441943321
 30
0.0
  0
LINE
  5
CC
330
87
100
AcDbEntity
  8
P-SANR-FIXT
100
AcDbLine
 10
606.0488890006097
 20
2132.818696680457
 30
0.0
 11
621.3879310291003
 21
2138.401651400986
 31
0.0
  0
LINE
  5
CD
330
87
100
AcDbEntity
  8
P-SANR-FIXT
100
AcDbLine
 10
599.5110650421699
 20
2061.054732597243
 30
0.0
 11
607.0355081953344
 21
2040.381494939953
 31
0.0
  0
LINE
  5
CE
330
87
100
AcDbEntity
  8
P-SANR-FIXT
100
AcDbLine
 10
680.0496248304004
 20
2066.956460076358
 30
0.0
 11
672.525181677236
 21
2087.629697733647
 31
0.0
  0
LINE
  5
CF
330
87
100
AcDbEntity
  8
P-SANR-FIXT
100
AcDbLine
 10
672.5251816772344
 20
2087.629697733647
 30
0.0
 11
599.5110650421685
 21
2061.054732597243
 31
0.0
  0
LINE
  5
D0
330
87
100
AcDbEntity
  8
P-SANR-FIXT
100
AcDbLine
 10
607.0355081953331
 20
2040.381494939953
 30
0.0
 11
680.049624830399
 21
2066.956460076356
 31
0.0
  0
LINE
  5
D1
330
87
100
AcDbEntity
  8
P-SANR-FIXT
100
AcDbLine
 10
580.0107600669283
 20
1964.000000000007
 30
0.0
 11
602.5466584518182
 21
1964.000000000007
 31
0.0
  0
LINE
  5
D2
330
87
100
AcDbEntity
  8
P-SANR-FIXT
100
AcDbLine
 10
602.5466584518182
 20
2035.999999999984
 30
0.0
 11
580.0107600669283
 21
2035.999999999984
 31
0.0
  0
LINE
  5
D3
330
87
100
AcDbEntity
  8
P-SANR-FIXT
100
AcDbLine
 10
602.5466584518182
 20
1964.000000000007
 30
0.0
 11
602.5780024475698
 21
1964.054289393161
 31
0.0
  0
LINE
  5
D4
330
87
100
AcDbEntity
  8
P-SANR-FIXT
100
AcDbLine
 10
602.5795088519442
 20
1964.056898562074
 30
0.0
 11
604.2787092593763
 21
1966.999999999988
 31
0.0
  0
LINE
  5
D5
330
87
100
AcDbEntity
  8
P-SANR-FIXT
100
AcDbLine
 10
604.2787092593763
 20
2033.000000000003
 30
0.0
 11
602.5795088519454
 21
2035.943101437915
 31
0.0
  0
LINE
  5
D6
330
87
100
AcDbEntity
  8
P-SANR-FIXT
100
AcDbLine
 10
602.5780024475701
 20
2035.94571060683
 30
0.0
 11
602.5466584518146
 21
2035.99999999999
 31
0.0
  0
LINE
  5
D7
330
87
100
AcDbEntity
  8
P-SANR-FIXT
100
AcDbLine
 10
578.2787092593765
 20
1966.999999999977
 30
0.0
 11
579.9779096668022
 21
1964.056898562074
 31
0.0
  0
LINE
  5
D8
330
87
100
AcDbEntity
  8
P-SANR-FIXT
100
AcDbLine
 10
579.9794160711767
 20
1964.05428939316
 30
0.0
 11
580.0107600669317
 21
1964.000000000001
 31
0.0
  0
LINE
  5
D9
330
87
100
AcDbEntity
  8
P-SANR-FIXT
100
AcDbLine
 10
580.0107600669284
 20
2035.999999999984
 30
0.0
 11
579.9794160711764
 21
2035.94571060683
 31
0.0
  0
LINE
  5
DA
330
87
100
AcDbEntity
  8
P-SANR-FIXT
100
AcDbLine
 10
579.9779096668011
 20
2035.943101437915
 30
0.0
 11
578.2787092593765
 21
2033.000000000013
 31
0.0
  0
LINE
  5
DB
330
87
100
AcDbEntity
  8
P-SANR-FIXT
100
AcDbLine
 10
578.2787092593753
 20
2029.314052580724
 30
0.0
 11
578.2787092593753
 21
2028.578838324897
 31
0.0
  0
LINE
  5
DC
330
87
100
AcDbEntity
  8
P-SANR-FIXT
100
AcDbLine
 10
578.2787092593753
 20
2028.578838324897
 30
0.0
 11
578.2787092593753
 21
2027.839034394677
 31
0.0
  0
LINE
  5
DD
330
87
100
AcDbEntity
  8
P-SANR-FIXT
100
AcDbLine
 10
578.2787092593753
 20
1972.160965605153
 30
0.0
 11
578.2787092593753
 21
1971.421161675092
 31
0.0
  0
LINE
  5
DE
330
87
100
AcDbEntity
  8
P-SANR-FIXT
100
AcDbLine
 10
578.2787092593753
 20
1971.421161675092
 30
0.0
 11
578.2787092593753
 21
1970.685947419282
 31
0.0
  0
LINE
  5
DF
330
87
100
AcDbEntity
  8
P-SANR-FIXT
100
AcDbLine
 10
578.2787092593752
 20
1966.999999999977
 30
0.0
 11
578.2787092593751
 21
1971.421161675093
 31
0.0
  0
LINE
  5
E0
330
87
100
AcDbEntity
  8
P-SANR-FIXT
100
AcDbLine
 10
578.2787092593751
 20
1971.421161675093
 30
0.0
 11
578.2787092593751
 21
1999.999999999995
 31
0.0
  0
LINE
  5
E1
330
87
100
AcDbEntity
  8
P-SANR-FIXT
100
AcDbLine
 10
578.2787092593751
 20
1999.999999999995
 30
0.0
 11
578.2787092593751
 21
2028.578838324897
 31
0.0
  0
LINE
  5
E2
330
87
100
AcDbEntity
  8
P-SANR-FIXT
100
AcDbLine
 10
578.2787092593751
 20
2028.578838324897
 30
0.0
 11
578.2787092593752
 21
2033.000000000013
 31
0.0
  0
LINE
  5
E3
330
87
100
AcDbEntity
  8
P-SANR-FIXT
100
AcDbLine
 10
604.2787092593751
 20
2033.000000000002
 30
0.0
 11
604.278709259375
 21
2028.578838324888
 31
0.0
  0
LINE
  5
E4
330
87
100
AcDbEntity
  8
P-SANR-FIXT
100
AcDbLine
 10
604.278709259375
 20
2028.578838324888
 30
0.0
 11
604.2787092593748
 21
1999.999999999995
 31
0.0
  0
LINE
  5
E5
330
87
100
AcDbEntity
  8
P-SANR-FIXT
100
AcDbLine
 10
604.2787092593748
 20
1999.999999999995
 30
0.0
 11
604.278709259375
 21
1971.421161675102
 31
0.0
  0
LINE
  5
E6
330
87
100
AcDbEntity
  8
P-SANR-FIXT
100
AcDbLine
 10
604.278709259375
 20
1971.421161675102
 30
0.0
 11
604.2787092593751
 21
1966.999999999987
 31
0.0
  0
LINE
  5
E7
330
87
100
AcDbEntity
  8
P-SANR-FIXT
100
AcDbLine
 10
580.0107600669597
 20
1978.614908960086
 30
0.0
 11
602.5466584517838
 21
1978.614908960086
 31
0.0
  0
LINE
  5
E8
330
87
100
AcDbEntity
  8
P-SANR-FIXT
100
AcDbLine
 10
602.5466584518166
 20
1978.614908960086
 30
0.0
 11
602.5466584518166
 21
1985.612505430093
 31
0.0
  0
LINE
  5
E9
330
87
100
AcDbEntity
  8
P-SANR-FIXT
100
AcDbLine
 10
580.0107600669268
 20
1985.612505430094
 30
0.0
 11
580.0107600669268
 21
1978.614908960086
 31
0.0
  0
SPLINE
  5
EA
330
87
100
AcDbEntity
  8
P-SANR-FIXT
100
AcDbSpline
210
0.0
220
0.0
230
1.0
 70
     8
 71
     3
 72
     9
 73
     5
 74
     0
 42
0.000000001
 43
0.0000000001
 40
0.0
 40
0.0
 40
0.0
 40
0.0
 40
0.5
 40
1.0
 40
1.0
 40
1.0
 40
1.0
 10
580.0107600669597
 20
1978.614908960086
 30
0.0
 10
579.4469949843147
 20
1977.432026523659
 30
0.0
 10
578.5945547670722
 20
1975.050186206399
 30
0.0
 10
578.292294445925
 20
1972.636195000327
 30
0.0
 10
578.2787092593751
 20
1971.421161675088
 30
0.0
  0
SPLINE
  5
EB
330
87
100
AcDbEntity
  8
P-SANR-FIXT
100
AcDbSpline
210
0.0
220
0.0
230
1.0
 70
     8
 71
     3
 72
     9
 73
     5
 74
     0
 42
0.000000001
 43
0.0000000001
 40
0.0
 40
0.0
 40
0.0
 40
0.0
 40
0.5
 40
1.0
 40
1.0
 40
1.0
 40
1.0
 10
578.2787092593751
 20
1971.421161675088
 30
0.0
 10
578.2922944459246
 20
1970.206128349859
 30
0.0
 10
578.5945547670666
 20
1967.792137143808
 30
0.0
 10
579.4469949842954
 20
1965.410296826568
 30
0.0
 10
580.0107600669313
 20
1964.227414390151
 30
0.0
  0
LINE
  5
EC
330
87
100
AcDbEntity
  8
P-SANR-FIXT
100
AcDbLine
 10
580.0107600669313
 20
1964.227414390151
 30
0.0
 11
602.5466584518125
 21
1964.227414390151
 31
0.0
  0
SPLINE
  5
ED
330
87
100
AcDbEntity
  8
P-SANR-FIXT
100
AcDbSpline
210
0.0
220
0.0
230
1.0
 70
     8
 71
     3
 72
     9
 73
     5
 74
     0
 42
0.000000001
 43
0.0000000001
 40
0.0
 40
0.0
 40
0.0
 40
0.0
 40
0.5
 40
1.0
 40
1.0
 40
1.0
 40
1.0
 10
602.5466584518125
 20
1964.227414390151
 30
0.0
 10
603.1104235344474
 20
1965.410296826568
 30
0.0
 10
603.962863751676
 20
1967.792137143808
 30
0.0
 10
604.2651240728225
 20
1970.206128349859
 30
0.0
 10
604.278709259375
 20
1971.421161675088
 30
0.0
  0
SPLINE
  5
EE
330
87
100
AcDbEntity
  8
P-SANR-FIXT
100
AcDbSpline
210
0.0
220
0.0
230
1.0
 70
     8
 71
     3
 72
     9
 73
     5
 74
     0
 42
0.000000001
 43
0.0000000001
 40
0.0
 40
0.0
 40
0.0
 40
0.0
 40
0.5
 40
1.0
 40
1.0
 40
1.0
 40
1.0
 10
604.278709259375
 20
1971.421161675088
 30
0.0
 10
604.2651240728221
 20
1972.636195000327
 30
0.0
 10
603.9628637516705
 20
1975.050186206399
 30
0.0
 10
603.1104235344279
 20
1977.432026523659
 30
0.0
 10
602.5466584517838
 20
1978.614908960086
 30
0.0
  0
LINE
  5
EF
330
87
100
AcDbEntity
  8
P-SANR-FIXT
100
AcDbLine
 10
580.010760066927
 20
1964.227414390151
 30
0.0
 11
580.010760066927
 21
1964.000000000006
 31
0.0
  0
LINE
  5
F0
330
87
100
AcDbEntity
  8
P-SANR-FIXT
100
AcDbLine
 10
602.5466584518168
 20
1964.000000000006
 30
0.0
 11
602.5466584518168
 21
1964.22741439015
 31
0.0
  0
LINE
  5
F1
330
87
100
AcDbEntity
  8
P-SANR-FIXT
100
AcDbLine
 10
580.010760066927
 20
2035.999999999984
 30
0.0
 11
580.010760066927
 21
2035.772585609829
 31
0.0
  0
LINE
  5
F2
330
87
100
AcDbEntity
  8
P-SANR-FIXT
100
AcDbLine
 10
580.0107600669317
 20
2035.772585609829
 30
0.0
 11
602.5466584518121
 21
2035.772585609829
 31
0.0
  0
LINE
  5
F3
330
87
100
AcDbEntity
  8
P-SANR-FIXT
100
AcDbLine
 10
602.5466584518168
 20
2035.772585609829
 30
0.0
 11
602.5466584518168
 21
2035.999999999984
 31
0.0
  0
SPLINE
  5
F4
330
87
100
AcDbEntity
  8
P-SANR-FIXT
100
AcDbSpline
210
0.0
220
0.0
230
1.0
 70
     8
 71
     3
 72
     9
 73
     5
 74
     0
 42
0.000000001
 43
0.0000000001
 40
0.0
 40
0.0
 40
0.0
 40
0.0
 40
0.5
 40
1.0
 40
1.0
 40
1.0
 40
1.0
 10
580.0107600669317
 20
2035.772585609829
 30
0.0
 10
579.4469949843061
 20
2034.589703173419
 30
0.0
 10
578.5945547670876
 20
2032.207862856193
 30
0.0
 10
578.2922944459349
 20
2029.793871650156
 30
0.0
 10
578.2787092593752
 20
2028.578838324936
 30
0.0
  0
SPLINE
  5
F5
330
87
100
AcDbEntity
  8
P-SANR-FIXT
100
AcDbSpline
210
0.0
220
0.0
230
1.0
 70
     8
 71
     3
 72
     9
 73
     5
 74
     0
 42
0.000000001
 43
0.0000000001
 40
0.0
 40
0.0
 40
0.0
 40
0.0
 40
0.5
 40
1.0
 40
1.0
 40
1.0
 40
1.0
 10
578.2787092593751
 20
2028.578838324936
 30
0.0
 10
578.2922944459354
 20
2027.363804999704
 30
0.0
 10
578.5945547670933
 20
2024.949813793647
 30
0.0
 10
579.4469949843253
 20
2022.567973476401
 30
0.0
 10
580.0107600669598
 20
2021.38509103998
 30
0.0
  0
LINE
  5
F6
330
87
100
AcDbEntity
  8
P-SANR-FIXT
100
AcDbLine
 10
580.0107600669598
 20
2021.38509103998
 30
0.0
 11
602.5466584517837
 21
2021.38509103998
 31
0.0
  0
SPLINE
  5
F7
330
87
100
AcDbEntity
  8
P-SANR-FIXT
100
AcDbSpline
210
0.0
220
0.0
230
1.0
 70
     8
 71
     3
 72
     9
 73
     5
 74
     0
 42
0.000000001
 43
0.0000000001
 40
0.0
 40
0.0
 40
0.0
 40
0.0
 40
0.5
 40
1.0
 40
1.0
 40
1.0
 40
1.0
 10
602.5466584517837
 20
2021.38509103998
 30
0.0
 10
603.1104235344173
 20
2022.567973476401
 30
0.0
 10
603.9628637516495
 20
2024.949813793647
 30
0.0
 10
604.2651240728115
 20
2027.363804999704
 30
0.0
 10
604.2787092593751
 20
2028.578838324936
 30
0.0
  0
SPLINE
  5
F8
330
87
100
AcDbEntity
  8
P-SANR-FIXT
100
AcDbSpline
210
0.0
220
0.0
230
1.0
 70
     8
 71
     3
 72
     9
 73
     5
 74
     0
 42
0.000000001
 43
0.0000000001
 40
0.0
 40
0.0
 40
0.0
 40
0.0
 40
0.5
 40
1.0
 40
1.0
 40
1.0
 40
1.0
 10
604.278709259375
 20
2028.578838324936
 30
0.0
 10
604.265124072812
 20
2029.793871650156
 30
0.0
 10
603.9628637516551
 20
2032.207862856193
 30
0.0
 10
603.1104235344368
 20
2034.589703173419
 30
0.0
 10
602.5466584518121
 20
2035.772585609829
 30
0.0
  0
LINE
  5
F9
330
87
100
AcDbEntity
  8
P-SANR-FIXT
100
AcDbLine
 10
580.0107600669268
 20
2021.38509103998
 30
0.0
 11
580.0107600669268
 21
2014.387494569898
 31
0.0
  0
LINE
  5
FA
330
87
100
AcDbEntity
  8
P-SANR-FIXT
100
AcDbLine
 10
580.0107600669645
 20
2014.387494569898
 30
0.0
 11
602.5466584517791
 21
2014.387494569898
 31
0.0
  0
LINE
  5
FB
330
87
100
AcDbEntity
  8
P-SANR-FIXT
100
AcDbLine
 10
602.5466584518166
 20
2014.387494569898
 30
0.0
 11
602.5466584518166
 21
2021.38509103998
 31
0.0
  0
SPLINE
  5
FC
330
87
100
AcDbEntity
  8
P-SANR-FIXT
100
AcDbSpline
210
0.0
220
0.0
230
1.0
 70
     8
 71
     3
 72
     9
 73
     5
 74
     0
 42
0.000000001
 43
0.0000000001
 40
0.0
 40
0.0
 40
0.0
 40
0.0
 40
0.5
 40
1.0
 40
1.0
 40
1.0
 40
1.0
 10
580.0107600669645
 20
2014.387494569898
 30
0.0
 10
579.4469949843317
 20
2012.021729697059
 30
0.0
 10
578.5945547671007
 20
2007.258049062569
 30
0.0
 10
578.2922944459389
 20
2002.430066650457
 30
0.0
 10
578.2787092593751
 20
1999.999999999995
 30
0.0
  0
SPLINE
  5
FD
330
87
100
AcDbEntity
  8
P-SANR-FIXT
100
AcDbSpline
210
0.0
220
0.0
230
1.0
 70
     8
 71
     3
 72
     9
 73
     5
 74
     0
 42
0.000000001
 43
0.0000000001
 40
0.0
 40
0.0
 40
0.0
 40
0.0
 40
0.5
 40
1.0
 40
1.0
 40
1.0
 40
1.0
 10
578.2787092593751
 20
1999.999999999995
 30
0.0
 10
578.2922944459389
 20
1997.569933349534
 30
0.0
 10
578.5945547671007
 20
1992.741950937422
 30
0.0
 10
579.4469949843316
 20
1987.978270302933
 30
0.0
 10
580.0107600669644
 20
1985.612505430093
 30
0.0
  0
LINE
  5
FE
330
87
100
AcDbEntity
  8
P-SANR-FIXT
100
AcDbLine
 10
602.5466584517792
 20
1985.612505430093
 30
0.0
 11
580.0107600669644
 21
1985.612505430093
 31
0.0
  0
SPLINE
  5
FF
330
87
100
AcDbEntity
  8
P-SANR-FIXT
100
AcDbSpline
210
0.0
220
0.0
230
1.0
 70
     8
 71
     3
 72
     9
 73
     5
 74
     0
 42
0.000000001
 43
0.0000000001
 40
0.0
 40
0.0
 40
0.0
 40
0.0
 40
0.5
 40
1.0
 40
1.0
 40
1.0
 40
1.0
 10
602.5466584517792
 20
1985.612505430093
 30
0.0
 10
603.1104235344108
 20
1987.978270302933
 30
0.0
 10
603.9628637516418
 20
1992.741950937422
 30
0.0
 10
604.265124072808
 20
1997.569933349534
 30
0.0
 10
604.2787092593748
 20
1999.999999999995
 30
0.0
  0
SPLINE
  5
100
330
87
100
AcDbEntity
  8
P-SANR-FIXT
100
AcDbSpline
210
0.0
220
0.0
230
1.0
 70
     8
 71
     3
 72
     9
 73
     5
 74
     0
 42
0.000000001
 43
0.0000000001
 40
0.0
 40
0.0
 40
0.0
 40
0.0
 40
0.5
 40
1.0
 40
1.0
 40
1.0
 40
1.0
 10
604.2787092593748
 20
1999.999999999995
 30
0.0
 10
604.265124072808
 20
2002.430066650457
 30
0.0
 10
603.9628637516418
 20
2007.258049062568
 30
0.0
 10
603.1104235344108
 20
2012.021729697059
 30
0.0
 10
602.5466584517792
 20
2014.387494569898
 30
0.0
  0
LINE
  5
101
330
87
100
AcDbEntity
  8
P-SANR-FIXT
100
AcDbLine
 10
708.010760066931
 20
1964.000000000007
 30
0.0
 11
730.5466584518208
 21
1964.000000000007
 31
0.0
  0
LINE
  5
102
330
87
100
AcDbEntity
  8
P-SANR-FIXT
100
AcDbLine
 10
730.5466584518208
 20
2035.999999999985
 30
0.0
 11
708.010760066931
 21
2035.999999999985
 31
0.0
  0
LINE
  5
103
330
87
100
AcDbEntity
  8
P-SANR-FIXT
100
AcDbLine
 10
706.2787092593729
 20
1966.999999999989
 30
0.0
 11
707.9779096668049
 21
1964.056898562074
 31
0.0
  0
LINE
  5
104
330
87
100
AcDbEntity
  8
P-SANR-FIXT
100
AcDbLine
 10
707.9794160711794
 20
1964.054289393161
 30
0.0
 11
708.0107600669343
 21
1964.000000000001
 31
0.0
  0
LINE
  5
105
330
87
100
AcDbEntity
  8
P-SANR-FIXT
100
AcDbLine
 10
708.0107600669312
 20
2035.999999999985
 30
0.0
 11
707.9794160711792
 21
2035.94571060683
 31
0.0
  0
LINE
  5
106
330
87
100
AcDbEntity
  8
P-SANR-FIXT
100
AcDbLine
 10
707.977909666804
 20
2035.943101437915
 30
0.0
 11
706.2787092593729
 21
2033.000000000003
 31
0.0
  0
LINE
  5
107
330
87
100
AcDbEntity
  8
P-SANR-FIXT
100
AcDbLine
 10
730.546658451821
 20
1964.000000000007
 30
0.0
 11
730.5780024475726
 21
1964.054289393161
 31
0.0
  0
LINE
  5
108
330
87
100
AcDbEntity
  8
P-SANR-FIXT
100
AcDbLine
 10
730.5795088519468
 20
1964.056898562074
 30
0.0
 11
732.2787092593727
 21
1966.999999999978
 31
0.0
  0
LINE
  5
109
330
87
100
AcDbEntity
  8
P-SANR-FIXT
100
AcDbLine
 10
732.2787092593727
 20
2033.000000000014
 30
0.0
 11
730.579508851948
 21
2035.943101437915
 31
0.0
  0
LINE
  5
10A
330
87
100
AcDbEntity
  8
P-SANR-FIXT
100
AcDbLine
 10
730.5780024475727
 20
2035.94571060683
 30
0.0
 11
730.5466584518172
 21
2035.999999999991
 31
0.0
  0
LINE
  5
10B
330
87
100
AcDbEntity
  8
P-SANR-FIXT
100
AcDbLine
 10
732.2787092593712
 20
1970.68594741928
 30
0.0
 11
732.2787092593712
 21
1971.421161675092
 31
0.0
  0
LINE
  5
10C
330
87
100
AcDbEntity
  8
P-SANR-FIXT
100
AcDbLine
 10
732.2787092593712
 20
1971.421161675092
 30
0.0
 11
732.2787092593712
 21
1972.160965605156
 31
0.0
  0
LINE
  5
10D
330
87
100
AcDbEntity
  8
P-SANR-FIXT
100
AcDbLine
 10
732.2787092593712
 20
2027.839034394693
 30
0.0
 11
732.2787092593712
 21
2028.578838324897
 31
0.0
  0
LINE
  5
10E
330
87
100
AcDbEntity
  8
P-SANR-FIXT
100
AcDbLine
 10
732.2787092593712
 20
2028.578838324897
 30
0.0
 11
732.2787092593712
 21
2029.314052580712
 31
0.0
  0
LINE
  5
10F
330
87
100
AcDbEntity
  8
P-SANR-FIXT
100
AcDbLine
 10
732.2787092593712
 20
2033.000000000013
 30
0.0
 11
732.2787092593712
 21
2028.578838324897
 31
0.0
  0
LINE
  5
110
330
87
100
AcDbEntity
  8
P-SANR-FIXT
100
AcDbLine
 10
732.2787092593712
 20
2028.578838324898
 30
0.0
 11
732.2787092593711
 21
1999.999999999996
 31
0.0
  0
LINE
  5
111
330
87
100
AcDbEntity
  8
P-SANR-FIXT
100
AcDbLine
 10
732.2787092593711
 20
1999.999999999995
 30
0.0
 11
732.2787092593712
 21
1971.421161675093
 31
0.0
  0
LINE
  5
112
330
87
100
AcDbEntity
  8
P-SANR-FIXT
100
AcDbLine
 10
732.2787092593712
 20
1971.421161675093
 30
0.0
 11
732.2787092593712
 21
1966.999999999977
 31
0.0
  0
LINE
  5
113
330
87
100
AcDbEntity
  8
P-SANR-FIXT
100
AcDbLine
 10
706.2787092593713
 20
1966.999999999988
 30
0.0
 11
706.2787092593713
 21
1971.421161675103
 31
0.0
  0
LINE
  5
114
330
87
100
AcDbEntity
  8
P-SANR-FIXT
100
AcDbLine
 10
706.2787092593713
 20
1971.421161675103
 30
0.0
 11
706.2787092593711
 21
1999.999999999995
 31
0.0
  0
LINE
  5
115
330
87
100
AcDbEntity
  8
P-SANR-FIXT
100
AcDbLine
 10
706.2787092593711
 20
1999.999999999995
 30
0.0
 11
706.2787092593713
 21
2028.578838324888
 31
0.0
  0
LINE
  5
116
330
87
100
AcDbEntity
  8
P-SANR-FIXT
100
AcDbLine
 10
706.2787092593713
 20
2028.578838324888
 30
0.0
 11
706.2787092593713
 21
2033.000000000002
 31
0.0
  0
LINE
  5
117
330
87
100
AcDbEntity
  8
P-SANR-FIXT
100
AcDbLine
 10
730.5466584517818
 20
1985.612505430094
 30
0.0
 11
708.0107600669669
 21
1985.612505430094
 31
0.0
  0
LINE
  5
118
330
87
100
AcDbEntity
  8
P-SANR-FIXT
100
AcDbLine
 10
708.0107600669293
 20
1985.612505430094
 30
0.0
 11
708.0107600669293
 21
1978.614908960087
 31
0.0
  0
LINE
  5
119
330
87
100
AcDbEntity
  8
P-SANR-FIXT
100
AcDbLine
 10
730.5466584518192
 20
1978.614908960087
 30
0.0
 11
730.5466584518192
 21
1985.612505430094
 31
0.0
  0
LINE
  5
11A
330
87
100
AcDbEntity
  8
P-SANR-FIXT
100
AcDbLine
 10
708.0107600669623
 20
1978.614908960086
 30
0.0
 11
730.5466584517863
 21
1978.614908960086
 31
0.0
  0
SPLINE
  5
11B
330
87
100
AcDbEntity
  8
P-SANR-FIXT
100
AcDbSpline
210
0.0
220
0.0
230
1.0
 70
     8
 71
     3
 72
     9
 73
     5
 74
     0
 42
0.000000001
 43
0.0000000001
 40
0.0
 40
0.0
 40
0.0
 40
0.0
 40
0.5
 40
1.0
 40
1.0
 40
1.0
 40
1.0
 10
708.0107600669623
 20
1978.614908960086
 30
0.0
 10
707.4469949843181
 20
1977.432026523659
 30
0.0
 10
706.5945547670757
 20
1975.050186206399
 30
0.0
 10
706.2922944459241
 20
1972.636195000327
 30
0.0
 10
706.2787092593713
 20
1971.421161675088
 30
0.0
  0
SPLINE
  5
11C
330
87
100
AcDbEntity
  8
P-SANR-FIXT
100
AcDbSpline
210
0.0
220
0.0
230
1.0
 70
     8
 71
     3
 72
     9
 73
     5
 74
     0
 42
0.000000001
 43
0.0000000001
 40
0.0
 40
0.0
 40
0.0
 40
0.0
 40
0.5
 40
1.0
 40
1.0
 40
1.0
 40
1.0
 10
706.2787092593713
 20
1971.421161675088
 30
0.0
 10
706.2922944459238
 20
1970.206128349859
 30
0.0
 10
706.5945547670702
 20
1967.792137143808
 30
0.0
 10
707.4469949842989
 20
1965.410296826568
 30
0.0
 10
708.010760066934
 20
1964.227414390151
 30
0.0
  0
SPLINE
  5
11D
330
87
100
AcDbEntity
  8
P-SANR-FIXT
100
AcDbSpline
210
0.0
220
0.0
230
1.0
 70
     8
 71
     3
 72
     9
 73
     5
 74
     0
 42
0.000000001
 43
0.0000000001
 40
0.0
 40
0.0
 40
0.0
 40
0.0
 40
0.5
 40
1.0
 40
1.0
 40
1.0
 40
1.0
 10
730.546658451815
 20
1964.227414390151
 30
0.0
 10
731.110423534451
 20
1965.410296826568
 30
0.0
 10
731.9628637516797
 20
1967.792137143808
 30
0.0
 10
732.2651240728218
 20
1970.206128349859
 30
0.0
 10
732.2787092593712
 20
1971.421161675088
 30
0.0
  0
SPLINE
  5
11E
330
87
100
AcDbEntity
  8
P-SANR-FIXT
100
AcDbSpline
210
0.0
220
0.0
230
1.0
 70
     8
 71
     3
 72
     9
 73
     5
 74
     0
 42
0.000000001
 43
0.0000000001
 40
0.0
 40
0.0
 40
0.0
 40
0.0
 40
0.5
 40
1.0
 40
1.0
 40
1.0
 40
1.0
 10
732.2787092593712
 20
1971.421161675088
 30
0.0
 10
732.2651240728212
 20
1972.636195000327
 30
0.0
 10
731.9628637516739
 20
1975.050186206399
 30
0.0
 10
731.1104235344314
 20
1977.43202652366
 30
0.0
 10
730.5466584517863
 20
1978.614908960086
 30
0.0
  0
LINE
  5
11F
330
87
100
AcDbEntity
  8
P-SANR-FIXT
100
AcDbLine
 10
708.010760066934
 20
1964.227414390151
 30
0.0
 11
730.546658451815
 21
1964.227414390151
 31
0.0
  0
LINE
  5
120
330
87
100
AcDbEntity
  8
P-SANR-FIXT
100
AcDbLine
 10
708.0107600669296
 20
1964.227414390151
 30
0.0
 11
708.0107600669296
 21
1964.000000000007
 31
0.0
  0
LINE
  5
121
330
87
100
AcDbEntity
  8
P-SANR-FIXT
100
AcDbLine
 10
730.5466584518194
 20
1964.000000000007
 30
0.0
 11
730.5466584518194
 21
1964.227414390151
 31
0.0
  0
LINE
  5
122
330
87
100
AcDbEntity
  8
P-SANR-FIXT
100
AcDbLine
 10
708.0107600669296
 20
2035.999999999984
 30
0.0
 11
708.0107600669296
 21
2035.77258560983
 31
0.0
  0
LINE
  5
123
330
87
100
AcDbEntity
  8
P-SANR-FIXT
100
AcDbLine
 10
730.5466584518194
 20
2035.77258560983
 30
0.0
 11
730.5466584518194
 21
2035.999999999984
 31
0.0
  0
LINE
  5
124
330
87
100
AcDbEntity
  8
P-SANR-FIXT
100
AcDbLine
 10
708.0107600669342
 20
2035.77258560983
 30
0.0
 11
730.5466584518146
 21
2035.77258560983
 31
0.0
  0
SPLINE
  5
125
330
87
100
AcDbEntity
  8
P-SANR-FIXT
100
AcDbSpline
210
0.0
220
0.0
230
1.0
 70
     8
 71
     3
 72
     9
 73
     5
 74
     0
 42
0.000000001
 43
0.0000000001
 40
0.0
 40
0.0
 40
0.0
 40
0.0
 40
0.5
 40
1.0
 40
1.0
 40
1.0
 40
1.0
 10
708.0107600669342
 20
2035.77258560983
 30
0.0
 10
707.4469949843096
 20
2034.589703173419
 30
0.0
 10
706.5945547670911
 20
2032.207862856193
 30
0.0
 10
706.2922944459344
 20
2029.793871650157
 30
0.0
 10
706.2787092593713
 20
2028.578838324936
 30
0.0
  0
SPLINE
  5
126
330
87
100
AcDbEntity
  8
P-SANR-FIXT
100
AcDbSpline
210
0.0
220
0.0
230
1.0
 70
     8
 71
     3
 72
     9
 73
     5
 74
     0
 42
0.000000001
 43
0.0000000001
 40
0.0
 40
0.0
 40
0.0
 40
0.0
 40
0.5
 40
1.0
 40
1.0
 40
1.0
 40
1.0
 10
706.2787092593713
 20
2028.578838324936
 30
0.0
 10
706.2922944459346
 20
2027.363804999704
 30
0.0
 10
706.5945547670967
 20
2024.949813793647
 30
0.0
 10
707.4469949843287
 20
2022.567973476401
 30
0.0
 10
708.0107600669625
 20
2021.385091039981
 30
0.0
  0
SPLINE
  5
127
330
87
100
AcDbEntity
  8
P-SANR-FIXT
100
AcDbSpline
210
0.0
220
0.0
230
1.0
 70
     8
 71
     3
 72
     9
 73
     5
 74
     0
 42
0.000000001
 43
0.0000000001
 40
0.0
 40
0.0
 40
0.0
 40
0.0
 40
0.5
 40
1.0
 40
1.0
 40
1.0
 40
1.0
 10
730.5466584517862
 20
2021.385091039981
 30
0.0
 10
731.1104235344209
 20
2022.567973476401
 30
0.0
 10
731.9628637516529
 20
2024.949813793647
 30
0.0
 10
732.2651240728107
 20
2027.363804999704
 30
0.0
 10
732.2787092593712
 20
2028.578838324936
 30
0.0
  0
SPLINE
  5
128
330
87
100
AcDbEntity
  8
P-SANR-FIXT
100
AcDbSpline
210
0.0
220
0.0
230
1.0
 70
     8
 71
     3
 72
     9
 73
     5
 74
     0
 42
0.000000001
 43
0.0000000001
 40
0.0
 40
0.0
 40
0.0
 40
0.0
 40
0.5
 40
1.0
 40
1.0
 40
1.0
 40
1.0
 10
732.2787092593712
 20
2028.578838324936
 30
0.0
 10
732.2651240728113
 20
2029.793871650157
 30
0.0
 10
731.9628637516585
 20
2032.207862856193
 30
0.0
 10
731.1104235344402
 20
2034.589703173419
 30
0.0
 10
730.5466584518146
 20
2035.77258560983
 30
0.0
  0
LINE
  5
129
330
87
100
AcDbEntity
  8
P-SANR-FIXT
100
AcDbLine
 10
708.0107600669625
 20
2021.385091039981
 30
0.0
 11
730.5466584517862
 21
2021.385091039981
 31
0.0
  0
LINE
  5
12A
330
87
100
AcDbEntity
  8
P-SANR-FIXT
100
AcDbLine
 10
708.0107600669293
 20
2021.385091039981
 30
0.0
 11
708.0107600669293
 21
2014.387494569898
 31
0.0
  0
LINE
  5
12B
330
87
100
AcDbEntity
  8
P-SANR-FIXT
100
AcDbLine
 10
730.5466584518192
 20
2014.387494569898
 30
0.0
 11
730.5466584518192
 21
2021.38509103998
 31
0.0
  0
SPLINE
  5
12C
330
87
100
AcDbEntity
  8
P-SANR-FIXT
100
AcDbSpline
210
0.0
220
0.0
230
1.0
 70
     8
 71
     3
 72
     9
 73
     5
 74
     0
 42
0.000000001
 43
0.0000000001
 40
0.0
 40
0.0
 40
0.0
 40
0.0
 40
0.5
 40
1.0
 40
1.0
 40
1.0
 40
1.0
 10
730.5466584517818
 20
1985.612505430094
 30
0.0
 10
731.1104235344144
 20
1987.978270302933
 30
0.0
 10
731.9628637516453
 20
1992.741950937423
 30
0.0
 10
732.2651240728072
 20
1997.569933349534
 30
0.0
 10
732.2787092593711
 20
1999.999999999996
 30
0.0
  0
SPLINE
  5
12D
330
87
100
AcDbEntity
  8
P-SANR-FIXT
100
AcDbSpline
210
0.0
220
0.0
230
1.0
 70
     8
 71
     3
 72
     9
 73
     5
 74
     0
 42
0.000000001
 43
0.0000000001
 40
0.0
 40
0.0
 40
0.0
 40
0.0
 40
0.5
 40
1.0
 40
1.0
 40
1.0
 40
1.0
 10
732.2787092593711
 20
1999.999999999996
 30
0.0
 10
732.2651240728072
 20
2002.430066650457
 30
0.0
 10
731.9628637516453
 20
2007.258049062569
 30
0.0
 10
731.1104235344144
 20
2012.021729697059
 30
0.0
 10
730.5466584517817
 20
2014.387494569898
 30
0.0
  0
LINE
  5
12E
330
87
100
AcDbEntity
  8
P-SANR-FIXT
100
AcDbLine
 10
708.010760066967
 20
2014.387494569898
 30
0.0
 11
730.5466584517817
 21
2014.387494569898
 31
0.0
  0
SPLINE
  5
12F
330
87
100
AcDbEntity
  8
P-SANR-FIXT
100
AcDbSpline
210
0.0
220
0.0
230
1.0
 70
     8
 71
     3
 72
     9
 73
     5
 74
     0
 42
0.000000001
 43
0.0000000001
 40
0.0
 40
0.0
 40
0.0
 40
0.0
 40
0.5
 40
1.0
 40
1.0
 40
1.0
 40
1.0
 10
708.010760066967
 20
2014.387494569898
 30
0.0
 10
707.4469949843352
 20
2012.021729697059
 30
0.0
 10
706.5945547671043
 20
2007.258049062569
 30
0.0
 10
706.292294445938
 20
2002.430066650457
 30
0.0
 10
706.2787092593711
 20
1999.999999999996
 30
0.0
  0
SPLINE
  5
130
330
87
100
AcDbEntity
  8
P-SANR-FIXT
100
AcDbSpline
210
0.0
220
0.0
230
1.0
 70
     8
 71
     3
 72
     9
 73
     5
 74
     0
 42
0.000000001
 43
0.0000000001
 40
0.0
 40
0.0
 40
0.0
 40
0.0
 40
0.5
 40
1.0
 40
1.0
 40
1.0
 40
1.0
 10
706.2787092593711
 20
1999.999999999996
 30
0.0
 10
706.292294445938
 20
1997.569933349534
 30
0.0
 10
706.5945547671041
 20
1992.741950937423
 30
0.0
 10
707.4469949843352
 20
1987.978270302934
 30
0.0
 10
708.0107600669669
 20
1985.612505430094
 30
0.0
  0
LINE
  5
131
330
87
100
AcDbEntity
  8
P-SANR-FIXT
100
AcDbLine
 10
763.2787092593974
 20
2023.899999999998
 30
0.0
 11
743.4911448246931
 21
2023.899999999998
 31
0.0
  0
LINE
  5
132
330
87
100
AcDbEntity
  8
P-SANR-FIXT
100
AcDbLine
 10
743.491144824693
 20
1976.099999999993
 30
0.0
 11
763.2787092593972
 21
1976.099999999993
 31
0.0
  0
LINE
  5
133
330
87
100
AcDbEntity
  8
P-SANR-FIXT
100
AcDbLine
 10
765.2787092593982
 20
2021.899999999997
 30
0.0
 11
763.2787092593974
 21
2023.899999999998
 31
0.0
  0
LINE
  5
134
330
87
100
AcDbEntity
  8
P-SANR-FIXT
100
AcDbLine
 10
763.2787092593972
 20
1976.099999999993
 30
0.0
 11
765.2787092593982
 21
1978.099999999994
 31
0.0
  0
LINE
  5
135
330
87
100
AcDbEntity
  8
P-SANR-FIXT
100
AcDbLine
 10
732.2787092593727
 20
1976.100000000019
 30
0.0
 11
743.491144824693
 21
1976.100000000019
 31
0.0
  0
LINE
  5
136
330
87
100
AcDbEntity
  8
P-SANR-FIXT
100
AcDbLine
 10
743.4911448246931
 20
2023.899999999974
 30
0.0
 11
732.2787092593727
 21
2023.899999999974
 31
0.0
  0
LINE
  5
137
330
87
100
AcDbEntity
  8
P-SANR-FIXT
100
AcDbLine
 10
743.4911448246913
 20
1990.66137055043
 30
0.0
 11
743.4911448246913
 21
2009.33862944956
 31
0.0
  0
LINE
  5
138
330
87
100
AcDbEntity
  8
P-SANR-FIXT
100
AcDbLine
 10
743.4911448246913
 20
1976.278126391868
 30
0.0
 11
743.4911448246913
 21
1985.616755841518
 31
0.0
  0
LINE
  5
139
330
87
100
AcDbEntity
  8
P-SANR-FIXT
100
AcDbLine
 10
743.4911448246913
 20
2014.383244158473
 30
0.0
 11
743.4911448246916
 21
2023.721873608121
 31
0.0
  0
LINE
  5
13A
330
87
100
AcDbEntity
  8
P-SANR-FIXT
100
AcDbLine
 10
763.2787092593957
 20
1976.099999999993
 30
0.0
 11
763.278709259396
 21
2023.899999999997
 31
0.0
  0
LINE
  5
13B
330
87
100
AcDbEntity
  8
P-SANR-FIXT
100
AcDbLine
 10
765.2787092593967
 20
2021.899999999996
 30
0.0
 11
765.2787092593966
 21
1978.099999999994
 31
0.0
  0
LINE
  5
13C
330
87
100
AcDbEntity
  8
P-SANR-FIXT
100
AcDbLine
 10
732.2787092593711
 20
1998.472524931079
 30
0.0
 11
732.2787092593711
 21
2001.530666354488
 31
0.0
  0
LINE
  5
13D
330
87
100
AcDbEntity
  8
P-SANR-FIXT
100
AcDbLine
 10
732.2787092593711
 20
1990.661370550326
 30
0.0
 11
743.4911448246913
 21
1990.661370550326
 31
0.0
  0
LINE
  5
13E
330
87
100
AcDbEntity
  8
P-SANR-FIXT
100
AcDbLine
 10
732.2787092593711
 20
1985.616755841559
 30
0.0
 11
743.4911448246913
 21
1985.616755841559
 31
0.0
  0
LINE
  5
13F
330
87
100
AcDbEntity
  8
P-SANR-FIXT
100
AcDbLine
 10
732.2787092593711
 20
1976.278126391889
 30
0.0
 11
743.4911448246913
 21
1976.278126391889
 31
0.0
  0
LINE
  5
140
330
87
100
AcDbEntity
  8
P-SANR-FIXT
100
AcDbLine
 10
732.2787092593713
 20
2023.721873608101
 30
0.0
 11
743.4911448246916
 21
2023.721873608101
 31
0.0
  0
LINE
  5
141
330
87
100
AcDbEntity
  8
P-SANR-FIXT
100
AcDbLine
 10
732.2787092593711
 20
2014.383244158432
 30
0.0
 11
743.4911448246913
 21
2014.383244158432
 31
0.0
  0
LINE
  5
142
330
87
100
AcDbEntity
  8
P-SANR-FIXT
100
AcDbLine
 10
743.4911448246913
 20
2009.338629449665
 30
0.0
 11
732.2787092593711
 21
2009.338629449665
 31
0.0
  0
LINE
  5
143
330
87
100
AcDbEntity
  8
P-SANR-FIXT
100
AcDbLine
 10
567.0662736940561
 20
2023.899999999998
 30
0.0
 11
547.2787092593518
 21
2023.899999999998
 31
0.0
  0
LINE
  5
144
330
87
100
AcDbEntity
  8
P-SANR-FIXT
100
AcDbLine
 10
547.2787092593518
 20
1976.099999999993
 30
0.0
 11
567.0662736940562
 21
1976.099999999993
 31
0.0
  0
LINE
  5
145
330
87
100
AcDbEntity
  8
P-SANR-FIXT
100
AcDbLine
 10
547.2787092593518
 20
2023.899999999998
 30
0.0
 11
545.2787092593509
 21
2021.899999999997
 31
0.0
  0
LINE
  5
146
330
87
100
AcDbEntity
  8
P-SANR-FIXT
100
AcDbLine
 10
545.2787092593509
 20
1978.099999999994
 30
0.0
 11
547.2787092593518
 21
1976.099999999993
 31
0.0
  0
LINE
  5
147
330
87
100
AcDbEntity
  8
P-SANR-FIXT
100
AcDbLine
 10
567.0662736940561
 20
1976.100000000019
 30
0.0
 11
578.2787092593765
 21
1976.100000000019
 31
0.0
  0
LINE
  5
148
330
87
100
AcDbEntity
  8
P-SANR-FIXT
100
AcDbLine
 10
578.2787092593765
 20
2023.899999999974
 30
0.0
 11
567.0662736940562
 21
2023.899999999974
 31
0.0
  0
LINE
  5
149
330
87
100
AcDbEntity
  8
P-SANR-FIXT
100
AcDbLine
 10
545.2787092593497
 20
1978.099999999994
 30
0.0
 11
545.2787092593497
 21
2021.899999999996
 31
0.0
  0
LINE
  5
14A
330
87
100
AcDbEntity
  8
P-SANR-FIXT
100
AcDbLine
 10
567.0662736940547
 20
1985.616755841518
 30
0.0
 11
567.0662736940547
 21
1976.278126391868
 31
0.0
  0
LINE
  5
14B
330
87
100
AcDbEntity
  8
P-SANR-FIXT
100
AcDbLine
 10
567.0662736940547
 20
2009.33862944956
 30
0.0
 11
567.0662736940547
 21
1990.66137055043
 31
0.0
  0
LINE
  5
14C
330
87
100
AcDbEntity
  8
P-SANR-FIXT
100
AcDbLine
 10
567.0662736940547
 20
2023.721873608121
 30
0.0
 11
567.0662736940547
 21
2014.383244158473
 31
0.0
  0
LINE
  5
14D
330
87
100
AcDbEntity
  8
P-SANR-FIXT
100
AcDbLine
 10
547.2787092593504
 20
2023.899999999997
 30
0.0
 11
547.2787092593504
 21
1976.099999999993
 31
0.0
  0
LINE
  5
14E
330
87
100
AcDbEntity
  8
P-SANR-FIXT
100
AcDbLine
 10
578.2787092593751
 20
2001.530666354487
 30
0.0
 11
578.2787092593751
 21
1998.472524931079
 31
0.0
  0
LINE
  5
14F
330
87
100
AcDbEntity
  8
P-SANR-FIXT
100
AcDbLine
 10
578.2787092593751
 20
2009.338629449665
 30
0.0
 11
567.0662736940539
 21
2009.338629449665
 31
0.0
  0
LINE
  5
150
330
87
100
AcDbEntity
  8
P-SANR-FIXT
100
AcDbLine
 10
567.0662736940539
 20
1990.661370550326
 30
0.0
 11
578.2787092593751
 21
1990.661370550326
 31
0.0
  0
LINE
  5
151
330
87
100
AcDbEntity
  8
P-SANR-FIXT
100
AcDbLine
 10
567.0662736940539
 20
1985.616755841559
 30
0.0
 11
578.2787092593751
 21
1985.616755841559
 31
0.0
  0
LINE
  5
152
330
87
100
AcDbEntity
  8
P-SANR-FIXT
100
AcDbLine
 10
567.066273694054
 20
1976.278126391889
 30
0.0
 11
578.2787092593752
 21
1976.278126391889
 31
0.0
  0
LINE
  5
153
330
87
100
AcDbEntity
  8
P-SANR-FIXT
100
AcDbLine
 10
567.066273694054
 20
2023.721873608101
 30
0.0
 11
578.2787092593752
 21
2023.721873608101
 31
0.0
  0
LINE
  5
154
330
87
100
AcDbEntity
  8
P-SANR-FIXT
100
AcDbLine
 10
567.0662736940539
 20
2014.383244158432
 30
0.0
 11
578.2787092593751
 21
2014.383244158432
 31
0.0
  0
LINE
  5
155
330
87
100
AcDbEntity
  8
P-SANR-FIXT
100
AcDbLine
 10
695.6919530984964
 20
2027.980055864833
 30
0.0
 11
701.9629938093836
 21
2049.849773817896
 31
0.0
  0
LINE
  5
156
330
87
100
AcDbEntity
  8
P-SANR-FIXT
100
AcDbLine
 10
704.4367919128943
 20
2051.221022498138
 30
0.0
 11
705.6135506397733
 21
2051.873310511824
 31
0.0
  0
LINE
  5
157
330
87
100
AcDbEntity
  8
P-SANR-FIXT
100
AcDbLine
 10
705.6165524798847
 20
2051.874974458968
 30
0.0
 11
705.6736909646495
 21
2051.90664683826
 31
0.0
  0
LINE
  5
158
330
87
100
AcDbEntity
  8
P-SANR-FIXT
100
AcDbLine
 10
705.6736909646495
 20
2051.90664683826
 30
0.0
 11
708.2371183737478
 21
2060.846380610486
 31
0.0
  0
LINE
  5
159
330
87
100
AcDbEntity
  8
P-SANR-FIXT
100
AcDbLine
 10
690.934407846858
 20
2065.807853015192
 30
0.0
 11
688.4235758150757
 21
2057.051541121497
 31
0.0
  0
LINE
  5
15A
330
87
100
AcDbEntity
  8
P-SANR-FIXT
100
AcDbLine
 10
708.2371183737478
 20
2060.846380610486
 30
0.0
 11
707.7594602939673
 21
2061.708098597101
 31
0.0
  0
LINE
  5
15B
330
87
100
AcDbEntity
  8
P-SANR-FIXT
100
AcDbLine
 10
691.7858992030077
 20
2066.27984238114
 30
0.0
 11
690.934407846858
 21
2065.807853015192
 31
0.0
  0
LWPOLYLINE
  5
15C
330
87
100
AcDbEntity
  8
P-SANR-FIXT
100
AcDbPolyline
 90
       41
 70
   128
 43
0.0
 10
704.4367919128943
 20
2051.221022498138
 10
704.359470521525
 20
2051.241529793156
 10
704.2813909059479
 20
2051.258928653564
 10
704.2026779768922
 20
2051.2731912449
 10
704.1234576582525
 20
2051.284294750059
 10
704.0438566856399
 20
2051.292221405803
 10
703.9640024036292
 20
2051.296958531171
 10
703.8840225620376
 20
2051.298498547775
 10
703.8040451115497
 20
2051.296838991916
 10
703.7241979990256
 20
2051.29198251853
 10
703.6446089628123
 20
2051.283936896938
 10
703.5654053283893
 20
2051.272714998419
 10
703.4867138046761
 20
2051.258334775616
 10
703.4086602813239
 20
2051.240819233818
 10
703.3313696273197
 20
2051.220196394154
 10
703.2549654912219
 20
2051.196499248772
 10
703.1795701033494
 20
2051.169765708046
 10
703.1053040802397
 20
2051.140038539939
 10
703.0322862316869
 20
2051.107365301579
 10
702.9606333706728
 20
2051.071798263177
 10
702.8904601264896
 20
2051.033394324409
 10
702.8218787613584
 20
2050.992214923382
 10
702.7549989908335
 20
2050.948325938355
 10
702.689927808281
 20
2050.901797582341
 10
702.6267693137119
 20
2050.852704290783
 10
702.5656245472442
 20
2050.801124602477
 10
702.506591327461
 20
2050.747141033919
 10
702.4497640949206
 20
2050.690839947304
 10
702.3952337610726
 20
2050.632311412361
 10
702.3430875628187
 20
2050.57164906226
 10
702.2934089229525
 20
2050.50894994382
 10
702.2462773166997
 20
2050.444314362255
 10
702.2017681445764
 20
2050.377845720708
 10
702.1599526117629
 20
2050.309650354826
 10
702.1208976141921
 20
2050.239837362648
 10
702.0846656315284
 20
2050.168518430067
 10
702.0513146272151
 20
2050.095807652162
 10
702.0208979557446
 20
2050.021821350668
 10
701.9934642773029
 20
2049.946677887883
 10
701.9690574799227
 20
2049.870497477318
 10
701.9629938093835
 20
2049.849773817896
  0
LWPOLYLINE
  5
15D
330
87
100
AcDbEntity
  8
P-SANR-FIXT
100
AcDbPolyline
 90
       38
 70
   128
 43
0.0
 10
656.1874609302633
 20
1960.579823178237
 10
655.9603533589848
 20
1960.502270154586
 10
655.7303261557597
 20
1960.433861045646
 10
655.4977473150434
 20
1960.374705291398
 10
655.2629889133668
 20
1960.32489752843
 10
655.0264265140937
 20
1960.284517438537
 10
654.7884385665987
 20
1960.25362962125
 10
654.54940580083
 20
1960.232283490487
 10
654.3097106182216
 20
1960.220513195504
 10
654.0697364799338
 20
1960.218337566262
 10
653.8298672933962
 20
1960.225760083303
 10
653.590486798137
 20
1960.242768872184
 10
653.3519779518846
 20
1960.26933672247
 10
653.114722317913
 20
1960.305421131269
 10
652.8790994546251
 20
1960.350964371225
 10
652.6454863083389
 20
1960.405893582868
 10
652.4142566102531
 20
1960.470120891178
 10
652.1857802785586
 20
1960.543543546162
 10
651.9604228266469
 20
1960.626044087237
 10
651.7385447783674
 20
1960.717490531133
 10
651.520501091266
 20
1960.817736583049
 10
651.3066405887285
 20
1960.926621870687
 10
651.0973054019379
 20
1961.043972200814
 10
650.8928304225371
 20
1961.169599837935
 10
650.6935427668743
 20
1961.303303804631
 10
650.499761252686
 20
1961.444870203075
 10
650.3117958890571
 20
1961.59407255723
 10
650.1299473804724
 20
1961.750672175158
 10
649.9545066457533
 20
1961.914418530875
 10
649.7857543526499
 20
1962.085049665144
 10
649.6239604688325
 20
1962.262292604549
 10
649.4693838300012
 20
1962.445863798197
 10
649.3222717258033
 20
1962.635469571337
 10
649.1828595042236
 20
1962.83080659518
 10
649.0513701950768
 20
1963.031562372157
 10
648.9280141532081
 20
1963.237415735851
 10
648.8129887219696
 20
1963.448037364792
 10
648.746689368115
 20
1963.579334628
  0
LINE
  5
15E
330
87
100
AcDbEntity
  8
P-SANR-FIXT
100
AcDbLine
 10
693.6775703664384
 20
1974.225107092388
 30
0.0
 11
693.664594497801
 21
1974.22038426244
 31
0.0
  0
LWPOLYLINE
  5
15F
330
87
100
AcDbEntity
  8
P-SANR-FIXT
100
AcDbPolyline
 90
        5
 70
   128
 43
0.0
 10
656.3289470618344
 20
1960.631319918691
 10
656.2841509147594
 20
1960.615015454546
 10
656.2230200478485
 20
1960.592765638595
 10
656.1918323811872
 20
1960.581414256254
 10
656.1874609302633
 20
1960.579823178237
  0
LWPOLYLINE
  5
160
330
87
100
AcDbEntity
  8
P-SANR-FIXT
100
AcDbPolyline
 90
       70
 70
   128
 43
0.0
 10
656.1874609302633
 20
1960.579823178237
 10
656.2024609738895
 20
1960.585282747629
 10
656.2474371078978
 20
1960.601652721661
 10
656.3223173800683
 20
1960.628906911865
 10
656.4269819979391
 20
1960.667001717351
 10
656.561263520449
 20
1960.715876194556
 10
656.7249471258072
 20
1960.775452154744
 10
656.9177709551621
 20
1960.845634289087
 10
657.1394265315205
 20
1960.926310321141
 10
657.3895592532443
 20
1961.017351186464
 10
657.6677689613376
 20
1961.118611239093
 10
657.9736105796155
 20
1961.229928484547
 10
658.3065948267314
 20
1961.351124838977
 10
658.6661889989231
 20
1961.48200641407
 10
659.0518178222242
 20
1961.622363827227
 10
659.4628643727806
 20
1961.771972536526
 10
659.8986710637966
 20
1961.930593199951
 10
660.3585406975338
 20
1962.097972058274
 10
660.8417375806783
 20
1962.273841341028
 10
661.3474887012938
 20
1962.45791969488
 10
661.8749849654752
 20
1962.649912633728
 10
662.423382491726
 20
1962.849513009828
 10
662.9918039609897
 20
1963.056401505158
 10
663.5793400201721
 20
1963.270247142259
 10
664.1850507369131
 20
1963.490707813729
 10
664.8079671032771
 20
1963.717430829522
 10
665.4470925859596
 20
1963.95005348118
 10
666.1014047205282
 20
1964.188203622082
 10
666.769856747146
 20
1964.431500262806
 10
667.4513792851667
 20
1964.679554180627
 10
668.1448820439125
 20
1964.931968542192
 10
668.8492555669093
 20
1965.188339538368
 10
669.5633730067785
 20
1965.448257030251
 10
670.2860919279531
 20
1965.711305205299
 10
671.0162561343312
 20
1965.977063242547
 10
671.7526975189425
 20
1966.245105985828
 10
672.4942379326709
 20
1966.51500462393
 10
673.2396910690411
 20
1966.786327376609
 10
673.9878643620565
 20
1967.05864018534
 10
674.7375608940504
 20
1967.331507407719
 10
675.4875813104976
 20
1967.604492514397
 10
676.2367257387283
 20
1967.877158787439
 10
676.983795707466
 20
1968.149070018974
 10
677.727596064127
 20
1968.419791209035
 10
678.4669368868098
 20
1968.68888926147
 10
679.200635387916
 20
1968.955933676798
 10
679.9275178063573
 20
1969.220497240922
 10
680.6464212853244
 20
1969.482156708577
 10
681.3561957326088
 20
1969.740493480431
 10
682.0557056605057
 20
1969.995094272759
 10
682.7438320023504
 20
1970.245551778605
 10
683.4194739027894
 20
1970.491465319388
 10
684.0815504789108
 20
1970.732441485901
 10
684.7290025494283
 20
1970.968094767683
 10
685.3607943291445
 20
1971.198048169754
 10
685.9759150859873
 20
1971.421933815724
 10
686.5733807579645
 20
1971.63939353632
 10
687.1522355274535
 20
1971.850079442377
 10
687.7115533503054
 20
1972.053654481389
 10
688.2504394373183
 20
1972.249792976722
 10
688.7680316857097
 20
1972.438181148624
 10
689.2635020582954
 20
1972.618517616206
 10
689.7360579081744
 20
1972.79051387959
 10
690.1849432467932
 20
1972.953894781445
 10
690.6094399533671
 20
1973.108398947183
 10
691.0088689237203
 20
1973.253779203095
 10
691.3825911567066
 20
1973.389802971786
 10
691.7300087764772
 20
1973.516252644241
 10
692.0505659889519
 20
1973.632925927962
 10
692.1050107959732
 20
1973.652742217128
  0
LWPOLYLINE
  5
161
330
87
100
AcDbEntity
  8
P-SANR-FIXT
100
AcDbPolyline
 90
        3
 70
   128
 43
0.0
 10
693.6570112924795
 20
1974.217624201422
 10
693.6881989591405
 20
1974.228975583763
 10
693.6925704100644
 20
1974.23056666178
  0
LINE
  5
162
330
87
100
AcDbEntity
  8
P-SANR-FIXT
100
AcDbLine
 10
648.7466893681161
 20
1963.579334627998
 30
0.0
 11
643.3122769076609
 21
1972.047960974437
 31
0.0
  0
LINE
  5
163
330
87
100
AcDbEntity
  8
P-SANR-FIXT
100
AcDbLine
 10
615.1328418486021
 20
2030.608987427776
 30
0.0
 11
613.3146385116228
 21
2035.814691387205
 31
0.0
  0
LINE
  5
164
330
87
100
AcDbEntity
  8
P-SANR-FIXT
100
AcDbLine
 10
678.1750166835672
 20
2059.421938425042
 30
0.0
 11
678.8415004495649
 21
2057.721585103609
 31
0.0
  0
LINE
  5
165
330
87
100
AcDbEntity
  8
P-SANR-FIXT
100
AcDbLine
 10
678.0959051870943
 20
2060.202267979326
 30
0.0
 11
678.2560189446352
 21
2061.110318221539
 31
0.0
  0
LINE
  5
166
330
87
100
AcDbEntity
  8
P-SANR-FIXT
100
AcDbLine
 10
612.1673175660183
 20
2037.055998098415
 30
0.0
 11
612.8736552649167
 21
2036.463310395782
 31
0.0
  0
LINE
  5
167
330
87
100
AcDbEntity
  8
P-SANR-FIXT
100
AcDbLine
 10
678.1432311140697
 20
2062.39948902402
 30
0.0
 11
676.9016545507676
 21
2065.810692596217
 31
0.0
  0
LINE
  5
168
330
87
100
AcDbEntity
  8
P-SANR-FIXT
100
AcDbLine
 10
610.1834784749676
 20
2041.527262420094
 30
0.0
 11
611.4250550382698
 21
2038.116058847897
 31
0.0
  0
LINE
  5
169
330
87
100
AcDbEntity
  8
P-SANR-FIXT
100
AcDbLine
 10
670.7867503287815
 20
2086.996960468495
 30
0.0
 11
669.9469727025594
 21
2087.38855520675
 31
0.0
  0
LINE
  5
16A
330
87
100
AcDbEntity
  8
P-SANR-FIXT
100
AcDbLine
 10
601.6581214593283
 20
2062.563769150125
 30
0.0
 11
601.2494963906244
 21
2061.687469862396
 31
0.0
  0
LWPOLYLINE
  5
16B
330
87
100
AcDbEntity
  8
P-SANR-FIXT
100
AcDbPolyline
 90
       15
 70
   128
 43
0.0
 10
613.3146385116222
 20
2035.814691387207
 10
613.2953310504074
 20
2035.86900921134
 10
613.2738668994804
 20
2035.922511494489
 10
613.2502803969041
 20
2035.975112644414
 10
613.2246092760514
 20
2036.026728510495
 10
613.1968946052389
 20
2036.077276518359
 10
613.1671807220283
 20
2036.126675801973
 10
613.1355151622937
 20
2036.174847333025
 10
613.1019485841761
 20
2036.22171404734
 10
613.0665346870398
 20
2036.267200968172
 10
613.0293301255655
 20
2036.311235326152
 10
612.9903944191153
 20
2036.3537466757
 10
612.9497898565134
 20
2036.394667007725
 10
612.9075813963984
 20
2036.433930858427
 10
612.8736552649167
 20
2036.463310395782
  0
LWPOLYLINE
  5
16C
330
87
100
AcDbEntity
  8
P-SANR-FIXT
100
AcDbPolyline
 90
       15
 70
   128
 43
0.0
 10
678.0959051870943
 20
2060.202267979326
 10
678.087032204476
 20
2060.145307692664
 10
678.0804441232361
 20
2060.088038143489
 10
678.0761514828992
 20
2060.030550950862
 10
678.0741611507741
 20
2059.972938082028
 10
678.0744763109676
 20
2059.915291705288
 10
678.0770964592907
 20
2059.857704042548
 10
678.082017404065
 20
2059.800267221782
 10
678.0892312728286
 20
2059.743073129651
 10
678.0987265249304
 20
2059.686213264503
 10
678.1104879699925
 20
2059.629778589991
 10
678.1244967922114
 20
2059.573859389557
 10
678.1407305804608
 20
2059.518545121992
 10
678.159163364142
 20
2059.463924278325
 10
678.1750166835665
 20
2059.421938425043
  0
LWPOLYLINE
  5
16D
330
87
100
AcDbEntity
  8
P-SANR-FIXT
100
AcDbPolyline
 90
       15
 70
   128
 43
0.0
 10
612.1673175660183
 20
2037.055998098415
 10
612.0920189517428
 20
2037.12179160437
 10
612.019411606824
 20
2037.190543623989
 10
611.9496116875252
 20
2037.262144168705
 10
611.8827308588276
 20
2037.336478692921
 10
611.8188761157898
 20
2037.413428277256
 10
611.7581496123793
 20
2037.492869818791
 10
611.700648498047
 20
2037.574676228004
 10
611.6464647623097
 20
2037.658716632092
 10
611.5956850875861
 20
2037.744856584336
 10
611.5483907105229
 20
2037.83295827919
 10
611.504657292035
 20
2037.922880772733
 10
611.4645547962624
 20
2038.014480208161
 10
611.4281473786435
 20
2038.107610045915
 10
611.4250550382701
 20
2038.116058847898
  0
LWPOLYLINE
  5
16E
330
87
100
AcDbEntity
  8
P-SANR-FIXT
100
AcDbPolyline
 90
       15
 70
   128
 43
0.0
 10
678.1432311140695
 20
2062.39948902402
 10
678.1755448739243
 20
2062.30486086932
 10
678.204048669316
 20
2062.20901620131
 10
678.2286969002527
 20
2062.112108351012
 10
678.2494501348224
 20
2062.014292350313
 10
678.2662751722778
 20
2061.915724683949
 10
678.2791450961474
 20
2061.81656303916
 10
678.2880393172986
 20
2061.716966053422
 10
678.2929436068748
 20
2061.617093060669
 10
678.2938501190592
 20
2061.517103836382
 10
678.2907574036252
 20
2061.417158341992
 10
678.2836704082585
 20
2061.317416468967
 10
678.2726004706391
 20
2061.218037783029
 10
678.257565300306
 20
2061.119181268874
 10
678.2560189446352
 20
2061.110318221539
  0
LINE
  5
16F
330
87
100
AcDbEntity
  8
P-SANR-FIXT
100
AcDbLine
 10
691.067432561871
 20
2052.974025730871
 30
0.0
 11
686.2099002042651
 21
2036.033797225532
 31
0.0
  0
SPLINE
  5
170
330
87
100
AcDbEntity
  8
P-SANR-FIXT
100
AcDbSpline
210
0.0
220
0.0
230
1.0
 70
     8
 71
     3
 72
    20
 73
    16
 74
     0
 42
0.000000001
 43
0.0000000001
 40
0.0
 40
0.0
 40
0.0
 40
0.0
 40
0.0625
 40
0.09375
 40
0.125
 40
0.15625
 40
0.1875
 40
0.21875
 40
0.25
 40
0.28125
 40
0.3125
 40
0.34375
 40
0.375
 40
0.40625
 40
0.4323741083312087
 40
0.4323741083312087
 40
0.4323741083312087
 40
0.4323741083312087
 10
686.2099002042652
 20
2036.033797225532
 30
0.0
 10
686.2718203446615
 20
2035.683085017403
 30
0.0
 10
686.3896669531706
 20
2035.1345226943
 30
0.0
 10
686.574144695826
 20
2034.363815380316
 30
0.0
 10
686.7228461864195
 20
2033.768652043606
 30
0.0
 10
686.8710580197378
 20
2033.153232680372
 30
0.0
 10
687.0152370899922
 20
2032.519869903576
 30
0.0
 10
687.1606121306708
 20
2031.875461854018
 30
0.0
 10
687.3153981681642
 20
2031.226893973893
 30
0.0
 10
687.4757773288275
 20
2030.574026843256
 30
0.0
 10
687.6331855476692
 20
2029.913596954721
 30
0.0
 10
687.792775275797
 20
2029.249097282658
 30
0.0
 10
687.9587618468399
 20
2028.582695547815
 30
0.0
 10
688.1188982261709
 20
2027.950855114777
 30
0.0
 10
688.2214644399074
 20
2027.540154160248
 30
0.0
 10
688.2685223696189
 20
2027.353040346498
 30
0.0
  0
ARC
  5
171
330
87
100
AcDbEntity
  8
P-SANR-FIXT
100
AcDbCircle
 10
871.3503460911551
 20
2163.808854685731
 30
0.0
 40
211.6418405118691
100
AcDbArc
 50
210.3877987305232
 51
210.78170028624
  0
LINE
  5
172
330
87
100
AcDbEntity
  8
P-SANR-FIXT
100
AcDbLine
 10
689.5238896272018
 20
2055.497228416832
 30
0.0
 11
704.4367919128928
 21
2051.221022498138
 31
0.0
  0
LINE
  5
173
330
87
100
AcDbEntity
  8
P-SANR-FIXT
100
AcDbLine
 10
688.8613051909425
 20
2057.020932101747
 30
0.0
 11
688.7835630622228
 21
2056.749813079155
 31
0.0
  0
LINE
  5
174
330
87
100
AcDbEntity
  8
P-SANR-FIXT
100
AcDbLine
 10
705.6736909646481
 20
2051.906646838259
 30
0.0
 11
688.7835630622228
 21
2056.749813079155
 31
0.0
  0
LINE
  5
175
330
87
100
AcDbEntity
  8
P-SANR-FIXT
100
AcDbLine
 10
708.2371183737461
 20
2060.846380610485
 30
0.0
 11
690.9344078468564
 21
2065.807853015191
 31
0.0
  0
SPLINE
  5
176
330
87
100
AcDbEntity
  8
P-SANR-FIXT
100
AcDbSpline
210
0.0
220
0.0
230
1.0
 70
     8
 71
     3
 72
    12
 73
     8
 74
     0
 42
0.000000001
 43
0.0000000001
 40
-1.0
 40
-1.0
 40
-1.0
 40
-1.0
 40
-0.5714285714285714
 40
-0.4285714285714286
 40
-0.2857142857142857
 40
-0.1428571428571428
 40
0.0
 40
0.0
 40
0.0
 40
0.0
 10
689.5238896272018
 20
2055.497228416832
 30
0.0
 10
689.9798802846512
 20
2055.365063539247
 30
0.0
 10
690.5181352008603
 20
2055.007662185692
 30
0.0
 10
690.9434108895338
 20
2054.346913091673
 30
0.0
 10
691.1046448677945
 20
2053.904985258987
 30
0.0
 10
691.1566554844857
 20
2053.433837273452
 30
0.0
 10
691.1102298840819
 20
2053.127514487296
 30
0.0
 10
691.067432561871
 20
2052.974025730871
 30
0.0
  0
LINE
  5
177
330
87
100
AcDbEntity
  8
P-SANR-FIXT
100
AcDbLine
 10
690.4234054814641
 20
1978.74841875522
 30
0.0
 11
648.7466893681147
 21
1963.579334627998
 31
0.0
  0
SPLINE
  5
178
330
87
100
AcDbEntity
  8
P-SANR-FIXT
100
AcDbSpline
210
0.0
220
0.0
230
1.0
 70
     8
 71
     3
 72
     9
 73
     5
 74
     0
 42
0.000000001
 43
0.0000000001
 40
-1.0
 40
-1.0
 40
-1.0
 40
-1.0
 40
-0.5
 40
0.0
 40
0.0
 40
0.0
 40
0.0
 10
686.2099002042652
 20
2036.033797225532
 30
0.0
 10
685.1005706134773
 20
2039.697749921154
 30
0.0
 10
682.7430904441428
 20
2046.977738336578
 30
0.0
 10
680.1079682992907
 20
2054.161892800357
 30
0.0
 10
678.7209967329853
 20
2057.730011544336
 30
0.0
  0
LINE
  5
179
330
87
100
AcDbEntity
  8
P-SANR-FIXT
100
AcDbLine
 10
688.8613051909425
 20
2057.020932101747
 30
0.0
 11
678.7209967329853
 21
2057.730011544336
 31
0.0
  0
LINE
  5
17A
330
87
100
AcDbEntity
  8
P-SANR-FIXT
100
AcDbLine
 10
706.2787092593728
 20
2030.149999999996
 30
0.0
 11
705.2787092593747
 21
2030.149999999996
 31
0.0
  0
LINE
  5
17B
330
87
100
AcDbEntity
  8
P-SANR-FIXT
100
AcDbLine
 10
705.2787092593747
 20
1969.849999999995
 30
0.0
 11
706.2787092593728
 21
1969.849999999995
 31
0.0
  0
LINE
  5
17C
330
87
100
AcDbEntity
  8
P-SANR-FIXT
100
AcDbLine
 10
705.2787092593747
 20
2030.149999999996
 30
0.0
 11
705.2386500627512
 21
2030.080615436133
 31
0.0
  0
LINE
  5
17D
330
87
100
AcDbEntity
  8
P-SANR-FIXT
100
AcDbLine
 10
705.2250489466749
 20
2030.05705761205
 30
0.0
 11
704.4126838555903
 21
2028.649999999996
 31
0.0
  0
LINE
  5
17E
330
87
100
AcDbEntity
  8
P-SANR-FIXT
100
AcDbLine
 10
704.4126838555903
 20
1971.349999999996
 30
0.0
 11
705.2250489466749
 21
1969.942942387942
 31
0.0
  0
LINE
  5
17F
330
87
100
AcDbEntity
  8
P-SANR-FIXT
100
AcDbLine
 10
705.2386500627513
 20
1969.919384563858
 30
0.0
 11
705.2787092593747
 21
1969.849999999996
 31
0.0
  0
LINE
  5
180
330
87
100
AcDbEntity
  8
P-SANR-FIXT
100
AcDbLine
 10
703.2868508306704
 20
2027.999999999996
 30
0.0
 11
695.5641864464052
 21
2027.999999999996
 31
0.0
  0
LINE
  5
181
330
87
100
AcDbEntity
  8
P-SANR-FIXT
100
AcDbLine
 10
613.7882759961207
 20
2027.999999999996
 30
0.0
 11
607.2754109252561
 21
2027.999999999996
 31
0.0
  0
LINE
  5
182
330
87
100
AcDbEntity
  8
P-SANR-FIXT
100
AcDbLine
 10
607.2754109252561
 20
1971.999999999995
 30
0.0
 11
643.5226905339348
 21
1971.999999999995
 31
0.0
  0
LINE
  5
183
330
87
100
AcDbEntity
  8
P-SANR-FIXT
100
AcDbLine
 10
687.564138874223
 20
1971.999999999995
 30
0.0
 11
703.2868508306704
 21
1971.999999999995
 31
0.0
  0
LINE
  5
184
330
87
100
AcDbEntity
  8
P-SANR-FIXT
100
AcDbLine
 10
606.1423130445703
 20
2028.654194366428
 30
0.0
 11
605.3323695720743
 21
2030.05705761205
 31
0.0
  0
LINE
  5
185
330
87
100
AcDbEntity
  8
P-SANR-FIXT
100
AcDbLine
 10
605.318768457711
 20
2030.080615433167
 30
0.0
 11
605.2787092593746
 21
2030.149999999996
 31
0.0
  0
LINE
  5
186
330
87
100
AcDbEntity
  8
P-SANR-FIXT
100
AcDbLine
 10
605.2787092593746
 20
1969.849999999995
 30
0.0
 11
605.318768457711
 21
1969.919384566825
 31
0.0
  0
LINE
  5
187
330
87
100
AcDbEntity
  8
P-SANR-FIXT
100
AcDbLine
 10
605.3323695720743
 20
1969.942942387942
 30
0.0
 11
606.1423130445703
 21
1971.345805633563
 31
0.0
  0
LINE
  5
188
330
87
100
AcDbEntity
  8
P-SANR-FIXT
100
AcDbLine
 10
605.2787092593746
 20
2030.149999999996
 30
0.0
 11
604.2787092593767
 21
2030.149999999996
 31
0.0
  0
LINE
  5
189
330
87
100
AcDbEntity
  8
P-SANR-FIXT
100
AcDbLine
 10
604.2787092593767
 20
1969.849999999995
 30
0.0
 11
605.2787092593746
 21
1969.849999999995
 31
0.0
  0
LWPOLYLINE
  5
18A
330
87
100
AcDbEntity
  8
P-SANR-FIXT
100
AcDbPolyline
 90
       28
 70
   128
 43
0.0
 10
704.4126838555903
 20
1971.349999999996
 10
704.3857902420314
 20
1971.394501382397
 10
704.3571385598425
 20
1971.437891710739
 10
704.3267746456024
 20
1971.480101569753
 10
704.2947470750974
 20
1971.521063432667
 10
704.2611070856074
 20
1971.56071176924
 10
704.22590849394
 20
1971.598983150592
 10
704.1892076103327
 20
1971.635816350675
 10
704.1510631483706
 20
1971.671152444227
 10
704.1115361310557
 20
1971.704934901036
 10
704.0706897931837
 20
1971.737109676379
 10
704.0285894801817
 20
1971.767625297477
 10
703.9853025435697
 20
1971.796432945847
 10
703.940898233212
 20
1971.823486535398
 10
703.8954475865328
 20
1971.848742786155
 10
703.8490233148714
 20
1971.872161293507
 10
703.801699687159
 20
1971.893704592838
 10
703.753552411105
 20
1971.913338219463
 10
703.7046585120797
 20
1971.931030763769
 10
703.6550962098918
 20
1971.946753921459
 10
703.604944793652
 20
1971.960482538834
 10
703.5542844949278
 20
1971.972194653035
 10
703.5031963593903
 20
1971.981871527179
 10
703.4517621171581
 20
1971.989497680331
 10
703.4000640520467
 20
1971.995060912272
 10
703.3481848699319
 20
1971.998552323019
 10
703.2962075664384
 20
1971.999966327058
 10
703.2868508306704
 20
1971.999999999996
  0
LWPOLYLINE
  5
18B
330
87
100
AcDbEntity
  8
P-SANR-FIXT
100
AcDbPolyline
 90
       28
 70
   128
 43
0.0
 10
703.2868508306704
 20
2027.999999999996
 10
703.3388369651131
 20
2028.001039861337
 10
703.3907399328304
 20
2028.004157781802
 10
703.4424767001461
 20
2028.009348773386
 10
703.493964499269
 20
2028.016604531607
 10
703.5451209607041
 20
2028.025913448802
 10
703.5958642450257
 20
2028.037260632688
 10
703.6461131738037
 20
2028.050627930191
 10
703.6957873594714
 20
2028.065993956488
 10
703.7448073339281
 20
2028.083334129214
 10
703.7930946756716
 20
2028.102620707792
 10
703.8405721352563
 20
2028.12382283781
 10
703.8871637588743
 20
2028.146906600382
 10
703.9327950098672
 20
2028.171835066414
 10
703.9773928879675
 20
2028.198568355678
 10
704.0208860460841
 20
2028.227063700613
 10
704.0632049044416
 20
2028.257275514746
 10
704.1042817618945
 20
2028.289155465619
 10
704.1440509042335
 20
2028.322652552112
 10
704.1824487093141
 20
2028.357713186033
 10
704.2194137488397
 20
2028.394281277845
 10
704.2548868866325
 20
2028.432298326402
 10
704.2888113732391
 20
2028.471703512538
 10
704.3211329367176
 20
2028.512433796359
 10
704.3517998694618
 20
2028.554424018101
 10
704.3807631109207
 20
2028.597607002367
 10
704.4079763260867
 20
2028.641913665593
 10
704.4126838555903
 20
2028.649999999996
  0
LWPOLYLINE
  5
18C
330
87
100
AcDbEntity
  8
P-SANR-FIXT
100
AcDbPolyline
 90
       28
 70
   128
 43
0.0
 10
607.2754109252561
 20
1971.999999999995
 10
607.2230893309717
 20
1971.998953428563
 10
607.1708514400766
 20
1971.995815388558
 10
607.1187808220529
 20
1971.990590900173
 10
607.0669607787818
 20
1971.983288321476
 10
607.0154742112781
 20
1971.973919335036
 10
606.9644034870666
 20
1971.962498929231
 10
606.9138303084115
 20
1971.949045374275
 10
606.86383558161
 20
1971.933580192986
 10
606.8144992875605
 20
1971.916128126355
 10
606.7659003538088
 20
1971.896717093965
 10
606.7181165282814
 20
1971.875378149329
 10
606.6712242549063
 20
1971.852145430204
 10
606.6252985513174
 20
1971.827056103985
 10
606.5804128888435
 20
1971.800150308243
 10
606.5366390749693
 20
1971.771471086511
 10
606.4940471384597
 20
1971.741064319425
 10
606.4527052173267
 20
1971.708978651328
 10
606.4126794498252
 20
1971.675265412442
 10
606.374033868645
 20
1971.639978536759
 10
606.3368302984716
 20
1971.603174475752
 10
606.3011282570815
 20
1971.564912108068
 10
606.2669848601244
 20
1971.525252645333
 10
606.234454729752
 20
1971.484259534226
 10
606.2035899072338
 20
1971.441998354981
 10
606.1744397697014
 20
1971.39853671647
 10
606.1470509511566
 20
1971.353944148043
 10
606.1423130445703
 20
1971.345805633563
  0
LWPOLYLINE
  5
18D
330
87
100
AcDbEntity
  8
P-SANR-FIXT
100
AcDbPolyline
 90
       28
 70
   128
 43
0.0
 10
606.1423130445703
 20
2028.654194366428
 10
606.1693801991599
 20
2028.609405822327
 10
606.1982167669705
 20
2028.565735501775
 10
606.228776615645
 20
2028.523253267968
 10
606.261010855945
 20
2028.482027083418
 10
606.2948679199622
 20
2028.442122901227
 10
606.3302936436165
 20
2028.403604559573
 10
606.367231353307
 20
2028.366533679585
 10
606.4056219565779
 20
2028.330969566764
 10
606.4454040366539
 20
2028.296969116104
 10
606.4865139506927
 20
2028.264586721073
 10
606.528885931602
 20
2028.233874186595
 10
606.5724521932508
 20
2028.204880646173
 10
606.6171430389142
 20
2028.177652483288
 10
606.6628869727729
 20
2028.15223325719
 10
606.7096108142908
 20
2028.128663633221
 10
606.7572398152885
 20
2028.10698131775
 10
606.8056977795252
 20
2028.087220997857
 10
606.8549071845946
 20
2028.069414285837
 10
606.9047893059464
 20
2028.053589668632
 10
606.9552643428275
 20
2028.039772462255
 10
607.0062515459461
 20
2028.027984771286
 10
607.0576693466541
 20
2028.018245453517
 10
607.1094354874388
 20
2028.010570089779
 10
607.1614671535177
 20
2028.004970959018
 10
607.2136811053248
 20
2028.001457018647
 10
607.2659938116752
 20
2028.000033890221
 10
607.2754109252561
 20
2027.999999999996
  0
LINE
  5
18E
330
87
100
AcDbEntity
  8
P-SANR-FIXT
100
AcDbLine
 10
615.1911166408618
 20
2030.876249563032
 30
0.0
 11
613.7882759961207
 21
2027.999999999996
 31
0.0
  0
LINE
  5
18F
330
87
100
AcDbEntity
  8
P-SANR-FIXT
100
AcDbLine
 10
604.2787092593754
 20
1970.70962637388
 30
0.0
 11
604.2787092593753
 21
1972.183977209254
 31
0.0
  0
LINE
  5
190
330
87
100
AcDbEntity
  8
P-SANR-FIXT
100
AcDbLine
 10
604.2787092593751
 20
1998.47160878857
 30
0.0
 11
604.2787092593751
 21
2001.531581664377
 31
0.0
  0
LINE
  5
191
330
87
100
AcDbEntity
  8
P-SANR-FIXT
100
AcDbLine
 10
604.2787092593753
 20
2027.816022790716
 30
0.0
 11
604.2787092593754
 21
2029.290373626106
 31
0.0
  0
LINE
  5
192
330
87
100
AcDbEntity
  8
P-SANR-FIXT
100
AcDbLine
 10
706.2787092593715
 20
2029.290373626121
 30
0.0
 11
706.2787092593715
 21
2027.816022790699
 31
0.0
  0
LINE
  5
193
330
87
100
AcDbEntity
  8
P-SANR-FIXT
100
AcDbLine
 10
706.2787092593713
 20
2001.531581664377
 30
0.0
 11
706.2787092593713
 21
1998.47160878857
 31
0.0
  0
LINE
  5
194
330
87
100
AcDbEntity
  8
P-SANR-FIXT
100
AcDbLine
 10
706.2787092593715
 20
1972.183977209249
 30
0.0
 11
706.2787092593715
 21
1970.709626373885
 31
0.0
  0
LINE
  5
195
330
87
100
AcDbEntity
  8
P-SANR-FIXT
100
AcDbLine
 10
705.2787092593733
 20
2030.149999999995
 30
0.0
 11
705.2787092593733
 21
1969.849999999995
 31
0.0
  0
SPLINE
  5
196
330
87
100
AcDbEntity
  8
P-SANR-FIXT
100
AcDbSpline
210
0.0
220
0.0
230
1.0
 70
     8
 71
     3
 72
    14
 73
    10
 74
     0
 42
0.000000001
 43
0.0000000001
 40
0.4011840480113944
 40
0.4011840480113944
 40
0.4011840480113944
 40
0.4011840480113944
 40
0.4375
 40
0.46875
 40
0.5
 40
0.5625
 40
0.625
 40
0.75
 40
1.0
 40
1.0
 40
1.0
 40
1.0
 10
622.0772841145631
 20
2023.042526446666
 30
0.0
 10
621.7510916225076
 20
2023.168872840594
 30
0.0
 10
621.1600383936179
 20
2023.413961458835
 30
0.0
 10
620.3335802365566
 20
2023.793172289069
 30
0.0
 10
619.3504704090591
 20
2024.275657898592
 30
0.0
 10
618.2289389354902
 20
2024.898366630181
 30
0.0
 10
616.6618128387897
 20
2025.8664421274
 30
0.0
 10
614.5365020523633
 20
2027.371035475014
 30
0.0
 10
613.7911499952715
 20
2027.999999999995
 30
0.0
 10
613.7882759961193
 20
2027.999999999995
 30
0.0
  0
LINE
  5
197
330
87
100
AcDbEntity
  8
P-SANR-FIXT
100
AcDbLine
 10
605.2787092593732
 20
2030.149999999995
 30
0.0
 11
605.2787092593732
 21
1969.849999999995
 31
0.0
  0
ENDBLK
  5
199
330
87
100
AcDbEntity
  8
0
100
AcDbBlockEnd
  0
BLOCK
  5
28F
330
19B
100
AcDbEntity
  8
0
100
AcDbBlockBegin
  2
Automatic flow rate regulator valve_Caleffi_121 DN15 - 1 1_2__-V1-Est - Idraulica
 70
     0
 10
0.0
 20
0.0
 30
0.0
  3
Automatic flow rate regulator valve_Caleffi_121 DN15 - 1 1_2__-V1-Est - Idraulica
  1

  0
LINE
  5
19C
330
19B
100
AcDbEntity
  8
M-PIPE
100
AcDbLine
 10
613.4349765898023
 20
1725.250666260522
 30
0.0
 11
611.5901902293233
 21
1724.841949321464
 31
0.0
1001
REVIT
1002
{
1070
     3
1000
923097
1002
}
  0
LWPOLYLINE
  5
19D
330
19B
100
AcDbEntity
  8
M-PIPE
100
AcDbPolyline
 90
        4
 70
   128
 43
0.0
 10
608.8896092260721
 20
1724.136981478192
 10
606.4166950361046
 20
1723.375313320264
 10
604.027420718177
 20
1722.527858139545
 10
603.5249216385868
 20
1722.335019895261
1001
REVIT
1002
{
1070
     3
1000
923097
1002
}
  0
LWPOLYLINE
  5
19E
330
19B
100
AcDbEntity
  8
M-PIPE
100
AcDbPolyline
 90
        4
 70
   128
 43
0.0
 10
603.5249216385904
 20
1662.975513253966
 10
605.8951335061245
 20
1662.110628949856
 10
608.3507608226645
 20
1661.329848594137
 10
608.8896092260696
 20
1661.173551671037
1001
REVIT
1002
{
1070
     3
1000
923097
1002
}
  0
LINE
  5
19F
330
19B
100
AcDbEntity
  8
M-PIPE
100
AcDbLine
 10
611.5901902293281
 20
1660.468583827763
 30
0.0
 11
613.4349765898073
 21
1660.059866888706
 31
0.0
1001
REVIT
1002
{
1070
     3
1000
923097
1002
}
  0
ELLIPSE
  5
1A0
330
19B
100
AcDbEntity
  8
M-PIPE
100
AcDbEllipse
 10
619.3617423796573
 20
1692.655266574614
 30
0.0
 11
0.0
 21
33.20000000000005
 31
0.0
210
0.0
220
0.0
230
1.0
 40
0.9396926207859133
 41
4.712388980384698
 42
6.457718232379033
1001
REVIT
1002
{
1070
     3
1000
923097
1002
}
  0
ELLIPSE
  5
1A1
330
19B
100
AcDbEntity
  8
M-PIPE
100
AcDbEllipse
 10
691.1542457051678
 20
1435.63649692927
 30
0.0
 11
-82.2646364790974
 21
288.5004845489207
 31
0.0
210
0.0
220
0.0
230
1.0
 40
0.3303660895492904
 41
6.268322533308617
 42
6.313560025996039
1001
REVIT
1002
{
1070
     3
1000
923097
1002
}
  0
ELLIPSE
  5
1A2
330
19B
100
AcDbEntity
  8
M-PIPE
100
AcDbEllipse
 10
618.3356819496883
 20
1692.655266574614
 30
0.0
 11
0.0
 21
32.97744693864733
 31
0.0
210
0.0
220
0.0
230
1.0
 40
0.9396926207859067
 41
6.021385919379932
 42
6.544984694979281
1001
REVIT
1002
{
1070
     3
1000
923097
1002
}
  0
ELLIPSE
  5
1A3
330
19B
100
AcDbEntity
  8
M-PIPE
100
AcDbEllipse
 10
561.7247959506754
 20
1435.636496929267
 30
0.0
 11
82.26463647908351
 21
288.5004845489251
 31
0.0
210
0.0
220
0.0
230
0.9999999999999998
 40
0.3303660895492809
 41
0.1729877240759604
 42
0.2182252167633762
1001
REVIT
1002
{
1070
     3
1000
923097
1002
}
  0
ELLIPSE
  5
1A4
330
19B
100
AcDbEntity
  8
M-PIPE
100
AcDbEllipse
 10
561.7247959506621
 20
1949.674036219959
 30
0.0
 11
-82.26463647909469
 21
288.5004845489214
 31
0.0
210
0.0
220
0.0
230
1.0
 40
0.3303660895492912
 41
2.923367436826443
 42
2.968604929513855
1001
REVIT
1002
{
1070
     3
1000
923097
1002
}
  0
ELLIPSE
  5
1A5
330
19B
100
AcDbEntity
  8
M-PIPE
100
AcDbEllipse
 10
618.3356819496883
 20
1692.655266574614
 30
0.0
 11
0.0
 21
32.9774469386466
 31
0.0
210
0.0
220
0.0
230
1.0
 40
0.9396926207859262
 41
2.879793265790117
 42
3.403392041389462
1001
REVIT
1002
{
1070
     3
1000
923097
1002
}
  0
ELLIPSE
  5
1A6
330
19B
100
AcDbEntity
  8
M-PIPE
100
AcDbEllipse
 10
691.1542457051555
 20
1949.67403621996
 30
0.0
 11
82.26463647908804
 21
288.5004845489234
 31
0.0
210
0.0
220
0.0
230
0.9999999999999998
 40
0.3303660895492794
 41
3.111217934773394
 42
3.1564554274608
1001
REVIT
1002
{
1070
     3
1000
923097
1002
}
  0
ELLIPSE
  5
1A7
330
19B
100
AcDbEntity
  8
M-PIPE
100
AcDbEllipse
 10
619.3617423796573
 20
1692.655266574614
 30
0.0
 11
0.0
 21
33.19999999999984
 31
0.0
210
0.0
220
0.0
230
1.0
 40
0.9396926207859149
 41
2.967059728390362
 42
4.712388980384685
1001
REVIT
1002
{
1070
     3
1000
923097
1002
}
  0
ELLIPSE
  5
1A8
330
19B
100
AcDbEntity
  8
M-PIPE
100
AcDbEllipse
 10
613.7184100147835
 20
1692.655266574614
 30
0.0
 11
0.0
 21
31.59999999999952
 31
0.0
210
0.0
220
0.0
230
1.0
 40
0.9396926207859197
 41
4.712388980384692
 42
6.021385919379911
1001
REVIT
1002
{
1070
     3
1000
923097
1002
}
  0
LINE
  5
1A9
330
19B
100
AcDbEntity
  8
M-PIPE
100
AcDbLine
 10
621.403856973732
 20
1723.178522685343
 30
0.0
 11
621.3825036157333
 21
1723.093716425083
 31
0.0
1001
REVIT
1002
{
1070
     3
1000
923097
1002
}
  0
LINE
  5
1AA
330
19B
100
AcDbEntity
  8
M-PIPE
100
AcDbLine
 10
606.0543164138323
 20
1723.093716425083
 30
0.0
 11
606.0329630558336
 21
1723.178522685343
 31
0.0
1001
REVIT
1002
{
1070
     3
1000
923097
1002
}
  0
ELLIPSE
  5
1AB
330
19B
100
AcDbEntity
  8
M-PIPE
100
AcDbEllipse
 10
613.7184100147841
 20
1692.655266574614
 30
0.0
 11
0.0
 21
31.59999999999991
 31
0.0
210
0.0
220
0.0
230
0.9999999999999998
 40
0.9396926207859173
 41
0.2617993877997242
 42
0.4887340612398729
1001
REVIT
1002
{
1070
     3
1000
923097
1002
}
  0
ELLIPSE
  5
1AC
330
19B
100
AcDbEntity
  8
M-PIPE
100
AcDbEllipse
 10
613.7184100147835
 20
1692.655266574614
 30
0.0
 11
0.0
 21
31.59999999999969
 31
0.0
210
0.0
220
0.0
230
1.0
 40
0.9396926207859173
 41
2.653551520544896
 42
2.879793265790106
1001
REVIT
1002
{
1070
     3
1000
923097
1002
}
  0
LINE
  5
1AD
330
19B
100
AcDbEntity
  8
M-PIPE
100
AcDbLine
 10
606.0329630558345
 20
1662.132010463883
 30
0.0
 11
606.0543164138525
 21
1662.21681672422
 31
0.0
1001
REVIT
1002
{
1070
     3
1000
923097
1002
}
  0
LINE
  5
1AE
330
19B
100
AcDbEntity
  8
M-PIPE
100
AcDbLine
 10
621.382503615715
 20
1662.21681672422
 30
0.0
 11
621.403856973733
 21
1662.132010463883
 31
0.0
1001
REVIT
1002
{
1070
     3
1000
923097
1002
}
  0
ELLIPSE
  5
1AF
330
19B
100
AcDbEntity
  8
M-PIPE
100
AcDbEllipse
 10
613.7184100147841
 20
1692.655266574614
 30
0.0
 11
0.0
 21
31.60000000000014
 31
0.0
210
0.0
220
0.0
230
1.0
 40
0.9396926207859124
 41
3.403392041389507
 42
4.712388980384685
1001
REVIT
1002
{
1070
     3
1000
923097
1002
}
  0
LINE
  5
1B0
330
19B
100
AcDbEntity
  8
M-PIPE
100
AcDbLine
 10
610.3152256430888
 20
1724.509034257726
 30
0.0
 11
610.4501792872646
 21
1723.973057018372
 31
0.0
1001
REVIT
1002
{
1070
     3
1000
923097
1002
}
  0
LINE
  5
1B1
330
19B
100
AcDbEntity
  8
M-PIPE
100
AcDbLine
 10
610.4501792872849
 20
1661.337476130935
 30
0.0
 11
610.3152256430895
 21
1660.801498891501
 31
0.0
1001
REVIT
1002
{
1070
     3
1000
923097
1002
}
  0
LINE
  5
1B2
330
19B
100
AcDbEntity
  8
M-PIPE
100
AcDbLine
 10
635.7787092592958
 20
1729.155266574631
 30
0.0
 11
634.4106286860001
 21
1729.155266574631
 31
0.0
1001
REVIT
1002
{
1070
     3
1000
923097
1002
}
  0
LINE
  5
1B3
330
19B
100
AcDbEntity
  8
M-PIPE
100
AcDbLine
 10
634.4106286860026
 20
1656.155266574639
 30
0.0
 11
635.7787092592986
 21
1656.15526657464
 31
0.0
1001
REVIT
1002
{
1070
     3
1000
923097
1002
}
  0
LWPOLYLINE
  5
1B4
330
19B
100
AcDbEntity
  8
M-PIPE
100
AcDbPolyline
 90
        9
 70
   128
 43
0.0
 10
633.6209296030123
 20
1726.471807180522
 10
630.8691395509043
 20
1726.718105850518
 10
628.0973947239613
 20
1726.847734932967
 10
625.3181450188409
 20
1726.859355640062
 10
622.5439372840388
 20
1726.752847766267
 10
619.7872532146455
 20
1726.529311875597
 10
617.0603486562533
 20
1726.191049299097
 10
614.3750977761383
 20
1725.741520479935
 10
613.3854239369149
 20
1725.546026888542
1001
REVIT
1002
{
1070
     3
1000
923097
1002
}
  0
LWPOLYLINE
  5
1B5
330
19B
100
AcDbEntity
  8
M-PIPE
100
AcDbPolyline
 90
        9
 70
   128
 43
0.0
 10
613.3854239369172
 20
1659.764506260727
 10
616.0521794883103
 20
1659.274542722813
 10
618.7648943959509
 20
1658.894268077298
 10
621.5118754119917
 20
1658.627560686269
 10
624.280991347843
 20
1658.477160697606
 10
627.059826228143
 20
1658.444620560511
 10
629.8358385677342
 20
1658.53027684361
 10
632.5965233608207
 20
1658.73324411128
 10
633.6209296030146
 20
1658.838725968749
1001
REVIT
1002
{
1070
     3
1000
923097
1002
}
  0
ELLIPSE
  5
1B6
330
19B
100
AcDbEntity
  8
M-PIPE
100
AcDbEllipse
 10
635.778709259296
 20
1692.655266574635
 30
0.0
 11
0.0000000000017123
 21
36.49999999999591
 31
0.0
210
0.0
220
0.0
230
1.0
 40
0.939692620785906
 41
4.712388980384739
 42
6.283185307179649
1001
REVIT
1002
{
1070
     3
1000
923097
1002
}
  0
ELLIPSE
  5
1B7
330
19B
100
AcDbEntity
  8
M-PIPE
100
AcDbEllipse
 10
634.4106286860004
 20
1692.655266574635
 30
0.0
 11
0.0
 21
36.4999999999956
 31
0.0
210
0.0
220
0.0
230
0.9999999999999998
 40
0.9396926207859131
 41
5.995503207762013
 42
6.570867406597171
1001
REVIT
1002
{
1070
     3
1000
923097
1002
}
  0
LINE
  5
1B8
330
19B
100
AcDbEntity
  8
M-PIPE
100
AcDbLine
 10
644.1422335517435
 20
1727.655266574619
 30
0.0
 11
640.0379918318289
 21
1727.655266574619
 31
0.0
1001
REVIT
1002
{
1070
     3
1000
923097
1002
}
  0
LINE
  5
1B9
330
19B
100
AcDbEntity
  8
M-PIPE
100
AcDbLine
 10
646.6813090273216
 20
1724.726913174096
 30
0.0
 11
650.7855507472363
 21
1724.726913174096
 31
0.0
1001
REVIT
1002
{
1070
     3
1000
923097
1002
}
  0
ELLIPSE
  5
1BA
330
19B
100
AcDbEntity
  8
M-PIPE
100
AcDbEllipse
 10
634.4106286860002
 20
1692.655266574635
 30
0.0
 11
0.0
 21
36.49999999999585
 31
0.0
210
0.0
220
0.0
230
1.0
 40
0.9396926207859062
 41
5.210105044365872
 42
5.785469243198397
1001
REVIT
1002
{
1070
     3
1000
923097
1002
}
  0
LINE
  5
1BB
330
19B
100
AcDbEntity
  8
M-PIPE
100
AcDbLine
 10
664.5481183319676
 20
1710.081094658228
 30
0.0
 11
660.4438766120531
 21
1710.081094658227
 31
0.0
1001
REVIT
1002
{
1070
     3
1000
923097
1002
}
  0
LINE
  5
1BC
330
19B
100
AcDbEntity
  8
M-PIPE
100
AcDbLine
 10
663.1956286936037
 20
1703.011424163183
 30
0.0
 11
667.2998704135181
 21
1703.011424163183
 31
0.0
1001
REVIT
1002
{
1070
     3
1000
923097
1002
}
  0
ELLIPSE
  5
1BD
330
19B
100
AcDbEntity
  8
M-PIPE
100
AcDbEllipse
 10
634.4106286860001
 20
1692.655266574635
 30
0.0
 11
0.0
 21
36.49999999999558
 31
0.0
210
0.0
220
0.0
230
1.0
 40
0.9396926207859143
 41
4.712388980384703
 42
5.000071079799455
1001
REVIT
1002
{
1070
     3
1000
923097
1002
}
  0
ELLIPSE
  5
1BE
330
19B
100
AcDbEntity
  8
M-PIPE
100
AcDbEllipse
 10
635.778709259296
 20
1692.655266574635
 30
0.0
 11
0.0
 21
36.49999999999546
 31
0.0
210
0.0
220
0.0
230
1.0
 40
0.9396926207859175
 41
3.141592653589828
 42
4.712388980384685
1001
REVIT
1002
{
1070
     3
1000
923097
1002
}
  0
ELLIPSE
  5
1BF
330
19B
100
AcDbEntity
  8
M-PIPE
100
AcDbEllipse
 10
634.4106286859999
 20
1692.655266574635
 30
0.0
 11
0.0
 21
36.49999999999546
 31
0.0
210
0.0
220
0.0
230
1.0
 40
0.9396926207859145
 41
4.42470688096992
 42
4.712388980384697
1001
REVIT
1002
{
1070
     3
1000
923097
1002
}
  0
LINE
  5
1C0
330
19B
100
AcDbEntity
  8
M-PIPE
100
AcDbLine
 10
667.2998704135178
 20
1682.299108986086
 30
0.0
 11
663.1956286936034
 21
1682.299108986086
 31
0.0
1001
REVIT
1002
{
1070
     3
1000
923097
1002
}
  0
LINE
  5
1C1
330
19B
100
AcDbEntity
  8
M-PIPE
100
AcDbLine
 10
660.4438766120173
 20
1675.229438490972
 30
0.0
 11
664.5481183319317
 21
1675.229438490972
 31
0.0
1001
REVIT
1002
{
1070
     3
1000
923097
1002
}
  0
ELLIPSE
  5
1C2
330
19B
100
AcDbEntity
  8
M-PIPE
100
AcDbEllipse
 10
634.4106286859999
 20
1692.655266574635
 30
0.0
 11
0.0
 21
36.49999999999567
 31
0.0
210
0.0
220
0.0
230
1.0
 40
0.9396926207859083
 41
3.63930871757326
 42
4.214672916401186
1001
REVIT
1002
{
1070
     3
1000
923097
1002
}
  0
LINE
  5
1C3
330
19B
100
AcDbEntity
  8
M-PIPE
100
AcDbLine
 10
650.7855507473014
 20
1660.583619975211
 30
0.0
 11
646.681309027387
 21
1660.583619975211
 31
0.0
1001
REVIT
1002
{
1070
     3
1000
923097
1002
}
  0
LINE
  5
1C4
330
19B
100
AcDbEntity
  8
M-PIPE
100
AcDbLine
 10
640.037991831727
 20
1657.655266574619
 30
0.0
 11
644.1422335516413
 21
1657.655266574619
 31
0.0
1001
REVIT
1002
{
1070
     3
1000
923097
1002
}
  0
ELLIPSE
  5
1C5
330
19B
100
AcDbEntity
  8
M-PIPE
100
AcDbEllipse
 10
634.4106286859999
 20
1692.655266574635
 30
0.0
 11
0.0
 21
36.49999999999542
 31
0.0
210
0.0
220
0.0
230
1.0
 40
0.939692620785917
 41
2.853910554175448
 42
3.429274753004109
1001
REVIT
1002
{
1070
     3
1000
923097
1002
}
  0
LINE
  5
1C6
330
19B
100
AcDbEntity
  8
M-PIPE
100
AcDbLine
 10
663.1956286936039
 20
1692.655266574635
 30
0.0
 11
663.1956286936041
 21
1703.011424163182
 31
0.0
1001
REVIT
1002
{
1070
     3
1000
923097
1002
}
  0
ELLIPSE
  5
1C7
330
19B
100
AcDbEntity
  8
M-PIPE
100
AcDbEllipse
 10
630.3063869660856
 20
1692.655266574635
 30
0.0
 11
0.0
 21
36.49999999999545
 31
0.0
210
0.0
220
0.0
230
1.0
 40
0.9396926207859145
 41
5.000071079799461
 42
5.210105044365877
1001
REVIT
1002
{
1070
     3
1000
923097
1002
}
  0
LINE
  5
1C8
330
19B
100
AcDbEntity
  8
M-PIPE
100
AcDbLine
 10
660.4438766120532
 20
1710.081094658226
 30
0.0
 11
646.6813090273213
 21
1724.726913174097
 31
0.0
1001
REVIT
1002
{
1070
     3
1000
923097
1002
}
  0
ELLIPSE
  5
1C9
330
19B
100
AcDbEntity
  8
M-PIPE
100
AcDbEllipse
 10
630.3063869660856
 20
1692.655266574635
 30
0.0
 11
0.0
 21
36.49999999999563
 31
0.0
210
0.0
220
0.0
230
1.0
 40
0.9396926207859076
 41
5.785469243198392
 42
5.995503207762026
1001
REVIT
1002
{
1070
     3
1000
923097
1002
}
  0
LINE
  5
1CA
330
19B
100
AcDbEntity
  8
M-PIPE
100
AcDbLine
 10
640.0379918318309
 20
1727.655266574618
 30
0.0
 11
620.5747821003402
 21
1727.655266574618
 31
0.0
1001
REVIT
1002
{
1070
     3
1000
923097
1002
}
  0
ELLIPSE
  5
1CB
330
19B
100
AcDbEntity
  8
M-PIPE
100
AcDbEllipse
 10
630.3063869660856
 20
1692.655266574635
 30
0.0
 11
0.0
 21
36.4999999999954
 31
0.0
210
0.0
220
0.0
230
1.0
 40
0.9396926207859149
 41
0.2876820994175644
 42
0.4177165670497134
1001
REVIT
1002
{
1070
     3
1000
923097
1002
}
  0
ELLIPSE
  5
1CC
330
19B
100
AcDbEntity
  8
M-PIPE
100
AcDbEllipse
 10
630.3063869660856
 20
1692.655266574635
 30
0.0
 11
0.0
 21
36.49999999999547
 31
0.0
210
0.0
220
0.0
230
1.0
 40
0.9396926207859134
 41
2.728887336092976
 42
2.853910554175451
1001
REVIT
1002
{
1070
     3
1000
923097
1002
}
  0
LINE
  5
1CD
330
19B
100
AcDbEntity
  8
M-PIPE
100
AcDbLine
 10
620.5747821004459
 20
1657.655266574618
 30
0.0
 11
640.0379918317253
 21
1657.655266574618
 31
0.0
1001
REVIT
1002
{
1070
     3
1000
923097
1002
}
  0
ELLIPSE
  5
1CE
330
19B
100
AcDbEntity
  8
M-PIPE
100
AcDbEllipse
 10
630.3063869660856
 20
1692.655266574635
 30
0.0
 11
0.0
 21
36.49999999999564
 31
0.0
210
0.0
220
0.0
230
1.0
 40
0.939692620785907
 41
3.429274753004142
 42
3.63930871757326
1001
REVIT
1002
{
1070
     3
1000
923097
1002
}
  0
LINE
  5
1CF
330
19B
100
AcDbEntity
  8
M-PIPE
100
AcDbLine
 10
646.6813090273895
 20
1660.583619975213
 30
0.0
 11
660.4438766120162
 21
1675.22943849097
 31
0.0
1001
REVIT
1002
{
1070
     3
1000
923097
1002
}
  0
ELLIPSE
  5
1D0
330
19B
100
AcDbEntity
  8
M-PIPE
100
AcDbEllipse
 10
630.3063869660856
 20
1692.655266574635
 30
0.0
 11
0.0
 21
36.49999999999558
 31
0.0
210
0.0
220
0.0
230
1.0
 40
0.9396926207859065
 41
4.214672916401224
 42
4.424706880969915
1001
REVIT
1002
{
1070
     3
1000
923097
1002
}
  0
LINE
  5
1D1
330
19B
100
AcDbEntity
  8
M-PIPE
100
AcDbLine
 10
663.1956286936039
 20
1682.299108986088
 30
0.0
 11
663.1956286936039
 21
1692.655266574635
 31
0.0
1001
REVIT
1002
{
1070
     3
1000
923097
1002
}
  0
ELLIPSE
  5
1D2
330
19B
100
AcDbEntity
  8
M-PIPE
100
AcDbEllipse
 10
630.3063869660856
 20
1692.655266574635
 30
0.0
 11
0.0
 21
33.99999999999906
 31
0.0
210
0.0
220
0.0
230
1.0
 40
0.9396926207859046
 41
4.712388980384698
 42
6.195918844579879
1001
REVIT
1002
{
1070
     3
1000
923097
1002
}
  0
ELLIPSE
  5
1D3
330
19B
100
AcDbEntity
  8
M-PIPE
100
AcDbEllipse
 10
630.3063869660856
 20
1692.655266574635
 30
0.0
 11
0.0
 21
33.99999999999864
 31
0.0
210
0.0
220
0.0
230
1.0
 40
0.9396926207859179
 41
3.228859116189515
 42
4.712388980384685
1001
REVIT
1002
{
1070
     3
1000
923097
1002
}
  0
ELLIPSE
  5
1D4
330
19B
100
AcDbEntity
  8
M-PIPE
100
AcDbEllipse
 10
619.3617423796646
 20
1692.655266574634
 30
0.0
 11
0.0
 21
33.49999999999702
 31
0.0
210
0.0
220
0.0
230
1.0
 40
0.9396926207859049
 41
4.712388980384698
 42
6.647460048874381
1001
REVIT
1002
{
1070
     3
1000
923097
1002
}
  0
ELLIPSE
  5
1D5
330
19B
100
AcDbEntity
  8
M-PIPE
100
AcDbEllipse
 10
619.3617423796646
 20
1692.655266574634
 30
0.0
 11
0.0
 21
33.49999999999705
 31
0.0
210
0.0
220
0.0
230
1.0
 40
0.9396926207859037
 41
2.77731791189504
 42
4.712388980384691
1001
REVIT
1002
{
1070
     3
1000
923097
1002
}
  0
LINE
  5
1D6
330
19B
100
AcDbEntity
  8
M-PIPE
100
AcDbLine
 10
650.7855507472357
 20
1724.726913174097
 30
0.0
 11
664.548118331968
 21
1710.081094658227
 31
0.0
1001
REVIT
1002
{
1070
     3
1000
923097
1002
}
  0
LINE
  5
1D7
330
19B
100
AcDbEntity
  8
M-PIPE
100
AcDbLine
 10
667.2998704135186
 20
1703.011424163181
 30
0.0
 11
667.2998704135185
 21
1682.299108986088
 31
0.0
1001
REVIT
1002
{
1070
     3
1000
923097
1002
}
  0
LINE
  5
1D8
330
19B
100
AcDbEntity
  8
M-PIPE
100
AcDbLine
 10
664.5481183319301
 20
1675.229438490969
 30
0.0
 11
650.7855507473043
 21
1660.583619975213
 31
0.0
1001
REVIT
1002
{
1070
     3
1000
923097
1002
}
  0
LINE
  5
1D9
330
19B
100
AcDbEntity
  8
P-SANR-FIXT
100
AcDbLine
 10
701.2671509807188
 20
1701.655266574644
 30
0.0
 11
699.7787092593064
 21
1701.655266574644
 31
0.0
  0
LINE
  5
1DA
330
19B
100
AcDbEntity
  8
P-SANR-FIXT
100
AcDbLine
 10
699.7787092593068
 20
1683.655266574666
 30
0.0
 11
701.2671509807189
 21
1683.655266574666
 31
0.0
  0
ELLIPSE
  5
1DB
330
19B
100
AcDbEntity
  8
P-SANR-FIXT
100
AcDbEllipse
 10
699.7787092593052
 20
1692.655266574655
 30
0.0
 11
0.0
 21
8.999999999989084
 31
0.0
210
0.0
220
0.0
230
0.9999999999999998
 40
0.9612616959382862
 41
0.0000000000000016
 42
1.570796326794898
  0
ELLIPSE
  5
1DC
330
19B
100
AcDbEntity
  8
P-SANR-FIXT
100
AcDbEllipse
 10
699.7787092593052
 20
1692.655266574655
 30
0.0
 11
0.0
 21
8.999999999988858
 31
0.0
210
0.0
220
0.0
230
1.0
 40
0.9612616959383103
 41
1.570796326794898
 42
3.141592653589814
  0
ELLIPSE
  5
1DD
330
19B
100
AcDbEntity
  8
P-SANR-FIXT
100
AcDbEllipse
 10
701.4325333942077
 20
1692.655266574655
 30
0.0
 11
0.0000000000029921
 21
8.378681811714614
 31
0.0
210
0.0
220
0.0
230
1.0
 40
0.9612616959383228
 41
4.712388980385027
 42
7.853981633974825
  0
ELLIPSE
  5
1DE
330
19B
100
AcDbEntity
  8
P-SANR-FIXT
100
AcDbEllipse
 10
701.4325333942077
 20
1692.655266574655
 30
0.0
 11
0.0
 21
8.378681811714386
 31
0.0
210
0.0
220
0.0
230
1.0
 40
0.9612616959383217
 41
1.570796326794898
 42
4.712388980384685
  0
ELLIPSE
  5
1DF
330
19B
100
AcDbEntity
  8
P-SANR-FIXT
100
AcDbEllipse
 10
701.2671509807176
 20
1692.655266574655
 30
0.0
 11
0.0
 21
8.999999999989084
 31
0.0
210
0.0
220
0.0
230
0.9999999999999998
 40
0.9612616959382862
 41
4.712388980384685
 42
7.853981633974484
  0
ELLIPSE
  5
1E0
330
19B
100
AcDbEntity
  8
P-SANR-FIXT
100
AcDbEllipse
 10
701.2671509807176
 20
1692.655266574655
 30
0.0
 11
0.0
 21
8.999999999988858
 31
0.0
210
0.0
220
0.0
230
1.0
 40
0.9612616959383355
 41
1.570796326794898
 42
4.712388980384685
  0
LWPOLYLINE
  5
1E1
330
19B
100
AcDbEntity
  8
P-SANR-FIXT
100
AcDbPolyline
 90
       22
 70
   128
 43
0.0
 10
586.678392697061
 20
1711.5736518977
 10
585.9691707332943
 20
1710.863953192719
 10
585.2884933974928
 20
1710.126059091466
 10
584.6373257842757
 20
1709.361241121536
 10
584.0165768802084
 20
1708.570798030906
 10
583.4271001774513
 20
1707.756053044713
 10
582.869694387779
 20
1706.918351336957
 10
582.3451042260339
 20
1706.059057710076
 10
581.8540212354561
 20
1705.179554472302
 10
581.3970846307939
 20
1704.281239500425
 10
580.9748821385518
 20
1703.365524474034
 10
580.5879508170074
 20
1702.433833266298
 10
580.2367778417131
 20
1701.487600475946
 10
579.9218012449769
 20
1700.528270085046
 10
579.6434106002919
 20
1699.557294227537
 10
579.4019476448064
 20
1698.576132054028
 10
579.1977068347246
 20
1697.586248679116
 10
579.0309358299853
 20
1696.589114198325
 10
578.9018359057258
 20
1695.586202762608
 10
578.8105622889059
 20
1694.578991699233
 10
578.7572244191119
 20
1693.568960668583
 10
578.741708876385
 20
1692.655266574655
  0
LWPOLYLINE
  5
1E2
330
19B
100
AcDbEntity
  8
P-SANR-FIXT
100
AcDbPolyline
 90
       22
 70
   128
 43
0.0
 10
578.741708876385
 20
1692.655266574655
 10
578.760717944906
 20
1691.643961395253
 10
578.8177224185515
 20
1690.634138073661
 10
578.9126540631666
 20
1689.627277675038
 10
579.0453990271799
 20
1688.624859670464
 10
579.2157976497875
 20
1687.628361117775
 10
579.4236441928005
 20
1686.639255815334
 10
579.6686864967388
 20
1685.659013418903
 10
579.9506255622193
 20
1684.689098511089
 10
580.2691150583212
 20
1683.730969612099
 10
580.6237607605282
 20
1682.786078119667
 10
581.0141199220278
 20
1681.855867165169
 10
581.4397005836326
 20
1680.941770372105
 10
581.899960829426
 20
1680.045210502394
 10
582.3943079973826
 20
1679.167597975389
 10
582.9220978567279
 20
1678.310329244217
 10
583.4826337666065
 20
1677.474785014094
 10
584.0751658337327
 20
1676.66232828778
 10
584.6988900899981
 20
1675.874302224341
 10
585.3529477144664
 20
1675.112027799052
 10
586.0364243276421
 20
1674.376801254599
 10
586.6783926970612
 20
1673.73688125161
  0
LWPOLYLINE
  5
1E3
330
19B
100
AcDbEntity
  8
P-SANR-FIXT
100
AcDbPolyline
 90
       10
 70
   128
 43
0.0
 10
602.862223949031
 20
1721.996562375315
 10
600.6137246058353
 20
1720.998962252251
 10
598.4701962351749
 20
1719.938981838668
 10
596.4364488066994
 20
1718.825998239316
 10
594.5161258240627
 20
1717.66952368953
 10
592.7117125263431
 20
1716.479065334803
 10
591.0245621738352
 20
1715.263990516875
 10
589.4549389399315
 20
1714.033399770565
 10
588.002075681254
 20
1712.796009398007
 10
586.6783926970823
 20
1711.573651897722
  0
LWPOLYLINE
  5
1E4
330
19B
100
AcDbEntity
  8
P-SANR-FIXT
100
AcDbPolyline
 90
       10
 70
   128
 43
0.0
 10
586.6783926970827
 20
1673.736881251589
 10
588.017480751442
 20
1672.500858383801
 10
589.4716250920644
 20
1671.263497176135
 10
591.0425432596447
 20
1670.033029313884
 10
592.730991377793
 20
1668.818175942391
 10
594.5366935412331
 20
1667.628041201597
 10
596.4582841997654
 20
1666.471994685643
 10
598.4932654406454
 20
1665.35954434376
 10
600.6379808948695
 20
1664.300201692946
 10
602.8622239490321
 20
1663.313970773996
  0
ELLIPSE
  5
1E5
330
19B
100
AcDbEntity
  8
P-SANR-FIXT
100
AcDbEllipse
 10
612.4787879209061
 20
1728.10012824621
 30
0.0
 11
0.0
 21
10.00000000000008
 31
0.0
210
0.0
220
0.0
230
0.9999999999999998
 40
0.9396926207859115
 41
2.159389081876683
 42
2.706576649650688
  0
ELLIPSE
  5
1E6
330
19B
100
AcDbEntity
  8
P-SANR-FIXT
100
AcDbEllipse
 10
612.4787879209066
 20
1657.210404903098
 30
0.0
 11
0.0
 21
10.00000000000015
 31
0.0
210
0.0
220
0.0
230
1.0
 40
0.9396926207859026
 41
0.4350519522222952
 42
0.982203571713118
  0
ELLIPSE
  5
1E7
330
19B
100
AcDbEntity
  8
P-SANR-FIXT
100
AcDbEllipse
 10
641.3237341650715
 20
1710.377697410438
 30
0.0
 11
0.0
 21
10.00000000000023
 31
0.0
210
0.0
220
0.0
230
1.0
 40
0.9396926207858824
 41
1.112191530688589
 42
1.570796326794898
  0
ELLIPSE
  5
1E8
330
19B
100
AcDbEntity
  8
P-SANR-FIXT
100
AcDbEllipse
 10
641.3237341650715
 20
1710.377697410438
 30
0.0
 11
0.0
 21
10.00000000000023
 31
0.0
210
0.0
220
0.0
230
1.0
 40
0.9396926207858783
 41
1.570796326794898
 42
3.076598674094952
  0
ELLIPSE
  5
1E9
330
19B
100
AcDbEntity
  8
P-SANR-FIXT
100
AcDbEllipse
 10
641.3237341650718
 20
1674.932835738872
 30
0.0
 11
0.0
 21
10.00000000000011
 31
0.0
210
0.0
220
0.0
230
1.0
 40
0.9396926207859163
 41
0.064993979494872
 42
1.570796326794875
  0
ELLIPSE
  5
1EA
330
19B
100
AcDbEntity
  8
P-SANR-FIXT
100
AcDbEllipse
 10
641.3237341650718
 20
1674.932835738872
 30
0.0
 11
0.0000000000009709
 21
9.99999999999977
 31
0.0
210
0.0
220
0.0
230
0.9999999999999998
 40
0.9396926207859323
 41
1.570796326794987
 42
2.029401122901315
  0
SPLINE
  5
1EB
330
19B
100
AcDbEntity
  8
P-SANR-FIXT
100
AcDbSpline
210
0.0
220
0.0
230
1.0
 70
     8
 71
     3
 72
     9
 73
     5
 74
     0
 42
0.000000001
 43
0.0000000001
 40
0.0
 40
0.0
 40
0.0
 40
0.0
 40
0.5
 40
1.0
 40
1.0
 40
1.0
 40
1.0
 10
623.0772847562185
 20
1706.125797276341
 30
0.0
 10
623.1462861894828
 20
1705.871079966133
 30
0.0
 10
623.3479496980733
 20
1705.371753957686
 30
0.0
 10
623.675188605155
 20
1704.896201760292
 30
0.0
 10
623.8696965584352
 20
1704.665215941975
 30
0.0
  0
SPLINE
  5
1EC
330
19B
100
AcDbEntity
  8
P-SANR-FIXT
100
AcDbSpline
210
0.0
220
0.0
230
1.0
 70
     8
 71
     3
 72
     9
 73
     5
 74
     0
 42
0.000000001
 43
0.0000000001
 40
0.0
 40
0.0
 40
0.0
 40
0.0
 40
0.5
 40
1.0
 40
1.0
 40
1.0
 40
1.0
 10
601.9451232544281
 20
1718.135746643698
 30
0.0
 10
602.1651920142191
 20
1718.112015151761
 30
0.0
 10
602.6506538034036
 20
1718.08824134066
 30
0.0
 10
603.2229968466156
 20
1718.112015151761
 30
0.0
 10
603.5299468604339
 20
1718.135746643698
 30
0.0
  0
SPLINE
  5
1ED
330
19B
100
AcDbEntity
  8
P-SANR-FIXT
100
AcDbSpline
210
0.0
220
0.0
230
1.0
 70
     8
 71
     3
 72
     8
 73
     4
 74
     0
 42
0.000000001
 43
0.0000000001
 40
0.25
 40
0.25
 40
0.25
 40
0.25
 40
0.5
 40
0.5
 40
0.5
 40
0.5
 10
581.7761645322053
 20
1705.01668152628
 30
0.0
 10
581.8361907767746
 20
1705.135463722178
 30
0.0
 10
581.8973204608059
 20
1705.254921154823
 30
0.0
 10
581.9654046863667
 20
1705.377697410449
 30
0.0
  0
SPLINE
  5
1EE
330
19B
100
AcDbEntity
  8
P-SANR-FIXT
100
AcDbSpline
210
0.0
220
0.0
230
1.0
 70
     8
 71
     3
 72
     9
 73
     5
 74
     0
 42
0.000000001
 43
0.0000000001
 40
0.25
 40
0.25
 40
0.25
 40
0.25
 40
0.5
 40
1.0
 40
1.0
 40
1.0
 40
1.0
 10
582.1727236163027
 20
1679.56290996544
 30
0.0
 10
582.1006419846139
 20
1679.687630324206
 30
0.0
 10
581.8932684957519
 20
1680.057667240972
 30
0.0
 10
581.7130002558378
 20
1680.414331389022
 30
0.0
 10
581.6053735564217
 20
1680.645317207342
 30
0.0
  0
SPLINE
  5
1EF
330
19B
100
AcDbEntity
  8
P-SANR-FIXT
100
AcDbSpline
210
0.0
220
0.0
230
1.0
 70
     8
 71
     3
 72
     9
 73
     5
 74
     0
 42
0.000000001
 43
0.0000000001
 40
0.0
 40
0.0
 40
0.0
 40
0.0
 40
0.5
 40
1.0
 40
1.0
 40
1.0
 40
1.0
 10
603.5299468604348
 20
1667.174786505611
 30
0.0
 10
603.2229968466165
 20
1667.198517997548
 30
0.0
 10
602.6506538034044
 20
1667.222291808649
 30
0.0
 10
602.1651920142196
 20
1667.198517997548
 30
0.0
 10
601.9451232544285
 20
1667.174786505611
 30
0.0
  0
SPLINE
  5
1F0
330
19B
100
AcDbEntity
  8
P-SANR-FIXT
100
AcDbSpline
210
0.0
220
0.0
230
1.0
 70
     8
 71
     3
 72
     9
 73
     5
 74
     0
 42
0.000000001
 43
0.0000000001
 40
0.0
 40
0.0
 40
0.0
 40
0.0
 40
0.5
 40
1.0
 40
1.0
 40
1.0
 40
1.0
 10
623.8696965584355
 20
1680.645317207335
 30
0.0
 10
623.6751886051554
 20
1680.414331389017
 30
0.0
 10
623.3479496980737
 20
1679.938779191623
 30
0.0
 10
623.1462861894828
 20
1679.439453183176
 30
0.0
 10
623.0772847562185
 20
1679.184735872969
 30
0.0
  0
SPLINE
  5
1F1
330
19B
100
AcDbEntity
  8
P-SANR-FIXT
100
AcDbSpline
210
0.0
220
0.0
230
1.0
 70
     8
 71
     3
 72
    23
 73
    19
 74
     0
 42
0.000000001
 43
0.0000000001
 40
0.0
 40
0.0
 40
0.0
 40
0.0
 40
0.25
 40
0.3125
 40
0.375
 40
0.4375
 40
0.46875
 40
0.5
 40
0.53125
 40
0.5625
 40
0.625
 40
0.6875
 40
0.71875
 40
0.75
 40
0.78125
 40
0.8125
 40
0.875
 40
1.0
 40
1.0
 40
1.0
 40
1.0
 10
604.6631502163412
 20
1722.548216892618
 30
0.0
 10
604.0021943386197
 20
1722.239030262684
 30
0.0
 10
603.239508594578
 20
1721.806001740618
 30
0.0
 10
602.4273706795327
 20
1721.262948116819
 30
0.0
 10
602.0399642516277
 20
1720.99076297397
 30
0.0
 10
601.7435181295477
 20
1720.756265406556
 30
0.0
 10
601.5258011362367
 20
1720.563494045699
 30
0.0
 10
601.3770455192439
 20
1720.41370171783
 30
0.0
 10
601.230820063207
 20
1720.267825611309
 30
0.0
 10
601.0300447485522
 20
1720.08434376208
 30
0.0
 10
600.7934708853954
 20
1719.858642648921
 30
0.0
 10
600.6242850626995
 20
1719.614563407493
 30
0.0
 10
600.5616962728285
 20
1719.400188341376
 30
0.0
 10
600.5632666771365
 20
1719.228106263243
 30
0.0
 10
600.6097968901762
 20
1719.051305606748
 30
0.0
 10
600.7157535923095
 20
1718.821363627126
 30
0.0
 10
601.0297528390644
 20
1718.441726801491
 30
0.0
 10
601.523012806434
 20
1718.203914883039
 30
0.0
 10
601.9451232544281
 20
1718.135746643698
 30
0.0
  0
ELLIPSE
  5
1F2
330
19B
100
AcDbEntity
  8
P-SANR-FIXT
100
AcDbEllipse
 10
612.4787879209056
 20
1692.655266574655
 30
0.0
 11
0.0
 21
31.02845079977468
 31
0.0
210
0.0
220
0.0
230
1.0
 40
0.9396926207859042
 41
6.011815189188449
 42
6.554555425170704
  0
SPLINE
  5
1F3
330
19B
100
AcDbEntity
  8
P-SANR-FIXT
100
AcDbSpline
210
0.0
220
0.0
230
1.0
 70
     8
 71
     3
 72
    23
 73
    19
 74
     0
 42
0.000000001
 43
0.0000000001
 40
0.0
 40
0.0
 40
0.0
 40
0.0
 40
0.125
 40
0.1875
 40
0.21875
 40
0.25
 40
0.28125
 40
0.3125
 40
0.375
 40
0.4375
 40
0.46875
 40
0.5
 40
0.53125
 40
0.5625
 40
0.625
 40
0.6875
 40
0.75
 40
1.0
 40
1.0
 40
1.0
 40
1.0
 10
603.5299468604339
 20
1718.135746643698
 30
0.0
 10
604.6216873743791
 20
1718.203914883039
 30
0.0
 10
606.1590889947154
 20
1718.441726801491
 30
0.0
 10
607.7603138451898
 20
1718.821363627126
 30
0.0
 10
608.6220265644499
 20
1719.051305606748
 30
0.0
 10
609.244188796666
 20
1719.228106263243
 30
0.0
 10
609.8354600104865
 20
1719.400188341376
 30
0.0
 10
610.5807303805028
 20
1719.614563407493
 30
0.0
 10
611.4508870134665
 20
1719.858642648921
 30
0.0
 10
612.2727736931714
 20
1720.08434376208
 30
0.0
 10
612.9181689931477
 20
1720.267825611309
 30
0.0
 10
613.4017358694931
 20
1720.41370171783
 30
0.0
 10
613.8806639690751
 20
1720.563494045699
 30
0.0
 10
614.5043893218156
 20
1720.756265406556
 30
0.0
 10
615.263686901929
 20
1720.99076297397
 30
0.0
 10
616.1480306083607
 20
1721.262948116819
 30
0.0
 10
617.880739157646
 20
1721.806001740618
 30
0.0
 10
619.2455870227909
 20
1722.239030262684
 30
0.0
 10
620.2944256254711
 20
1722.548216892618
 30
0.0
  0
SPLINE
  5
1F4
330
19B
100
AcDbEntity
  8
P-SANR-FIXT
100
AcDbSpline
210
0.0
220
0.0
230
1.0
 70
     8
 71
     3
 72
    21
 73
    17
 74
     0
 42
0.000000001
 43
0.0000000001
 40
0.0
 40
0.0
 40
0.0
 40
0.0
 40
0.1666666666666666
 40
0.25
 40
0.2916666666666666
 40
0.3333333333333333
 40
0.375
 40
0.4166666666666666
 40
0.5
 40
0.5833333333333333
 40
0.625
 40
0.6666666666666666
 40
0.7083333333333333
 40
0.75
 40
0.8333333333333332
 40
1.0
 40
1.0
 40
1.0
 40
1.0
 10
624.7862470843577
 20
1710.377697410437
 30
0.0
 10
624.6243227150268
 20
1710.229798529704
 30
0.0
 10
624.3884058949556
 20
1709.989660236604
 30
0.0
 10
624.1298561418975
 20
1709.677788230847
 30
0.0
 10
623.9874174851705
 20
1709.491021607302
 30
0.0
 10
623.8838562478797
 20
1709.345730307295
 30
0.0
 10
623.7819582852673
 20
1709.199293095723
 30
0.0
 10
623.647336557146
 20
1709.004726698144
 30
0.0
 10
623.4853352054796
 20
1708.754506910494
 30
0.0
 10
623.3406521768931
 20
1708.480014840213
 30
0.0
 10
623.2419568064463
 20
1708.237237383738
 30
0.0
 10
623.1790297230588
 20
1708.040494575861
 30
0.0
 10
623.1271332106796
 20
1707.830976117449
 30
0.0
 10
623.0704620088049
 20
1707.540188935424
 30
0.0
 10
623.0083575886754
 20
1706.999051088901
 30
0.0
 10
623.0261460736529
 20
1706.485146718031
 30
0.0
 10
623.0772847562185
 20
1706.125797276341
 30
0.0
  0
SPLINE
  5
1F5
330
19B
100
AcDbEntity
  8
P-SANR-FIXT
100
AcDbSpline
210
0.0
220
0.0
230
1.0
 70
     8
 71
     3
 72
     9
 73
     5
 74
     0
 42
0.000000001
 43
0.0000000001
 40
0.0
 40
0.0
 40
0.0
 40
0.0
 40
0.5
 40
1.0
 40
1.0
 40
1.0
 40
1.0
 10
632.8977827261425
 20
1714.804672403881
 30
0.0
 10
631.4815145941093
 20
1714.360293155175
 30
0.0
 10
628.6130595590243
 20
1713.197067569771
 30
0.0
 10
625.9563302367341
 20
1711.41079223186
 30
0.0
 10
624.7862470843577
 20
1710.377697410437
 30
0.0
  0
ELLIPSE
  5
1F6
330
19B
100
AcDbEntity
  8
P-SANR-FIXT
100
AcDbEllipse
 10
612.4787879209056
 20
1692.655266574655
 30
0.0
 11
0.0
 21
31.02845079977479
 31
0.0
210
0.0
220
0.0
230
0.9999999999999998
 40
0.9396926207858996
 41
4.964617637992258
 42
5.507357873970811
  0
SPLINE
  5
1F7
330
19B
100
AcDbEntity
  8
P-SANR-FIXT
100
AcDbSpline
210
0.0
220
0.0
230
1.0
 70
     8
 71
     3
 72
    23
 73
    19
 74
     0
 42
0.000000001
 43
0.0000000001
 40
0.0
 40
0.0
 40
0.0
 40
0.0
 40
0.125
 40
0.1875
 40
0.21875
 40
0.25
 40
0.28125
 40
0.3125
 40
0.375
 40
0.4375
 40
0.46875
 40
0.5
 40
0.53125
 40
0.5625
 40
0.625
 40
0.6875
 40
0.75
 40
1.0
 40
1.0
 40
1.0
 40
1.0
 10
623.8696965584352
 20
1704.665215941975
 30
0.0
 10
624.6384494869984
 20
1704.001713764883
 30
0.0
 10
625.8617164982624
 20
1703.184885802789
 30
0.0
 10
627.2930828929353
 20
1702.492164177676
 30
0.0
 10
628.100004506737
 20
1702.161230686084
 30
0.0
 10
628.6988735919781
 20
1701.94149586877
 30
0.0
 10
629.2819743974733
 20
1701.754354012487
 30
0.0
 10
630.0310323042189
 20
1701.54696017177
 30
0.0
 10
630.9245773553747
 20
1701.345990695889
 30
0.0
 10
631.7838108735214
 20
1701.18912764767
 30
0.0
 10
632.4673682806512
 20
1701.075986574803
 30
0.0
 10
632.9853134391807
 20
1700.993476860736
 30
0.0
 10
633.5035990672314
 20
1700.916228721714
 30
0.0
 10
634.1826992166253
 20
1700.825524738111
 30
0.0
 10
635.0171175088925
 20
1700.729490416266
 30
0.0
 10
635.9987305338604
 20
1700.636593051094
 30
0.0
 10
637.9432322045212
 20
1700.48391862015
 30
0.0
 10
639.509937146633
 20
1700.422955074849
 30
0.0
 10
640.7134204306362
 20
1700.398811063332
 30
0.0
  0
SPLINE
  5
1F8
330
19B
100
AcDbEntity
  8
P-SANR-FIXT
100
AcDbSpline
210
0.0
220
0.0
230
1.0
 70
     8
 71
     3
 72
    23
 73
    19
 74
     0
 42
0.000000001
 43
0.0000000001
 40
0.0
 40
0.0
 40
0.0
 40
0.0
 40
0.25
 40
0.3125
 40
0.375
 40
0.4375
 40
0.46875
 40
0.5
 40
0.53125
 40
0.5625
 40
0.625
 40
0.6875
 40
0.71875
 40
0.75
 40
0.78125
 40
0.8125
 40
0.875
 40
1.0
 40
1.0
 40
1.0
 40
1.0
 10
640.7134204306362
 20
1684.911722085978
 30
0.0
 10
639.5099371466333
 20
1684.88757807446
 30
0.0
 10
637.9432322045212
 20
1684.82661452916
 30
0.0
 10
635.9987305338604
 20
1684.673940098216
 30
0.0
 10
635.0171175088928
 20
1684.581042733043
 30
0.0
 10
634.1826992166254
 20
1684.485008411199
 30
0.0
 10
633.5035990672316
 20
1684.394304427596
 30
0.0
 10
632.9853134391809
 20
1684.317056288574
 30
0.0
 10
632.4673682806514
 20
1684.234546574507
 30
0.0
 10
631.7838108735217
 20
1684.121405501639
 30
0.0
 10
630.9245773553746
 20
1683.964542453421
 30
0.0
 10
630.0310323042191
 20
1683.76357297754
 30
0.0
 10
629.2819743974733
 20
1683.556179136823
 30
0.0
 10
628.6988735919782
 20
1683.369037280539
 30
0.0
 10
628.1000045067373
 20
1683.149302463226
 30
0.0
 10
627.2930828929355
 20
1682.818368971634
 30
0.0
 10
625.8617164982624
 20
1682.12564734652
 30
0.0
 10
624.6384494869987
 20
1681.308819384426
 30
0.0
 10
623.8696965584355
 20
1680.645317207335
 30
0.0
  0
ELLIPSE
  5
1F9
330
19B
100
AcDbEntity
  8
P-SANR-FIXT
100
AcDbEllipse
 10
612.4787879209056
 20
1692.655266574655
 30
0.0
 11
0.0
 21
31.02845079977438
 31
0.0
210
0.0
220
0.0
230
1.0
 40
0.9396926207859163
 41
3.917420086798571
 42
4.460160322777129
  0
SPLINE
  5
1FA
330
19B
100
AcDbEntity
  8
P-SANR-FIXT
100
AcDbSpline
210
0.0
220
0.0
230
1.0
 70
     8
 71
     3
 72
     9
 73
     5
 74
     0
 42
0.000000001
 43
0.0000000001
 40
0.0
 40
0.0
 40
0.0
 40
0.0
 40
0.5
 40
1.0
 40
1.0
 40
1.0
 40
1.0
 10
624.7862470843577
 20
1674.932835738872
 30
0.0
 10
625.9563302367344
 20
1673.89974091745
 30
0.0
 10
628.6130595590245
 20
1672.113465579538
 30
0.0
 10
631.4815145941095
 20
1670.950239994134
 30
0.0
 10
632.8977827261427
 20
1670.505860745429
 30
0.0
  0
SPLINE
  5
1FB
330
19B
100
AcDbEntity
  8
P-SANR-FIXT
100
AcDbSpline
210
0.0
220
0.0
230
1.0
 70
     8
 71
     3
 72
    21
 73
    17
 74
     0
 42
0.000000001
 43
0.0000000001
 40
0.0
 40
0.0
 40
0.0
 40
0.0
 40
0.1666666666666666
 40
0.25
 40
0.2916666666666666
 40
0.3333333333333333
 40
0.375
 40
0.4166666666666666
 40
0.5
 40
0.5833333333333333
 40
0.625
 40
0.6666666666666666
 40
0.7083333333333333
 40
0.75
 40
0.8333333333333332
 40
1.0
 40
1.0
 40
1.0
 40
1.0
 10
623.0772847562186
 20
1679.184735872969
 30
0.0
 10
623.0261460736532
 20
1678.825386431277
 30
0.0
 10
623.0083575886756
 20
1678.311482060408
 30
0.0
 10
623.0704620088052
 20
1677.770344213885
 30
0.0
 10
623.1271332106797
 20
1677.47955703186
 30
0.0
 10
623.1790297230592
 20
1677.270038573448
 30
0.0
 10
623.2419568064466
 20
1677.073295765571
 30
0.0
 10
623.3406521768934
 20
1676.830518309096
 30
0.0
 10
623.4853352054798
 20
1676.556026238814
 30
0.0
 10
623.6473365571463
 20
1676.305806451165
 30
0.0
 10
623.7819582852677
 20
1676.111240053586
 30
0.0
 10
623.88385624788
 20
1675.964802842014
 30
0.0
 10
623.9874174851706
 20
1675.819511542008
 30
0.0
 10
624.1298561418979
 20
1675.632744918462
 30
0.0
 10
624.3884058949559
 20
1675.320872912705
 30
0.0
 10
624.6243227150269
 20
1675.080734619605
 30
0.0
 10
624.7862470843577
 20
1674.932835738872
 30
0.0
  0
SPLINE
  5
1FC
330
19B
100
AcDbEntity
  8
P-SANR-FIXT
100
AcDbSpline
210
0.0
220
0.0
230
1.0
 70
     8
 71
     3
 72
    23
 73
    19
 74
     0
 42
0.000000001
 43
0.0000000001
 40
0.0
 40
0.0
 40
0.0
 40
0.0
 40
0.25
 40
0.3125
 40
0.375
 40
0.4375
 40
0.46875
 40
0.5
 40
0.53125
 40
0.5625
 40
0.625
 40
0.6875
 40
0.71875
 40
0.75
 40
0.78125
 40
0.8125
 40
0.875
 40
1.0
 40
1.0
 40
1.0
 40
1.0
 10
620.2944256254714
 20
1662.762316256691
 30
0.0
 10
619.2455870227909
 20
1663.071502886625
 30
0.0
 10
617.8807391576462
 20
1663.504531408691
 30
0.0
 10
616.148030608361
 20
1664.047585032491
 30
0.0
 10
615.2636869019293
 20
1664.319770175338
 30
0.0
 10
614.5043893218162
 20
1664.554267742753
 30
0.0
 10
613.8806639690755
 20
1664.74703910361
 30
0.0
 10
613.4017358694934
 20
1664.896831431479
 30
0.0
 10
612.9181689931481
 20
1665.042707538
 30
0.0
 10
612.272773693172
 20
1665.226189387229
 30
0.0
 10
611.450887013467
 20
1665.451890500388
 30
0.0
 10
610.5807303805033
 20
1665.695969741816
 30
0.0
 10
609.8354600104872
 20
1665.910344807933
 30
0.0
 10
609.2441887966666
 20
1666.082426886066
 30
0.0
 10
608.6220265644506
 20
1666.259227542561
 30
0.0
 10
607.7603138451905
 20
1666.489169522182
 30
0.0
 10
606.1590889947159
 20
1666.868806347818
 30
0.0
 10
604.62168737438
 20
1667.10661826627
 30
0.0
 10
603.5299468604348
 20
1667.174786505611
 30
0.0
  0
ELLIPSE
  5
1FD
330
19B
100
AcDbEntity
  8
P-SANR-FIXT
100
AcDbEllipse
 10
612.4787879209056
 20
1692.655266574655
 30
0.0
 11
0.0
 21
31.02845079977432
 31
0.0
210
0.0
220
0.0
230
0.9999999999999998
 40
0.939692620785912
 41
2.870222535598684
 42
3.412962771580925
  0
SPLINE
  5
1FE
330
19B
100
AcDbEntity
  8
P-SANR-FIXT
100
AcDbSpline
210
0.0
220
0.0
230
1.0
 70
     8
 71
     3
 72
    23
 73
    19
 74
     0
 42
0.000000001
 43
0.0000000001
 40
0.0
 40
0.0
 40
0.0
 40
0.0
 40
0.125
 40
0.1875
 40
0.21875
 40
0.25
 40
0.28125
 40
0.3125
 40
0.375
 40
0.4375
 40
0.46875
 40
0.5
 40
0.53125
 40
0.5625
 40
0.625
 40
0.6875
 40
0.75
 40
1.0
 40
1.0
 40
1.0
 40
1.0
 10
601.9451232544284
 20
1667.174786505611
 30
0.0
 10
601.5230128064343
 20
1667.10661826627
 30
0.0
 10
601.0297528390646
 20
1666.868806347818
 30
0.0
 10
600.7157535923096
 20
1666.489169522182
 30
0.0
 10
600.6097968901765
 20
1666.259227542561
 30
0.0
 10
600.5632666771368
 20
1666.082426886066
 30
0.0
 10
600.5616962728287
 20
1665.910344807933
 30
0.0
 10
600.6242850626996
 20
1665.695969741816
 30
0.0
 10
600.7934708853956
 20
1665.451890500388
 30
0.0
 10
601.0300447485524
 20
1665.226189387229
 30
0.0
 10
601.2308200632072
 20
1665.042707538
 30
0.0
 10
601.377045519244
 20
1664.896831431479
 30
0.0
 10
601.5258011362369
 20
1664.74703910361
 30
0.0
 10
601.7435181295479
 20
1664.554267742753
 30
0.0
 10
602.039964251628
 20
1664.319770175338
 30
0.0
 10
602.427370679533
 20
1664.047585032491
 30
0.0
 10
603.2395085945783
 20
1663.504531408691
 30
0.0
 10
604.0021943386201
 20
1663.071502886625
 30
0.0
 10
604.6631502163417
 20
1662.762316256691
 30
0.0
  0
ELLIPSE
  5
1FF
330
19B
100
AcDbEntity
  8
P-SANR-FIXT
100
AcDbEllipse
 10
613.7184100147837
 20
1692.655266574655
 30
0.0
 11
0.0000000000018294
 21
31.53381379959251
 31
0.0
210
0.0
220
0.0
230
1.0
 40
0.9396926207859028
 41
4.712388980384744
 42
6.675884388878369
  0
ELLIPSE
  5
200
330
19B
100
AcDbEntity
  8
P-SANR-FIXT
100
AcDbEllipse
 10
613.7184100147837
 20
1692.655266574655
 30
0.0
 11
0.0
 21
31.53381379959224
 31
0.0
210
0.0
220
0.0
230
1.0
 40
0.9396926207859131
 41
2.748893571891076
 42
4.712388980384692
  0
LINE
  5
201
330
19B
100
AcDbEntity
  8
P-SANR-FIXT
100
AcDbLine
 10
643.5425665127953
 20
1731.505266574655
 30
0.0
 11
636.0181233596307
 21
1731.505266574655
 31
0.0
  0
LINE
  5
202
330
19B
100
AcDbEntity
  8
P-SANR-FIXT
100
AcDbLine
 10
636.0181233596315
 20
1653.805266574655
 30
0.0
 11
643.5425665127961
 21
1653.805266574654
 31
0.0
  0
ELLIPSE
  5
203
330
19B
100
AcDbEntity
  8
P-SANR-FIXT
100
AcDbEllipse
 10
636.0181233596299
 20
1692.655266574655
 30
0.0
 11
0.0
 21
38.85000000000036
 31
0.0
210
0.0
220
0.0
230
1.0
 40
0.9396926207859133
 41
4.712388980384702
 42
6.754909228677167
  0
ELLIPSE
  5
204
330
19B
100
AcDbEntity
  8
P-SANR-FIXT
100
AcDbEllipse
 10
636.0181233596299
 20
1692.655266574655
 30
0.0
 11
0.0000000000015896
 21
38.85000000000037
 31
0.0
210
0.0
220
0.0
230
1.0
 40
0.9396926207859097
 41
2.669718147248287
 42
4.712388980384739
  0
ELLIPSE
  5
205
330
19B
100
AcDbEntity
  8
P-SANR-FIXT
100
AcDbEllipse
 10
643.5425665127946
 20
1692.655266574655
 30
0.0
 11
0.0000000000008564
 21
38.85000000000037
 31
0.0
210
0.0
220
0.0
230
1.0
 40
0.9396926207859069
 41
4.71238898038471
 42
6.283185307179612
  0
ELLIPSE
  5
206
330
19B
100
AcDbEntity
  8
P-SANR-FIXT
100
AcDbEllipse
 10
643.5425665127946
 20
1692.655266574655
 30
0.0
 11
0.0000000000008564
 21
38.85000000000037
 31
0.0
210
0.0
220
0.0
230
1.0
 40
0.9396926207859069
 41
3.141592653589813
 42
4.71238898038471
  0
ELLIPSE
  5
207
330
19B
100
AcDbEntity
  8
P-SANR-FIXT
100
AcDbEllipse
 10
636.0181233596299
 20
1692.655266574655
 30
0.0
 11
0.0000000000008567
 21
37.00000000000023
 31
0.0
210
0.0
220
0.0
230
1.0
 40
0.939692620785911
 41
4.71238898038471
 42
6.611449065129256
  0
ELLIPSE
  5
208
330
19B
100
AcDbEntity
  8
P-SANR-FIXT
100
AcDbEllipse
 10
636.0181233596299
 20
1692.655266574655
 30
0.0
 11
0.0
 21
37.00000000000059
 31
0.0
210
0.0
220
0.0
230
1.0
 40
0.9396926207859042
 41
2.813328895646662
 42
4.712388980384691
  0
LINE
  5
209
330
19B
100
AcDbEntity
  8
P-SANR-FIXT
100
AcDbLine
 10
578.2787092593036
 20
1692.655266574654
 30
0.0
 11
578.2787092593036
 21
1709.155266574664
 31
0.0
  0
LINE
  5
20A
330
19B
100
AcDbEntity
  8
P-SANR-FIXT
100
AcDbLine
 10
578.2787092593036
 20
1709.155266574664
 30
0.0
 11
578.2787092593033
 21
1725.655266574672
 31
0.0
  0
LINE
  5
20B
330
19B
100
AcDbEntity
  8
P-SANR-FIXT
100
AcDbLine
 10
578.2787092593038
 20
1659.655266574636
 30
0.0
 11
578.2787092593037
 21
1676.155266574645
 31
0.0
  0
LINE
  5
20C
330
19B
100
AcDbEntity
  8
P-SANR-FIXT
100
AcDbLine
 10
578.2787092593037
 20
1676.155266574645
 30
0.0
 11
578.2787092593036
 21
1692.655266574653
 31
0.0
  0
LINE
  5
20D
330
19B
100
AcDbEntity
  8
P-SANR-FIXT
100
AcDbLine
 10
604.2787092593032
 20
1725.655266574661
 30
0.0
 11
604.2787092593032
 21
1722.612592535237
 31
0.0
  0
LINE
  5
20E
330
19B
100
AcDbEntity
  8
P-SANR-FIXT
100
AcDbLine
 10
604.2787092593036
 20
1662.698296497326
 30
0.0
 11
604.2787092593036
 21
1659.655266574647
 31
0.0
  0
SPLINE
  5
20F
330
19B
100
AcDbEntity
  8
P-SANR-FIXT
100
AcDbSpline
210
0.0
220
0.0
230
1.0
 70
    24
 71
     3
 72
     9
 73
     5
 74
     0
 42
0.000000001
 43
0.0000000001
 40
0.0
 40
0.0
 40
0.0
 40
0.0
 40
0.5
 40
1.0
 40
1.0
 40
1.0
 40
1.0
 10
578.2787092593033
 20
1725.655266574604
 30
0.0
 10
578.2922944458317
 20
1725.655266574604
 30
0.0
 10
578.5945547669456
 20
1725.655266574604
 30
0.0
 10
579.4469949841745
 20
1725.655266574605
 30
0.0
 10
580.0107600668176
 20
1725.655266574605
 30
0.0
  0
LINE
  5
210
330
19B
100
AcDbEntity
  8
P-SANR-FIXT
100
AcDbLine
 10
580.0107600668176
 20
1725.655266574605
 30
0.0
 11
602.5466584517825
 21
1725.655266574605
 31
0.0
  0
SPLINE
  5
211
330
19B
100
AcDbEntity
  8
P-SANR-FIXT
100
AcDbSpline
210
0.0
220
0.0
230
1.0
 70
    24
 71
     3
 72
     9
 73
     5
 74
     0
 42
0.000000001
 43
0.0000000001
 40
0.0
 40
0.0
 40
0.0
 40
0.0
 40
0.5
 40
1.0
 40
1.0
 40
1.0
 40
1.0
 10
602.5466584517825
 20
1725.655266574605
 30
0.0
 10
603.1104235344247
 20
1725.655266574605
 30
0.0
 10
603.9628637516537
 20
1725.655266574605
 30
0.0
 10
604.2651240727719
 20
1725.655266574605
 30
0.0
 10
604.2787092593032
 20
1725.655266574604
 30
0.0
  0
LINE
  5
212
330
19B
100
AcDbEntity
  8
P-SANR-FIXT
100
AcDbLine
 10
580.0107600668551
 20
1725.655266574605
 30
0.0
 11
580.0107600668551
 21
1721.615202368883
 31
0.0
  0
LINE
  5
213
330
19B
100
AcDbEntity
  8
P-SANR-FIXT
100
AcDbLine
 10
580.0107600668224
 20
1721.615202368883
 30
0.0
 11
601.8467534011318
 21
1721.615202368883
 31
0.0
  0
LINE
  5
214
330
19B
100
AcDbEntity
  8
P-SANR-FIXT
100
AcDbLine
 10
602.5466584517451
 20
1721.923771831488
 30
0.0
 11
602.5466584517451
 21
1725.655266574605
 31
0.0
  0
SPLINE
  5
215
330
19B
100
AcDbEntity
  8
P-SANR-FIXT
100
AcDbSpline
210
0.0
220
0.0
230
1.0
 70
     8
 71
     3
 72
     9
 73
     5
 74
     0
 42
0.000000001
 43
0.0000000001
 40
0.0
 40
0.0
 40
0.0
 40
0.0
 40
0.5
 40
1.0
 40
1.0
 40
1.0
 40
1.0
 10
580.0107600668224
 20
1721.615202368883
 30
0.0
 10
579.4469949841915
 20
1719.566389889643
 30
0.0
 10
578.5945547669743
 20
1715.440921444698
 30
0.0
 10
578.2922944458456
 20
1711.259766026824
 30
0.0
 10
578.2787092593036
 20
1709.155266574654
 30
0.0
  0
SPLINE
  5
216
330
19B
100
AcDbEntity
  8
P-SANR-FIXT
100
AcDbSpline
210
0.0
220
0.0
230
1.0
 70
     8
 71
     3
 72
     9
 73
     5
 74
     0
 42
0.000000001
 43
0.0000000001
 40
0.0
 40
0.0
 40
0.0
 40
0.0
 40
0.5
 40
0.8272796544260703
 40
0.8272796544260703
 40
0.8272796544260703
 40
0.8272796544260703
 10
578.2787092593036
 20
1709.155266574654
 30
0.0
 10
578.292294445846
 20
1707.050767122467
 30
0.0
 10
578.5423482598604
 20
1703.591782313236
 30
0.0
 10
579.1689405879024
 20
1700.170909201992
 30
0.0
 10
579.4757572919561
 20
1698.823544191338
 30
0.0
  0
SPLINE
  5
217
330
19B
100
AcDbEntity
  8
P-SANR-FIXT
100
AcDbSpline
210
0.0
220
0.0
230
1.0
 70
     8
 71
     3
 72
     9
 73
     5
 74
     0
 42
0.000000001
 43
0.0000000001
 40
0.1727203455656644
 40
0.1727203455656644
 40
0.1727203455656644
 40
0.1727203455656644
 40
0.5
 40
1.0
 40
1.0
 40
1.0
 40
1.0
 10
579.4757572920007
 20
1686.486988957969
 30
0.0
 10
579.1689405879419
 20
1685.13962394729
 30
0.0
 10
578.5423482598958
 20
1681.718750836036
 30
0.0
 10
578.2922944458635
 20
1678.259766026796
 30
0.0
 10
578.2787092593037
 20
1676.155266574624
 30
0.0
  0
SPLINE
  5
218
330
19B
100
AcDbEntity
  8
P-SANR-FIXT
100
AcDbSpline
210
0.0
220
0.0
230
1.0
 70
     8
 71
     3
 72
     9
 73
     5
 74
     0
 42
0.000000001
 43
0.0000000001
 40
0.0
 40
0.0
 40
0.0
 40
0.0
 40
0.5
 40
1.0
 40
1.0
 40
1.0
 40
1.0
 10
578.2787092593037
 20
1676.155266574624
 30
0.0
 10
578.292294445864
 20
1674.050767122433
 30
0.0
 10
578.5945547670219
 20
1669.869611704517
 30
0.0
 10
579.4469949842539
 20
1665.744143259531
 30
0.0
 10
580.0107600668885
 20
1663.695330780271
 30
0.0
  0
LINE
  5
219
330
19B
100
AcDbEntity
  8
P-SANR-FIXT
100
AcDbLine
 10
580.0107600668885
 20
1663.695330780271
 30
0.0
 11
601.9354882105278
 21
1663.695330780271
 31
0.0
  0
LINE
  5
21A
330
19B
100
AcDbEntity
  8
P-SANR-FIXT
100
AcDbLine
 10
580.0107600668556
 20
1663.69533078027
 30
0.0
 11
580.0107600668556
 21
1659.65526657458
 31
0.0
  0
LINE
  5
21B
330
19B
100
AcDbEntity
  8
P-SANR-FIXT
100
AcDbLine
 10
580.0107600668932
 20
1659.65526657458
 30
0.0
 11
602.5466584517078
 21
1659.65526657458
 31
0.0
  0
LINE
  5
21C
330
19B
100
AcDbEntity
  8
P-SANR-FIXT
100
AcDbLine
 10
602.5466584517454
 20
1659.65526657458
 30
0.0
 11
602.5466584517454
 21
1663.387236068627
 31
0.0
  0
SPLINE
  5
21D
330
19B
100
AcDbEntity
  8
P-SANR-FIXT
100
AcDbSpline
210
0.0
220
0.0
230
1.0
 70
    24
 71
     3
 72
     9
 73
     5
 74
     0
 42
0.000000001
 43
0.0000000001
 40
0.0
 40
0.0
 40
0.0
 40
0.0
 40
0.5
 40
1.0
 40
1.0
 40
1.0
 40
1.0
 10
580.0107600668932
 20
1659.655266574581
 30
0.0
 10
579.4469949842605
 20
1659.65526657458
 30
0.0
 10
578.5945547670295
 20
1659.65526657458
 30
0.0
 10
578.2922944458675
 20
1659.65526657458
 30
0.0
 10
578.2787092593038
 20
1659.65526657458
 30
0.0
  0
SPLINE
  5
21E
330
19B
100
AcDbEntity
  8
P-SANR-FIXT
100
AcDbSpline
210
0.0
220
0.0
230
1.0
 70
    24
 71
     3
 72
     9
 73
     5
 74
     0
 42
0.000000001
 43
0.0000000001
 40
0.0
 40
0.0
 40
0.0
 40
0.0
 40
0.5
 40
1.0
 40
1.0
 40
1.0
 40
1.0
 10
604.2787092593036
 20
1659.65526657458
 30
0.0
 10
604.2651240727367
 20
1659.65526657458
 30
0.0
 10
603.9628637515705
 20
1659.65526657458
 30
0.0
 10
603.1104235343396
 20
1659.655266574581
 30
0.0
 10
602.5466584517078
 20
1659.655266574581
 30
0.0
  0
LINE
  5
21F
330
19B
100
AcDbEntity
  8
P-SANR-FIXT
100
AcDbLine
 10
732.2787092592995
 20
1725.655266574673
 30
0.0
 11
732.2787092592995
 21
1709.155266574666
 31
0.0
  0
LINE
  5
220
330
19B
100
AcDbEntity
  8
P-SANR-FIXT
100
AcDbLine
 10
732.2787092592995
 20
1709.155266574666
 30
0.0
 11
732.2787092592996
 21
1692.655266574656
 31
0.0
  0
LINE
  5
221
330
19B
100
AcDbEntity
  8
P-SANR-FIXT
100
AcDbLine
 10
732.2787092592996
 20
1692.655266574655
 30
0.0
 11
732.2787092592997
 21
1676.155266574647
 31
0.0
  0
LINE
  5
222
330
19B
100
AcDbEntity
  8
P-SANR-FIXT
100
AcDbLine
 10
732.2787092592997
 20
1676.155266574647
 30
0.0
 11
732.2787092592997
 21
1659.655266574637
 31
0.0
  0
LINE
  5
223
330
19B
100
AcDbEntity
  8
P-SANR-FIXT
100
AcDbLine
 10
706.2787092592997
 20
1699.979476621391
 30
0.0
 11
706.2787092592996
 21
1709.15526657466
 31
0.0
  0
LINE
  5
224
330
19B
100
AcDbEntity
  8
P-SANR-FIXT
100
AcDbLine
 10
706.2787092592996
 20
1709.155266574659
 30
0.0
 11
706.2787092592996
 21
1725.655266574662
 31
0.0
  0
LINE
  5
225
330
19B
100
AcDbEntity
  8
P-SANR-FIXT
100
AcDbLine
 10
706.2787092592998
 20
1659.655266574648
 30
0.0
 11
706.2787092592998
 21
1676.155266574652
 31
0.0
  0
LINE
  5
226
330
19B
100
AcDbEntity
  8
P-SANR-FIXT
100
AcDbLine
 10
706.2787092592998
 20
1676.155266574652
 30
0.0
 11
706.2787092592997
 21
1685.331056527919
 31
0.0
  0
SPLINE
  5
227
330
19B
100
AcDbEntity
  8
P-SANR-FIXT
100
AcDbSpline
210
0.0
220
0.0
230
1.0
 70
    24
 71
     3
 72
     9
 73
     5
 74
     0
 42
0.000000001
 43
0.0000000001
 40
0.0
 40
0.0
 40
0.0
 40
0.0
 40
0.5
 40
1.0
 40
1.0
 40
1.0
 40
1.0
 10
706.2787092592996
 20
1725.655266574605
 30
0.0
 10
706.292294445831
 20
1725.655266574605
 30
0.0
 10
706.5945547669492
 20
1725.655266574605
 30
0.0
 10
707.446994984178
 20
1725.655266574605
 30
0.0
 10
708.0107600668203
 20
1725.655266574605
 30
0.0
  0
SPLINE
  5
228
330
19B
100
AcDbEntity
  8
P-SANR-FIXT
100
AcDbSpline
210
0.0
220
0.0
230
1.0
 70
    24
 71
     3
 72
     9
 73
     5
 74
     0
 42
0.000000001
 43
0.0000000001
 40
0.0
 40
0.0
 40
0.0
 40
0.0
 40
0.5
 40
1.0
 40
1.0
 40
1.0
 40
1.0
 10
730.5466584517851
 20
1725.655266574606
 30
0.0
 10
731.1104235344283
 20
1725.655266574606
 30
0.0
 10
731.9628637516572
 20
1725.655266574605
 30
0.0
 10
732.2651240727712
 20
1725.655266574605
 30
0.0
 10
732.2787092592995
 20
1725.655266574605
 30
0.0
  0
LINE
  5
229
330
19B
100
AcDbEntity
  8
P-SANR-FIXT
100
AcDbLine
 10
708.0107600668203
 20
1725.655266574605
 30
0.0
 11
730.5466584517851
 21
1725.655266574606
 31
0.0
  0
LINE
  5
22A
330
19B
100
AcDbEntity
  8
P-SANR-FIXT
100
AcDbLine
 10
708.0107600668578
 20
1725.655266574605
 30
0.0
 11
708.0107600668578
 21
1721.615202368884
 31
0.0
  0
LINE
  5
22B
330
19B
100
AcDbEntity
  8
P-SANR-FIXT
100
AcDbLine
 10
730.5466584517477
 20
1721.615202368884
 30
0.0
 11
730.5466584517477
 21
1725.655266574606
 31
0.0
  0
LINE
  5
22C
330
19B
100
AcDbEntity
  8
P-SANR-FIXT
100
AcDbLine
 10
708.0107600668249
 20
1721.615202368884
 30
0.0
 11
730.5466584517804
 21
1721.615202368884
 31
0.0
  0
SPLINE
  5
22D
330
19B
100
AcDbEntity
  8
P-SANR-FIXT
100
AcDbSpline
210
0.0
220
0.0
230
1.0
 70
     8
 71
     3
 72
     9
 73
     5
 74
     0
 42
0.000000001
 43
0.0000000001
 40
0.0
 40
0.0
 40
0.0
 40
0.0
 40
0.5
 40
1.0
 40
1.0
 40
1.0
 40
1.0
 10
708.0107600668249
 20
1721.615202368884
 30
0.0
 10
707.4469949841951
 20
1719.566389889644
 30
0.0
 10
706.5945547669778
 20
1715.440921444699
 30
0.0
 10
706.2922944458448
 20
1711.259766026825
 30
0.0
 10
706.2787092592996
 20
1709.155266574656
 30
0.0
  0
SPLINE
  5
22E
330
19B
100
AcDbEntity
  8
P-SANR-FIXT
100
AcDbSpline
210
0.0
220
0.0
230
1.0
 70
     8
 71
     3
 72
     9
 73
     5
 74
     0
 42
0.000000001
 43
0.0000000001
 40
0.0
 40
0.0
 40
0.0
 40
0.0
 40
0.5
 40
0.8232089297380895
 40
0.8232089297380895
 40
0.8232089297380895
 40
0.8232089297380895
 10
706.2787092592996
 20
1709.155266574656
 30
0.0
 10
706.2922944458454
 20
1707.050767122468
 30
0.0
 10
706.5411178413118
 20
1703.608802645821
 30
0.0
 10
707.1627832655931
 20
1700.204575723952
 30
0.0
 10
707.4643360270043
 20
1698.873822788967
 30
0.0
  0
SPLINE
  5
22F
330
19B
100
AcDbEntity
  8
P-SANR-FIXT
100
AcDbSpline
210
0.0
220
0.0
230
1.0
 70
     8
 71
     3
 72
     9
 73
     5
 74
     0
 42
0.000000001
 43
0.0000000001
 40
0.0
 40
0.0
 40
0.0
 40
0.0
 40
0.5
 40
1.0
 40
1.0
 40
1.0
 40
1.0
 10
730.5466584517521
 20
1696.695330780321
 30
0.0
 10
731.1104235343921
 20
1698.744143259578
 30
0.0
 10
731.9628637516231
 20
1702.869611704558
 30
0.0
 10
732.2651240727569
 20
1707.050767122468
 30
0.0
 10
732.2787092592995
 20
1709.155266574656
 30
0.0
  0
SPLINE
  5
230
330
19B
100
AcDbEntity
  8
P-SANR-FIXT
100
AcDbSpline
210
0.0
220
0.0
230
1.0
 70
     8
 71
     3
 72
     9
 73
     5
 74
     0
 42
0.000000001
 43
0.0000000001
 40
0.0
 40
0.0
 40
0.0
 40
0.0
 40
0.5
 40
1.0
 40
1.0
 40
1.0
 40
1.0
 10
732.2787092592995
 20
1709.155266574656
 30
0.0
 10
732.2651240727573
 20
1711.259766026826
 30
0.0
 10
731.9628637516286
 20
1715.4409214447
 30
0.0
 10
731.1104235344113
 20
1719.566389889644
 30
0.0
 10
730.5466584517804
 20
1721.615202368884
 30
0.0
  0
LINE
  5
231
330
19B
100
AcDbEntity
  8
P-SANR-FIXT
100
AcDbLine
 10
708.9774732117859
 20
1696.695330780321
 30
0.0
 11
730.5466584517521
 21
1696.695330780321
 31
0.0
  0
LINE
  5
232
330
19B
100
AcDbEntity
  8
P-SANR-FIXT
100
AcDbLine
 10
730.5466584517477
 20
1688.615202368871
 30
0.0
 11
730.5466584517477
 21
1692.655266574655
 31
0.0
  0
LINE
  5
233
330
19B
100
AcDbEntity
  8
P-SANR-FIXT
100
AcDbLine
 10
730.5466584517477
 20
1692.655266574655
 30
0.0
 11
730.5466584517477
 21
1696.695330780321
 31
0.0
  0
LINE
  5
234
330
19B
100
AcDbEntity
  8
P-SANR-FIXT
100
AcDbLine
 10
708.9774732117303
 20
1688.615202368872
 30
0.0
 11
730.546658451743
 21
1688.615202368872
 31
0.0
  0
SPLINE
  5
235
330
19B
100
AcDbEntity
  8
P-SANR-FIXT
100
AcDbSpline
210
0.0
220
0.0
230
1.0
 70
     8
 71
     3
 72
     9
 73
     5
 74
     0
 42
0.000000001
 43
0.0000000001
 40
0.1767910702482501
 40
0.1767910702482501
 40
0.1767910702482501
 40
0.1767910702482501
 40
0.5
 40
1.0
 40
1.0
 40
1.0
 40
1.0
 10
707.4643360270638
 20
1686.436710360409
 30
0.0
 10
707.1627832656406
 20
1685.105957425377
 30
0.0
 10
706.5411178413487
 20
1681.701730503475
 30
0.0
 10
706.2922944458628
 20
1678.259766026797
 30
0.0
 10
706.2787092592998
 20
1676.155266574625
 30
0.0
  0
SPLINE
  5
236
330
19B
100
AcDbEntity
  8
P-SANR-FIXT
100
AcDbSpline
210
0.0
220
0.0
230
1.0
 70
     8
 71
     3
 72
     9
 73
     5
 74
     0
 42
0.000000001
 43
0.0000000001
 40
0.0
 40
0.0
 40
0.0
 40
0.0
 40
0.5
 40
1.0
 40
1.0
 40
1.0
 40
1.0
 10
706.2787092592998
 20
1676.155266574625
 30
0.0
 10
706.2922944458634
 20
1674.050767122434
 30
0.0
 10
706.5945547670254
 20
1669.869611704519
 30
0.0
 10
707.4469949842574
 20
1665.744143259532
 30
0.0
 10
708.010760066891
 20
1663.695330780272
 30
0.0
  0
SPLINE
  5
237
330
19B
100
AcDbEntity
  8
P-SANR-FIXT
100
AcDbSpline
210
0.0
220
0.0
230
1.0
 70
     8
 71
     3
 72
     9
 73
     5
 74
     0
 42
0.000000001
 43
0.0000000001
 40
0.0
 40
0.0
 40
0.0
 40
0.0
 40
0.5
 40
1.0
 40
1.0
 40
1.0
 40
1.0
 10
730.5466584517149
 20
1663.695330780272
 30
0.0
 10
731.1104235343496
 20
1665.744143259533
 30
0.0
 10
731.9628637515815
 20
1669.869611704519
 30
0.0
 10
732.2651240727394
 20
1674.050767122434
 30
0.0
 10
732.2787092592997
 20
1676.155266574625
 30
0.0
  0
SPLINE
  5
238
330
19B
100
AcDbEntity
  8
P-SANR-FIXT
100
AcDbSpline
210
0.0
220
0.0
230
1.0
 70
     8
 71
     3
 72
     9
 73
     5
 74
     0
 42
0.000000001
 43
0.0000000001
 40
0.0
 40
0.0
 40
0.0
 40
0.0
 40
0.5
 40
1.0
 40
1.0
 40
1.0
 40
1.0
 10
732.2787092592997
 20
1676.155266574625
 30
0.0
 10
732.2651240727398
 20
1678.259766026797
 30
0.0
 10
731.9628637515871
 20
1682.440921444676
 30
0.0
 10
731.1104235343687
 20
1686.566389889629
 30
0.0
 10
730.546658451743
 20
1688.615202368872
 30
0.0
  0
LINE
  5
239
330
19B
100
AcDbEntity
  8
P-SANR-FIXT
100
AcDbLine
 10
708.010760066891
 20
1663.695330780272
 30
0.0
 11
730.5466584517149
 21
1663.695330780272
 31
0.0
  0
LINE
  5
23A
330
19B
100
AcDbEntity
  8
P-SANR-FIXT
100
AcDbLine
 10
708.0107600668581
 20
1663.695330780272
 30
0.0
 11
708.0107600668581
 21
1659.655266574581
 31
0.0
  0
LINE
  5
23B
330
19B
100
AcDbEntity
  8
P-SANR-FIXT
100
AcDbLine
 10
730.5466584517479
 20
1659.655266574581
 30
0.0
 11
730.5466584517479
 21
1663.695330780272
 31
0.0
  0
SPLINE
  5
23C
330
19B
100
AcDbEntity
  8
P-SANR-FIXT
100
AcDbSpline
210
0.0
220
0.0
230
1.0
 70
    24
 71
     3
 72
     9
 73
     5
 74
     0
 42
0.000000001
 43
0.0000000001
 40
0.0
 40
0.0
 40
0.0
 40
0.0
 40
0.5
 40
1.0
 40
1.0
 40
1.0
 40
1.0
 10
732.2787092592997
 20
1659.655266574581
 30
0.0
 10
732.2651240727359
 20
1659.655266574581
 30
0.0
 10
731.962863751574
 20
1659.655266574581
 30
0.0
 10
731.1104235343431
 20
1659.655266574581
 30
0.0
 10
730.5466584517103
 20
1659.655266574581
 30
0.0
  0
LINE
  5
23D
330
19B
100
AcDbEntity
  8
P-SANR-FIXT
100
AcDbLine
 10
708.0107600668957
 20
1659.655266574581
 30
0.0
 11
730.5466584517103
 21
1659.655266574581
 31
0.0
  0
SPLINE
  5
23E
330
19B
100
AcDbEntity
  8
P-SANR-FIXT
100
AcDbSpline
210
0.0
220
0.0
230
1.0
 70
    24
 71
     3
 72
     9
 73
     5
 74
     0
 42
0.000000001
 43
0.0000000001
 40
0.0
 40
0.0
 40
0.0
 40
0.0
 40
0.5
 40
1.0
 40
1.0
 40
1.0
 40
1.0
 10
708.0107600668957
 20
1659.655266574581
 30
0.0
 10
707.4469949842639
 20
1659.655266574581
 30
0.0
 10
706.5945547670329
 20
1659.655266574581
 30
0.0
 10
706.2922944458668
 20
1659.655266574581
 30
0.0
 10
706.2787092592998
 20
1659.655266574581
 30
0.0
  0
LINE
  5
23F
330
19B
100
AcDbEntity
  8
P-SANR-FIXT
100
AcDbLine
 10
763.2787092593254
 20
1716.555266574658
 30
0.0
 11
743.4911448246209
 21
1716.555266574658
 31
0.0
  0
LINE
  5
240
330
19B
100
AcDbEntity
  8
P-SANR-FIXT
100
AcDbLine
 10
743.4911448246213
 20
1668.755266574654
 30
0.0
 11
763.2787092593258
 21
1668.755266574654
 31
0.0
  0
LINE
  5
241
330
19B
100
AcDbEntity
  8
P-SANR-FIXT
100
AcDbLine
 10
765.2787092593261
 20
1714.555266574657
 30
0.0
 11
763.2787092593254
 21
1716.555266574658
 31
0.0
  0
LINE
  5
242
330
19B
100
AcDbEntity
  8
P-SANR-FIXT
100
AcDbLine
 10
763.2787092593258
 20
1668.755266574654
 30
0.0
 11
765.2787092593264
 21
1670.755266574655
 31
0.0
  0
LINE
  5
243
330
19B
100
AcDbEntity
  8
P-SANR-FIXT
100
AcDbLine
 10
743.4911448246197
 20
1714.6552665746
 30
0.0
 11
743.4911448246197
 21
1716.555266574657
 31
0.0
  0
LINE
  5
244
330
19B
100
AcDbEntity
  8
P-SANR-FIXT
100
AcDbLine
 10
743.49114482462
 20
1695.567776234575
 30
0.0
 11
743.4911448246197
 21
1711.742756914715
 31
0.0
  0
LINE
  5
245
330
19B
100
AcDbEntity
  8
P-SANR-FIXT
100
AcDbLine
 10
743.49114482462
 20
1668.755266574653
 30
0.0
 11
743.49114482462
 21
1670.655266574568
 31
0.0
  0
LINE
  5
246
330
19B
100
AcDbEntity
  8
P-SANR-FIXT
100
AcDbLine
 10
743.49114482462
 20
1673.567776234704
 30
0.0
 11
743.49114482462
 21
1689.742756914555
 31
0.0
  0
LINE
  5
247
330
19B
100
AcDbEntity
  8
P-SANR-FIXT
100
AcDbLine
 10
763.2787092593243
 20
1692.655266574655
 30
0.0
 11
763.278709259324
 21
1716.555266574657
 31
0.0
  0
LINE
  5
248
330
19B
100
AcDbEntity
  8
P-SANR-FIXT
100
AcDbLine
 10
763.2787092593243
 20
1668.755266574653
 30
0.0
 11
763.2787092593243
 21
1692.655266574655
 31
0.0
  0
LINE
  5
249
330
19B
100
AcDbEntity
  8
P-SANR-FIXT
100
AcDbLine
 10
765.2787092593248
 20
1714.555266574657
 30
0.0
 11
765.278709259325
 21
1692.655266574656
 31
0.0
  0
LINE
  5
24A
330
19B
100
AcDbEntity
  8
P-SANR-FIXT
100
AcDbLine
 10
765.278709259325
 20
1692.655266574655
 30
0.0
 11
765.278709259325
 21
1670.755266574654
 31
0.0
  0
LINE
  5
24B
330
19B
100
AcDbEntity
  8
P-SANR-FIXT
100
AcDbLine
 10
732.2787092592997
 20
1674.863085795085
 30
0.0
 11
732.2787092592997
 21
1677.482526307288
 31
0.0
  0
LINE
  5
24C
330
19B
100
AcDbEntity
  8
P-SANR-FIXT
100
AcDbLine
 10
732.2787092592995
 20
1707.828006840915
 30
0.0
 11
732.2787092592995
 21
1710.447447354304
 31
0.0
  0
LINE
  5
24D
330
19B
100
AcDbEntity
  8
P-SANR-FIXT
100
AcDbLine
 10
732.2787092592995
 20
1714.6552665746
 30
0.0
 11
743.4911448246197
 21
1714.6552665746
 31
0.0
  0
LINE
  5
24E
330
19B
100
AcDbEntity
  8
P-SANR-FIXT
100
AcDbLine
 10
732.2787092592995
 20
1711.742756914535
 30
0.0
 11
743.4911448246197
 21
1711.742756914535
 31
0.0
  0
LINE
  5
24F
330
19B
100
AcDbEntity
  8
P-SANR-FIXT
100
AcDbLine
 10
732.2787092592997
 20
1695.567776234649
 30
0.0
 11
743.49114482462
 21
1695.567776234649
 31
0.0
  0
LINE
  5
250
330
19B
100
AcDbEntity
  8
P-SANR-FIXT
100
AcDbLine
 10
732.2787092592997
 20
1689.74275691452
 30
0.0
 11
743.49114482462
 21
1689.74275691452
 31
0.0
  0
LINE
  5
251
330
19B
100
AcDbEntity
  8
P-SANR-FIXT
100
AcDbLine
 10
732.2787092592997
 20
1673.567776234633
 30
0.0
 11
743.49114482462
 21
1673.567776234633
 31
0.0
  0
LINE
  5
252
330
19B
100
AcDbEntity
  8
P-SANR-FIXT
100
AcDbLine
 10
743.49114482462
 20
1670.655266574568
 30
0.0
 11
732.2787092592997
 21
1670.655266574568
 31
0.0
  0
LINE
  5
253
330
19B
100
AcDbEntity
  8
P-SANR-FIXT
100
AcDbLine
 10
567.0662736939841
 20
1716.555266574657
 30
0.0
 11
547.2787092592798
 21
1716.555266574657
 31
0.0
  0
LINE
  5
254
330
19B
100
AcDbEntity
  8
P-SANR-FIXT
100
AcDbLine
 10
547.27870925928
 20
1668.755266574653
 30
0.0
 11
567.0662736939845
 21
1668.755266574653
 31
0.0
  0
LINE
  5
255
330
19B
100
AcDbEntity
  8
P-SANR-FIXT
100
AcDbLine
 10
547.2787092592798
 20
1716.555266574657
 30
0.0
 11
545.2787092592791
 21
1714.555266574656
 31
0.0
  0
LINE
  5
256
330
19B
100
AcDbEntity
  8
P-SANR-FIXT
100
AcDbLine
 10
545.2787092592792
 20
1670.755266574653
 30
0.0
 11
547.27870925928
 21
1668.755266574653
 31
0.0
  0
LINE
  5
257
330
19B
100
AcDbEntity
  8
P-SANR-FIXT
100
AcDbLine
 10
545.2787092592781
 20
1692.655266574654
 30
0.0
 11
545.278709259278
 21
1714.555266574655
 31
0.0
  0
LINE
  5
258
330
19B
100
AcDbEntity
  8
P-SANR-FIXT
100
AcDbLine
 10
545.2787092592782
 20
1670.755266574653
 30
0.0
 11
545.2787092592781
 21
1692.655266574654
 31
0.0
  0
LINE
  5
259
330
19B
100
AcDbEntity
  8
P-SANR-FIXT
100
AcDbLine
 10
567.066273693983
 20
1711.742756914714
 30
0.0
 11
567.0662736939831
 21
1695.567776234575
 31
0.0
  0
LINE
  5
25A
330
19B
100
AcDbEntity
  8
P-SANR-FIXT
100
AcDbLine
 10
567.066273693983
 20
1716.555266574656
 30
0.0
 11
567.066273693983
 21
1714.655266574599
 31
0.0
  0
LINE
  5
25B
330
19B
100
AcDbEntity
  8
P-SANR-FIXT
100
AcDbLine
 10
567.0662736939832
 20
1670.655266574567
 30
0.0
 11
567.0662736939832
 21
1668.755266574652
 31
0.0
  0
LINE
  5
25C
330
19B
100
AcDbEntity
  8
P-SANR-FIXT
100
AcDbLine
 10
567.0662736939831
 20
1689.742756914554
 30
0.0
 11
567.0662736939832
 21
1673.567776234704
 31
0.0
  0
LINE
  5
25D
330
19B
100
AcDbEntity
  8
P-SANR-FIXT
100
AcDbLine
 10
547.2787092592787
 20
1716.555266574656
 30
0.0
 11
547.2787092592787
 21
1692.655266574654
 31
0.0
  0
LINE
  5
25E
330
19B
100
AcDbEntity
  8
P-SANR-FIXT
100
AcDbLine
 10
547.2787092592787
 20
1692.655266574654
 30
0.0
 11
547.278709259279
 21
1668.755266574652
 31
0.0
  0
LINE
  5
25F
330
19B
100
AcDbEntity
  8
P-SANR-FIXT
100
AcDbLine
 10
578.2787092593034
 20
1710.4474473543
 30
0.0
 11
578.2787092593036
 21
1707.828006840917
 31
0.0
  0
LINE
  5
260
330
19B
100
AcDbEntity
  8
P-SANR-FIXT
100
AcDbLine
 10
578.2787092593037
 20
1677.482526307279
 30
0.0
 11
578.2787092593037
 21
1674.863085795092
 31
0.0
  0
LINE
  5
261
330
19B
100
AcDbEntity
  8
P-SANR-FIXT
100
AcDbLine
 10
578.2787092593037
 20
1670.655266574567
 30
0.0
 11
567.0662736939825
 21
1670.655266574567
 31
0.0
  0
LINE
  5
262
330
19B
100
AcDbEntity
  8
P-SANR-FIXT
100
AcDbLine
 10
567.0662736939823
 20
1714.655266574599
 30
0.0
 11
578.2787092593034
 21
1714.655266574599
 31
0.0
  0
LINE
  5
263
330
19B
100
AcDbEntity
  8
P-SANR-FIXT
100
AcDbLine
 10
567.0662736939823
 20
1711.742756914534
 30
0.0
 11
578.2787092593034
 21
1711.742756914534
 31
0.0
  0
LINE
  5
264
330
19B
100
AcDbEntity
  8
P-SANR-FIXT
100
AcDbLine
 10
567.0662736939824
 20
1695.567776234648
 30
0.0
 11
578.2787092593036
 21
1695.567776234648
 31
0.0
  0
LINE
  5
265
330
19B
100
AcDbEntity
  8
P-SANR-FIXT
100
AcDbLine
 10
567.0662736939824
 20
1689.742756914519
 30
0.0
 11
578.2787092593036
 21
1689.742756914519
 31
0.0
  0
LINE
  5
266
330
19B
100
AcDbEntity
  8
P-SANR-FIXT
100
AcDbLine
 10
567.0662736939825
 20
1673.567776234632
 30
0.0
 11
578.2787092593037
 21
1673.567776234632
 31
0.0
  0
LINE
  5
267
330
19B
100
AcDbEntity
  8
P-SANR-FIXT
100
AcDbLine
 10
690.5940671913359
 20
1698.655266574655
 30
0.0
 11
688.7433556591662
 21
1698.655266574655
 31
0.0
  0
LINE
  5
268
330
19B
100
AcDbEntity
  8
P-SANR-FIXT
100
AcDbLine
 10
688.7433878397647
 20
1686.655266574655
 30
0.0
 11
690.5938046433051
 21
1686.655266574655
 31
0.0
  0
LINE
  5
269
330
19B
100
AcDbEntity
  8
P-SANR-FIXT
100
AcDbLine
 10
699.5857631102311
 20
1701.655266574655
 30
0.0
 11
697.0223357011331
 21
1701.655266574655
 31
0.0
  0
LINE
  5
26A
330
19B
100
AcDbEntity
  8
P-SANR-FIXT
100
AcDbLine
 10
697.0223357011329
 20
1683.655266574655
 30
0.0
 11
699.5857631102311
 21
1683.655266574655
 31
0.0
  0
LWPOLYLINE
  5
26B
330
19B
100
AcDbEntity
  8
P-SANR-FIXT
100
AcDbPolyline
 90
        8
 70
   128
 43
0.0
 10
677.3448830077106
 20
1720.454918561075
 10
675.8262236555561
 20
1721.221769728333
 10
673.6055554919183
 20
1722.229415136126
 10
671.2860043700152
 20
1723.16716435078
 10
668.8743600236964
 20
1724.026396851625
 10
666.3784760841188
 20
1724.799018525212
 10
663.8072038574258
 20
1725.477595294358
 10
662.6287363633166
 20
1725.735859749656
  0
LWPOLYLINE
  5
26C
330
19B
100
AcDbEntity
  8
P-SANR-FIXT
100
AcDbPolyline
 90
        8
 70
   128
 43
0.0
 10
662.5985033272326
 20
1659.554176731109
 10
665.1720033043046
 20
1660.178643923812
 10
667.7046800273203
 20
1660.907697272537
 10
670.1571811074185
 20
1661.72696526623
 10
672.5211719221606
 20
1662.628649523087
 10
674.7893528912276
 20
1663.60436127886
 10
676.9555152947638
 20
1664.64525806393
 10
677.3493695822006
 20
1664.855076394499
  0
LINE
  5
26D
330
19B
100
AcDbEntity
  8
P-SANR-FIXT
100
AcDbLine
 10
637.3195330881862
 20
1729.655266574655
 30
0.0
 11
636.0181233596311
 21
1729.655266574655
 31
0.0
  0
LINE
  5
26E
330
19B
100
AcDbEntity
  8
P-SANR-FIXT
100
AcDbLine
 10
636.0181233596311
 20
1655.655266574655
 30
0.0
 11
637.3195330881862
 21
1655.655266574655
 31
0.0
  0
SPLINE
  5
26F
330
19B
100
AcDbEntity
  8
P-SANR-FIXT
100
AcDbSpline
210
0.0
220
0.0
230
1.0
 70
     8
 71
     3
 72
    20
 73
    16
 74
     0
 42
0.000000001
 43
0.0000000001
 40
0.570033933031815
 40
0.570033933031815
 40
0.570033933031815
 40
0.570033933031815
 40
0.59375
 40
0.625
 40
0.65625
 40
0.6875
 40
0.71875
 40
0.75
 40
0.78125
 40
0.8125
 40
0.84375
 40
0.875
 40
0.90625
 40
0.9375
 40
1.0
 40
1.0
 40
1.0
 40
1.0
 10
688.268532115467
 20
1698.57747048623
 30
0.0
 10
688.2259884912348
 20
1698.563242960859
 30
0.0
 10
688.1279592005603
 20
1698.525734051541
 30
0.0
 10
687.9726414677043
 20
1698.44961772564
 30
0.0
 10
687.8070975865312
 20
1698.345816434417
 30
0.0
 10
687.6478500429142
 20
1698.22177396131
 30
0.0
 10
687.490767232916
 20
1698.075848682079
 30
0.0
 10
687.3307977815068
 20
1697.904457442439
 30
0.0
 10
687.1763111107439
 20
1697.709305380958
 30
0.0
 10
687.0310465002313
 20
1697.491746864065
 30
0.0
 10
686.8869473523576
 20
1697.245837033752
 30
0.0
 10
686.7388658565424
 20
1696.964399805149
 30
0.0
 10
686.5902319845962
 20
1696.644140129739
 30
0.0
 10
686.4054198024446
 20
1696.169870943228
 30
0.0
 10
686.2866815522468
 20
1695.758238985551
 30
0.0
 10
686.2236739167509
 20
1695.459492728767
 30
0.0
  0
SPLINE
  5
270
330
19B
100
AcDbEntity
  8
P-SANR-FIXT
100
AcDbSpline
210
0.0
220
0.0
230
1.0
 70
     8
 71
     3
 72
    20
 73
    16
 74
     0
 42
0.000000001
 43
0.0000000001
 40
0.0
 40
0.0
 40
0.0
 40
0.0
 40
0.0625
 40
0.09375
 40
0.125
 40
0.15625
 40
0.1875
 40
0.21875
 40
0.25
 40
0.28125
 40
0.3125
 40
0.34375
 40
0.375
 40
0.40625
 40
0.4323741083312042
 40
0.4323741083312042
 40
0.4323741083312042
 40
0.4323741083312042
 10
686.2099002041937
 20
1689.909078358932
 30
0.0
 10
686.2718203445898
 20
1689.605667654853
 30
0.0
 10
686.389666953099
 20
1689.187443192014
 30
0.0
 10
686.5741446957543
 20
1688.705453546764
 30
0.0
 10
686.7228461863479
 20
1688.379931067742
 30
0.0
 10
686.8710580196663
 20
1688.093865106312
 30
0.0
 10
687.0152370899205
 20
1687.843910826365
 30
0.0
 10
687.1606121305992
 20
1687.622737181953
 30
0.0
 10
687.3153981680927
 20
1687.424249880626
 30
0.0
 10
687.4757773287559
 20
1687.249839800075
 30
0.0
 10
687.6331855475975
 20
1687.10125094606
 30
0.0
 10
687.7927752757253
 20
1686.974788560345
 30
0.0
 10
687.9587618467683
 20
1686.868744837533
 30
0.0
 10
688.1188982260993
 20
1686.788565888267
 30
0.0
 10
688.2214644398359
 20
1686.748783394222
 30
0.0
 10
688.2685223695473
 20
1686.733050540266
 30
0.0
  0
ELLIPSE
  5
271
330
19B
100
AcDbEntity
  8
P-SANR-FIXT
100
AcDbEllipse
 10
697.0223357011316
 20
1692.655266574655
 30
0.0
 11
0.0
 21
9.000000000000104
 31
0.0
210
0.0
220
0.0
230
1.0
 40
0.9612616959383061
 41
0.0000000000000016
 42
1.253940254059777
  0
LWPOLYLINE
  5
272
330
19B
100
AcDbEntity
  8
P-SANR-FIXT
100
AcDbPolyline
 90
        3
 70
   128
 43
0.0
 10
688.8804918699689
 20
1695.459492728767
 10
688.5385246090135
 20
1694.075161699869
 10
688.4235758150026
 20
1692.655266574655
  0
LWPOLYLINE
  5
273
330
19B
100
AcDbEntity
  8
P-SANR-FIXT
100
AcDbPolyline
 90
        3
 70
   128
 43
0.0
 10
688.4235758150026
 20
1692.655266574655
 10
688.5336684072744
 20
1691.265503061806
 10
688.8613051908707
 20
1689.909078358932
  0
ELLIPSE
  5
274
330
19B
100
AcDbEntity
  8
P-SANR-FIXT
100
AcDbEllipse
 10
697.0223357011316
 20
1692.655266574655
 30
0.0
 11
0.0
 21
9.0
 31
0.0
210
0.0
220
0.0
230
1.0
 40
0.9612616959383078
 41
1.880873388482023
 42
3.141592653589788
  0
ELLIPSE
  5
275
330
19B
100
AcDbEntity
  8
P-SANR-FIXT
100
AcDbEllipse
 10
699.5857631102297
 20
1692.655266574655
 30
0.0
 11
0.0
 21
9.0
 31
0.0
210
0.0
220
0.0
230
1.0
 40
0.9612616959383204
 41
0.2390437958801097
 42
1.570796326794898
  0
ELLIPSE
  5
276
330
19B
100
AcDbEntity
  8
P-SANR-FIXT
100
AcDbEllipse
 10
699.5857631102297
 20
1692.655266574655
 30
0.0
 11
0.0
 21
9.000000000000078
 31
0.0
210
0.0
220
0.0
230
1.0
 40
0.9612616959383121
 41
0.1085334564674638
 42
0.1308996938995821
  0
ELLIPSE
  5
277
330
19B
100
AcDbEntity
  8
P-SANR-FIXT
100
AcDbEllipse
 10
699.5857631102297
 20
1692.655266574655
 30
0.0
 11
0.0
 21
9.0
 31
0.0
210
0.0
220
0.0
230
1.0
 40
0.9612616959383204
 41
6.260819069747614
 42
6.283185307179588
  0
ELLIPSE
  5
278
330
19B
100
AcDbEntity
  8
P-SANR-FIXT
100
AcDbEllipse
 10
699.5857631102297
 20
1692.655266574655
 30
0.0
 11
0.0
 21
8.99999999999992
 31
0.0
210
0.0
220
0.0
230
1.0
 40
0.9612616959383304
 41
3.141592653589788
 42
3.163958891021768
  0
ELLIPSE
  5
279
330
19B
100
AcDbEntity
  8
P-SANR-FIXT
100
AcDbEllipse
 10
699.5857631102297
 20
1692.655266574655
 30
0.0
 11
0.0
 21
8.999999999999891
 31
0.0
210
0.0
220
0.0
230
1.0
 40
0.9612616959383371
 41
3.010692959690211
 42
3.033059197122339
  0
ELLIPSE
  5
27A
330
19B
100
AcDbEntity
  8
P-SANR-FIXT
100
AcDbEllipse
 10
699.5857631102297
 20
1692.655266574655
 30
0.0
 11
0.0
 21
8.999999999999925
 31
0.0
210
0.0
220
0.0
230
1.0
 40
0.9612616959383203
 41
1.570796326794898
 42
2.902548857709692
  0
ELLIPSE
  5
27B
330
19B
100
AcDbEntity
  8
P-SANR-FIXT
100
AcDbEllipse
 10
636.0181233596299
 20
1692.655266574655
 30
0.0
 11
0.0
 21
36.99999999999993
 31
0.0
210
0.0
220
0.0
230
1.0
 40
0.9396926207859104
 41
4.712388980384703
 42
6.611449065129212
  0
ELLIPSE
  5
27C
330
19B
100
AcDbEntity
  8
P-SANR-FIXT
100
AcDbEllipse
 10
636.0181233596299
 20
1692.655266574655
 30
0.0
 11
0.0
 21
37.0
 31
0.0
210
0.0
220
0.0
230
1.0
 40
0.9396926207859046
 41
2.813328895646699
 42
4.712388980384691
  0
LINE
  5
27D
330
19B
100
AcDbEntity
  8
P-SANR-FIXT
100
AcDbLine
 10
688.8613051908708
 20
1689.909078358932
 30
0.0
 11
679.9369545885653
 21
1689.909078358932
 31
0.0
  0
LINE
  5
27E
330
19B
100
AcDbEntity
  8
P-SANR-FIXT
100
AcDbLine
 10
679.9345734158137
 20
1695.459492728767
 30
0.0
 11
688.8804918699689
 21
1695.459492728767
 31
0.0
  0
LINE
  5
27F
330
19B
100
AcDbEntity
  8
P-SANR-FIXT
100
AcDbLine
 10
706.278709259301
 20
1722.805266574656
 30
0.0
 11
705.2787092593028
 21
1722.805266574656
 31
0.0
  0
LINE
  5
280
330
19B
100
AcDbEntity
  8
P-SANR-FIXT
100
AcDbLine
 10
705.278709259303
 20
1662.505266574655
 30
0.0
 11
706.2787092593013
 21
1662.505266574655
 31
0.0
  0
LINE
  5
281
330
19B
100
AcDbEntity
  8
P-SANR-FIXT
100
AcDbLine
 10
705.2787092593028
 20
1722.805266574656
 30
0.0
 11
705.2386500626794
 21
1722.735882010793
 31
0.0
  0
LINE
  5
282
330
19B
100
AcDbEntity
  8
P-SANR-FIXT
100
AcDbLine
 10
705.2250489466031
 20
1722.71232418671
 30
0.0
 11
704.4126838555182
 21
1721.305266574655
 31
0.0
  0
LINE
  5
283
330
19B
100
AcDbEntity
  8
P-SANR-FIXT
100
AcDbLine
 10
704.4126838555186
 20
1664.005266574656
 30
0.0
 11
705.2250489466034
 21
1662.598208962602
 31
0.0
  0
LINE
  5
284
330
19B
100
AcDbEntity
  8
P-SANR-FIXT
100
AcDbLine
 10
705.2386500626795
 20
1662.574651138517
 30
0.0
 11
705.278709259303
 21
1662.505266574655
 31
0.0
  0
LINE
  5
285
330
19B
100
AcDbEntity
  8
P-SANR-FIXT
100
AcDbLine
 10
703.2868508305983
 20
1720.655266574655
 30
0.0
 11
676.9134338636478
 21
1720.655266574655
 31
0.0
  0
LINE
  5
286
330
19B
100
AcDbEntity
  8
P-SANR-FIXT
100
AcDbLine
 10
676.8604487296441
 20
1664.655266574655
 30
0.0
 11
703.2868508305988
 21
1664.655266574655
 31
0.0
  0
LINE
  5
287
330
19B
100
AcDbEntity
  8
P-SANR-FIXT
100
AcDbLine
 10
604.8620577883324
 20
1722.805266574655
 30
0.0
 11
604.2787092593048
 21
1722.805266574655
 31
0.0
  0
LINE
  5
288
330
19B
100
AcDbEntity
  8
P-SANR-FIXT
100
AcDbLine
 10
604.2787092593051
 20
1662.505266574655
 30
0.0
 11
604.8628733879458
 21
1662.505266574655
 31
0.0
  0
LWPOLYLINE
  5
289
330
19B
100
AcDbEntity
  8
P-SANR-FIXT
100
AcDbPolyline
 90
       28
 70
   128
 43
0.0
 10
703.2868508305983
 20
1720.655266574655
 10
703.3388369650412
 20
1720.656306435996
 10
703.3907399327585
 20
1720.659424356462
 10
703.4424767000741
 20
1720.664615348045
 10
703.4939644991971
 20
1720.671871106267
 10
703.5451209606321
 20
1720.681180023461
 10
703.5958642449537
 20
1720.692527207347
 10
703.6461131737317
 20
1720.705894504851
 10
703.6957873593994
 20
1720.721260531148
 10
703.7448073338562
 20
1720.738600703874
 10
703.7930946755997
 20
1720.757887282452
 10
703.8405721351843
 20
1720.779089412469
 10
703.8871637588024
 20
1720.802173175042
 10
703.9327950097953
 20
1720.827101641074
 10
703.9773928878956
 20
1720.853834930338
 10
704.020886046012
 20
1720.882330275273
 10
704.0632049043696
 20
1720.912542089406
 10
704.1042817618225
 20
1720.944422040279
 10
704.1440509041613
 20
1720.977919126772
 10
704.1824487092421
 20
1721.012979760692
 10
704.2194137487678
 20
1721.049547852504
 10
704.2548868865606
 20
1721.087564901061
 10
704.2888113731671
 20
1721.126970087197
 10
704.3211329366457
 20
1721.167700371019
 10
704.3517998693898
 20
1721.209690592761
 10
704.3807631108487
 20
1721.252873577026
 10
704.4079763260148
 20
1721.297180240252
 10
704.4126838555182
 20
1721.305266574655
  0
LWPOLYLINE
  5
28A
330
19B
100
AcDbEntity
  8
P-SANR-FIXT
100
AcDbPolyline
 90
       28
 70
   128
 43
0.0
 10
704.4126838555186
 20
1664.005266574656
 10
704.3857902419598
 20
1664.049767957057
 10
704.3571385597708
 20
1664.093158285399
 10
704.3267746455309
 20
1664.135368144412
 10
704.2947470750256
 20
1664.176330007327
 10
704.2611070855357
 20
1664.2159783439
 10
704.2259084938682
 20
1664.254249725251
 10
704.1892076102611
 20
1664.291082925334
 10
704.1510631482989
 20
1664.326419018886
 10
704.1115361309842
 20
1664.360201475696
 10
704.0706897931121
 20
1664.392376251038
 10
704.0285894801099
 20
1664.422891872137
 10
703.985302543498
 20
1664.451699520507
 10
703.9408982331403
 20
1664.478753110057
 10
703.8954475864612
 20
1664.504009360815
 10
703.8490233147999
 20
1664.527427868167
 10
703.8016996870872
 20
1664.548971167498
 10
703.7535524110333
 20
1664.568604794123
 10
703.7046585120081
 20
1664.586297338428
 10
703.6550962098202
 20
1664.602020496118
 10
703.6049447935802
 20
1664.615749113493
 10
703.5542844948562
 20
1664.627461227695
 10
703.5031963593186
 20
1664.637138101839
 10
703.4517621170864
 20
1664.64476425499
 10
703.4000640519751
 20
1664.650327486932
 10
703.3481848698604
 20
1664.653818897678
 10
703.2962075663666
 20
1664.655232901718
 10
703.2868508305988
 20
1664.655266574655
  0
LINE
  5
28B
330
19B
100
AcDbEntity
  8
P-SANR-FIXT
100
AcDbLine
 10
706.2787092592997
 20
1710.449513679298
 30
0.0
 11
706.2787092592997
 21
1707.837281173386
 31
0.0
  0
LINE
  5
28C
330
19B
100
AcDbEntity
  8
P-SANR-FIXT
100
AcDbLine
 10
706.2787092592999
 20
1677.473251975469
 30
0.0
 11
706.2787092592999
 21
1674.861019470014
 31
0.0
  0
LINE
  5
28D
330
19B
100
AcDbEntity
  8
P-SANR-FIXT
100
AcDbLine
 10
705.2787092593015
 20
1722.805266574655
 30
0.0
 11
705.2787092593016
 21
1700.616658789289
 31
0.0
  0
LINE
  5
28E
330
19B
100
AcDbEntity
  8
P-SANR-FIXT
100
AcDbLine
 10
705.2787092593016
 20
1684.69387436002
 30
0.0
 11
705.2787092593018
 21
1662.505266574655
 31
0.0
  0
ENDBLK
  5
290
330
19B
100
AcDbEntity
  8
0
100
AcDbBlockEnd
  0
BLOCK
  5
326
330
292
100
AcDbEntity
  8
0
100
AcDbBlockBegin
  2
Automatic flow rate regulator valve_Caleffi_121 DN15 - 1 1_2__-V2-Est - Idraulica
 70
     0
 10
0.0
 20
0.0
 30
0.0
  3
Automatic flow rate regulator valve_Caleffi_121 DN15 - 1 1_2__-V2-Est - Idraulica
  1

  0
LINE
  5
293
330
292
100
AcDbEntity
  8
M-PIPE
100
AcDbLine
 10
1143.924869398236
 20
2120.373573815517
 30
0.0
 11
1144.150620947882
 21
2123.232127951435
 31
0.0
1001
REVIT
1002
{
1070
     3
1000
923097
1002
}
  0
LINE
  5
294
330
292
100
AcDbEntity
  8
M-PIPE
100
AcDbLine
 10
1210.303838488004
 20
2120.373573815515
 30
0.0
 11
1210.078086938358
 21
2123.232127951433
 31
0.0
1001
REVIT
1002
{
1070
     3
1000
923097
1002
}
  0
ELLIPSE
  5
295
330
292
100
AcDbEntity
  8
M-PIPE
100
AcDbEllipse
 10
1177.114353943118
 20
2120.08780464777
 30
0.0
 11
33.20000000000014
 21
0.0
 31
0.0
210
0.0
220
0.0
230
1.0
 40
0.342020143325649
 41
3.116423335088675
 42
4.71238898038467
1001
REVIT
1002
{
1070
     3
1000
923097
1002
}
  0
ELLIPSE
  5
296
330
292
100
AcDbEntity
  8
M-PIPE
100
AcDbEllipse
 10
1434.133123588462
 20
2124.196001755318
 30
0.0
 11
236.1572155968452
 21
185.0128901497013
 31
0.0
210
0.0
220
0.0
230
0.9999999999999996
 40
0.9076733711902383
 41
2.399156183310001
 42
2.444393675997417
1001
REVIT
1002
{
1070
     3
1000
923097
1002
}
  0
ELLIPSE
  5
297
330
292
100
AcDbEntity
  8
M-PIPE
100
AcDbEllipse
 10
1177.114353943118
 20
2122.906882510105
 30
0.0
 11
32.97744693864699
 21
0.0
 31
0.0
210
0.0
220
0.0
230
1.0
 40
0.3420201433256417
 41
2.879793265790047
 42
3.403392041389417
1001
REVIT
1002
{
1070
     3
1000
923097
1002
}
  0
ELLIPSE
  5
298
330
292
100
AcDbEntity
  8
M-PIPE
100
AcDbEllipse
 10
1434.133123588464
 20
2077.087534607233
 30
0.0
 11
-236.1572155968481
 21
185.0128901496973
 31
0.0
210
0.0
220
0.0
230
1.0
 40
0.9076733711902479
 41
0.5105023395578766
 42
0.539074027387353
1001
REVIT
1002
{
1070
     3
1000
923097
1002
}
  0
ELLIPSE
  5
299
330
292
100
AcDbEntity
  8
M-PIPE
100
AcDbEllipse
 10
920.0955842977721
 20
2077.087534607244
 30
0.0
 11
236.1572155968474
 21
185.012890149697
 31
0.0
210
0.0
220
0.0
230
1.0
 40
0.9076733711902454
 41
5.744111279792191
 42
5.772682967622092
1001
REVIT
1002
{
1070
     3
1000
923097
1002
}
  0
ELLIPSE
  5
29A
330
292
100
AcDbEntity
  8
M-PIPE
100
AcDbEllipse
 10
1177.114353943118
 20
2122.906882510105
 30
0.0
 11
32.97744693864698
 21
0.0
 31
0.0
210
0.0
220
0.0
230
1.0
 40
0.3420201433256516
 41
6.021385919379801
 42
6.544984694979168
1001
REVIT
1002
{
1070
     3
1000
923097
1002
}
  0
ELLIPSE
  5
29B
330
292
100
AcDbEntity
  8
M-PIPE
100
AcDbEllipse
 10
920.0955842977723
 20
2124.196001755329
 30
0.0
 11
-236.1572155968426
 21
185.0128901497032
 31
0.0
210
0.0
220
0.0
230
1.0
 40
0.9076733711902491
 41
3.838791631182118
 42
3.88402912386953
1001
REVIT
1002
{
1070
     3
1000
923097
1002
}
  0
ELLIPSE
  5
29C
330
292
100
AcDbEntity
  8
M-PIPE
100
AcDbEllipse
 10
1177.114353943118
 20
2120.08780464777
 30
0.0
 11
-33.19999999999982
 21
0.0000000000013658
 31
0.0
210
0.0
220
0.0
230
1.0
 40
0.3420201433256651
 41
1.570796326794892
 42
3.166761972090865
1001
REVIT
1002
{
1070
     3
1000
923097
1002
}
  0
LINE
  5
29D
330
292
100
AcDbEntity
  8
M-PIPE
100
AcDbLine
 10
1146.675904092649
 20
2132.803230947363
 30
0.0
 11
1146.591097832388
 21
2132.79545896065
 31
0.0
1001
REVIT
1002
{
1070
     3
1000
923097
1002
}
  0
ELLIPSE
  5
29E
330
292
100
AcDbEntity
  8
M-PIPE
100
AcDbEllipse
 10
1177.114353943118
 20
2135.592732890737
 30
0.0
 11
-31.59999999999991
 21
0.0000000000010334
 31
0.0
210
0.0
220
0.0
230
1.0
 40
0.342020143325658
 41
0.261799387799734
 42
1.570796326794902
1001
REVIT
1002
{
1070
     3
1000
923097
1002
}
  0
ELLIPSE
  5
29F
330
292
100
AcDbEntity
  8
M-PIPE
100
AcDbEllipse
 10
1177.114353943118
 20
2135.592732890738
 30
0.0
 11
31.59999999999953
 21
0.0
 31
0.0
210
0.0
220
0.0
230
1.0
 40
0.3420201433256434
 41
4.712388980384683
 42
6.021385919379842
1001
REVIT
1002
{
1070
     3
1000
923097
1002
}
  0
LINE
  5
2A0
330
292
100
AcDbEntity
  8
M-PIPE
100
AcDbLine
 10
1207.637610053848
 20
2132.795458960648
 30
0.0
 11
1207.552803793511
 21
2132.803230947368
 31
0.0
1001
REVIT
1002
{
1070
     3
1000
923097
1002
}
  0
LINE
  5
2A1
330
292
100
AcDbEntity
  8
M-PIPE
100
AcDbLine
 10
1145.79529650485
 20
2125.777086873927
 30
0.0
 11
1145.260586260006
 21
2125.826089870941
 31
0.0
1001
REVIT
1002
{
1070
     3
1000
923097
1002
}
  0
LINE
  5
2A2
330
292
100
AcDbEntity
  8
M-PIPE
100
AcDbLine
 10
1208.96812162623
 20
2125.82608987094
 30
0.0
 11
1208.433411381385
 21
2125.777086873926
 31
0.0
1001
REVIT
1002
{
1070
     3
1000
923097
1002
}
  0
LINE
  5
2A3
330
292
100
AcDbEntity
  8
M-PIPE
100
AcDbLine
 10
1140.614353943103
 20
2078.741329333153
 30
0.0
 11
1140.614353943103
 21
2074.982558850029
 31
0.0
1001
REVIT
1002
{
1070
     3
1000
923097
1002
}
  0
LINE
  5
2A4
330
292
100
AcDbEntity
  8
M-PIPE
100
AcDbLine
 10
1213.614353943094
 20
2074.982558850027
 30
0.0
 11
1213.614353943094
 21
2078.741329333153
 31
0.0
1001
REVIT
1002
{
1070
     3
1000
923097
1002
}
  0
LINE
  5
2A5
330
292
100
AcDbEntity
  8
M-PIPE
100
AcDbLine
 10
1143.117565019626
 20
2089.85782443008
 30
0.0
 11
1143.624950217317
 21
2120.375963081571
 31
0.0
1001
REVIT
1002
{
1070
     3
1000
923097
1002
}
  0
LINE
  5
2A6
330
292
100
AcDbEntity
  8
M-PIPE
100
AcDbLine
 10
1211.111142866571
 20
2089.857824430069
 30
0.0
 11
1210.603757668882
 21
2120.375963081559
 31
0.0
1001
REVIT
1002
{
1070
     3
1000
923097
1002
}
  0
ELLIPSE
  5
2A7
330
292
100
AcDbEntity
  8
M-PIPE
100
AcDbEllipse
 10
1177.114353943097
 20
2074.982558850027
 30
0.0
 11
-36.49999999999568
 21
0.0000000000003426
 31
0.0
210
0.0
220
0.0
230
1.0
 40
0.3420201433256639
 41
0.0
 42
1.570796326794888
1001
REVIT
1002
{
1070
     3
1000
923097
1002
}
  0
ELLIPSE
  5
2A8
330
292
100
AcDbEntity
  8
M-PIPE
100
AcDbEllipse
 10
1177.114353943097
 20
2078.741329333152
 30
0.0
 11
-36.49999999999568
 21
0.0000000000005128
 31
0.0
210
0.0
220
0.0
230
1.0
 40
0.3420201433256639
 41
1.283114227377753
 42
1.570796326794896
1001
REVIT
1002
{
1070
     3
1000
923097
1002
}
  0
LINE
  5
2A9
330
292
100
AcDbEntity
  8
M-PIPE
100
AcDbLine
 10
1166.758196354468
 20
2066.770624316758
 30
0.0
 11
1166.758196354468
 21
2078.046935766208
 31
0.0
1001
REVIT
1002
{
1070
     3
1000
923097
1002
}
  0
LINE
  5
2AA
330
292
100
AcDbEntity
  8
M-PIPE
100
AcDbLine
 10
1159.688525859555
 20
2079.048491615955
 30
0.0
 11
1159.688525859555
 21
2067.772180166505
 31
0.0
1001
REVIT
1002
{
1070
     3
1000
923097
1002
}
  0
ELLIPSE
  5
2AB
330
292
100
AcDbEntity
  8
M-PIPE
100
AcDbEllipse
 10
1177.114353943097
 20
2078.741329333152
 30
0.0
 11
36.4999999999956
 21
0.0
 31
0.0
210
0.0
220
0.0
230
1.0
 40
0.3420201433256585
 41
3.639308717569286
 42
4.214672916405162
1001
REVIT
1002
{
1070
     3
1000
923097
1002
}
  0
LINE
  5
2AC
330
292
100
AcDbEntity
  8
M-PIPE
100
AcDbLine
 10
1145.042707343607
 20
2072.781345114451
 30
0.0
 11
1145.042707343607
 21
2084.057656563901
 31
0.0
1001
REVIT
1002
{
1070
     3
1000
923097
1002
}
  0
LINE
  5
2AD
330
292
100
AcDbEntity
  8
M-PIPE
100
AcDbLine
 10
1142.114353943113
 20
2086.475626279832
 30
0.0
 11
1142.114353943112
 21
2075.199314830382
 31
0.0
1001
REVIT
1002
{
1070
     3
1000
923097
1002
}
  0
ELLIPSE
  5
2AE
330
292
100
AcDbEntity
  8
M-PIPE
100
AcDbEllipse
 10
1177.114353943097
 20
2078.741329333152
 30
0.0
 11
36.49999999999563
 21
0.0
 31
0.0
210
0.0
220
0.0
230
1.0
 40
0.3420201433256464
 41
2.853910554172207
 42
3.429274753007335
1001
REVIT
1002
{
1070
     3
1000
923097
1002
}
  0
ELLIPSE
  5
2AF
330
292
100
AcDbEntity
  8
M-PIPE
100
AcDbEllipse
 10
1177.114353943097
 20
2074.982558850027
 30
0.0
 11
-36.49999999999546
 21
0.0000000000008532
 31
0.0
210
0.0
220
0.0
230
1.0
 40
0.342020143325666
 41
1.570796326794893
 42
3.141592653589784
1001
REVIT
1002
{
1070
     3
1000
923097
1002
}
  0
ELLIPSE
  5
2B0
330
292
100
AcDbEntity
  8
M-PIPE
100
AcDbEllipse
 10
1177.114353943097
 20
2078.741329333153
 30
0.0
 11
36.49999999999551
 21
0.0
 31
0.0
210
0.0
220
0.0
230
0.9999999999999998
 40
0.3420201433256541
 41
5.995503207765192
 42
6.570867406593863
1001
REVIT
1002
{
1070
     3
1000
923097
1002
}
  0
LINE
  5
2B1
330
292
100
AcDbEntity
  8
M-PIPE
100
AcDbLine
 10
1212.114353943112
 20
2075.199314830419
 30
0.0
 11
1212.114353943112
 21
2086.475626279868
 31
0.0
1001
REVIT
1002
{
1070
     3
1000
923097
1002
}
  0
LINE
  5
2B2
330
292
100
AcDbEntity
  8
M-PIPE
100
AcDbLine
 10
1209.186000542548
 20
2084.057656563876
 30
0.0
 11
1209.186000542548
 21
2072.781345114427
 31
0.0
1001
REVIT
1002
{
1070
     3
1000
923097
1002
}
  0
ELLIPSE
  5
2B3
330
292
100
AcDbEntity
  8
M-PIPE
100
AcDbEllipse
 10
1177.114353943097
 20
2078.741329333153
 30
0.0
 11
36.49999999999563
 21
0.0
 31
0.0
210
0.0
220
0.0
230
1.0
 40
0.342020143325652
 41
5.210105044366441
 42
5.785469243197718
1001
REVIT
1002
{
1070
     3
1000
923097
1002
}
  0
LINE
  5
2B4
330
292
100
AcDbEntity
  8
M-PIPE
100
AcDbLine
 10
1194.540182026707
 20
2067.772180166517
 30
0.0
 11
1194.540182026707
 21
2079.048491615967
 31
0.0
1001
REVIT
1002
{
1070
     3
1000
923097
1002
}
  0
LINE
  5
2B5
330
292
100
AcDbEntity
  8
M-PIPE
100
AcDbLine
 10
1187.470511531724
 20
2078.046935766208
 30
0.0
 11
1187.470511531724
 21
2066.770624316758
 31
0.0
1001
REVIT
1002
{
1070
     3
1000
923097
1002
}
  0
ELLIPSE
  5
2B6
330
292
100
AcDbEntity
  8
M-PIPE
100
AcDbEllipse
 10
1177.114353943097
 20
2078.741329333152
 30
0.0
 11
36.49999999999554
 21
0.0
 31
0.0
210
0.0
220
0.0
230
1.0
 40
0.3420201433256526
 41
4.712388980384683
 42
5.000071079801797
1001
REVIT
1002
{
1070
     3
1000
923097
1002
}
  0
ELLIPSE
  5
2B7
330
292
100
AcDbEntity
  8
M-PIPE
100
AcDbEllipse
 10
1177.114353943097
 20
2090.017640782602
 30
0.0
 11
36.4999999999957
 21
0.0
 31
0.0
210
0.0
220
0.0
230
1.0
 40
0.3420201433256529
 41
2.779352090989106
 42
2.853910554172179
1001
REVIT
1002
{
1070
     3
1000
923097
1002
}
  0
LINE
  5
2B8
330
292
100
AcDbEntity
  8
M-PIPE
100
AcDbLine
 10
1142.114353943114
 20
2093.559655285373
 30
0.0
 11
1142.114353943113
 21
2086.475626279831
 31
0.0
1001
REVIT
1002
{
1070
     3
1000
923097
1002
}
  0
ELLIPSE
  5
2B9
330
292
100
AcDbEntity
  8
M-PIPE
100
AcDbEllipse
 10
1177.114353943097
 20
2090.017640782602
 30
0.0
 11
36.49999999999571
 21
0.0
 31
0.0
210
0.0
220
0.0
230
1.0
 40
0.3420201433256516
 41
3.42927475300733
 42
3.639308717569297
1001
REVIT
1002
{
1070
     3
1000
923097
1002
}
  0
LINE
  5
2BA
330
292
100
AcDbEntity
  8
M-PIPE
100
AcDbLine
 10
1145.042707343606
 20
2084.057656563902
 30
0.0
 11
1159.688525859557
 21
2079.048491615954
 31
0.0
1001
REVIT
1002
{
1070
     3
1000
923097
1002
}
  0
ELLIPSE
  5
2BB
330
292
100
AcDbEntity
  8
M-PIPE
100
AcDbEllipse
 10
1177.114353943097
 20
2090.017640782602
 30
0.0
 11
36.49999999999558
 21
0.0
 31
0.0
210
0.0
220
0.0
230
1.0
 40
0.3420201433256593
 41
4.214672916405145
 42
4.424706880967541
1001
REVIT
1002
{
1070
     3
1000
923097
1002
}
  0
LINE
  5
2BC
330
292
100
AcDbEntity
  8
M-PIPE
100
AcDbLine
 10
1166.758196354467
 20
2078.046935766208
 30
0.0
 11
1177.114353943096
 21
2078.046935766208
 31
0.0
1001
REVIT
1002
{
1070
     3
1000
923097
1002
}
  0
LINE
  5
2BD
330
292
100
AcDbEntity
  8
M-PIPE
100
AcDbLine
 10
1177.114353943096
 20
2078.046935766208
 30
0.0
 11
1187.470511531726
 21
2078.046935766208
 31
0.0
1001
REVIT
1002
{
1070
     3
1000
923097
1002
}
  0
ELLIPSE
  5
2BE
330
292
100
AcDbEntity
  8
M-PIPE
100
AcDbEllipse
 10
1177.114353943097
 20
2090.017640782602
 30
0.0
 11
36.49999999999558
 21
0.0
 31
0.0
210
0.0
220
0.0
230
1.0
 40
0.3420201433256624
 41
5.000071079801804
 42
5.210105044366464
1001
REVIT
1002
{
1070
     3
1000
923097
1002
}
  0
LINE
  5
2BF
330
292
100
AcDbEntity
  8
M-PIPE
100
AcDbLine
 10
1194.540182026708
 20
2079.048491615967
 30
0.0
 11
1209.186000542548
 21
2084.057656563876
 31
0.0
1001
REVIT
1002
{
1070
     3
1000
923097
1002
}
  0
ELLIPSE
  5
2C0
330
292
100
AcDbEntity
  8
M-PIPE
100
AcDbEllipse
 10
1177.114353943097
 20
2090.017640782602
 30
0.0
 11
36.4999999999956
 21
0.0
 31
0.0
210
0.0
220
0.0
230
1.0
 40
0.342020143325664
 41
5.785469243197735
 42
5.995503207765201
1001
REVIT
1002
{
1070
     3
1000
923097
1002
}
  0
LINE
  5
2C1
330
292
100
AcDbEntity
  8
M-PIPE
100
AcDbLine
 10
1212.114353943113
 20
2086.475626279868
 30
0.0
 11
1212.114353943114
 21
2093.559655285334
 31
0.0
1001
REVIT
1002
{
1070
     3
1000
923097
1002
}
  0
ELLIPSE
  5
2C2
330
292
100
AcDbEntity
  8
M-PIPE
100
AcDbEllipse
 10
1177.114353943097
 20
2090.017640782602
 30
0.0
 11
36.49999999999549
 21
0.0
 31
0.0
210
0.0
220
0.0
230
1.0
 40
0.3420201433256651
 41
0.2876820994143071
 42
0.3639017062949201
1001
REVIT
1002
{
1070
     3
1000
923097
1002
}
  0
ELLIPSE
  5
2C3
330
292
100
AcDbEntity
  8
M-PIPE
100
AcDbEllipse
 10
1177.114353943097
 20
2090.017640782601
 30
0.0
 11
-33.99999999999887
 21
0.0000000000004249
 31
0.0
210
0.0
220
0.0
230
1.0
 40
0.342020143325644
 41
0.0
 42
1.570796326794895
1001
REVIT
1002
{
1070
     3
1000
923097
1002
}
  0
ELLIPSE
  5
2C4
330
292
100
AcDbEntity
  8
M-PIPE
100
AcDbEllipse
 10
1177.114353943097
 20
2090.017640782601
 30
0.0
 11
33.99999999999887
 21
0.0
 31
0.0
210
0.0
220
0.0
230
1.0
 40
0.342020143325644
 41
4.712388980384677
 42
6.283185307179586
1001
REVIT
1002
{
1070
     3
1000
923097
1002
}
  0
ELLIPSE
  5
2C5
330
292
100
AcDbEntity
  8
M-PIPE
100
AcDbEllipse
 10
1177.114353943097
 20
2120.08780464775
 30
0.0
 11
-33.49999999999682
 21
0.0000000000005153
 31
0.0
210
0.0
220
0.0
230
1.0
 40
0.3420201433256534
 41
6.123580228796389
 42
7.853981633974483
1001
REVIT
1002
{
1070
     3
1000
923097
1002
}
  0
ELLIPSE
  5
2C6
330
292
100
AcDbEntity
  8
M-PIPE
100
AcDbEllipse
 10
1177.114353943097
 20
2120.08780464775
 30
0.0
 11
33.4999999999969
 21
0.0
 31
0.0
210
0.0
220
0.0
230
1.0
 40
0.3420201433256554
 41
4.712388980384683
 42
6.442790385550842
1001
REVIT
1002
{
1070
     3
1000
923097
1002
}
  0
LINE
  5
2C7
330
292
100
AcDbEntity
  8
M-PIPE
100
AcDbLine
 10
1159.688525859558
 20
2067.772180166504
 30
0.0
 11
1145.042707343606
 21
2072.781345114452
 31
0.0
1001
REVIT
1002
{
1070
     3
1000
923097
1002
}
  0
LINE
  5
2C8
330
292
100
AcDbEntity
  8
M-PIPE
100
AcDbLine
 10
1209.186000542547
 20
2072.781345114427
 30
0.0
 11
1194.540182026708
 21
2067.772180166517
 31
0.0
1001
REVIT
1002
{
1070
     3
1000
923097
1002
}
  0
LINE
  5
2C9
330
292
100
AcDbEntity
  8
M-PIPE
100
AcDbLine
 10
1187.470511531726
 20
2066.770624316758
 30
0.0
 11
1166.758196354466
 21
2066.770624316758
 31
0.0
1001
REVIT
1002
{
1070
     3
1000
923097
1002
}
  0
LWPOLYLINE
  5
2CA
330
292
100
AcDbEntity
  8
P-SANR-FIXT
100
AcDbPolyline
 90
       39
 70
   128
 43
0.0
 10
1151.720644873512
 20
2166.536757947291
 10
1152.014803561724
 20
2167.45862465561
 10
1152.388484264827
 20
2168.312030193413
 10
1152.823487643678
 20
2169.091411280807
 10
1153.303877558327
 20
2169.797540824585
 10
1153.817158963738
 20
2170.435292003466
 10
1154.354377463516
 20
2171.011611260361
 10
1154.909618604687
 20
2171.534046898571
 10
1155.479300261386
 20
2172.0098504552
 10
1156.061489272701
 20
2172.445521071592
 10
1156.655340367324
 20
2172.846639302019
 10
1157.260676550804
 20
2173.217866334749
 10
1157.877694221862
 20
2173.563024859578
 10
1158.506765452247
 20
2173.885211321811
 10
1159.148310757975
 20
2174.18691233274
 10
1159.802720703285
 20
2174.470112158092
 10
1160.470310230535
 20
2174.736386203286
 10
1161.151294344133
 20
2174.986979584787
 10
1161.845777386283
 20
2175.222871835974
 10
1162.553750731555
 20
2175.444829554646
 10
1163.275095517018
 20
2175.65344894817
 10
1164.009588232169
 20
2175.849190099708
 10
1164.756907793801
 20
2176.032404538217
 10
1165.516643255428
 20
2176.20335743263
 10
1166.288301640414
 20
2176.362245486145
 10
1167.071315605363
 20
2176.509211394726
 10
1167.865050777824
 20
2176.644355557721
 10
1168.668812697826
 20
2176.767745585341
 10
1169.4818533448
 20
2176.879424033118
 10
1170.303377262014
 20
2176.979414702369
 10
1171.132547307709
 20
2177.067727773726
 10
1171.968490070785
 20
2177.144363983844
 10
1172.810300992412
 20
2177.209318010421
 10
1173.657049235504
 20
2177.262581194877
 10
1174.507782342976
 20
2177.304143703449
 10
1175.361530723871
 20
2177.333996204328
 10
1176.217312004472
 20
2177.352131119573
 10
1177.074135279615
 20
2177.358543494644
 10
1177.114353943079
 20
2177.358556405335
  0
LWPOLYLINE
  5
2CB
330
292
100
AcDbEntity
  8
P-SANR-FIXT
100
AcDbPolyline
 90
       39
 70
   128
 43
0.0
 10
1202.508063012645
 20
2166.536757947291
 10
1202.213904324433
 20
2167.45862465561
 10
1201.84022362133
 20
2168.312030193413
 10
1201.40522024248
 20
2169.091411280808
 10
1200.924830327831
 20
2169.797540824586
 10
1200.41154892242
 20
2170.435292003466
 10
1199.874330422642
 20
2171.011611260362
 10
1199.319089281471
 20
2171.534046898571
 10
1198.749407624772
 20
2172.0098504552
 10
1198.167218613457
 20
2172.445521071593
 10
1197.573367518834
 20
2172.846639302019
 10
1196.968031335353
 20
2173.217866334749
 10
1196.351013664296
 20
2173.563024859578
 10
1195.721942433911
 20
2173.885211321811
 10
1195.080397128182
 20
2174.186912332741
 10
1194.425987182873
 20
2174.470112158092
 10
1193.758397655623
 20
2174.736386203286
 10
1193.077413542025
 20
2174.986979584787
 10
1192.382930499875
 20
2175.222871835975
 10
1191.674957154603
 20
2175.444829554646
 10
1190.953612369139
 20
2175.65344894817
 10
1190.219119653988
 20
2175.849190099708
 10
1189.471800092357
 20
2176.032404538217
 10
1188.712064630729
 20
2176.20335743263
 10
1187.940406245743
 20
2176.362245486145
 10
1187.157392280794
 20
2176.509211394726
 10
1186.363657108334
 20
2176.644355557721
 10
1185.559895188332
 20
2176.767745585341
 10
1184.746854541357
 20
2176.879424033118
 10
1183.925330624143
 20
2176.97941470237
 10
1183.096160578449
 20
2177.067727773726
 10
1182.260217815372
 20
2177.144363983844
 10
1181.418406893746
 20
2177.209318010421
 10
1180.571658650654
 20
2177.262581194877
 10
1179.720925543182
 20
2177.304143703449
 10
1178.867177162286
 20
2177.333996204328
 10
1178.011395881686
 20
2177.352131119573
 10
1177.154572606542
 20
2177.358543494644
 10
1177.114353943079
 20
2177.358556405335
  0
LINE
  5
2CC
330
292
100
AcDbEntity
  8
P-SANR-FIXT
100
AcDbLine
 10
1145.617701869679
 20
2136.116182503383
 30
0.0
 11
1146.045945603071
 21
2138.998566602324
 31
0.0
  0
LINE
  5
2CD
330
292
100
AcDbEntity
  8
P-SANR-FIXT
100
AcDbLine
 10
1146.064242123606
 20
2139.121715164099
 30
0.0
 11
1146.129461566471
 21
2139.560688277768
 31
0.0
  0
LINE
  5
2CE
330
292
100
AcDbEntity
  8
P-SANR-FIXT
100
AcDbLine
 10
1151.255189272538
 20
2164.725617452189
 30
0.0
 11
1151.594578960015
 21
2166.046221190384
 31
0.0
  0
LINE
  5
2CF
330
292
100
AcDbEntity
  8
P-SANR-FIXT
100
AcDbLine
 10
1151.595769365103
 20
2166.050853191495
 30
0.0
 11
1151.720644873512
 21
2166.536757947291
 31
0.0
  0
LINE
  5
2D0
330
292
100
AcDbEntity
  8
P-SANR-FIXT
100
AcDbLine
 10
1202.973518613621
 20
2164.725617452186
 30
0.0
 11
1202.634128959229
 21
2166.046221061642
 31
0.0
  0
LINE
  5
2D1
330
292
100
AcDbEntity
  8
P-SANR-FIXT
100
AcDbLine
 10
1202.632938521055
 20
2166.050853191495
 30
0.0
 11
1202.508063012645
 21
2166.536757947295
 31
0.0
  0
LINE
  5
2D2
330
292
100
AcDbEntity
  8
P-SANR-FIXT
100
AcDbLine
 10
1208.611006016479
 20
2136.116182503388
 30
0.0
 11
1208.182762283087
 21
2138.998566602325
 31
0.0
  0
LINE
  5
2D3
330
292
100
AcDbEntity
  8
P-SANR-FIXT
100
AcDbLine
 10
1208.164465762552
 20
2139.121715164099
 30
0.0
 11
1208.099246319686
 21
2139.560688277774
 31
0.0
  0
ELLIPSE
  5
2D4
330
292
100
AcDbEntity
  8
P-SANR-FIXT
100
AcDbEllipse
 10
1141.669492271521
 20
2138.998566602323
 30
0.0
 11
10.0
 21
0.0
 31
0.0
210
0.0
220
0.0
230
1.0
 40
0.3420201433256431
 41
0.8879524938331263
 42
0.9822035717131505
  0
ELLIPSE
  5
2D5
330
292
100
AcDbEntity
  8
P-SANR-FIXT
100
AcDbEllipse
 10
1212.559215614633
 20
2138.998566602323
 30
0.0
 11
10.00000000000008
 21
0.0
 31
0.0
210
0.0
220
0.0
230
0.9999999999999998
 40
0.3420201433256702
 41
2.159389081876679
 42
2.253668270527155
  0
ELLIPSE
  5
2D6
330
292
100
AcDbEntity
  8
P-SANR-FIXT
100
AcDbEllipse
 10
1159.391923107294
 20
2128.499864760438
 30
0.0
 11
9.999999999999868
 21
0.0
 31
0.0
210
0.0
220
0.0
230
1.0
 40
0.3420201433256685
 41
0.0649939794947812
 42
1.570796326794873
  0
ELLIPSE
  5
2D7
330
292
100
AcDbEntity
  8
P-SANR-FIXT
100
AcDbEllipse
 10
1159.391923107294
 20
2128.499864760438
 30
0.0
 11
10.0
 21
0.0
 31
0.0
210
0.0
220
0.0
230
1.0
 40
0.3420201433256352
 41
1.570796326794873
 42
2.029401122901218
  0
ELLIPSE
  5
2D8
330
292
100
AcDbEntity
  8
P-SANR-FIXT
100
AcDbEllipse
 10
1194.836784778859
 20
2128.499864760438
 30
0.0
 11
9.999999999999927
 21
0.0
 31
0.0
210
0.0
220
0.0
230
1.0
 40
0.3420201433256065
 41
1.112191530688509
 42
1.570796326794873
  0
ELLIPSE
  5
2D9
330
292
100
AcDbEntity
  8
P-SANR-FIXT
100
AcDbEllipse
 10
1194.836784778859
 20
2128.499864760438
 30
0.0
 11
10.0
 21
0.0
 31
0.0
210
0.0
220
0.0
230
1.0
 40
0.3420201433256352
 41
1.570796326794873
 42
3.076598674095005
  0
SPLINE
  5
2DA
330
292
100
AcDbEntity
  8
P-SANR-FIXT
100
AcDbSpline
210
0.0
220
0.0
230
1.0
 70
     8
 71
     3
 72
     9
 73
     5
 74
     0
 42
0.000000001
 43
0.0000000001
 40
0.0
 40
0.0
 40
0.0
 40
0.0
 40
0.5
 40
1.0
 40
1.0
 40
1.0
 40
1.0
 10
1151.633873874033
 20
2165.474024572345
 30
0.0
 10
1151.65760536597
 20
2165.689286287399
 30
0.0
 10
1151.681379177071
 20
2166.001143165534
 30
0.0
 10
1151.65760536597
 20
2166.074295760054
 30
0.0
 10
1151.633873874033
 20
2166.050853191494
 30
0.0
  0
SPLINE
  5
2DB
330
292
100
AcDbEntity
  8
P-SANR-FIXT
100
AcDbSpline
210
0.0
220
0.0
230
1.0
 70
     8
 71
     3
 72
     9
 73
     5
 74
     0
 42
0.000000001
 43
0.0000000001
 40
0.0
 40
0.0
 40
0.0
 40
0.0
 40
0.5
 40
1.0
 40
1.0
 40
1.0
 40
1.0
 10
1165.104404575764
 20
2158.070961109846
 30
0.0
 10
1164.873418757444
 20
2158.245297261593
 30
0.0
 10
1164.397866560045
 20
2158.46794352969
 30
0.0
 10
1163.898540551592
 20
2158.437801997731
 30
0.0
 10
1163.643823241382
 20
2158.359375419138
 30
0.0
  0
SPLINE
  5
2DC
330
292
100
AcDbEntity
  8
P-SANR-FIXT
100
AcDbSpline
210
0.0
220
0.0
230
1.0
 70
     8
 71
     3
 72
     9
 73
     5
 74
     0
 42
0.000000001
 43
0.0000000001
 40
0.0
 40
0.0
 40
0.0
 40
0.0
 40
0.5
 40
1.0
 40
1.0
 40
1.0
 40
1.0
 10
1190.584884644772
 20
2158.359375419138
 30
0.0
 10
1190.330167334562
 20
2158.437801997732
 30
0.0
 10
1189.830841326109
 20
2158.46794352969
 30
0.0
 10
1189.35528912871
 20
2158.245297261593
 30
0.0
 10
1189.124303310389
 20
2158.070961109846
 30
0.0
  0
SPLINE
  5
2DD
330
292
100
AcDbEntity
  8
P-SANR-FIXT
100
AcDbSpline
210
0.0
220
0.0
230
1.0
 70
     8
 71
     3
 72
     9
 73
     5
 74
     0
 42
0.000000001
 43
0.0000000001
 40
0.0
 40
0.0
 40
0.0
 40
0.0
 40
0.5
 40
1.0
 40
1.0
 40
1.0
 40
1.0
 10
1202.59483401212
 20
2166.050853191494
 30
0.0
 10
1202.571102520183
 20
2166.074295760054
 30
0.0
 10
1202.547328709083
 20
2166.001143165534
 30
0.0
 10
1202.571102520183
 20
2165.689286287399
 30
0.0
 10
1202.59483401212
 20
2165.474024572345
 30
0.0
  0
SPLINE
  5
2DE
330
292
100
AcDbEntity
  8
P-SANR-FIXT
100
AcDbSpline
210
0.0
220
0.0
230
1.0
 70
     8
 71
     3
 72
    23
 73
    19
 74
     0
 42
0.000000001
 43
0.0000000001
 40
0.0
 40
0.0
 40
0.0
 40
0.0
 40
0.25
 40
0.3125
 40
0.375
 40
0.4375
 40
0.46875
 40
0.5
 40
0.53125
 40
0.5625
 40
0.625
 40
0.6875
 40
0.71875
 40
0.75
 40
0.78125
 40
0.8125
 40
0.875
 40
1.0
 40
1.0
 40
1.0
 40
1.0
 10
1169.3708094544
 20
2128.722000793337
 30
0.0
 10
1169.346665442883
 20
2131.197686600798
 30
0.0
 10
1169.285701897582
 20
2134.303416387756
 30
0.0
 10
1169.133027466638
 20
2138.043987032876
 30
0.0
 10
1169.040130101465
 20
2139.916877747037
 30
0.0
 10
1168.944095779621
 20
2141.478767518319
 30
0.0
 10
1168.853391796018
 20
2142.728731697669
 30
0.0
 10
1168.776143656996
 20
2143.665416563379
 30
0.0
 10
1168.693633942929
 20
2144.604490458784
 30
0.0
 10
1168.580492870062
 20
2145.861711878347
 30
0.0
 10
1168.423629821843
 20
2147.435871457839
 30
0.0
 10
1168.222660345962
 20
2148.999735364922
 30
0.0
 10
1168.015266505245
 20
2150.235139202827
 30
0.0
 10
1167.828124648962
 20
2151.150148597889
 30
0.0
 10
1167.608389831649
 20
2152.054130645989
 30
0.0
 10
1167.277456340058
 20
2153.248501043307
 30
0.0
 10
1166.584734714946
 20
2155.303531542942
 30
0.0
 10
1165.767906752854
 20
2156.993123889612
 30
0.0
 10
1165.104404575764
 20
2158.070961109846
 30
0.0
  0
ELLIPSE
  5
2DF
330
292
100
AcDbEntity
  8
P-SANR-FIXT
100
AcDbEllipse
 10
1177.114353943077
 20
2138.998566602325
 30
0.0
 11
31.02845079977455
 21
0.0
 31
0.0
210
0.0
220
0.0
230
0.9999999999999998
 40
0.3420201433256634
 41
3.917420086798553
 42
4.460160322777107
  0
SPLINE
  5
2E0
330
292
100
AcDbEntity
  8
P-SANR-FIXT
100
AcDbSpline
210
0.0
220
0.0
230
1.0
 70
     8
 71
     3
 72
     9
 73
     5
 74
     0
 42
0.000000001
 43
0.0000000001
 40
0.0
 40
0.0
 40
0.0
 40
0.0
 40
0.5
 40
1.0
 40
1.0
 40
1.0
 40
1.0
 10
1159.391923107294
 20
2151.538595954106
 30
0.0
 10
1158.358828285871
 20
2148.323818914066
 30
0.0
 10
1156.57255294796
 20
2141.731350561505
 30
0.0
 10
1155.409327362556
 20
2134.966430837998
 30
0.0
 10
1154.964948113851
 20
2131.566660279581
 30
0.0
  0
SPLINE
  5
2E1
330
292
100
AcDbEntity
  8
P-SANR-FIXT
100
AcDbSpline
210
0.0
220
0.0
230
1.0
 70
     8
 71
     3
 72
    21
 73
    17
 74
     0
 42
0.000000001
 43
0.0000000001
 40
0.0
 40
0.0
 40
0.0
 40
0.0
 40
0.1666666666666666
 40
0.25
 40
0.2916666666666666
 40
0.3333333333333333
 40
0.375
 40
0.4166666666666666
 40
0.5
 40
0.5833333333333333
 40
0.625
 40
0.6666666666666666
 40
0.7083333333333333
 40
0.75
 40
0.8333333333333332
 40
1.0
 40
1.0
 40
1.0
 40
1.0
 10
1163.643823241382
 20
2158.359375419138
 30
0.0
 10
1163.284473799692
 20
2158.121780322233
 30
0.0
 10
1162.770569428825
 20
2157.717192123818
 30
0.0
 10
1162.229431582303
 20
2157.16845856285
 30
0.0
 10
1161.938644400279
 20
2156.833590751283
 30
0.0
 10
1161.729125941867
 20
2156.573031718547
 30
0.0
 10
1161.532383133991
 20
2156.299160847814
 30
0.0
 10
1161.289605677517
 20
2155.914435264026
 30
0.0
 10
1161.015113607235
 20
2155.406090737661
 30
0.0
 10
1160.764893819586
 20
2154.877928290254
 30
0.0
 10
1160.570327422007
 20
2154.453097447776
 30
0.0
 10
1160.423890210435
 20
2154.136661746437
 30
0.0
 10
1160.278598910429
 20
2153.820808960948
 30
0.0
 10
1160.091832286884
 20
2153.39526025423
 30
0.0
 10
1159.779960281127
 20
2152.64258368345
 30
0.0
 10
1159.539821988027
 20
2151.983479502501
 30
0.0
 10
1159.391923107294
 20
2151.538595954106
 30
0.0
  0
SPLINE
  5
2E2
330
292
100
AcDbEntity
  8
P-SANR-FIXT
100
AcDbSpline
210
0.0
220
0.0
230
1.0
 70
     8
 71
     3
 72
    23
 73
    19
 74
     0
 42
0.000000001
 43
0.0000000001
 40
0.0
 40
0.0
 40
0.0
 40
0.0
 40
0.25
 40
0.3125
 40
0.375
 40
0.4375
 40
0.46875
 40
0.5
 40
0.53125
 40
0.5625
 40
0.625
 40
0.6875
 40
0.71875
 40
0.75
 40
0.78125
 40
0.8125
 40
0.875
 40
1.0
 40
1.0
 40
1.0
 40
1.0
 10
1147.221403625114
 20
2136.153907116053
 30
0.0
 10
1147.530590255047
 20
2138.573306862595
 30
0.0
 10
1147.963618777113
 20
2141.605566681922
 30
0.0
 10
1148.506672400913
 20
2145.269050934988
 30
0.0
 10
1148.778857543761
 20
2147.106538512467
 30
0.0
 10
1149.013355111176
 20
2148.641086580526
 30
0.0
 10
1149.206126472033
 20
2149.870895982149
 30
0.0
 10
1149.355918799902
 20
2150.793255878992
 30
0.0
 10
1149.501794906423
 20
2151.719817102963
 30
0.0
 10
1149.685276755652
 20
2152.963148651424
 30
0.0
 10
1149.91097786881
 20
2154.523715093351
 30
0.0
 10
1150.155057110239
 20
2156.079066312368
 30
0.0
 10
1150.369432176355
 20
2157.31309159964
 30
0.0
 10
1150.541514254489
 20
2158.231074780141
 30
0.0
 10
1150.718314910983
 20
2159.143534840417
 30
0.0
 10
1150.948256890605
 20
2160.357847569253
 30
0.0
 10
1151.327893716241
 20
2162.474701490905
 30
0.0
 10
1151.565705634692
 20
2164.27862948492
 30
0.0
 10
1151.633873874033
 20
2165.474024572345
 30
0.0
  0
ELLIPSE
  5
2E3
330
292
100
AcDbEntity
  8
P-SANR-FIXT
100
AcDbEllipse
 10
1177.114353943077
 20
2138.998566602325
 30
0.0
 11
31.02845079977475
 21
0.0
 31
0.0
210
0.0
220
0.0
230
1.0
 40
0.3420201433256608
 41
2.870222535598658
 42
3.412962771580918
  0
SPLINE
  5
2E4
330
292
100
AcDbEntity
  8
P-SANR-FIXT
100
AcDbSpline
210
0.0
220
0.0
230
1.0
 70
     8
 71
     3
 72
    23
 73
    19
 74
     0
 42
0.000000001
 43
0.0000000001
 40
0.0006791229064502
 40
0.0006791229064502
 40
0.0006791229064502
 40
0.0006791229064502
 40
0.125
 40
0.1875
 40
0.21875
 40
0.25
 40
0.28125
 40
0.3125
 40
0.375
 40
0.4375
 40
0.46875
 40
0.5
 40
0.53125
 40
0.5625
 40
0.625
 40
0.6875
 40
0.75
 40
1.0
 40
1.0
 40
1.0
 40
1.0
 10
1151.632754808869
 20
2166.040344375069
 30
0.0
 10
1151.563981781376
 20
2165.398739210228
 30
0.0
 10
1151.326715110232
 20
2164.337219411311
 30
0.0
 10
1150.948256890605
 20
2162.921857814796
 30
0.0
 10
1150.718314910983
 20
2162.059747951957
 30
0.0
 10
1150.541514254489
 20
2161.390672037633
 30
0.0
 10
1150.369432176355
 20
2160.688465559764
 30
0.0
 10
1150.155057110239
 20
2159.702916047146
 30
0.0
 10
1149.910977868811
 20
2158.402697338158
 30
0.0
 10
1149.685276755652
 20
2157.055167339188
 30
0.0
 10
1149.501794906423
 20
2155.973664230945
 30
0.0
 10
1149.355918799902
 20
2155.16988524275
 30
0.0
 10
1149.206126472033
 20
2154.367698301744
 30
0.0
 10
1149.013355111176
 20
2153.285663857817
 30
0.0
 10
1148.778857543761
 20
2151.919579943368
 30
0.0
 10
1148.506672400913
 20
2150.262962743569
 30
0.0
 10
1147.963618777113
 20
2146.934538799907
 30
0.0
 10
1147.530590255047
 20
2144.121448068864
 30
0.0
 10
1147.221403625114
 20
2141.843226088593
 30
0.0
  0
SPLINE
  5
2E5
330
292
100
AcDbEntity
  8
P-SANR-FIXT
100
AcDbSpline
210
0.0
220
0.0
230
1.0
 70
     8
 71
     3
 72
    23
 73
    19
 74
     0
 42
0.000000001
 43
0.0000000001
 40
0.0
 40
0.0
 40
0.0
 40
0.0
 40
0.25
 40
0.3125
 40
0.375
 40
0.4375
 40
0.46875
 40
0.5
 40
0.53125
 40
0.5625
 40
0.625
 40
0.6875
 40
0.71875
 40
0.75
 40
0.78125
 40
0.8125
 40
0.875
 40
0.9993208770935357
 40
0.9993208770935357
 40
0.9993208770935357
 40
0.9993208770935357
 10
1207.00730426104
 20
2141.843226088593
 30
0.0
 10
1206.698117631107
 20
2144.121448068864
 30
0.0
 10
1206.265089109041
 20
2146.934538799907
 30
0.0
 10
1205.722035485241
 20
2150.262962743569
 30
0.0
 10
1205.449850342393
 20
2151.919579943368
 30
0.0
 10
1205.215352774978
 20
2153.285663857817
 30
0.0
 10
1205.022581414121
 20
2154.367698301744
 30
0.0
 10
1204.872789086252
 20
2155.16988524275
 30
0.0
 10
1204.726912979732
 20
2155.973664230944
 30
0.0
 10
1204.543431130502
 20
2157.055167339188
 30
0.0
 10
1204.317730017344
 20
2158.402697338157
 30
0.0
 10
1204.073650775915
 20
2159.702916047146
 30
0.0
 10
1203.859275709799
 20
2160.688465559764
 30
0.0
 10
1203.687193631665
 20
2161.390672037632
 30
0.0
 10
1203.510392975171
 20
2162.059747951957
 30
0.0
 10
1203.280450995549
 20
2162.921857814795
 30
0.0
 10
1202.901992775922
 20
2164.33721941131
 30
0.0
 10
1202.664726104779
 20
2165.398739210228
 30
0.0
 10
1202.595953077285
 20
2166.040344375069
 30
0.0
  0
ELLIPSE
  5
2E6
330
292
100
AcDbEntity
  8
P-SANR-FIXT
100
AcDbEllipse
 10
1177.114353943077
 20
2138.998566602325
 30
0.0
 11
31.02845079977444
 21
0.0
 31
0.0
210
0.0
220
0.0
230
0.9999999999999998
 40
0.3420201433256641
 41
6.011815189188448
 42
6.554555425170719
  0
SPLINE
  5
2E7
330
292
100
AcDbEntity
  8
P-SANR-FIXT
100
AcDbSpline
210
0.0
220
0.0
230
1.0
 70
     8
 71
     3
 72
    23
 73
    19
 74
     0
 42
0.000000001
 43
0.0000000001
 40
0.0
 40
0.0
 40
0.0
 40
0.0
 40
0.125
 40
0.1875
 40
0.21875
 40
0.25
 40
0.28125
 40
0.3125
 40
0.375
 40
0.4375
 40
0.46875
 40
0.5
 40
0.53125
 40
0.5625
 40
0.625
 40
0.6875
 40
0.75
 40
1.0
 40
1.0
 40
1.0
 40
1.0
 10
1202.59483401212
 20
2165.474024572345
 30
0.0
 10
1202.663002251462
 20
2164.27862948492
 30
0.0
 10
1202.900814169913
 20
2162.474701490905
 30
0.0
 10
1203.280450995549
 20
2160.357847569253
 30
0.0
 10
1203.51039297517
 20
2159.143534840418
 30
0.0
 10
1203.687193631665
 20
2158.231074780141
 30
0.0
 10
1203.859275709799
 20
2157.31309159964
 30
0.0
 10
1204.073650775915
 20
2156.079066312368
 30
0.0
 10
1204.317730017343
 20
2154.523715093351
 30
0.0
 10
1204.543431130502
 20
2152.963148651424
 30
0.0
 10
1204.726912979732
 20
2151.719817102963
 30
0.0
 10
1204.872789086252
 20
2150.793255878992
 30
0.0
 10
1205.022581414121
 20
2149.870895982149
 30
0.0
 10
1205.215352774978
 20
2148.641086580527
 30
0.0
 10
1205.449850342393
 20
2147.106538512467
 30
0.0
 10
1205.722035485241
 20
2145.269050934988
 30
0.0
 10
1206.265089109041
 20
2141.605566681922
 30
0.0
 10
1206.698117631107
 20
2138.573306862595
 30
0.0
 10
1207.00730426104
 20
2136.153907116053
 30
0.0
  0
SPLINE
  5
2E8
330
292
100
AcDbEntity
  8
P-SANR-FIXT
100
AcDbSpline
210
0.0
220
0.0
230
1.0
 70
     8
 71
     3
 72
    21
 73
    17
 74
     0
 42
0.000000001
 43
0.0000000001
 40
0.0
 40
0.0
 40
0.0
 40
0.0
 40
0.1666666666666666
 40
0.25
 40
0.2916666666666666
 40
0.3333333333333333
 40
0.375
 40
0.4166666666666666
 40
0.5
 40
0.5833333333333333
 40
0.625
 40
0.6666666666666666
 40
0.7083333333333333
 40
0.75
 40
0.8333333333333332
 40
1.0
 40
1.0
 40
1.0
 40
1.0
 10
1194.836784778859
 20
2151.538595954106
 30
0.0
 10
1194.688885898127
 20
2151.983479502501
 30
0.0
 10
1194.448747605027
 20
2152.64258368345
 30
0.0
 10
1194.136875599269
 20
2153.39526025423
 30
0.0
 10
1193.950108975725
 20
2153.820808960948
 30
0.0
 10
1193.804817675719
 20
2154.136661746437
 30
0.0
 10
1193.658380464147
 20
2154.453097447776
 30
0.0
 10
1193.463814066567
 20
2154.877928290253
 30
0.0
 10
1193.213594278918
 20
2155.406090737661
 30
0.0
 10
1192.939102208637
 20
2155.914435264025
 30
0.0
 10
1192.696324752163
 20
2156.299160847813
 30
0.0
 10
1192.499581944286
 20
2156.573031718547
 30
0.0
 10
1192.290063485875
 20
2156.833590751283
 30
0.0
 10
1191.99927630385
 20
2157.16845856285
 30
0.0
 10
1191.458138457329
 20
2157.717192123818
 30
0.0
 10
1190.944234086462
 20
2158.121780322232
 30
0.0
 10
1190.584884644772
 20
2158.359375419138
 30
0.0
  0
SPLINE
  5
2E9
330
292
100
AcDbEntity
  8
P-SANR-FIXT
100
AcDbSpline
210
0.0
220
0.0
230
1.0
 70
     8
 71
     3
 72
     9
 73
     5
 74
     0
 42
0.000000001
 43
0.0000000001
 40
0.0
 40
0.0
 40
0.0
 40
0.0
 40
0.5
 40
1.0
 40
1.0
 40
1.0
 40
1.0
 10
1199.263759772303
 20
2131.566660279581
 30
0.0
 10
1198.819380523598
 20
2134.966430837998
 30
0.0
 10
1197.656154938193
 20
2141.731350561505
 30
0.0
 10
1195.869879600282
 20
2148.323818914067
 30
0.0
 10
1194.836784778859
 20
2151.538595954106
 30
0.0
  0
ELLIPSE
  5
2EA
330
292
100
AcDbEntity
  8
P-SANR-FIXT
100
AcDbEllipse
 10
1177.114353943077
 20
2138.998566602325
 30
0.0
 11
31.02845079977445
 21
0.0
 31
0.0
210
0.0
220
0.0
230
0.9999999999999998
 40
0.3420201433256738
 41
4.964617637992245
 42
5.507357873970823
  0
SPLINE
  5
2EB
330
292
100
AcDbEntity
  8
P-SANR-FIXT
100
AcDbSpline
210
0.0
220
0.0
230
1.0
 70
     8
 71
     3
 72
    23
 73
    19
 74
     0
 42
0.000000001
 43
0.0000000001
 40
0.0
 40
0.0
 40
0.0
 40
0.0
 40
0.125
 40
0.1875
 40
0.21875
 40
0.25
 40
0.28125
 40
0.3125
 40
0.375
 40
0.4375
 40
0.46875
 40
0.5
 40
0.53125
 40
0.5625
 40
0.625
 40
0.6875
 40
0.75
 40
1.0
 40
1.0
 40
1.0
 40
1.0
 10
1189.124303310389
 20
2158.070961109846
 30
0.0
 10
1188.4608011333
 20
2156.993123889612
 30
0.0
 10
1187.643973171208
 20
2155.303531542942
 30
0.0
 10
1186.951251546096
 20
2153.248501043307
 30
0.0
 10
1186.620318054504
 20
2152.054130645989
 30
0.0
 10
1186.400583237191
 20
2151.150148597889
 30
0.0
 10
1186.213441380908
 20
2150.235139202827
 30
0.0
 10
1186.006047540191
 20
2148.999735364922
 30
0.0
 10
1185.805078064311
 20
2147.435871457839
 30
0.0
 10
1185.648215016092
 20
2145.861711878347
 30
0.0
 10
1185.535073943224
 20
2144.604490458784
 30
0.0
 10
1185.452564229158
 20
2143.665416563379
 30
0.0
 10
1185.375316090135
 20
2142.728731697669
 30
0.0
 10
1185.284612106533
 20
2141.478767518319
 30
0.0
 10
1185.188577784688
 20
2139.916877747037
 30
0.0
 10
1185.095680419515
 20
2138.043987032876
 30
0.0
 10
1184.943005988571
 20
2134.303416387756
 30
0.0
 10
1184.882042443271
 20
2131.197686600798
 30
0.0
 10
1184.857898431754
 20
2128.722000793337
 30
0.0
  0
ELLIPSE
  5
2EC
330
292
100
AcDbEntity
  8
P-SANR-FIXT
100
AcDbEllipse
 10
1177.114353943077
 20
2135.592732890737
 30
0.0
 11
31.53381379959239
 21
0.0
 31
0.0
210
0.0
220
0.0
230
1.0
 40
0.3420201433256647
 41
3.063052837250044
 42
3.612831551628238
  0
ELLIPSE
  5
2ED
330
292
100
AcDbEntity
  8
P-SANR-FIXT
100
AcDbEllipse
 10
1177.114353943077
 20
2135.592732890737
 30
0.0
 11
31.53381379959215
 21
0.0
 31
0.0
210
0.0
220
0.0
230
1.0
 40
0.3420201433256609
 41
5.811946409141117
 42
6.361725123519335
  0
LINE
  5
2EE
330
292
100
AcDbEntity
  8
P-SANR-FIXT
100
AcDbLine
 10
1138.264353943079
 20
2074.324774015461
 30
0.0
 11
1138.264353943079
 21
2053.651536358171
 31
0.0
  0
LINE
  5
2EF
330
292
100
AcDbEntity
  8
P-SANR-FIXT
100
AcDbLine
 10
1215.96435394308
 20
2053.651536358171
 30
0.0
 11
1215.96435394308
 21
2074.324774015462
 31
0.0
  0
ELLIPSE
  5
2F0
330
292
100
AcDbEntity
  8
P-SANR-FIXT
100
AcDbEllipse
 10
1177.114353943077
 20
2074.32477401546
 30
0.0
 11
38.85000000000037
 21
0.0
 31
0.0
210
0.0
220
0.0
230
1.0
 40
0.3420201433256595
 41
2.790622772595931
 42
4.712388980384677
  0
ELLIPSE
  5
2F1
330
292
100
AcDbEntity
  8
P-SANR-FIXT
100
AcDbEllipse
 10
1177.114353943077
 20
2074.32477401546
 30
0.0
 11
38.85000000000051
 21
0.0
 31
0.0
210
0.0
220
0.0
230
1.0
 40
0.3420201433256625
 41
4.712388980384683
 42
6.634155188170455
  0
ELLIPSE
  5
2F2
330
292
100
AcDbEntity
  8
P-SANR-FIXT
100
AcDbEllipse
 10
1177.114353943077
 20
2053.65153635817
 30
0.0
 11
38.85000000000037
 21
0.0
 31
0.0
210
0.0
220
0.0
230
1.0
 40
0.3420201433256653
 41
3.141592653589793
 42
4.712388980384677
  0
ELLIPSE
  5
2F3
330
292
100
AcDbEntity
  8
P-SANR-FIXT
100
AcDbEllipse
 10
1177.114353943077
 20
2053.65153635817
 30
0.0
 11
38.85000000000037
 21
0.0
 31
0.0
210
0.0
220
0.0
230
1.0
 40
0.3420201433256653
 41
4.712388980384683
 42
6.283185307179586
  0
ELLIPSE
  5
2F4
330
292
100
AcDbEntity
  8
P-SANR-FIXT
100
AcDbEllipse
 10
1177.114353943077
 20
2074.32477401546
 30
0.0
 11
37.00000000000035
 21
0.0
 31
0.0
210
0.0
220
0.0
230
1.0
 40
0.342020143325668
 41
2.979925086997805
 42
4.712388980384671
  0
ELLIPSE
  5
2F5
330
292
100
AcDbEntity
  8
P-SANR-FIXT
100
AcDbEllipse
 10
1177.114353943077
 20
2074.32477401546
 30
0.0
 11
37.00000000000045
 21
0.0
 31
0.0
210
0.0
220
0.0
230
1.0
 40
0.3420201433256667
 41
4.712388980384677
 42
6.444852873763563
  0
ARC
  5
2F6
330
292
100
AcDbEntity
  8
P-SANR-FIXT
100
AcDbCircle
 10
1177.114353943077
 20
1999.98255885001
 30
0.0
 40
33.00000000001791
100
AcDbArc
 50
90.0000000000006
 51
120.0000000000019
  0
ARC
  5
2F7
330
292
100
AcDbEntity
  8
P-SANR-FIXT
100
AcDbCircle
 10
1177.114353943077
 20
1999.98255885001
 30
0.0
 40
33.00000000001815
100
AcDbArc
 50
120.0000000000017
 51
180.0000000000012
  0
ARC
  5
2F8
330
292
100
AcDbEntity
  8
P-SANR-FIXT
100
AcDbCircle
 10
1177.114353943077
 20
1999.98255885001
 30
0.0
 40
33.00000000001819
100
AcDbArc
 50
180.0000000000012
 51
240.0000000000013
  0
ARC
  5
2F9
330
292
100
AcDbEntity
  8
P-SANR-FIXT
100
AcDbCircle
 10
1177.114353943077
 20
1999.98255885001
 30
0.0
 40
33.00000000001803
100
AcDbArc
 50
240.0000000000014
 51
269.9999999999993
  0
ARC
  5
2FA
330
292
100
AcDbEntity
  8
P-SANR-FIXT
100
AcDbCircle
 10
1177.114353943077
 20
1999.98255885001
 30
0.0
 40
33.00000000001797
100
AcDbArc
 50
269.9999999999993
 51
300.0000000000008
  0
ARC
  5
2FB
330
292
100
AcDbEntity
  8
P-SANR-FIXT
100
AcDbCircle
 10
1177.114353943077
 20
1999.98255885001
 30
0.0
 40
33.00000000001792
100
AcDbArc
 50
300.0000000000008
 51
0.0000000000011843
  0
ARC
  5
2FC
330
292
100
AcDbEntity
  8
P-SANR-FIXT
100
AcDbCircle
 10
1177.114353943077
 20
1999.98255885001
 30
0.0
 40
33.00000000001797
100
AcDbArc
 50
0.0000000000007895
 51
60.00000000000132
  0
ARC
  5
2FD
330
292
100
AcDbEntity
  8
P-SANR-FIXT
100
AcDbCircle
 10
1177.114353943077
 20
1999.98255885001
 30
0.0
 40
33.00000000001814
100
AcDbArc
 50
60.00000000000123
 51
89.9999999999996
  0
ARC
  5
2FE
330
292
100
AcDbEntity
  8
P-SANR-FIXT
100
AcDbCircle
 10
1177.114353943148
 20
1999.982558850011
 30
0.0
 40
35.99999999998838
100
AcDbArc
 50
323.5564643091044
 51
336.4435356909542
  0
SPLINE
  5
2FF
330
292
100
AcDbEntity
  8
P-SANR-FIXT
100
AcDbSpline
210
0.0
220
0.0
230
1.0
 70
    24
 71
     3
 72
     9
 73
     5
 74
     0
 42
0.000000001
 43
0.0000000001
 40
0.0
 40
0.0
 40
0.0
 40
0.0
 40
0.5
 40
1.0
 40
1.0
 40
1.0
 40
1.0
 10
1206.074289737517
 20
1978.597467810102
 30
0.0
 10
1204.025477258245
 20
1977.414585373675
 30
0.0
 10
1199.900008813234
 20
1975.032745056414
 30
0.0
 10
1195.718853395293
 20
1972.618753850342
 30
0.0
 10
1193.61435394309
 20
1971.403720525103
 30
0.0
  0
SPLINE
  5
300
330
292
100
AcDbEntity
  8
P-SANR-FIXT
100
AcDbSpline
210
0.0
220
0.0
230
1.0
 70
    24
 71
     3
 72
     9
 73
     5
 74
     0
 42
0.000000001
 43
0.0000000001
 40
0.0
 40
0.0
 40
0.0
 40
0.0
 40
0.5
 40
1.0
 40
1.0
 40
1.0
 40
1.0
 10
1193.61435394309
 20
1971.403720525103
 30
0.0
 10
1191.509854490905
 20
1970.188687199874
 30
0.0
 10
1187.328699072999
 20
1967.774695993823
 30
0.0
 10
1183.203230628024
 20
1965.392855676583
 30
0.0
 10
1181.15441814877
 20
1964.209973240167
 30
0.0
  0
ARC
  5
301
330
292
100
AcDbEntity
  8
P-SANR-FIXT
100
AcDbCircle
 10
1177.114353943148
 20
1999.982558850011
 30
0.0
 40
35.99999999998855
100
AcDbArc
 50
269.9999999998871
 51
276.4435356908994
  0
ARC
  5
302
330
292
100
AcDbEntity
  8
P-SANR-FIXT
100
AcDbCircle
 10
1177.114353943148
 20
1999.982558850011
 30
0.0
 40
35.99999999998886
100
AcDbArc
 50
263.5564643090681
 51
269.999999999887
  0
SPLINE
  5
303
330
292
100
AcDbEntity
  8
P-SANR-FIXT
100
AcDbSpline
210
0.0
220
0.0
230
1.0
 70
    24
 71
     3
 72
     9
 73
     5
 74
     0
 42
0.000000001
 43
0.0000000001
 40
0.0
 40
0.0
 40
0.0
 40
0.0
 40
0.5
 40
1.0
 40
1.0
 40
1.0
 40
1.0
 10
1173.074289737505
 20
1964.209973240169
 30
0.0
 10
1171.025477258237
 20
1965.392855676593
 30
0.0
 10
1166.900008813233
 20
1967.774695993849
 30
0.0
 10
1162.718853395298
 20
1970.188687199918
 30
0.0
 10
1160.614353943096
 20
1971.403720525156
 30
0.0
  0
SPLINE
  5
304
330
292
100
AcDbEntity
  8
P-SANR-FIXT
100
AcDbSpline
210
0.0
220
0.0
230
1.0
 70
    24
 71
     3
 72
     9
 73
     5
 74
     0
 42
0.000000001
 43
0.0000000001
 40
0.0
 40
0.0
 40
0.0
 40
0.0
 40
0.5
 40
1.0
 40
1.0
 40
1.0
 40
1.0
 10
1160.614353943096
 20
1971.403720525156
 30
0.0
 10
1158.509854490914
 20
1972.618753850383
 30
0.0
 10
1154.328699073013
 20
1975.032745056431
 30
0.0
 10
1150.203230628045
 20
1977.414585373667
 30
0.0
 10
1148.154418148794
 20
1978.597467810081
 30
0.0
  0
ARC
  5
305
330
292
100
AcDbEntity
  8
P-SANR-FIXT
100
AcDbCircle
 10
1177.114353943148
 20
1999.982558850011
 30
0.0
 40
35.9999999999886
100
AcDbArc
 50
203.5564643089764
 51
216.4435356909359
  0
SPLINE
  5
306
330
292
100
AcDbEntity
  8
P-SANR-FIXT
100
AcDbSpline
210
0.0
220
0.0
230
1.0
 70
    24
 71
     3
 72
     9
 73
     5
 74
     0
 42
0.000000001
 43
0.0000000001
 40
0.0
 40
0.0
 40
0.0
 40
0.0
 40
0.5
 40
1.0
 40
1.0
 40
1.0
 40
1.0
 10
1144.114353943127
 20
1985.595064280149
 30
0.0
 10
1144.114353943127
 20
1987.96082915298
 30
0.0
 10
1144.114353943127
 20
1992.724509787454
 30
0.0
 10
1144.114353943126
 20
1997.552492199553
 30
0.0
 10
1144.114353943126
 20
1999.982558850009
 30
0.0
  0
SPLINE
  5
307
330
292
100
AcDbEntity
  8
P-SANR-FIXT
100
AcDbSpline
210
0.0
220
0.0
230
1.0
 70
    24
 71
     3
 72
     9
 73
     5
 74
     0
 42
0.000000001
 43
0.0000000001
 40
0.0
 40
0.0
 40
0.0
 40
0.0
 40
0.5
 40
1.0
 40
1.0
 40
1.0
 40
1.0
 10
1144.114353943126
 20
1999.982558850009
 30
0.0
 10
1144.114353943126
 20
2002.412625500465
 30
0.0
 10
1144.114353943126
 20
2007.240607912565
 30
0.0
 10
1144.114353943126
 20
2012.004288547039
 30
0.0
 10
1144.114353943126
 20
2014.37005341987
 30
0.0
  0
ARC
  5
308
330
292
100
AcDbEntity
  8
P-SANR-FIXT
100
AcDbCircle
 10
1177.114353943148
 20
1999.982558850011
 30
0.0
 40
35.99999999998833
100
AcDbArc
 50
143.5564643089195
 51
156.4435356910274
  0
SPLINE
  5
309
330
292
100
AcDbEntity
  8
P-SANR-FIXT
100
AcDbSpline
210
0.0
220
0.0
230
1.0
 70
    24
 71
     3
 72
     9
 73
     5
 74
     0
 42
0.000000001
 43
0.0000000001
 40
0.0
 40
0.0
 40
0.0
 40
0.0
 40
0.5
 40
1.0
 40
1.0
 40
1.0
 40
1.0
 10
1148.154418148848
 20
2021.367649890013
 30
0.0
 10
1150.203230628088
 20
2022.550532326421
 30
0.0
 10
1154.328699073032
 20
2024.932372643644
 30
0.0
 10
1158.509854490906
 20
2027.346363849677
 30
0.0
 10
1160.614353943076
 20
2028.561397174897
 30
0.0
  0
SPLINE
  5
30A
330
292
100
AcDbEntity
  8
P-SANR-FIXT
100
AcDbSpline
210
0.0
220
0.0
230
1.0
 70
    24
 71
     3
 72
     9
 73
     5
 74
     0
 42
0.000000001
 43
0.0000000001
 40
0.0
 40
0.0
 40
0.0
 40
0.0
 40
0.5
 40
1.0
 40
1.0
 40
1.0
 40
1.0
 10
1160.614353943076
 20
2028.561397174897
 30
0.0
 10
1162.718853395264
 20
2029.776430500127
 30
0.0
 10
1166.900008813174
 20
2032.190421706181
 30
0.0
 10
1171.025477258154
 20
2034.572262023424
 30
0.0
 10
1173.074289737411
 20
2035.755144459842
 30
0.0
  0
ARC
  5
30B
330
292
100
AcDbEntity
  8
P-SANR-FIXT
100
AcDbCircle
 10
1177.114353943148
 20
1999.982558850011
 30
0.0
 40
35.9999999999885
100
AcDbArc
 50
90.00000000011254
 51
96.44353569108297
  0
ARC
  5
30C
330
292
100
AcDbEntity
  8
P-SANR-FIXT
100
AcDbCircle
 10
1177.114353943148
 20
1999.982558850011
 30
0.0
 40
35.99999999998818
100
AcDbArc
 50
83.55646430895523
 51
90.00000000011217
  0
SPLINE
  5
30D
330
292
100
AcDbEntity
  8
P-SANR-FIXT
100
AcDbSpline
210
0.0
220
0.0
230
1.0
 70
    24
 71
     3
 72
     9
 73
     5
 74
     0
 42
0.000000001
 43
0.0000000001
 40
0.0
 40
0.0
 40
0.0
 40
0.0
 40
0.5
 40
1.0
 40
1.0
 40
1.0
 40
1.0
 10
1181.15441814886
 20
2035.755144459844
 30
0.0
 10
1183.203230628103
 20
2034.572262023434
 30
0.0
 10
1187.328699073055
 20
2032.190421706208
 30
0.0
 10
1191.509854490935
 20
2029.776430500172
 30
0.0
 10
1193.614353943107
 20
2028.561397174951
 30
0.0
  0
SPLINE
  5
30E
330
292
100
AcDbEntity
  8
P-SANR-FIXT
100
AcDbSpline
210
0.0
220
0.0
230
1.0
 70
    24
 71
     3
 72
     9
 73
     5
 74
     0
 42
0.000000001
 43
0.0000000001
 40
0.0
 40
0.0
 40
0.0
 40
0.0
 40
0.5
 40
1.0
 40
1.0
 40
1.0
 40
1.0
 10
1193.614353943107
 20
2028.561397174951
 30
0.0
 10
1195.718853395297
 20
2027.346363849719
 30
0.0
 10
1199.900008813213
 20
2024.932372643662
 30
0.0
 10
1204.025477258199
 20
2022.550532326416
 30
0.0
 10
1206.074289737461
 20
2021.367649889996
 30
0.0
  0
ARC
  5
30F
330
292
100
AcDbEntity
  8
P-SANR-FIXT
100
AcDbCircle
 10
1177.114353943148
 20
1999.982558850011
 30
0.0
 40
35.99999999998859
100
AcDbArc
 50
23.55646430904775
 51
36.44353569104645
  0
SPLINE
  5
310
330
292
100
AcDbEntity
  8
P-SANR-FIXT
100
AcDbSpline
210
0.0
220
0.0
230
1.0
 70
    24
 71
     3
 72
     9
 73
     5
 74
     0
 42
0.000000001
 43
0.0000000001
 40
0.0
 40
0.0
 40
0.0
 40
0.0
 40
0.5
 40
1.0
 40
1.0
 40
1.0
 40
1.0
 10
1210.114353943151
 20
2014.370053419913
 30
0.0
 10
1210.114353943151
 20
2012.004288547074
 30
0.0
 10
1210.114353943151
 20
2007.240607912584
 30
0.0
 10
1210.114353943151
 20
2002.412625500473
 30
0.0
 10
1210.114353943151
 20
1999.982558850011
 30
0.0
  0
SPLINE
  5
311
330
292
100
AcDbEntity
  8
P-SANR-FIXT
100
AcDbSpline
210
0.0
220
0.0
230
1.0
 70
    24
 71
     3
 72
     9
 73
     5
 74
     0
 42
0.000000001
 43
0.0000000001
 40
0.0
 40
0.0
 40
0.0
 40
0.0
 40
0.5
 40
1.0
 40
1.0
 40
1.0
 40
1.0
 10
1210.114353943151
 20
1999.982558850011
 30
0.0
 10
1210.114353943151
 20
1997.55249219955
 30
0.0
 10
1210.114353943151
 20
1992.724509787438
 30
0.0
 10
1210.114353943151
 20
1987.960829152948
 30
0.0
 10
1210.114353943151
 20
1985.595064280109
 30
0.0
  0
ARC
  5
312
330
292
100
AcDbEntity
  8
P-SANR-FIXT
100
AcDbCircle
 10
1177.114353943077
 20
1999.982558850011
 30
0.0
 40
21.90000000000123
100
AcDbArc
 50
90.0
 51
269.999999999999
  0
ARC
  5
313
330
292
100
AcDbEntity
  8
P-SANR-FIXT
100
AcDbCircle
 10
1177.114353943077
 20
1999.982558850011
 30
0.0
 40
21.90000000000134
100
AcDbArc
 50
269.9999999999993
 51
89.99999999999969
  0
ARC
  5
314
330
292
100
AcDbEntity
  8
P-SANR-FIXT
100
AcDbCircle
 10
1177.114353943077
 20
1999.982558850011
 30
0.0
 40
23.90000000000191
100
AcDbArc
 50
90.00000000000055
 51
269.9999999999997
  0
ARC
  5
315
330
292
100
AcDbEntity
  8
P-SANR-FIXT
100
AcDbCircle
 10
1177.114353943077
 20
1999.982558850011
 30
0.0
 40
23.90000000000214
100
AcDbArc
 50
270.0000000000002
 51
90.0
  0
LWPOLYLINE
  5
316
330
292
100
AcDbEntity
  8
P-SANR-FIXT
100
AcDbPolyline
 90
       40
 70
   128
 43
0.0
 10
1151.256736552979
 20
1971.821552405708
 10
1151.374224594684
 20
1971.137980324798
 10
1151.634329429305
 20
1970.239095683818
 10
1151.975951274006
 20
1969.401457346642
 10
1152.381972956892
 20
1968.632041517747
 10
1152.836897855955
 20
1967.931468486508
 10
1153.328253256712
 20
1967.296025797999
 10
1153.846894122124
 20
1966.719644636591
 10
1154.386638884558
 20
1966.195405887304
 10
1154.943634993053
 20
1965.71649961245
 10
1155.515706454056
 20
1965.276737668351
 10
1156.101800783891
 20
1964.870763288616
 10
1156.701567200454
 20
1964.49408167619
 10
1157.31505611443
 20
1964.142998520779
 10
1157.942515453933
 20
1963.814520019571
 10
1158.584258297456
 20
1963.506244191139
 10
1159.24058040758
 20
1963.216258295397
 10
1159.911711461554
 20
1962.943048538106
 10
1160.597788412603
 20
1962.68542363935
 10
1161.298843028923
 20
1962.442451617302
 10
1162.014798281433
 20
1962.213408217709
 10
1162.745470079397
 20
1961.997735174939
 10
1163.490572092944
 20
1961.79500656714
 10
1164.249722227025
 20
1961.604901736171
 10
1165.022449853524
 20
1961.427183486058
 10
1165.808203260272
 20
1961.261680506774
 10
1166.606357001727
 20
1961.10827317494
 10
1167.416218979498
 20
1960.966882054831
 10
1168.237037170509
 20
1960.837458563299
 10
1169.068005975421
 20
1960.719977374878
 10
1169.908272192538
 20
1960.614430232961
 10
1170.756940640877
 20
1960.520820903814
 10
1171.613079465716
 20
1960.439161066318
 10
1172.475725164209
 20
1960.369466974526
 10
1173.343887369714
 20
1960.31175676539
 10
1174.216553432788
 20
1960.266048311977
 10
1175.092692835294
 20
1960.232357545162
 10
1175.971261472145
 20
1960.210697185198
 10
1176.851205833486
 20
1960.201075839914
 10
1177.114353943079
 20
1960.200537752968
  0
LWPOLYLINE
  5
317
330
292
100
AcDbEntity
  8
P-SANR-FIXT
100
AcDbPolyline
 90
       40
 70
   128
 43
0.0
 10
1202.972281112323
 20
1971.823354771041
 10
1202.854483291474
 20
1971.137980324797
 10
1202.594378456854
 20
1970.239095683818
 10
1202.252756612152
 20
1969.401457346642
 10
1201.846734929266
 20
1968.632041517747
 10
1201.391810030203
 20
1967.931468486508
 10
1200.900454629446
 20
1967.296025797999
 10
1200.381813764034
 20
1966.719644636591
 10
1199.8420690016
 20
1966.195405887304
 10
1199.285072893104
 20
1965.71649961245
 10
1198.713001432103
 20
1965.276737668351
 10
1198.126907102267
 20
1964.870763288616
 10
1197.527140685704
 20
1964.49408167619
 10
1196.913651771729
 20
1964.142998520779
 10
1196.286192432225
 20
1963.814520019571
 10
1195.644449588703
 20
1963.506244191139
 10
1194.988127478578
 20
1963.216258295397
 10
1194.316996424604
 20
1962.943048538106
 10
1193.630919473556
 20
1962.68542363935
 10
1192.929864857235
 20
1962.442451617302
 10
1192.213909604725
 20
1962.213408217709
 10
1191.483237806762
 20
1961.997735174939
 10
1190.738135793214
 20
1961.79500656714
 10
1189.978985659133
 20
1961.604901736171
 10
1189.206258032634
 20
1961.427183486058
 10
1188.420504625886
 20
1961.261680506774
 10
1187.622350884432
 20
1961.10827317494
 10
1186.81248890666
 20
1960.966882054832
 10
1185.991670715649
 20
1960.837458563299
 10
1185.160701910737
 20
1960.719977374878
 10
1184.32043569362
 20
1960.614430232961
 10
1183.471767245282
 20
1960.520820903814
 10
1182.615628420443
 20
1960.439161066318
 10
1181.752982721949
 20
1960.369466974526
 10
1180.884820516445
 20
1960.31175676539
 10
1180.01215445337
 20
1960.266048311977
 10
1179.136015050865
 20
1960.232357545162
 10
1178.257446414014
 20
1960.210697185198
 10
1177.377502052672
 20
1960.201075839914
 10
1177.114353943079
 20
1960.200537752969
  0
LWPOLYLINE
  5
318
330
292
100
AcDbEntity
  8
P-SANR-FIXT
100
AcDbPolyline
 90
        3
 70
   128
 43
0.0
 10
1142.633088692842
 20
2046.739060725526
 10
1143.515996642311
 20
2016.359764779023
 10
1144.114353943128
 20
2012.254398400131
  0
LINE
  5
319
330
292
100
AcDbEntity
  8
P-SANR-FIXT
100
AcDbLine
 10
1149.904344595596
 20
1977.58714730496
 30
0.0
 11
1151.296498012372
 21
1971.633127091969
 31
0.0
  0
LWPOLYLINE
  5
31A
330
292
100
AcDbEntity
  8
P-SANR-FIXT
100
AcDbPolyline
 90
        3
 70
   128
 43
0.0
 10
1211.595619193317
 20
2046.739060725526
 10
1210.712711243847
 20
2016.359764779013
 10
1210.114353943147
 20
2012.254398400924
  0
LINE
  5
31B
330
292
100
AcDbEntity
  8
P-SANR-FIXT
100
AcDbLine
 10
1204.324363290544
 20
1977.587147304886
 30
0.0
 11
1202.932209873785
 21
1971.63312709196
 31
0.0
  0
LINE
  5
31C
330
292
100
AcDbEntity
  8
P-SANR-FIXT
100
AcDbLine
 10
1142.734467662413
 20
2046.538349887715
 30
0.0
 11
1143.185202839814
 21
2045.821115791275
 31
0.0
  0
LINE
  5
31D
330
292
100
AcDbEntity
  8
P-SANR-FIXT
100
AcDbLine
 10
1211.043505046344
 20
2045.821115791275
 30
0.0
 11
1211.494240223745
 21
2046.538349887715
 31
0.0
  0
LINE
  5
31E
330
292
100
AcDbEntity
  8
P-SANR-FIXT
100
AcDbLine
 10
1140.114353943079
 20
2074.324774015461
 30
0.0
 11
1140.114353943079
 21
2073.851099612221
 31
0.0
  0
LINE
  5
31F
330
292
100
AcDbEntity
  8
P-SANR-FIXT
100
AcDbLine
 10
1214.114353943079
 20
2073.851099612221
 30
0.0
 11
1214.114353943079
 21
2074.324774015461
 31
0.0
  0
LWPOLYLINE
  5
320
330
292
100
AcDbEntity
  8
P-SANR-FIXT
100
AcDbPolyline
 90
        4
 70
   128
 43
0.0
 10
1142.039508430537
 20
2047.947167307486
 10
1142.274900130734
 20
2047.375348850766
 10
1142.621514728775
 20
2046.723366405879
 10
1142.734467662413
 20
2046.538349887715
  0
LWPOLYLINE
  5
321
330
292
100
AcDbEntity
  8
P-SANR-FIXT
100
AcDbPolyline
 90
        4
 70
   128
 43
0.0
 10
1212.189199455622
 20
2047.947167307486
 10
1211.953807755423
 20
2047.375348850766
 10
1211.607193157383
 20
2046.723366405879
 10
1211.494240223745
 20
2046.538349887715
  0
ELLIPSE
  5
322
330
292
100
AcDbEntity
  8
P-SANR-FIXT
100
AcDbEllipse
 10
1177.114353943077
 20
1972.427806917313
 30
0.0
 11
25.92219672528927
 21
0.0
 31
0.0
210
0.0
220
0.0
230
1.0
 40
0.342020143325671
 41
3.220132469929546
 42
4.712388980384683
  0
ELLIPSE
  5
323
330
292
100
AcDbEntity
  8
P-SANR-FIXT
100
AcDbEllipse
 10
1177.114353943077
 20
1972.427806917313
 30
0.0
 11
25.922196725289
 21
0.0
 31
0.0
210
0.0
220
0.0
230
1.0
 40
0.3420201433256771
 41
4.712388980384683
 42
6.204645490839846
  0
ELLIPSE
  5
324
330
292
100
AcDbEntity
  8
P-SANR-FIXT
100
AcDbEllipse
 10
1177.114353943077
 20
2074.32477401546
 30
0.0
 11
36.99999999999977
 21
0.0
 31
0.0
210
0.0
220
0.0
230
0.9999999999999998
 40
0.342020143325673
 41
2.979925086997878
 42
4.712388980384683
  0
ELLIPSE
  5
325
330
292
100
AcDbEntity
  8
P-SANR-FIXT
100
AcDbEllipse
 10
1177.114353943077
 20
2074.32477401546
 30
0.0
 11
37.00000000000016
 21
0.0
 31
0.0
210
0.0
220
0.0
230
1.0
 40
0.3420201433256673
 41
4.712388980384683
 42
6.444852873763492
  0
ENDBLK
  5
327
330
292
100
AcDbEntity
  8
0
100
AcDbBlockEnd
  0
ENDSEC
  0
SECTION
  2
ENTITIES
  0
INSERT
  5
19A
330
71
100
AcDbEntity
  8
P-SANR-FIXT
100
AcDbBlockReference
  2
Automatic flow rate regulator valve_Caleffi_121 DN15 - 1 1_2__-946934-Est - Idraulica
 10
0.0
 20
0.0
 30
0.0
1001
REVIT
1002
{
1070
     1
1000
863131
1002
}
1002
{
1070
     5
1000
946934
1002
}
1002
{
1070
     2
1000
-2001160
1002
}
  0
INSERT
  5
291
330
71
100
AcDbEntity
  8
P-SANR-FIXT
100
AcDbBlockReference
  2
Automatic flow rate regulator valve_Caleffi_121 DN15 - 1 1_2__-V1-Est - Idraulica
 10
0.0
 20
0.0
 30
0.0
1001
REVIT
1002
{
1070
     1
1000
863152
1002
}
1002
{
1070
     5
1000
946934
1002
}
1002
{
1070
     2
1000
-2001160
1002
}
  0
INSERT
  5
328
330
71
100
AcDbEntity
  8
P-SANR-FIXT
100
AcDbBlockReference
  2
Automatic flow rate regulator valve_Caleffi_121 DN15 - 1 1_2__-V2-Est - Idraulica
 10
0.0
 20
0.0
 30
0.0
1001
REVIT
1002
{
1070
     1
1000
863172
1002
}
1002
{
1070
     5
1000
946934
1002
}
1002
{
1070
     2
1000
-2001160
1002
}
  0
ENDSEC
  0
SECTION
  2
OBJECTS
  0
DICTIONARY
  5
C
330
0
100
AcDbDictionary
281
     1
  3
ACAD_CIP_PREVIOUS_PRODUCT_INFO
350
7A
  3
ACAD_COLOR
350
63
  3
ACAD_DETAILVIEWSTYLE
350
6B
  3
ACAD_GROUP
350
D
  3
ACAD_IMAGE_VARS
350
7B
  3
ACAD_LAYOUT
350
62
  3
ACAD_MATERIAL
350
10
  3
ACAD_MLEADERSTYLE
350
66
  3
ACAD_MLINESTYLE
350
5F
  3
ACAD_PLOTSETTINGS
350
61
  3
ACAD_PLOTSTYLENAME
350
E
  3
ACAD_SCALELIST
350
42
  3
ACAD_SECTIONVIEWSTYLE
350
68
  3
ACAD_TABLESTYLE
350
64
  3
ACAD_VISUALSTYLE
350
29
  3
ACDB_RECOMPOSE_DATA
350
333
  3
AcDbVariableDictionary
350
7C
  3
REVIT_DICTIONARY
350
32A
  0
DICTIONARY
  5
32F
330
71
100
AcDbDictionary
280
     1
281
     1
  3
ACAD_SORTENTS
360
330
  0
XRECORD
  5
7A
102
{ACAD_REACTORS
330
C
102
}
330
C
100
AcDbXrecord
280
     1
300
RVT
300
2013
300
RVT2013
  0
DICTIONARY
  5
63
102
{ACAD_REACTORS
330
C
102
}
330
C
100
AcDbDictionary
281
     1
  0
DICTIONARY
  5
6B
102
{ACAD_REACTORS
330
C
102
}
330
C
100
AcDbDictionary
281
     1
  3
Imperial24
350
6C
  0
DICTIONARY
  5
D
102
{ACAD_REACTORS
330
C
102
}
330
C
100
AcDbDictionary
281
     1
  0
RASTERVARIABLES
  5
7B
102
{ACAD_REACTORS
330
C
102
}
330
C
100
AcDbRasterVariables
 90
        0
 70
     0
 71
     1
 72
     1
  0
DICTIONARY
  5
62
102
{ACAD_REACTORS
330
C
102
}
330
C
100
AcDbDictionary
281
     1
  3
Layout1
350
70
  3
Layout2
350
78
  3
Model
350
74
  0
DICTIONARY
  5
10
102
{ACAD_REACTORS
330
C
102
}
330
C
100
AcDbDictionary
281
     1
  3
ByBlock
350
19
  3
ByLayer
350
11
  3
Global
350
21
  0
DICTIONARY
  5
66
102
{ACAD_REACTORS
330
C
102
}
330
C
100
AcDbDictionary
281
     1
  3
Standard
350
67
  0
DICTIONARY
  5
5F
102
{ACAD_REACTORS
330
C
102
}
330
C
100
AcDbDictionary
281
     1
  3
Standard
350
60
  0
DICTIONARY
  5
61
102
{ACAD_REACTORS
330
C
102
}
330
C
100
AcDbDictionary
281
     1
  0
ACDBDICTIONARYWDFLT
  5
E
102
{ACAD_REACTORS
330
C
102
}
330
C
100
AcDbDictionary
281
     1
  3
Normal
350
F
100
AcDbDictionaryWithDefault
340
F
  0
DICTIONARY
  5
42
102
{ACAD_REACTORS
330
C
102
}
330
C
100
AcDbDictionary
281
     1
  3
A0
350
43
  3
A1
350
44
  3
A2
350
45
  3
A3
350
46
  3
A4
350
47
  3
A5
350
48
  3
A6
350
49
  3
A7
350
4A
  3
A8
350
4B
  3
A9
350
4C
  3
B0
350
4D
  3
B1
350
4E
  3
B2
350
4F
  3
B3
350
50
  3
B4
350
51
  3
B5
350
52
  3
B6
350
53
  0
DICTIONARY
  5
68
102
{ACAD_REACTORS
330
C
102
}
330
C
100
AcDbDictionary
281
     1
  3
Imperial24
350
6A
  0
DICTIONARY
  5
64
102
{ACAD_REACTORS
330
C
102
}
330
C
100
AcDbDictionary
281
     1
  3
Standard
350
65
  0
DICTIONARY
  5
29
102
{ACAD_REACTORS
330
C
102
}
330
C
100
AcDbDictionary
281
     1
  3
2dWireframe
350
2F
  3
Basic
350
2E
  3
Brighten
350
35
  3
ColorChange
350
39
  3
Conceptual
350
32
  3
Dim
350
34
  3
EdgeColorOff
350
41
  3
Facepattern
350
38
  3
Flat
350
2A
  3
FlatWithEdges
350
2B
  3
Gouraud
350
2C
  3
GouraudWithEdges
350
2D
  3
Hidden
350
31
  3
JitterOff
350
3F
  3
Linepattern
350
37
  3
OverhangOff
350
40
  3
Realistic
350
33
  3
Shaded
350
3E
  3
Shaded with edges
350
3D
  3
Shades of Gray
350
3A
  3
Sketchy
350
3B
  3
Thicken
350
36
  3
Wireframe
350
30
  3
X-Ray
350
3C
  0
XRECORD
  5
333
102
{ACAD_REACTORS
330
C
102
}
330
C
100
AcDbXrecord
280
     1
 90
        1
330
65
  0
DICTIONARY
  5
7C
102
{ACAD_REACTORS
330
C
102
}
330
C
100
AcDbDictionary
281
     1
  3
CANNOSCALE
350
81
  3
CMLEADERSTYLE
350
7E
  3
CTABLESTYLE
350
7D
  3
CVIEWDETAILSTYLE
350
7F
  3
CVIEWSECTIONSTYLE
350
80
  0
DICTIONARY
  5
32A
102
{ACAD_REACTORS
330
C
102
}
330
C
100
AcDbDictionary
281
     1
  3
DRAWING_TOOL
350
32E
  3
REVIT_CATEGORY_MAPPING
350
32C
  3
REVIT_SUB_CATEGORY_MAPPING
350
32D
  3
REVIT_TYPE_MAPPING
350
32B
  0
SORTENTSTABLE
  5
330
102
{ACAD_REACTORS
330
32F
102
}
330
32F
100
AcDbSortentsTable
330
71
  0
ACDBDETAILVIEWSTYLE
  5
6C
102
{ACAD_REACTORS
330
6B
102
}
330
6B
100
AcDbModelDocViewStyle
 70
     0
  3
Imperial24
290
     1
100
AcDbDetailViewStyle
 70
     0
 71
     0
 90
        3
 71
     1
340
55
 62
   256
 40
0.24
340
0
 62
   256
 40
0.24
300

 40
0.36
280
     3
 71
     2
340
5D
 90
       25
 62
   256
 71
     3
340
55
 62
   256
 40
0.24
 90
        1
 40
0.75
 90
        1
300
%<\AcVar ViewType \f "%tc1">% %<\AcVar ViewDetailId>%\PSCALA %<\AcVar ViewScale \f "%sn">%
 71
     4
340
5D
 90
       25
 62
   256
340
5D
 90
       25
 62
   256
280
     0
  0
LAYOUT
  5
70
102
{ACAD_REACTORS
330
62
102
}
330
62
100
AcDbPlotSettings
  1

  2

  4

  6

 40
0.0
 41
0.0
 42
0.0
 43
0.0
 44
0.0
 45
0.0
 46
0.0
 47
0.0
 48
0.0
 49
0.0
140
0.0
141
0.0
142
1.0
143
1.0
 70
   688
 72
     0
 73
     0
 74
     5
  7

 75
    16
147
1.0
 76
     0
 77
     2
 78
   300
148
0.0
149
0.0
100
AcDbLayout
  1
Layout1
 70
     1
 71
     1
 10
0.0
 20
0.0
 11
12.0
 21
9.0
 12
0.0
 22
0.0
 32
0.0
 14
0.0
 24
0.0
 34
0.0
 15
0.0
 25
0.0
 35
0.0
146
0.0
 13
0.0
 23
0.0
 33
0.0
 16
1.0
 26
0.0
 36
0.0
 17
0.0
 27
1.0
 37
0.0
 76
     0
330
6D
  0
LAYOUT
  5
78
102
{ACAD_REACTORS
330
62
102
}
330
62
100
AcDbPlotSettings
  1

  2

  4

  6

 40
0.0
 41
0.0
 42
0.0
 43
0.0
 44
0.0
 45
0.0
 46
0.0
 47
0.0
 48
0.0
 49
0.0
140
0.0
141
0.0
142
1.0
143
1.0
 70
   688
 72
     0
 73
     0
 74
     5
  7

 75
    16
147
1.0
 76
     0
 77
     2
 78
   300
148
0.0
149
0.0
100
AcDbLayout
  1
Layout2
 70
     1
 71
     2
 10
0.0
 20
0.0
 11
12.0
 21
9.0
 12
0.0
 22
0.0
 32
0.0
 14
0.0
 24
0.0
 34
0.0
 15
0.0
 25
0.0
 35
0.0
146
0.0
 13
0.0
 23
0.0
 33
0.0
 16
1.0
 26
0.0
 36
0.0
 17
0.0
 27
1.0
 37
0.0
 76
     0
330
75
  0
LAYOUT
  5
74
102
{ACAD_REACTORS
330
62
102
}
330
62
100
AcDbPlotSettings
  1

  2

  4

  6

 40
0.0
 41
0.0
 42
0.0
 43
0.0
 44
0.0
 45
0.0
 46
0.0
 47
0.0
 48
0.0
 49
0.0
140
0.0
141
0.0
142
1.0
143
1.0
 70
  1712
 72
     0
 73
     0
 74
     0
  7

 75
     0
147
1.0
 76
     0
 77
     2
 78
   300
148
0.0
149
0.0
100
AcDbLayout
  1
Model
 70
     1
 71
     0
 10
0.0
 20
0.0
 11
12.0
 21
9.0
 12
0.0
 22
0.0
 32
0.0
 14
0.0
 24
0.0
 34
0.0
 15
0.0
 25
0.0
 35
0.0
146
0.0
 13
0.0
 23
0.0
 33
0.0
 16
1.0
 26
0.0
 36
0.0
 17
0.0
 27
1.0
 37
0.0
 76
     0
330
71
  0
MATERIAL
  5
19
102
{ACAD_XDICTIONARY
360
1A
102
}
102
{ACAD_REACTORS
330
10
102
}
330
10
100
AcDbMaterial
  1
ByBlock
 72
     0
 43
0.0208333333333333
 43
0.0
 43
0.0
 43
0.0
 43
0.0
 43
0.0208333333333333
 43
0.0
 43
0.0
 43
0.0
 43
0.0
 43
1.0
 43
0.0
 43
0.0
 43
0.0
 43
0.0
 43
1.0
 77
     0
 47
0.0208333333333333
 47
0.0
 47
0.0
 47
0.0
 47
0.0
 47
0.0208333333333333
 47
0.0
 47
0.0
 47
0.0
 47
0.0
 47
1.0
 47
0.0
 47
0.0
 47
0.0
 47
0.0
 47
1.0
171
     0
 49
0.0208333333333333
 49
0.0
 49
0.0
 49
0.0
 49
0.0
 49
0.0208333333333333
 49
0.0
 49
0.0
 49
0.0
 49
0.0
 49
1.0
 49
0.0
 49
0.0
 49
0.0
 49
0.0
 49
1.0
175
     0
142
0.0208333333333333
142
0.0
142
0.0
142
0.0
142
0.0
142
0.0208333333333333
142
0.0
142
0.0
142
0.0
142
0.0
142
1.0
142
0.0
142
0.0
142
0.0
142
0.0
142
1.0
179
     0
144
0.0208333333333333
144
0.0
144
0.0
144
0.0
144
0.0
144
0.0208333333333333
144
0.0
144
0.0
144
0.0
144
0.0
144
1.0
144
0.0
144
0.0
144
0.0
144
0.0
144
1.0
147
0.0208333333333333
147
0.0
147
0.0
147
0.0
147
0.0
147
0.0208333333333333
147
0.0
147
0.0
147
0.0
147
0.0
147
1.0
147
0.0
147
0.0
147
0.0
147
0.0
147
1.0
  0
MATERIAL
  5
11
102
{ACAD_XDICTIONARY
360
12
102
}
102
{ACAD_REACTORS
330
10
102
}
330
10
100
AcDbMaterial
  1
ByLayer
 72
     0
 43
0.0208333333333333
 43
0.0
 43
0.0
 43
0.0
 43
0.0
 43
0.0208333333333333
 43
0.0
 43
0.0
 43
0.0
 43
0.0
 43
1.0
 43
0.0
 43
0.0
 43
0.0
 43
0.0
 43
1.0
 77
     0
 47
0.0208333333333333
 47
0.0
 47
0.0
 47
0.0
 47
0.0
 47
0.0208333333333333
 47
0.0
 47
0.0
 47
0.0
 47
0.0
 47
1.0
 47
0.0
 47
0.0
 47
0.0
 47
0.0
 47
1.0
171
     0
 49
0.0208333333333333
 49
0.0
 49
0.0
 49
0.0
 49
0.0
 49
0.0208333333333333
 49
0.0
 49
0.0
 49
0.0
 49
0.0
 49
1.0
 49
0.0
 49
0.0
 49
0.0
 49
0.0
 49
1.0
175
     0
142
0.0208333333333333
142
0.0
142
0.0
142
0.0
142
0.0
142
0.0208333333333333
142
0.0
142
0.0
142
0.0
142
0.0
142
1.0
142
0.0
142
0.0
142
0.0
142
0.0
142
1.0
179
     0
144
0.0208333333333333
144
0.0
144
0.0
144
0.0
144
0.0
144
0.0208333333333333
144
0.0
144
0.0
144
0.0
144
0.0
144
1.0
144
0.0
144
0.0
144
0.0
144
0.0
144
1.0
147
0.0208333333333333
147
0.0
147
0.0
147
0.0
147
0.0
147
0.0208333333333333
147
0.0
147
0.0
147
0.0
147
0.0
147
1.0
147
0.0
147
0.0
147
0.0
147
0.0
147
1.0
  0
MATERIAL
  5
21
102
{ACAD_XDICTIONARY
360
22
102
}
102
{ACAD_REACTORS
330
10
102
}
330
10
100
AcDbMaterial
  1
Global
 72
     0
 43
0.0208333333333333
 43
0.0
 43
0.0
 43
0.0
 43
0.0
 43
0.0208333333333333
 43
0.0
 43
0.0
 43
0.0
 43
0.0
 43
1.0
 43
0.0
 43
0.0
 43
0.0
 43
0.0
 43
1.0
 77
     0
 47
0.0208333333333333
 47
0.0
 47
0.0
 47
0.0
 47
0.0
 47
0.0208333333333333
 47
0.0
 47
0.0
 47
0.0
 47
0.0
 47
1.0
 47
0.0
 47
0.0
 47
0.0
 47
0.0
 47
1.0
171
     0
 49
0.0208333333333333
 49
0.0
 49
0.0
 49
0.0
 49
0.0
 49
0.0208333333333333
 49
0.0
 49
0.0
 49
0.0
 49
0.0
 49
1.0
 49
0.0
 49
0.0
 49
0.0
 49
0.0
 49
1.0
175
     0
142
0.0208333333333333
142
0.0
142
0.0
142
0.0
142
0.0
142
0.0208333333333333
142
0.0
142
0.0
142
0.0
142
0.0
142
1.0
142
0.0
142
0.0
142
0.0
142
0.0
142
1.0
179
     0
144
0.0208333333333333
144
0.0
144
0.0
144
0.0
144
0.0
144
0.0208333333333333
144
0.0
144
0.0
144
0.0
144
0.0
144
1.0
144
0.0
144
0.0
144
0.0
144
0.0
144
1.0
147
0.0208333333333333
147
0.0
147
0.0
147
0.0
147
0.0
147
0.0208333333333333
147
0.0
147
0.0
147
0.0
147
0.0
147
1.0
147
0.0
147
0.0
147
0.0
147
0.0
147
1.0
  0
MLEADERSTYLE
  5
67
102
{ACAD_REACTORS
330
66
102
}
330
66
100
AcDbMLeaderStyle
179
     2
170
     2
171
     1
172
     0
 90
        2
 40
0.0
 41
0.0
173
     1
 91
-1056964608
340
5B
 92
       -2
290
     1
 42
0.09
291
     1
 43
0.36
  3
Standard
 44
0.18
300

342
55
174
     1
178
     6
175
     1
176
     0
 93
-1056964608
 45
0.18
292
     0
297
     0
 46
0.18
 94
-1056964608
 47
1.0
 49
1.0
140
1.0
293
     1
141
0.0
294
     1
177
     0
142
1.0
295
     1
296
     0
143
0.125
271
     0
272
     9
273
     9
298
     1
  0
MLINESTYLE
  5
60
102
{ACAD_REACTORS
330
5F
102
}
330
5F
100
AcDbMlineStyle
  2
STANDARD
 70
     0
  3

 62
   256
 51
90.0
 52
90.0
 71
     2
 49
0.5
 62
   256
  6
BYLAYER
 49
-0.5
 62
   256
  6
BYLAYER
  0
ACDBPLACEHOLDER
  5
F
102
{ACAD_REACTORS
330
E
102
}
330
E
  0
SCALE
  5
43
102
{ACAD_REACTORS
330
42
102
}
330
42
100
AcDbScale
 70
     0
300
1:1
140
1.0
141
1.0
290
     1
  0
SCALE
  5
44
102
{ACAD_REACTORS
330
42
102
}
330
42
100
AcDbScale
 70
     0
300
1/128" = 1'-0"
140
0.0078125
141
12.0
290
     0
  0
SCALE
  5
45
102
{ACAD_REACTORS
330
42
102
}
330
42
100
AcDbScale
 70
     0
300
1/64" = 1'-0"
140
0.015625
141
12.0
290
     0
  0
SCALE
  5
46
102
{ACAD_REACTORS
330
42
102
}
330
42
100
AcDbScale
 70
     0
300
1/32" = 1'-0"
140
0.03125
141
12.0
290
     0
  0
SCALE
  5
47
102
{ACAD_REACTORS
330
42
102
}
330
42
100
AcDbScale
 70
     0
300
1/16" = 1'-0"
140
0.0625
141
12.0
290
     0
  0
SCALE
  5
48
102
{ACAD_REACTORS
330
42
102
}
330
42
100
AcDbScale
 70
     0
300
3/32" = 1'-0"
140
0.09375
141
12.0
290
     0
  0
SCALE
  5
49
102
{ACAD_REACTORS
330
42
102
}
330
42
100
AcDbScale
 70
     0
300
1/8" = 1'-0"
140
0.125
141
12.0
290
     0
  0
SCALE
  5
4A
102
{ACAD_REACTORS
330
42
102
}
330
42
100
AcDbScale
 70
     0
300
3/16" = 1'-0"
140
0.1875
141
12.0
290
     0
  0
SCALE
  5
4B
102
{ACAD_REACTORS
330
42
102
}
330
42
100
AcDbScale
 70
     0
300
1/4" = 1'-0"
140
0.25
141
12.0
290
     0
  0
SCALE
  5
4C
102
{ACAD_REACTORS
330
42
102
}
330
42
100
AcDbScale
 70
     0
300
3/8" = 1'-0"
140
0.375
141
12.0
290
     0
  0
SCALE
  5
4D
102
{ACAD_REACTORS
330
42
102
}
330
42
100
AcDbScale
 70
     0
300
1/2" = 1'-0"
140
0.5
141
12.0
290
     0
  0
SCALE
  5
4E
102
{ACAD_REACTORS
330
42
102
}
330
42
100
AcDbScale
 70
     0
300
3/4" = 1'-0"
140
0.75
141
12.0
290
     0
  0
SCALE
  5
4F
102
{ACAD_REACTORS
330
42
102
}
330
42
100
AcDbScale
 70
     0
300
1" = 1'-0"
140
1.0
141
12.0
290
     0
  0
SCALE
  5
50
102
{ACAD_REACTORS
330
42
102
}
330
42
100
AcDbScale
 70
     0
300
1-1/2" = 1'-0"
140
1.5
141
12.0
290
     0
  0
SCALE
  5
51
102
{ACAD_REACTORS
330
42
102
}
330
42
100
AcDbScale
 70
     0
300
3" = 1'-0"
140
3.0
141
12.0
290
     0
  0
SCALE
  5
52
102
{ACAD_REACTORS
330
42
102
}
330
42
100
AcDbScale
 70
     0
300
6" = 1'-0"
140
6.0
141
12.0
290
     0
  0
SCALE
  5
53
102
{ACAD_REACTORS
330
42
102
}
330
42
100
AcDbScale
 70
     0
300
1'-0" = 1'-0"
140
12.0
141
12.0
290
     0
  0
ACDBSECTIONVIEWSTYLE
  5
6A
102
{ACAD_REACTORS
330
68
102
}
330
68
100
AcDbModelDocViewStyle
 70
     0
  3
Imperial24
290
     1
100
AcDbSectionViewStyle
 70
     0
 71
     0
 90
       78
 71
     1
340
55
 62
   256
 40
0.24
340
0
340
0
 62
   256
 40
0.24
300
I, O, Q, S, X, Z
 40
0.48
 90
        3
 40
0.18
 90
        1
 71
     2
340
69
 90
       25
 62
   256
340
5D
 90
       50
 62
   256
 40
0.24
 40
0.0
 40
0.24
 71
     3
340
55
 62
   256
 40
0.24
 90
        1
 40
0.75
 90
        1
300
%<\AcVar ViewType \f "%tc1">% %<\AcVar ViewSectionStartId>%-%<\AcVar ViewSectionEndId>%\PSCALA %<\AcVar ViewScale \f "%sn">%
 71
     4
 62
   256
 62
   257
300
ANSI31
 40
1.0
 90
        0
290
     0
290
     0
 90
        6
 40
0.0
 40
1.570796326794896
 40
0.2617993877991494
 40
1.308996938995747
 40
-0.2617993877991494
 40
1.832595714594046
  0
TABLESTYLE
  5
65
102
{ACAD_XDICTIONARY
360
331
102
}
102
{ACAD_REACTORS
330
64
102
}
330
64
100
AcDbTableStyle
280
     0
  3
Standard
 70
     0
 71
     0
 40
0.06
 41
0.06
280
     0
281
     0
  7
Standard
140
0.18
170
     2
 62
     0
 63
     7
283
     0
 90
      512
 91
        0
  1

274
    -2
284
     1
 64
     0
275
    -2
285
     1
 65
     0
276
    -2
286
     1
 66
     0
277
    -2
287
     1
 67
     0
278
    -2
288
     1
 68
     0
279
    -2
289
     1
 69
     0
  7
Standard
140
0.25
170
     5
 62
     0
 63
     7
283
     0
 90
      512
 91
        0
  1

274
    -2
284
     1
 64
     0
275
    -2
285
     1
 65
     0
276
    -2
286
     1
 66
     0
277
    -2
287
     1
 67
     0
278
    -2
288
     1
 68
     0
279
    -2
289
     1
 69
     0
  7
Standard
140
0.18
170
     5
 62
     0
 63
     7
283
     0
 90
      512
 91
        0
  1

274
    -2
284
     1
 64
     0
275
    -2
285
     1
 65
     0
276
    -2
286
     1
 66
     0
277
    -2
287
     1
 67
     0
278
    -2
288
     1
 68
     0
279
    -2
289
     1
 69
     0
  0
VISUALSTYLE
  5
2F
102
{ACAD_REACTORS
330
29
102
}
330
29
100
AcDbVisualStyle
  2
2dWireframe
 70
     4
177
     3
291
     0
 70
    58
 90
        0
176
     1
 90
        2
176
     1
 90
        0
176
     1
 90
        0
176
     1
 40
0.6
176
     1
 40
30.0
176
     1
 62
     7
420
 16777215
176
     1
 90
        1
176
     1
 90
        4
176
     1
 62
     7
176
     1
 62
   257
176
     1
 90
        1
176
     1
 90
        1
176
     1
 40
1.0
176
     1
 90
        0
176
     1
 62
   257
176
     1
 40
1.0
176
     1
 90
        1
176
     1
 90
        6
176
     1
 90
        2
176
     1
 62
     7
176
     1
 90
        5
176
     1
 90
        0
176
     1
 90
        0
176
     1
290
     0
176
     1
 90
        1
176
     1
 40
0.0
176
     1
 90
        0
176
     1
290
     1
176
     1
290
     1
176
     1
290
     0
176
     1
290
     0
176
     1
290
     0
176
     1
290
     0
176
     1
290
     0
176
     1
290
     0
176
     1
290
     0
176
     1
 90
       50
176
     1
 40
0.0
176
     1
 40
1.0
176
     1
 90
        0
176
     1
 62
    18
420
        0
176
     1
 90
       50
176
     1
 90
        3
176
     1
 62
     5
420
      255
176
     1
290
     0
176
     1
 90
       50
176
     1
 90
       50
176
     1
 90
       50
176
     1
290
     0
176
     1
 90
       50
176
     1
 62
   256
176
     0
 40
1.0
176
     0
 90
        2
176
     1
  1
strokes_ogs.tif
176
     1
290
     0
176
     1
 40
1.0
176
     1
 40
1.0
176
     1
  0
VISUALSTYLE
  5
2E
102
{ACAD_REACTORS
330
29
102
}
330
29
100
AcDbVisualStyle
  2
Basic
 70
     7
177
     3
291
     1
 70
    58
 90
        1
176
     1
 90
        0
176
     1
 90
        1
176
     1
 90
        0
176
     1
 40
0.6
176
     1
 40
30.0
176
     1
 62
     7
420
 16777215
176
     1
 90
        0
176
     1
 90
        4
176
     1
 62
     7
176
     1
 62
   257
176
     1
 90
        1
176
     1
 90
        1
176
     1
 40
1.0
176
     1
 90
        8
176
     1
 62
     7
176
     1
 40
1.0
176
     1
 90
        1
176
     1
 90
        6
176
     1
 90
        2
176
     1
 62
     7
176
     1
 90
        5
176
     1
 90
        0
176
     1
 90
        0
176
     1
290
     0
176
     1
 90
        1
176
     1
 40
0.0
176
     1
 90
        0
176
     1
290
     0
176
     1
290
     1
176
     1
290
     1
176
     1
290
     0
176
     1
290
     0
176
     1
290
     0
176
     1
290
     0
176
     1
290
     0
176
     1
290
     0
176
     1
 90
       50
176
     1
 40
0.0
176
     1
 40
1.0
176
     1
 90
        0
176
     1
 62
    18
420
        0
176
     1
 90
       50
176
     1
 90
        3
176
     1
 62
     5
420
      255
176
     1
290
     0
176
     1
 90
       50
176
     1
 90
       50
176
     1
 90
       50
176
     1
290
     0
176
     1
 90
       50
176
     1
 62
   256
176
     0
 40
1.0
176
     0
 90
        2
176
     1
  1
strokes_ogs.tif
176
     1
290
     0
176
     1
 40
1.0
176
     1
 40
1.0
176
     1
  0
VISUALSTYLE
  5
35
102
{ACAD_REACTORS
330
29
102
}
330
29
100
AcDbVisualStyle
  2
Brighten
 70
    12
177
     3
291
     1
 70
    58
 90
        2
176
     1
 90
        2
176
     1
 90
        0
176
     1
 90
        0
176
     1
 40
0.6
176
     1
 40
30.0
176
     1
 62
     7
420
 16777215
176
     1
 90
        1
176
     1
 90
        4
176
     1
 62
     7
176
     1
 62
   257
176
     1
 90
        1
176
     1
 90
        1
176
     1
 40
1.0
176
     1
 90
        8
176
     1
 62
     7
176
     1
 40
1.0
176
     1
 90
        1
176
     1
 90
        6
176
     1
 90
        2
176
     1
 62
     7
176
     1
 90
        5
176
     1
 90
        0
176
     1
 90
        0
176
     1
290
     0
176
     1
 90
        1
176
     1
 40
50.0
176
     1
 90
        0
176
     1
290
     0
176
     1
290
     1
176
     1
290
     1
176
     1
290
     0
176
     1
290
     0
176
     1
290
     0
176
     1
290
     0
176
     1
290
     0
176
     1
290
     0
176
     1
 90
       50
176
     1
 40
0.0
176
     1
 40
1.0
176
     1
 90
        0
176
     1
 62
    18
420
        0
176
     1
 90
       50
176
     1
 90
        3
176
     1
 62
     5
420
      255
176
     1
290
     0
176
     1
 90
       50
176
     1
 90
       50
176
     1
 90
       50
176
     1
290
     0
176
     1
 90
       50
176
     1
 62
   256
176
     0
 40
1.0
176
     0
 90
        2
176
     1
  1
strokes_ogs.tif
176
     1
290
     0
176
     1
 40
1.0
176
     1
 40
1.0
176
     1
  0
VISUALSTYLE
  5
39
102
{ACAD_REACTORS
330
29
102
}
330
29
100
AcDbVisualStyle
  2
ColorChange
 70
    16
177
     3
291
     1
 70
    58
 90
        2
176
     1
 90
        2
176
     1
 90
        3
176
     1
 90
        0
176
     1
 40
0.6
176
     1
 40
30.0
176
     1
 62
     8
420
  8421504
176
     1
 90
        1
176
     1
 90
        4
176
     1
 62
     7
176
     1
 62
   257
176
     1
 90
        1
176
     1
 90
        1
176
     1
 40
1.0
176
     1
 90
        8
176
     1
 62
     8
420
  8421504
176
     1
 40
1.0
176
     1
 90
        1
176
     1
 90
        6
176
     1
 90
        2
176
     1
 62
     7
176
     1
 90
        5
176
     1
 90
        0
176
     1
 90
        0
176
     1
290
     0
176
     1
 90
        1
176
     1
 40
0.0
176
     1
 90
        0
176
     1
290
     0
176
     1
290
     1
176
     1
290
     1
176
     1
290
     0
176
     1
290
     0
176
     1
290
     0
176
     1
290
     0
176
     1
290
     0
176
     1
290
     0
176
     1
 90
       50
176
     1
 40
0.0
176
     1
 40
1.0
176
     1
 90
        0
176
     1
 62
    18
420
        0
176
     1
 90
       50
176
     1
 90
        3
176
     1
 62
     5
420
      255
176
     1
290
     0
176
     1
 90
       50
176
     1
 90
       50
176
     1
 90
       50
176
     1
290
     0
176
     1
 90
       50
176
     1
 62
   256
176
     0
 40
1.0
176
     0
 90
        2
176
     1
  1
strokes_ogs.tif
176
     1
290
     0
176
     1
 40
1.0
176
     1
 40
1.0
176
     1
  0
VISUALSTYLE
  5
32
102
{ACAD_REACTORS
330
29
102
}
330
29
100
AcDbVisualStyle
  2
Conceptual
 70
     9
177
     3
291
     0
 70
    58
 90
        3
176
     1
 90
        2
176
     1
 90
        0
176
     1
 90
        0
176
     1
 40
0.6
176
     1
 40
30.0
176
     1
 62
     7
420
 16777215
176
     1
 90
        2
176
     1
 90
        2
176
     1
 62
     7
176
     1
 62
   257
176
     1
 90
        1
176
     1
 90
        1
176
     1
 40
179.0
176
     1
 90
        8
176
     1
 62
     7
176
     1
 40
1.0
176
     1
 90
        1
176
     1
 90
        6
176
     1
 90
        2
176
     1
 62
     7
176
     1
 90
        3
176
     1
 90
        0
176
     1
 90
        0
176
     1
290
     0
176
     1
 90
        1
176
     1
 40
0.0
176
     1
 90
        0
176
     1
290
     0
176
     1
290
     1
176
     1
290
     1
176
     1
290
     0
176
     1
290
     0
176
     1
290
     0
176
     1
290
     0
176
     1
290
     0
176
     1
290
     0
176
     1
 90
       50
176
     1
 40
0.0
176
     1
 40
1.0
176
     1
 90
        0
176
     1
 62
    18
420
        0
176
     1
 90
       50
176
     1
 90
        3
176
     1
 62
     5
420
      255
176
     1
290
     0
176
     1
 90
       50
176
     1
 90
       50
176
     1
 90
       50
176
     1
290
     0
176
     1
 90
       50
176
     1
 62
   256
176
     0
 40
1.0
176
     0
 90
        2
176
     1
  1
strokes_ogs.tif
176
     1
290
     0
176
     1
 40
1.0
176
     1
 40
1.0
176
     1
  0
VISUALSTYLE
  5
34
102
{ACAD_REACTORS
330
29
102
}
330
29
100
AcDbVisualStyle
  2
Dim
 70
    11
177
     3
291
     1
 70
    58
 90
        2
176
     1
 90
        2
176
     1
 90
        0
176
     1
 90
        0
176
     1
 40
0.6
176
     1
 40
30.0
176
     1
 62
     7
420
 16777215
176
     1
 90
        1
176
     1
 90
        4
176
     1
 62
     7
176
     1
 62
   257
176
     1
 90
        1
176
     1
 90
        1
176
     1
 40
1.0
176
     1
 90
        8
176
     1
 62
     7
176
     1
 40
1.0
176
     1
 90
        1
176
     1
 90
        6
176
     1
 90
        2
176
     1
 62
     7
176
     1
 90
        5
176
     1
 90
        0
176
     1
 90
        0
176
     1
290
     0
176
     1
 90
        1
176
     1
 40
-50.0
176
     1
 90
        0
176
     1
290
     0
176
     1
290
     1
176
     1
290
     1
176
     1
290
     0
176
     1
290
     0
176
     1
290
     0
176
     1
290
     0
176
     1
290
     0
176
     1
290
     0
176
     1
 90
       50
176
     1
 40
0.0
176
     1
 40
1.0
176
     1
 90
        0
176
     1
 62
    18
420
        0
176
     1
 90
       50
176
     1
 90
        3
176
     1
 62
     5
420
      255
176
     1
290
     0
176
     1
 90
       50
176
     1
 90
       50
176
     1
 90
       50
176
     1
290
     0
176
     1
 90
       50
176
     1
 62
   256
176
     0
 40
1.0
176
     0
 90
        2
176
     1
  1
strokes_ogs.tif
176
     1
290
     0
176
     1
 40
1.0
176
     1
 40
1.0
176
     1
  0
VISUALSTYLE
  5
41
102
{ACAD_REACTORS
330
29
102
}
330
29
100
AcDbVisualStyle
  2
EdgeColorOff
 70
    22
177
     3
291
     1
 70
    58
 90
        2
176
     0
 90
        2
176
     0
 90
        0
176
     0
 90
        0
176
     0
 40
0.6
176
     0
 40
30.0
176
     0
 62
     7
420
 16777215
176
     0
 90
        1
176
     0
 90
        4
176
     0
 62
     7
176
     0
 62
   257
176
     0
 90
        1
176
     0
 90
        1
176
     0
 40
1.0
176
     0
 90
        8
176
     2
 62
     7
176
     0
 40
1.0
176
     0
 90
        1
176
     0
 90
        6
176
     0
 90
        2
176
     0
 62
     7
176
     0
 90
        5
176
     0
 90
        0
176
     0
 90
        0
176
     0
290
     0
176
     0
 90
        1
176
     0
 40
0.0
176
     0
 90
        0
176
     0
290
     0
176
     0
290
     1
176
     0
290
     1
176
     0
290
     0
176
     0
290
     0
176
     0
290
     0
176
     0
290
     0
176
     0
290
     0
176
     0
290
     0
176
     0
 90
       50
176
     0
 40
0.0
176
     0
 40
1.0
176
     0
 90
        0
176
     0
 62
    18
420
        0
176
     0
 90
       50
176
     0
 90
        3
176
     0
 62
     5
420
      255
176
     0
290
     0
176
     0
 90
       50
176
     0
 90
       50
176
     0
 90
       50
176
     0
290
     0
176
     0
 90
       50
176
     0
 62
   256
176
     0
 40
1.0
176
     0
 90
        2
176
     0
  1
strokes_ogs.tif
176
     0
290
     0
176
     0
 40
1.0
176
     0
 40
1.0
176
     0
  0
VISUALSTYLE
  5
38
102
{ACAD_REACTORS
330
29
102
}
330
29
100
AcDbVisualStyle
  2
Facepattern
 70
    15
177
     3
291
     1
 70
    58
 90
        2
176
     1
 90
        2
176
     1
 90
        0
176
     1
 90
        0
176
     1
 40
0.6
176
     1
 40
30.0
176
     1
 62
     7
420
 16777215
176
     1
 90
        1
176
     1
 90
        4
176
     1
 62
     7
176
     1
 62
   257
176
     1
 90
        1
176
     1
 90
        1
176
     1
 40
1.0
176
     1
 90
        8
176
     1
 62
     7
176
     1
 40
1.0
176
     1
 90
        1
176
     1
 90
        6
176
     1
 90
        2
176
     1
 62
     7
176
     1
 90
        5
176
     1
 90
        0
176
     1
 90
        0
176
     1
290
     0
176
     1
 90
        1
176
     1
 40
0.0
176
     1
 90
        0
176
     1
290
     0
176
     1
290
     1
176
     1
290
     1
176
     1
290
     0
176
     1
290
     0
176
     1
290
     0
176
     1
290
     0
176
     1
290
     0
176
     1
290
     0
176
     1
 90
       50
176
     1
 40
0.0
176
     1
 40
1.0
176
     1
 90
        0
176
     1
 62
    18
420
        0
176
     1
 90
       50
176
     1
 90
        3
176
     1
 62
     5
420
      255
176
     1
290
     0
176
     1
 90
       50
176
     1
 90
       50
176
     1
 90
       50
176
     1
290
     0
176
     1
 90
       50
176
     1
 62
   256
176
     0
 40
1.0
176
     0
 90
        2
176
     1
  1
strokes_ogs.tif
176
     1
290
     0
176
     1
 40
1.0
176
     1
 40
1.0
176
     1
  0
VISUALSTYLE
  5
2A
102
{ACAD_REACTORS
330
29
102
}
330
29
100
AcDbVisualStyle
  2
Flat
 70
     0
177
     3
291
     1
 70
    58
 90
        2
176
     1
 90
        1
176
     1
 90
        1
176
     1
 90
        2
176
     1
 40
0.6
176
     1
 40
30.0
176
     1
 62
     7
420
 16777215
176
     1
 90
        0
176
     1
 90
        0
176
     1
 62
     7
176
     1
 62
   257
176
     1
 90
        1
176
     1
 90
        1
176
     1
 40
1.0
176
     1
 90
        8
176
     1
 62
     7
176
     1
 40
1.0
176
     1
 90
        1
176
     1
 90
        6
176
     1
 90
        2
176
     1
 62
     7
176
     1
 90
        5
176
     1
 90
        0
176
     1
 90
        0
176
     1
290
     0
176
     1
 90
       13
176
     1
 40
0.0
176
     1
 90
        0
176
     1
290
     0
176
     1
290
     1
176
     1
290
     1
176
     1
290
     0
176
     1
290
     0
176
     1
290
     0
176
     1
290
     0
176
     1
290
     0
176
     1
290
     0
176
     1
 90
       50
176
     1
 40
0.0
176
     1
 40
1.0
176
     1
 90
        0
176
     1
 62
    18
420
        0
176
     1
 90
       50
176
     1
 90
        3
176
     1
 62
     5
420
      255
176
     1
290
     0
176
     1
 90
       50
176
     1
 90
       50
176
     1
 90
       50
176
     1
290
     0
176
     1
 90
       50
176
     1
 62
   256
176
     0
 40
1.0
176
     0
 90
        2
176
     1
  1
strokes_ogs.tif
176
     1
290
     0
176
     1
 40
1.0
176
     1
 40
1.0
176
     1
  0
VISUALSTYLE
  5
2B
102
{ACAD_REACTORS
330
29
102
}
330
29
100
AcDbVisualStyle
  2
FlatWithEdges
 70
     1
177
     3
291
     1
 70
    58
 90
        2
176
     1
 90
        1
176
     1
 90
        1
176
     1
 90
        2
176
     1
 40
0.6
176
     1
 40
30.0
176
     1
 62
     7
420
 16777215
176
     1
 90
        1
176
     1
 90
        0
176
     1
 62
     7
176
     1
 62
   257
176
     1
 90
        1
176
     1
 90
        1
176
     1
 40
1.0
176
     1
 90
        0
176
     1
 62
   257
176
     1
 40
1.0
176
     1
 90
        1
176
     1
 90
        6
176
     1
 90
        2
176
     1
 62
     7
176
     1
 90
        5
176
     1
 90
        0
176
     1
 90
        0
176
     1
290
     0
176
     1
 90
       13
176
     1
 40
0.0
176
     1
 90
        0
176
     1
290
     0
176
     1
290
     1
176
     1
290
     1
176
     1
290
     0
176
     1
290
     0
176
     1
290
     0
176
     1
290
     0
176
     1
290
     0
176
     1
290
     0
176
     1
 90
       50
176
     1
 40
0.0
176
     1
 40
1.0
176
     1
 90
        0
176
     1
 62
    18
420
        0
176
     1
 90
       50
176
     1
 90
        3
176
     1
 62
     5
420
      255
176
     1
290
     0
176
     1
 90
       50
176
     1
 90
       50
176
     1
 90
       50
176
     1
290
     0
176
     1
 90
       50
176
     1
 62
   256
176
     0
 40
1.0
176
     0
 90
        2
176
     1
  1
strokes_ogs.tif
176
     1
290
     0
176
     1
 40
1.0
176
     1
 40
1.0
176
     1
  0
VISUALSTYLE
  5
2C
102
{ACAD_REACTORS
330
29
102
}
330
29
100
AcDbVisualStyle
  2
Gouraud
 70
     2
177
     3
291
     1
 70
    58
 90
        2
176
     1
 90
        2
176
     1
 90
        1
176
     1
 90
        2
176
     1
 40
0.6
176
     1
 40
30.0
176
     1
 62
     7
420
 16777215
176
     1
 90
        0
176
     1
 90
        0
176
     1
 62
     7
176
     1
 62
   257
176
     1
 90
        1
176
     1
 90
        1
176
     1
 40
1.0
176
     1
 90
        0
176
     1
 62
     7
176
     1
 40
1.0
176
     1
 90
        1
176
     1
 90
        6
176
     1
 90
        2
176
     1
 62
     7
176
     1
 90
        5
176
     1
 90
        0
176
     1
 90
        0
176
     1
290
     0
176
     1
 90
       13
176
     1
 40
0.0
176
     1
 90
        0
176
     1
290
     0
176
     1
290
     1
176
     1
290
     1
176
     1
290
     0
176
     1
290
     0
176
     1
290
     0
176
     1
290
     0
176
     1
290
     0
176
     1
290
     0
176
     1
 90
       50
176
     1
 40
0.0
176
     1
 40
1.0
176
     1
 90
        0
176
     1
 62
    18
420
        0
176
     1
 90
       50
176
     1
 90
        3
176
     1
 62
     5
420
      255
176
     1
290
     0
176
     1
 90
       50
176
     1
 90
       50
176
     1
 90
       50
176
     1
290
     0
176
     1
 90
       50
176
     1
 62
   256
176
     0
 40
1.0
176
     0
 90
        2
176
     1
  1
strokes_ogs.tif
176
     1
290
     0
176
     1
 40
1.0
176
     1
 40
1.0
176
     1
  0
VISUALSTYLE
  5
2D
102
{ACAD_REACTORS
330
29
102
}
330
29
100
AcDbVisualStyle
  2
GouraudWithEdges
 70
     3
177
     3
291
     1
 70
    58
 90
        2
176
     1
 90
        2
176
     1
 90
        1
176
     1
 90
        2
176
     1
 40
0.6
176
     1
 40
30.0
176
     1
 62
     7
420
 16777215
176
     1
 90
        1
176
     1
 90
        0
176
     1
 62
     7
176
     1
 62
   257
176
     1
 90
        1
176
     1
 90
        1
176
     1
 40
1.0
176
     1
 90
        0
176
     1
 62
   257
176
     1
 40
1.0
176
     1
 90
        1
176
     1
 90
        6
176
     1
 90
        2
176
     1
 62
     7
176
     1
 90
        5
176
     1
 90
        0
176
     1
 90
        0
176
     1
290
     0
176
     1
 90
       13
176
     1
 40
0.0
176
     1
 90
        0
176
     1
290
     0
176
     1
290
     1
176
     1
290
     1
176
     1
290
     0
176
     1
290
     0
176
     1
290
     0
176
     1
290
     0
176
     1
290
     0
176
     1
290
     0
176
     1
 90
       50
176
     1
 40
0.0
176
     1
 40
1.0
176
     1
 90
        0
176
     1
 62
    18
420
        0
176
     1
 90
       50
176
     1
 90
        3
176
     1
 62
     5
420
      255
176
     1
290
     0
176
     1
 90
       50
176
     1
 90
       50
176
     1
 90
       50
176
     1
290
     0
176
     1
 90
       50
176
     1
 62
   256
176
     0
 40
1.0
176
     0
 90
        2
176
     1
  1
strokes_ogs.tif
176
     1
290
     0
176
     1
 40
1.0
176
     1
 40
1.0
176
     1
  0
VISUALSTYLE
  5
31
102
{ACAD_REACTORS
330
29
102
}
330
29
100
AcDbVisualStyle
  2
Hidden
 70
     6
177
     3
291
     0
 70
    58
 90
        1
176
     1
 90
        2
176
     1
 90
        2
176
     1
 90
        0
176
     1
 40
0.6
176
     1
 40
30.0
176
     1
 62
     7
420
 16777215
176
     1
 90
        2
176
     1
 90
        2
176
     1
 62
     7
176
     1
 62
   257
176
     1
 90
        2
176
     1
 90
        1
176
     1
 40
40.0
176
     1
 90
        0
176
     1
 62
   257
176
     1
 40
1.0
176
     1
 90
        1
176
     1
 90
        6
176
     1
 90
        2
176
     1
 62
     7
176
     1
 90
        3
176
     1
 90
        0
176
     1
 90
        0
176
     1
290
     0
176
     1
 90
        1
176
     1
 40
0.0
176
     1
 90
        0
176
     1
290
     0
176
     1
290
     1
176
     1
290
     1
176
     1
290
     0
176
     1
290
     0
176
     1
290
     0
176
     1
290
     0
176
     1
290
     0
176
     1
290
     0
176
     1
 90
       50
176
     1
 40
0.0
176
     1
 40
1.0
176
     1
 90
        0
176
     1
 62
    18
420
        0
176
     1
 90
       50
176
     1
 90
        3
176
     1
 62
     5
420
      255
176
     1
290
     0
176
     1
 90
       50
176
     1
 90
       50
176
     1
 90
       50
176
     1
290
     0
176
     1
 90
       50
176
     1
 62
   256
176
     0
 40
1.0
176
     0
 90
        2
176
     1
  1
strokes_ogs.tif
176
     1
290
     0
176
     1
 40
1.0
176
     1
 40
1.0
176
     1
  0
VISUALSTYLE
  5
3F
102
{ACAD_REACTORS
330
29
102
}
330
29
100
AcDbVisualStyle
  2
JitterOff
 70
    20
177
     3
291
     1
 70
    58
 90
        2
176
     0
 90
        2
176
     0
 90
        0
176
     0
 90
        0
176
     0
 40
0.6
176
     0
 40
30.0
176
     0
 62
     7
420
 16777215
176
     0
 90
        1
176
     0
 90
        4
176
     0
 62
     7
176
     0
 62
   257
176
     0
 90
        1
176
     0
 90
        1
176
     0
 40
1.0
176
     0
 90
       10
176
     2
 62
     7
176
     0
 40
1.0
176
     0
 90
        1
176
     0
 90
        6
176
     0
 90
        2
176
     0
 62
     7
176
     0
 90
        5
176
     0
 90
        0
176
     0
 90
        0
176
     0
290
     0
176
     0
 90
        1
176
     0
 40
0.0
176
     0
 90
        0
176
     0
290
     0
176
     0
290
     1
176
     0
290
     1
176
     0
290
     0
176
     0
290
     0
176
     0
290
     0
176
     0
290
     0
176
     0
290
     0
176
     0
290
     0
176
     0
 90
       50
176
     0
 40
0.0
176
     0
 40
1.0
176
     0
 90
        0
176
     0
 62
    18
420
        0
176
     0
 90
       50
176
     0
 90
        3
176
     0
 62
     5
420
      255
176
     0
290
     0
176
     0
 90
       50
176
     0
 90
       50
176
     0
 90
       50
176
     0
290
     0
176
     0
 90
       50
176
     0
 62
   256
176
     0
 40
1.0
176
     0
 90
        2
176
     0
  1
strokes_ogs.tif
176
     0
290
     0
176
     0
 40
1.0
176
     0
 40
1.0
176
     0
  0
VISUALSTYLE
  5
37
102
{ACAD_REACTORS
330
29
102
}
330
29
100
AcDbVisualStyle
  2
Linepattern
 70
    14
177
     3
291
     1
 70
    58
 90
        2
176
     1
 90
        2
176
     1
 90
        0
176
     1
 90
        0
176
     1
 40
0.6
176
     1
 40
30.0
176
     1
 62
     7
420
 16777215
176
     1
 90
        1
176
     1
 90
        4
176
     1
 62
     7
176
     1
 62
   257
176
     1
 90
        7
176
     1
 90
        7
176
     1
 40
1.0
176
     1
 90
        8
176
     1
 62
     7
176
     1
 40
1.0
176
     1
 90
        1
176
     1
 90
        6
176
     1
 90
        2
176
     1
 62
     7
176
     1
 90
        5
176
     1
 90
        0
176
     1
 90
        0
176
     1
290
     0
176
     1
 90
        1
176
     1
 40
0.0
176
     1
 90
        0
176
     1
290
     0
176
     1
290
     1
176
     1
290
     1
176
     1
290
     0
176
     1
290
     0
176
     1
290
     0
176
     1
290
     0
176
     1
290
     0
176
     1
290
     0
176
     1
 90
       50
176
     1
 40
0.0
176
     1
 40
1.0
176
     1
 90
        0
176
     1
 62
    18
420
        0
176
     1
 90
       50
176
     1
 90
        3
176
     1
 62
     5
420
      255
176
     1
290
     0
176
     1
 90
       50
176
     1
 90
       50
176
     1
 90
       50
176
     1
290
     0
176
     1
 90
       50
176
     1
 62
   256
176
     0
 40
1.0
176
     0
 90
        2
176
     1
  1
strokes_ogs.tif
176
     1
290
     0
176
     1
 40
1.0
176
     1
 40
1.0
176
     1
  0
VISUALSTYLE
  5
40
102
{ACAD_REACTORS
330
29
102
}
330
29
100
AcDbVisualStyle
  2
OverhangOff
 70
    21
177
     3
291
     1
 70
    58
 90
        2
176
     0
 90
        2
176
     0
 90
        0
176
     0
 90
        0
176
     0
 40
0.6
176
     0
 40
30.0
176
     0
 62
     7
420
 16777215
176
     0
 90
        1
176
     0
 90
        4
176
     0
 62
     7
176
     0
 62
   257
176
     0
 90
        1
176
     0
 90
        1
176
     0
 40
1.0
176
     0
 90
        9
176
     2
 62
     7
176
     0
 40
1.0
176
     0
 90
        1
176
     0
 90
        6
176
     0
 90
        2
176
     0
 62
     7
176
     0
 90
        5
176
     0
 90
        0
176
     0
 90
        0
176
     0
290
     0
176
     0
 90
        1
176
     0
 40
0.0
176
     0
 90
        0
176
     0
290
     0
176
     0
290
     1
176
     0
290
     1
176
     0
290
     0
176
     0
290
     0
176
     0
290
     0
176
     0
290
     0
176
     0
290
     0
176
     0
290
     0
176
     0
 90
       50
176
     0
 40
0.0
176
     0
 40
1.0
176
     0
 90
        0
176
     0
 62
    18
420
        0
176
     0
 90
       50
176
     0
 90
        3
176
     0
 62
     5
420
      255
176
     0
290
     0
176
     0
 90
       50
176
     0
 90
       50
176
     0
 90
       50
176
     0
290
     0
176
     0
 90
       50
176
     0
 62
   256
176
     0
 40
1.0
176
     0
 90
        2
176
     0
  1
strokes_ogs.tif
176
     0
290
     0
176
     0
 40
1.0
176
     0
 40
1.0
176
     0
  0
VISUALSTYLE
  5
33
102
{ACAD_REACTORS
330
29
102
}
330
29
100
AcDbVisualStyle
  2
Realistic
 70
     8
177
     3
291
     0
 70
    58
 90
        2
176
     1
 90
        3
176
     1
 90
        0
176
     1
 90
        2
176
     1
 40
0.6
176
     1
 40
30.0
176
     1
 62
     7
420
 16777215
176
     1
 90
        0
176
     1
 90
        0
176
     1
 62
     7
176
     1
 62
   257
176
     1
 90
        1
176
     1
 90
        1
176
     1
 40
1.0
176
     1
 90
        8
176
     1
 62
   257
176
     1
 40
1.0
176
     1
 90
        1
176
     1
 90
        6
176
     1
 90
        2
176
     1
 62
     7
176
     1
 90
        3
176
     1
 90
        0
176
     1
 90
        0
176
     1
290
     0
176
     1
 90
       13
176
     1
 40
0.0
176
     1
 90
        0
176
     1
290
     0
176
     1
290
     1
176
     1
290
     1
176
     1
290
     0
176
     1
290
     0
176
     1
290
     0
176
     1
290
     0
176
     1
290
     0
176
     1
290
     0
176
     1
 90
       50
176
     1
 40
0.0
176
     1
 40
1.0
176
     1
 90
        0
176
     1
 62
    18
420
        0
176
     1
 90
       50
176
     1
 90
        3
176
     1
 62
     5
420
      255
176
     1
290
     0
176
     1
 90
       50
176
     1
 90
       50
176
     1
 90
       50
176
     1
290
     0
176
     1
 90
       50
176
     1
 62
   256
176
     0
 40
1.0
176
     0
 90
        2
176
     1
  1
strokes_ogs.tif
176
     1
290
     0
176
     1
 40
1.0
176
     1
 40
1.0
176
     1
  0
VISUALSTYLE
  5
3E
102
{ACAD_REACTORS
330
29
102
}
330
29
100
AcDbVisualStyle
  2
Shaded
 70
    27
177
     3
291
     0
 70
    58
 90
        2
176
     1
 90
        2
176
     1
 90
        1
176
     1
 90
        2
176
     1
 40
0.6
176
     1
 40
30.0
176
     1
 62
     7
420
 16777215
176
     1
 90
        0
176
     1
 90
        4
176
     1
 62
     7
176
     1
 62
   257
176
     1
 90
        1
176
     1
 90
        1
176
     1
 40
1.0
176
     1
 90
        8
176
     1
 62
   257
176
     1
 40
1.0
176
     1
 90
        1
176
     1
 90
        6
176
     1
 90
        2
176
     1
 62
     8
420
  7895160
176
     1
 90
        3
176
     1
 90
        0
176
     1
 90
        0
176
     1
290
     0
176
     1
 90
        5
176
     1
 40
0.0
176
     1
 90
        0
176
     1
290
     0
176
     1
290
     1
176
     1
290
     1
176
     1
290
     0
176
     1
290
     0
176
     1
290
     0
176
     1
290
     0
176
     1
290
     0
176
     1
290
     0
176
     1
 90
       50
176
     1
 40
0.0
176
     1
 40
1.0
176
     1
 90
        0
176
     1
 62
    18
420
        0
176
     1
 90
       50
176
     1
 90
        3
176
     1
 62
     5
420
      255
176
     1
290
     0
176
     1
 90
       50
176
     1
 90
       50
176
     1
 90
       50
176
     1
290
     0
176
     1
 90
       50
176
     1
 62
   256
176
     0
 40
1.0
176
     0
 90
        2
176
     1
  1
strokes_ogs.tif
176
     1
290
     0
176
     1
 40
1.0
176
     1
 40
1.0
176
     1
  0
VISUALSTYLE
  5
3D
102
{ACAD_REACTORS
330
29
102
}
330
29
100
AcDbVisualStyle
  2
Shaded with edges
 70
    26
177
     3
291
     0
 70
    58
 90
        2
176
     1
 90
        2
176
     1
 90
        1
176
     1
 90
        2
176
     1
 40
0.6
176
     1
 40
30.0
176
     1
 62
     7
420
 16777215
176
     1
 90
        1
176
     1
 90
       10
176
     1
 62
     7
176
     1
 62
   257
176
     1
 90
        2
176
     1
 90
        1
176
     1
 40
1.0
176
     1
 90
        8
176
     1
 62
   257
176
     1
 40
1.0
176
     1
 90
        1
176
     1
 90
        6
176
     1
 90
        2
176
     1
 62
     7
176
     1
 90
        3
176
     1
 90
        0
176
     1
 90
        0
176
     1
290
     0
176
     1
 90
        5
176
     1
 40
0.0
176
     1
 90
        0
176
     1
290
     0
176
     1
290
     1
176
     1
290
     1
176
     1
290
     0
176
     1
290
     0
176
     1
290
     0
176
     1
290
     0
176
     1
290
     0
176
     1
290
     0
176
     1
 90
       50
176
     1
 40
0.0
176
     1
 40
1.0
176
     1
 90
        0
176
     1
 62
    18
420
        0
176
     1
 90
       50
176
     1
 90
        3
176
     1
 62
     5
420
      255
176
     1
290
     0
176
     1
 90
       50
176
     1
 90
       50
176
     1
 90
       50
176
     1
290
     0
176
     1
 90
       50
176
     1
 62
   256
176
     0
 40
1.0
176
     0
 90
        2
176
     1
  1
strokes_ogs.tif
176
     1
290
     0
176
     1
 40
1.0
176
     1
 40
1.0
176
     1
  0
VISUALSTYLE
  5
3A
102
{ACAD_REACTORS
330
29
102
}
330
29
100
AcDbVisualStyle
  2
Shades of Gray
 70
    23
177
     3
291
     0
 70
    58
 90
        2
176
     1
 90
        2
176
     1
 90
        3
176
     1
 90
        0
176
     1
 40
0.6
176
     1
 40
30.0
176
     1
 62
     7
420
 16777215
176
     1
 90
        2
176
     1
 90
        2
176
     1
 62
     7
176
     1
 62
     7
176
     1
 90
        1
176
     1
 90
        1
176
     1
 40
40.0
176
     1
 90
        8
176
     1
 62
     7
176
     1
 40
1.0
176
     1
 90
        1
176
     1
 90
        6
176
     1
 90
        2
176
     1
 62
     7
176
     1
 90
        3
176
     1
 90
        0
176
     1
 90
        0
176
     1
290
     0
176
     1
 90
        1
176
     1
 40
0.0
176
     1
 90
        0
176
     1
290
     0
176
     1
290
     1
176
     1
290
     1
176
     1
290
     0
176
     1
290
     0
176
     1
290
     0
176
     1
290
     0
176
     1
290
     0
176
     1
290
     0
176
     1
 90
       50
176
     1
 40
0.0
176
     1
 40
1.0
176
     1
 90
        0
176
     1
 62
    18
420
        0
176
     1
 90
       50
176
     1
 90
        3
176
     1
 62
     5
420
      255
176
     1
290
     0
176
     1
 90
       50
176
     1
 90
       50
176
     1
 90
       50
176
     1
290
     0
176
     1
 90
       50
176
     1
 62
   256
176
     0
 40
1.0
176
     0
 90
        2
176
     1
  1
strokes_ogs.tif
176
     1
290
     0
176
     1
 40
1.0
176
     1
 40
1.0
176
     1
  0
VISUALSTYLE
  5
3B
102
{ACAD_REACTORS
330
29
102
}
330
29
100
AcDbVisualStyle
  2
Sketchy
 70
    24
177
     3
291
     0
 70
    58
 90
        1
176
     1
 90
        2
176
     1
 90
        2
176
     1
 90
        0
176
     1
 40
0.6
176
     1
 40
30.0
176
     1
 62
     7
420
 16777215
176
     1
 90
        2
176
     1
 90
        2
176
     1
 62
     7
176
     1
 62
     7
176
     1
 90
        1
176
     1
 90
        1
176
     1
 40
40.0
176
     1
 90
       11
176
     1
 62
     7
176
     1
 40
1.0
176
     1
 90
        1
176
     1
 90
        6
176
     1
 90
        2
176
     1
 62
     7
176
     1
 90
        6
176
     1
 90
        0
176
     1
 90
        0
176
     1
290
     0
176
     1
 90
        1
176
     1
 40
0.0
176
     1
 90
        0
176
     1
290
     0
176
     1
290
     1
176
     1
290
     1
176
     1
290
     0
176
     1
290
     0
176
     1
290
     0
176
     1
290
     0
176
     1
290
     0
176
     1
290
     0
176
     1
 90
       50
176
     1
 40
0.0
176
     1
 40
1.0
176
     1
 90
        0
176
     1
 62
    18
420
        0
176
     1
 90
       50
176
     1
 90
        3
176
     1
 62
     5
420
      255
176
     1
290
     0
176
     1
 90
       50
176
     1
 90
       50
176
     1
 90
       50
176
     1
290
     0
176
     1
 90
       50
176
     1
 62
   256
176
     0
 40
1.0
176
     0
 90
        2
176
     1
  1
strokes_ogs.tif
176
     1
290
     0
176
     1
 40
1.0
176
     1
 40
1.0
176
     1
  0
VISUALSTYLE
  5
36
102
{ACAD_REACTORS
330
29
102
}
330
29
100
AcDbVisualStyle
  2
Thicken
 70
    13
177
     3
291
     1
 70
    58
 90
        2
176
     1
 90
        2
176
     1
 90
        0
176
     1
 90
        0
176
     1
 40
0.6
176
     1
 40
30.0
176
     1
 62
     7
420
 16777215
176
     1
 90
        1
176
     1
 90
        4
176
     1
 62
     7
176
     1
 62
   257
176
     1
 90
        1
176
     1
 90
        1
176
     1
 40
1.0
176
     1
 90
       12
176
     1
 62
     7
176
     1
 40
1.0
176
     1
 90
        1
176
     1
 90
        6
176
     1
 90
        2
176
     1
 62
     7
176
     1
 90
        5
176
     1
 90
        0
176
     1
 90
        0
176
     1
290
     0
176
     1
 90
        1
176
     1
 40
0.0
176
     1
 90
        0
176
     1
290
     0
176
     1
290
     1
176
     1
290
     1
176
     1
290
     0
176
     1
290
     0
176
     1
290
     0
176
     1
290
     0
176
     1
290
     0
176
     1
290
     0
176
     1
 90
       50
176
     1
 40
0.0
176
     1
 40
1.0
176
     1
 90
        0
176
     1
 62
    18
420
        0
176
     1
 90
       50
176
     1
 90
        3
176
     1
 62
     5
420
      255
176
     1
290
     0
176
     1
 90
       50
176
     1
 90
       50
176
     1
 90
       50
176
     1
290
     0
176
     1
 90
       50
176
     1
 62
   256
176
     0
 40
1.0
176
     0
 90
        2
176
     1
  1
strokes_ogs.tif
176
     1
290
     0
176
     1
 40
1.0
176
     1
 40
1.0
176
     1
  0
VISUALSTYLE
  5
30
102
{ACAD_REACTORS
330
29
102
}
330
29
100
AcDbVisualStyle
  2
Wireframe
 70
     5
177
     3
291
     0
 70
    58
 90
        0
176
     1
 90
        2
176
     1
 90
        0
176
     1
 90
        0
176
     1
 40
0.6
176
     1
 40
30.0
176
     1
 62
     7
420
 16777215
176
     1
 90
        1
176
     1
 90
        4
176
     1
 62
     7
176
     1
 62
   257
176
     1
 90
        1
176
     1
 90
        1
176
     1
 40
1.0
176
     1
 90
        0
176
     1
 62
   257
176
     1
 40
1.0
176
     1
 90
        1
176
     1
 90
        6
176
     1
 90
        2
176
     1
 62
     7
176
     1
 90
        3
176
     1
 90
        0
176
     1
 90
        0
176
     1
290
     0
176
     1
 90
        1
176
     1
 40
0.0
176
     1
 90
        0
176
     1
290
     0
176
     1
290
     1
176
     1
290
     1
176
     1
290
     0
176
     1
290
     0
176
     1
290
     0
176
     1
290
     0
176
     1
290
     0
176
     1
290
     0
176
     1
 90
       50
176
     1
 40
0.0
176
     1
 40
1.0
176
     1
 90
        0
176
     1
 62
    18
420
        0
176
     1
 90
       50
176
     1
 90
        3
176
     1
 62
     5
420
      255
176
     1
290
     0
176
     1
 90
       50
176
     1
 90
       50
176
     1
 90
       50
176
     1
290
     0
176
     1
 90
       50
176
     1
 62
   256
176
     0
 40
1.0
176
     0
 90
        2
176
     1
  1
strokes_ogs.tif
176
     1
290
     0
176
     1
 40
1.0
176
     1
 40
1.0
176
     1
  0
VISUALSTYLE
  5
3C
102
{ACAD_REACTORS
330
29
102
}
330
29
100
AcDbVisualStyle
  2
X-Ray
 70
    25
177
     3
291
     0
 70
    58
 90
        2
176
     1
 90
        2
176
     1
 90
        1
176
     1
 90
        1
176
     1
 40
0.5
176
     1
 40
30.0
176
     1
 62
     7
420
 16777215
176
     1
 90
        1
176
     1
 90
        0
176
     1
 62
     7
176
     1
 62
   257
176
     1
 90
        1
176
     1
 90
        1
176
     1
 40
1.0
176
     1
 90
        8
176
     1
 62
     7
176
     1
 40
1.0
176
     1
 90
        1
176
     1
 90
        6
176
     1
 90
        2
176
     1
 62
     7
176
     1
 90
        3
176
     1
 90
        0
176
     1
 90
        0
176
     1
290
     0
176
     1
 90
       13
176
     1
 40
0.0
176
     1
 90
        0
176
     1
290
     0
176
     1
290
     1
176
     1
290
     1
176
     1
290
     0
176
     1
290
     0
176
     1
290
     0
176
     1
290
     0
176
     1
290
     0
176
     1
290
     0
176
     1
 90
       50
176
     1
 40
0.0
176
     1
 40
1.0
176
     1
 90
        0
176
     1
 62
    18
420
        0
176
     1
 90
       50
176
     1
 90
        3
176
     1
 62
     5
420
      255
176
     1
290
     0
176
     1
 90
       50
176
     1
 90
       50
176
     1
 90
       50
176
     1
290
     0
176
     1
 90
       50
176
     1
 62
   256
176
     0
 40
1.0
176
     0
 90
        2
176
     1
  1
strokes_ogs.tif
176
     1
290
     0
176
     1
 40
1.0
176
     1
 40
1.0
176
     1
  0
DICTIONARYVAR
  5
81
102
{ACAD_REACTORS
330
7C
102
}
330
7C
100
DictionaryVariables
280
     0
  1
1:1
  0
DICTIONARYVAR
  5
7E
102
{ACAD_REACTORS
330
7C
102
}
330
7C
100
DictionaryVariables
280
     0
  1
STANDARD
  0
DICTIONARYVAR
  5
7D
102
{ACAD_REACTORS
330
7C
102
}
330
7C
100
DictionaryVariables
280
     0
  1
STANDARD
  0
DICTIONARYVAR
  5
7F
102
{ACAD_REACTORS
330
7C
102
}
330
7C
100
DictionaryVariables
280
     0
  1
Imperial24
  0
DICTIONARYVAR
  5
80
102
{ACAD_REACTORS
330
7C
102
}
330
7C
100
DictionaryVariables
280
     0
  1
Imperial24
  0
XRECORD
  5
32E
102
{ACAD_REACTORS
330
32A
102
}
330
32A
100
AcDbXrecord
280
     1
  1
BUILDING_ID
  1
Progetto per messa in tavola DXF, DWG
  1
FLOOR_ID
  1
694395
  0
XRECORD
  5
32C
102
{ACAD_REACTORS
330
32A
102
}
330
32A
100
AcDbXrecord
280
     1
  1
-2001160
  1
Apparecchi idraulici
  0
XRECORD
  5
32D
102
{ACAD_REACTORS
330
32A
102
}
330
32A
100
AcDbXrecord
280
     1
  1
923097
  1
Handle
  0
XRECORD
  5
32B
102
{ACAD_REACTORS
330
32A
102
}
330
32A
100
AcDbXrecord
280
     1
  1
946934
  1
Automatic flow rate regulator valve_Caleffi_121 DN15 : 1 1/2''
  0
DICTIONARY
  5
1A
330
19
100
AcDbDictionary
280
     1
281
     1
  3
BUMPTILE
360
1C
  3
DIFFUSETILE
360
1B
  3
OPACITYTILE
360
1F
  3
REFLECTIONTILE
360
1E
  3
REFRACTIONTILE
360
20
  3
SPECULARTILE
360
1D
  0
DICTIONARY
  5
12
330
11
100
AcDbDictionary
280
     1
281
     1
  3
BUMPTILE
360
14
  3
DIFFUSETILE
360
13
  3
OPACITYTILE
360
17
  3
REFLECTIONTILE
360
16
  3
REFRACTIONTILE
360
18
  3
SPECULARTILE
360
15
  0
DICTIONARY
  5
22
330
21
100
AcDbDictionary
280
     1
281
     1
  3
BUMPTILE
360
24
  3
DIFFUSETILE
360
23
  3
OPACITYTILE
360
27
  3
REFLECTIONTILE
360
26
  3
REFRACTIONTILE
360
28
  3
SPECULARTILE
360
25
  0
DICTIONARY
  5
331
330
65
100
AcDbDictionary
280
     1
281
     1
  3
ACAD_ROUNDTRIP_2008_TABLESTYLE_CELLSTYLEMAP
360
332
  0
XRECORD
  5
1C
102
{ACAD_REACTORS
330
1A
102
}
330
1A
100
AcDbXrecord
280
     1
270
     1
271
     1
  0
XRECORD
  5
1B
102
{ACAD_REACTORS
330
1A
102
}
330
1A
100
AcDbXrecord
280
     1
270
     1
271
     1
  0
XRECORD
  5
1F
102
{ACAD_REACTORS
330
1A
102
}
330
1A
100
AcDbXrecord
280
     1
270
     1
271
     1
  0
XRECORD
  5
1E
102
{ACAD_REACTORS
330
1A
102
}
330
1A
100
AcDbXrecord
280
     1
270
     1
271
     1
  0
XRECORD
  5
20
102
{ACAD_REACTORS
330
1A
102
}
330
1A
100
AcDbXrecord
280
     1
270
     1
271
     1
  0
XRECORD
  5
1D
102
{ACAD_REACTORS
330
1A
102
}
330
1A
100
AcDbXrecord
280
     1
270
     1
271
     1
  0
XRECORD
  5
14
102
{ACAD_REACTORS
330
12
102
}
330
12
100
AcDbXrecord
280
     1
270
     1
271
     1
  0
XRECORD
  5
13
102
{ACAD_REACTORS
330
12
102
}
330
12
100
AcDbXrecord
280
     1
270
     1
271
     1
  0
XRECORD
  5
17
102
{ACAD_REACTORS
330
12
102
}
330
12
100
AcDbXrecord
280
     1
270
     1
271
     1
  0
XRECORD
  5
16
102
{ACAD_REACTORS
330
12
102
}
330
12
100
AcDbXrecord
280
     1
270
     1
271
     1
  0
XRECORD
  5
18
102
{ACAD_REACTORS
330
12
102
}
330
12
100
AcDbXrecord
280
     1
270
     1
271
     1
  0
XRECORD
  5
15
102
{ACAD_REACTORS
330
12
102
}
330
12
100
AcDbXrecord
280
     1
270
     1
271
     1
  0
XRECORD
  5
24
102
{ACAD_REACTORS
330
22
102
}
330
22
100
AcDbXrecord
280
     1
270
     1
271
     1
  0
XRECORD
  5
23
102
{ACAD_REACTORS
330
22
102
}
330
22
100
AcDbXrecord
280
     1
270
     1
271
     1
  0
XRECORD
  5
27
102
{ACAD_REACTORS
330
22
102
}
330
22
100
AcDbXrecord
280
     1
270
     1
271
     1
  0
XRECORD
  5
26
102
{ACAD_REACTORS
330
22
102
}
330
22
100
AcDbXrecord
280
     1
270
     1
271
     1
  0
XRECORD
  5
28
102
{ACAD_REACTORS
330
22
102
}
330
22
100
AcDbXrecord
280
     1
270
     1
271
     1
  0
XRECORD
  5
25
102
{ACAD_REACTORS
330
22
102
}
330
22
100
AcDbXrecord
280
     1
270
     1
271
     1
  0
CELLSTYLEMAP
  5
332
102
{ACAD_REACTORS
330
331
102
}
330
331
100
AcDbCellStyleMap
 90
        3
300
CELLSTYLE
  1
TABLEFORMAT_BEGIN
 90
        5
170
     1
 91
        0
 92
    32768
 62
   257
 93
        1
300
CONTENTFORMAT
  1
CONTENTFORMAT_BEGIN
 90
        0
 91
        0
 92
      512
 93
        0
300

 40
0.0
140
1.0
 94
        5
 62
     0
340
55
144
0.25
309
CONTENTFORMAT_END
171
     0
 94
        0
309
TABLEFORMAT_END
  1
CELLSTYLE_BEGIN
 90
        1
 91
        1
300
_TITLE
309
CELLSTYLE_END
300
CELLSTYLE
  1
TABLEFORMAT_BEGIN
 90
        5
170
     1
 91
        0
 92
        0
 62
   257
 93
        1
300
CONTENTFORMAT
  1
CONTENTFORMAT_BEGIN
 90
        0
 91
        0
 92
      512
 93
        0
300

 40
0.0
140
1.0
 94
        5
 62
     0
340
55
144
0.18
309
CONTENTFORMAT_END
171
     0
 94
        0
309
TABLEFORMAT_END
  1
CELLSTYLE_BEGIN
 90
        2
 91
        1
300
_HEADER
309
CELLSTYLE_END
300
CELLSTYLE
  1
TABLEFORMAT_BEGIN
 90
        5
170
     1
 91
        0
 92
        0
 62
   257
 93
        1
300
CONTENTFORMAT
  1
CONTENTFORMAT_BEGIN
 90
        0
 91
        0
 92
      512
 93
        0
300

 40
0.0
140
1.0
 94
        2
 62
     0
340
55
144
0.18
309
CONTENTFORMAT_END
171
     0
 94
        0
309
TABLEFORMAT_END
  1
CELLSTYLE_BEGIN
 90
        3
 91
        2
300
_DATA
309
CELLSTYLE_END
  0
ENDSEC
  0
EOF
