  0
SECTION
  2
HEADER
  9
$ACADVER
  1
AC1027
  9
$ACADMAINTVER
 70
    20
  9
$DWGCODEPAGE
  3
ANSI_1252
  9
$REQUIREDVERSIONS
160
                 0
  9
$INSBASE
 10
0.0
 20
0.0
 30
0.0
  9
$EXTMIN
 10
747.6148455245812
 20
1779.24587872007
 30
-0.00000001
  9
$EXTMAX
 10
1154.114353953079
 20
2113.626852377518
 30
0.00000001
  9
$LIMMIN
 10
0.0
 20
0.0
  9
$LIMMAX
 10
12.0
 20
9.0
  9
$ORTHOMODE
 70
     0
  9
$REGENMODE
 70
     1
  9
$FILLMODE
 70
     1
  9
$QTEXTMODE
 70
     0
  9
$MIRRTEXT
 70
     0
  9
$LTSCALE
 40
1.0
  9
$ATTMODE
 70
     1
  9
$TEXTSIZE
 40
0.2
  9
$TRACEWID
 40
0.05
  9
$TEXTSTYLE
  7
Standard
  9
$CLAYER
  8
0
  9
$CELTYPE
  6
ByLayer
  9
$CECOLOR
 62
   256
  9
$CELTSCALE
 40
1.0
  9
$DISPSILH
 70
     0
  9
$DIMSCALE
 40
1.0
  9
$DIMASZ
 40
0.18
  9
$DIMEXO
 40
0.0625
  9
$DIMDLI
 40
0.38
  9
$DIMRND
 40
0.0
  9
$DIMDLE
 40
0.0
  9
$DIMEXE
 40
0.18
  9
$DIMTP
 40
0.0
  9
$DIMTM
 40
0.0
  9
$DIMTXT
 40
0.18
  9
$DIMCEN
 40
0.09
  9
$DIMTSZ
 40
0.0
  9
$DIMTOL
 70
     0
  9
$DIMLIM
 70
     0
  9
$DIMTIH
 70
     1
  9
$DIMTOH
 70
     1
  9
$DIMSE1
 70
     0
  9
$DIMSE2
 70
     0
  9
$DIMTAD
 70
     0
  9
$DIMZIN
 70
     0
  9
$DIMBLK
  1

  9
$DIMASO
 70
     1
  9
$DIMSHO
 70
     1
  9
$DIMPOST
  1

  9
$DIMAPOST
  1

  9
$DIMALT
 70
     0
  9
$DIMALTD
 70
     2
  9
$DIMALTF
 40
25.4
  9
$DIMLFAC
 40
1.0
  9
$DIMTOFL
 70
     0
  9
$DIMTVP
 40
0.0
  9
$DIMTIX
 70
     0
  9
$DIMSOXD
 70
     0
  9
$DIMSAH
 70
     0
  9
$DIMBLK1
  1

  9
$DIMBLK2
  1

  9
$DIMSTYLE
  2
Standard
  9
$DIMCLRD
 70
     0
  9
$DIMCLRE
 70
     0
  9
$DIMCLRT
 70
     0
  9
$DIMTFAC
 40
1.0
  9
$DIMGAP
 40
0.09
  9
$DIMJUST
 70
     0
  9
$DIMSD1
 70
     0
  9
$DIMSD2
 70
     0
  9
$DIMTOLJ
 70
     1
  9
$DIMTZIN
 70
     0
  9
$DIMALTZ
 70
     0
  9
$DIMALTTZ
 70
     0
  9
$DIMUPT
 70
     0
  9
$DIMDEC
 70
     4
  9
$DIMTDEC
 70
     4
  9
$DIMALTU
 70
     2
  9
$DIMALTTD
 70
     2
  9
$DIMTXSTY
  7
Standard
  9
$DIMAUNIT
 70
     0
  9
$DIMADEC
 70
     0
  9
$DIMALTRND
 40
0.0
  9
$DIMAZIN
 70
     0
  9
$DIMDSEP
 70
    46
  9
$DIMATFIT
 70
     3
  9
$DIMFRAC
 70
     0
  9
$DIMLDRBLK
  1

  9
$DIMLUNIT
 70
     2
  9
$DIMLWD
 70
    -2
  9
$DIMLWE
 70
    -2
  9
$DIMTMOVE
 70
     0
  9
$DIMFXL
 40
1.0
  9
$DIMFXLON
 70
     0
  9
$DIMJOGANG
 40
0.7853981633974483
  9
$DIMTFILL
 70
     0
  9
$DIMTFILLCLR
 70
     0
  9
$DIMARCSYM
 70
     0
  9
$DIMLTYPE
  6

  9
$DIMLTEX1
  6

  9
$DIMLTEX2
  6

  9
$DIMTXTDIRECTION
 70
     0
  9
$LUNITS
 70
     2
  9
$LUPREC
 70
     4
  9
$SKETCHINC
 40
0.1
  9
$FILLETRAD
 40
0.0
  9
$AUNITS
 70
     0
  9
$AUPREC
 70
     0
  9
$MENU
  1
.
  9
$ELEVATION
 40
0.0
  9
$PELEVATION
 40
0.0
  9
$THICKNESS
 40
0.0
  9
$LIMCHECK
 70
     0
  9
$CHAMFERA
 40
0.0
  9
$CHAMFERB
 40
0.0
  9
$CHAMFERC
 40
0.0
  9
$CHAMFERD
 40
0.0
  9
$SKPOLY
 70
     0
  9
$TDCREATE
 40
2457571.429705289
  9
$TDUCREATE
 40
2457571.346371956
  9
$TDUPDATE
 40
2457571.429705289
  9
$TDUUPDATE
 40
2457571.346371956
  9
$TDINDWG
 40
0.0000204977
  9
$TDUSRTIMER
 40
0.0000204977
  9
$USRTIMER
 70
     1
  9
$ANGBASE
 50
0.0
  9
$ANGDIR
 70
     0
  9
$PDMODE
 70
     0
  9
$PDSIZE
 40
0.0
  9
$PLINEWID
 40
0.0
  9
$SPLFRAME
 70
     0
  9
$SPLINETYPE
 70
     6
  9
$SPLINESEGS
 70
     8
  9
$HANDSEED
  5
3B8
  9
$SURFTAB1
 70
     6
  9
$SURFTAB2
 70
     6
  9
$SURFTYPE
 70
     6
  9
$SURFU
 70
     6
  9
$SURFV
 70
     6
  9
$UCSBASE
  2

  9
$UCSNAME
  2

  9
$UCSORG
 10
0.0
 20
0.0
 30
0.0
  9
$UCSXDIR
 10
1.0
 20
0.0
 30
0.0
  9
$UCSYDIR
 10
0.0
 20
1.0
 30
0.0
  9
$UCSORTHOREF
  2

  9
$UCSORTHOVIEW
 70
     0
  9
$UCSORGTOP
 10
0.0
 20
0.0
 30
0.0
  9
$UCSORGBOTTOM
 10
0.0
 20
0.0
 30
0.0
  9
$UCSORGLEFT
 10
0.0
 20
0.0
 30
0.0
  9
$UCSORGRIGHT
 10
0.0
 20
0.0
 30
0.0
  9
$UCSORGFRONT
 10
0.0
 20
0.0
 30
0.0
  9
$UCSORGBACK
 10
0.0
 20
0.0
 30
0.0
  9
$PUCSBASE
  2

  9
$PUCSNAME
  2

  9
$PUCSORG
 10
0.0
 20
0.0
 30
0.0
  9
$PUCSXDIR
 10
1.0
 20
0.0
 30
0.0
  9
$PUCSYDIR
 10
0.0
 20
1.0
 30
0.0
  9
$PUCSORTHOREF
  2

  9
$PUCSORTHOVIEW
 70
     0
  9
$PUCSORGTOP
 10
0.0
 20
0.0
 30
0.0
  9
$PUCSORGBOTTOM
 10
0.0
 20
0.0
 30
0.0
  9
$PUCSORGLEFT
 10
0.0
 20
0.0
 30
0.0
  9
$PUCSORGRIGHT
 10
0.0
 20
0.0
 30
0.0
  9
$PUCSORGFRONT
 10
0.0
 20
0.0
 30
0.0
  9
$PUCSORGBACK
 10
0.0
 20
0.0
 30
0.0
  9
$USERI1
 70
     0
  9
$USERI2
 70
     0
  9
$USERI3
 70
     0
  9
$USERI4
 70
     0
  9
$USERI5
 70
     0
  9
$USERR1
 40
0.0
  9
$USERR2
 40
0.0
  9
$USERR3
 40
0.0
  9
$USERR4
 40
0.0
  9
$USERR5
 40
0.0
  9
$WORLDVIEW
 70
     1
  9
$SHADEDGE
 70
     3
  9
$SHADEDIF
 70
    70
  9
$TILEMODE
 70
     1
  9
$MAXACTVP
 70
    64
  9
$PINSBASE
 10
0.0
 20
0.0
 30
0.0
  9
$PLIMCHECK
 70
     0
  9
$PEXTMIN
 10
1.000000000000000E+20
 20
1.000000000000000E+20
 30
1.000000000000000E+20
  9
$PEXTMAX
 10
-1.000000000000000E+20
 20
-1.000000000000000E+20
 30
-1.000000000000000E+20
  9
$PLIMMIN
 10
0.0
 20
0.0
  9
$PLIMMAX
 10
12.0
 20
9.0
  9
$UNITMODE
 70
     0
  9
$VISRETAIN
 70
     1
  9
$PLINEGEN
 70
     0
  9
$PSLTSCALE
 70
     1
  9
$TREEDEPTH
 70
  3020
  9
$CMLSTYLE
  2
Standard
  9
$CMLJUST
 70
     0
  9
$CMLSCALE
 40
1.0
  9
$PROXYGRAPHICS
 70
     1
  9
$MEASUREMENT
 70
     1
  9
$CELWEIGHT
370
    -1
  9
$ENDCAPS
280
     0
  9
$JOINSTYLE
280
     0
  9
$LWDISPLAY
290
     0
  9
$INSUNITS
 70
     4
  9
$HYPERLINKBASE
  1

  9
$STYLESHEET
  1

  9
$XEDIT
290
     1
  9
$CEPSNTYPE
380
     0
  9
$PSTYLEMODE
290
     1
  9
$FINGERPRINTGUID
  2
{542768B3-734A-44CE-BDBF-2DC8735034AA}
  9
$VERSIONGUID
  2
{50430309-9D89-443E-8234-494AE0D6BE9D}
  9
$EXTNAMES
290
     1
  9
$PSVPSCALE
 40
0.0
  9
$OLESTARTUP
290
     0
  9
$SORTENTS
280
   127
  9
$INDEXCTL
280
     0
  9
$HIDETEXT
280
     1
  9
$XCLIPFRAME
280
     2
  9
$HALOGAP
280
     0
  9
$OBSCOLOR
 70
   257
  9
$OBSLTYPE
280
     0
  9
$INTERSECTIONDISPLAY
280
     0
  9
$INTERSECTIONCOLOR
 70
   257
  9
$DIMASSOC
280
     2
  9
$PROJECTNAME
  1

  9
$CAMERADISPLAY
290
     0
  9
$LENSLENGTH
 40
50.0
  9
$CAMERAHEIGHT
 40
0.0
  9
$STEPSPERSEC
 40
2.0
  9
$STEPSIZE
 40
6.0
  9
$3DDWFPREC
 40
2.0
  9
$PSOLWIDTH
 40
0.25
  9
$PSOLHEIGHT
 40
4.0
  9
$LOFTANG1
 40
1.570796326794896
  9
$LOFTANG2
 40
1.570796326794896
  9
$LOFTMAG1
 40
0.0
  9
$LOFTMAG2
 40
0.0
  9
$LOFTPARAM
 70
     7
  9
$LOFTNORMALS
280
     1
  9
$LATITUDE
 40
37.795
  9
$LONGITUDE
 40
-122.394
  9
$NORTHDIRECTION
 40
0.0
  9
$TIMEZONE
 70
 -8000
  9
$LIGHTGLYPHDISPLAY
280
     1
  9
$TILEMODELIGHTSYNCH
280
     1
  9
$CMATERIAL
347
11
  9
$SOLIDHIST
280
     0
  9
$SHOWHIST
280
     1
  9
$DWFFRAME
280
     2
  9
$DGNFRAME
280
     0
  9
$REALWORLDSCALE
290
     1
  9
$INTERFERECOLOR
 62
     1
  9
$INTERFEREOBJVS
345
33
  9
$INTERFEREVPVS
346
30
  9
$CSHADOW
280
     0
  9
$SHADOWPLANELOCATION
 40
0.0
  0
ENDSEC
  0
SECTION
  2
CLASSES
  0
CLASS
  1
ACDBDICTIONARYWDFLT
  2
AcDbDictionaryWithDefault
  3
ObjectDBX Classes
 90
        0
 91
        1
280
     0
281
     0
  0
CLASS
  1
MATERIAL
  2
AcDbMaterial
  3
ObjectDBX Classes
 90
     1153
 91
        3
280
     0
281
     0
  0
CLASS
  1
VISUALSTYLE
  2
AcDbVisualStyle
  3
ObjectDBX Classes
 90
     4095
 91
       24
280
     0
281
     0
  0
CLASS
  1
SCALE
  2
AcDbScale
  3
ObjectDBX Classes
 90
     1153
 91
       17
280
     0
281
     0
  0
CLASS
  1
TABLESTYLE
  2
AcDbTableStyle
  3
ObjectDBX Classes
 90
     4095
 91
        1
280
     0
281
     0
  0
CLASS
  1
MLEADERSTYLE
  2
AcDbMLeaderStyle
  3
ACDB_MLEADERSTYLE_CLASS
 90
     4095
 91
        1
280
     0
281
     0
  0
CLASS
  1
ACDBSECTIONVIEWSTYLE
  2
AcDbSectionViewStyle
  3
ObjectDBX Classes
 90
     1025
 91
        1
280
     0
281
     0
  0
CLASS
  1
ACDBDETAILVIEWSTYLE
  2
AcDbDetailViewStyle
  3
ObjectDBX Classes
 90
     1025
 91
        1
280
     0
281
     0
  0
CLASS
  1
RASTERVARIABLES
  2
AcDbRasterVariables
  3
ISM
 90
        0
 91
        1
280
     0
281
     0
  0
CLASS
  1
DICTIONARYVAR
  2
AcDbDictionaryVar
  3
ObjectDBX Classes
 90
        0
 91
        5
280
     0
281
     0
  0
CLASS
  1
CELLSTYLEMAP
  2
AcDbCellStyleMap
  3
ObjectDBX Classes
 90
     1152
 91
        2
280
     0
281
     0
  0
CLASS
  1
SORTENTSTABLE
  2
AcDbSortentsTable
  3
ObjectDBX Classes
 90
        0
 91
        1
280
     0
281
     0
  0
ENDSEC
  0
SECTION
  2
TABLES
  0
TABLE
  2
VPORT
  5
8
330
0
100
AcDbSymbolTable
 70
     1
  0
VPORT
  5
57
330
8
100
AcDbSymbolTableRecord
100
AcDbViewportTableRecord
  2
*Active
 70
     0
 10
0.0
 20
0.0
 11
1.0
 21
1.0
 12
950.8645997388301
 22
1946.436365548794
 13
0.0
 23
0.0
 14
1.0
 24
1.0
 15
0.0
 25
0.0
 16
0.0
 26
0.0
 36
1.0
 17
0.0
 27
0.0
 37
0.0
 40
334.3809736574487
 41
1.215677746201342
 42
50.0
 43
0.0
 44
0.0
 50
0.0
 51
0.0
 71
     0
 72
  1000
 73
     1
 74
     1
 75
     0
 76
     0
 77
     0
 78
     0
281
     0
 65
     1
110
0.0
120
0.0
130
0.0
111
1.0
121
0.0
131
0.0
112
0.0
122
1.0
132
0.0
 79
     0
146
0.0
 60
     3
 61
     5
292
     1
282
     1
141
0.0
142
0.0
 63
   250
421
  3355443
  0
ENDTAB
  0
TABLE
  2
LTYPE
  5
5
330
0
100
AcDbSymbolTable
 70
     3
  0
LTYPE
  5
5B
330
5
100
AcDbSymbolTableRecord
100
AcDbLinetypeTableRecord
  2
ByBlock
 70
     0
  3

 72
    65
 73
     0
 40
0.0
  0
LTYPE
  5
5C
330
5
100
AcDbSymbolTableRecord
100
AcDbLinetypeTableRecord
  2
ByLayer
 70
     0
  3

 72
    65
 73
     0
 40
0.0
  0
LTYPE
  5
5D
330
5
100
AcDbSymbolTableRecord
100
AcDbLinetypeTableRecord
  2
Continuous
 70
     0
  3
Solid line
 72
    65
 73
     0
 40
0.0
  0
LTYPE
  5
69
330
5
100
AcDbSymbolTableRecord
100
AcDbLinetypeTableRecord
  2
PHANTOM2
 70
     0
  3
___ _ _ ___ _ _ ___ _ _ ___ _ _
 72
    65
 73
     6
 40
1.25
 49
0.625
 74
     0
 49
-0.125
 74
     0
 49
0.125
 74
     0
 49
-0.125
 74
     0
 49
0.125
 74
     0
 49
-0.125
 74
     0
  0
LTYPE
  5
86
330
5
100
AcDbSymbolTableRecord
100
AcDbLinetypeTableRecord
  2
Nascosto 1_5 mm
 70
     0
  3

 72
    65
 73
     2
 40
2.2
 49
1.5
 74
     0
 49
-0.7000000000000001
 74
     0
  0
ENDTAB
  0
TABLE
  2
LAYER
  5
2
330
0
100
AcDbSymbolTable
 70
     4
  0
LAYER
  5
54
330
2
100
AcDbSymbolTableRecord
100
AcDbLayerTableRecord
  2
0
 70
     0
 62
     7
  6
Continuous
370
    -3
390
F
347
21
348
0
  0
LAYER
  5
85
330
2
100
AcDbSymbolTableRecord
100
AcDbLayerTableRecord
  2
P-SANR-FIXT
 70
     0
 62
     6
  6
Continuous
370
    18
390
F
347
21
348
0
  0
LAYER
  5
88
330
2
100
AcDbSymbolTableRecord
100
AcDbLayerTableRecord
  2
M-PIPE
 70
     0
 62
     3
  6
Continuous
370
    18
390
F
347
21
348
0
  0
ENDTAB
  0
TABLE
  2
STYLE
  5
3
330
0
100
AcDbSymbolTable
 70
     2
  0
STYLE
  5
55
330
3
100
AcDbSymbolTableRecord
100
AcDbTextStyleTableRecord
  2
Standard
 70
     0
 40
0.0
 41
1.0
 50
0.0
 71
     0
 42
0.2
  3
txt
  4

  0
STYLE
  5
5A
330
3
100
AcDbSymbolTableRecord
100
AcDbTextStyleTableRecord
  2
Annotative
 70
     0
 40
0.0
 41
1.0
 50
0.0
 71
     0
 42
0.2
  3
txt
  4

1001
AcadAnnotative
1000
AnnotativeData
1002
{
1070
     1
1070
     1
1002
}
  0
ENDTAB
  0
TABLE
  2
VIEW
  5
6
330
0
100
AcDbSymbolTable
 70
     0
  0
ENDTAB
  0
TABLE
  2
UCS
  5
7
330
0
100
AcDbSymbolTable
 70
     0
  0
ENDTAB
  0
TABLE
  2
APPID
  5
9
330
0
100
AcDbSymbolTable
 70
     3
  0
APPID
  5
56
330
9
100
AcDbSymbolTableRecord
100
AcDbRegAppTableRecord
  2
ACAD
 70
     0
  0
APPID
  5
5E
330
9
100
AcDbSymbolTableRecord
100
AcDbRegAppTableRecord
  2
AcadAnnotative
 70
     0
  0
APPID
  5
79
330
9
100
AcDbSymbolTableRecord
100
AcDbRegAppTableRecord
  2
REVIT
 70
     0
  0
ENDTAB
  0
TABLE
  2
DIMSTYLE
  5
A
330
0
100
AcDbSymbolTable
 70
     2
100
AcDbDimStyleTable
 71
     0
  0
DIMSTYLE
105
58
330
A
100
AcDbSymbolTableRecord
100
AcDbDimStyleTableRecord
  2
Standard
 70
     0
340
55
  0
DIMSTYLE
105
59
330
A
100
AcDbSymbolTableRecord
100
AcDbDimStyleTableRecord
  2
Annotative
 70
     0
340
55
1001
AcadAnnotative
1000
AnnotativeData
1002
{
1070
     1
1070
     1
1002
}
  0
ENDTAB
  0
TABLE
  2
BLOCK_RECORD
  5
1
330
0
100
AcDbSymbolTable
 70
     4
  0
BLOCK_RECORD
  5
71
102
{ACAD_XDICTIONARY
360
3B3
102
}
330
1
100
AcDbSymbolTableRecord
100
AcDbBlockTableRecord
  2
*Model_Space
340
74
 70
     0
280
     1
281
     0
  0
BLOCK_RECORD
  5
6D
330
1
100
AcDbSymbolTableRecord
100
AcDbBlockTableRecord
  2
*Paper_Space
340
70
 70
     0
280
     1
281
     0
  0
BLOCK_RECORD
  5
75
330
1
100
AcDbSymbolTableRecord
100
AcDbBlockTableRecord
  2
*Paper_Space0
340
78
 70
     0
280
     1
281
     0
  0
BLOCK_RECORD
  5
87
330
1
100
AcDbSymbolTableRecord
100
AcDbBlockTableRecord
  2
Automatic flow rate regulator valve_Caleffi_121 DN15 - 1_2___Pressure gauge-927103-Est - Idraulica
340
0
102
{BLKREFS
331
1B4
102
}
 70
     0
280
     1
281
     0
  0
BLOCK_RECORD
  5
1B5
330
1
100
AcDbSymbolTableRecord
100
AcDbBlockTableRecord
  2
Automatic flow rate regulator valve_Caleffi_121 DN15 - 1_2___Pressure gauge-V1-Est - Idraulica
340
0
102
{BLKREFS
331
2C2
102
}
 70
     0
280
     1
281
     0
  0
BLOCK_RECORD
  5
2C3
330
1
100
AcDbSymbolTableRecord
100
AcDbBlockTableRecord
  2
Automatic flow rate regulator valve_Caleffi_121 DN15 - 1_2___Pressure gauge-V2-Est - Idraulica
340
0
102
{BLKREFS
331
3AC
102
}
 70
     0
280
     1
281
     0
  0
ENDTAB
  0
ENDSEC
  0
SECTION
  2
BLOCKS
  0
BLOCK
  5
72
330
71
100
AcDbEntity
  8
0
100
AcDbBlockBegin
  2
*Model_Space
 70
     0
 10
0.0
 20
0.0
 30
0.0
  3
*Model_Space
  1

  0
ENDBLK
  5
73
330
71
100
AcDbEntity
  8
0
100
AcDbBlockEnd
  0
BLOCK
  5
6E
330
6D
100
AcDbEntity
 67
     1
  8
0
100
AcDbBlockBegin
  2
*Paper_Space
 70
     0
 10
0.0
 20
0.0
 30
0.0
  3
*Paper_Space
  1

  0
ENDBLK
  5
6F
330
6D
100
AcDbEntity
 67
     1
  8
0
100
AcDbBlockEnd
  0
BLOCK
  5
76
330
75
100
AcDbEntity
 67
     1
  8
0
100
AcDbBlockBegin
  2
*Paper_Space0
 70
     0
 10
0.0
 20
0.0
 30
0.0
  3
*Paper_Space0
  1

  0
ENDBLK
  5
77
330
75
100
AcDbEntity
 67
     1
  8
0
100
AcDbBlockEnd
  0
BLOCK
  5
1B2
330
87
100
AcDbEntity
  8
0
100
AcDbBlockBegin
  2
Automatic flow rate regulator valve_Caleffi_121 DN15 - 1_2___Pressure gauge-927103-Est - Idraulica
 70
     0
 10
0.0
 20
0.0
 30
0.0
  3
Automatic flow rate regulator valve_Caleffi_121 DN15 - 1_2___Pressure gauge-927103-Est - Idraulica
  1

  0
ARC
  5
89
330
87
100
AcDbEntity
  8
M-PIPE
100
AcDbCircle
 10
859.7278012627455
 20
2085.511775133178
 30
0.0
 40
3.999999999999802
100
AcDbArc
 50
163.9999999999989
 51
343.9999999999995
1001
REVIT
1002
{
1070
     3
1000
923395
1002
}
  0
ARC
  5
8A
330
87
100
AcDbEntity
  8
M-PIPE
100
AcDbCircle
 10
859.7278012627455
 20
2085.511775133178
 30
0.0
 40
4.000000000000083
100
AcDbArc
 50
343.9999999999967
 51
163.9999999999962
1001
REVIT
1002
{
1070
     3
1000
923395
1002
}
  0
ARC
  5
8B
330
87
100
AcDbEntity
  8
M-PIPE
100
AcDbCircle
 10
859.7278012627455
 20
2085.511775133178
 30
0.0
 40
24.49999999999986
100
AcDbArc
 50
163.9999999999998
 51
343.9999999999985
1001
REVIT
1002
{
1070
     3
1000
923395
1002
}
  0
ARC
  5
8C
330
87
100
AcDbEntity
  8
M-PIPE
100
AcDbCircle
 10
859.7278012627455
 20
2085.511775133178
 30
0.0
 40
24.50000000000014
100
AcDbArc
 50
343.9999999999994
 51
163.9999999999996
1001
REVIT
1002
{
1070
     3
1000
923395
1002
}
  0
LINE
  5
8D
330
87
100
AcDbEntity
  8
M-PIPE
100
AcDbLine
 10
855.3639640874164
 20
2046.711557026739
 30
0.0
 11
857.0177882223235
 21
2052.479127202385
 31
0.0
1001
REVIT
1002
{
1070
     3
1000
923395
1002
}
  0
LINE
  5
8E
330
87
100
AcDbEntity
  8
M-PIPE
100
AcDbLine
 10
844.5213861751458
 20
2056.062412828001
 30
0.0
 11
842.8675620402387
 21
2050.294842652354
 31
0.0
1001
REVIT
1002
{
1070
     3
1000
923395
1002
}
  0
LINE
  5
8F
330
87
100
AcDbEntity
  8
M-PIPE
100
AcDbLine
 10
857.4984190703132
 20
2052.34130852447
 30
0.0
 11
844.0407553271768
 21
2056.200231505908
 31
0.0
1001
REVIT
1002
{
1070
     3
1000
923395
1002
}
  0
LINE
  5
90
330
87
100
AcDbEntity
  8
M-PIPE
100
AcDbLine
 10
859.9908914033614
 20
2061.033592539615
 30
0.0
 11
857.4984190703132
 21
2052.34130852447
 31
0.0
1001
REVIT
1002
{
1070
     3
1000
923395
1002
}
  0
LINE
  5
91
330
87
100
AcDbEntity
  8
M-PIPE
100
AcDbLine
 10
844.0407553271768
 20
2056.200231505908
 30
0.0
 11
846.5332276602165
 21
2064.892515521024
 31
0.0
1001
REVIT
1002
{
1070
     3
1000
923395
1002
}
  0
LINE
  5
92
330
87
100
AcDbEntity
  8
M-PIPE
100
AcDbLine
 10
773.8951975437834
 20
2069.11594015722
 30
0.0
 11
772.5480544796993
 21
2074.747049343063
 31
0.0
1001
REVIT
1002
{
1070
     3
1000
923255
1002
}
  0
LWPOLYLINE
  5
93
330
87
100
AcDbEntity
  8
M-PIPE
100
AcDbPolyline
 90
        3
 70
   128
 43
0.0
 10
772.4331170697841
 20
2075.227492082982
 10
771.5686836462752
 20
2078.84085663308
 10
771.0294846833918
 20
2081.375128132032
1001
REVIT
1002
{
1070
     3
1000
923255
1002
}
  0
LWPOLYLINE
  5
94
330
87
100
AcDbEntity
  8
M-PIPE
100
AcDbPolyline
 90
        3
 70
   128
 43
0.0
 10
810.4965747564008
 20
2095.739974151709
 10
815.0578839555242
 20
2086.841596447444
 10
816.1813654791499
 20
2084.506846606874
1001
REVIT
1002
{
1070
     3
1000
923255
1002
}
  0
ELLIPSE
  5
95
330
87
100
AcDbEntity
  8
M-PIPE
100
AcDbEllipse
 10
747.9918711521305
 20
2034.651152049727
 30
0.0
 11
-85.50488143095227
 21
234.922730984692
 31
0.0
210
0.0
220
0.0
230
0.9999999999999998
 40
0.2588190451024878
 41
4.816685541903211
 42
4.857000131822783
1001
REVIT
1002
{
1070
     3
1000
923255
1002
}
  0
LINE
  5
96
330
87
100
AcDbEntity
  8
M-PIPE
100
AcDbLine
 10
799.5622437922214
 20
2081.118425424346
 30
0.0
 11
788.7389099441792
 21
2077.179054068133
 31
0.0
1001
REVIT
1002
{
1070
     3
1000
923255
1002
}
  0
SPLINE
  5
97
330
87
100
AcDbEntity
  8
M-PIPE
100
AcDbSpline
210
0.0
220
0.0
230
1.0
 70
     8
 71
     3
 72
     9
 73
     5
 74
     0
 42
0.000000001
 43
0.0000000001
 40
-1.0
 40
-1.0
 40
-1.0
 40
-1.0
 40
-0.5
 40
0.0
 40
0.0
 40
0.0
 40
0.0
 10
788.738909944179
 20
2077.179054068134
 30
0.0
 10
788.2099773525336
 20
2078.76464065775
 30
0.0
 10
787.1617207113245
 20
2081.934838372184
 30
0.0
 10
786.1326811542777
 20
2085.103085157021
 30
0.0
 10
785.622965646795
 20
2086.686720817041
 30
0.0
1001
REVIT
1002
{
1070
     3
1000
923255
1002
}
  0
LINE
  5
98
330
87
100
AcDbEntity
  8
M-PIPE
100
AcDbLine
 10
773.895197543782
 20
2069.115940157219
 30
0.0
 11
816.1813654791485
 21
2084.506846606873
 31
0.0
1001
REVIT
1002
{
1070
     3
1000
923255
1002
}
  0
LINE
  5
99
330
87
100
AcDbEntity
  8
M-PIPE
100
AcDbLine
 10
785.6229656467951
 20
2086.686720817041
 30
0.0
 11
784.6681636315952
 21
2086.339201303891
 31
0.0
1001
REVIT
1002
{
1070
     3
1000
923255
1002
}
  0
LINE
  5
9A
330
87
100
AcDbEntity
  8
M-PIPE
100
AcDbLine
 10
784.2540182062951
 20
2086.188464696424
 30
0.0
 11
783.2214175942476
 21
2085.812628809754
 31
0.0
1001
REVIT
1002
{
1070
     3
1000
923255
1002
}
  0
LINE
  5
9B
330
87
100
AcDbEntity
  8
M-PIPE
100
AcDbLine
 10
782.9193885221357
 20
2085.702699217622
 30
0.0
 11
781.8175989804743
 21
2085.301680620032
 31
0.0
1001
REVIT
1002
{
1070
     3
1000
923255
1002
}
  0
LINE
  5
9C
330
87
100
AcDbEntity
  8
M-PIPE
100
AcDbLine
 10
781.6261132228756
 20
2085.23198550398
 30
0.0
 11
780.4658497581895
 21
2084.809684138928
 31
0.0
1001
REVIT
1002
{
1070
     3
1000
923255
1002
}
  0
LINE
  5
9D
330
87
100
AcDbEntity
  8
M-PIPE
100
AcDbLine
 10
780.3810109024764
 20
2084.778805320739
 30
0.0
 11
779.1906461703201
 21
2084.345547990314
 31
0.0
1001
REVIT
1002
{
1070
     3
1000
923255
1002
}
  0
LINE
  5
9E
330
87
100
AcDbEntity
  8
M-PIPE
100
AcDbLine
 10
779.1742298140465
 20
2084.339572925275
 30
0.0
 11
778.0612950403222
 21
2083.93449779496
 31
0.0
1001
REVIT
1002
{
1070
     3
1000
923255
1002
}
  0
LINE
  5
9F
330
87
100
AcDbEntity
  8
M-PIPE
100
AcDbLine
 10
777.9467247380852
 20
2083.892797615215
 30
0.0
 11
776.9989118416185
 21
2083.547821933247
 31
0.0
1001
REVIT
1002
{
1070
     3
1000
923255
1002
}
  0
LINE
  5
A0
330
87
100
AcDbEntity
  8
M-PIPE
100
AcDbLine
 10
776.7924869728465
 20
2083.472689425402
 30
0.0
 11
776.0090978252869
 21
2083.187559093843
 31
0.0
1001
REVIT
1002
{
1070
     3
1000
923255
1002
}
  0
LINE
  5
A1
330
87
100
AcDbEntity
  8
M-PIPE
100
AcDbLine
 10
775.7209616421747
 20
2083.082686099775
 30
0.0
 11
774.7448568609694
 21
2082.727413013891
 31
0.0
1001
REVIT
1002
{
1070
     3
1000
923255
1002
}
  0
LINE
  5
A2
330
87
100
AcDbEntity
  8
M-PIPE
100
AcDbLine
 10
774.2676417806266
 20
2082.553720929304
 30
0.0
 11
773.8745670789096
 21
2082.410653438035
 31
0.0
1001
REVIT
1002
{
1070
     3
1000
923255
1002
}
  0
LINE
  5
A3
330
87
100
AcDbEntity
  8
M-PIPE
100
AcDbLine
 10
773.6654165310531
 20
2082.334528864135
 30
0.0
 11
773.1177045574341
 21
2082.135178008787
 31
0.0
1001
REVIT
1002
{
1070
     3
1000
923255
1002
}
  0
LINE
  5
A4
330
87
100
AcDbEntity
  8
M-PIPE
100
AcDbLine
 10
772.4774464474331
 20
2081.902143114499
 30
0.0
 11
772.3163473729859
 21
2081.843507846632
 31
0.0
1001
REVIT
1002
{
1070
     3
1000
923255
1002
}
  0
LINE
  5
A5
330
87
100
AcDbEntity
  8
M-PIPE
100
AcDbLine
 10
771.9536042669001
 20
2081.711480153332
 30
0.0
 11
771.5467329038078
 21
2081.563391087991
 31
0.0
1001
REVIT
1002
{
1070
     3
1000
923255
1002
}
  0
LINE
  5
A6
330
87
100
AcDbEntity
  8
M-PIPE
100
AcDbLine
 10
771.4960297788876
 20
2081.544936659736
 30
0.0
 11
771.2574260994572
 21
2081.458092022637
 31
0.0
1001
REVIT
1002
{
1070
     3
1000
923255
1002
}
  0
LINE
  5
A7
330
87
100
AcDbEntity
  8
M-PIPE
100
AcDbLine
 10
771.2498150761974
 20
2081.455321836718
 30
0.0
 11
771.0854982382403
 21
2081.395515398713
 31
0.0
1001
REVIT
1002
{
1070
     3
1000
923255
1002
}
  0
LINE
  5
A8
330
87
100
AcDbEntity
  8
M-PIPE
100
AcDbLine
 10
771.0815057152231
 20
2081.394062239175
 30
0.0
 11
771.0294846833901
 21
2081.375128132032
 31
0.0
1001
REVIT
1002
{
1070
     3
1000
923255
1002
}
  0
LINE
  5
A9
330
87
100
AcDbEntity
  8
M-PIPE
100
AcDbLine
 10
810.4965747563992
 20
2095.739974151708
 30
0.0
 11
810.4442808033068
 21
2095.72094070935
 31
0.0
1001
REVIT
1002
{
1070
     3
1000
923255
1002
}
  0
LINE
  5
AA
330
87
100
AcDbEntity
  8
M-PIPE
100
AcDbLine
 10
810.4402916790061
 20
2095.719488786844
 30
0.0
 11
810.2752547415644
 21
2095.65942025406
 31
0.0
1001
REVIT
1002
{
1070
     3
1000
923255
1002
}
  0
LINE
  5
AB
330
87
100
AcDbEntity
  8
M-PIPE
100
AcDbLine
 10
810.2676976287229
 20
2095.65666968993
 30
0.0
 11
810.027590659204
 21
2095.569277899985
 31
0.0
1001
REVIT
1002
{
1070
     3
1000
923255
1002
}
  0
LINE
  5
AC
330
87
100
AcDbEntity
  8
M-PIPE
100
AcDbLine
 10
809.977594130308
 20
2095.55108065165
 30
0.0
 11
809.5700791614317
 21
2095.402757332961
 31
0.0
1001
REVIT
1002
{
1070
     3
1000
923255
1002
}
  0
LINE
  5
AD
330
87
100
AcDbEntity
  8
M-PIPE
100
AcDbLine
 10
809.2030325071242
 20
2095.269163276206
 30
0.0
 11
809.046035531872
 21
2095.212021050344
 31
0.0
1001
REVIT
1002
{
1070
     3
1000
923255
1002
}
  0
LINE
  5
AE
330
87
100
AcDbEntity
  8
M-PIPE
100
AcDbLine
 10
808.9209195668896
 20
2095.166482563259
 30
0.0
 11
808.4065239519672
 21
2094.97925787079
 31
0.0
1001
REVIT
1002
{
1070
     3
1000
923255
1002
}
  0
LINE
  5
AF
330
87
100
AcDbEntity
  8
M-PIPE
100
AcDbLine
 10
807.9880638376387
 20
2094.826950844947
 30
0.0
 11
807.6522288237777
 21
2094.704716896277
 31
0.0
1001
REVIT
1002
{
1070
     3
1000
923255
1002
}
  0
LINE
  5
B0
330
87
100
AcDbEntity
  8
M-PIPE
100
AcDbLine
 10
807.2419049306489
 20
2094.55537121277
 30
0.0
 11
806.786493149746
 21
2094.389614880187
 31
0.0
1001
REVIT
1002
{
1070
     3
1000
923255
1002
}
  0
LINE
  5
B1
330
87
100
AcDbEntity
  8
M-PIPE
100
AcDbLine
 10
806.4084078869289
 20
2094.252003098507
 30
0.0
 11
805.8161373724905
 21
2094.036434260618
 31
0.0
1001
REVIT
1002
{
1070
     3
1000
923255
1002
}
  0
LINE
  5
B2
330
87
100
AcDbEntity
  8
M-PIPE
100
AcDbLine
 10
805.4919902457728
 20
2093.91845435497
 30
0.0
 11
804.7502044560166
 21
2093.648466407297
 31
0.0
1001
REVIT
1002
{
1070
     3
1000
923255
1002
}
  0
LINE
  5
B3
330
87
100
AcDbEntity
  8
M-PIPE
100
AcDbLine
 10
804.4975090261347
 20
2093.556492792485
 30
0.0
 11
803.5996461400008
 21
2093.22969742748
 31
0.0
1001
REVIT
1002
{
1070
     3
1000
923255
1002
}
  0
LINE
  5
B4
330
87
100
AcDbEntity
  8
M-PIPE
100
AcDbLine
 10
803.4302349844004
 20
2093.168036809489
 30
0.0
 11
802.3733646691772
 21
2092.783367473268
 31
0.0
1001
REVIT
1002
{
1070
     3
1000
923255
1002
}
  0
LINE
  5
B5
330
87
100
AcDbEntity
  8
M-PIPE
100
AcDbLine
 10
802.2958246793448
 20
2092.755145225003
 30
0.0
 11
799.8499687616932
 21
2091.864926473675
 31
0.0
1001
REVIT
1002
{
1070
     3
1000
923255
1002
}
  0
LINE
  5
B6
330
87
100
AcDbEntity
  8
M-PIPE
100
AcDbLine
 10
799.7240659685985
 20
2091.819101604577
 30
0.0
 11
798.5514862000228
 21
2091.392317471513
 31
0.0
1001
REVIT
1002
{
1070
     3
1000
923255
1002
}
  0
LINE
  5
B7
330
87
100
AcDbEntity
  8
M-PIPE
100
AcDbLine
 10
798.3158807643812
 20
2091.306564105908
 30
0.0
 11
797.2117247726361
 21
2090.904684190926
 31
0.0
1001
REVIT
1002
{
1070
     3
1000
923255
1002
}
  0
LINE
  5
B8
330
87
100
AcDbEntity
  8
M-PIPE
100
AcDbLine
 10
796.8626518272141
 20
2090.777632029205
 30
0.0
 11
795.8377852230752
 21
2090.404611091205
 31
0.0
1001
REVIT
1002
{
1070
     3
1000
923255
1002
}
  0
LINE
  5
B9
330
87
100
AcDbEntity
  8
M-PIPE
100
AcDbLine
 10
789.6853225322111
 20
2077.523520079513
 30
0.0
 11
786.2651210989457
 21
2086.920446287396
 31
0.0
1001
REVIT
1002
{
1070
     3
1000
923255
1002
}
  0
LINE
  5
BA
330
87
100
AcDbEntity
  8
M-PIPE
100
AcDbLine
 10
795.190940826568
 20
2090.169178984677
 30
0.0
 11
798.6111422598333
 21
2080.772252776793
 31
0.0
1001
REVIT
1002
{
1070
     3
1000
923255
1002
}
  0
LINE
  5
BB
330
87
100
AcDbEntity
  8
M-PIPE
100
AcDbLine
 10
829.5166999753899
 20
2059.563533798141
 30
0.0
 11
828.4906395454131
 21
2062.382611660499
 31
0.0
1001
REVIT
1002
{
1070
     3
1000
923255
1002
}
  0
LINE
  5
BC
330
87
100
AcDbEntity
  8
M-PIPE
100
AcDbLine
 10
778.6869306438175
 20
2044.25554406426
 30
0.0
 11
779.7129910737944
 21
2041.436466201902
 31
0.0
1001
REVIT
1002
{
1070
     3
1000
923255
1002
}
  0
LINE
  5
BD
330
87
100
AcDbEntity
  8
M-PIPE
100
AcDbLine
 10
823.1619594144694
 20
2069.713528995481
 30
0.0
 11
822.5933803931535
 21
2069.813784817604
 31
0.0
1001
REVIT
1002
{
1070
     3
1000
923255
1002
}
  0
LINE
  5
BE
330
87
100
AcDbEntity
  8
M-PIPE
100
AcDbLine
 10
778.4278272162159
 20
2053.738838081299
 30
0.0
 11
778.0567136167408
 21
2053.296562115864
 31
0.0
1001
REVIT
1002
{
1070
     3
1000
923255
1002
}
  0
LWPOLYLINE
  5
BF
330
87
100
AcDbEntity
  8
M-PIPE
100
AcDbPolyline
 90
        3
 70
   128
 43
0.0
 10
778.4278272162164
 20
2053.738838081297
 10
775.4851000860885
 20
2063.29535546031
 10
773.8951975437916
 20
2069.115940157197
1001
REVIT
1002
{
1070
     3
1000
923255
1002
}
  0
LWPOLYLINE
  5
C0
330
87
100
AcDbEntity
  8
M-PIPE
100
AcDbPolyline
 90
        3
 70
   128
 43
0.0
 10
816.1813654791581
 20
2084.506846606851
 10
820.2911085698621
 20
2075.391108616641
 10
822.5933803931543
 20
2069.813784817603
1001
REVIT
1002
{
1070
     3
1000
923255
1002
}
  0
LINE
  5
C1
330
87
100
AcDbEntity
  8
M-PIPE
100
AcDbLine
 10
779.712991073793
 20
2041.436466201902
 30
0.0
 11
779.8033195466151
 21
2041.469343077315
 31
0.0
1001
REVIT
1002
{
1070
     3
1000
923255
1002
}
  0
LINE
  5
C2
330
87
100
AcDbEntity
  8
M-PIPE
100
AcDbLine
 10
779.8049571578467
 20
2041.469939119059
 30
0.0
 11
780.0665126195711
 21
2041.565137521736
 31
0.0
1001
REVIT
1002
{
1070
     3
1000
923255
1002
}
  0
LINE
  5
C3
330
87
100
AcDbEntity
  8
M-PIPE
100
AcDbLine
 10
780.1707794499474
 20
2041.603087544414
 30
0.0
 11
780.5019051042141
 21
2041.723607426369
 31
0.0
1001
REVIT
1002
{
1070
     3
1000
923255
1002
}
  0
LINE
  5
C4
330
87
100
AcDbEntity
  8
M-PIPE
100
AcDbLine
 10
780.6779004160181
 20
2041.787664481237
 30
0.0
 11
781.2006892333648
 21
2041.977944049558
 31
0.0
1001
REVIT
1002
{
1070
     3
1000
923255
1002
}
  0
LINE
  5
C5
330
87
100
AcDbEntity
  8
M-PIPE
100
AcDbLine
 10
781.3499258385299
 20
2042.032261731701
 30
0.0
 11
782.0321872199352
 21
2042.280584566522
 31
0.0
1001
REVIT
1002
{
1070
     3
1000
923255
1002
}
  0
LINE
  5
C6
330
87
100
AcDbEntity
  8
M-PIPE
100
AcDbLine
 10
782.181698965263
 20
2042.335002391494
 30
0.0
 11
783.037348070143
 21
2042.646433196647
 31
0.0
1001
REVIT
1002
{
1070
     3
1000
923255
1002
}
  0
LINE
  5
C7
330
87
100
AcDbEntity
  8
M-PIPE
100
AcDbLine
 10
783.3825242529409
 20
2042.772067052763
 30
0.0
 11
784.2082845503719
 21
2043.072619221667
 31
0.0
1001
REVIT
1002
{
1070
     3
1000
923255
1002
}
  0
LINE
  5
C8
330
87
100
AcDbEntity
  8
M-PIPE
100
AcDbLine
 10
784.4688220824439
 20
2043.16744712825
 30
0.0
 11
785.5357751307725
 21
2043.555786279202
 31
0.0
1001
REVIT
1002
{
1070
     3
1000
923255
1002
}
  0
LINE
  5
C9
330
87
100
AcDbEntity
  8
M-PIPE
100
AcDbLine
 10
785.6793268457002
 20
2043.608034830513
 30
0.0
 11
787.0065753783111
 21
2044.091113789857
 31
0.0
1001
REVIT
1002
{
1070
     3
1000
923255
1002
}
  0
LINE
  5
CA
330
87
100
AcDbEntity
  8
M-PIPE
100
AcDbLine
 10
787.0091371216236
 20
2044.092046188171
 30
0.0
 11
788.4423847517178
 21
2044.613705663858
 31
0.0
1001
REVIT
1002
{
1070
     3
1000
923255
1002
}
  0
LINE
  5
CB
330
87
100
AcDbEntity
  8
M-PIPE
100
AcDbLine
 10
788.6059606600057
 20
2044.673242425517
 30
0.0
 11
789.9779027236779
 21
2045.172588499832
 31
0.0
1001
REVIT
1002
{
1070
     3
1000
923255
1002
}
  0
LINE
  5
CC
330
87
100
AcDbEntity
  8
M-PIPE
100
AcDbLine
 10
790.326509391718
 20
2045.299470950465
 30
0.0
 11
791.9256530534202
 21
2045.88151164364
 31
0.0
1001
REVIT
1002
{
1070
     3
1000
923255
1002
}
  0
LINE
  5
CD
330
87
100
AcDbEntity
  8
M-PIPE
100
AcDbLine
 10
792.1574427924158
 20
2045.965876209243
 30
0.0
 11
794.0845048238779
 21
2046.667269428279
 31
0.0
1001
REVIT
1002
{
1070
     3
1000
923255
1002
}
  0
LINE
  5
CE
330
87
100
AcDbEntity
  8
M-PIPE
100
AcDbLine
 10
795.0853183911034
 20
2047.031535776799
 30
0.0
 11
796.0926495308861
 21
2047.39817432773
 31
0.0
1001
REVIT
1002
{
1070
     3
1000
923255
1002
}
  0
LINE
  5
CF
330
87
100
AcDbEntity
  8
M-PIPE
100
AcDbLine
 10
796.9197493078427
 20
2047.69921402731
 30
0.0
 11
798.1661705086881
 21
2048.152874243776
 31
0.0
1001
REVIT
1002
{
1070
     3
1000
923255
1002
}
  0
LINE
  5
D0
330
87
100
AcDbEntity
  8
M-PIPE
100
AcDbLine
 10
798.8016230516373
 20
2048.384160054698
 30
0.0
 11
800.2888343058385
 21
2048.925460683293
 31
0.0
1001
REVIT
1002
{
1070
     3
1000
923255
1002
}
  0
LINE
  5
D1
330
87
100
AcDbEntity
  8
M-PIPE
100
AcDbLine
 10
800.7193372450705
 20
2049.082150938938
 30
0.0
 11
802.4440173269823
 21
2049.709883152385
 31
0.0
1001
REVIT
1002
{
1070
     3
1000
923255
1002
}
  0
LINE
  5
D2
330
87
100
AcDbEntity
  8
M-PIPE
100
AcDbLine
 10
802.6610685424346
 20
2049.788883334121
 30
0.0
 11
806.5686225067466
 21
2051.211116665919
 31
0.0
1001
REVIT
1002
{
1070
     3
1000
923255
1002
}
  0
LINE
  5
D3
330
87
100
AcDbEntity
  8
M-PIPE
100
AcDbLine
 10
806.7856737222168
 20
2051.290116847662
 30
0.0
 11
808.5103538041108
 21
2051.917849061104
 31
0.0
1001
REVIT
1002
{
1070
     3
1000
923255
1002
}
  0
LINE
  5
D4
330
87
100
AcDbEntity
  8
M-PIPE
100
AcDbLine
 10
808.9408567433604
 20
2052.074539316754
 30
0.0
 11
810.4280679975438
 21
2052.615839945343
 31
0.0
1001
REVIT
1002
{
1070
     3
1000
923255
1002
}
  0
LINE
  5
D5
330
87
100
AcDbEntity
  8
M-PIPE
100
AcDbLine
 10
811.0635205405111
 20
2052.847125756271
 30
0.0
 11
812.3099417413385
 21
2053.300785972731
 31
0.0
1001
REVIT
1002
{
1070
     3
1000
923255
1002
}
  0
LINE
  5
D6
330
87
100
AcDbEntity
  8
M-PIPE
100
AcDbLine
 10
813.1370415183132
 20
2053.601825672318
 30
0.0
 11
814.1443726580776
 21
2053.968464223242
 31
0.0
1001
REVIT
1002
{
1070
     3
1000
923255
1002
}
  0
LINE
  5
D7
330
87
100
AcDbEntity
  8
M-PIPE
100
AcDbLine
 10
815.145186225321
 20
2054.332730571768
 30
0.0
 11
817.0722482567832
 21
2055.034123790805
 31
0.0
1001
REVIT
1002
{
1070
     3
1000
923255
1002
}
  0
LINE
  5
D8
330
87
100
AcDbEntity
  8
M-PIPE
100
AcDbLine
 10
817.6260287338978
 20
2055.235683400792
 30
0.0
 11
818.9031816574807
 21
2055.700529049583
 31
0.0
1001
REVIT
1002
{
1070
     3
1000
923255
1002
}
  0
LINE
  5
D9
330
87
100
AcDbEntity
  8
M-PIPE
100
AcDbLine
 10
819.2410056655836
 20
2055.823486932953
 30
0.0
 11
820.623730389193
 21
2056.32675757453
 31
0.0
1001
REVIT
1002
{
1070
     3
1000
923255
1002
}
  0
LINE
  5
DA
330
87
100
AcDbEntity
  8
M-PIPE
100
AcDbLine
 10
820.7873062974634
 20
2056.386294336184
 30
0.0
 11
824.7608689667373
 21
2057.832552871791
 31
0.0
1001
REVIT
1002
{
1070
     3
1000
923255
1002
}
  0
LINE
  5
DB
330
87
100
AcDbEntity
  8
M-PIPE
100
AcDbLine
 10
825.0214064988274
 20
2057.927380778381
 30
0.0
 11
825.8471667962405
 21
2058.227932947278
 31
0.0
1001
REVIT
1002
{
1070
     3
1000
923255
1002
}
  0
LINE
  5
DC
330
87
100
AcDbEntity
  8
M-PIPE
100
AcDbLine
 10
826.1923429790567
 20
2058.3535668034
 30
0.0
 11
827.0479920839219
 21
2058.664997608548
 31
0.0
1001
REVIT
1002
{
1070
     3
1000
923255
1002
}
  0
LINE
  5
DD
330
87
100
AcDbEntity
  8
M-PIPE
100
AcDbLine
 10
827.1975038292641
 20
2058.719415433526
 30
0.0
 11
827.8797652106591
 21
2058.967738268343
 31
0.0
1001
REVIT
1002
{
1070
     3
1000
923255
1002
}
  0
LINE
  5
DE
330
87
100
AcDbEntity
  8
M-PIPE
100
AcDbLine
 10
828.0290018158343
 20
2059.02205595049
 30
0.0
 11
828.5517906331678
 21
2059.212335518807
 31
0.0
1001
REVIT
1002
{
1070
     3
1000
923255
1002
}
  0
LINE
  5
DF
330
87
100
AcDbEntity
  8
M-PIPE
100
AcDbLine
 10
828.7277859449654
 20
2059.276392573671
 30
0.0
 11
829.0589115992382
 21
2059.396912455628
 31
0.0
1001
REVIT
1002
{
1070
     3
1000
923255
1002
}
  0
LINE
  5
E0
330
87
100
AcDbEntity
  8
M-PIPE
100
AcDbLine
 10
829.1631784296097
 20
2059.434862478305
 30
0.0
 11
829.3947588774363
 21
2059.519150868152
 31
0.0
1001
REVIT
1002
{
1070
     3
1000
923255
1002
}
  0
LINE
  5
E1
330
87
100
AcDbEntity
  8
M-PIPE
100
AcDbLine
 10
829.4247338913475
 20
2059.530060880987
 30
0.0
 11
829.5166999753885
 21
2059.56353379814
 31
0.0
1001
REVIT
1002
{
1070
     3
1000
923255
1002
}
  0
LINE
  5
E2
330
87
100
AcDbEntity
  8
M-PIPE
100
AcDbLine
 10
828.4906395454115
 20
2062.382611660499
 30
0.0
 11
778.686930643816
 21
2044.255544064259
 31
0.0
1001
REVIT
1002
{
1070
     3
1000
923255
1002
}
  0
LINE
  5
E3
330
87
100
AcDbEntity
  8
M-PIPE
100
AcDbLine
 10
785.1280413565722
 20
2046.599916639316
 30
0.0
 11
782.4590520922331
 21
2053.932904375854
 31
0.0
1001
REVIT
1002
{
1070
     3
1000
923255
1002
}
  0
LINE
  5
E4
330
87
100
AcDbEntity
  8
M-PIPE
100
AcDbLine
 10
778.3671729314237
 20
2052.443582159105
 30
0.0
 11
781.0361621957627
 21
2045.110594422567
 31
0.0
1001
REVIT
1002
{
1070
     3
1000
923255
1002
}
  0
LINE
  5
E5
330
87
100
AcDbEntity
  8
M-PIPE
100
AcDbLine
 10
826.1414079934864
 20
2061.527561302198
 30
0.0
 11
823.4724187291474
 21
2068.860549038737
 31
0.0
1001
REVIT
1002
{
1070
     3
1000
923255
1002
}
  0
LINE
  5
E6
330
87
100
AcDbEntity
  8
M-PIPE
100
AcDbLine
 10
819.3805395682941
 20
2067.371226821972
 30
0.0
 11
822.0495288326333
 21
2060.038239085434
 31
0.0
1001
REVIT
1002
{
1070
     3
1000
923255
1002
}
  0
LINE
  5
E7
330
87
100
AcDbEntity
  8
M-PIPE
100
AcDbLine
 10
807.6806642554728
 20
2054.808400079145
 30
0.0
 11
805.0116749911339
 21
2062.141387815684
 31
0.0
1001
REVIT
1002
{
1070
     3
1000
923255
1002
}
  0
LINE
  5
E8
330
87
100
AcDbEntity
  8
M-PIPE
100
AcDbLine
 10
796.8279166694453
 20
2059.162743382161
 30
0.0
 11
799.4969059337844
 21
2051.829755645622
 31
0.0
1001
REVIT
1002
{
1070
     3
1000
923255
1002
}
  0
SPLINE
  5
E9
330
87
100
AcDbEntity
  8
M-PIPE
100
AcDbSpline
210
0.0
220
0.0
230
1.0
 70
    24
 71
     3
 72
     9
 73
     5
 74
     0
 42
0.000000001
 43
0.0000000001
 40
-1.0
 40
-1.0
 40
-1.0
 40
-1.0
 40
-0.5
 40
0.0
 40
0.0
 40
0.0
 40
0.0
 10
778.0567136167393
 20
2053.296562115862
 30
0.0
 10
778.0584900607634
 20
2053.291681376019
 30
0.0
 10
778.1120097239017
 20
2053.144637310049
 30
0.0
 10
778.26546293722
 20
2052.723028071515
 30
0.0
 10
778.3671729314241
 20
2052.443582159106
 30
0.0
1001
REVIT
1002
{
1070
     3
1000
923255
1002
}
  0
LINE
  5
EA
330
87
100
AcDbEntity
  8
M-PIPE
100
AcDbLine
 10
782.459052092234
 20
2053.932904375855
 30
0.0
 11
778.3671729314241
 21
2052.443582159106
 31
0.0
1001
REVIT
1002
{
1070
     3
1000
923255
1002
}
  0
SPLINE
  5
EB
330
87
100
AcDbEntity
  8
M-PIPE
100
AcDbSpline
210
0.0
220
0.0
230
1.0
 70
     8
 71
     3
 72
     9
 73
     5
 74
     0
 42
0.000000001
 43
0.0000000001
 40
-1.0
 40
-1.0
 40
-1.0
 40
-1.0
 40
-0.5
 40
0.0
 40
0.0
 40
0.0
 40
0.0
 10
782.4590520922339
 20
2053.932904375855
 30
0.0
 10
784.6121049979526
 20
2055.360501714901
 30
0.0
 10
789.1599686665398
 20
2057.659738888333
 30
0.0
 10
794.1913480494263
 20
2058.847061052439
 30
0.0
 10
796.8279166694445
 20
2059.16274338216
 30
0.0
1001
REVIT
1002
{
1070
     3
1000
923255
1002
}
  0
LINE
  5
EC
330
87
100
AcDbEntity
  8
M-PIPE
100
AcDbLine
 10
805.0116749911367
 20
2062.141387815685
 30
0.0
 11
796.8279166694446
 21
2059.16274338216
 31
0.0
1001
REVIT
1002
{
1070
     3
1000
923255
1002
}
  0
SPLINE
  5
ED
330
87
100
AcDbEntity
  8
M-PIPE
100
AcDbSpline
210
0.0
220
0.0
230
1.0
 70
     8
 71
     3
 72
     9
 73
     5
 74
     0
 42
0.000000001
 43
0.0000000001
 40
-1.0
 40
-1.0
 40
-1.0
 40
-1.0
 40
-0.5
 40
0.0
 40
0.0
 40
0.0
 40
0.0
 10
805.0116749911365
 20
2062.141387815685
 30
0.0
 10
807.164727896848
 20
2063.568985154724
 30
0.0
 10
811.712591565419
 20
2065.868222328145
 30
0.0
 10
816.7439709482854
 20
2067.055544492248
 30
0.0
 10
819.3805395682925
 20
2067.371226821972
 30
0.0
1001
REVIT
1002
{
1070
     3
1000
923255
1002
}
  0
LINE
  5
EE
330
87
100
AcDbEntity
  8
M-PIPE
100
AcDbLine
 10
823.4724187291481
 20
2068.860549038737
 30
0.0
 11
819.3805395682927
 21
2067.371226821972
 31
0.0
1001
REVIT
1002
{
1070
     3
1000
923255
1002
}
  0
SPLINE
  5
EF
330
87
100
AcDbEntity
  8
M-PIPE
100
AcDbSpline
210
0.0
220
0.0
230
1.0
 70
    24
 71
     3
 72
     9
 73
     5
 74
     0
 42
0.000000001
 43
0.0000000001
 40
-1.0
 40
-1.0
 40
-1.0
 40
-1.0
 40
-0.5
 40
0.0
 40
0.0
 40
0.0
 40
0.0
 10
823.472418729148
 20
2068.860549038737
 30
0.0
 10
823.3707087349452
 20
2069.139994951142
 30
0.0
 10
823.2172555216294
 20
2069.56160418967
 30
0.0
 10
823.163735858492
 20
2069.708648255637
 30
0.0
 10
823.161959414468
 20
2069.713528995481
 30
0.0
1001
REVIT
1002
{
1070
     3
1000
923255
1002
}
  0
LINE
  5
F0
330
87
100
AcDbEntity
  8
M-PIPE
100
AcDbLine
 10
822.5933803931527
 20
2069.813784817602
 30
0.0
 11
778.4278272162149
 21
2053.738838081296
 31
0.0
1001
REVIT
1002
{
1070
     3
1000
923255
1002
}
  0
LINE
  5
F1
330
87
100
AcDbEntity
  8
M-PIPE
100
AcDbLine
 10
816.1813654791567
 20
2084.506846606851
 30
0.0
 11
773.8951975437902
 21
2069.115940157196
 31
0.0
1001
REVIT
1002
{
1070
     3
1000
923255
1002
}
  0
LWPOLYLINE
  5
F2
330
87
100
AcDbEntity
  8
P-SANR-FIXT
100
AcDbPolyline
 90
        5
 70
   128
 43
0.0
 10
783.0334860589931
 20
2109.794297812924
 10
786.7447692812397
 20
2111.050034196308
 10
790.5032999346433
 20
2112.156354379487
 10
794.3030651719348
 20
2113.111488486171
 10
796.1617437794991
 20
2113.520397389539
  0
LWPOLYLINE
  5
F3
330
87
100
AcDbEntity
  8
P-SANR-FIXT
100
AcDbPolyline
 90
        5
 70
   128
 43
0.0
 10
770.581566544059
 20
2104.209974288585
 10
774.0724027906984
 20
2105.988895118592
 10
777.6315846002391
 20
2107.626796784419
 10
781.2534180410374
 20
2109.1210589928
 10
783.0334860589931
 20
2109.794297812924
  0
LWPOLYLINE
  5
F4
330
87
100
AcDbEntity
  8
P-SANR-FIXT
100
AcDbPolyline
 90
       32
 70
   128
 43
0.0
 10
796.1617437794991
 20
2113.520397389539
 10
796.3582500618177
 20
2113.557545040346
 10
796.5560846698921
 20
2113.586804821601
 10
796.7549311105523
 20
2113.608129923896
 10
796.9544712719112
 20
2113.621486231616
 10
797.1543859322772
 20
2113.626852377518
 10
797.35435527084
 20
2113.624219776914
 10
797.5540593793152
 20
2113.613592641403
 10
797.753178773731
 20
2113.594987972135
 10
797.9513949055327
 20
2113.56843553261
 10
798.1483906711932
 20
2113.53397780107
 10
798.3438509195111
 20
2113.491669902534
 10
798.5374629557851
 20
2113.441579520613
 10
798.7289170420587
 20
2113.383786789234
 10
798.9179068926354
 20
2113.318384164438
 10
799.1041301640697
 20
2113.245476276475
 10
799.2872889388531
 20
2113.165179762409
 10
799.4670902020175
 20
2113.077623079537
 10
799.6432463098975
 20
2112.982946299873
 10
799.8154754502985
 20
2112.881300886066
 10
799.9835020933361
 20
2112.772849449098
 10
800.1470574322251
 20
2112.65776548813
 10
800.3058798133134
 20
2112.536233112951
 10
800.4597151546715
 20
2112.408446749436
 10
800.6083173525697
 20
2112.274610828507
 10
800.7514486751912
 20
2112.134939459087
 10
800.8888801429531
 20
2111.989656085572
 10
801.0203918948244
 20
2111.838993130368
 10
801.1457735400558
 20
2111.683191622063
 10
801.2648244947619
 20
2111.522500809835
 10
801.3773543028118
 20
2111.357177764703
 10
801.4310695101967
 20
2111.272937839899
  0
LWPOLYLINE
  5
F5
330
87
100
AcDbEntity
  8
P-SANR-FIXT
100
AcDbPolyline
 90
       32
 70
   128
 43
0.0
 10
767.9896680008545
 20
2099.101263098354
 10
767.9656315279649
 20
2099.299800034268
 10
767.9495536415686
 20
2099.499139364356
 10
767.941460062854
 20
2099.698962188215
 10
767.9413637398204
 20
2099.898948831951
 10
767.9492648265643
 20
2100.098779359598
 10
767.9651506830321
 20
2100.298134084937
 10
767.9889958952425
 20
2100.496694082937
 10
768.0207623159427
 20
2100.694141699958
 10
768.060399125636
 20
2100.890161061931
 10
768.1078429138819
 20
2101.084438579694
 10
768.1630177807408
 20
2101.27666345066
 10
768.2258354581952
 20
2101.466528156044
 10
768.2961954513615
 20
2101.653728952818
 10
768.3739851992602
 20
2101.83796635964
 10
768.4590802548888
 20
2102.018945635965
 10
768.551344484311
 20
2102.196377253554
 10
768.6506302844418
 20
2102.36997735967
 10
768.7567788191804
 20
2102.539468231176
 10
768.8696202735158
 20
2102.704578718833
 10
768.988974125192
 20
2102.865044681085
 10
769.1146494335071
 20
2103.02060940662
 10
769.2464451447776
 20
2103.171024025065
 10
769.3841504139799
 20
2103.316047905116
 10
769.527544942059
 20
2103.455449039502
 10
769.6763993283592
 20
2103.589004416145
 10
769.8304754376164
 20
2103.716500374933
 10
769.9895267809235
 20
2103.837732949529
 10
770.1532989100607
 20
2103.952508193676
 10
770.3215298245567
 20
2104.060642491468
 10
770.4939503908365
 20
2104.161962851095
 10
770.581566544059
 20
2104.209974288585
  0
LWPOLYLINE
  5
F6
330
87
100
AcDbEntity
  8
P-SANR-FIXT
100
AcDbPolyline
 90
        3
 70
   128
 43
0.0
 10
801.4310695101954
 20
2111.272937839901
 10
807.7069084186589
 20
2100.747241629772
 10
810.4965747564198
 20
2095.739974151685
  0
LWPOLYLINE
  5
F7
330
87
100
AcDbEntity
  8
P-SANR-FIXT
100
AcDbPolyline
 90
        3
 70
   128
 43
0.0
 10
771.0294846834143
 20
2081.375128132008
 10
768.8453058744453
 20
2093.433560768273
 10
767.9896680008545
 20
2099.101263098356
  0
LINE
  5
F8
330
87
100
AcDbEntity
  8
P-SANR-FIXT
100
AcDbLine
 10
810.4357428228084
 20
2095.717833138557
 30
0.0
 11
810.4241704342161
 21
2095.71362113357
 31
0.0
  0
LINE
  5
F9
330
87
100
AcDbEntity
  8
P-SANR-FIXT
100
AcDbLine
 10
810.2536220710785
 20
2095.651546605885
 30
0.0
 11
810.0189371752254
 21
2095.566128289362
 31
0.0
  0
LINE
  5
FA
330
87
100
AcDbEntity
  8
P-SANR-FIXT
100
AcDbLine
 10
809.6481071367159
 20
2095.431157193373
 30
0.0
 11
809.1766114198529
 21
2095.259546786852
 31
0.0
  0
LINE
  5
FB
330
87
100
AcDbEntity
  8
P-SANR-FIXT
100
AcDbLine
 10
808.99444808303
 20
2095.193244754473
 30
0.0
 11
808.8741938919207
 21
2095.149475808364
 31
0.0
  0
LINE
  5
FC
330
87
100
AcDbEntity
  8
P-SANR-FIXT
100
AcDbLine
 10
808.6080865804627
 20
2095.052620667873
 30
0.0
 11
807.9482634394778
 21
2094.812464684673
 31
0.0
  0
LINE
  5
FD
330
87
100
AcDbEntity
  8
P-SANR-FIXT
100
AcDbLine
 10
807.5886428031282
 20
2094.681573477414
 30
0.0
 11
807.2026225084728
 21
2094.541073580337
 31
0.0
  0
LINE
  5
FE
330
87
100
AcDbEntity
  8
P-SANR-FIXT
100
AcDbLine
 10
806.3743986543142
 20
2094.239624750115
 30
0.0
 11
805.7685350881092
 21
2094.019108445989
 31
0.0
  0
LINE
  5
FF
330
87
100
AcDbEntity
  8
P-SANR-FIXT
100
AcDbLine
 10
805.4663502503224
 20
2093.909122159788
 30
0.0
 11
804.7167532320766
 21
2093.636291157452
 31
0.0
  0
LINE
  5
100
330
87
100
AcDbEntity
  8
P-SANR-FIXT
100
AcDbLine
 10
804.4808312679592
 20
2093.550422584904
 30
0.0
 11
803.5789420305079
 21
2093.222161747867
 31
0.0
  0
LINE
  5
101
330
87
100
AcDbEntity
  8
P-SANR-FIXT
100
AcDbLine
 10
803.4198670503672
 20
2093.164263190079
 30
0.0
 11
802.362116467821
 21
2092.779273462754
 31
0.0
  0
LINE
  5
102
330
87
100
AcDbEntity
  8
P-SANR-FIXT
100
AcDbLine
 10
802.2888289814705
 20
2092.752598999179
 30
0.0
 11
801.0968983909585
 21
2092.318771742921
 31
0.0
  0
LINE
  5
103
330
87
100
AcDbEntity
  8
P-SANR-FIXT
100
AcDbLine
 10
801.0737786782456
 20
2092.310356855668
 30
0.0
 11
799.8521018502763
 21
2091.865702854395
 31
0.0
  0
LINE
  5
104
330
87
100
AcDbEntity
  8
P-SANR-FIXT
100
AcDbLine
 10
799.7218716926702
 20
2091.818302953423
 30
0.0
 11
798.556640300353
 21
2091.394193410586
 31
0.0
  0
LINE
  5
105
330
87
100
AcDbEntity
  8
P-SANR-FIXT
100
AcDbLine
 10
798.3147304672154
 20
2091.306145431948
 30
0.0
 11
797.2173349784217
 21
2090.906726138809
 31
0.0
  0
LINE
  5
106
330
87
100
AcDbEntity
  8
P-SANR-FIXT
100
AcDbLine
 10
796.8610304954583
 20
2090.777041912675
 30
0.0
 11
795.8412809748448
 21
2090.405883440764
 31
0.0
  0
LINE
  5
107
330
87
100
AcDbEntity
  8
P-SANR-FIXT
100
AcDbLine
 10
795.8378881202208
 20
2090.404648542673
 30
0.0
 11
785.6228405006175
 21
2086.686675267525
 31
0.0
  0
LINE
  5
108
330
87
100
AcDbEntity
  8
P-SANR-FIXT
100
AcDbLine
 10
785.619220914805
 20
2086.685357846029
 30
0.0
 11
784.6650289443727
 21
2086.338060371016
 31
0.0
  0
LINE
  5
109
330
87
100
AcDbEntity
  8
P-SANR-FIXT
100
AcDbLine
 10
784.2404857010625
 20
2086.183539267292
 30
0.0
 11
781.8041877471609
 21
2085.296799330268
 31
0.0
  0
LINE
  5
10A
330
87
100
AcDbEntity
  8
P-SANR-FIXT
100
AcDbLine
 10
781.6059054328137
 20
2085.224630469864
 30
0.0
 11
780.4522807615853
 21
2084.804745428022
 31
0.0
  0
LINE
  5
10B
330
87
100
AcDbEntity
  8
P-SANR-FIXT
100
AcDbLine
 10
780.3637661198048
 20
2084.772528733117
 30
0.0
 11
779.179404474909
 21
2084.341456347768
 31
0.0
  0
LINE
  5
10C
330
87
100
AcDbEntity
  8
P-SANR-FIXT
100
AcDbLine
 10
779.16394297201
 20
2084.335828820936
 30
0.0
 11
778.0540829232489
 21
2083.931872798986
 31
0.0
  0
LINE
  5
10D
330
87
100
AcDbEntity
  8
P-SANR-FIXT
100
AcDbLine
 10
777.9471174093231
 20
2083.892940535824
 30
0.0
 11
777.0005241666252
 21
2083.548408771525
 31
0.0
  0
LINE
  5
10E
330
87
100
AcDbEntity
  8
P-SANR-FIXT
100
AcDbLine
 10
776.8093062077542
 20
2083.478811126239
 30
0.0
 11
776.0238147189595
 21
2083.192915605048
 31
0.0
  0
LINE
  5
10F
330
87
100
AcDbEntity
  8
P-SANR-FIXT
100
AcDbLine
 10
775.7575243517221
 20
2083.095993837702
 30
0.0
 11
775.1247604246469
 21
2082.865686602929
 31
0.0
  0
LINE
  5
110
330
87
100
AcDbEntity
  8
P-SANR-FIXT
100
AcDbLine
 10
774.3047223645088
 20
2082.567217158073
 30
0.0
 11
773.5657195163679
 21
2082.298242118312
 31
0.0
  0
LINE
  5
111
330
87
100
AcDbEntity
  8
P-SANR-FIXT
100
AcDbLine
 10
773.1803123470267
 20
2082.157965380599
 30
0.0
 11
772.9105311516914
 21
2082.059773055732
 31
0.0
  0
LINE
  5
112
330
87
100
AcDbEntity
  8
P-SANR-FIXT
100
AcDbLine
 10
772.5316113568011
 20
2081.921857529218
 30
0.0
 11
772.3450431804161
 21
2081.853952266352
 31
0.0
  0
LINE
  5
113
330
87
100
AcDbEntity
  8
P-SANR-FIXT
100
AcDbLine
 10
771.8756376798393
 20
2081.683102636342
 30
0.0
 11
771.506111088641
 21
2081.548605956375
 31
0.0
  0
SPLINE
  5
114
330
87
100
AcDbEntity
  8
P-SANR-FIXT
100
AcDbSpline
210
0.0
220
0.0
230
1.0
 70
     8
 71
     3
 72
    23
 73
    19
 74
     0
 42
0.000000001
 43
0.0000000001
 40
-1.0
 40
-1.0
 40
-1.0
 40
-1.0
 40
-0.9166666666666666
 40
-0.875
 40
-0.8333333333333332
 40
-0.75
 40
-0.7083333333333333
 40
-0.6666666666666666
 40
-0.5833333333333333
 40
-0.5
 40
-0.4166666666666666
 40
-0.3333333333333333
 40
-0.2916666666666666
 40
-0.25
 40
-0.1666666666666666
 40
-0.125
 40
-0.0833333333333333
 40
0.0
 40
0.0
 40
0.0
 40
0.0
 10
768.9953153058926
 20
2099.467288783559
 30
0.0
 10
768.9866014947069
 20
2099.704315776814
 30
0.0
 10
769.0013506539224
 20
2100.041738238493
 30
0.0
 10
769.0734793659439
 20
2100.454642188855
 30
0.0
 10
769.176438446003
 20
2100.840310147918
 30
0.0
 10
769.3362962795953
 20
2101.195394749029
 30
0.0
 10
769.5275180504706
 20
2101.502787976736
 30
0.0
 10
769.723904678681
 20
2101.766989639015
 30
0.0
 10
769.9952861193986
 20
2102.022400238257
 30
0.0
 10
770.322618742995
 20
2102.203308229229
 30
0.0
 10
770.6393095534922
 20
2102.255303066872
 30
0.0
 10
770.8825436554443
 20
2102.186080105066
 30
0.0
 10
771.0622389493877
 20
2102.056731263682
 30
0.0
 10
771.2394505351075
 20
2101.880647480461
 30
0.0
 10
771.4022918624151
 20
2101.641265110124
 30
0.0
 10
771.5548154456067
 20
2101.349888444145
 30
0.0
 10
771.7078653503851
 20
2101.021183566812
 30
0.0
 10
771.8251201840552
 20
2100.73485085721
 30
0.0
 10
771.9067125740656
 20
2100.526950729298
 30
0.0
  0
SPLINE
  5
115
330
87
100
AcDbEntity
  8
P-SANR-FIXT
100
AcDbSpline
210
0.0
220
0.0
230
1.0
 70
     8
 71
     3
 72
    23
 73
    19
 74
     0
 42
0.000000001
 43
0.0000000001
 40
-1.0
 40
-1.0
 40
-1.0
 40
-1.0
 40
-0.9166666666666666
 40
-0.875
 40
-0.8333333333333332
 40
-0.75
 40
-0.7083333333333333
 40
-0.6666666666666666
 40
-0.5833333333333333
 40
-0.5
 40
-0.4166666666666666
 40
-0.3333333333333333
 40
-0.2916666666666666
 40
-0.25
 40
-0.1666666666666666
 40
-0.125
 40
-0.0833333333333333
 40
0.0
 40
0.0
 40
0.0
 40
0.0
 10
781.7989714873505
 20
2104.127438523388
 30
0.0
 10
781.7956142680611
 20
2104.366415156651
 30
0.0
 10
781.8221450025876
 20
2104.708125761055
 30
0.0
 10
781.9242729451557
 20
2105.131948538387
 30
0.0
 10
782.0687982360377
 20
2105.532745360941
 30
0.0
 10
782.2961727966288
 20
2105.912404040995
 30
0.0
 10
782.587687546187
 20
2106.256300927649
 30
0.0
 10
782.9013722304965
 20
2106.563195590885
 30
0.0
 10
783.3631732188707
 20
2106.887913237496
 30
0.0
 10
783.9826697201783
 20
2107.175160183483
 30
0.0
 10
784.6502105252336
 20
2107.354853975838
 30
0.0
 10
785.2200697095504
 20
2107.404512821777
 30
0.0
 10
785.6591595137055
 20
2107.369575861042
 30
0.0
 10
786.1046507001137
 20
2107.291137866932
 30
0.0
 10
786.5223835208682
 20
2107.144528413178
 30
0.0
 10
786.8887612244708
 20
2106.930988281503
 30
0.0
 10
787.2365335477419
 20
2106.673156568446
 30
0.0
 10
787.4733065770648
 20
2106.430324924514
 30
0.0
 10
787.6217660236964
 20
2106.246762414866
 30
0.0
  0
SPLINE
  5
116
330
87
100
AcDbEntity
  8
P-SANR-FIXT
100
AcDbSpline
210
0.0
220
0.0
230
1.0
 70
     8
 71
     3
 72
    23
 73
    19
 74
     0
 42
0.000000001
 43
0.0000000001
 40
-1.0
 40
-1.0
 40
-1.0
 40
-1.0
 40
-0.9166666666666666
 40
-0.875
 40
-0.8333333333333332
 40
-0.75
 40
-0.7083333333333333
 40
-0.6666666666666666
 40
-0.5833333333333333
 40
-0.5
 40
-0.4166666666666666
 40
-0.3333333333333333
 40
-0.2916666666666666
 40
-0.25
 40
-0.1666666666666666
 40
-0.125
 40
-0.0833333333333333
 40
0.0
 40
0.0
 40
0.0
 40
0.0
 10
797.5140249369811
 20
2109.847250208956
 30
0.0
 10
797.4421831993902
 20
2110.061300516049
 30
0.0
 10
797.3472446097818
 20
2110.358799902092
 30
0.0
 10
797.2529765251807
 20
2110.711140371407
 30
0.0
 10
797.1826353676899
 20
2111.03373220241
 30
0.0
 10
797.1547299179364
 20
2111.320476557295
 30
0.0
 10
797.1785973155297
 20
2111.566957774554
 30
0.0
 10
797.2339554656267
 20
2111.779829268615
 30
0.0
 10
797.3740332270407
 20
2111.987449236941
 30
0.0
 10
797.6463450403262
 20
2112.148331290695
 30
0.0
 10
798.0175300036465
 20
2112.220160377907
 30
0.0
 10
798.3948559019759
 20
2112.199742838641
 30
0.0
 10
798.7168426847537
 20
2112.122183863783
 30
0.0
 10
799.0624443401145
 20
2112.007389053657
 30
0.0
 10
799.413320661083
 20
2111.836445824013
 30
0.0
 10
799.7386633067373
 20
2111.607970152683
 30
0.0
 10
800.0569328742781
 20
2111.339400314712
 30
0.0
 10
800.2821928388753
 20
2111.092378257915
 30
0.0
 10
800.4254222051541
 20
2110.906912154696
 30
0.0
  0
SPLINE
  5
117
330
87
100
AcDbEntity
  8
P-SANR-FIXT
100
AcDbSpline
210
0.0
220
0.0
230
1.0
 70
     8
 71
     3
 72
     9
 73
     5
 74
     0
 42
0.000000001
 43
0.0000000001
 40
-1.0
 40
-1.0
 40
-1.0
 40
-1.0
 40
-0.5
 40
0.0
 40
0.0
 40
0.0
 40
0.0
 10
800.4254222051541
 20
2110.906912154696
 30
0.0
 10
801.6998269681069
 20
2109.081761658022
 30
0.0
 10
804.2365780291085
 20
2105.384297267761
 30
0.0
 10
806.5774469090865
 20
2101.529988644947
 30
0.0
 10
807.682039884389
 20
2099.557482762904
 30
0.0
  0
LINE
  5
118
330
87
100
AcDbEntity
  8
P-SANR-FIXT
100
AcDbLine
 10
807.6820398843882
 20
2099.557482762905
 30
0.0
 11
802.4843248970215
 21
2097.665669221305
 31
0.0
  0
SPLINE
  5
119
330
87
100
AcDbEntity
  8
P-SANR-FIXT
100
AcDbSpline
210
0.0
220
0.0
230
1.0
 70
     8
 71
     3
 72
     9
 73
     5
 74
     0
 42
0.000000001
 43
0.0000000001
 40
-1.0
 40
-1.0
 40
-1.0
 40
-1.0
 40
-0.5
 40
0.0
 40
0.0
 40
0.0
 40
0.0
 10
802.4843248970222
 20
2097.665669221302
 30
0.0
 10
801.5909357927311
 20
2099.715047025756
 30
0.0
 10
799.807506235894
 20
2103.772246969603
 30
0.0
 10
798.2075562353595
 20
2107.810679061303
 30
0.0
 10
797.5140249369811
 20
2109.847250208956
 30
0.0
  0
SPLINE
  5
11A
330
87
100
AcDbEntity
  8
P-SANR-FIXT
100
AcDbSpline
210
0.0
220
0.0
230
1.0
 70
     8
 71
     3
 72
     9
 73
     5
 74
     0
 42
0.000000001
 43
0.0000000001
 40
-1.0
 40
-1.0
 40
-1.0
 40
-1.0
 40
-0.5
 40
0.0
 40
0.0
 40
0.0
 40
0.0
 10
787.6217660236964
 20
2106.246762414866
 30
0.0
 10
788.9383085888123
 20
2104.436948823918
 30
0.0
 10
791.3601953015102
 20
2100.697677229896
 30
0.0
 10
793.4302151791778
 20
2096.74478763226
 30
0.0
 10
794.4045830530271
 20
2094.724883689533
 30
0.0
  0
LINE
  5
11B
330
87
100
AcDbEntity
  8
P-SANR-FIXT
100
AcDbLine
 10
794.4045830530265
 20
2094.724883689536
 30
0.0
 11
784.0091530782931
 21
2090.941256606334
 31
0.0
  0
SPLINE
  5
11C
330
87
100
AcDbEntity
  8
P-SANR-FIXT
100
AcDbSpline
210
0.0
220
0.0
230
1.0
 70
     8
 71
     3
 72
     9
 73
     5
 74
     0
 42
0.000000001
 43
0.0000000001
 40
-1.0
 40
-1.0
 40
-1.0
 40
-1.0
 40
-0.5
 40
0.0
 40
0.0
 40
0.0
 40
0.0
 10
784.0091530782935
 20
2090.941256606332
 30
0.0
 10
783.4571929464678
 20
2093.114904393878
 30
0.0
 10
782.5020517150816
 20
2097.47357663358
 30
0.0
 10
781.9537671233176
 20
2101.89478363048
 30
0.0
 10
781.7989714873505
 20
2104.127438523388
 30
0.0
  0
SPLINE
  5
11D
330
87
100
AcDbEntity
  8
P-SANR-FIXT
100
AcDbSpline
210
0.0
220
0.0
230
1.0
 70
     8
 71
     3
 72
     9
 73
     5
 74
     0
 42
0.000000001
 43
0.0000000001
 40
-1.0
 40
-1.0
 40
-1.0
 40
-1.0
 40
-0.5
 40
0.0
 40
0.0
 40
0.0
 40
0.0
 10
771.9067125740656
 20
2100.526950729298
 30
0.0
 10
772.6845194767702
 20
2098.521053393095
 30
0.0
 10
774.0547407806979
 20
2094.399006893873
 30
0.0
 10
775.2964723329146
 20
2090.144645000382
 30
0.0
 10
775.9294112342984
 20
2088.000471074562
 30
0.0
  0
LINE
  5
11E
330
87
100
AcDbEntity
  8
P-SANR-FIXT
100
AcDbLine
 10
775.9294112342983
 20
2088.000471074565
 30
0.0
 11
770.7316962469315
 21
2086.108657532964
 31
0.0
  0
SPLINE
  5
11F
330
87
100
AcDbEntity
  8
P-SANR-FIXT
100
AcDbSpline
210
0.0
220
0.0
230
1.0
 70
     8
 71
     3
 72
     9
 73
     5
 74
     0
 42
0.000000001
 43
0.0000000001
 40
-1.0
 40
-1.0
 40
-1.0
 40
-1.0
 40
-0.5
 40
0.0
 40
0.0
 40
0.0
 40
0.0
 10
770.7316962469317
 20
2086.108657532962
 30
0.0
 10
770.3099612165597
 20
2088.329703381191
 30
0.0
 10
769.6256689874838
 20
2092.786956595715
 30
0.0
 10
769.192248744023
 20
2097.249970796376
 30
0.0
 10
768.9953153058926
 20
2099.467288783559
 30
0.0
  0
LINE
  5
120
330
87
100
AcDbEntity
  8
P-SANR-FIXT
100
AcDbLine
 10
852.5210863275679
 20
1983.53034488539
 30
0.0
 11
861.9188188871587
 21
1983.53034488539
 31
0.0
  0
LINE
  5
121
330
87
100
AcDbEntity
  8
P-SANR-FIXT
100
AcDbLine
 10
861.9188188871586
 20
2016.469655114601
 30
0.0
 11
852.5210863275679
 21
2016.469655114601
 31
0.0
  0
LINE
  5
122
330
87
100
AcDbEntity
  8
P-SANR-FIXT
100
AcDbLine
 10
864.6148455245992
 20
2011.799999999996
 30
0.0
 11
862.0281859824016
 21
2016.280225748964
 31
0.0
  0
LINE
  5
123
330
87
100
AcDbEntity
  8
P-SANR-FIXT
100
AcDbLine
 10
862.0130080650669
 20
2016.306514672942
 30
0.0
 11
861.9188188871587
 21
2016.469655114601
 31
0.0
  0
LINE
  5
124
330
87
100
AcDbEntity
  8
P-SANR-FIXT
100
AcDbLine
 10
861.9188188871587
 20
1983.53034488539
 30
0.0
 11
862.0130080650669
 21
1983.69348532705
 31
0.0
  0
LINE
  5
125
330
87
100
AcDbEntity
  8
P-SANR-FIXT
100
AcDbLine
 10
862.0281859824016
 20
1983.719774251028
 30
0.0
 11
864.6148455245992
 21
1988.199999999996
 31
0.0
  0
LINE
  5
126
330
87
100
AcDbEntity
  8
P-SANR-FIXT
100
AcDbLine
 10
851.6148455245989
 20
1985.100000000025
 30
0.0
 11
852.4117192323251
 21
1983.719774251028
 31
0.0
  0
LINE
  5
127
330
87
100
AcDbEntity
  8
P-SANR-FIXT
100
AcDbLine
 10
852.4268540167408
 20
1983.693560035458
 30
0.0
 11
852.5210863275679
 21
1983.53034488539
 31
0.0
  0
LINE
  5
128
330
87
100
AcDbEntity
  8
P-SANR-FIXT
100
AcDbLine
 10
852.5210863275679
 20
2016.469655114601
 30
0.0
 11
852.426854016741
 21
2016.306439964534
 31
0.0
  0
LINE
  5
129
330
87
100
AcDbEntity
  8
P-SANR-FIXT
100
AcDbLine
 10
852.4117192323251
 20
2016.280225748964
 30
0.0
 11
851.6148455245989
 21
2014.899999999967
 31
0.0
  0
LINE
  5
12A
330
87
100
AcDbEntity
  8
P-SANR-FIXT
100
AcDbLine
 10
851.6148455245975
 20
1985.100000000024
 30
0.0
 11
851.6148455245975
 21
2014.899999999966
 31
0.0
  0
LINE
  5
12B
330
87
100
AcDbEntity
  8
P-SANR-FIXT
100
AcDbLine
 10
864.6148455245977
 20
2011.799999999995
 30
0.0
 11
864.6148455245977
 21
1988.199999999995
 31
0.0
  0
SPLINE
  5
12C
330
87
100
AcDbEntity
  8
P-SANR-FIXT
100
AcDbSpline
210
0.0
220
0.0
230
1.0
 70
     8
 71
     3
 72
    10
 73
     6
 74
     0
 42
0.000000001
 43
0.0000000001
 40
0.0
 40
0.0
 40
0.0
 40
0.0
 40
0.4
 40
0.7
 40
1.0
 40
1.0
 40
1.0
 40
1.0
 10
862.2065279052526
 20
2005.484827557298
 30
0.0
 10
862.0548863694896
 20
2006.243960950943
 30
0.0
 10
861.8912890335552
 20
2007.589665129762
 30
0.0
 10
861.9315911387534
 20
2009.235875146519
 30
0.0
 10
862.0929658935848
 20
2009.963879380622
 30
0.0
 10
862.2065279052586
 20
2010.247967278112
 30
0.0
  0
SPLINE
  5
12D
330
87
100
AcDbEntity
  8
P-SANR-FIXT
100
AcDbSpline
210
0.0
220
0.0
230
1.0
 70
     8
 71
     3
 72
    10
 73
     6
 74
     0
 42
0.000000001
 43
0.0000000001
 40
0.0
 40
0.0
 40
0.0
 40
0.0
 40
0.4
 40
0.7
 40
1.0
 40
1.0
 40
1.0
 40
1.0
 10
852.2333773094651
 20
2010.247967278112
 30
0.0
 10
852.3847933250305
 20
2009.869183414792
 30
0.0
 10
852.5485214610796
 20
2008.953398768601
 30
0.0
 10
852.5084965303303
 20
2007.20295409256
 30
0.0
 10
852.3471084612932
 20
2006.054177602532
 30
0.0
 10
852.2333773094709
 20
2005.484827557298
 30
0.0
  0
SPLINE
  5
12E
330
87
100
AcDbEntity
  8
P-SANR-FIXT
100
AcDbSpline
210
0.0
220
0.0
230
1.0
 70
     8
 71
     3
 72
     9
 73
     5
 74
     0
 42
0.000000001
 43
0.0000000001
 40
0.0
 40
0.0
 40
0.0
 40
0.0
 40
0.5
 40
1.0
 40
1.0
 40
1.0
 40
1.0
 10
852.2333773094709
 20
2005.484827557298
 30
0.0
 10
851.8595360738672
 20
2003.628160043269
 30
0.0
 10
851.4856948382634
 20
1999.943216676806
 30
0.0
 10
851.859536073867
 20
1996.315056633532
 30
0.0
 10
852.2333773094707
 20
1994.515172442692
 30
0.0
  0
SPLINE
  5
12F
330
87
100
AcDbEntity
  8
P-SANR-FIXT
100
AcDbSpline
210
0.0
220
0.0
230
1.0
 70
     8
 71
     3
 72
     9
 73
     5
 74
     0
 42
0.000000001
 43
0.0000000001
 40
0.0
 40
0.0
 40
0.0
 40
0.0
 40
0.5
 40
1.0
 40
1.0
 40
1.0
 40
1.0
 10
862.2065279052526
 20
1994.515172442692
 30
0.0
 10
862.5803691408565
 20
1996.315056633532
 30
0.0
 10
862.9542103764602
 20
1999.943216676806
 30
0.0
 10
862.5803691408563
 20
2003.628160043269
 30
0.0
 10
862.2065279052526
 20
2005.484827557298
 30
0.0
  0
SPLINE
  5
130
330
87
100
AcDbEntity
  8
P-SANR-FIXT
100
AcDbSpline
210
0.0
220
0.0
230
1.0
 70
     8
 71
     3
 72
    10
 73
     6
 74
     0
 42
0.000000001
 43
0.0000000001
 40
0.0
 40
0.0
 40
0.0
 40
0.0
 40
0.4
 40
0.7
 40
1.0
 40
1.0
 40
1.0
 40
1.0
 10
852.2333773094707
 20
1994.515172442692
 30
0.0
 10
852.3850188452339
 20
1993.756039049047
 30
0.0
 10
852.5486161811684
 20
1992.410334870228
 30
0.0
 10
852.5083140759702
 20
1990.764124853471
 30
0.0
 10
852.346939321139
 20
1990.036120619368
 30
0.0
 10
852.2333773094651
 20
1989.752032721878
 30
0.0
  0
SPLINE
  5
131
330
87
100
AcDbEntity
  8
P-SANR-FIXT
100
AcDbSpline
210
0.0
220
0.0
230
1.0
 70
     8
 71
     3
 72
    10
 73
     6
 74
     0
 42
0.000000001
 43
0.0000000001
 40
0.0
 40
0.0
 40
0.0
 40
0.0
 40
0.4
 40
0.7
 40
1.0
 40
1.0
 40
1.0
 40
1.0
 10
862.2065279052588
 20
1989.752032721878
 30
0.0
 10
862.0551118896935
 20
1990.130816585197
 30
0.0
 10
861.8913837536442
 20
1991.046601231389
 30
0.0
 10
861.9314086843933
 20
1992.79704590743
 30
0.0
 10
862.0927967534303
 20
1993.945822397458
 30
0.0
 10
862.2065279052526
 20
1994.515172442692
 30
0.0
  0
SPLINE
  5
132
330
87
100
AcDbEntity
  8
P-SANR-FIXT
100
AcDbSpline
210
0.0
220
0.0
230
1.0
 70
     8
 71
     3
 72
     9
 73
     5
 74
     0
 42
0.000000001
 43
0.0000000001
 40
0.0
 40
0.0
 40
0.0
 40
0.0
 40
0.5
 40
1.0
 40
1.0
 40
1.0
 40
1.0
 10
852.2333773094651
 20
1989.752032721878
 30
0.0
 10
851.8595360738572
 20
1988.823698964864
 30
0.0
 10
851.4856948382458
 20
1986.981227281632
 30
0.0
 10
851.8595360738435
 20
1985.167147259995
 30
0.0
 10
852.2333773094448
 20
1984.267205164575
 30
0.0
  0
SPLINE
  5
133
330
87
100
AcDbEntity
  8
P-SANR-FIXT
100
AcDbSpline
210
0.0
220
0.0
230
1.0
 70
     8
 71
     3
 72
     9
 73
     5
 74
     0
 42
0.000000001
 43
0.0000000001
 40
0.0
 40
0.0
 40
0.0
 40
0.0
 40
0.5
 40
1.0
 40
1.0
 40
1.0
 40
1.0
 10
862.206527905279
 20
1984.267205164575
 30
0.0
 10
862.5803691408803
 20
1985.167147259995
 30
0.0
 10
862.9542103764778
 20
1986.981227281632
 30
0.0
 10
862.5803691408668
 20
1988.823698964864
 30
0.0
 10
862.2065279052588
 20
1989.752032721878
 30
0.0
  0
SPLINE
  5
134
330
87
100
AcDbEntity
  8
P-SANR-FIXT
100
AcDbSpline
210
0.0
220
0.0
230
1.0
 70
     8
 71
     3
 72
     9
 73
     5
 74
     0
 42
0.000000001
 43
0.0000000001
 40
0.0
 40
0.0
 40
0.0
 40
0.0
 40
0.5
 40
1.0
 40
1.0
 40
1.0
 40
1.0
 10
852.2333773094448
 20
1984.267205164575
 30
0.0
 10
852.3284815471042
 20
1984.029818907645
 30
0.0
 10
852.4715372877839
 20
1983.659466605538
 30
0.0
 10
852.5202875591855
 20
1983.530344885384
 30
0.0
 10
852.5210863275665
 20
1983.530344885389
 30
0.0
  0
SPLINE
  5
135
330
87
100
AcDbEntity
  8
P-SANR-FIXT
100
AcDbSpline
210
0.0
220
0.0
230
1.0
 70
     8
 71
     3
 72
     9
 73
     5
 74
     0
 42
0.000000001
 43
0.0000000001
 40
0.0
 40
0.0
 40
0.0
 40
0.0
 40
0.5
 40
1.0
 40
1.0
 40
1.0
 40
1.0
 10
861.9188188871573
 20
1983.530344885389
 30
0.0
 10
861.9196176555384
 20
1983.530344885384
 30
0.0
 10
861.9683679269398
 20
1983.659466605538
 30
0.0
 10
862.1114236676197
 20
1984.029818907645
 30
0.0
 10
862.206527905279
 20
1984.267205164575
 30
0.0
  0
SPLINE
  5
136
330
87
100
AcDbEntity
  8
P-SANR-FIXT
100
AcDbSpline
210
0.0
220
0.0
230
1.0
 70
     8
 71
     3
 72
     9
 73
     5
 74
     0
 42
0.000000001
 43
0.0000000001
 40
0.0
 40
0.0
 40
0.0
 40
0.0
 40
0.5
 40
1.0
 40
1.0
 40
1.0
 40
1.0
 10
852.5210863275665
 20
2016.469655114601
 30
0.0
 10
852.5202875591855
 20
2016.469655114606
 30
0.0
 10
852.4715372877841
 20
2016.340533394452
 30
0.0
 10
852.3284815471042
 20
2015.970181092345
 30
0.0
 10
852.2333773094448
 20
2015.732794835415
 30
0.0
  0
SPLINE
  5
137
330
87
100
AcDbEntity
  8
P-SANR-FIXT
100
AcDbSpline
210
0.0
220
0.0
230
1.0
 70
     8
 71
     3
 72
     9
 73
     5
 74
     0
 42
0.000000001
 43
0.0000000001
 40
0.0
 40
0.0
 40
0.0
 40
0.0
 40
0.5
 40
1.0
 40
1.0
 40
1.0
 40
1.0
 10
862.2065279052788
 20
2015.732794835415
 30
0.0
 10
862.1114236676193
 20
2015.970181092345
 30
0.0
 10
861.9683679269398
 20
2016.340533394452
 30
0.0
 10
861.9196176555384
 20
2016.469655114606
 30
0.0
 10
861.9188188871572
 20
2016.469655114601
 30
0.0
  0
SPLINE
  5
138
330
87
100
AcDbEntity
  8
P-SANR-FIXT
100
AcDbSpline
210
0.0
220
0.0
230
1.0
 70
     8
 71
     3
 72
     9
 73
     5
 74
     0
 42
0.000000001
 43
0.0000000001
 40
0.0
 40
0.0
 40
0.0
 40
0.0
 40
0.5
 40
1.0
 40
1.0
 40
1.0
 40
1.0
 10
852.2333773094448
 20
2015.732794835415
 30
0.0
 10
851.8595360738439
 20
2014.8044610784
 30
0.0
 10
851.4856948382462
 20
2012.961989395169
 30
0.0
 10
851.8595360738574
 20
2011.147909373532
 30
0.0
 10
852.2333773094651
 20
2010.247967278113
 30
0.0
  0
SPLINE
  5
139
330
87
100
AcDbEntity
  8
P-SANR-FIXT
100
AcDbSpline
210
0.0
220
0.0
230
1.0
 70
     8
 71
     3
 72
     9
 73
     5
 74
     0
 42
0.000000001
 43
0.0000000001
 40
0.0
 40
0.0
 40
0.0
 40
0.0
 40
0.5
 40
1.0
 40
1.0
 40
1.0
 40
1.0
 10
862.2065279052586
 20
2010.247967278113
 30
0.0
 10
862.5803691408664
 20
2011.147909373532
 30
0.0
 10
862.9542103764777
 20
2012.961989395169
 30
0.0
 10
862.5803691408799
 20
2014.8044610784
 30
0.0
 10
862.2065279052788
 20
2015.732794835415
 30
0.0
  0
LINE
  5
13A
330
87
100
AcDbEntity
  8
P-SANR-FIXT
100
AcDbLine
 10
773.3108721620432
 20
1983.53034488539
 30
0.0
 11
782.7086047216338
 21
1983.53034488539
 31
0.0
  0
LINE
  5
13B
330
87
100
AcDbEntity
  8
P-SANR-FIXT
100
AcDbLine
 10
782.7086047216338
 20
2016.469655114601
 30
0.0
 11
773.3108721620432
 21
2016.469655114601
 31
0.0
  0
LINE
  5
13C
330
87
100
AcDbEntity
  8
P-SANR-FIXT
100
AcDbLine
 10
770.6148455246029
 20
1988.199999999996
 30
0.0
 11
773.2015050668002
 21
1983.719774251028
 31
0.0
  0
LINE
  5
13D
330
87
100
AcDbEntity
  8
P-SANR-FIXT
100
AcDbLine
 10
773.2166829841349
 20
1983.69348532705
 30
0.0
 11
773.3108721620432
 21
1983.53034488539
 31
0.0
  0
LINE
  5
13E
330
87
100
AcDbEntity
  8
P-SANR-FIXT
100
AcDbLine
 10
773.3108721620432
 20
2016.469655114601
 30
0.0
 11
773.2166829841349
 21
2016.306514672942
 31
0.0
  0
LINE
  5
13F
330
87
100
AcDbEntity
  8
P-SANR-FIXT
100
AcDbLine
 10
773.2015050668002
 20
2016.280225748964
 30
0.0
 11
770.6148455246029
 21
2011.799999999996
 31
0.0
  0
LINE
  5
140
330
87
100
AcDbEntity
  8
P-SANR-FIXT
100
AcDbLine
 10
783.6148455246029
 20
2014.899999999967
 30
0.0
 11
782.8179718168767
 21
2016.280225748964
 31
0.0
  0
LINE
  5
141
330
87
100
AcDbEntity
  8
P-SANR-FIXT
100
AcDbLine
 10
782.802837032461
 20
2016.306439964534
 30
0.0
 11
782.7086047216338
 21
2016.469655114601
 31
0.0
  0
LINE
  5
142
330
87
100
AcDbEntity
  8
P-SANR-FIXT
100
AcDbLine
 10
782.7086047216338
 20
1983.53034488539
 30
0.0
 11
782.802837032461
 21
1983.693560035458
 31
0.0
  0
LINE
  5
143
330
87
100
AcDbEntity
  8
P-SANR-FIXT
100
AcDbLine
 10
782.8179718168767
 20
1983.719774251028
 30
0.0
 11
783.6148455246029
 21
1985.100000000025
 31
0.0
  0
LINE
  5
144
330
87
100
AcDbEntity
  8
P-SANR-FIXT
100
AcDbLine
 10
783.6148455246014
 20
2014.899999999966
 30
0.0
 11
783.6148455246014
 21
1985.100000000024
 31
0.0
  0
LINE
  5
145
330
87
100
AcDbEntity
  8
P-SANR-FIXT
100
AcDbLine
 10
770.6148455246013
 20
1988.199999999995
 30
0.0
 11
770.6148455246013
 21
2011.799999999995
 31
0.0
  0
SPLINE
  5
146
330
87
100
AcDbEntity
  8
P-SANR-FIXT
100
AcDbSpline
210
0.0
220
0.0
230
1.0
 70
     8
 71
     3
 72
    10
 73
     6
 74
     0
 42
0.000000001
 43
0.0000000001
 40
0.0
 40
0.0
 40
0.0
 40
0.0
 40
0.4
 40
0.7
 40
1.0
 40
1.0
 40
1.0
 40
1.0
 10
773.0231631439403
 20
2010.247967278113
 30
0.0
 10
773.1748046797049
 20
2009.86840058129
 30
0.0
 10
773.3384020156421
 20
2008.952425656536
 30
0.0
 10
773.298099910448
 20
2007.201250865688
 30
0.0
 10
773.136725155619
 20
2006.053003352278
 30
0.0
 10
773.023163143946
 20
2005.484827557298
 30
0.0
  0
SPLINE
  5
147
330
87
100
AcDbEntity
  8
P-SANR-FIXT
100
AcDbSpline
210
0.0
220
0.0
230
1.0
 70
     8
 71
     3
 72
    10
 73
     6
 74
     0
 42
0.000000001
 43
0.0000000001
 40
0.0
 40
0.0
 40
0.0
 40
0.0
 40
0.4
 40
0.7
 40
1.0
 40
1.0
 40
1.0
 40
1.0
 10
782.9963137397278
 20
2005.484827557298
 30
0.0
 10
782.8448977241641
 20
2006.242395283938
 30
0.0
 10
782.6811695881177
 20
2007.588566563772
 30
0.0
 10
782.721194518871
 20
2009.23449417676
 30
0.0
 10
782.8825825879103
 20
2009.963292255495
 30
0.0
 10
782.9963137397339
 20
2010.247967278113
 30
0.0
  0
SPLINE
  5
148
330
87
100
AcDbEntity
  8
P-SANR-FIXT
100
AcDbSpline
210
0.0
220
0.0
230
1.0
 70
     8
 71
     3
 72
     9
 73
     5
 74
     0
 42
0.000000001
 43
0.0000000001
 40
0.0
 40
0.0
 40
0.0
 40
0.0
 40
0.5
 40
1.0
 40
1.0
 40
1.0
 40
1.0
 10
773.023163143946
 20
2005.484827557298
 30
0.0
 10
772.6493219083423
 20
2003.628160043269
 30
0.0
 10
772.2754806727383
 20
1999.943216676806
 30
0.0
 10
772.6493219083423
 20
1996.315056633532
 30
0.0
 10
773.023163143946
 20
1994.515172442692
 30
0.0
  0
SPLINE
  5
149
330
87
100
AcDbEntity
  8
P-SANR-FIXT
100
AcDbSpline
210
0.0
220
0.0
230
1.0
 70
     8
 71
     3
 72
     9
 73
     5
 74
     0
 42
0.000000001
 43
0.0000000001
 40
0.0
 40
0.0
 40
0.0
 40
0.0
 40
0.5
 40
1.0
 40
1.0
 40
1.0
 40
1.0
 10
782.9963137397279
 20
1994.515172442692
 30
0.0
 10
783.3701549753317
 20
1996.315056633532
 30
0.0
 10
783.7439962109353
 20
1999.943216676806
 30
0.0
 10
783.3701549753316
 20
2003.628160043269
 30
0.0
 10
782.9963137397278
 20
2005.484827557298
 30
0.0
  0
SPLINE
  5
14A
330
87
100
AcDbEntity
  8
P-SANR-FIXT
100
AcDbSpline
210
0.0
220
0.0
230
1.0
 70
     8
 71
     3
 72
    10
 73
     6
 74
     0
 42
0.000000001
 43
0.0000000001
 40
0.0
 40
0.0
 40
0.0
 40
0.0
 40
0.4
 40
0.7
 40
1.0
 40
1.0
 40
1.0
 40
1.0
 10
773.023163143946
 20
1994.515172442692
 30
0.0
 10
773.1748046797092
 20
1993.756039049047
 30
0.0
 10
773.3384020156437
 20
1992.410334870228
 30
0.0
 10
773.2980999104455
 20
1990.764124853471
 30
0.0
 10
773.1367251556142
 20
1990.036120619368
 30
0.0
 10
773.0231631439402
 20
1989.752032721878
 30
0.0
  0
SPLINE
  5
14B
330
87
100
AcDbEntity
  8
P-SANR-FIXT
100
AcDbSpline
210
0.0
220
0.0
230
1.0
 70
     8
 71
     3
 72
    10
 73
     6
 74
     0
 42
0.000000001
 43
0.0000000001
 40
0.0
 40
0.0
 40
0.0
 40
0.0
 40
0.4
 40
0.7
 40
1.0
 40
1.0
 40
1.0
 40
1.0
 10
782.9963137397339
 20
1989.752032721878
 30
0.0
 10
782.8448977241686
 20
1990.130816585197
 30
0.0
 10
782.6811695881194
 20
1991.046601231389
 30
0.0
 10
782.7211945188686
 20
1992.79704590743
 30
0.0
 10
782.8825825879055
 20
1993.945822397458
 30
0.0
 10
782.9963137397279
 20
1994.515172442692
 30
0.0
  0
SPLINE
  5
14C
330
87
100
AcDbEntity
  8
P-SANR-FIXT
100
AcDbSpline
210
0.0
220
0.0
230
1.0
 70
     8
 71
     3
 72
     9
 73
     5
 74
     0
 42
0.000000001
 43
0.0000000001
 40
0.0
 40
0.0
 40
0.0
 40
0.0
 40
0.5
 40
1.0
 40
1.0
 40
1.0
 40
1.0
 10
773.0231631439402
 20
1989.752032721878
 30
0.0
 10
772.6493219083324
 20
1988.823698964864
 30
0.0
 10
772.275480672721
 20
1986.981227281632
 30
0.0
 10
772.6493219083187
 20
1985.167147259995
 30
0.0
 10
773.02316314392
 20
1984.267205164575
 30
0.0
  0
SPLINE
  5
14D
330
87
100
AcDbEntity
  8
P-SANR-FIXT
100
AcDbSpline
210
0.0
220
0.0
230
1.0
 70
     8
 71
     3
 72
     9
 73
     5
 74
     0
 42
0.000000001
 43
0.0000000001
 40
0.0
 40
0.0
 40
0.0
 40
0.0
 40
0.5
 40
1.0
 40
1.0
 40
1.0
 40
1.0
 10
782.9963137397542
 20
1984.267205164575
 30
0.0
 10
783.3701549753554
 20
1985.167147259995
 30
0.0
 10
783.7439962109531
 20
1986.981227281632
 30
0.0
 10
783.3701549753418
 20
1988.823698964864
 30
0.0
 10
782.9963137397339
 20
1989.752032721878
 30
0.0
  0
SPLINE
  5
14E
330
87
100
AcDbEntity
  8
P-SANR-FIXT
100
AcDbSpline
210
0.0
220
0.0
230
1.0
 70
     8
 71
     3
 72
     9
 73
     5
 74
     0
 42
0.000000001
 43
0.0000000001
 40
0.0
 40
0.0
 40
0.0
 40
0.0
 40
0.5
 40
1.0
 40
1.0
 40
1.0
 40
1.0
 10
773.02316314392
 20
1984.267205164575
 30
0.0
 10
773.1182673815794
 20
1984.029818907645
 30
0.0
 10
773.2613231222592
 20
1983.659466605538
 30
0.0
 10
773.3100733936606
 20
1983.530344885384
 30
0.0
 10
773.3108721620417
 20
1983.530344885389
 30
0.0
  0
SPLINE
  5
14F
330
87
100
AcDbEntity
  8
P-SANR-FIXT
100
AcDbSpline
210
0.0
220
0.0
230
1.0
 70
     8
 71
     3
 72
     9
 73
     5
 74
     0
 42
0.000000001
 43
0.0000000001
 40
0.0
 40
0.0
 40
0.0
 40
0.0
 40
0.5
 40
1.0
 40
1.0
 40
1.0
 40
1.0
 10
782.7086047216326
 20
1983.530344885389
 30
0.0
 10
782.7094034900136
 20
1983.530344885384
 30
0.0
 10
782.758153761415
 20
1983.659466605538
 30
0.0
 10
782.9012095020947
 20
1984.029818907645
 30
0.0
 10
782.9963137397542
 20
1984.267205164575
 30
0.0
  0
SPLINE
  5
150
330
87
100
AcDbEntity
  8
P-SANR-FIXT
100
AcDbSpline
210
0.0
220
0.0
230
1.0
 70
     8
 71
     3
 72
     9
 73
     5
 74
     0
 42
0.000000001
 43
0.0000000001
 40
0.0
 40
0.0
 40
0.0
 40
0.0
 40
0.5
 40
1.0
 40
1.0
 40
1.0
 40
1.0
 10
773.3108721620419
 20
2016.469655114601
 30
0.0
 10
773.3100733936606
 20
2016.469655114606
 30
0.0
 10
773.2613231222592
 20
2016.340533394452
 30
0.0
 10
773.1182673815795
 20
2015.970181092345
 30
0.0
 10
773.0231631439201
 20
2015.732794835415
 30
0.0
  0
SPLINE
  5
151
330
87
100
AcDbEntity
  8
P-SANR-FIXT
100
AcDbSpline
210
0.0
220
0.0
230
1.0
 70
     8
 71
     3
 72
     9
 73
     5
 74
     0
 42
0.000000001
 43
0.0000000001
 40
0.0
 40
0.0
 40
0.0
 40
0.0
 40
0.5
 40
1.0
 40
1.0
 40
1.0
 40
1.0
 10
782.9963137397542
 20
2015.732794835415
 30
0.0
 10
782.9012095020947
 20
2015.970181092345
 30
0.0
 10
782.7581537614149
 20
2016.340533394452
 30
0.0
 10
782.7094034900136
 20
2016.469655114606
 30
0.0
 10
782.7086047216324
 20
2016.469655114601
 30
0.0
  0
SPLINE
  5
152
330
87
100
AcDbEntity
  8
P-SANR-FIXT
100
AcDbSpline
210
0.0
220
0.0
230
1.0
 70
     8
 71
     3
 72
     9
 73
     5
 74
     0
 42
0.000000001
 43
0.0000000001
 40
0.0
 40
0.0
 40
0.0
 40
0.0
 40
0.5
 40
1.0
 40
1.0
 40
1.0
 40
1.0
 10
782.9963137397339
 20
2010.247967278113
 30
0.0
 10
783.3701549753417
 20
2011.176301035126
 30
0.0
 10
783.7439962109531
 20
2013.018772718358
 30
0.0
 10
783.3701549753552
 20
2014.832852739995
 30
0.0
 10
782.9963137397542
 20
2015.732794835415
 30
0.0
  0
SPLINE
  5
153
330
87
100
AcDbEntity
  8
P-SANR-FIXT
100
AcDbSpline
210
0.0
220
0.0
230
1.0
 70
     8
 71
     3
 72
     9
 73
     5
 74
     0
 42
0.000000001
 43
0.0000000001
 40
0.0
 40
0.0
 40
0.0
 40
0.0
 40
0.5
 40
1.0
 40
1.0
 40
1.0
 40
1.0
 10
773.0231631439201
 20
2015.732794835415
 30
0.0
 10
772.6493219083189
 20
2014.832852739995
 30
0.0
 10
772.275480672721
 20
2013.018772718358
 30
0.0
 10
772.6493219083324
 20
2011.176301035126
 30
0.0
 10
773.0231631439403
 20
2010.247967278113
 30
0.0
  0
LINE
  5
154
330
87
100
AcDbEntity
  8
P-SANR-FIXT
100
AcDbLine
 10
886.3148455246189
 20
2010.649999999996
 30
0.0
 11
864.6148455245992
 21
2010.649999999996
 31
0.0
  0
LINE
  5
155
330
87
100
AcDbEntity
  8
P-SANR-FIXT
100
AcDbLine
 10
864.6148455245992
 20
1989.349999999996
 30
0.0
 11
886.3148455246189
 21
1989.349999999996
 31
0.0
  0
LINE
  5
156
330
87
100
AcDbEntity
  8
P-SANR-FIXT
100
AcDbLine
 10
887.6148455246189
 20
2009.349999999996
 30
0.0
 11
886.3148455246189
 21
2010.649999999996
 31
0.0
  0
LINE
  5
157
330
87
100
AcDbEntity
  8
P-SANR-FIXT
100
AcDbLine
 10
886.3148455246189
 20
1989.349999999996
 30
0.0
 11
887.6148455246189
 21
1990.649999999995
 31
0.0
  0
LINE
  5
158
330
87
100
AcDbEntity
  8
P-SANR-FIXT
100
AcDbLine
 10
886.3148455246173
 20
1989.349999999994
 30
0.0
 11
886.3148455246173
 21
2010.649999999996
 31
0.0
  0
LINE
  5
159
330
87
100
AcDbEntity
  8
P-SANR-FIXT
100
AcDbLine
 10
887.6148455246175
 20
2009.349999999995
 30
0.0
 11
887.6148455246175
 21
1990.649999999995
 31
0.0
  0
LINE
  5
15A
330
87
100
AcDbEntity
  8
P-SANR-FIXT
100
AcDbLine
 10
770.6148455246029
 20
2010.649999999996
 30
0.0
 11
748.9148455245827
 21
2010.649999999996
 31
0.0
  0
LINE
  5
15B
330
87
100
AcDbEntity
  8
P-SANR-FIXT
100
AcDbLine
 10
748.9148455245827
 20
1989.349999999996
 30
0.0
 11
770.6148455246029
 21
1989.349999999996
 31
0.0
  0
LINE
  5
15C
330
87
100
AcDbEntity
  8
P-SANR-FIXT
100
AcDbLine
 10
748.9148455245827
 20
2010.649999999996
 30
0.0
 11
747.6148455245827
 21
2009.349999999996
 31
0.0
  0
LINE
  5
15D
330
87
100
AcDbEntity
  8
P-SANR-FIXT
100
AcDbLine
 10
747.6148455245827
 20
1990.649999999995
 30
0.0
 11
748.9148455245827
 21
1989.349999999996
 31
0.0
  0
LINE
  5
15E
330
87
100
AcDbEntity
  8
P-SANR-FIXT
100
AcDbLine
 10
747.6148455245813
 20
1990.649999999995
 30
0.0
 11
747.6148455245813
 21
2009.349999999995
 31
0.0
  0
LINE
  5
15F
330
87
100
AcDbEntity
  8
P-SANR-FIXT
100
AcDbLine
 10
748.9148455245814
 20
2010.649999999996
 30
0.0
 11
748.9148455245814
 21
1989.349999999994
 31
0.0
  0
LINE
  5
160
330
87
100
AcDbEntity
  8
P-SANR-FIXT
100
AcDbLine
 10
837.3348642804462
 20
2025.120359226397
 30
0.0
 11
838.2532027451711
 21
2025.040015021454
 31
0.0
  0
LINE
  5
161
330
87
100
AcDbEntity
  8
P-SANR-FIXT
100
AcDbLine
 10
841.0493377342303
 20
2034.791296569228
 30
0.0
 11
841.225597171498
 21
2036.805951156054
 31
0.0
  0
ARC
  5
162
330
87
100
AcDbEntity
  8
P-SANR-FIXT
100
AcDbCircle
 10
837.7731685067621
 20
2059.327632978571
 30
0.0
 40
11.91860526875135
100
AcDbArc
 50
251.1349350013411
 51
281.1172244834097
  0
LINE
  5
163
330
87
100
AcDbEntity
  8
P-SANR-FIXT
100
AcDbLine
 10
790.6370253117081
 20
2022.100798648782
 30
0.0
 11
785.6607242075619
 21
2011.897869378095
 31
0.0
  0
LINE
  5
164
330
87
100
AcDbEntity
  8
P-SANR-FIXT
100
AcDbLine
 10
843.697631012824
 20
2011.46984874385
 30
0.0
 11
849.9347751119325
 21
2033.221355163398
 31
0.0
  0
LWPOLYLINE
  5
165
330
87
100
AcDbEntity
  8
P-SANR-FIXT
100
AcDbPolyline
 90
       28
 70
   128
 43
0.0
 10
851.37345471261
 20
2034.610671904316
 10
851.2962387759197
 20
2034.589771047079
 10
851.2199204151079
 20
2034.565799094401
 10
851.1446217232711
 20
2034.538794396294
 10
851.0704631622537
 20
2034.508800154513
 10
850.9975633699335
 20
2034.475864353447
 10
850.9260389704271
 20
2034.440039683353
 10
850.856004387516
 20
2034.401383456058
 10
850.7875716615931
 20
2034.359957513282
 10
850.7208502704212
 20
2034.315828127695
 10
850.6559469539936
 20
2034.2690658969
 10
850.5929655437713
 20
2034.219745630492
 10
850.5320067965747
 20
2034.167946230376
 10
850.4731682333959
 20
2034.113750564541
 10
850.4165439833844
 20
2034.057245334493
 10
850.3622246332611
 20
2033.998520936545
 10
850.3102970823986
 20
2033.937671317207
 10
850.2608444038008
 20
2033.874793822889
 10
850.2139457112047
 20
2033.809989044169
 10
850.1696760325131
 20
2033.743360654869
 10
850.1281061897687
 20
2033.675015246198
 10
850.0893026858523
 20
2033.605062156231
 10
850.0533275980924
 20
2033.533613294988
 10
850.0202384789549
 20
2033.460782965407
 10
849.9900882639716
 20
2033.386687680479
 10
849.9629251870555
 20
2033.311445976852
 10
849.9387927033346
 20
2033.235178225203
 10
849.9347751119325
 20
2033.221355163398
  0
LINE
  5
166
330
87
100
AcDbEntity
  8
P-SANR-FIXT
100
AcDbLine
 10
851.3734547126098
 20
2034.610671904316
 30
0.0
 11
853.6142567076458
 21
2035.169366590506
 31
0.0
  0
LWPOLYLINE
  5
167
330
87
100
AcDbEntity
  8
P-SANR-FIXT
100
AcDbPolyline
 90
       28
 70
   128
 43
0.0
 10
855.052936308323
 20
2036.558683331424
 10
855.0293533859955
 20
2036.482243861994
 10
855.0027325640026
 20
2036.406808601349
 10
854.9731164299803
 20
2036.332498229813
 10
854.9405523634256
 20
2036.25943162813
 10
854.9050924598983
 20
2036.187725687274
 10
854.8667934476794
 20
2036.117495121455
 10
854.8257165970184
 20
2036.048852284597
 10
854.7819276221144
 20
2035.981906990595
 10
854.7354965759854
 20
2035.916766337638
 10
854.6864977384007
 20
2035.853534536877
 10
854.6350094970483
 20
2035.792312745703
 10
854.5811142221301
 20
2035.733198905921
 10
854.5248981345896
 20
2035.676287587067
 10
854.4664511681739
 20
2035.621669835109
 10
854.4058668255621
 20
2035.569433026798
 10
854.3432420287778
 20
2035.519660729886
 10
854.278676964137
 20
2035.472432569429
 10
854.2122749219696
 20
2035.42782410041
 10
854.1441421313784
 20
2035.385906686864
 10
854.0743875902942
 20
2035.346747387709
 10
854.0031228911022
 20
2035.310408849472
 10
853.9304620421191
 20
2035.27694920606
 10
853.8565212852027
 20
2035.246421985767
 10
853.7814189097913
 20
2035.218876025632
 10
853.7052750636645
 20
2035.194355393316
 10
853.6282115607329
 20
2035.1728993166
 10
853.6142567076458
 20
2035.169366590506
  0
LINE
  5
168
330
87
100
AcDbEntity
  8
P-SANR-FIXT
100
AcDbLine
 10
855.052936308323
 20
2036.558683331424
 30
0.0
 11
857.4910312633337
 21
2045.061330892983
 31
0.0
  0
LINE
  5
169
330
87
100
AcDbEntity
  8
P-SANR-FIXT
100
AcDbLine
 10
840.1892201526866
 20
2050.022545394232
 30
0.0
 11
839.4780298946182
 21
2047.542330215925
 31
0.0
  0
LINE
  5
16A
330
87
100
AcDbEntity
  8
P-SANR-FIXT
100
AcDbLine
 10
857.4910312633337
 20
2045.061330892984
 30
0.0
 11
856.8054069232124
 21
2046.298229944738
 31
0.0
  0
LINE
  5
16B
330
87
100
AcDbEntity
  8
P-SANR-FIXT
100
AcDbLine
 10
841.4261192044419
 20
2050.708169734353
 30
0.0
 11
840.1892201526866
 21
2050.022545394232
 31
0.0
  0
LINE
  5
16C
330
87
100
AcDbEntity
  8
P-SANR-FIXT
100
AcDbLine
 10
841.4261192044403
 20
2050.708169734352
 30
0.0
 11
856.8054069232109
 21
2046.298229944738
 31
0.0
  0
LINE
  5
16D
330
87
100
AcDbEntity
  8
P-SANR-FIXT
100
AcDbLine
 10
857.4910312633321
 20
2045.061330892982
 30
0.0
 11
840.1892201526852
 21
2050.022545394231
 31
0.0
  0
LWPOLYLINE
  5
16E
330
87
100
AcDbEntity
  8
P-SANR-FIXT
100
AcDbPolyline
 90
       36
 70
   128
 43
0.0
 10
816.0686530422553
 20
1979.644312045884
 10
815.8793967328564
 20
1979.579684526175
 10
815.6877073968356
 20
1979.522676935392
 10
815.4938916962386
 20
1979.473380473518
 10
815.2982596948415
 20
1979.431874004378
 10
815.1011243621139
 20
1979.398223929468
 10
814.9028010725348
 20
1979.372484081729
 10
814.7036071010608
 20
1979.354695639426
 10
814.5038611155539
 20
1979.344887060274
 10
814.3038826669808
 20
1979.343074035905
 10
814.103991678199
 20
1979.349259466772
 10
813.9045079321501
 20
1979.363433457507
 10
813.7057505602729
 20
1979.385573332745
 10
813.5080375319633
 20
1979.415643673412
 10
813.3116851458902
 20
1979.453596373374
 10
813.1170075239849
 20
1979.499370716411
 10
812.9243161089133
 20
1979.552893473335
 10
812.7339191658345
 20
1979.614079019156
 10
812.5461212892414
 20
1979.682829470051
 10
812.3612229156753
 20
1979.759034839964
 10
812.1795198430907
 20
1979.842573216561
 10
812.0013027576428
 20
1979.933310956259
 10
811.8268567686508
 20
1980.031102898032
 10
811.6564609524834
 20
1980.135792595633
 10
811.4903879060978
 20
1980.247212567879
 10
811.3289033109408
 20
1980.365184566582
 10
811.1722655079168
 20
1980.489519861712
 10
811.0207250840961
 20
1980.620019543318
 10
810.8745244718301
 20
1980.756474839749
 10
810.7338975609106
 20
1980.89866745164
 10
810.5990693243962
 20
1981.046369901144
 10
810.4702554587033
 20
1981.19934589585
 10
810.3476620385384
 20
1981.357350706801
 10
810.2314851872222
 20
1981.520131560003
 10
810.1219107629331
 20
1981.687428040818
 10
810.1039599400014
 20
1981.716286308761
  0
LWPOLYLINE
  5
16F
330
87
100
AcDbEntity
  8
P-SANR-FIXT
100
AcDbPolyline
 90
        5
 70
   128
 43
0.0
 10
816.1952936930521
 20
1979.690405473223
 10
816.1506577891106
 20
1979.674159332808
 10
816.1031913307708
 20
1979.656882954846
 10
816.0759206983158
 20
1979.646957256363
 10
816.0686530422553
 20
1979.644312045884
  0
LWPOLYLINE
  5
170
330
87
100
AcDbEntity
  8
P-SANR-FIXT
100
AcDbPolyline
 90
       75
 70
   128
 43
0.0
 10
816.0686530422553
 20
1979.644312045884
 10
816.0787785821449
 20
1979.64799744101
 10
816.1091390031094
 20
1979.659047730541
 10
816.1596857349518
 20
1979.677445236371
 10
816.2303379136842
 20
1979.703160526416
 10
816.3209825108925
 20
1979.736152461697
 10
816.4314745145569
 20
1979.776368262155
 10
816.5616371610422
 20
1979.823743591088
 10
816.7112622178809
 20
1979.878202658079
 10
816.8801103169002
 20
1979.939658340234
 10
817.0679113371605
 20
1980.008012321573
 10
817.2743648370914
 20
1980.083155250309
 10
817.4991405351343
 20
1980.164966913783
 10
817.7418788381221
 20
1980.253316430786
 10
818.0021914165509
 20
1980.348062460939
 10
818.2796618258263
 20
1980.449053430805
 10
818.5738461724834
 20
1980.556127776376
 10
818.8842738243236
 20
1980.669114201539
 10
819.2104481633254
 20
1980.787831952117
 10
819.5518473801261
 20
1980.912091105034
 10
819.9079253088068
 20
1981.041692872153
 10
820.2781123006412
 20
1981.176429918293
 10
820.6618161354111
 20
1981.316086692923
 10
821.0584229688333
 20
1981.460439774996
 10
821.4672983145794
 20
1981.609258230372
 10
821.8877880593183
 20
1981.762303981271
 10
822.3192195091581
 20
1981.919332187139
 10
822.7609024658125
 20
1982.080091636344
 10
823.2121303307721
 20
1982.244325148061
 10
823.6721812357092
 20
1982.411769983706
 10
824.1403191973157
 20
1982.58215826726
 10
824.6157952947163
 20
1982.755217413819
 10
825.0978488675849
 20
1982.930670565665
 10
825.5857087330378
 20
1983.108237035183
 10
826.078594419361
 20
1983.287632753901
 10
826.5757174146003
 20
1983.468570726937
 10
827.0762824280101
 20
1983.650761492133
 10
827.5794886623504
 20
1983.83391358313
 10
828.0845310949919
 20
1984.017733995653
 10
828.5906017657783
 20
1984.201928656254
 10
829.0968910695925
 20
1984.38620289277
 10
829.6025890515508
 20
1984.570261905732
 10
830.1068867027593
 20
1984.753811239982
 10
830.6089772545529
 20
1984.936557255741
 10
831.1080574691565
 20
1985.118207598368
 10
831.6033289246909
 20
1985.298471666064
 10
832.0939992924801
 20
1985.477061074776
 10
832.5792836046055
 20
1985.653690119546
 10
833.0584055096904
 20
1985.828076231582
 10
833.5305985148934
 20
1985.999940430304
 10
833.9951072121353
 20
1986.169007769658
 10
834.4511884865907
 20
1986.335007777966
 10
834.8981127055125
 20
1986.497674890626
 10
835.3351648854893
 20
1986.656748874959
 10
835.7616458362654
 20
1986.811975246523
 10
836.1768732792981
 20
1986.963105676237
 10
836.580182939255
 20
1987.109898387654
 10
836.9709296067155
 20
1987.252118543748
 10
837.3484881703662
 20
1987.389538622609
 10
837.7122546170468
 20
1987.521938781426
 10
838.0616469980422
 20
1987.649107208187
 10
838.3961063600755
 20
1987.770840460539
 10
838.7150976395153
 20
1987.886943791246
 10
839.0181105183623
 20
1987.997231459745
 10
839.3046602406494
 20
1988.101527029295
 10
839.5742883879487
 20
1988.199663649232
 10
839.8265636127417
 20
1988.2914843219
 10
840.0610823284846
 20
1988.376842153809
 10
840.2774693552609
 20
1988.455600590636
 10
840.4753785199869
 20
1988.527633635685
 10
840.654493210218
 20
1988.59282605145
 10
840.8145268806586
 20
1988.65107354397
 10
840.955223511575
 20
1988.702282929685
 10
841.0763580183713
 20
1988.746372284501
 10
841.1635304023164
 20
1988.778100437508
  0
LINE
  5
171
330
87
100
AcDbEntity
  8
P-SANR-FIXT
100
AcDbLine
 10
810.1039599400019
 20
1981.71628630876
 30
0.0
 11
806.0985073622099
 21
1988.499999999994
 31
0.0
  0
LWPOLYLINE
  5
172
330
87
100
AcDbEntity
  8
P-SANR-FIXT
100
AcDbPolyline
 90
       18
 70
   128
 43
0.0
 10
791.1064515431613
 20
2021.493199812457
 10
791.0149213996337
 20
2021.624420312663
 10
790.9182170500231
 20
2021.751875620969
 10
790.81649320066
 20
2021.875361836068
 10
790.7099125880034
 20
2021.994681406359
 10
790.5986457182976
 20
2022.109643445983
 10
790.4828705947983
 20
2022.220064040201
 10
790.362772433006
 20
2022.325766539617
 10
790.2385433643598
 20
2022.426581842781
 10
790.1103821288687
 20
2022.522348666713
 10
789.9784937571702
 20
2022.612913804925
 10
789.8430892425237
 20
2022.698132372515
 10
789.7043852032685
 20
2022.777868037954
 10
789.5626035362785
 20
2022.851993241187
 10
789.417971061976
 20
2022.9203893977
 10
789.2707191614662
 20
2022.982947088234
 10
789.1210834063782
 20
2023.03956623383
 10
789.0618853762863
 20
2023.060101209255
  0
LINE
  5
173
330
87
100
AcDbEntity
  8
P-SANR-FIXT
100
AcDbLine
 10
834.1671311740098
 20
2039.477068088887
 30
0.0
 11
834.0867211801366
 21
2039.338753882335
 31
0.0
  0
LWPOLYLINE
  5
174
330
87
100
AcDbEntity
  8
P-SANR-FIXT
100
AcDbPolyline
 90
       24
 70
   128
 43
0.0
 10
789.0618853762862
 20
2023.060101209255
 10
788.9113810890933
 20
2023.114369490831
 10
788.7631673417249
 20
2023.174612929808
 10
788.6174812445598
 20
2023.240735149534
 10
788.4745558642749
 20
2023.312630368562
 10
788.33461985099
 20
2023.39018356988
 10
788.1978970724747
 20
2023.473270684908
 10
788.0646062560088
 20
2023.561758791988
 10
787.9349606384646
 20
2023.655506329024
 10
787.8091676251742
 20
2023.754363319955
 10
787.687428458124
 20
2023.858171614685
 10
787.5699378940119
 20
2023.966765142086
 10
787.4568838926773
 20
2024.07997017568
 10
787.3484473164054
 20
2024.197605611561
 10
787.2448016405859
 20
2024.319483258128
 10
787.1461126761908
 20
2024.445408137145
 10
787.0525383045103
 20
2024.575178795667
 10
786.9642282245779
 20
2024.708587628324
 10
786.8813237136824
 20
2024.845421209443
 10
786.8039574013566
 20
2024.985460634484
 10
786.7322530571958
 20
2025.12848187024
 10
786.6663253928546
 20
2025.274256113243
 10
786.6062798785325
 20
2025.422550155802
 10
786.584388889867
 20
2025.481260262225
  0
LINE
  5
175
330
87
100
AcDbEntity
  8
P-SANR-FIXT
100
AcDbLine
 10
785.7125542774307
 20
2027.876606173391
 30
0.0
 11
786.5843888898667
 21
2025.481260262225
 31
0.0
  0
LWPOLYLINE
  5
176
330
87
100
AcDbEntity
  8
P-SANR-FIXT
100
AcDbPolyline
 90
       24
 70
   128
 43
0.0
 10
785.712554277431
 20
2027.876606173391
 10
785.6836966540749
 20
2027.951214378613
 10
785.6518785812876
 20
2028.024608908085
 10
785.6171509611985
 20
2028.096672346214
 10
785.5795693505911
 20
2028.167289406875
 10
785.539193872026
 20
2028.236347117833
 10
785.4960891176554
 20
2028.303735001483
 10
785.4503240458913
 20
2028.369345251586
 10
785.4019718710859
 20
2028.433072905739
 10
785.3511099464042
 20
2028.494816013288
 10
785.2978196400758
 20
2028.554475798434
 10
785.2421862052225
 20
2028.611956818245
 10
785.1842986434727
 20
2028.667167115354
 10
785.1242495625763
 20
2028.720018365062
 10
785.0621350282531
 20
2028.770426016643
 10
784.9980544105075
 20
2028.81830942861
 10
784.9321102246579
 20
2028.863591997716
 10
784.8644079673347
 20
2028.906201281511
 10
784.7950559477069
 20
2028.94606911423
 10
784.7241651142117
 20
2028.983131715846
 10
784.6518488770603
 20
2029.017329794102
 10
784.5782229268054
 20
2029.048608639369
 10
784.5034050492613
 20
2029.076918212167
 10
784.4738060342214
 20
2029.087185699877
  0
LWPOLYLINE
  5
177
330
87
100
AcDbEntity
  8
P-SANR-FIXT
100
AcDbPolyline
 90
        5
 70
   128
 43
0.0
 10
833.8076686254817
 20
2047.043243224474
 10
833.767463628545
 20
2046.974086121199
 10
833.7300563378319
 20
2046.90337656517
 10
833.6955065970277
 20
2046.831227676596
 10
833.6638696783476
 20
2046.757754878306
  0
LWPOLYLINE
  5
178
330
87
100
AcDbEntity
  8
P-SANR-FIXT
100
AcDbPolyline
 90
       24
 70
   128
 43
0.0
 10
784.4738060342213
 20
2029.087185699877
 10
784.3985538906249
 20
2029.114319840665
 10
784.3244470169407
 20
2029.144441560154
 10
784.2516039683581
 20
2029.177502670016
 10
784.1801412782157
 20
2029.213450279531
 10
784.1101732715733
 20
2029.25222688019
 10
784.0418118823155
 20
2029.293770437703
 10
783.9751664740825
 20
2029.338014491244
 10
783.9103436653105
 20
2029.384888259762
 10
783.8474471586653
 20
2029.434316755228
 10
783.7865775751402
 20
2029.486220902592
 10
783.7278322930841
 20
2029.540517666292
 10
783.6713052924169
 20
2029.597120183089
 10
783.6170870042809
 20
2029.65593790103
 10
783.5652641663713
 20
2029.716876724314
 10
783.5159196841738
 20
2029.779839163822
 10
783.4691324983334
 20
2029.844724493083
 10
783.4249774583671
 20
2029.911428909411
 10
783.3835252029196
 20
2029.979845699971
 10
783.3448420467564
 20
2030.049865412491
 10
783.3089898746761
 20
2030.12137603037
 10
783.2760260425056
 20
2030.194263151872
 10
783.2460032853445
 20
2030.268410173151
 10
783.2350577910117
 20
2030.297765226362
  0
LWPOLYLINE
  5
179
330
87
100
AcDbEntity
  8
P-SANR-FIXT
100
AcDbPolyline
 90
       11
 70
   128
 43
0.0
 10
833.9784593134508
 20
2048.766852965948
 10
834.0043103213346
 20
2048.691150442188
 10
834.027113357648
 20
2048.61447470778
 10
834.0468319423973
 20
2048.536948427541
 10
834.0634345300534
 20
2048.458695626982
 10
834.0768945600174
 20
2048.379841493892
 10
834.0871904991132
 20
2048.30051217806
 10
834.0943058760339
 20
2048.22083458947
 10
834.0982293076953
 20
2048.140936195268
 10
834.0989545174425
 20
2048.060944815838
 10
834.0975430588398
 20
2048.015331525228
  0
LINE
  5
17A
330
87
100
AcDbEntity
  8
P-SANR-FIXT
100
AcDbLine
 10
833.9784593134508
 20
2048.766852965948
 30
0.0
 11
830.1589252681344
 21
2059.260936508293
 31
0.0
  0
LINE
  5
17B
330
87
100
AcDbEntity
  8
P-SANR-FIXT
100
AcDbLine
 10
779.4155237456951
 20
2040.791848768707
 30
0.0
 11
783.2350577910117
 21
2030.297765226362
 31
0.0
  0
LINE
  5
17C
330
87
100
AcDbEntity
  8
P-SANR-FIXT
100
AcDbLine
 10
851.6148455245989
 20
2013.449999999997
 30
0.0
 11
850.6148455246007
 21
2013.449999999997
 31
0.0
  0
LINE
  5
17D
330
87
100
AcDbEntity
  8
P-SANR-FIXT
100
AcDbLine
 10
850.6148455246007
 20
1986.549999999995
 30
0.0
 11
851.6148455245989
 21
1986.549999999995
 31
0.0
  0
LINE
  5
17E
330
87
100
AcDbEntity
  8
P-SANR-FIXT
100
AcDbLine
 10
850.6148455246007
 20
2013.449999999996
 30
0.0
 11
850.5814253202009
 21
2013.392114507976
 31
0.0
  0
LINE
  5
17F
330
87
100
AcDbEntity
  8
P-SANR-FIXT
100
AcDbLine
 10
850.5774531883163
 20
2013.385234573738
 30
0.0
 11
850.0663627688705
 21
2012.499999999996
 31
0.0
  0
LINE
  5
180
330
87
100
AcDbEntity
  8
P-SANR-FIXT
100
AcDbLine
 10
850.0663627688705
 20
1987.499999999996
 30
0.0
 11
850.5774531883163
 21
1986.614765426254
 31
0.0
  0
LINE
  5
181
330
87
100
AcDbEntity
  8
P-SANR-FIXT
100
AcDbLine
 10
850.5814253202009
 20
1986.607885492016
 30
0.0
 11
850.6148455246007
 21
1986.549999999995
 31
0.0
  0
LINE
  5
182
330
87
100
AcDbEntity
  8
P-SANR-FIXT
100
AcDbLine
 10
848.3343119613017
 20
2011.499999999996
 30
0.0
 11
843.6271664555311
 21
2011.499999999996
 31
0.0
  0
LINE
  5
183
330
87
100
AcDbEntity
  8
P-SANR-FIXT
100
AcDbLine
 10
786.8953790878999
 20
1988.499999999996
 30
0.0
 11
806.0985073622095
 21
1988.499999999996
 31
0.0
  0
LINE
  5
184
330
87
100
AcDbEntity
  8
P-SANR-FIXT
100
AcDbLine
 10
840.3994557299116
 20
1988.499999999996
 30
0.0
 11
848.3343119613017
 21
1988.499999999996
 31
0.0
  0
LINE
  5
185
330
87
100
AcDbEntity
  8
P-SANR-FIXT
100
AcDbLine
 10
785.163328280331
 20
2012.499999999996
 30
0.0
 11
784.6522378608855
 21
2013.385234573737
 31
0.0
  0
LINE
  5
186
330
87
100
AcDbEntity
  8
P-SANR-FIXT
100
AcDbLine
 10
784.6482657290011
 20
2013.392114507976
 30
0.0
 11
784.6148455246008
 21
2013.449999999996
 31
0.0
  0
LINE
  5
187
330
87
100
AcDbEntity
  8
P-SANR-FIXT
100
AcDbLine
 10
784.6148455246008
 20
1986.549999999995
 30
0.0
 11
784.6482657290011
 21
1986.607885492016
 31
0.0
  0
LINE
  5
188
330
87
100
AcDbEntity
  8
P-SANR-FIXT
100
AcDbLine
 10
784.6522378608855
 20
1986.614765426254
 30
0.0
 11
785.163328280331
 21
1987.499999999996
 31
0.0
  0
LINE
  5
189
330
87
100
AcDbEntity
  8
P-SANR-FIXT
100
AcDbLine
 10
784.6148455246008
 20
2013.449999999996
 30
0.0
 11
783.6148455246029
 21
2013.449999999996
 31
0.0
  0
LINE
  5
18A
330
87
100
AcDbEntity
  8
P-SANR-FIXT
100
AcDbLine
 10
783.6148455246029
 20
1986.549999999995
 30
0.0
 11
784.6148455246008
 21
1986.549999999995
 31
0.0
  0
LWPOLYLINE
  5
18B
330
87
100
AcDbEntity
  8
P-SANR-FIXT
100
AcDbPolyline
 90
       28
 70
   128
 43
0.0
 10
850.0663627688707
 20
1987.499999999996
 10
850.0249879787801
 20
1987.568463665229
 10
849.9809084677201
 20
1987.635218016524
 10
849.9341947535048
 20
1987.70015626116
 10
849.8849215681124
 20
1987.763174511798
 10
849.8331677381278
 20
1987.82417195268
 10
849.7790160586394
 20
1987.883051000912
 10
849.7225531607824
 20
1987.939717462579
 10
849.6638693731483
 20
1987.994080683428
 10
849.6030585772793
 20
1988.046053693904
 10
849.5402180574759
 20
1988.095553348277
 10
849.4754483451652
 20
1988.142500457659
 10
849.4088530580695
 20
1988.18681991669
 10
849.3405387344424
 20
1988.22844082369
 10
849.2706146626286
 20
1988.267296594088
 10
849.1991927062263
 20
1988.303325066937
 10
849.1263871251303
 20
1988.336468604368
 10
849.0523143927395
 20
1988.366674183792
 10
848.9770930096236
 20
1988.393893482724
 10
848.9008433139499
 20
1988.418082956092
 10
848.8236872889658
 20
1988.4392039059
 10
848.7457483678515
 20
1988.457222543133
 10
848.6671512362555
 20
1988.472110041816
 10
848.588021632821
 20
1988.483842585126
 10
848.5084861480345
 20
1988.492401403498
 10
848.4286720217042
 20
1988.497772804646
 10
848.3487069394062
 20
1988.499948195476
 10
848.3343119613019
 20
1988.499999999996
  0
LWPOLYLINE
  5
18C
330
87
100
AcDbEntity
  8
P-SANR-FIXT
100
AcDbPolyline
 90
       28
 70
   128
 43
0.0
 10
848.3343119613019
 20
2011.499999999996
 10
848.4142906296749
 20
2011.501599786674
 10
848.4941413492403
 20
2011.506396587391
 10
848.5737363758797
 20
2011.514382728288
 10
848.6529483745302
 20
2011.525545433245
 10
848.7316506228919
 20
2011.539866844314
 10
848.8097172141561
 20
2011.557324050292
 10
848.88702325843
 20
2011.577889123374
 10
848.9634450825342
 20
2011.601529163831
 10
849.0388604278519
 20
2011.62820635264
 10
849.1131486459192
 20
2011.65787801199
 10
849.1861908914339
 20
2011.690496673556
 10
849.2578703123847
 20
2011.726010154438
 10
849.3280722369892
 20
2011.764361640641
 10
849.3966843571437
 20
2011.805489777969
 10
849.4635969080919
 20
2011.849328770177
 10
849.5287028440266
 20
2011.895808484227
 10
849.5918980093387
 20
2011.944854562494
 10
849.6530813052446
 20
2011.996388541714
 10
849.7121548515227
 20
2012.050327978514
 10
849.7690241431007
 20
2012.106586581301
 10
849.8235982012436
 20
2012.165074348313
 10
849.8757897190998
 20
2012.225697711599
 10
849.9255152013747
 20
2012.288359686709
 10
849.9726950979038
 20
2012.352960027851
 10
850.0172539309177
 20
2012.41939538826
 10
850.0591204157885
 20
2012.48755948553
 10
850.0663627688707
 20
2012.499999999996
  0
LWPOLYLINE
  5
18D
330
87
100
AcDbEntity
  8
P-SANR-FIXT
100
AcDbPolyline
 90
       28
 70
   128
 43
0.0
 10
786.8953790879
 20
1988.499999999996
 10
786.8154004195267
 20
1988.498400213318
 10
786.7355496999618
 20
1988.493603412601
 10
786.6559546733221
 20
1988.485617271703
 10
786.5767426746717
 20
1988.474454566747
 10
786.4980404263099
 20
1988.460133155678
 10
786.4199738350458
 20
1988.4426759497
 10
786.3426677907717
 20
1988.422110876617
 10
786.2662459666678
 20
1988.39847083616
 10
786.1908306213498
 20
1988.371793647351
 10
786.1165424032828
 20
1988.342121988002
 10
786.0435001577679
 20
1988.309503326435
 10
785.9718207368171
 20
1988.273989845554
 10
785.9016188122125
 20
1988.235638359351
 10
785.8330066920583
 20
1988.194510222023
 10
785.76609414111
 20
1988.150671229815
 10
785.7009882051751
 20
1988.104191515764
 10
785.6377930398631
 20
1988.055145437497
 10
785.5766097439571
 20
1988.003611458277
 10
785.5175361976789
 20
1987.949672021477
 10
785.4606669061009
 20
1987.89341341869
 10
785.4060928479584
 20
1987.834925651678
 10
785.3539013301021
 20
1987.774302288393
 10
785.3041758478274
 20
1987.711640313283
 10
785.256995951298
 20
1987.64703997214
 10
785.2124371182842
 20
1987.580604611732
 10
785.1705706334134
 20
1987.512440514461
 10
785.1633282803311
 20
1987.499999999996
  0
LWPOLYLINE
  5
18E
330
87
100
AcDbEntity
  8
P-SANR-FIXT
100
AcDbPolyline
 90
       16
 70
   128
 43
0.0
 10
785.1633282803311
 20
2012.499999999996
 10
785.2047030704217
 20
2012.431536334763
 10
785.2487825814817
 20
2012.364781983468
 10
785.295496295697
 20
2012.299843738832
 10
785.3447694810895
 20
2012.236825488194
 10
785.3965233110739
 20
2012.175828047312
 10
785.4506749905623
 20
2012.11694899908
 10
785.5071378884196
 20
2012.060282537413
 10
785.5658216760534
 20
2012.005919316564
 10
785.6266324719225
 20
2011.953946306088
 10
785.6894729917257
 20
2011.904446651715
 10
785.7542427040365
 20
2011.857499542333
 10
785.8208379911322
 20
2011.813180083302
 10
785.8891523147593
 20
2011.771559176301
 10
785.9590763865733
 20
2011.732703405904
 10
786.0028184077493
 20
2011.710637947301
  0
LINE
  5
18F
330
87
100
AcDbEntity
  8
P-SANR-FIXT
100
AcDbLine
 10
779.7167521248772
 20
2041.437835112517
 30
0.0
 11
779.4155237456951
 21
2040.791848768707
 31
0.0
  0
LINE
  5
190
330
87
100
AcDbEntity
  8
P-SANR-FIXT
100
AcDbLine
 10
830.1589252681342
 20
2059.260936508293
 30
0.0
 11
829.5129389243246
 21
2059.562164887475
 31
0.0
  0
LINE
  5
191
330
87
100
AcDbEntity
  8
P-SANR-FIXT
100
AcDbLine
 10
780.0701652571015
 20
2041.566466973045
 30
0.0
 11
780.174511524558
 21
2041.604445908456
 31
0.0
  0
LINE
  5
192
330
87
100
AcDbEntity
  8
P-SANR-FIXT
100
AcDbLine
 10
780.5054466580628
 20
2041.724896446524
 30
0.0
 11
780.6816040996034
 21
2041.78901251179
 31
0.0
  0
LINE
  5
193
330
87
100
AcDbEntity
  8
P-SANR-FIXT
100
AcDbLine
 10
782.8139926013484
 20
2042.565138454316
 30
0.0
 11
783.3662442157328
 21
2042.766141603778
 31
0.0
  0
LINE
  5
194
330
87
100
AcDbEntity
  8
P-SANR-FIXT
100
AcDbLine
 10
784.457237528204
 20
2043.163230695301
 30
0.0
 11
785.5417994314838
 21
2043.557978945314
 31
0.0
  0
LINE
  5
195
330
87
100
AcDbEntity
  8
P-SANR-FIXT
100
AcDbLine
 10
785.6733272972762
 20
2043.605851173439
 30
0.0
 11
787.0064506498965
 21
2044.091068392398
 31
0.0
  0
LINE
  5
196
330
87
100
AcDbEntity
  8
P-SANR-FIXT
100
AcDbLine
 10
787.0092348430387
 20
2044.092081755828
 30
0.0
 11
788.4364388136129
 21
2044.611541519344
 31
0.0
  0
LINE
  5
197
330
87
100
AcDbEntity
  8
P-SANR-FIXT
100
AcDbLine
 10
788.6106595824388
 20
2044.674952693387
 30
0.0
 11
789.9685504420057
 21
2045.169184547651
 31
0.0
  0
LINE
  5
198
330
87
100
AcDbEntity
  8
P-SANR-FIXT
100
AcDbLine
 10
790.3338858404504
 20
2045.302155758209
 30
0.0
 11
791.5929253814027
 21
2045.76040867488
 31
0.0
  0
LINE
  5
199
330
87
100
AcDbEntity
  8
P-SANR-FIXT
100
AcDbLine
 10
791.7821237993414
 20
2045.82927126738
 30
0.0
 11
793.2991374568691
 21
2046.381419083695
 31
0.0
  0
LINE
  5
19A
330
87
100
AcDbEntity
  8
P-SANR-FIXT
100
AcDbLine
 10
794.0924565713506
 20
2046.670163627641
 30
0.0
 11
795.0762474228568
 21
2047.028234214332
 31
0.0
  0
LINE
  5
19B
330
87
100
AcDbEntity
  8
P-SANR-FIXT
100
AcDbLine
 10
796.9128656996076
 20
2047.696708598779
 30
0.0
 11
798.1707447660095
 21
2048.154539137256
 31
0.0
  0
LINE
  5
19C
330
87
100
AcDbEntity
  8
P-SANR-FIXT
100
AcDbLine
 10
798.7972214475803
 20
2048.38255800181
 30
0.0
 11
802.4448337013458
 21
2049.710180288325
 31
0.0
  0
LINE
  5
19D
330
87
100
AcDbEntity
  8
P-SANR-FIXT
100
AcDbLine
 10
802.6605986826407
 20
2049.788712319113
 30
0.0
 11
806.56909236654
 21
2051.21128768087
 31
0.0
  0
LINE
  5
19E
330
87
100
AcDbEntity
  8
P-SANR-FIXT
100
AcDbLine
 10
806.7848573478526
 20
2051.289819711665
 30
0.0
 11
808.5124551274265
 21
2051.918613880214
 31
0.0
  0
LINE
  5
19F
330
87
100
AcDbEntity
  8
P-SANR-FIXT
100
AcDbLine
 10
808.9383540708423
 20
2052.073628418423
 30
0.0
 11
811.0589462831892
 21
2052.845460862734
 31
0.0
  0
LINE
  5
1A0
330
87
100
AcDbEntity
  8
P-SANR-FIXT
100
AcDbLine
 10
812.316825349573
 20
2053.303291401205
 30
0.0
 11
813.1304949977087
 21
2053.599442933652
 31
0.0
  0
LINE
  5
1A1
330
87
100
AcDbEntity
  8
P-SANR-FIXT
100
AcDbLine
 10
814.1534436263238
 20
2053.971765785651
 30
0.0
 11
815.1372344778481
 21
2054.329836372349
 31
0.0
  0
LINE
  5
1A2
330
87
100
AcDbEntity
  8
P-SANR-FIXT
100
AcDbLine
 10
815.9305535923117
 20
2054.618580916288
 30
0.0
 11
817.0638922244611
 21
2055.031082443735
 31
0.0
  0
LINE
  5
1A3
330
87
100
AcDbEntity
  8
P-SANR-FIXT
100
AcDbLine
 10
817.6367656677777
 20
2055.239591325104
 30
0.0
 11
819.2498438258377
 21
2055.826703760182
 31
0.0
  0
LINE
  5
1A4
330
87
100
AcDbEntity
  8
P-SANR-FIXT
100
AcDbLine
 10
819.2611406071746
 20
2055.830815452332
 30
0.0
 11
820.6190314667599
 21
2056.325047306603
 31
0.0
  0
LINE
  5
1A5
330
87
100
AcDbEntity
  8
P-SANR-FIXT
100
AcDbLine
 10
820.7932522355672
 20
2056.38845848064
 30
0.0
 11
822.22045620616
 21
2056.907918244162
 31
0.0
  0
LINE
  5
1A6
330
87
100
AcDbEntity
  8
P-SANR-FIXT
100
AcDbLine
 10
822.2232403992833
 20
2056.908931607586
 30
0.0
 11
823.5563637519055
 21
2057.394148826545
 31
0.0
  0
LINE
  5
1A7
330
87
100
AcDbEntity
  8
P-SANR-FIXT
100
AcDbLine
 10
823.6878916177149
 20
2057.442021054677
 30
0.0
 11
824.7724535209778
 21
2057.836769304683
 31
0.0
  0
LINE
  5
1A8
330
87
100
AcDbEntity
  8
P-SANR-FIXT
100
AcDbLine
 10
825.0101696318813
 20
2057.923290893257
 30
0.0
 11
825.8634468334488
 21
2058.233858396206
 31
0.0
  0
LINE
  5
1A9
330
87
100
AcDbEntity
  8
P-SANR-FIXT
100
AcDbLine
 10
828.5480869496039
 20
2059.210987488203
 30
0.0
 11
828.7242443911319
 21
2059.275103553464
 31
0.0
  0
LINE
  5
1AA
330
87
100
AcDbEntity
  8
P-SANR-FIXT
100
AcDbLine
 10
829.0551795246507
 20
2059.395554091538
 30
0.0
 11
829.1595257920944
 21
2059.433533026944
 31
0.0
  0
SPLINE
  5
1AB
330
87
100
AcDbEntity
  8
P-SANR-FIXT
100
AcDbSpline
210
0.0
220
0.0
230
1.0
 70
     8
 71
     3
 72
    13
 73
     9
 74
     0
 42
0.000000001
 43
0.0000000001
 40
-1.0
 40
-1.0
 40
-1.0
 40
-1.0
 40
-0.6666666666666666
 40
-0.5
 40
-0.4166666666666666
 40
-0.3333333333333333
 40
-0.1666666666666666
 40
0.0
 40
0.0
 40
0.0
 40
0.0
 10
841.1635304023148
 20
1988.778100437507
 30
0.0
 10
841.669602371309
 20
1988.963476265232
 30
0.0
 10
842.2710540831994
 20
1989.399516349573
 30
0.0
 10
842.6566351132166
 20
1990.232950223514
 30
0.0
 10
842.7649502865694
 20
1990.797453008105
 30
0.0
 10
842.7938616510765
 20
1991.414242742898
 30
0.0
 10
842.6694686341019
 20
1992.280063213684
 30
0.0
 10
842.3772252363523
 20
1993.015979181529
 30
0.0
 10
842.1847125092176
 20
1993.392725336813
 30
0.0
  0
SPLINE
  5
1AC
330
87
100
AcDbEntity
  8
P-SANR-FIXT
100
AcDbSpline
210
0.0
220
0.0
230
1.0
 70
     8
 71
     3
 72
    48
 73
    44
 74
     0
 42
0.000000001
 43
0.0000000001
 40
-0.9595208489818293
 40
-0.9595208489818293
 40
-0.9595208489818293
 40
-0.9595208489818293
 40
-0.9444444444444444
 40
-0.9166666666666666
 40
-0.8888888888888889
 40
-0.861111111111111
 40
-0.8333333333333332
 40
-0.8055555555555555
 40
-0.7916666666666668
 40
-0.7777777777777778
 40
-0.7638888888888889
 40
-0.75
 40
-0.7222222222222223
 40
-0.6944444444444445
 40
-0.6805555555555556
 40
-0.6666666666666666
 40
-0.6527777777777777
 40
-0.6388888888888889
 40
-0.6111111111111112
 40
-0.5833333333333334
 40
-0.5694444444444445
 40
-0.5555555555555556
 40
-0.5416666666666668
 40
-0.5277777777777778
 40
-0.5
 40
-0.4722222222222223
 40
-0.4444444444444445
 40
-0.4166666666666666
 40
-0.3888888888888888
 40
-0.3611111111111111
 40
-0.3333333333333333
 40
-0.2777777777777778
 40
-0.25
 40
-0.2361111111111111
 40
-0.2222222222222222
 40
-0.2083333333333333
 40
-0.1944444444444444
 40
-0.1666666666666666
 40
-0.1388888888888889
 40
-0.1111111111111111
 40
-0.0833333333333333
 40
-0.0555555555555556
 40
0.0
 40
0.0
 40
0.0
 40
0.0
 10
795.136111255678
 20
2011.391278250374
 30
0.0
 10
795.1626592085952
 20
2011.364719140453
 30
0.0
 10
795.2476653078832
 20
2011.275860051204
 30
0.0
 10
795.4327451578096
 20
2011.069204187952
 30
0.0
 10
795.7140680660867
 20
2010.74078733153
 30
0.0
 10
796.0816563089545
 20
2010.336624435689
 30
0.0
 10
796.5313967312332
 20
2009.865220060726
 30
0.0
 10
796.9457982316397
 20
2009.421537907592
 30
0.0
 10
797.2890906668283
 20
2009.039152971405
 30
0.0
 10
797.5463746388685
 20
2008.738807344269
 30
0.0
 10
797.8100212256994
 20
2008.427368239698
 30
0.0
 10
798.180028910744
 20
2008.000162696005
 30
0.0
 10
798.6650110784927
 20
2007.442958277234
 30
0.0
 10
799.1648102039686
 20
2006.854004636475
 30
0.0
 10
799.5641903858593
 20
2006.36239774392
 30
0.0
 10
799.8591486478728
 20
2005.981933209424
 30
0.0
 10
800.1549352487801
 20
2005.592886042077
 30
0.0
 10
800.5579499491203
 20
2005.067338502624
 30
0.0
 10
801.0676051200745
 20
2004.394161868228
 30
0.0
 10
801.5712103791706
 20
2003.695743607722
 30
0.0
 10
801.9621214117476
 20
2003.119135419995
 30
0.0
 10
802.2452060807875
 20
2002.676148009507
 30
0.0
 10
802.5238074775154
 20
2002.225218026335
 30
0.0
 10
802.8965628176306
 20
2001.617881109333
 30
0.0
 10
803.3536193750913
 20
2000.845169443925
 30
0.0
 10
803.8715332761643
 20
1999.897034442282
 30
0.0
 10
804.3329197186723
 20
1998.928280888355
 30
0.0
 10
804.7405051285579
 20
1997.941051033886
 30
0.0
 10
805.1099948035766
 20
1996.949333877125
 30
0.0
 10
805.4278514304328
 20
1995.965657525422
 30
0.0
 10
805.7801519730674
 20
1994.687824726252
 30
0.0
 10
805.9873658219903
 20
1993.461214684522
 30
0.0
 10
806.0914156526489
 20
1992.479961149676
 30
0.0
 10
806.1378774363182
 20
1991.953753732925
 30
0.0
 10
806.1701629428526
 20
1991.578016205445
 30
0.0
 10
806.1940598201768
 20
1991.221261377249
 30
0.0
 10
806.2074427295506
 20
1990.770301956344
 30
0.0
 10
806.2013164600633
 20
1990.256018571449
 30
0.0
 10
806.1754408891681
 20
1989.723978242743
 30
0.0
 10
806.1572352589397
 20
1989.282433961695
 30
0.0
 10
806.1498020756967
 20
1988.935132632653
 30
0.0
 10
806.1307651341834
 20
1988.601291812623
 30
0.0
 10
806.1128270074142
 20
1988.499999999995
 30
0.0
 10
806.0985073622079
 20
1988.499999999995
 30
0.0
  0
SPLINE
  5
1AD
330
87
100
AcDbEntity
  8
P-SANR-FIXT
100
AcDbSpline
210
0.0
220
0.0
230
1.0
 70
     8
 71
     3
 72
    29
 73
    25
 74
     0
 42
0.000000001
 43
0.0000000001
 40
-1.0
 40
-1.0
 40
-1.0
 40
-1.0
 40
-0.8888888888888889
 40
-0.8333333333333332
 40
-0.7777777777777778
 40
-0.7222222222222223
 40
-0.6666666666666666
 40
-0.6111111111111112
 40
-0.5833333333333334
 40
-0.5555555555555556
 40
-0.5277777777777778
 40
-0.5
 40
-0.4722222222222223
 40
-0.4444444444444445
 40
-0.4166666666666666
 40
-0.3888888888888888
 40
-0.3611111111111111
 40
-0.3333333333333333
 40
-0.3055555555555556
 40
-0.2777777777777778
 40
-0.25
 40
-0.2222222222222222
 40
-0.1944444444444444
 40
-0.1666666666666666
 40
-0.1666666666666666
 40
-0.1666666666666666
 40
-0.1666666666666666
 10
842.1847125092176
 20
1993.392725336813
 30
0.0
 10
841.7941279893822
 20
1994.099431882759
 30
0.0
 10
841.2737478726985
 20
1995.261463820945
 30
0.0
 10
840.6689125189426
 20
1996.96836212329
 30
0.0
 10
840.2909423867615
 20
1998.309566952038
 30
0.0
 10
840.0224819080406
 20
1999.703817125404
 30
0.0
 10
839.8433752989671
 20
2001.116255328865
 30
0.0
 10
839.7936818136614
 20
2002.285597539674
 30
0.0
 10
839.8005127929399
 20
2003.205632631562
 30
0.0
 10
839.8208911128094
 20
2003.881242459907
 30
0.0
 10
839.862272813939
 20
2004.540260888877
 30
0.0
 10
839.9272363788375
 20
2005.181879491741
 30
0.0
 10
840.0064915571759
 20
2005.802943573206
 30
0.0
 10
840.0900906840925
 20
2006.401201725267
 30
0.0
 10
840.1825844856944
 20
2006.973876003159
 30
0.0
 10
840.2890290626411
 20
2007.519339265641
 30
0.0
 10
840.4000033655206
 20
2008.036359363994
 30
0.0
 10
840.5066694163108
 20
2008.523853143743
 30
0.0
 10
840.6123341015012
 20
2008.979631450142
 30
0.0
 10
840.7219210999354
 20
2009.401661281098
 30
0.0
 10
840.8277537608279
 20
2009.788986470857
 30
0.0
 10
840.923166489914
 20
2010.140433539428
 30
0.0
 10
841.0100497964791
 20
2010.454542809097
 30
0.0
 10
841.0652097171478
 20
2010.637973833836
 30
0.0
 10
841.0909701487891
 20
2010.723007898165
 30
0.0
  0
LINE
  5
1AE
330
87
100
AcDbEntity
  8
P-SANR-FIXT
100
AcDbLine
 10
833.6365437717763
 20
2035.961056038257
 30
0.0
 11
791.7996883112875
 21
2020.733685955342
 31
0.0
  0
LINE
  5
1AF
330
87
100
AcDbEntity
  8
P-SANR-FIXT
100
AcDbLine
 10
830.1589252681328
 20
2059.260936508292
 30
0.0
 11
779.4155237456938
 21
2040.791848768706
 31
0.0
  0
LINE
  5
1B0
330
87
100
AcDbEntity
  8
P-SANR-FIXT
100
AcDbLine
 10
850.6148455245991
 20
2013.449999999995
 30
0.0
 11
850.6148455245991
 21
1986.549999999995
 31
0.0
  0
LINE
  5
1B1
330
87
100
AcDbEntity
  8
P-SANR-FIXT
100
AcDbLine
 10
784.6148455245995
 20
2013.449999999995
 30
0.0
 11
784.6148455245995
 21
1986.549999999995
 31
0.0
  0
ENDBLK
  5
1B3
330
87
100
AcDbEntity
  8
0
100
AcDbBlockEnd
  0
BLOCK
  5
2C0
330
1B5
100
AcDbEntity
  8
0
100
AcDbBlockBegin
  2
Automatic flow rate regulator valve_Caleffi_121 DN15 - 1_2___Pressure gauge-V1-Est - Idraulica
 70
     0
 10
0.0
 20
0.0
 30
0.0
  3
Automatic flow rate regulator valve_Caleffi_121 DN15 - 1_2___Pressure gauge-V1-Est - Idraulica
  1

  0
LINE
  5
1B6
330
1B5
100
AcDbEntity
  8
M-PIPE
100
AcDbLine
 10
855.727801262747
 20
1788.245878730087
 30
0.0
 11
855.727801262747
 21
1786.245878730088
 31
0.0
1001
REVIT
1002
{
1070
     3
1000
923395
1002
}
  0
LINE
  5
1B7
330
1B5
100
AcDbEntity
  8
M-PIPE
100
AcDbLine
 10
863.727801262747
 20
1786.245878730088
 30
0.0
 11
863.727801262747
 21
1788.245878730087
 31
0.0
1001
REVIT
1002
{
1070
     3
1000
923395
1002
}
  0
LINE
  5
1B8
330
1B5
100
AcDbEntity
  8
M-PIPE
100
AcDbLine
 10
855.8827544789922
 20
1786.245878730087
 30
0.0
 11
855.7278012627454
 21
1786.245878730087
 31
0.0
1001
REVIT
1002
{
1070
     3
1000
923395
1002
}
  0
LINE
  5
1B9
330
1B5
100
AcDbEntity
  8
M-PIPE
100
AcDbLine
 10
863.7271920433709
 20
1786.245878730087
 30
0.0
 11
855.8827544789922
 21
1786.245878730087
 31
0.0
1001
REVIT
1002
{
1070
     3
1000
923395
1002
}
  0
LINE
  5
1BA
330
1B5
100
AcDbEntity
  8
M-PIPE
100
AcDbLine
 10
835.2278012627472
 20
1816.245878730088
 30
0.0
 11
835.2278012627472
 21
1788.245878730087
 31
0.0
1001
REVIT
1002
{
1070
     3
1000
923395
1002
}
  0
LINE
  5
1BB
330
1B5
100
AcDbEntity
  8
M-PIPE
100
AcDbLine
 10
884.2278012627472
 20
1788.245878730087
 30
0.0
 11
884.2278012627472
 21
1816.245878730087
 31
0.0
1001
REVIT
1002
{
1070
     3
1000
923395
1002
}
  0
LINE
  5
1BC
330
1B5
100
AcDbEntity
  8
M-PIPE
100
AcDbLine
 10
836.1768897122567
 20
1788.245878730087
 30
0.0
 11
835.2278012627454
 21
1788.245878730087
 31
0.0
1001
REVIT
1002
{
1070
     3
1000
923395
1002
}
  0
LINE
  5
1BD
330
1B5
100
AcDbEntity
  8
M-PIPE
100
AcDbLine
 10
884.224069794077
 20
1788.245878730086
 30
0.0
 11
836.1768897122567
 21
1788.245878730087
 31
0.0
1001
REVIT
1002
{
1070
     3
1000
923395
1002
}
  0
LINE
  5
1BE
330
1B5
100
AcDbEntity
  8
M-PIPE
100
AcDbLine
 10
836.1768897122569
 20
1816.245878730087
 30
0.0
 11
884.2240697940773
 21
1816.245878730087
 31
0.0
1001
REVIT
1002
{
1070
     3
1000
923395
1002
}
  0
LINE
  5
1BF
330
1B5
100
AcDbEntity
  8
M-PIPE
100
AcDbLine
 10
835.2278012627458
 20
1816.245878730087
 30
0.0
 11
836.1768897122569
 21
1816.245878730087
 31
0.0
1001
REVIT
1002
{
1070
     3
1000
923395
1002
}
  0
LINE
  5
1C0
330
1B5
100
AcDbEntity
  8
M-PIPE
100
AcDbLine
 10
789.5471971013842
 20
1827.973824442877
 30
0.0
 11
787.6558929523805
 21
1827.389294179013
 31
0.0
1001
REVIT
1002
{
1070
     3
1000
923255
1002
}
  0
LWPOLYLINE
  5
1C1
330
1B5
100
AcDbEntity
  8
M-PIPE
100
AcDbPolyline
 90
        3
 70
   128
 43
0.0
 10
787.166524982843
 20
1827.21518944206
 10
785.8323640547028
 20
1826.740528753365
 10
784.2522069890038
 20
1826.102534026049
1001
REVIT
1002
{
1070
     3
1000
923255
1002
}
  0
LINE
  5
1C2
330
1B5
100
AcDbEntity
  8
M-PIPE
100
AcDbLine
 10
784.0828651324934
 20
1826.034161575035
 30
0.0
 11
782.8674752697415
 21
1825.491704231618
 31
0.0
1001
REVIT
1002
{
1070
     3
1000
923255
1002
}
  0
LINE
  5
1C3
330
1B5
100
AcDbEntity
  8
M-PIPE
100
AcDbLine
 10
782.8674752697432
 20
1787.000053228442
 30
0.0
 11
784.0855150896125
 21
1786.46491744362
 31
0.0
1001
REVIT
1002
{
1070
     3
1000
923255
1002
}
  0
LWPOLYLINE
  5
1C4
330
1B5
100
AcDbEntity
  8
M-PIPE
100
AcDbPolyline
 90
        4
 70
   128
 43
0.0
 10
784.2447498133216
 20
1786.394958976374
 10
784.5600668575414
 20
1786.256427024319
 10
786.3306628469508
 20
1785.565335284316
 10
787.1665249823665
 20
1785.27887857445
1001
REVIT
1002
{
1070
     3
1000
923255
1002
}
  0
LWPOLYLINE
  5
1C5
330
1B5
100
AcDbEntity
  8
M-PIPE
100
AcDbPolyline
 90
        3
 70
   128
 43
0.0
 10
787.7571266053913
 20
1785.07647462456
 10
788.1736413659377
 20
1784.933731649539
 10
789.5471971013869
 20
1784.517933017183
1001
REVIT
1002
{
1070
     3
1000
923255
1002
}
  0
ELLIPSE
  5
1C6
330
1B5
100
AcDbEntity
  8
M-PIPE
100
AcDbEllipse
 10
795.038281511465
 20
1806.245878730029
 30
0.0
 11
0.0000000000036535
 21
22.50000000000046
 31
0.0
210
0.0
220
0.0
230
1.0
 40
0.9396926207859058
 41
4.712388980384856
 42
6.518804756198987
1001
REVIT
1002
{
1070
     3
1000
923255
1002
}
  0
ELLIPSE
  5
1C7
330
1B5
100
AcDbEntity
  8
M-PIPE
100
AcDbEllipse
 10
858.1126949158132
 20
1587.560534424439
 30
0.0
 11
-68.55373994148822
 21
240.4166363250161
 31
0.0
210
0.0
220
0.0
230
0.9999999999999998
 40
0.3303660895493437
 41
0.0103713125452969
 42
0.0506859024648796
1001
REVIT
1002
{
1070
     3
1000
923255
1002
}
  0
ELLIPSE
  5
1C8
330
1B5
100
AcDbEntity
  8
M-PIPE
100
AcDbEllipse
 10
794.1832311531598
 20
1806.24587873003
 30
0.0
 11
0.0
 21
22.25100234637479
 31
0.0
210
0.0
220
0.0
230
1.0
 40
0.9396926207859229
 41
6.023002737595957
 42
6.546601513194649
1001
REVIT
1002
{
1070
     3
1000
923255
1002
}
  0
SPLINE
  5
1C9
330
1B5
100
AcDbEntity
  8
M-PIPE
100
AcDbSpline
210
0.0
220
0.0
230
1.0
 70
     8
 71
     3
 72
     9
 73
     5
 74
     0
 42
0.000000001
 43
0.0000000001
 40
-1.0
 40
-1.0
 40
-1.0
 40
-1.0
 40
-0.5
 40
0.0
 40
0.0
 40
0.0
 40
0.0
 10
799.5622437922207
 20
1827.747979689869
 30
0.0
 10
798.9482342509449
 20
1827.579035350225
 30
0.0
 10
797.7134816148113
 20
1827.208694819146
 30
0.0
 10
796.4652618715139
 20
1826.773450584486
 30
0.0
 10
795.8377852230742
 20
1826.53960254126
 30
0.0
1001
REVIT
1002
{
1070
     3
1000
923255
1002
}
  0
ELLIPSE
  5
1CA
330
1B5
100
AcDbEntity
  8
M-PIPE
100
AcDbEllipse
 10
747.9918711521308
 20
2024.912600585971
 30
0.0
 11
-68.55373994149639
 21
240.4166363250703
 31
0.0
210
0.0
220
0.0
230
1.0
 40
0.3303660895493466
 41
2.903056253178414
 42
2.943370843097985
1001
REVIT
1002
{
1070
     3
1000
923255
1002
}
  0
ELLIPSE
  5
1CB
330
1B5
100
AcDbEntity
  8
M-PIPE
100
AcDbEllipse
 10
794.1832311531598
 20
1806.24587873003
 30
0.0
 11
0.0
 21
22.25100234637547
 31
0.0
210
0.0
220
0.0
230
1.0
 40
0.9396926207858937
 41
2.878176447574721
 42
3.401775223173412
1001
REVIT
1002
{
1070
     3
1000
923255
1002
}
  0
SPLINE
  5
1CC
330
1B5
100
AcDbEntity
  8
M-PIPE
100
AcDbSpline
210
0.0
220
0.0
230
1.0
 70
     8
 71
     3
 72
     9
 73
     5
 74
     0
 42
0.000000001
 43
0.0000000001
 40
-1.0
 40
-1.0
 40
-1.0
 40
-1.0
 40
-0.5
 40
0.0
 40
0.0
 40
0.0
 40
0.0
 10
788.7389099441787
 20
1784.762400219895
 30
0.0
 10
788.2099773525335
 20
1784.931344559539
 30
0.0
 10
787.1617207113242
 20
1785.301685090618
 30
0.0
 10
786.1326811542775
 20
1785.736929325279
 30
0.0
 10
785.6229656467948
 20
1785.970777368504
 30
0.0
1001
REVIT
1002
{
1070
     3
1000
923255
1002
}
  0
ELLIPSE
  5
1CD
330
1B5
100
AcDbEntity
  8
M-PIPE
100
AcDbEllipse
 10
795.038281511465
 20
1806.245878730029
 30
0.0
 11
0.0
 21
22.49999999999968
 31
0.0
210
0.0
220
0.0
230
1.0
 40
0.9396926207859376
 41
2.905973204570559
 42
4.712388980384685
1001
REVIT
1002
{
1070
     3
1000
923255
1002
}
  0
ELLIPSE
  5
1CE
330
1B5
100
AcDbEntity
  8
M-PIPE
100
AcDbEllipse
 10
790.7630297198942
 20
1806.24587873003
 30
0.0
 11
0.0
 21
20.99999999999949
 31
0.0
210
0.0
220
0.0
230
0.9999999999999998
 40
0.9396926207859307
 41
5.989117565634558
 42
6.023099054039036
1001
REVIT
1002
{
1070
     3
1000
923255
1002
}
  0
ELLIPSE
  5
1CF
330
1B5
100
AcDbEntity
  8
M-PIPE
100
AcDbEllipse
 10
790.7630297198942
 20
1806.24587873003
 30
0.0
 11
0.0
 21
20.99999999999946
 31
0.0
210
0.0
220
0.0
230
1.0
 40
0.939692620785934
 41
5.337350653112441
 42
5.969215151517712
1001
REVIT
1002
{
1070
     3
1000
923255
1002
}
  0
ELLIPSE
  5
1D0
330
1B5
100
AcDbEntity
  8
M-PIPE
100
AcDbEllipse
 10
790.7630297198942
 20
1806.24587873003
 30
0.0
 11
0.0
 21
21.00000000000003
 31
0.0
210
0.0
220
0.0
230
1.0
 40
0.9396926207859008
 41
5.222109564583585
 42
5.257470843980412
1001
REVIT
1002
{
1070
     3
1000
923255
1002
}
  0
ELLIPSE
  5
1D1
330
1B5
100
AcDbEntity
  8
M-PIPE
100
AcDbEllipse
 10
790.7630297198942
 20
1806.24587873003
 30
0.0
 11
0.0
 21
20.99999999999996
 31
0.0
210
0.0
220
0.0
230
1.0
 40
0.9396926207859049
 41
5.149292338269453
 42
5.178135034684101
1001
REVIT
1002
{
1070
     3
1000
923255
1002
}
  0
ELLIPSE
  5
1D2
330
1B5
100
AcDbEntity
  8
M-PIPE
100
AcDbEllipse
 10
790.7630297198942
 20
1806.24587873003
 30
0.0
 11
0.0
 21
21.00000000000019
 31
0.0
210
0.0
220
0.0
230
1.0
 40
0.9396926207858927
 41
4.712388980384663
 42
5.099462018093937
1001
REVIT
1002
{
1070
     3
1000
923255
1002
}
  0
LINE
  5
1D3
330
1B5
100
AcDbEntity
  8
M-PIPE
100
AcDbLine
 10
795.8377852230742
 20
1826.53960254126
 30
0.0
 11
795.8344068888051
 21
1826.526185265378
 31
0.0
1001
REVIT
1002
{
1070
     3
1000
923255
1002
}
  0
LINE
  5
1D4
330
1B5
100
AcDbEntity
  8
M-PIPE
100
AcDbLine
 10
785.6265730604792
 20
1826.506653011767
 30
0.0
 11
785.6229656467948
 21
1826.520980091555
 31
0.0
1001
REVIT
1002
{
1070
     3
1000
923255
1002
}
  0
ELLIPSE
  5
1D5
330
1B5
100
AcDbEntity
  8
M-PIPE
100
AcDbEllipse
 10
790.7630297198947
 20
1806.24587873003
 30
0.0
 11
0.0
 21
20.99999999999996
 31
0.0
210
0.0
220
0.0
230
1.0
 40
0.9396926207859229
 41
0.392788404044597
 42
0.4116349749889423
1001
REVIT
1002
{
1070
     3
1000
923255
1002
}
  0
ELLIPSE
  5
1D6
330
1B5
100
AcDbEntity
  8
M-PIPE
100
AcDbEllipse
 10
790.7630297198947
 20
1806.24587873003
 30
0.0
 11
0.0
 21
21.00000000000003
 31
0.0
210
0.0
220
0.0
230
1.0
 40
0.9396926207859197
 41
0.3142668632321013
 42
0.3665836435133132
1001
REVIT
1002
{
1070
     3
1000
923255
1002
}
  0
ELLIPSE
  5
1D7
330
1B5
100
AcDbEntity
  8
M-PIPE
100
AcDbEllipse
 10
790.7630297198947
 20
1806.24587873003
 30
0.0
 11
0.0
 21
20.99999999999995
 31
0.0
210
0.0
220
0.0
230
1.0
 40
0.9396926207859237
 41
0.2635125224581556
 42
0.2909942809472312
1001
REVIT
1002
{
1070
     3
1000
923255
1002
}
  0
ELLIPSE
  5
1D8
330
1B5
100
AcDbEntity
  8
M-PIPE
100
AcDbEllipse
 10
790.7630297198942
 20
1806.24587873003
 30
0.0
 11
0.0
 21
21.00000000000002
 31
0.0
210
0.0
220
0.0
230
0.9999999999999998
 40
0.9396926207859108
 41
2.850747069454871
 42
2.878080131131644
1001
REVIT
1002
{
1070
     3
1000
923255
1002
}
  0
ELLIPSE
  5
1D9
330
1B5
100
AcDbEntity
  8
M-PIPE
100
AcDbEllipse
 10
790.7630297198942
 20
1806.24587873003
 30
0.0
 11
0.0
 21
21.00000000000013
 31
0.0
210
0.0
220
0.0
230
0.9999999999999998
 40
0.939692620785906
 41
2.775675712414086
 42
2.827600409199376
1001
REVIT
1002
{
1070
     3
1000
923255
1002
}
  0
ELLIPSE
  5
1DA
330
1B5
100
AcDbEntity
  8
M-PIPE
100
AcDbEllipse
 10
790.7630297198942
 20
1806.24587873003
 30
0.0
 11
0.0
 21
21.0
 31
0.0
210
0.0
220
0.0
230
1.0
 40
0.939692620785914
 41
2.729957678600977
 42
2.749446873121953
1001
REVIT
1002
{
1070
     3
1000
923255
1002
}
  0
LINE
  5
1DB
330
1B5
100
AcDbEntity
  8
M-PIPE
100
AcDbLine
 10
785.6229656467948
 20
1785.970777368504
 30
0.0
 11
785.6265730604982
 21
1785.985104448367
 31
0.0
1001
REVIT
1002
{
1070
     3
1000
923255
1002
}
  0
LINE
  5
1DC
330
1B5
100
AcDbEntity
  8
M-PIPE
100
AcDbLine
 10
795.8344068887864
 20
1785.965572194755
 30
0.0
 11
795.8377852230744
 21
1785.952154918799
 31
0.0
1001
REVIT
1002
{
1070
     3
1000
923255
1002
}
  0
ELLIPSE
  5
1DD
330
1B5
100
AcDbEntity
  8
M-PIPE
100
AcDbEllipse
 10
790.7630297198947
 20
1806.24587873003
 30
0.0
 11
0.0
 21
21.00000000000045
 31
0.0
210
0.0
220
0.0
230
1.0
 40
0.9396926207859053
 41
4.324992272202893
 42
4.712388980384663
1001
REVIT
1002
{
1070
     3
1000
923255
1002
}
  0
ELLIPSE
  5
1DE
330
1B5
100
AcDbEntity
  8
M-PIPE
100
AcDbEllipse
 10
790.7630297198947
 20
1806.24587873003
 30
0.0
 11
0.0
 21
21.00000000000065
 31
0.0
210
0.0
220
0.0
230
1.0
 40
0.9396926207858953
 41
4.246436138069958
 42
4.2754856224999
1001
REVIT
1002
{
1070
     3
1000
923255
1002
}
  0
ELLIPSE
  5
1DF
330
1B5
100
AcDbEntity
  8
M-PIPE
100
AcDbEllipse
 10
790.7630297198947
 20
1806.24587873003
 30
0.0
 11
0.0
 21
21.00000000000067
 31
0.0
210
0.0
220
0.0
230
1.0
 40
0.9396926207858971
 41
4.167339934774923
 42
4.202668396185774
1001
REVIT
1002
{
1070
     3
1000
923255
1002
}
  0
ELLIPSE
  5
1E0
330
1B5
100
AcDbEntity
  8
M-PIPE
100
AcDbEllipse
 10
790.7630297198947
 20
1806.24587873003
 30
0.0
 11
0.0
 21
21.0000000000006
 31
0.0
210
0.0
220
0.0
230
1.0
 40
0.9396926207858912
 41
3.455838309561361
 42
4.08779667849652
1001
REVIT
1002
{
1070
     3
1000
923255
1002
}
  0
ELLIPSE
  5
1E1
330
1B5
100
AcDbEntity
  8
M-PIPE
100
AcDbEllipse
 10
790.7630297198947
 20
1806.24587873003
 30
0.0
 11
0.0
 21
21.00000000000082
 31
0.0
210
0.0
220
0.0
230
1.0
 40
0.9396926207858859
 41
3.401678906730364
 42
3.435834137386987
1001
REVIT
1002
{
1070
     3
1000
923255
1002
}
  0
LINE
  5
1E2
330
1B5
100
AcDbEntity
  8
M-PIPE
100
AcDbLine
 10
788.7389099441787
 20
1827.729357240164
 30
0.0
 11
788.8873287201314
 21
1827.139902347788
 31
0.0
1001
REVIT
1002
{
1070
     3
1000
923255
1002
}
  0
LINE
  5
1E3
330
1B5
100
AcDbEntity
  8
M-PIPE
100
AcDbLine
 10
788.8873287201509
 20
1785.351855112349
 30
0.0
 11
788.7389099441787
 21
1784.762400219895
 31
0.0
1001
REVIT
1002
{
1070
     3
1000
923255
1002
}
  0
LINE
  5
1E4
330
1B5
100
AcDbEntity
  8
M-PIPE
100
AcDbLine
 10
804.6148455245914
 20
1832.74587873002
 30
0.0
 11
803.5887850946144
 21
1832.74587873002
 31
0.0
1001
REVIT
1002
{
1070
     3
1000
923255
1002
}
  0
LINE
  5
1E5
330
1B5
100
AcDbEntity
  8
M-PIPE
100
AcDbLine
 10
803.5887850946158
 20
1779.745878730081
 30
0.0
 11
804.6148455245926
 21
1779.745878730081
 31
0.0
1001
REVIT
1002
{
1070
     3
1000
923255
1002
}
  0
LINE
  5
1E6
330
1B5
100
AcDbEntity
  8
M-PIPE
100
AcDbLine
 10
803.5887850946144
 20
1831.818099890725
 30
0.0
 11
800.9197958302753
 21
1831.818099890725
 31
0.0
1001
REVIT
1002
{
1070
     3
1000
923255
1002
}
  0
LINE
  5
1E7
330
1B5
100
AcDbEntity
  8
M-PIPE
100
AcDbLine
 10
800.9197958302767
 20
1780.673657569376
 30
0.0
 11
803.5887850946158
 21
1780.673657569377
 31
0.0
1001
REVIT
1002
{
1070
     3
1000
923255
1002
}
  0
LWPOLYLINE
  5
1E8
330
1B5
100
AcDbEntity
  8
M-PIPE
100
AcDbPolyline
 90
        6
 70
   128
 43
0.0
 10
798.6685919996806
 20
1829.663980833156
 10
796.5703372913794
 20
1829.432082206763
 10
794.5028222263413
 20
1829.11422833133
 10
792.475360684878
 20
1828.713891762597
 10
790.4967481787726
 20
1828.235402023971
 10
789.5331401291493
 20
1827.969795831254
1001
REVIT
1002
{
1070
     3
1000
923255
1002
}
  0
LWPOLYLINE
  5
1E9
330
1B5
100
AcDbEntity
  8
M-PIPE
100
AcDbPolyline
 90
        6
 70
   128
 43
0.0
 10
789.5331401291505
 20
1784.521961628847
 10
791.4843634259195
 20
1784.006448380369
 10
793.4885852400936
 20
1783.566638582508
 10
795.5373080321876
 20
1783.207260141812
 10
797.6214618849836
 20
1782.932220751451
 10
798.6685919996816
 20
1782.827776626945
1001
REVIT
1002
{
1070
     3
1000
923255
1002
}
  0
ELLIPSE
  5
1EA
330
1B5
100
AcDbEntity
  8
M-PIPE
100
AcDbEllipse
 10
804.6148455245905
 20
1806.24587873005
 30
0.0
 11
0.0
 21
26.49999999996908
 31
0.0
210
0.0
220
0.0
230
1.0
 40
0.9396926207859157
 41
4.712388980384685
 42
4.790928796724427
1001
REVIT
1002
{
1070
     3
1000
923255
1002
}
  0
ELLIPSE
  5
1EB
330
1B5
100
AcDbEntity
  8
M-PIPE
100
AcDbEllipse
 10
804.6148455245905
 20
1806.24587873005
 30
0.0
 11
0.0
 21
26.49999999996919
 31
0.0
210
0.0
220
0.0
230
1.0
 40
0.9396926207859142
 41
4.799675138059368
 42
4.869468613064167
1001
REVIT
1002
{
1070
     3
1000
923255
1002
}
  0
ELLIPSE
  5
1EC
330
1B5
100
AcDbEntity
  8
M-PIPE
100
AcDbEllipse
 10
804.6148455245905
 20
1806.24587873005
 30
0.0
 11
0.0
 21
26.499999999969
 31
0.0
210
0.0
220
0.0
230
1.0
 40
0.9396926207859209
 41
4.886997326392936
 42
5.026548245743662
1001
REVIT
1002
{
1070
     3
1000
923255
1002
}
  0
ELLIPSE
  5
1ED
330
1B5
100
AcDbEntity
  8
M-PIPE
100
AcDbEllipse
 10
804.6148455245905
 20
1806.24587873005
 30
0.0
 11
0.0
 21
26.49999999996901
 31
0.0
210
0.0
220
0.0
230
1.0
 40
0.9396926207859152
 41
5.061679632521412
 42
5.236288051672367
1001
REVIT
1002
{
1070
     3
1000
923255
1002
}
  0
ELLIPSE
  5
1EE
330
1B5
100
AcDbEntity
  8
M-PIPE
100
AcDbEllipse
 10
804.6148455245905
 20
1806.24587873005
 30
0.0
 11
0.0
 21
26.49999999996934
 31
0.0
210
0.0
220
0.0
230
1.0
 40
0.9396926207859101
 41
5.26216769476289
 42
5.323510104577345
1001
REVIT
1002
{
1070
     3
1000
923255
1002
}
  0
ELLIPSE
  5
1EF
330
1B5
100
AcDbEntity
  8
M-PIPE
100
AcDbEllipse
 10
804.6148455245905
 20
1806.24587873005
 30
0.0
 11
0.0
 21
26.49999999996932
 31
0.0
210
0.0
220
0.0
230
1.0
 40
0.9396926207859088
 41
5.340707511102634
 42
5.497787143782124
1001
REVIT
1002
{
1070
     3
1000
923255
1002
}
  0
ELLIPSE
  5
1F0
330
1B5
100
AcDbEntity
  8
M-PIPE
100
AcDbEllipse
 10
804.6148455245905
 20
1806.24587873005
 30
0.0
 11
0.0
 21
26.49999999996939
 31
0.0
210
0.0
220
0.0
230
1.0
 40
0.9396926207859067
 41
5.497932618434775
 42
5.576326960121875
1001
REVIT
1002
{
1070
     3
1000
923255
1002
}
  0
ELLIPSE
  5
1F1
330
1B5
100
AcDbEntity
  8
M-PIPE
100
AcDbEllipse
 10
804.6148455245905
 20
1806.24587873005
 30
0.0
 11
0.0
 21
26.49999999996921
 31
0.0
210
0.0
220
0.0
230
1.0
 40
0.9396926207859085
 41
5.584934006434176
 42
5.655401897687211
1001
REVIT
1002
{
1070
     3
1000
923255
1002
}
  0
ELLIPSE
  5
1F2
330
1B5
100
AcDbEntity
  8
M-PIPE
100
AcDbEllipse
 10
804.6148455245905
 20
1806.24587873005
 30
0.0
 11
0.0
 21
26.49999999996915
 31
0.0
210
0.0
220
0.0
230
1.0
 40
0.9396926207859104
 41
5.672064182987352
 42
5.733406592801365
1001
REVIT
1002
{
1070
     3
1000
923255
1002
}
  0
ELLIPSE
  5
1F3
330
1B5
100
AcDbEntity
  8
M-PIPE
100
AcDbEllipse
 10
804.6148455245905
 20
1806.24587873005
 30
0.0
 11
0.0
 21
26.49999999996909
 31
0.0
210
0.0
220
0.0
230
1.0
 40
0.9396926207859157
 41
5.759286235892323
 42
5.933894655043244
1001
REVIT
1002
{
1070
     3
1000
923255
1002
}
  0
ELLIPSE
  5
1F4
330
1B5
100
AcDbEntity
  8
M-PIPE
100
AcDbEllipse
 10
804.6148455245905
 20
1806.24587873005
 30
0.0
 11
0.0
 21
26.49999999996908
 31
0.0
210
0.0
220
0.0
230
1.0
 40
0.9396926207859202
 41
5.969026041820601
 42
6.021236214712838
1001
REVIT
1002
{
1070
     3
1000
923255
1002
}
  0
ELLIPSE
  5
1F5
330
1B5
100
AcDbEntity
  8
M-PIPE
100
AcDbEllipse
 10
804.6148455245905
 20
1806.24587873005
 30
0.0
 11
0.0
 21
26.4999999999694
 31
0.0
210
0.0
220
0.0
230
1.0
 40
0.9396926207859028
 41
6.047565858160345
 42
6.108576961171692
1001
REVIT
1002
{
1070
     3
1000
923255
1002
}
  0
ELLIPSE
  5
1F6
330
1B5
100
AcDbEntity
  8
M-PIPE
100
AcDbEllipse
 10
804.6148455245905
 20
1806.24587873005
 30
0.0
 11
0.0
 21
26.49999999996913
 31
0.0
210
0.0
220
0.0
230
1.0
 40
0.9396926207859143
 41
6.126105674500088
 42
6.195899149505265
1001
REVIT
1002
{
1070
     3
1000
923255
1002
}
  0
ELLIPSE
  5
1F7
330
1B5
100
AcDbEntity
  8
M-PIPE
100
AcDbEllipse
 10
804.6148455245905
 20
1806.24587873005
 30
0.0
 11
0.0
 21
26.499999999969
 31
0.0
210
0.0
220
0.0
230
1.0
 40
0.9396926207859204
 41
3.228878811264094
 42
3.298672286269271
1001
REVIT
1002
{
1070
     3
1000
923255
1002
}
  0
ELLIPSE
  5
1F8
330
1B5
100
AcDbEntity
  8
M-PIPE
100
AcDbEllipse
 10
804.6148455245905
 20
1806.24587873005
 30
0.0
 11
0.0
 21
26.49999999996927
 31
0.0
210
0.0
220
0.0
230
0.9999999999999998
 40
0.939692620785909
 41
3.316200999597665
 42
3.377212102609017
1001
REVIT
1002
{
1070
     3
1000
923255
1002
}
  0
ELLIPSE
  5
1F9
330
1B5
100
AcDbEntity
  8
M-PIPE
100
AcDbEllipse
 10
804.6148455245905
 20
1806.24587873005
 30
0.0
 11
0.0
 21
26.49999999996904
 31
0.0
210
0.0
220
0.0
230
0.9999999999999998
 40
0.9396926207859205
 41
3.403541746056526
 42
3.455751918948757
1001
REVIT
1002
{
1070
     3
1000
923255
1002
}
  0
ELLIPSE
  5
1FA
330
1B5
100
AcDbEntity
  8
M-PIPE
100
AcDbEllipse
 10
804.6148455245905
 20
1806.24587873005
 30
0.0
 11
0.0
 21
26.49999999996922
 31
0.0
210
0.0
220
0.0
230
1.0
 40
0.9396926207859095
 41
3.49088330572612
 42
3.665491724877028
1001
REVIT
1002
{
1070
     3
1000
923255
1002
}
  0
ELLIPSE
  5
1FB
330
1B5
100
AcDbEntity
  8
M-PIPE
100
AcDbEllipse
 10
804.6148455245905
 20
1806.24587873005
 30
0.0
 11
0.0
 21
26.49999999996914
 31
0.0
210
0.0
220
0.0
230
0.9999999999999998
 40
0.9396926207859205
 41
3.691371367967995
 42
3.752713777781995
1001
REVIT
1002
{
1070
     3
1000
923255
1002
}
  0
ELLIPSE
  5
1FC
330
1B5
100
AcDbEntity
  8
M-PIPE
100
AcDbEllipse
 10
804.6148455245905
 20
1806.24587873005
 30
0.0
 11
0.0
 21
26.49999999996921
 31
0.0
210
0.0
220
0.0
230
1.0
 40
0.9396926207859175
 41
3.769376063082148
 42
3.839843954335167
1001
REVIT
1002
{
1070
     3
1000
923255
1002
}
  0
ELLIPSE
  5
1FD
330
1B5
100
AcDbEntity
  8
M-PIPE
100
AcDbEllipse
 10
804.6148455245905
 20
1806.24587873005
 30
0.0
 11
0.0
 21
26.49999999996914
 31
0.0
210
0.0
220
0.0
230
1.0
 40
0.9396926207859154
 41
3.848451000647487
 42
3.926845342334564
1001
REVIT
1002
{
1070
     3
1000
923255
1002
}
  0
ELLIPSE
  5
1FE
330
1B5
100
AcDbEntity
  8
M-PIPE
100
AcDbEllipse
 10
804.6148455245905
 20
1806.24587873005
 30
0.0
 11
0.0
 21
26.4999999999691
 31
0.0
210
0.0
220
0.0
230
1.0
 40
0.9396926207859191
 41
3.926990816987224
 42
4.08407044966671
1001
REVIT
1002
{
1070
     3
1000
923255
1002
}
  0
ELLIPSE
  5
1FF
330
1B5
100
AcDbEntity
  8
M-PIPE
100
AcDbEllipse
 10
804.6148455245905
 20
1806.24587873005
 30
0.0
 11
0.0
 21
26.49999999996902
 31
0.0
210
0.0
220
0.0
230
0.9999999999999998
 40
0.9396926207859193
 41
4.101267856193788
 42
4.16261026600646
1001
REVIT
1002
{
1070
     3
1000
923255
1002
}
  0
ELLIPSE
  5
200
330
1B5
100
AcDbEntity
  8
M-PIPE
100
AcDbEllipse
 10
804.6148455245905
 20
1806.24587873005
 30
0.0
 11
0.0
 21
26.4999999999691
 31
0.0
210
0.0
220
0.0
230
1.0
 40
0.9396926207859188
 41
4.188489909098692
 42
4.363098328249519
1001
REVIT
1002
{
1070
     3
1000
923255
1002
}
  0
ELLIPSE
  5
201
330
1B5
100
AcDbEntity
  8
M-PIPE
100
AcDbEllipse
 10
804.6148455245905
 20
1806.24587873005
 30
0.0
 11
0.0
 21
26.49999999996914
 31
0.0
210
0.0
220
0.0
230
0.9999999999999998
 40
0.9396926207859163
 41
4.398229715025692
 42
4.537780634377924
1001
REVIT
1002
{
1070
     3
1000
923255
1002
}
  0
ELLIPSE
  5
202
330
1B5
100
AcDbEntity
  8
M-PIPE
100
AcDbEllipse
 10
804.6148455245905
 20
1806.24587873005
 30
0.0
 11
0.0
 21
26.49999999996909
 31
0.0
210
0.0
220
0.0
230
1.0
 40
0.9396926207859168
 41
4.555309347705184
 42
4.62510282271149
1001
REVIT
1002
{
1070
     3
1000
923255
1002
}
  0
ELLIPSE
  5
203
330
1B5
100
AcDbEntity
  8
M-PIPE
100
AcDbEllipse
 10
804.6148455245905
 20
1806.24587873005
 30
0.0
 11
0.0
 21
26.49999999996893
 31
0.0
210
0.0
220
0.0
230
0.9999999999999998
 40
0.9396926207859198
 41
4.633849164044933
 42
4.712388980384676
1001
REVIT
1002
{
1070
     3
1000
923255
1002
}
  0
ELLIPSE
  5
204
330
1B5
100
AcDbEntity
  8
M-PIPE
100
AcDbEllipse
 10
803.5887850946135
 20
1806.24587873005
 30
0.0
 11
0.0
 21
26.49999999996936
 31
0.0
210
0.0
220
0.0
230
1.0
 40
0.939692620785906
 41
4.712388980384685
 42
6.897665783060988
1001
REVIT
1002
{
1070
     3
1000
923255
1002
}
  0
ELLIPSE
  5
205
330
1B5
100
AcDbEntity
  8
M-PIPE
100
AcDbEllipse
 10
803.5887850946135
 20
1806.24587873005
 30
0.0
 11
0.0
 21
26.49999999996931
 31
0.0
210
0.0
220
0.0
230
1.0
 40
0.9396926207859078
 41
3.18507280602379
 42
4.712388980384685
1001
REVIT
1002
{
1070
     3
1000
923255
1002
}
  0
ELLIPSE
  5
206
330
1B5
100
AcDbEntity
  8
M-PIPE
100
AcDbEllipse
 10
803.5887850946135
 20
1806.24587873005
 30
0.0
 11
0.0
 21
26.49999999996931
 31
0.0
210
0.0
220
0.0
230
1.0
 40
0.9396926207859102
 41
2.527097051799298
 42
3.176499238629674
1001
REVIT
1002
{
1070
     3
1000
923255
1002
}
  0
LINE
  5
207
330
1B5
100
AcDbEntity
  8
M-PIPE
100
AcDbLine
 10
807.6806642553997
 20
1831.444627495786
 30
0.0
 11
822.049528832683
 21
1822.616349345952
 31
0.0
1001
REVIT
1002
{
1070
     3
1000
923255
1002
}
  0
LINE
  5
208
330
1B5
100
AcDbEntity
  8
M-PIPE
100
AcDbLine
 10
826.1414079934874
 20
1815.074156879826
 30
0.0
 11
826.1414079934869
 21
1797.417600580272
 31
0.0
1001
REVIT
1002
{
1070
     3
1000
923255
1002
}
  0
LINE
  5
209
330
1B5
100
AcDbEntity
  8
M-PIPE
100
AcDbLine
 10
822.0495288326313
 20
1789.875408114082
 30
0.0
 11
807.6806642554757
 21
1781.047129964328
 31
0.0
1001
REVIT
1002
{
1070
     3
1000
923255
1002
}
  0
ELLIPSE
  5
20A
330
1B5
100
AcDbEntity
  8
M-PIPE
100
AcDbEllipse
 10
803.5887850946135
 20
1806.24587873005
 30
0.0
 11
0.0000000000018356
 21
25.57222116067396
 31
0.0
210
0.0
220
0.0
230
1.0
 40
0.9396926207859202
 41
6.112069549434947
 42
6.283185307178918
1001
REVIT
1002
{
1070
     3
1000
923255
1002
}
  0
LINE
  5
20B
330
1B5
100
AcDbEntity
  8
M-PIPE
100
AcDbLine
 10
805.0116749910619
 20
1831.444627495786
 30
0.0
 11
807.6806642554009
 21
1831.444627495786
 31
0.0
1001
REVIT
1002
{
1070
     3
1000
923255
1002
}
  0
ELLIPSE
  5
20C
330
1B5
100
AcDbEntity
  8
M-PIPE
100
AcDbEllipse
 10
803.5887850946135
 20
1806.24587873005
 30
0.0
 11
0.0
 21
25.57222116067415
 31
0.0
210
0.0
220
0.0
230
1.0
 40
0.9396926207859129
 41
5.064871998235922
 42
5.407103513727644
1001
REVIT
1002
{
1070
     3
1000
923255
1002
}
  0
LINE
  5
20D
330
1B5
100
AcDbEntity
  8
M-PIPE
100
AcDbLine
 10
822.0495288326821
 20
1822.616349345953
 30
0.0
 11
819.3805395683432
 21
1822.616349345953
 31
0.0
1001
REVIT
1002
{
1070
     3
1000
923255
1002
}
  0
LINE
  5
20E
330
1B5
100
AcDbEntity
  8
M-PIPE
100
AcDbLine
 10
823.4724187291478
 20
1815.074156879828
 30
0.0
 11
826.1414079934867
 21
1815.074156879828
 31
0.0
1001
REVIT
1002
{
1070
     3
1000
923255
1002
}
  0
ELLIPSE
  5
20F
330
1B5
100
AcDbEntity
  8
M-PIPE
100
AcDbEllipse
 10
803.5887850946135
 20
1806.24587873005
 30
0.0
 11
0.0
 21
25.57222116067443
 31
0.0
210
0.0
220
0.0
230
1.0
 40
0.9396926207859074
 41
4.017674447038388
 42
4.359905962533386
1001
REVIT
1002
{
1070
     3
1000
923255
1002
}
  0
LINE
  5
210
330
1B5
100
AcDbEntity
  8
M-PIPE
100
AcDbLine
 10
826.1414079934864
 20
1797.417600580271
 30
0.0
 11
823.4724187291472
 21
1797.41760058027
 31
0.0
1001
REVIT
1002
{
1070
     3
1000
923255
1002
}
  0
LINE
  5
211
330
1B5
100
AcDbEntity
  8
M-PIPE
100
AcDbLine
 10
819.3805395682941
 20
1789.875408114084
 30
0.0
 11
822.0495288326331
 21
1789.875408114084
 31
0.0
1001
REVIT
1002
{
1070
     3
1000
923255
1002
}
  0
ELLIPSE
  5
212
330
1B5
100
AcDbEntity
  8
M-PIPE
100
AcDbEllipse
 10
803.5887850946135
 20
1806.24587873005
 30
0.0
 11
0.0
 21
25.57222116067423
 31
0.0
210
0.0
220
0.0
230
1.0
 40
0.9396926207859095
 41
3.141592653590469
 42
3.31270841133772
1001
REVIT
1002
{
1070
     3
1000
923255
1002
}
  0
LINE
  5
213
330
1B5
100
AcDbEntity
  8
M-PIPE
100
AcDbLine
 10
807.6806642554728
 20
1781.047129964327
 30
0.0
 11
805.0116749911337
 21
1781.047129964327
 31
0.0
1001
REVIT
1002
{
1070
     3
1000
923255
1002
}
  0
SPLINE
  5
214
330
1B5
100
AcDbEntity
  8
M-PIPE
100
AcDbSpline
210
0.0
220
0.0
230
1.0
 70
     8
 71
     3
 72
     9
 73
     5
 74
     0
 42
0.000000001
 43
0.0000000001
 40
-1.0
 40
-1.0
 40
-1.0
 40
-1.0
 40
-0.5
 40
0.0
 40
0.0
 40
0.0
 40
0.0
 10
823.1619594144678
 20
1806.24587873005
 30
0.0
 10
823.163735858492
 20
1807.731950266333
 30
0.0
 10
823.2172555216296
 20
1810.689401494245
 30
0.0
 10
823.3707087349458
 20
1813.61746903285
 30
0.0
 10
823.4724187291483
 20
1815.074156879826
 30
0.0
1001
REVIT
1002
{
1070
     3
1000
923255
1002
}
  0
ELLIPSE
  5
215
330
1B5
100
AcDbEntity
  8
M-PIPE
100
AcDbEllipse
 10
800.9197958302745
 20
1806.24587873005
 30
0.0
 11
0.0
 21
25.57222116067412
 31
0.0
210
0.0
220
0.0
230
1.0
 40
0.9396926207859134
 41
5.064871998235932
 42
5.407103513727654
1001
REVIT
1002
{
1070
     3
1000
923255
1002
}
  0
SPLINE
  5
216
330
1B5
100
AcDbEntity
  8
M-PIPE
100
AcDbSpline
210
0.0
220
0.0
230
1.0
 70
     8
 71
     3
 72
     9
 73
     5
 74
     0
 42
0.000000001
 43
0.0000000001
 40
-1.0
 40
-1.0
 40
-1.0
 40
-1.0
 40
-0.5
 40
0.0
 40
0.0
 40
0.0
 40
0.0
 10
819.3805395683437
 20
1822.616349345952
 30
0.0
 10
816.8135634730019
 20
1824.066350098364
 30
0.0
 10
811.8517766147794
 20
1826.987730542415
 30
0.0
 10
807.2343204214799
 20
1829.95186886492
 30
0.0
 10
805.0116749910607
 20
1831.444627495786
 30
0.0
1001
REVIT
1002
{
1070
     3
1000
923255
1002
}
  0
ELLIPSE
  5
217
330
1B5
100
AcDbEntity
  8
M-PIPE
100
AcDbEllipse
 10
800.9197958302745
 20
1806.24587873005
 30
0.0
 11
0.0
 21
25.57222116067415
 31
0.0
210
0.0
220
0.0
230
1.0
 40
0.9396926207859072
 41
6.112069549434865
 42
6.454301064922848
1001
REVIT
1002
{
1070
     3
1000
923255
1002
}
  0
SPLINE
  5
218
330
1B5
100
AcDbEntity
  8
M-PIPE
100
AcDbSpline
210
0.0
220
0.0
230
1.0
 70
     8
 71
     3
 72
     8
 73
     4
 74
     0
 42
0.000000001
 43
0.0000000001
 40
-1.0
 40
-1.0
 40
-1.0
 40
-1.0
 40
-0.6784763839784152
 40
-0.6784763839784152
 40
-0.6784763839784152
 40
-0.6784763839784152
 10
796.8279166695229
 20
1831.444627495792
 30
0.0
 10
795.1772297966856
 20
1830.51220852549
 30
0.0
 10
793.5621389450071
 20
1829.575369355359
 30
0.0
 10
791.9826441144877
 20
1828.634109985399
 30
0.0
1001
REVIT
1002
{
1070
     3
1000
923255
1002
}
  0
SPLINE
  5
219
330
1B5
100
AcDbEntity
  8
M-PIPE
100
AcDbSpline
210
0.0
220
0.0
230
1.0
 70
     8
 71
     3
 72
     8
 73
     4
 74
     0
 42
0.000000001
 43
0.0000000001
 40
-0.3248984106245183
 40
-0.3248984106245183
 40
-0.3248984106245183
 40
-0.3248984106245183
 40
0.0
 40
0.0
 40
0.0
 40
0.0
 10
791.8413332173891
 20
1783.94355897024
 30
0.0
 10
793.4524882771333
 20
1782.982596112852
 30
0.0
 10
795.1146827611517
 20
1782.017119777546
 30
0.0
 10
796.8279166694443
 20
1781.047129964322
 30
0.0
1001
REVIT
1002
{
1070
     3
1000
923255
1002
}
  0
ELLIPSE
  5
21A
330
1B5
100
AcDbEntity
  8
M-PIPE
100
AcDbEllipse
 10
800.9197958302745
 20
1806.24587873005
 30
0.0
 11
0.0
 21
25.57222116067392
 31
0.0
210
0.0
220
0.0
230
1.0
 40
0.9396926207859193
 41
2.970476895843221
 42
3.31270841133771
1001
REVIT
1002
{
1070
     3
1000
923255
1002
}
  0
SPLINE
  5
21B
330
1B5
100
AcDbEntity
  8
M-PIPE
100
AcDbSpline
210
0.0
220
0.0
230
1.0
 70
     8
 71
     3
 72
     9
 73
     5
 74
     0
 42
0.000000001
 43
0.0000000001
 40
-1.0
 40
-1.0
 40
-1.0
 40
-1.0
 40
-0.5
 40
0.0
 40
0.0
 40
0.0
 40
0.0
 10
805.0116749911364
 20
1781.047129964328
 30
0.0
 10
807.1647278968479
 20
1782.497130716727
 30
0.0
 10
811.7125915654188
 20
1785.418511160752
 30
0.0
 10
816.7439709482852
 20
1788.38264948323
 30
0.0
 10
819.3805395682925
 20
1789.875408114082
 30
0.0
1001
REVIT
1002
{
1070
     3
1000
923255
1002
}
  0
ELLIPSE
  5
21C
330
1B5
100
AcDbEntity
  8
M-PIPE
100
AcDbEllipse
 10
800.9197958302745
 20
1806.24587873005
 30
0.0
 11
0.0
 21
25.572221160674
 31
0.0
210
0.0
220
0.0
230
1.0
 40
0.9396926207859209
 41
4.017674447038404
 42
4.35990596253338
1001
REVIT
1002
{
1070
     3
1000
923255
1002
}
  0
SPLINE
  5
21D
330
1B5
100
AcDbEntity
  8
M-PIPE
100
AcDbSpline
210
0.0
220
0.0
230
1.0
 70
     8
 71
     3
 72
     9
 73
     5
 74
     0
 42
0.000000001
 43
0.0000000001
 40
-1.0
 40
-1.0
 40
-1.0
 40
-1.0
 40
-0.5
 40
0.0
 40
0.0
 40
0.0
 40
0.0
 10
823.4724187291478
 20
1797.417600580272
 30
0.0
 10
823.3707087349452
 20
1798.874288427248
 30
0.0
 10
823.2172555216292
 20
1801.802355965854
 30
0.0
 10
823.1637358584919
 20
1804.759807193766
 30
0.0
 10
823.1619594144678
 20
1806.24587873005
 30
0.0
1001
REVIT
1002
{
1070
     3
1000
923255
1002
}
  0
ELLIPSE
  5
21E
330
1B5
100
AcDbEntity
  8
M-PIPE
100
AcDbEllipse
 10
800.5106038046836
 20
1806.24587873005
 30
0.0
 11
0.0
 21
23.50000000000007
 31
0.0
210
0.0
220
0.0
230
1.0
 40
0.9396926207859131
 41
4.712388980384695
 42
6.44026493985908
1001
REVIT
1002
{
1070
     3
1000
923255
1002
}
  0
ELLIPSE
  5
21F
330
1B5
100
AcDbEntity
  8
M-PIPE
100
AcDbEllipse
 10
800.5106038046836
 20
1806.24587873005
 30
0.0
 11
0.0
 21
23.5
 31
0.0
210
0.0
220
0.0
230
1.0
 40
0.9396926207859131
 41
3.058081660346864
 42
4.712388980384685
1001
REVIT
1002
{
1070
     3
1000
923255
1002
}
  0
ELLIPSE
  5
220
330
1B5
100
AcDbEntity
  8
M-PIPE
100
AcDbEllipse
 10
795.0382815114733
 20
1806.24587873005
 30
0.0
 11
0.0
 21
22.50000000000045
 31
0.0
210
0.0
220
0.0
230
1.0
 40
0.9396926207859017
 41
4.712388980384695
 42
6.518804756198823
1001
REVIT
1002
{
1070
     3
1000
923255
1002
}
  0
ELLIPSE
  5
221
330
1B5
100
AcDbEntity
  8
M-PIPE
100
AcDbEllipse
 10
795.0382815114733
 20
1806.24587873005
 30
0.0
 11
0.0
 21
22.50000000000046
 31
0.0
210
0.0
220
0.0
230
1.0
 40
0.9396926207859058
 41
2.905973204570551
 42
4.712388980384685
1001
REVIT
1002
{
1070
     3
1000
923255
1002
}
  0
LWPOLYLINE
  5
222
330
1B5
100
AcDbEntity
  8
P-SANR-FIXT
100
AcDbPolyline
 90
       11
 70
   128
 43
0.0
 10
769.0109862603192
 20
1812.478612180967
 10
768.7884270423067
 20
1811.811681559181
 10
768.5913346451706
 20
1811.13659004378
 10
768.4199431165043
 20
1810.454345860702
 10
768.2744544094982
 20
1809.765960557157
 10
768.1550388136167
 20
1809.072448428751
 10
768.0618353215208
 20
1808.374825994206
 10
767.9949519308472
 20
1807.674111508627
 10
767.9544658799694
 20
1806.971324506834
 10
767.9404238172359
 20
1806.267485368832
 10
767.9404113548256
 20
1806.24587873007
  0
LWPOLYLINE
  5
223
330
1B5
100
AcDbEntity
  8
P-SANR-FIXT
100
AcDbPolyline
 90
        8
 70
   128
 43
0.0
 10
774.9866343176231
 20
1820.72146703549
 10
774.4386591117831
 20
1820.286736722692
 10
773.9085857052524
 20
1819.830006054649
 10
773.3971942918251
 20
1819.352106459861
 10
772.9052240201647
 20
1818.853893555893
 10
772.4333732374491
 20
1818.336244684796
 10
771.9822998858184
 20
1817.800056617908
 10
771.7912946599616
 20
1817.559424275906
  0
LWPOLYLINE
  5
224
330
1B5
100
AcDbEntity
  8
P-SANR-FIXT
100
AcDbPolyline
 90
        8
 70
   128
 43
0.0
 10
771.7919523396586
 20
1794.931489786614
 10
772.2337539576819
 20
1794.387489786923
 10
772.6966078420576
 20
1793.86163172862
 10
773.1798735426082
 20
1793.354820193667
 10
773.6828704175175
 20
1792.86794128285
 10
774.2048771796583
 20
1792.401860396188
 10
774.7451315824213
 20
1791.95741984152
 10
774.9866343176229
 20
1791.770290424651
  0
LWPOLYLINE
  5
225
330
1B5
100
AcDbEntity
  8
P-SANR-FIXT
100
AcDbPolyline
 90
       11
 70
   128
 43
0.0
 10
767.9404113548256
 20
1806.24587873007
 10
767.9536414364529
 20
1805.542023445828
 10
767.993316455327
 20
1804.839188973336
 10
768.0593906999502
 20
1804.138395711842
 10
768.151787872937
 20
1803.440663228477
 10
768.2704009238257
 20
1802.747009824278
 10
768.4150918153489
 20
1802.058452078323
 10
768.5856912236747
 20
1801.37600436204
 10
768.7819981734612
 20
1800.700678315242
 10
769.0037796091111
 20
1800.033482274852
 10
769.0114152318998
 20
1800.011937111928
  0
LWPOLYLINE
  5
226
330
1B5
100
AcDbEntity
  8
P-SANR-FIXT
100
AcDbPolyline
 90
        5
 70
   128
 43
0.0
 10
782.5757487938736
 20
1825.353167097469
 10
780.7976256591448
 20
1824.444484752278
 10
779.1239883991083
 20
1823.499789184295
 10
777.5575914369526
 20
1822.528317673819
 10
776.3500183781901
 20
1821.708865292442
  0
LINE
  5
227
330
1B5
100
AcDbEntity
  8
P-SANR-FIXT
100
AcDbLine
 10
776.1000481657053
 20
1821.539236892398
 30
0.0
 11
774.9866343176225
 21
1820.721467035489
 31
0.0
  0
LINE
  5
228
330
1B5
100
AcDbEntity
  8
P-SANR-FIXT
100
AcDbLine
 10
774.9866343176226
 20
1791.770290424652
 30
0.0
 11
776.0552703488514
 21
1790.991536391262
 31
0.0
  0
LWPOLYLINE
  5
229
330
1B5
100
AcDbEntity
  8
P-SANR-FIXT
100
AcDbPolyline
 90
        5
 70
   128
 43
0.0
 10
776.3545056405515
 20
1790.773472725491
 10
777.8317245105824
 20
1789.786894256576
 10
779.4175894825739
 20
1788.819564926579
 10
781.1102835539172
 20
1787.880674088226
 10
782.5757487938739
 20
1787.138590362672
  0
ELLIPSE
  5
22A
330
1B5
100
AcDbEntity
  8
P-SANR-FIXT
100
AcDbEllipse
 10
790.7630297199155
 20
1806.24587873007
 30
0.0
 11
0.0
 21
20.9999999999984
 31
0.0
210
0.0
220
0.0
230
1.0
 40
0.9396926207859095
 41
0.3364630152287886
 42
0.4278235980212726
  0
ELLIPSE
  5
22B
330
1B5
100
AcDbEntity
  8
P-SANR-FIXT
100
AcDbEllipse
 10
790.7630297199155
 20
1806.24587873007
 30
0.0
 11
0.0
 21
20.99999999999841
 31
0.0
210
0.0
220
0.0
230
1.0
 40
0.9396926207859088
 41
0.2910261473138051
 42
0.3246049266106381
  0
ELLIPSE
  5
22C
330
1B5
100
AcDbEntity
  8
P-SANR-FIXT
100
AcDbEllipse
 10
790.7630297199155
 20
1806.24587873007
 30
0.0
 11
0.0
 21
20.9999999999986
 31
0.0
210
0.0
220
0.0
230
1.0
 40
0.9396926207858996
 41
6.02291573666924
 42
6.546704398184005
  0
ELLIPSE
  5
22D
330
1B5
100
AcDbEntity
  8
P-SANR-FIXT
100
AcDbEllipse
 10
790.7630297199155
 20
1806.24587873007
 30
0.0
 11
0.0
 21
20.99999999999849
 31
0.0
210
0.0
220
0.0
230
1.0
 40
0.939692620785914
 41
5.969026041820597
 42
5.988930595375969
  0
ELLIPSE
  5
22E
330
1B5
100
AcDbEntity
  8
P-SANR-FIXT
100
AcDbEllipse
 10
790.7630297199155
 20
1806.24587873007
 30
0.0
 11
0.0
 21
20.99999999999825
 31
0.0
210
0.0
220
0.0
230
1.0
 40
0.9396926207859204
 41
5.890486225480848
 42
5.949600968510591
  0
ELLIPSE
  5
22F
330
1B5
100
AcDbEntity
  8
P-SANR-FIXT
100
AcDbEllipse
 10
790.7630297199155
 20
1806.24587873007
 30
0.0
 11
0.0
 21
20.99999999999858
 31
0.0
210
0.0
220
0.0
230
0.9999999999999998
 40
0.9396926207859118
 41
5.811946409141103
 42
5.876490573381914
  0
ELLIPSE
  5
230
330
1B5
100
AcDbEntity
  8
P-SANR-FIXT
100
AcDbEllipse
 10
790.7630297199155
 20
1806.24587873007
 30
0.0
 11
0.0
 21
20.99999999999837
 31
0.0
210
0.0
220
0.0
230
1.0
 40
0.9396926207859202
 41
5.733406592801363
 42
5.803596204474268
  0
ELLIPSE
  5
231
330
1B5
100
AcDbEntity
  8
P-SANR-FIXT
100
AcDbEllipse
 10
790.7630297199155
 20
1806.24587873007
 30
0.0
 11
0.0
 21
20.9999999999984
 31
0.0
210
0.0
220
0.0
230
1.0
 40
0.939692620785912
 41
5.658318413547792
 42
5.730933039402567
  0
ELLIPSE
  5
232
330
1B5
100
AcDbEntity
  8
P-SANR-FIXT
100
AcDbEllipse
 10
790.7630297199155
 20
1806.24587873007
 30
0.0
 11
0.0
 21
20.99999999999843
 31
0.0
210
0.0
220
0.0
230
1.0
 40
0.9396926207859136
 41
5.585735060149438
 42
5.654866776461614
  0
ELLIPSE
  5
233
330
1B5
100
AcDbEntity
  8
P-SANR-FIXT
100
AcDbEllipse
 10
790.7630297199155
 20
1806.24587873007
 30
0.0
 11
0.0
 21
20.99999999999856
 31
0.0
210
0.0
220
0.0
230
0.9999999999999998
 40
0.9396926207859072
 41
5.513513487344518
 42
5.576326960121868
  0
ELLIPSE
  5
234
330
1B5
100
AcDbEntity
  8
P-SANR-FIXT
100
AcDbEllipse
 10
790.7630297199155
 20
1806.24587873007
 30
0.0
 11
0.0
 21
20.99999999999856
 31
0.0
210
0.0
220
0.0
230
1.0
 40
0.9396926207859086
 41
5.442990396459192
 42
5.497787143782125
  0
ELLIPSE
  5
235
330
1B5
100
AcDbEntity
  8
P-SANR-FIXT
100
AcDbEllipse
 10
790.7630297199155
 20
1806.24587873007
 30
0.0
 11
0.0
 21
20.99999999999856
 31
0.0
210
0.0
220
0.0
230
0.9999999999999998
 40
0.9396926207859126
 41
5.371568696827893
 42
5.432867560312609
  0
ELLIPSE
  5
236
330
1B5
100
AcDbEntity
  8
P-SANR-FIXT
100
AcDbEllipse
 10
790.7630297199155
 20
1806.24587873007
 30
0.0
 11
0.0
 21
20.99999999999866
 31
0.0
210
0.0
220
0.0
230
1.0
 40
0.939692620785901
 41
5.300021733768035
 42
5.340707511102634
  0
ELLIPSE
  5
237
330
1B5
100
AcDbEntity
  8
P-SANR-FIXT
100
AcDbEllipse
 10
790.7630297199155
 20
1806.24587873007
 30
0.0
 11
0.0
 21
20.99999999999855
 31
0.0
210
0.0
220
0.0
230
1.0
 40
0.9396926207859127
 41
5.243388821787956
 42
5.262167694762887
  0
ELLIPSE
  5
238
330
1B5
100
AcDbEntity
  8
P-SANR-FIXT
100
AcDbEllipse
 10
790.7630297199155
 20
1806.24587873007
 30
0.0
 11
0.0
 21
20.99999999999864
 31
0.0
210
0.0
220
0.0
230
1.0
 40
0.939692620785904
 41
5.155596842441371
 42
5.22811101170202
  0
ELLIPSE
  5
239
330
1B5
100
AcDbEntity
  8
P-SANR-FIXT
100
AcDbEllipse
 10
790.7630297199155
 20
1806.24587873007
 30
0.0
 11
0.0
 21
20.99999999999869
 31
0.0
210
0.0
220
0.0
230
1.0
 40
0.9396926207858966
 41
5.082534422736322
 42
5.105088062083397
  0
ELLIPSE
  5
23A
330
1B5
100
AcDbEntity
  8
P-SANR-FIXT
100
AcDbEllipse
 10
790.7630297199155
 20
1806.24587873007
 30
0.0
 11
0.0
 21
20.99999999999867
 31
0.0
210
0.0
220
0.0
230
0.9999999999999998
 40
0.9396926207859038
 41
5.026548245743649
 42
5.057857554090547
  0
ELLIPSE
  5
23B
330
1B5
100
AcDbEntity
  8
P-SANR-FIXT
100
AcDbEllipse
 10
790.7630297199155
 20
1806.24587873007
 30
0.0
 11
0.0
 21
20.99999999999868
 31
0.0
210
0.0
220
0.0
230
1.0
 40
0.9396926207858992
 41
4.948008429403898
 42
5.009144482585766
  0
ELLIPSE
  5
23C
330
1B5
100
AcDbEntity
  8
P-SANR-FIXT
100
AcDbEllipse
 10
790.7630297199155
 20
1806.24587873007
 30
0.0
 11
0.0
 21
20.99999999999867
 31
0.0
210
0.0
220
0.0
230
0.9999999999999998
 40
0.9396926207859081
 41
4.869468613064166
 42
4.935432053395397
  0
ELLIPSE
  5
23D
330
1B5
100
AcDbEntity
  8
P-SANR-FIXT
100
AcDbEllipse
 10
790.7630297199155
 20
1806.24587873007
 30
0.0
 11
0.0
 21
20.99999999999855
 31
0.0
210
0.0
220
0.0
230
1.0
 40
0.9396926207859086
 41
4.790928796724417
 42
4.861400620341765
  0
ELLIPSE
  5
23E
330
1B5
100
AcDbEntity
  8
P-SANR-FIXT
100
AcDbEllipse
 10
790.7630297199155
 20
1806.24587873007
 30
0.0
 11
0.0
 21
20.99999999999861
 31
0.0
210
0.0
220
0.0
230
1.0
 40
0.9396926207859038
 41
4.712388980384673
 42
4.787052476391318
  0
ELLIPSE
  5
23F
330
1B5
100
AcDbEntity
  8
P-SANR-FIXT
100
AcDbEllipse
 10
790.7630297199155
 20
1806.24587873007
 30
0.0
 11
0.0
 21
20.99999999999841
 31
0.0
210
0.0
220
0.0
230
1.0
 40
0.9396926207859156
 41
4.637889715242765
 42
4.712388980384673
  0
ELLIPSE
  5
240
330
1B5
100
AcDbEntity
  8
P-SANR-FIXT
100
AcDbEllipse
 10
790.7630297199155
 20
1806.24587873007
 30
0.0
 11
0.0
 21
20.99999999999846
 31
0.0
210
0.0
220
0.0
230
1.0
 40
0.9396926207859063
 41
4.563657602667738
 42
4.633849164044931
  0
ELLIPSE
  5
241
330
1B5
100
AcDbEntity
  8
P-SANR-FIXT
100
AcDbEllipse
 10
790.7630297199155
 20
1806.24587873007
 30
0.0
 11
0.0
 21
20.99999999999853
 31
0.0
210
0.0
220
0.0
230
1.0
 40
0.9396926207859118
 41
4.489694549658283
 42
4.555309347705192
  0
ELLIPSE
  5
242
330
1B5
100
AcDbEntity
  8
P-SANR-FIXT
100
AcDbEllipse
 10
790.7630297199155
 20
1806.24587873007
 30
0.0
 11
0.0
 21
20.99999999999866
 31
0.0
210
0.0
220
0.0
230
1.0
 40
0.9396926207859007
 41
4.416003225794743
 42
4.476769531365438
  0
ELLIPSE
  5
243
330
1B5
100
AcDbEntity
  8
P-SANR-FIXT
100
AcDbEllipse
 10
790.7630297199155
 20
1806.24587873007
 30
0.0
 11
0.0
 21
20.99999999999866
 31
0.0
210
0.0
220
0.0
230
1.0
 40
0.9396926207859054
 41
4.342587296331466
 42
4.398229715025689
  0
ELLIPSE
  5
244
330
1B5
100
AcDbEntity
  8
P-SANR-FIXT
100
AcDbEllipse
 10
790.7630297199155
 20
1806.24587873007
 30
0.0
 11
0.0
 21
20.99999999999865
 31
0.0
210
0.0
220
0.0
230
1.0
 40
0.9396926207859072
 41
4.196766903058557
 42
4.269451736678646
  0
ELLIPSE
  5
245
330
1B5
100
AcDbEntity
  8
P-SANR-FIXT
100
AcDbEllipse
 10
790.7630297199155
 20
1806.24587873007
 30
0.0
 11
0.0
 21
20.99999999999889
 31
0.0
210
0.0
220
0.0
230
1.0
 40
0.9396926207858953
 41
4.162610266006463
 42
4.188070848546441
  0
ELLIPSE
  5
246
330
1B5
100
AcDbEntity
  8
P-SANR-FIXT
100
AcDbEllipse
 10
790.7630297199155
 20
1806.24587873007
 30
0.0
 11
0.0
 21
20.99999999999882
 31
0.0
210
0.0
220
0.0
230
1.0
 40
0.9396926207858919
 41
4.084070449666727
 42
4.124576565710234
  0
ELLIPSE
  5
247
330
1B5
100
AcDbEntity
  8
P-SANR-FIXT
100
AcDbEllipse
 10
790.7630297199155
 20
1806.24587873007
 30
0.0
 11
0.0
 21
20.99999999999863
 31
0.0
210
0.0
220
0.0
230
1.0
 40
0.9396926207859046
 41
3.92699081698723
 42
4.052699000396962
  0
ELLIPSE
  5
248
330
1B5
100
AcDbEntity
  8
P-SANR-FIXT
100
AcDbEllipse
 10
790.7630297199155
 20
1806.24587873007
 30
0.0
 11
0.0
 21
20.99999999999897
 31
0.0
210
0.0
220
0.0
230
1.0
 40
0.9396926207858873
 41
3.848451000647489
 42
3.910223149481123
  0
ELLIPSE
  5
249
330
1B5
100
AcDbEntity
  8
P-SANR-FIXT
100
AcDbEllipse
 10
790.7630297199155
 20
1806.24587873007
 30
0.0
 11
0.0
 21
20.99999999999884
 31
0.0
210
0.0
220
0.0
230
1.0
 40
0.9396926207858935
 41
3.769911184307743
 42
3.837897260844146
  0
ELLIPSE
  5
24A
330
1B5
100
AcDbEntity
  8
P-SANR-FIXT
100
AcDbEllipse
 10
790.7630297199155
 20
1806.24587873007
 30
0.0
 11
0.0
 21
20.99999999999907
 31
0.0
210
0.0
220
0.0
230
1.0
 40
0.9396926207858859
 41
3.692746025872722
 42
3.765328223406635
  0
ELLIPSE
  5
24B
330
1B5
100
AcDbEntity
  8
P-SANR-FIXT
100
AcDbEllipse
 10
790.7630297199155
 20
1806.24587873007
 30
0.0
 11
0.0
 21
20.99999999999891
 31
0.0
210
0.0
220
0.0
230
1.0
 40
0.9396926207858921
 41
3.620252362983626
 42
3.691371367968002
  0
ELLIPSE
  5
24C
330
1B5
100
AcDbEntity
  8
P-SANR-FIXT
100
AcDbEllipse
 10
790.7630297199155
 20
1806.24587873007
 30
0.0
 11
0.0
 21
20.99999999999872
 31
0.0
210
0.0
220
0.0
230
1.0
 40
0.9396926207858962
 41
3.547597638304005
 42
3.612831551628257
  0
ELLIPSE
  5
24D
330
1B5
100
AcDbEntity
  8
P-SANR-FIXT
100
AcDbEllipse
 10
790.7630297199155
 20
1806.24587873007
 30
0.0
 11
0.0
 21
20.99999999999866
 31
0.0
210
0.0
220
0.0
230
1.0
 40
0.9396926207858985
 41
3.435847365393401
 42
3.455751918948768
  0
ELLIPSE
  5
24E
330
1B5
100
AcDbEntity
  8
P-SANR-FIXT
100
AcDbEllipse
 10
790.7630297199155
 20
1806.24587873007
 30
0.0
 11
0.0
 21
20.99999999999892
 31
0.0
210
0.0
220
0.0
230
1.0
 40
0.9396926207858934
 41
2.878073562586342
 42
3.401862224100148
  0
ELLIPSE
  5
24F
330
1B5
100
AcDbEntity
  8
P-SANR-FIXT
100
AcDbEllipse
 10
790.7630297199155
 20
1806.24587873007
 30
0.0
 11
0.0
 21
20.99999999999838
 31
0.0
210
0.0
220
0.0
230
0.9999999999999998
 40
0.9396926207859147
 41
2.816758458365302
 42
2.850566506275989
  0
ELLIPSE
  5
250
330
1B5
100
AcDbEntity
  8
P-SANR-FIXT
100
AcDbEllipse
 10
790.7630297199155
 20
1806.24587873007
 30
0.0
 11
0.0
 21
20.99999999999825
 31
0.0
210
0.0
220
0.0
230
1.0
 40
0.93969262078592
 41
2.736155182588552
 42
2.804726745590928
  0
ELLIPSE
  5
251
330
1B5
100
AcDbEntity
  8
P-SANR-FIXT
100
AcDbEllipse
 10
790.7630297199155
 20
1806.24587873007
 30
0.0
 11
0.0
 21
20.99999999999816
 31
0.0
210
0.0
220
0.0
230
1.0
 40
0.9396926207859293
 41
2.713769055568509
 42
2.731945365120557
  0
SPLINE
  5
252
330
1B5
100
AcDbEntity
  8
P-SANR-FIXT
100
AcDbSpline
210
0.0
220
0.0
230
1.0
 70
     8
 71
     3
 72
    23
 73
    19
 74
     0
 42
0.000000001
 43
0.0000000001
 40
-1.0
 40
-1.0
 40
-1.0
 40
-1.0
 40
-0.9166666666666666
 40
-0.875
 40
-0.8333333333333332
 40
-0.75
 40
-0.7083333333333333
 40
-0.6666666666666666
 40
-0.5833333333333333
 40
-0.5
 40
-0.4166666666666666
 40
-0.3333333333333333
 40
-0.2916666666666666
 40
-0.25
 40
-0.1666666666666666
 40
-0.125
 40
-0.0833333333333333
 40
0.0
 40
0.0
 40
0.0
 40
0.0
 10
800.4254222051541
 20
1812.323715482371
 30
0.0
 10
800.2797393573658
 20
1812.372374813743
 30
0.0
 10
800.051549868311
 20
1812.461483248235
 30
0.0
 10
799.7308865259943
 20
1812.619012873927
 30
0.0
 10
799.4041127093077
 20
1812.802104370037
 30
0.0
 10
799.0534105222106
 20
1813.041914259698
 30
0.0
 10
798.7093375891564
 20
1813.32959836108
 30
0.0
 10
798.3890711489415
 20
1813.632451673216
 30
0.0
 10
798.0170061357388
 20
1814.064108298919
 30
0.0
 10
797.6499693832908
 20
1814.636432639964
 30
0.0
 10
797.3739485103179
 20
1815.249641459383
 30
0.0
 10
797.2321160402953
 20
1815.769293622384
 30
0.0
 10
797.1776052914839
 20
1816.159987806193
 30
0.0
 10
797.1550378151087
 20
1816.551024022571
 30
0.0
 10
797.1841661428443
 20
1816.905313239593
 30
0.0
 10
797.2546196101393
 20
1817.193310680181
 30
0.0
 10
797.3486640034571
 20
1817.450713473478
 30
0.0
 10
797.4428927076757
 20
1817.604651891941
 30
0.0
 10
797.5140249369811
 20
1817.69003195432
 30
0.0
  0
SPLINE
  5
253
330
1B5
100
AcDbEntity
  8
P-SANR-FIXT
100
AcDbSpline
210
0.0
220
0.0
230
1.0
 70
     8
 71
     3
 72
    23
 73
    19
 74
     0
 42
0.000000001
 43
0.0000000001
 40
-1.0
 40
-1.0
 40
-1.0
 40
-1.0
 40
-0.9166666666666666
 40
-0.875
 40
-0.8333333333333332
 40
-0.75
 40
-0.7083333333333333
 40
-0.6666666666666666
 40
-0.5833333333333333
 40
-0.5
 40
-0.4166666666666666
 40
-0.3333333333333333
 40
-0.2916666666666666
 40
-0.25
 40
-0.1666666666666666
 40
-0.125
 40
-0.0833333333333333
 40
0.0
 40
0.0
 40
0.0
 40
0.0
 10
787.6217660236964
 20
1823.767868706622
 30
0.0
 10
787.4707265840121
 20
1823.729082698838
 30
0.0
 10
787.2307555196461
 20
1823.661690181424
 30
0.0
 10
786.8800929467824
 20
1823.559455436576
 30
0.0
 10
786.511752919273
 20
1823.452979194678
 30
0.0
 10
786.0935340051772
 20
1823.337616809377
 30
0.0
 10
785.64916809344
 20
1823.234793726246
 30
0.0
 10
785.2116035971261
 20
1823.148145360599
 30
0.0
 10
784.6491190362668
 20
1823.067471943659
 30
0.0
 10
783.9899184061079
 20
1823.033666974948
 30
0.0
 10
783.363047538577
 20
1823.067148363548
 30
0.0
 10
782.8945899861897
 20
1823.149534808884
 30
0.0
 10
782.5806847271666
 20
1823.236959172516
 30
0.0
 10
782.2898376501029
 20
1823.340418590932
 30
0.0
 10
782.0640744843919
 20
1823.455947915953
 30
0.0
 10
781.9206738312756
 20
1823.562128522278
 30
0.0
 10
781.8199958061005
 20
1823.663640032171
 30
0.0
 10
781.7947063146663
 20
1823.729998743557
 30
0.0
 10
781.7989714873505
 20
1823.767868706621
 30
0.0
  0
SPLINE
  5
254
330
1B5
100
AcDbEntity
  8
P-SANR-FIXT
100
AcDbSpline
210
0.0
220
0.0
230
1.0
 70
     8
 71
     3
 72
    23
 73
    19
 74
     0
 42
0.000000001
 43
0.0000000001
 40
-0.96026211858905
 40
-0.96026211858905
 40
-0.96026211858905
 40
-0.96026211858905
 40
-0.9166666666666666
 40
-0.875
 40
-0.8333333333333332
 40
-0.75
 40
-0.7083333333333333
 40
-0.6666666666666666
 40
-0.5833333333333333
 40
-0.5
 40
-0.4166666666666666
 40
-0.3333333333333333
 40
-0.2916666666666666
 40
-0.25
 40
-0.1666666666666666
 40
-0.125
 40
-0.0833333333333333
 40
-0.07674343518303
 40
-0.07674343518303
 40
-0.07674343518303
 40
-0.07674343518303
 10
771.7907864542702
 20
1817.55339933148
 30
0.0
 10
771.749096682699
 20
1817.499209410561
 30
0.0
 10
771.6688745582188
 20
1817.384150748723
 30
0.0
 10
771.5513893668968
 20
1817.18632129281
 30
0.0
 10
771.3979157868807
 20
1816.896753554228
 30
0.0
 10
771.2349768884872
 20
1816.541581282763
 30
0.0
 10
771.0582583162
 20
1816.15107409008
 30
0.0
 10
770.8790204047589
 20
1815.761572445373
 30
0.0
 10
770.6382586827103
 20
1815.2492421493
 30
0.0
 10
770.3262443471101
 20
1814.643113888485
 30
0.0
 10
769.9957233609483
 20
1814.063382566017
 30
0.0
 10
769.7198176236541
 20
1813.6261289464
 30
0.0
 10
769.5229776021589
 20
1813.322834456342
 30
0.0
 10
769.3321739039673
 20
1813.035358108905
 30
0.0
 10
769.1723239029579
 20
1812.795982293311
 30
0.0
 10
769.0721627976761
 20
1812.615604817506
 30
0.0
 10
769.0289461410389
 20
1812.528351647221
 30
0.0
 10
769.018768432376
 20
1812.490543784536
 30
0.0
 10
769.0175812220028
 20
1812.48552132798
 30
0.0
  0
SPLINE
  5
255
330
1B5
100
AcDbEntity
  8
P-SANR-FIXT
100
AcDbSpline
210
0.0
220
0.0
230
1.0
 70
     8
 71
     3
 72
    23
 73
    19
 74
     0
 42
0.000000001
 43
0.0000000001
 40
-0.9240652237341562
 40
-0.9240652237341562
 40
-0.9240652237341562
 40
-0.9240652237341562
 40
-0.9166666666666666
 40
-0.875
 40
-0.8333333333333332
 40
-0.75
 40
-0.7083333333333333
 40
-0.6666666666666666
 40
-0.5833333333333333
 40
-0.5
 40
-0.4166666666666666
 40
-0.3333333333333333
 40
-0.2916666666666666
 40
-0.25
 40
-0.1666666666666666
 40
-0.125
 40
-0.0833333333333333
 40
-0.0401715833272292
 40
-0.0401715833272292
 40
-0.0401715833272292
 40
-0.0401715833272292
 10
769.0168922766298
 20
1800.006621686733
 30
0.0
 10
769.019041433289
 20
1800.000403605577
 30
0.0
 10
769.0342131195799
 20
1799.958502350608
 30
0.0
 10
769.073479365956
 20
1799.872744586286
 30
0.0
 10
769.1764384459417
 20
1799.689653089733
 30
0.0
 10
769.3362962799755
 20
1799.449843202738
 30
0.0
 10
769.5275180498198
 20
1799.162159095132
 30
0.0
 10
769.7239046822041
 20
1798.859305808195
 30
0.0
 10
769.9952860909434
 20
1798.427648989421
 30
0.0
 10
770.3226188468963
 20
1797.855325447487
 30
0.0
 10
770.6393091663414
 20
1797.24211366331
 30
0.0
 10
770.8825447948364
 20
1796.722470716912
 30
0.0
 10
771.0622369759116
 20
1796.331757738956
 30
0.0
 10
771.2394612365708
 20
1795.940798048359
 30
0.0
 10
771.4022248460745
 20
1795.58603960498
 30
0.0
 10
771.5549300488368
 20
1795.299138704502
 30
0.0
 10
771.6705324117259
 20
1795.100408616824
 30
0.0
 10
771.7510028880553
 20
1794.996082941375
 30
0.0
 10
771.7920941149229
 20
1794.944804295647
 30
0.0
  0
SPLINE
  5
256
330
1B5
100
AcDbEntity
  8
P-SANR-FIXT
100
AcDbSpline
210
0.0
220
0.0
230
1.0
 70
     8
 71
     3
 72
    23
 73
    19
 74
     0
 42
0.000000001
 43
0.0000000001
 40
-1.0
 40
-1.0
 40
-1.0
 40
-1.0
 40
-0.9166666666666666
 40
-0.875
 40
-0.8333333333333332
 40
-0.75
 40
-0.7083333333333333
 40
-0.6666666666666666
 40
-0.5833333333333333
 40
-0.5
 40
-0.4166666666666666
 40
-0.3333333333333333
 40
-0.2916666666666666
 40
-0.25
 40
-0.1666666666666666
 40
-0.125
 40
-0.0833333333333333
 40
0.0
 40
0.0
 40
0.0
 40
0.0
 10
781.7989714873504
 20
1788.723888753519
 30
0.0
 10
781.7956142680608
 20
1788.762674761302
 30
0.0
 10
781.8221450025874
 20
1788.830067278716
 30
0.0
 10
781.9242729451556
 20
1788.932302023565
 30
0.0
 10
782.0687982360376
 20
1789.038778265462
 30
0.0
 10
782.2961727966286
 20
1789.154140650763
 30
0.0
 10
782.5876875461869
 20
1789.256963733894
 30
0.0
 10
782.9013722304964
 20
1789.343612099542
 30
0.0
 10
783.3631732188706
 20
1789.424285516481
 30
0.0
 10
783.9826697201782
 20
1789.458090485192
 30
0.0
 10
784.6502105252335
 20
1789.424609096592
 30
0.0
 10
785.2200697095503
 20
1789.342222651256
 30
0.0
 10
785.6591595137054
 20
1789.254798287624
 30
0.0
 10
786.1046507001137
 20
1789.151338869208
 30
0.0
 10
786.5223835208681
 20
1789.035809544187
 30
0.0
 10
786.8887612244707
 20
1788.929628937862
 30
0.0
 10
787.2365335477418
 20
1788.82811742797
 30
0.0
 10
787.4733065770647
 20
1788.761758716583
 30
0.0
 10
787.6217660236963
 20
1788.723888753519
 30
0.0
  0
SPLINE
  5
257
330
1B5
100
AcDbEntity
  8
P-SANR-FIXT
100
AcDbSpline
210
0.0
220
0.0
230
1.0
 70
     8
 71
     3
 72
    23
 73
    19
 74
     0
 42
0.000000001
 43
0.0000000001
 40
-1.0
 40
-1.0
 40
-1.0
 40
-1.0
 40
-0.9166666666666666
 40
-0.875
 40
-0.8333333333333332
 40
-0.75
 40
-0.7083333333333333
 40
-0.6666666666666666
 40
-0.5833333333333333
 40
-0.5
 40
-0.4166666666666666
 40
-0.3333333333333333
 40
-0.2916666666666666
 40
-0.25
 40
-0.1666666666666666
 40
-0.125
 40
-0.0833333333333333
 40
0.0
 40
0.0
 40
0.0
 40
0.0
 10
797.5140249369808
 20
1794.801725505819
 30
0.0
 10
797.4421831993899
 20
1794.889170844975
 30
0.0
 10
797.3472446097815
 20
1795.045671796881
 30
0.0
 10
797.2529765251805
 20
1795.305436167421
 30
0.0
 10
797.1826353676898
 20
1795.595003905429
 30
0.0
 10
797.1547299179363
 20
1795.950176180391
 30
0.0
 10
797.1785973155296
 20
1796.340683364903
 30
0.0
 10
797.2339554656266
 20
1796.730185042688
 30
0.0
 10
797.3740332270406
 20
1797.24251508533
 30
0.0
 10
797.6463450403261
 20
1797.848644395087
 30
0.0
 10
798.0175300036465
 20
1798.428371825905
 30
0.0
 10
798.3948559019758
 20
1798.86563754357
 30
0.0
 10
798.7168426847536
 20
1799.168907363747
 30
0.0
 10
799.0624443401143
 20
1799.45648416171
 30
0.0
 10
799.4133206610829
 20
1799.69524405371
 30
0.0
 10
799.7386633067372
 20
1799.877060887974
 30
0.0
 10
800.0569328742779
 20
1800.032952171378
 30
0.0
 10
800.2821928388751
 20
1800.120531878454
 30
0.0
 10
800.4254222051541
 20
1800.168041977769
 30
0.0
  0
SPLINE
  5
258
330
1B5
100
AcDbEntity
  8
P-SANR-FIXT
100
AcDbSpline
210
0.0
220
0.0
230
1.0
 70
     8
 71
     3
 72
     9
 73
     5
 74
     0
 42
0.000000001
 43
0.0000000001
 40
-1.0
 40
-1.0
 40
-1.0
 40
-1.0
 40
-0.5
 40
0.0
 40
0.0
 40
0.0
 40
0.0
 10
781.7989714873505
 20
1823.767868706621
 30
0.0
 10
781.9537671233176
 20
1824.072980082354
 30
0.0
 10
782.5020517150817
 20
1824.78969984195
 30
0.0
 10
783.457192946468
 20
1825.465013469004
 30
0.0
 10
784.0091530782936
 20
1825.754799299517
 30
0.0
  0
ELLIPSE
  5
259
330
1B5
100
AcDbEntity
  8
P-SANR-FIXT
100
AcDbEllipse
 10
789.2068680656596
 20
1806.24587873007
 30
0.0
 11
0.0
 21
20.27789883964971
 31
0.0
210
0.0
220
0.0
230
0.9999999999999998
 40
0.9396926207859097
 41
6.006909637137291
 42
6.559460977221863
  0
SPLINE
  5
25A
330
1B5
100
AcDbEntity
  8
P-SANR-FIXT
100
AcDbSpline
210
0.0
220
0.0
230
1.0
 70
     8
 71
     3
 72
     9
 73
     5
 74
     0
 42
0.000000001
 43
0.0000000001
 40
-1.0
 40
-1.0
 40
-1.0
 40
-1.0
 40
-0.5
 40
0.0
 40
0.0
 40
0.0
 40
0.0
 10
794.4045830530272
 20
1825.754799299517
 30
0.0
 10
793.4302151791779
 20
1825.465013469004
 30
0.0
 10
791.3601953015104
 20
1824.78969984195
 30
0.0
 10
788.9383085888124
 20
1824.072980082354
 30
0.0
 10
787.6217660236964
 20
1823.767868706622
 30
0.0
  0
SPLINE
  5
25B
330
1B5
100
AcDbEntity
  8
P-SANR-FIXT
100
AcDbSpline
210
0.0
220
0.0
230
1.0
 70
     8
 71
     3
 72
     9
 73
     5
 74
     0
 42
0.000000001
 43
0.0000000001
 40
-1.0
 40
-1.0
 40
-1.0
 40
-1.0
 40
-0.5
 40
0.0
 40
0.0
 40
0.0
 40
0.0
 10
797.5140249369811
 20
1817.69003195432
 30
0.0
 10
798.2075562353595
 20
1818.377923522854
 30
0.0
 10
799.807506235894
 20
1819.599643930033
 30
0.0
 10
801.5909357927311
 20
1820.451039602661
 30
0.0
 10
802.4843248970222
 20
1820.790579058316
 30
0.0
  0
ELLIPSE
  5
25C
330
1B5
100
AcDbEntity
  8
P-SANR-FIXT
100
AcDbEllipse
 10
789.2068680656596
 20
1806.24587873007
 30
0.0
 11
0.0
 21
20.27789883964973
 31
0.0
210
0.0
220
0.0
230
1.0
 40
0.9396926207859188
 41
4.959712085940697
 42
5.512263426025263
  0
SPLINE
  5
25D
330
1B5
100
AcDbEntity
  8
P-SANR-FIXT
100
AcDbSpline
210
0.0
220
0.0
230
1.0
 70
     8
 71
     3
 72
     9
 73
     5
 74
     0
 42
0.000000001
 43
0.0000000001
 40
-1.0
 40
-1.0
 40
-1.0
 40
-1.0
 40
-0.5
 40
0.0
 40
0.0
 40
0.0
 40
0.0
 10
807.682039884389
 20
1811.210098971272
 30
0.0
 10
806.5774469090863
 20
1811.259852596413
 30
0.0
 10
804.2365780291085
 20
1811.435934641987
 30
0.0
 10
801.6998269681069
 20
1811.940935289569
 30
0.0
 10
800.4254222051541
 20
1812.323715482371
 30
0.0
  0
SPLINE
  5
25E
330
1B5
100
AcDbEntity
  8
P-SANR-FIXT
100
AcDbSpline
210
0.0
220
0.0
230
1.0
 70
     8
 71
     3
 72
     9
 73
     5
 74
     0
 42
0.000000001
 43
0.0000000001
 40
-1.0
 40
-1.0
 40
-1.0
 40
-1.0
 40
-0.5
 40
0.0
 40
0.0
 40
0.0
 40
0.0
 10
800.4254222051541
 20
1800.168041977769
 30
0.0
 10
801.6998269681069
 20
1800.550822170571
 30
0.0
 10
804.2365780291083
 20
1801.055822818153
 30
0.0
 10
806.5774469090863
 20
1801.231904863726
 30
0.0
 10
807.682039884389
 20
1801.281658488868
 30
0.0
  0
ELLIPSE
  5
25F
330
1B5
100
AcDbEntity
  8
P-SANR-FIXT
100
AcDbEllipse
 10
789.2068680656596
 20
1806.24587873007
 30
0.0
 11
0.0
 21
20.27789883964994
 31
0.0
210
0.0
220
0.0
230
1.0
 40
0.9396926207859024
 41
3.912514534744106
 42
4.465065874828665
  0
SPLINE
  5
260
330
1B5
100
AcDbEntity
  8
P-SANR-FIXT
100
AcDbSpline
210
0.0
220
0.0
230
1.0
 70
     8
 71
     3
 72
     9
 73
     5
 74
     0
 42
0.000000001
 43
0.0000000001
 40
-1.0
 40
-1.0
 40
-1.0
 40
-1.0
 40
-0.5
 40
0.0
 40
0.0
 40
0.0
 40
0.0
 10
802.4843248970221
 20
1791.701178401824
 30
0.0
 10
801.5909357927309
 20
1792.040717857479
 30
0.0
 10
799.8075062358936
 20
1792.892113530107
 30
0.0
 10
798.2075562353592
 20
1794.113833937285
 30
0.0
 10
797.5140249369808
 20
1794.801725505819
 30
0.0
  0
SPLINE
  5
261
330
1B5
100
AcDbEntity
  8
P-SANR-FIXT
100
AcDbSpline
210
0.0
220
0.0
230
1.0
 70
     8
 71
     3
 72
     9
 73
     5
 74
     0
 42
0.000000001
 43
0.0000000001
 40
-1.0
 40
-1.0
 40
-1.0
 40
-1.0
 40
-0.5
 40
0.0
 40
0.0
 40
0.0
 40
0.0
 10
787.6217660236963
 20
1788.723888753519
 30
0.0
 10
788.9383085888121
 20
1788.418777377787
 30
0.0
 10
791.3601953015099
 20
1787.70205761819
 30
0.0
 10
793.4302151791777
 20
1787.026743991136
 30
0.0
 10
794.4045830530269
 20
1786.736958160622
 30
0.0
  0
ELLIPSE
  5
262
330
1B5
100
AcDbEntity
  8
P-SANR-FIXT
100
AcDbEllipse
 10
789.2068680656596
 20
1806.24587873007
 30
0.0
 11
0.0
 21
20.27789883965021
 31
0.0
210
0.0
220
0.0
230
1.0
 40
0.9396926207858898
 41
2.86531698354751
 42
3.417868323632074
  0
SPLINE
  5
263
330
1B5
100
AcDbEntity
  8
P-SANR-FIXT
100
AcDbSpline
210
0.0
220
0.0
230
1.0
 70
     8
 71
     3
 72
     9
 73
     5
 74
     0
 42
0.000000001
 43
0.0000000001
 40
-1.0
 40
-1.0
 40
-1.0
 40
-1.0
 40
-0.5
 40
0.0
 40
0.0
 40
0.0
 40
0.0
 10
784.0091530782934
 20
1786.736958160623
 30
0.0
 10
783.4571929464678
 20
1787.026743991136
 30
0.0
 10
782.5020517150814
 20
1787.70205761819
 30
0.0
 10
781.9537671233174
 20
1788.418777377787
 30
0.0
 10
781.7989714873504
 20
1788.723888753519
 30
0.0
  0
ELLIPSE
  5
264
330
1B5
100
AcDbEntity
  8
P-SANR-FIXT
100
AcDbEllipse
 10
789.2068680656604
 20
1830.044880934396
 30
0.0
 11
0.0
 21
6.999999999999983
 31
0.0
210
0.0
220
0.0
230
1.0
 40
0.9396926207859003
 41
2.230482378417249
 42
2.773781760393685
  0
ELLIPSE
  5
265
330
1B5
100
AcDbEntity
  8
P-SANR-FIXT
100
AcDbEllipse
 10
789.2068680656601
 20
1782.446876525744
 30
0.0
 11
0.0
 21
6.999999999999958
 31
0.0
210
0.0
220
0.0
230
1.0
 40
0.9396926207859324
 41
0.3678722705309141
 42
0.9111102751725239
  0
ELLIPSE
  5
266
330
1B5
100
AcDbEntity
  8
P-SANR-FIXT
100
AcDbEllipse
 10
808.5744408779689
 20
1818.145379832232
 30
0.0
 11
0.0
 21
7.000000000000045
 31
0.0
210
0.0
220
0.0
230
1.0
 40
0.9396926207858989
 41
1.183284827220657
 42
3.005505377565757
  0
ELLIPSE
  5
267
330
1B5
100
AcDbEntity
  8
P-SANR-FIXT
100
AcDbEllipse
 10
808.5744408779685
 20
1794.346377627907
 30
0.0
 11
0.0
 21
6.999999999999775
 31
0.0
210
0.0
220
0.0
230
1.0
 40
0.9396926207859404
 41
0.1360872760240135
 42
1.958307826369177
  0
LINE
  5
268
330
1B5
100
AcDbEntity
  8
P-SANR-FIXT
100
AcDbLine
 10
862.2065279053186
 20
1821.245878730013
 30
0.0
 11
852.2333773094086
 21
1821.245878730013
 31
0.0
  0
LINE
  5
269
330
1B5
100
AcDbEntity
  8
P-SANR-FIXT
100
AcDbLine
 10
864.6148455245993
 20
1818.04587873007
 30
0.0
 11
862.7672529802547
 21
1821.24600288856
 31
0.0
  0
LINE
  5
26A
330
1B5
100
AcDbEntity
  8
P-SANR-FIXT
100
AcDbLine
 10
851.6726522344722
 20
1821.24600288856
 30
0.0
 11
851.6148455245991
 21
1821.145878730041
 31
0.0
  0
LINE
  5
26B
330
1B5
100
AcDbEntity
  8
P-SANR-FIXT
100
AcDbLine
 10
851.6148455245973
 20
1816.255307634408
 30
0.0
 11
851.6148455245975
 21
1821.14587873004
 31
0.0
  0
LINE
  5
26C
330
1B5
100
AcDbEntity
  8
P-SANR-FIXT
100
AcDbLine
 10
864.6148455245977
 20
1818.045878730069
 30
0.0
 11
864.6148455245976
 21
1816.261975008975
 31
0.0
  0
SPLINE
  5
26D
330
1B5
100
AcDbEntity
  8
P-SANR-FIXT
100
AcDbSpline
210
0.0
220
0.0
230
1.0
 70
    24
 71
     3
 72
     9
 73
     5
 74
     0
 42
0.000000001
 43
0.0000000001
 40
0.4959507217303018
 40
0.4959507217303018
 40
0.4959507217303018
 40
0.4959507217303018
 40
0.5
 40
1.0
 40
1.0
 40
1.0
 40
1.0
 10
851.6726522344706
 20
1821.245878730012
 30
0.0
 10
851.6726277154882
 20
1821.245878730012
 30
0.0
 10
851.671101668805
 20
1821.245878730013
 30
0.0
 10
851.859536073762
 20
1821.245878730026
 30
0.0
 10
852.233377309407
 20
1821.245878730012
 30
0.0
  0
SPLINE
  5
26E
330
1B5
100
AcDbEntity
  8
P-SANR-FIXT
100
AcDbSpline
210
0.0
220
0.0
230
1.0
 70
    24
 71
     3
 72
     9
 73
     5
 74
     0
 42
0.000000001
 43
0.0000000001
 40
0.0
 40
0.0
 40
0.0
 40
0.0
 40
0.5
 40
0.5040492782696989
 40
0.5040492782696989
 40
0.5040492782696989
 40
0.5040492782696989
 10
862.206527905317
 20
1821.245878730012
 30
0.0
 10
862.5803691409235
 20
1821.245878730012
 30
0.0
 10
862.768803545919
 20
1821.245878730012
 30
0.0
 10
862.7672774992356
 20
1821.245878730012
 30
0.0
 10
862.7672529802532
 20
1821.245878730012
 30
0.0
  0
SPLINE
  5
26F
330
1B5
100
AcDbEntity
  8
P-SANR-FIXT
100
AcDbSpline
210
0.0
220
0.0
230
1.0
 70
     8
 71
     3
 72
    10
 73
     6
 74
     0
 42
0.000000001
 43
0.0000000001
 40
0.0
 40
0.0
 40
0.0
 40
0.0
 40
0.4
 40
0.7
 40
1.0
 40
1.0
 40
1.0
 40
1.0
 10
852.233377309407
 20
1821.245878730012
 30
0.0
 10
852.385018845171
 20
1821.245878730012
 30
0.0
 10
852.5486161811077
 20
1820.965144661147
 30
0.0
 10
852.5083140759138
 20
1819.893501983676
 30
0.0
 10
852.3469393210854
 20
1818.98793340228
 30
0.0
 10
852.2333773094127
 20
1818.495878730012
 30
0.0
  0
SPLINE
  5
270
330
1B5
100
AcDbEntity
  8
P-SANR-FIXT
100
AcDbSpline
210
0.0
220
0.0
230
1.0
 70
     8
 71
     3
 72
    10
 73
     6
 74
     0
 42
0.000000001
 43
0.0000000001
 40
0.0
 40
0.0
 40
0.0
 40
0.0
 40
0.4
 40
0.7
 40
1.0
 40
1.0
 40
1.0
 40
1.0
 10
862.206527905311
 20
1818.495878730012
 30
0.0
 10
862.0551118897477
 20
1819.151951626369
 30
0.0
 10
861.8913837537018
 20
1820.177647815947
 30
0.0
 10
861.931408684455
 20
1821.067581611884
 30
0.0
 10
862.0927967534939
 20
1821.245878730012
 30
0.0
 10
862.206527905317
 20
1821.245878730012
 30
0.0
  0
SPLINE
  5
271
330
1B5
100
AcDbEntity
  8
P-SANR-FIXT
100
AcDbSpline
210
0.0
220
0.0
230
1.0
 70
     8
 71
     3
 72
     8
 73
     4
 74
     0
 42
0.000000001
 43
0.0000000001
 40
0.0
 40
0.0
 40
0.0
 40
0.0
 40
0.2272760860371514
 40
0.2272760860371514
 40
0.2272760860371514
 40
0.2272760860371514
 10
852.2333773094127
 20
1818.495878730012
 30
0.0
 10
852.0634469637586
 20
1817.764994640787
 30
0.0
 10
851.9321377219643
 20
1817.036650698973
 30
0.0
 10
851.8394495840292
 20
1816.310846904572
 30
0.0
  0
SPLINE
  5
272
330
1B5
100
AcDbEntity
  8
P-SANR-FIXT
100
AcDbSpline
210
0.0
220
0.0
230
1.0
 70
     8
 71
     3
 72
     8
 73
     4
 74
     0
 42
0.000000001
 43
0.0000000001
 40
0.7727239139628486
 40
0.7727239139628486
 40
0.7727239139628486
 40
0.7727239139628486
 40
1.0
 40
1.0
 40
1.0
 40
1.0
 10
862.6004556306945
 20
1816.310846904572
 30
0.0
 10
862.5077674927595
 20
1817.036650698973
 30
0.0
 10
862.376458250965
 20
1817.764994640787
 30
0.0
 10
862.206527905311
 20
1818.495878730012
 30
0.0
  0
LINE
  5
273
330
1B5
100
AcDbEntity
  8
P-SANR-FIXT
100
AcDbLine
 10
773.0231631439473
 20
1791.245878730009
 30
0.0
 11
775.7173208095985
 21
1791.245878730009
 31
0.0
  0
LINE
  5
274
330
1B5
100
AcDbEntity
  8
P-SANR-FIXT
100
AcDbLine
 10
775.7453548557926
 20
1821.245878730014
 30
0.0
 11
773.0231631438835
 21
1821.245878730014
 31
0.0
  0
LINE
  5
275
330
1B5
100
AcDbEntity
  8
P-SANR-FIXT
100
AcDbLine
 10
772.4624380689472
 20
1821.24600288856
 30
0.0
 11
770.6148455246029
 21
1818.04587873007
 31
0.0
  0
LINE
  5
276
330
1B5
100
AcDbEntity
  8
P-SANR-FIXT
100
AcDbLine
 10
770.6148455246023
 20
1794.44587873007
 30
0.0
 11
772.462438069015
 21
1791.245754571463
 31
0.0
  0
LINE
  5
277
330
1B5
100
AcDbEntity
  8
P-SANR-FIXT
100
AcDbLine
 10
770.6148455246011
 20
1815.266539947674
 30
0.0
 11
770.6148455246013
 21
1818.045878730069
 31
0.0
  0
LINE
  5
278
330
1B5
100
AcDbEntity
  8
P-SANR-FIXT
100
AcDbLine
 10
770.614845524601
 20
1794.44587873007
 30
0.0
 11
770.6148455246011
 21
1797.224329409687
 31
0.0
  0
SPLINE
  5
279
330
1B5
100
AcDbEntity
  8
P-SANR-FIXT
100
AcDbSpline
210
0.0
220
0.0
230
1.0
 70
     8
 71
     3
 72
    10
 73
     6
 74
     0
 42
0.000000001
 43
0.0000000001
 40
0.1246044185568482
 40
0.1246044185568482
 40
0.1246044185568482
 40
0.1246044185568482
 40
0.4
 40
0.7
 40
1.0
 40
1.0
 40
1.0
 40
1.0
 10
773.1478113232682
 20
1793.40416179476
 30
0.0
 10
773.2269696952706
 20
1792.986263209152
 30
0.0
 10
773.3333801952576
 20
1792.202525164921
 30
0.0
 10
773.2980999104477
 20
1791.423564600107
 30
0.0
 10
773.1367251556189
 20
1791.245878730008
 30
0.0
 10
773.0231631439459
 20
1791.245878730008
 30
0.0
  0
SPLINE
  5
27A
330
1B5
100
AcDbEntity
  8
P-SANR-FIXT
100
AcDbSpline
210
0.0
220
0.0
230
1.0
 70
    24
 71
     3
 72
     8
 73
     4
 74
     0
 42
0.000000001
 43
0.0000000001
 40
0.0
 40
0.0
 40
0.0
 40
0.0
 40
0.5
 40
0.5
 40
0.5
 40
0.5
 10
773.0231631439459
 20
1791.245878730008
 30
0.0
 10
772.6493219083421
 20
1791.245878730008
 30
0.0
 10
772.4624012905402
 20
1791.245878730008
 30
0.0
 10
772.4624012905402
 20
1791.245878730008
 30
0.0
  0
SPLINE
  5
27B
330
1B5
100
AcDbEntity
  8
P-SANR-FIXT
100
AcDbSpline
210
0.0
220
0.0
230
1.0
 70
    24
 71
     3
 72
     9
 73
     5
 74
     0
 42
0.000000001
 43
0.0000000001
 40
0.4959507217303048
 40
0.4959507217303048
 40
0.4959507217303048
 40
0.4959507217303048
 40
0.5
 40
1.0
 40
1.0
 40
1.0
 40
1.0
 10
772.4624380689457
 20
1821.245878730013
 30
0.0
 10
772.4624135499633
 20
1821.245878730013
 30
0.0
 10
772.4608875032815
 20
1821.245878730013
 30
0.0
 10
772.6493219082385
 20
1821.245878730013
 30
0.0
 10
773.023163143882
 20
1821.245878730013
 30
0.0
  0
SPLINE
  5
27C
330
1B5
100
AcDbEntity
  8
P-SANR-FIXT
100
AcDbSpline
210
0.0
220
0.0
230
1.0
 70
     8
 71
     3
 72
    10
 73
     6
 74
     0
 42
0.000000001
 43
0.0000000001
 40
0.0
 40
0.0
 40
0.0
 40
0.0
 40
0.4
 40
0.7
 40
0.8752368734370133
 40
0.8752368734370133
 40
0.8752368734370133
 40
0.8752368734370133
 10
773.023163143882
 20
1821.245878730013
 30
0.0
 10
773.1748046796462
 20
1821.245878730013
 30
0.0
 10
773.338402015583
 20
1820.965144661148
 30
0.0
 10
773.30312812704
 20
1820.027203474676
 30
0.0
 10
773.197905186451
 20
1819.353184949656
 30
0.0
 10
773.1476868801725
 20
1819.087508529992
 30
0.0
  0
LINE
  5
27D
330
1B5
100
AcDbEntity
  8
P-SANR-FIXT
100
AcDbLine
 10
886.3148455246189
 20
1816.89587873007
 30
0.0
 11
864.6148455245992
 21
1816.89587873007
 31
0.0
  0
LINE
  5
27E
330
1B5
100
AcDbEntity
  8
P-SANR-FIXT
100
AcDbLine
 10
884.2240697940788
 20
1795.595878730069
 30
0.0
 11
886.3148455246189
 21
1795.595878730069
 31
0.0
  0
LINE
  5
27F
330
1B5
100
AcDbEntity
  8
P-SANR-FIXT
100
AcDbLine
 10
887.6148455246189
 20
1815.59587873007
 30
0.0
 11
886.3148455246189
 21
1816.89587873007
 31
0.0
  0
LINE
  5
280
330
1B5
100
AcDbEntity
  8
P-SANR-FIXT
100
AcDbLine
 10
886.3148455246189
 20
1795.595878730069
 30
0.0
 11
887.6148455246189
 21
1796.895878730069
 31
0.0
  0
LINE
  5
281
330
1B5
100
AcDbEntity
  8
P-SANR-FIXT
100
AcDbLine
 10
886.3148455246173
 20
1806.245878730069
 30
0.0
 11
886.3148455246173
 21
1816.895878730069
 31
0.0
  0
LINE
  5
282
330
1B5
100
AcDbEntity
  8
P-SANR-FIXT
100
AcDbLine
 10
886.3148455246173
 20
1795.595878730068
 30
0.0
 11
886.3148455246173
 21
1806.245878730069
 31
0.0
  0
LINE
  5
283
330
1B5
100
AcDbEntity
  8
P-SANR-FIXT
100
AcDbLine
 10
887.6148455246173
 20
1815.595878730069
 30
0.0
 11
887.6148455246173
 21
1806.245878730069
 31
0.0
  0
LINE
  5
284
330
1B5
100
AcDbEntity
  8
P-SANR-FIXT
100
AcDbLine
 10
887.6148455246173
 20
1806.245878730069
 30
0.0
 11
887.6148455246173
 21
1796.895878730069
 31
0.0
  0
LINE
  5
285
330
1B5
100
AcDbEntity
  8
P-SANR-FIXT
100
AcDbLine
 10
770.6148455246026
 20
1816.895878730071
 30
0.0
 11
748.9148455245826
 21
1816.895878730071
 31
0.0
  0
LINE
  5
286
330
1B5
100
AcDbEntity
  8
P-SANR-FIXT
100
AcDbLine
 10
748.9148455245826
 20
1795.59587873007
 30
0.0
 11
770.6148455246025
 21
1795.59587873007
 31
0.0
  0
LINE
  5
287
330
1B5
100
AcDbEntity
  8
P-SANR-FIXT
100
AcDbLine
 10
748.9148455245826
 20
1816.895878730071
 30
0.0
 11
747.6148455245826
 21
1815.595878730071
 31
0.0
  0
LINE
  5
288
330
1B5
100
AcDbEntity
  8
P-SANR-FIXT
100
AcDbLine
 10
747.6148455245827
 20
1796.895878730071
 30
0.0
 11
748.9148455245826
 21
1795.59587873007
 31
0.0
  0
LINE
  5
289
330
1B5
100
AcDbEntity
  8
P-SANR-FIXT
100
AcDbLine
 10
747.6148455245812
 20
1806.24587873007
 30
0.0
 11
747.6148455245812
 21
1815.59587873007
 31
0.0
  0
LINE
  5
28A
330
1B5
100
AcDbEntity
  8
P-SANR-FIXT
100
AcDbLine
 10
747.6148455245812
 20
1796.89587873007
 30
0.0
 11
747.6148455245812
 21
1806.24587873007
 31
0.0
  0
LINE
  5
28B
330
1B5
100
AcDbEntity
  8
P-SANR-FIXT
100
AcDbLine
 10
748.9148455245811
 20
1816.89587873007
 30
0.0
 11
748.9148455245811
 21
1806.24587873007
 31
0.0
  0
LINE
  5
28C
330
1B5
100
AcDbEntity
  8
P-SANR-FIXT
100
AcDbLine
 10
748.9148455245811
 20
1806.24587873007
 30
0.0
 11
748.9148455245811
 21
1795.59587873007
 31
0.0
  0
LINE
  5
28D
330
1B5
100
AcDbEntity
  8
P-SANR-FIXT
100
AcDbLine
 10
835.227381185183
 20
1803.24587873007
 30
0.0
 11
833.9199357942352
 21
1803.24587873007
 31
0.0
  0
LINE
  5
28E
330
1B5
100
AcDbEntity
  8
P-SANR-FIXT
100
AcDbLine
 10
833.9240158844424
 20
1809.245878730069
 30
0.0
 11
835.227381185183
 21
1809.245878730069
 31
0.0
  0
LWPOLYLINE
  5
28F
330
1B5
100
AcDbEntity
  8
P-SANR-FIXT
100
AcDbPolyline
 90
       10
 70
   128
 43
0.0
 10
840.8398609628109
 20
1817.742494091561
 10
840.8260344940416
 20
1817.76139836947
 10
840.3765072157684
 20
1818.327748928908
 10
839.9051114734383
 20
1818.875615684692
 10
839.4124995359245
 20
1819.404062356933
 10
838.8993647043863
 20
1819.912171554678
 10
838.3664417614886
 20
1820.399046987549
 10
837.8145072880768
 20
1820.863815848695
 10
837.2443798169486
 20
1821.305631363327
 10
837.1738162086076
 20
1821.357777941338
  0
LWPOLYLINE
  5
290
330
1B5
100
AcDbEntity
  8
P-SANR-FIXT
100
AcDbPolyline
 90
       10
 70
   128
 43
0.0
 10
837.1738162086082
 20
1821.357777941338
 10
836.0464684482307
 20
1822.151363061042
 10
834.8425602913758
 20
1822.927048792784
 10
833.5631767883528
 20
1823.678678933034
 10
832.2101481811413
 20
1824.400029104173
 10
830.7860640283232
 20
1825.084895850373
 10
829.294275296093
 20
1825.727188915415
 10
827.7388837235026
 20
1826.321025015988
 10
826.1247180363982
 20
1826.86082126744
 10
824.4736573139341
 20
1827.336671092924
  0
LWPOLYLINE
  5
291
330
1B5
100
AcDbEntity
  8
P-SANR-FIXT
100
AcDbPolyline
 90
       10
 70
   128
 43
0.0
 10
824.4185523097735
 20
1785.142984550451
 10
824.5576136182597
 20
1785.177145534935
 10
826.2220406184741
 20
1785.661361785309
 10
827.832866289864
 20
1786.204513730285
 10
829.3846116447545
 20
1786.801384301271
 10
830.8724901903113
 20
1787.446370213726
 10
832.2924442026399
 20
1788.133573283411
 10
833.6411677259471
 20
1788.856893926433
 10
834.9161164375022
 20
1789.610124893912
 10
835.2315327314155
 20
1789.814439660718
  0
LWPOLYLINE
  5
292
330
1B5
100
AcDbEntity
  8
P-SANR-FIXT
100
AcDbPolyline
 90
       20
 70
   128
 43
0.0
 10
834.5814975535462
 20
1809.24587873007
 10
834.5792195658011
 20
1809.270039540594
 10
834.4466745746004
 20
1810.270951757326
 10
834.2765671510333
 20
1811.26575164963
 10
834.0691280560404
 20
1812.252922244606
 10
833.8246394273399
 20
1813.230954019154
 10
833.5434348367273
 20
1814.198346435832
 10
833.2258993566444
 20
1815.153609505691
 10
832.8724696347883
 20
1816.095265384056
 10
832.4836339748671
 20
1817.021850005802
 10
832.0599324207259
 20
1817.931914767171
 10
831.6019568400051
 20
1818.824028261698
 10
831.1103510022073
 20
1819.696778078131
 10
830.5858106445493
 20
1820.54877266847
 10
830.0290835172912
 20
1821.37864329424
 10
829.4409693983714
 20
1822.185046058832
 10
828.8223200651735
 20
1822.966664033138
 10
828.1740392091702
 20
1823.72220948076
 10
827.4970822770933
 20
1824.450426187605
 10
827.4050760680813
 20
1824.541784701871
  0
LINE
  5
293
330
1B5
100
AcDbEntity
  8
P-SANR-FIXT
100
AcDbLine
 10
826.792456220242
 20
1825.150091898842
 30
0.0
 11
826.5472602107257
 21
1825.374730270493
 31
0.0
  0
LWPOLYLINE
  5
294
330
1B5
100
AcDbEntity
  8
P-SANR-FIXT
100
AcDbPolyline
 90
       21
 70
   128
 43
0.0
 10
826.5472602107253
 20
1787.112687216349
 10
826.5976659770807
 20
1787.157867782075
 10
827.3095809439571
 20
1787.849622548838
 10
827.9941073531974
 20
1788.570252060393
 10
828.650224408995
 20
1789.31854365946
 10
829.2769627341183
 20
1790.093250053202
 10
829.8734046487934
 20
1790.893091779375
 10
830.4386843524385
 20
1791.716759564697
 10
830.9719880271501
 20
1792.562916577819
 10
831.4725538798626
 20
1793.430200581276
 10
831.9396721379996
 20
1794.317225988332
 10
832.3726850113454
 20
1795.222585831724
 10
832.7709866308373
 20
1796.144853652023
 10
833.1340229730775
 20
1797.082585313684
 10
833.4612917776217
 20
1798.034320756905
 10
833.7523424625477
 20
1798.998585693293
 10
834.0067760424796
 20
1799.973893252984
 10
834.2242450520982
 20
1800.958745590412
 10
834.4044534772558
 20
1801.951635455431
 10
834.5471566950871
 20
1802.951047735893
 10
834.5779793160259
 20
1803.24587873007
  0
LWPOLYLINE
  5
295
330
1B5
100
AcDbEntity
  8
P-SANR-FIXT
100
AcDbPolyline
 90
       41
 70
   128
 43
0.0
 10
834.099074071879
 20
1806.24587873007
 10
834.0788698797407
 20
1807.320774479669
 10
834.0182872500022
 20
1808.393992707989
 10
833.9174159979206
 20
1809.463858089199
 10
833.7764057330568
 20
1810.528699687951
 10
833.5954657356317
 20
1811.58685315368
 10
833.3748647837181
 20
1812.636662913925
 10
833.1149309314893
 20
1813.67648436665
 10
832.8160512387311
 20
1814.704686071731
 10
832.4786714517362
 20
1815.71965194205
 10
832.1032956355264
 20
1816.719783434961
 10
831.6904857571062
 20
1817.703501745127
 10
831.2408612190866
 20
1818.669250000087
 10
830.7550983425839
 20
1819.615495460158
 10
830.2339297977111
 20
1820.540731724473
 10
829.6781439793367
 20
1821.443480945149
 10
829.0885843250007
 20
1822.322296051569
 10
828.4661485710323
 20
1823.175762986714
 10
827.8117879419847
 20
1824.002502957197
 10
827.1265062675295
 20
1824.801174698241
 10
826.4113590199885
 20
1825.570476754156
 10
825.6674522647093
 20
1826.309149774041
 10
824.8959415146495
 20
1827.015978821244
 10
824.0980304797805
 20
1827.689795693805
 10
823.2749697013952
 20
1828.329481251441
 10
822.4280550611226
 20
1828.933967742851
 10
821.558626154483
 20
1829.50224112507
 10
820.668064519239
 20
1830.033343364496
 10
819.7577917096262
 20
1830.526374707022
 10
818.8292672088401
 20
1830.980495902541
 10
817.8839861739254
 20
1831.394930367044
 10
816.9234770094416
 20
1831.768966263758
 10
815.9492987689494
 20
1832.101958483259
 10
814.9630383864172
 20
1832.393330501503
 10
813.9663077429842
 20
1832.64257609419
 10
812.960740578058
 20
1832.849260886033
 10
811.9479892573046
 20
1833.013023714237
 10
810.9297214135979
 20
1833.133577787011
 10
809.907616480255
 20
1833.210711620044
 10
808.8833621387601
 20
1833.244289736661
 10
808.6067585522314
 20
1833.24587873007
  0
LWPOLYLINE
  5
296
330
1B5
100
AcDbEntity
  8
P-SANR-FIXT
100
AcDbPolyline
 90
       41
 70
   128
 43
0.0
 10
808.6067585522309
 20
1779.24587873007
 10
809.6313031156876
 20
1779.267687493053
 10
810.6541547360855
 20
1779.33307544787
 10
811.6736241229949
 20
1779.44192772106
 10
812.6880292638471
 20
1779.594053284552
 10
813.6956989951672
 20
1779.789185590013
 10
814.6949764947155
 20
1780.026983442818
 10
815.6842226716424
 20
1780.307032102203
 10
816.6618194345128
 20
1780.628844591242
 10
817.6261728202211
 20
1780.991863197955
 10
818.5757159702763
 20
1781.395461147203
 10
819.5089119445173
 20
1781.838944422078
 10
820.4242563658718
 20
1782.321553713169
 10
821.3202798931902
 20
1782.842466474457
 10
822.1955505223204
 20
1783.400799065468
 10
823.0486757183619
 20
1783.995608960658
 10
823.8783043844055
 20
1784.625897008772
 10
824.6831286739491
 20
1785.290609726863
 10
825.4618856555984
 20
1785.988641615815
 10
826.2133588396254
 20
1786.718837486396
 10
826.9363795764672
 20
1787.479994787035
 10
827.6298283373924
 20
1788.270865926526
 10
828.2926358873584
 20
1789.090160586806
 10
828.9237843596014
 20
1789.936548022553
 10
829.522308240827
 20
1790.808659345851
 10
830.0872952750216
 20
1791.705089795323
 10
830.6178872929793
 20
1792.624400990106
 10
831.113280973661
 20
1793.565123169725
 10
831.5727285425314
 20
1794.525757421454
 10
831.9955384110722
 20
1795.504777897007
 10
832.3810757608024
 20
1796.500634020584
 10
832.7287630743349
 20
1797.511752690235
 10
833.0380806153138
 20
1798.536540474426
 10
833.308566858474
 20
1799.57338580548
 10
833.5398188705926
 20
1800.620661171288
 10
833.7314926427204
 20
1801.676725306422
 10
833.8833033737964
 20
1802.739925383463
 10
833.9950257055708
 20
1803.808599205065
 10
834.0664939086469
 20
1804.881077397004
 10
834.0976020194162
 20
1805.955685602224
 10
834.099074071879
 20
1806.24587873007
  0
LINE
  5
297
330
1B5
100
AcDbEntity
  8
P-SANR-FIXT
100
AcDbLine
 10
808.6067585522314
 20
1833.24587873007
 30
0.0
 11
804.7872245069148
 21
1833.24587873007
 31
0.0
  0
LINE
  5
298
330
1B5
100
AcDbEntity
  8
P-SANR-FIXT
100
AcDbLine
 10
804.7872245069143
 20
1779.24587873007
 30
0.0
 11
808.6067585522307
 21
1779.24587873007
 31
0.0
  0
LINE
  5
299
330
1B5
100
AcDbEntity
  8
P-SANR-FIXT
100
AcDbLine
 10
851.6148455245991
 20
1819.695878730071
 30
0.0
 11
850.6148455246007
 21
1819.695878730071
 31
0.0
  0
LINE
  5
29A
330
1B5
100
AcDbEntity
  8
P-SANR-FIXT
100
AcDbLine
 10
850.6148455246007
 20
1819.69587873007
 30
0.0
 11
850.5814253202009
 21
1819.63799323805
 31
0.0
  0
LINE
  5
29B
330
1B5
100
AcDbEntity
  8
P-SANR-FIXT
100
AcDbLine
 10
850.5774531883162
 20
1819.631113303812
 30
0.0
 11
850.0663627688707
 21
1818.74587873007
 31
0.0
  0
LINE
  5
29C
330
1B5
100
AcDbEntity
  8
P-SANR-FIXT
100
AcDbLine
 10
848.3343119613017
 20
1817.74587873007
 30
0.0
 11
839.9926275545814
 21
1817.74587873007
 31
0.0
  0
LWPOLYLINE
  5
29D
330
1B5
100
AcDbEntity
  8
P-SANR-FIXT
100
AcDbPolyline
 90
       28
 70
   128
 43
0.0
 10
848.3343119613017
 20
1817.74587873007
 10
848.4142906296749
 20
1817.747478516748
 10
848.49414134924
 20
1817.752275317464
 10
848.5737363758795
 20
1817.760261458362
 10
848.6529483745302
 20
1817.771424163318
 10
848.7316506228918
 20
1817.785745574387
 10
848.8097172141559
 20
1817.803202780366
 10
848.88702325843
 20
1817.823767853449
 10
848.9634450825338
 20
1817.847407893905
 10
849.0388604278519
 20
1817.874085082714
 10
849.113148645919
 20
1817.903756742064
 10
849.1861908914339
 20
1817.93637540363
 10
849.2578703123847
 20
1817.971888884511
 10
849.3280722369892
 20
1818.010240370714
 10
849.3966843571433
 20
1818.051368508043
 10
849.4635969080917
 20
1818.09520750025
 10
849.5287028440266
 20
1818.141687214301
 10
849.5918980093385
 20
1818.190733292568
 10
849.6530813052446
 20
1818.242267271788
 10
849.7121548515227
 20
1818.296206708588
 10
849.7690241431007
 20
1818.352465311375
 10
849.8235982012436
 20
1818.410953078387
 10
849.8757897190996
 20
1818.471576441673
 10
849.9255152013745
 20
1818.534238416783
 10
849.9726950979036
 20
1818.598838757925
 10
850.0172539309174
 20
1818.665274118334
 10
850.0591204157883
 20
1818.733438215604
 10
850.0663627688707
 20
1818.74587873007
  0
ELLIPSE
  5
29E
330
1B5
100
AcDbEntity
  8
P-SANR-FIXT
100
AcDbEllipse
 10
804.6148455245994
 20
1806.24587873007
 30
0.0
 11
0.0
 21
26.49599757301507
 31
0.0
210
0.0
220
0.0
230
1.0
 40
0.939692620785909
 41
4.712388980384668
 42
4.799655442984398
  0
ELLIPSE
  5
29F
330
1B5
100
AcDbEntity
  8
P-SANR-FIXT
100
AcDbEllipse
 10
804.6148455245994
 20
1806.24587873007
 30
0.0
 11
0.0
 21
26.49599757301516
 31
0.0
210
0.0
220
0.0
230
1.0
 40
0.9396926207859067
 41
4.869577988190832
 42
4.886921905584104
  0
ELLIPSE
  5
2A0
330
1B5
100
AcDbEntity
  8
P-SANR-FIXT
100
AcDbEllipse
 10
804.6148455245994
 20
1806.24587873007
 30
0.0
 11
0.0
 21
26.49599757301492
 31
0.0
210
0.0
220
0.0
230
0.9999999999999998
 40
0.9396926207859161
 41
4.948226509039233
 42
4.984020899879918
  0
ELLIPSE
  5
2A1
330
1B5
100
AcDbEntity
  8
P-SANR-FIXT
100
AcDbEllipse
 10
804.6148455245994
 20
1806.24587873007
 30
0.0
 11
0.0
 21
26.49599757301502
 31
0.0
210
0.0
220
0.0
230
0.9999999999999998
 40
0.9396926207859072
 41
5.026888045287725
 42
5.184178352442004
  0
ELLIPSE
  5
2A2
330
1B5
100
AcDbEntity
  8
P-SANR-FIXT
100
AcDbEllipse
 10
804.6148455245994
 20
1806.24587873007
 30
0.0
 11
0.0
 21
26.49599757301528
 31
0.0
210
0.0
220
0.0
230
1.0
 40
0.9396926207859026
 41
5.235987755982972
 42
5.262766137432647
  0
ELLIPSE
  5
2A3
330
1B5
100
AcDbEntity
  8
P-SANR-FIXT
100
AcDbEllipse
 10
804.6148455245994
 20
1806.24587873007
 30
0.0
 11
0.0
 21
26.49599757301526
 31
0.0
210
0.0
220
0.0
230
0.9999999999999998
 40
0.9396926207859035
 41
5.323254218582688
 42
5.341281675626791
  0
ELLIPSE
  5
2A4
330
1B5
100
AcDbEntity
  8
P-SANR-FIXT
100
AcDbEllipse
 10
804.6148455245994
 20
1806.24587873007
 30
0.0
 11
0.0
 21
26.49599757301512
 31
0.0
210
0.0
220
0.0
230
1.0
 40
0.9396926207859126
 41
5.403634243644588
 42
5.419690484082251
  0
ELLIPSE
  5
2A5
330
1B5
100
AcDbEntity
  8
P-SANR-FIXT
100
AcDbEllipse
 10
804.6148455245994
 20
1806.24587873007
 30
0.0
 11
0.0
 21
26.49599757301522
 31
0.0
210
0.0
220
0.0
230
0.9999999999999998
 40
0.939692620785906
 41
5.443397580607087
 42
5.536149266547671
  0
ELLIPSE
  5
2A6
330
1B5
100
AcDbEntity
  8
P-SANR-FIXT
100
AcDbEllipse
 10
804.6148455245994
 20
1806.24587873007
 30
0.0
 11
0.0
 21
26.49599757301526
 31
0.0
210
0.0
220
0.0
230
0.9999999999999998
 40
0.9396926207859007
 41
5.575883803481484
 42
5.58505360638183
  0
ELLIPSE
  5
2A7
330
1B5
100
AcDbEntity
  8
P-SANR-FIXT
100
AcDbEllipse
 10
804.6148455245994
 20
1806.24587873007
 30
0.0
 11
0.0
 21
26.49599757301514
 31
0.0
210
0.0
220
0.0
230
1.0
 40
0.9396926207859067
 41
5.654853561339066
 42
5.689838875972849
  0
ELLIPSE
  5
2A8
330
1B5
100
AcDbEntity
  8
P-SANR-FIXT
100
AcDbEllipse
 10
804.6148455245994
 20
1806.24587873007
 30
0.0
 11
0.0
 21
26.49599757301517
 31
0.0
210
0.0
220
0.0
230
0.9999999999999998
 40
0.9396926207859051
 41
5.732808150131145
 42
5.777089662401332
  0
ELLIPSE
  5
2A9
330
1B5
100
AcDbEntity
  8
P-SANR-FIXT
100
AcDbEllipse
 10
804.6148455245994
 20
1806.24587873007
 30
0.0
 11
0.0
 21
26.49599757301511
 31
0.0
210
0.0
220
0.0
230
1.0
 40
0.9396926207859081
 41
5.811395935121811
 42
5.968686242276127
  0
ELLIPSE
  5
2AA
330
1B5
100
AcDbEntity
  8
P-SANR-FIXT
100
AcDbEllipse
 10
804.6148455245994
 20
1806.24587873007
 30
0.0
 11
0.0
 21
26.49599757301508
 31
0.0
210
0.0
220
0.0
230
1.0
 40
0.9396926207859134
 41
6.003882788558084
 42
6.047347778524637
  0
ELLIPSE
  5
2AB
330
1B5
100
AcDbEntity
  8
P-SANR-FIXT
100
AcDbEllipse
 10
804.6148455245994
 20
1806.24587873007
 30
0.0
 11
0.0
 21
26.49599757301495
 31
0.0
210
0.0
220
0.0
230
1.0
 40
0.9396926207859191
 41
6.091133574983651
 42
6.125996299373047
  0
ELLIPSE
  5
2AC
330
1B5
100
AcDbEntity
  8
P-SANR-FIXT
100
AcDbEllipse
 10
804.6148455245994
 20
1806.24587873007
 30
0.0
 11
0.0
 21
26.49599757301515
 31
0.0
210
0.0
220
0.0
230
1.0
 40
0.9396926207859131
 41
6.184179595999943
 42
6.204614672626484
  0
ELLIPSE
  5
2AD
330
1B5
100
AcDbEntity
  8
P-SANR-FIXT
100
AcDbEllipse
 10
804.6148455245994
 20
1806.24587873007
 30
0.0
 11
0.0
 21
26.49599757301533
 31
0.0
210
0.0
220
0.0
230
1.0
 40
0.9396926207859007
 41
3.220163288142861
 42
3.240598364657901
  0
ELLIPSE
  5
2AE
330
1B5
100
AcDbEntity
  8
P-SANR-FIXT
100
AcDbEllipse
 10
804.6148455245994
 20
1806.24587873007
 30
0.0
 11
0.0
 21
26.49599757301534
 31
0.0
210
0.0
220
0.0
230
0.9999999999999998
 40
0.9396926207859001
 41
3.298781661396311
 42
3.333644385719573
  0
ELLIPSE
  5
2AF
330
1B5
100
AcDbEntity
  8
P-SANR-FIXT
100
AcDbEllipse
 10
804.6148455245994
 20
1806.24587873007
 30
0.0
 11
0.0
 21
26.49599757301522
 31
0.0
210
0.0
220
0.0
230
1.0
 40
0.9396926207859001
 41
3.377430182244716
 42
3.420895172164948
  0
ELLIPSE
  5
2B0
330
1B5
100
AcDbEntity
  8
P-SANR-FIXT
100
AcDbEllipse
 10
804.6148455245994
 20
1806.24587873007
 30
0.0
 11
0.0
 21
26.49599757301524
 31
0.0
210
0.0
220
0.0
230
1.0
 40
0.9396926207859024
 41
3.45609171849322
 42
3.613382025647533
  0
ELLIPSE
  5
2B1
330
1B5
100
AcDbEntity
  8
P-SANR-FIXT
100
AcDbEllipse
 10
804.6148455245994
 20
1806.24587873007
 30
0.0
 11
0.0
 21
26.49599757301506
 31
0.0
210
0.0
220
0.0
230
0.9999999999999998
 40
0.9396926207859095
 41
3.647688298409879
 42
3.691969810638198
  0
ELLIPSE
  5
2B2
330
1B5
100
AcDbEntity
  8
P-SANR-FIXT
100
AcDbEllipse
 10
804.6148455245994
 20
1806.24587873007
 30
0.0
 11
0.0
 21
26.49599757301518
 31
0.0
210
0.0
220
0.0
230
1.0
 40
0.939692620785909
 41
3.734939084852357
 42
3.769924399430294
  0
ELLIPSE
  5
2B3
330
1B5
100
AcDbEntity
  8
P-SANR-FIXT
100
AcDbEllipse
 10
804.6148455245994
 20
1806.24587873007
 30
0.0
 11
0.0
 21
26.49599757301512
 31
0.0
210
0.0
220
0.0
230
1.0
 40
0.9396926207859046
 41
3.839724354387509
 42
3.848894157287871
  0
ELLIPSE
  5
2B4
330
1B5
100
AcDbEntity
  8
P-SANR-FIXT
100
AcDbEllipse
 10
804.6148455245994
 20
1806.24587873007
 30
0.0
 11
0.0
 21
26.49599757301486
 31
0.0
210
0.0
220
0.0
230
1.0
 40
0.9396926207859152
 41
3.888628694221696
 42
3.987647750581692
  0
ELLIPSE
  5
2B5
330
1B5
100
AcDbEntity
  8
P-SANR-FIXT
100
AcDbEllipse
 10
804.6148455245994
 20
1806.24587873007
 30
0.0
 11
0.0
 21
26.49599757301523
 31
0.0
210
0.0
220
0.0
230
0.9999999999999998
 40
0.939692620785907
 41
4.005087476685092
 42
4.021143717124768
  0
ELLIPSE
  5
2B6
330
1B5
100
AcDbEntity
  8
P-SANR-FIXT
100
AcDbEllipse
 10
804.6148455245994
 20
1806.24587873007
 30
0.0
 11
0.0
 21
26.49599757301512
 31
0.0
210
0.0
220
0.0
230
1.0
 40
0.9396926207859074
 41
4.083496285140686
 42
4.101523742186657
  0
ELLIPSE
  5
2B7
330
1B5
100
AcDbEntity
  8
P-SANR-FIXT
100
AcDbEllipse
 10
804.6148455245994
 20
1806.24587873007
 30
0.0
 11
0.0
 21
26.49599757301512
 31
0.0
210
0.0
220
0.0
230
1.0
 40
0.9396926207859056
 41
4.162011823334938
 42
4.188790204786371
  0
ELLIPSE
  5
2B8
330
1B5
100
AcDbEntity
  8
P-SANR-FIXT
100
AcDbEllipse
 10
804.6148455245994
 20
1806.24587873007
 30
0.0
 11
0.0
 21
26.49599757301517
 31
0.0
210
0.0
220
0.0
230
0.9999999999999998
 40
0.9396926207859019
 41
4.24059960832567
 42
4.39788991548007
  0
ELLIPSE
  5
2B9
330
1B5
100
AcDbEntity
  8
P-SANR-FIXT
100
AcDbEllipse
 10
804.6148455245994
 20
1806.24587873007
 30
0.0
 11
0.0
 21
26.49599757301505
 31
0.0
210
0.0
220
0.0
230
1.0
 40
0.939692620785912
 41
4.445602093965575
 42
4.476551451728608
  0
ELLIPSE
  5
2BA
330
1B5
100
AcDbEntity
  8
P-SANR-FIXT
100
AcDbEllipse
 10
804.6148455245994
 20
1806.24587873007
 30
0.0
 11
0.0
 21
26.495997573015
 31
0.0
210
0.0
220
0.0
230
1.0
 40
0.9396926207859122
 41
4.537856055185247
 42
4.555199972577033
  0
ELLIPSE
  5
2BB
330
1B5
100
AcDbEntity
  8
P-SANR-FIXT
100
AcDbEllipse
 10
804.6148455245994
 20
1806.24587873007
 30
0.0
 11
0.0
 21
26.49599757301512
 31
0.0
210
0.0
220
0.0
230
1.0
 40
0.9396926207859069
 41
4.581256917729454
 42
4.712388980384668
  0
SPLINE
  5
2BC
330
1B5
100
AcDbEntity
  8
P-SANR-FIXT
100
AcDbSpline
210
0.0
220
0.0
230
1.0
 70
     8
 71
     3
 72
    14
 73
    10
 74
     0
 42
0.000000001
 43
0.0000000001
 40
-0.5209486125218403
 40
-0.5209486125218403
 40
-0.5209486125218403
 40
-0.5209486125218403
 40
-0.5
 40
-0.4722222222222223
 40
-0.4444444444444445
 40
-0.4166666666666666
 40
-0.3888888888888888
 40
-0.3333333333333333
 40
-0.2777777777777778
 40
-0.2777777777777778
 40
-0.2777777777777778
 40
-0.2777777777777778
 10
839.9873526027377
 20
1816.263045427863
 30
0.0
 10
839.9672272127705
 20
1816.350251856709
 30
0.0
 10
839.9219126884567
 20
1816.544879285567
 30
0.0
 10
839.8622724699592
 20
1816.819576834766
 30
0.0
 10
839.8208923788731
 20
1817.078852821896
 30
0.0
 10
839.8005080726649
 20
1817.297708148456
 30
0.0
 10
839.7937068738027
 20
1817.533899659266
 30
0.0
 10
839.8431733590708
 20
1817.721142886794
 30
0.0
 10
839.9632039246748
 20
1817.753267367547
 30
0.0
 10
840.0373742196487
 20
1817.742141695781
 30
0.0
  0
ELLIPSE
  5
2BD
330
1B5
100
AcDbEntity
  8
P-SANR-FIXT
100
AcDbEllipse
 10
804.7872245069131
 20
1806.24587873007
 30
0.0
 11
0.0
 21
27.00000000000003
 31
0.0
210
0.0
220
0.0
230
1.0
 40
0.9396926207859094
 41
4.712388980384693
 42
6.71287644812025
  0
ELLIPSE
  5
2BE
330
1B5
100
AcDbEntity
  8
P-SANR-FIXT
100
AcDbEllipse
 10
804.7872245069131
 20
1806.24587873007
 30
0.0
 11
0.0
 21
27.00000000000022
 31
0.0
210
0.0
220
0.0
230
0.9999999999999998
 40
0.9396926207859026
 41
2.71192400442873
 42
4.712388980384668
  0
LINE
  5
2BF
330
1B5
100
AcDbEntity
  8
P-SANR-FIXT
100
AcDbLine
 10
850.6148455245991
 20
1819.695878730069
 30
0.0
 11
850.6148455245991
 21
1816.257770792939
 31
0.0
  0
ENDBLK
  5
2C1
330
1B5
100
AcDbEntity
  8
0
100
AcDbBlockEnd
  0
BLOCK
  5
3AA
330
2C3
100
AcDbEntity
  8
0
100
AcDbBlockBegin
  2
Automatic flow rate regulator valve_Caleffi_121 DN15 - 1_2___Pressure gauge-V2-Est - Idraulica
 70
     0
 10
0.0
 20
0.0
 30
0.0
  3
Automatic flow rate regulator valve_Caleffi_121 DN15 - 1_2___Pressure gauge-V2-Est - Idraulica
  1

  0
LINE
  5
2C4
330
2C3
100
AcDbEntity
  8
M-PIPE
100
AcDbLine
 10
1145.114353943064
 20
2109.994333983195
 30
0.0
 11
1141.838149239722
 21
2109.994333983195
 31
0.0
1001
REVIT
1002
{
1070
     3
1000
923395
1002
}
  0
LINE
  5
2C5
330
2C3
100
AcDbEntity
  8
M-PIPE
100
AcDbLine
 10
1145.114353943062
 20
2109.990602514525
 30
0.0
 11
1145.114353943062
 21
2103.596980909916
 31
0.0
1001
REVIT
1002
{
1070
     3
1000
923395
1002
}
  0
LINE
  5
2C6
330
2C3
100
AcDbEntity
  8
M-PIPE
100
AcDbLine
 10
1104.627674553999
 20
2077.058714275567
 30
0.0
 11
1104.87950653566
 21
2079.433128561163
 31
0.0
1001
REVIT
1002
{
1070
     3
1000
923255
1002
}
  0
LINE
  5
2C7
330
2C3
100
AcDbEntity
  8
M-PIPE
100
AcDbLine
 10
1149.601033332242
 20
2077.058714275566
 30
0.0
 11
1149.34920135058
 21
2079.433128561162
 31
0.0
1001
REVIT
1002
{
1070
     3
1000
923255
1002
}
  0
ELLIPSE
  5
2C8
330
2C3
100
AcDbEntity
  8
M-PIPE
100
AcDbEllipse
 10
1127.114353943119
 20
2076.793952232061
 30
0.0
 11
22.50000000000031
 21
0.0
 31
0.0
210
0.0
220
0.0
230
1.0
 40
0.3420201433256457
 41
3.107180865626297
 42
4.712388980384663
1001
REVIT
1002
{
1070
     3
1000
923255
1002
}
  0
ELLIPSE
  5
2C9
330
2C3
100
AcDbEntity
  8
M-PIPE
100
AcDbEllipse
 10
1345.799698248709
 20
2074.71441292259
 30
0.0
 11
196.7973242973396
 21
154.1771300524438
 31
0.0
210
0.0
220
0.0
230
0.9999999999999998
 40
0.9076733711903706
 41
2.378844999662752
 42
2.419159589582335
1001
REVIT
1002
{
1070
     3
1000
923255
1002
}
  0
ELLIPSE
  5
2CA
330
2C3
100
AcDbEntity
  8
M-PIPE
100
AcDbEllipse
 10
1127.114353943119
 20
2079.143183784002
 30
0.0
 11
22.25100234637501
 21
0.0
 31
0.0
210
0.0
220
0.0
230
1.0
 40
0.3420201433256586
 41
2.881410084006095
 42
3.405008859604776
1001
REVIT
1002
{
1070
     3
1000
923255
1002
}
  0
SPLINE
  5
2CB
330
2C3
100
AcDbEntity
  8
M-PIPE
100
AcDbSpline
210
0.0
220
0.0
230
1.0
 70
     8
 71
     3
 72
     9
 73
     5
 74
     0
 42
0.000000001
 43
0.0000000001
 40
-1.0
 40
-1.0
 40
-1.0
 40
-1.0
 40
-0.5
 40
-0.3206157952172374
 40
-0.3206157952172374
 40
-0.3206157952172374
 40
-0.3206157952172374
 10
1105.612252983279
 20
2081.100984274363
 30
0.0
 10
1105.781197322923
 20
2082.655605386692
 30
0.0
 10
1106.032800830129
 20
2084.76327172562
 30
0.0
 10
1106.314361478832
 20
2086.86454680201
 30
0.0
 10
1106.39079310282
 20
2087.418920655573
 30
0.0
1001
REVIT
1002
{
1070
     3
1000
923255
1002
}
  0
ELLIPSE
  5
2CC
330
2C3
100
AcDbEntity
  8
M-PIPE
100
AcDbEllipse
 10
908.4476320871777
 20
2034.633710899742
 30
0.0
 11
196.7973242973906
 21
154.1771300524654
 31
0.0
210
0.0
220
0.0
230
0.9999999999999998
 40
0.9076733711903829
 41
5.769345366209279
 42
5.796734461826934
1001
REVIT
1002
{
1070
     3
1000
923255
1002
}
  0
ELLIPSE
  5
2CD
330
2C3
100
AcDbEntity
  8
M-PIPE
100
AcDbEllipse
 10
1127.114353943119
 20
2079.143183784002
 30
0.0
 11
22.25100234637491
 21
0.0
 31
0.0
210
0.0
220
0.0
230
1.0
 40
0.3420201433256512
 41
6.019769101164466
 42
6.543367876763116
1001
REVIT
1002
{
1070
     3
1000
923255
1002
}
  0
SPLINE
  5
2CE
330
2C3
100
AcDbEntity
  8
M-PIPE
100
AcDbSpline
210
0.0
220
0.0
230
1.0
 70
     8
 71
     3
 72
     9
 73
     5
 74
     0
 42
0.000000001
 43
0.0000000001
 40
-1.0
 40
-1.0
 40
-1.0
 40
-1.0
 40
-0.5
 40
0.0
 40
0.0
 40
0.0
 40
0.0
 10
1148.597832453253
 20
2077.16161291815
 30
0.0
 10
1148.428888113609
 20
2078.747199507766
 30
0.0
 10
1148.058547582531
 20
2081.917397222199
 30
0.0
 10
1147.62330334787
 20
2085.085644007037
 30
0.0
 10
1147.389455304644
 20
2086.669279667057
 30
0.0
1001
REVIT
1002
{
1070
     3
1000
923255
1002
}
  0
ELLIPSE
  5
2CF
330
2C3
100
AcDbEntity
  8
M-PIPE
100
AcDbEllipse
 10
1127.114353943119
 20
2076.793952232061
 30
0.0
 11
-22.5
 21
0.0000000000003411
 31
0.0
210
0.0
220
0.0
230
1.0
 40
0.3420201433256403
 41
1.570796326794883
 42
3.176004441553152
1001
REVIT
1002
{
1070
     3
1000
923255
1002
}
  0
LINE
  5
2D0
330
2C3
100
AcDbEntity
  8
M-PIPE
100
AcDbLine
 10
1106.853579661354
 20
2086.670592658259
 30
0.0
 11
1106.839252581593
 21
2086.669279667058
 31
0.0
1001
REVIT
1002
{
1070
     3
1000
923255
1002
}
  0
ELLIPSE
  5
2D1
330
2C3
100
AcDbEntity
  8
M-PIPE
100
AcDbEllipse
 10
1127.114353943119
 20
2088.540109991885
 30
0.0
 11
-21.0
 21
0.0000000000005142
 31
0.0
210
0.0
220
0.0
230
1.0
 40
0.342020143325672
 41
1.498169448776191
 42
1.5707963267949
1001
REVIT
1002
{
1070
     3
1000
923255
1002
}
  0
ELLIPSE
  5
2D2
330
2C3
100
AcDbEntity
  8
M-PIPE
100
AcDbEllipse
 10
1127.114353943119
 20
2088.540109991885
 30
0.0
 11
21.0000000000001
 21
0.0
 31
0.0
210
0.0
220
0.0
230
1.0
 40
0.3420201433256542
 41
4.567135224347268
 42
4.635584900655166
1001
REVIT
1002
{
1070
     3
1000
923255
1002
}
  0
ELLIPSE
  5
2D3
330
2C3
100
AcDbEntity
  8
M-PIPE
100
AcDbEllipse
 10
1127.114353943119
 20
2088.540109991885
 30
0.0
 11
20.99999999999995
 21
0.0
 31
0.0
210
0.0
220
0.0
230
1.0
 40
0.3420201433256524
 41
4.494508346328558
 42
4.558442731088867
1001
REVIT
1002
{
1070
     3
1000
923255
1002
}
  0
ELLIPSE
  5
2D4
330
2C3
100
AcDbEntity
  8
M-PIPE
100
AcDbEllipse
 10
1127.114353943119
 20
2088.540109991885
 30
0.0
 11
21.00000000000001
 21
0.0
 31
0.0
210
0.0
220
0.0
230
1.0
 40
0.3420201433256631
 41
4.421881468309843
 42
4.480961262037451
1001
REVIT
1002
{
1070
     3
1000
923255
1002
}
  0
ELLIPSE
  5
2D5
330
2C3
100
AcDbEntity
  8
M-PIPE
100
AcDbEllipse
 10
1127.114353943119
 20
2088.540109991885
 30
0.0
 11
20.99999999999985
 21
0.0
 31
0.0
210
0.0
220
0.0
230
1.0
 40
0.3420201433256552
 41
4.349254590291145
 42
4.403140303247273
1001
REVIT
1002
{
1070
     3
1000
923255
1002
}
  0
ELLIPSE
  5
2D6
330
2C3
100
AcDbEntity
  8
M-PIPE
100
AcDbEllipse
 10
1127.114353943119
 20
2088.540109991885
 30
0.0
 11
20.99999999999994
 21
0.0
 31
0.0
210
0.0
220
0.0
230
1.0
 40
0.3420201433256482
 41
4.27662771227243
 42
4.32498099588772
1001
REVIT
1002
{
1070
     3
1000
923255
1002
}
  0
ELLIPSE
  5
2D7
330
2C3
100
AcDbEntity
  8
M-PIPE
100
AcDbEllipse
 10
1127.114353943119
 20
2088.540109991885
 30
0.0
 11
21.0000000000001
 21
0.0
 31
0.0
210
0.0
220
0.0
230
1.0
 40
0.3420201433256447
 41
4.167318038250991
 42
4.246419371915035
1001
REVIT
1002
{
1070
     3
1000
923255
1002
}
  0
ELLIPSE
  5
2D8
330
2C3
100
AcDbEntity
  8
M-PIPE
100
AcDbEllipse
 10
1127.114353943119
 20
2088.540109991885
 30
0.0
 11
20.99999999999999
 21
0.0
 31
0.0
210
0.0
220
0.0
230
1.0
 40
0.3420201433256554
 41
4.0080607729325
 42
4.131373956234996
1001
REVIT
1002
{
1070
     3
1000
923255
1002
}
  0
ELLIPSE
  5
2D9
330
2C3
100
AcDbEntity
  8
M-PIPE
100
AcDbEllipse
 10
1127.114353943119
 20
2088.540109991885
 30
0.0
 11
20.99999999999993
 21
0.0
 31
0.0
210
0.0
220
0.0
230
1.0
 40
0.3420201433256657
 41
3.928446042644181
 42
3.986120200197574
1001
REVIT
1002
{
1070
     3
1000
923255
1002
}
  0
ELLIPSE
  5
2DA
330
2C3
100
AcDbEntity
  8
M-PIPE
100
AcDbEllipse
 10
1127.114353943119
 20
2088.540109991885
 30
0.0
 11
21.00000000000011
 21
0.0
 31
0.0
210
0.0
220
0.0
230
1.0
 40
0.3420201433256556
 41
3.455859516826796
 42
3.913493322178885
1001
REVIT
1002
{
1070
     3
1000
923255
1002
}
  0
ELLIPSE
  5
2DB
330
2C3
100
AcDbEntity
  8
M-PIPE
100
AcDbEllipse
 10
1127.114353943119
 20
2088.540109991886
 30
0.0
 11
20.99999999999993
 21
0.0
 31
0.0
210
0.0
220
0.0
230
0.9999999999999998
 40
0.3420201433256445
 41
5.511284638590412
 42
5.969193062784394
1001
REVIT
1002
{
1070
     3
1000
923255
1002
}
  0
ELLIPSE
  5
2DC
330
2C3
100
AcDbEntity
  8
M-PIPE
100
AcDbEllipse
 10
1127.114353943119
 20
2088.540109991886
 30
0.0
 11
20.99999999999987
 21
0.0
 31
0.0
210
0.0
220
0.0
230
1.0
 40
0.3420201433256508
 41
5.438657760571729
 42
5.497400722029669
1001
REVIT
1002
{
1070
     3
1000
923255
1002
}
  0
ELLIPSE
  5
2DD
330
2C3
100
AcDbEntity
  8
M-PIPE
100
AcDbEllipse
 10
1127.114353943119
 20
2088.540109991886
 30
0.0
 11
20.99999999999994
 21
0.0
 31
0.0
210
0.0
220
0.0
230
1.0
 40
0.3420201433256576
 41
5.366030882553034
 42
5.41748972961175
1001
REVIT
1002
{
1070
     3
1000
923255
1002
}
  0
ELLIPSE
  5
2DE
330
2C3
100
AcDbEntity
  8
M-PIPE
100
AcDbEllipse
 10
1127.114353943119
 20
2088.540109991886
 30
0.0
 11
20.99999999999971
 21
0.0
 31
0.0
210
0.0
220
0.0
230
1.0
 40
0.3420201433256616
 41
5.178142699310011
 42
5.337402076426624
1001
REVIT
1002
{
1070
     3
1000
923255
1002
}
  0
ELLIPSE
  5
2DF
330
2C3
100
AcDbEntity
  8
M-PIPE
100
AcDbEllipse
 10
1127.114353943119
 20
2088.540109991886
 30
0.0
 11
20.99999999999974
 21
0.0
 31
0.0
210
0.0
220
0.0
230
1.0
 40
0.3420201433256608
 41
5.099455029304865
 42
5.148150248496923
1001
REVIT
1002
{
1070
     3
1000
923255
1002
}
  0
ELLIPSE
  5
2E0
330
2C3
100
AcDbEntity
  8
M-PIPE
100
AcDbEllipse
 10
1127.114353943119
 20
2088.540109991886
 30
0.0
 11
20.99999999999977
 21
0.0
 31
0.0
210
0.0
220
0.0
230
1.0
 40
0.3420201433256595
 41
5.021250582074038
 42
5.075523370478226
1001
REVIT
1002
{
1070
     3
1000
923255
1002
}
  0
ELLIPSE
  5
2E1
330
2C3
100
AcDbEntity
  8
M-PIPE
100
AcDbEllipse
 10
1127.114353943119
 20
2088.540109991886
 30
0.0
 11
20.99999999999991
 21
0.0
 31
0.0
210
0.0
220
0.0
230
1.0
 40
0.3420201433256574
 41
4.943442875959062
 42
5.005845114333869
1001
REVIT
1002
{
1070
     3
1000
923255
1002
}
  0
ELLIPSE
  5
2E2
330
2C3
100
AcDbEntity
  8
M-PIPE
100
AcDbEllipse
 10
1127.114353943119
 20
2088.540109991886
 30
0.0
 11
20.99999999999984
 21
0.0
 31
0.0
210
0.0
220
0.0
230
1.0
 40
0.3420201433256512
 41
4.866031523767481
 42
4.930269614440807
1001
REVIT
1002
{
1070
     3
1000
923255
1002
}
  0
ELLIPSE
  5
2E3
330
2C3
100
AcDbEntity
  8
M-PIPE
100
AcDbEllipse
 10
1127.114353943119
 20
2088.540109991886
 30
0.0
 11
20.99999999999992
 21
0.0
 31
0.0
210
0.0
220
0.0
230
1.0
 40
0.34202014332566
 41
4.789014596302667
 42
4.857642736422101
1001
REVIT
1002
{
1070
     3
1000
923255
1002
}
  0
ELLIPSE
  5
2E4
330
2C3
100
AcDbEntity
  8
M-PIPE
100
AcDbEllipse
 10
1127.114353943119
 20
2088.540109991886
 30
0.0
 11
20.99999999999981
 21
0.0
 31
0.0
210
0.0
220
0.0
230
1.0
 40
0.3420201433256622
 41
4.712388980384683
 42
4.788188374674602
1001
REVIT
1002
{
1070
     3
1000
923255
1002
}
  0
LINE
  5
2E5
330
2C3
100
AcDbEntity
  8
M-PIPE
100
AcDbLine
 10
1147.389455304644
 20
2086.669279667057
 30
0.0
 11
1147.375128224808
 21
2086.670592658265
 31
0.0
1001
REVIT
1002
{
1070
     3
1000
923255
1002
}
  0
LINE
  5
2E6
330
2C3
100
AcDbEntity
  8
M-PIPE
100
AcDbLine
 10
1106.085998527912
 20
2081.057568327628
 30
0.0
 11
1105.612252983279
 21
2081.100984274363
 31
0.0
1001
REVIT
1002
{
1070
     3
1000
923255
1002
}
  0
LINE
  5
2E7
330
2C3
100
AcDbEntity
  8
M-PIPE
100
AcDbLine
 10
1148.616454902958
 20
2081.100984274363
 30
0.0
 11
1148.142709358313
 21
2081.057568327627
 31
0.0
1001
REVIT
1002
{
1070
     3
1000
923255
1002
}
  0
LINE
  5
2E8
330
2C3
100
AcDbEntity
  8
M-PIPE
100
AcDbLine
 10
1100.614353943131
 20
2053.301636712395
 30
0.0
 11
1100.61435394313
 21
2050.482558850038
 31
0.0
1001
REVIT
1002
{
1070
     3
1000
923255
1002
}
  0
LINE
  5
2E9
330
2C3
100
AcDbEntity
  8
M-PIPE
100
AcDbLine
 10
1153.614353943069
 20
2050.482558850037
 30
0.0
 11
1153.614353943069
 21
2053.301636712395
 31
0.0
1001
REVIT
1002
{
1070
     3
1000
923255
1002
}
  0
LINE
  5
2EA
330
2C3
100
AcDbEntity
  8
M-PIPE
100
AcDbLine
 10
1101.542132782426
 20
2060.634624448934
 30
0.0
 11
1101.542132782426
 21
2053.301636712395
 31
0.0
1001
REVIT
1002
{
1070
     3
1000
923255
1002
}
  0
LINE
  5
2EB
330
2C3
100
AcDbEntity
  8
M-PIPE
100
AcDbLine
 10
1152.686575103774
 20
2053.301636712395
 30
0.0
 11
1152.686575103774
 21
2060.634624448934
 31
0.0
1001
REVIT
1002
{
1070
     3
1000
923255
1002
}
  0
LINE
  5
2EC
330
2C3
100
AcDbEntity
  8
M-PIPE
100
AcDbLine
 10
1103.615788745381
 20
2061.847686054834
 30
0.0
 11
1104.627742862143
 21
2077.05939205655
 31
0.0
1001
REVIT
1002
{
1070
     3
1000
923255
1002
}
  0
LINE
  5
2ED
330
2C3
100
AcDbEntity
  8
M-PIPE
100
AcDbLine
 10
1150.612919140819
 20
2061.847686054825
 30
0.0
 11
1149.600965024058
 21
2077.059392056542
 31
0.0
1001
REVIT
1002
{
1070
     3
1000
923255
1002
}
  0
ELLIPSE
  5
2EE
330
2C3
100
AcDbEntity
  8
M-PIPE
100
AcDbEllipse
 10
1127.114353943098
 20
2050.482558850037
 30
0.0
 11
26.49999999996908
 21
0.0
 31
0.0
210
0.0
220
0.0
230
1.0
 40
0.3420201433256662
 41
3.141592653589793
 42
3.220132469929531
1001
REVIT
1002
{
1070
     3
1000
923255
1002
}
  0
ELLIPSE
  5
2EF
330
2C3
100
AcDbEntity
  8
M-PIPE
100
AcDbEllipse
 10
1127.114353943098
 20
2050.482558850037
 30
0.0
 11
26.49999999996918
 21
0.0
 31
0.0
210
0.0
220
0.0
230
1.0
 40
0.342020143325667
 41
3.228878811266637
 42
3.298672286269282
1001
REVIT
1002
{
1070
     3
1000
923255
1002
}
  0
ELLIPSE
  5
2F0
330
2C3
100
AcDbEntity
  8
M-PIPE
100
AcDbEllipse
 10
1127.114353943098
 20
2050.482558850037
 30
0.0
 11
26.49999999996914
 21
0.0
 31
0.0
210
0.0
220
0.0
230
1.0
 40
0.3420201433256628
 41
3.316200999600228
 42
3.389546226566338
1001
REVIT
1002
{
1070
     3
1000
923255
1002
}
  0
ELLIPSE
  5
2F1
330
2C3
100
AcDbEntity
  8
M-PIPE
100
AcDbEllipse
 10
1127.114353943098
 20
2050.482558850037
 30
0.0
 11
26.49999999996912
 21
0.0
 31
0.0
210
0.0
220
0.0
230
0.9999999999999998
 40
0.3420201433256717
 41
3.403541746059153
 42
3.489003038759788
1001
REVIT
1002
{
1070
     3
1000
923255
1002
}
  0
ELLIPSE
  5
2F2
330
2C3
100
AcDbEntity
  8
M-PIPE
100
AcDbEllipse
 10
1127.114353943098
 20
2050.482558850037
 30
0.0
 11
26.49999999996897
 21
0.0
 31
0.0
210
0.0
220
0.0
230
1.0
 40
0.3420201433256706
 41
3.534291735288486
 42
3.576600991162521
1001
REVIT
1002
{
1070
     3
1000
923255
1002
}
  0
ELLIPSE
  5
2F3
330
2C3
100
AcDbEntity
  8
M-PIPE
100
AcDbEllipse
 10
1127.114353943098
 20
2050.482558850037
 30
0.0
 11
26.49999999996918
 21
0.0
 31
0.0
210
0.0
220
0.0
230
1.0
 40
0.3420201433256615
 41
3.612831551628219
 42
3.664238191065932
1001
REVIT
1002
{
1070
     3
1000
923255
1002
}
  0
ELLIPSE
  5
2F4
330
2C3
100
AcDbEntity
  8
M-PIPE
100
AcDbEllipse
 10
1127.114353943098
 20
2050.482558850037
 30
0.0
 11
26.49999999996921
 21
0.0
 31
0.0
210
0.0
220
0.0
230
1.0
 40
0.3420201433256621
 41
3.680572329962257
 42
3.751886635309492
1001
REVIT
1002
{
1070
     3
1000
923255
1002
}
  0
ELLIPSE
  5
2F5
330
2C3
100
AcDbEntity
  8
M-PIPE
100
AcDbEllipse
 10
1127.114353943098
 20
2050.482558850037
 30
0.0
 11
26.49999999996913
 21
0.0
 31
0.0
210
0.0
220
0.0
230
0.9999999999999998
 40
0.3420201433256703
 41
3.769911184307718
 42
3.83952796441971
1001
REVIT
1002
{
1070
     3
1000
923255
1002
}
  0
ELLIPSE
  5
2F6
330
2C3
100
AcDbEntity
  8
M-PIPE
100
AcDbEllipse
 10
1127.114353943098
 20
2050.482558850037
 30
0.0
 11
26.49999999996931
 21
0.0
 31
0.0
210
0.0
220
0.0
230
1.0
 40
0.3420201433256577
 41
3.84845100064746
 42
3.926990816987213
1001
REVIT
1002
{
1070
     3
1000
923255
1002
}
  0
ELLIPSE
  5
2F7
330
2C3
100
AcDbEntity
  8
M-PIPE
100
AcDbEllipse
 10
1127.114353943098
 20
2050.482558850037
 30
0.0
 11
26.49999999996906
 21
0.0
 31
0.0
210
0.0
220
0.0
230
0.9999999999999998
 40
0.3420201433256725
 41
3.927136291639334
 42
4.084070449666702
1001
REVIT
1002
{
1070
     3
1000
923255
1002
}
  0
ELLIPSE
  5
2F8
330
2C3
100
AcDbEntity
  8
M-PIPE
100
AcDbEllipse
 10
1127.114353943098
 20
2050.482558850037
 30
0.0
 11
26.49999999996912
 21
0.0
 31
0.0
210
0.0
220
0.0
230
1.0
 40
0.3420201433256697
 41
4.101267856191984
 42
4.162610266006437
1001
REVIT
1002
{
1070
     3
1000
923255
1002
}
  0
ELLIPSE
  5
2F9
330
2C3
100
AcDbEntity
  8
M-PIPE
100
AcDbEllipse
 10
1127.114353943098
 20
2050.482558850037
 30
0.0
 11
26.49999999996917
 21
0.0
 31
0.0
210
0.0
220
0.0
230
0.9999999999999998
 40
0.3420201433256673
 41
4.188489909096973
 42
4.266737904021647
1001
REVIT
1002
{
1070
     3
1000
923255
1002
}
  0
ELLIPSE
  5
2FA
330
2C3
100
AcDbEntity
  8
M-PIPE
100
AcDbEllipse
 10
1127.114353943098
 20
2050.482558850037
 30
0.0
 11
26.49999999996927
 21
0.0
 31
0.0
210
0.0
220
0.0
230
1.0
 40
0.3420201433256653
 41
4.275774743112023
 42
4.363098328247927
1001
REVIT
1002
{
1070
     3
1000
923255
1002
}
  0
ELLIPSE
  5
2FB
330
2C3
100
AcDbEntity
  8
M-PIPE
100
AcDbEllipse
 10
1127.114353943098
 20
2050.482558850037
 30
0.0
 11
26.49999999996908
 21
0.0
 31
0.0
210
0.0
220
0.0
230
1.0
 40
0.3420201433256734
 41
4.398229715025692
 42
4.712388980384674
1001
REVIT
1002
{
1070
     3
1000
923255
1002
}
  0
ELLIPSE
  5
2FC
330
2C3
100
AcDbEntity
  8
M-PIPE
100
AcDbEllipse
 10
1127.114353943098
 20
2050.482558850037
 30
0.0
 11
-26.49999999996931
 21
0.0000000000004253
 31
0.0
210
0.0
220
0.0
230
1.0
 40
0.3420201433256633
 41
1.570796326794894
 42
1.649336143134632
1001
REVIT
1002
{
1070
     3
1000
923255
1002
}
  0
ELLIPSE
  5
2FD
330
2C3
100
AcDbEntity
  8
M-PIPE
100
AcDbEllipse
 10
1127.114353943098
 20
2050.482558850037
 30
0.0
 11
26.4999999999692
 21
0.0
 31
0.0
210
0.0
220
0.0
230
0.9999999999999998
 40
0.3420201433256688
 41
4.799675138057893
 42
4.869468613064166
1001
REVIT
1002
{
1070
     3
1000
923255
1002
}
  0
ELLIPSE
  5
2FE
330
2C3
100
AcDbEntity
  8
M-PIPE
100
AcDbEllipse
 10
1127.114353943098
 20
2050.482558850037
 30
0.0
 11
26.49999999996945
 21
0.0
 31
0.0
210
0.0
220
0.0
230
0.9999999999999998
 40
0.3420201433256579
 41
4.886997326391448
 42
4.948008429403898
1001
REVIT
1002
{
1070
     3
1000
923255
1002
}
  0
ELLIPSE
  5
2FF
330
2C3
100
AcDbEntity
  8
M-PIPE
100
AcDbEllipse
 10
1127.114353943098
 20
2050.482558850037
 30
0.0
 11
26.49999999996925
 21
0.0
 31
0.0
210
0.0
220
0.0
230
1.0
 40
0.3420201433256561
 41
4.974338072850282
 42
5.037345838411815
1001
REVIT
1002
{
1070
     3
1000
923255
1002
}
  0
ELLIPSE
  5
300
330
2C3
100
AcDbEntity
  8
M-PIPE
100
AcDbEllipse
 10
1127.114353943098
 20
2050.482558850037
 30
0.0
 11
26.49999999996925
 21
0.0
 31
0.0
210
0.0
220
0.0
230
1.0
 40
0.3420201433256603
 41
5.06167963251985
 42
5.236288051670662
1001
REVIT
1002
{
1070
     3
1000
923255
1002
}
  0
ELLIPSE
  5
301
330
2C3
100
AcDbEntity
  8
M-PIPE
100
AcDbEllipse
 10
1127.114353943098
 20
2050.482558850037
 30
0.0
 11
26.49999999996934
 21
0.0
 31
0.0
210
0.0
220
0.0
230
1.0
 40
0.3420201433256619
 41
5.262167694762871
 42
5.323510104575586
1001
REVIT
1002
{
1070
     3
1000
923255
1002
}
  0
ELLIPSE
  5
302
330
2C3
100
AcDbEntity
  8
M-PIPE
100
AcDbEllipse
 10
1127.114353943098
 20
2050.482558850037
 30
0.0
 11
26.49999999996941
 21
0.0
 31
0.0
210
0.0
220
0.0
230
1.0
 40
0.3420201433256556
 41
5.327465892853065
 42
5.410640281128673
1001
REVIT
1002
{
1070
     3
1000
923255
1002
}
  0
ELLIPSE
  5
303
330
2C3
100
AcDbEntity
  8
M-PIPE
100
AcDbEllipse
 10
1127.114353943098
 20
2050.482558850037
 30
0.0
 11
26.49999999996931
 21
0.0
 31
0.0
210
0.0
220
0.0
230
1.0
 40
0.3420201433256522
 41
5.419247327442355
 42
5.576326960121829
1001
REVIT
1002
{
1070
     3
1000
923255
1002
}
  0
ELLIPSE
  5
304
330
2C3
100
AcDbEntity
  8
M-PIPE
100
AcDbEllipse
 10
1127.114353943098
 20
2050.482558850037
 30
0.0
 11
26.49999999996941
 21
0.0
 31
0.0
210
0.0
220
0.0
230
0.9999999999999998
 40
0.3420201433256565
 41
5.585249996347203
 42
5.654866776461583
1001
REVIT
1002
{
1070
     3
1000
923255
1002
}
  0
ELLIPSE
  5
305
330
2C3
100
AcDbEntity
  8
M-PIPE
100
AcDbEllipse
 10
1127.114353943098
 20
2050.482558850037
 30
0.0
 11
26.49999999996929
 21
0.0
 31
0.0
210
0.0
220
0.0
230
1.0
 40
0.342020143325652
 41
5.672891325457155
 42
5.744205630807108
1001
REVIT
1002
{
1070
     3
1000
923255
1002
}
  0
ELLIPSE
  5
306
330
2C3
100
AcDbEntity
  8
M-PIPE
100
AcDbEllipse
 10
1127.114353943098
 20
2050.482558850037
 30
0.0
 11
26.49999999996914
 21
0.0
 31
0.0
210
0.0
220
0.0
230
0.9999999999999998
 40
0.3420201433256546
 41
5.760539769700341
 42
5.811946409141045
1001
REVIT
1002
{
1070
     3
1000
923255
1002
}
  0
ELLIPSE
  5
307
330
2C3
100
AcDbEntity
  8
M-PIPE
100
AcDbEllipse
 10
1127.114353943098
 20
2050.482558850037
 30
0.0
 11
26.49999999996937
 21
0.0
 31
0.0
210
0.0
220
0.0
230
1.0
 40
0.3420201433256569
 41
5.848176969603254
 42
5.8904862254808
1001
REVIT
1002
{
1070
     3
1000
923255
1002
}
  0
ELLIPSE
  5
308
330
2C3
100
AcDbEntity
  8
M-PIPE
100
AcDbEllipse
 10
1127.114353943098
 20
2050.482558850037
 30
0.0
 11
26.49999999996933
 21
0.0
 31
0.0
210
0.0
220
0.0
230
1.0
 40
0.3420201433256384
 41
5.935774922005235
 42
5.969026041820508
1001
REVIT
1002
{
1070
     3
1000
923255
1002
}
  0
ELLIPSE
  5
309
330
2C3
100
AcDbEntity
  8
M-PIPE
100
AcDbEllipse
 10
1127.114353943098
 20
2050.482558850037
 30
0.0
 11
26.49999999996921
 21
0.0
 31
0.0
210
0.0
220
0.0
230
1.0
 40
0.342020143325654
 41
6.021236214710204
 42
6.108576961169137
1001
REVIT
1002
{
1070
     3
1000
923255
1002
}
  0
ELLIPSE
  5
30A
330
2C3
100
AcDbEntity
  8
M-PIPE
100
AcDbEllipse
 10
1127.114353943098
 20
2050.482558850037
 30
0.0
 11
26.49999999996936
 21
0.0
 31
0.0
210
0.0
220
0.0
230
1.0
 40
0.3420201433256511
 41
6.126105674500027
 42
6.195899149502725
1001
REVIT
1002
{
1070
     3
1000
923255
1002
}
  0
ELLIPSE
  5
30B
330
2C3
100
AcDbEntity
  8
M-PIPE
100
AcDbEllipse
 10
1127.114353943098
 20
2050.482558850037
 30
0.0
 11
26.49999999996918
 21
0.0
 31
0.0
210
0.0
220
0.0
230
1.0
 40
0.3420201433256508
 41
6.204645490839781
 42
6.28318530717953
1001
REVIT
1002
{
1070
     3
1000
923255
1002
}
  0
ELLIPSE
  5
30C
330
2C3
100
AcDbEntity
  8
M-PIPE
100
AcDbEllipse
 10
1127.114353943098
 20
2053.301636712394
 30
0.0
 11
-26.49999999996908
 21
0.0000000000005135
 31
0.0
210
0.0
220
0.0
230
1.0
 40
0.3420201433256577
 41
6.018136098265251
 42
7.853981633974484
1001
REVIT
1002
{
1070
     3
1000
923255
1002
}
  0
ELLIPSE
  5
30D
330
2C3
100
AcDbEntity
  8
M-PIPE
100
AcDbEllipse
 10
1127.114353943098
 20
2053.301636712394
 30
0.0
 11
26.49999999996931
 21
0.0
 31
0.0
210
0.0
220
0.0
230
1.0
 40
0.3420201433256559
 41
4.712388980384683
 42
6.548229664189359
1001
REVIT
1002
{
1070
     3
1000
923255
1002
}
  0
LINE
  5
30E
330
2C3
100
AcDbEntity
  8
M-PIPE
100
AcDbLine
 10
1152.313102708826
 20
2051.812314495638
 30
0.0
 11
1143.484824559036
 21
2046.582475489331
 31
0.0
1001
REVIT
1002
{
1070
     3
1000
923255
1002
}
  0
LINE
  5
30F
330
2C3
100
AcDbEntity
  8
M-PIPE
100
AcDbLine
 10
1135.942632092942
 20
2045.093153272583
 30
0.0
 11
1118.286075793252
 21
2045.093153272583
 31
0.0
1001
REVIT
1002
{
1070
     3
1000
923255
1002
}
  0
LINE
  5
310
330
2C3
100
AcDbEntity
  8
M-PIPE
100
AcDbLine
 10
1110.743883327222
 20
2046.582475489314
 30
0.0
 11
1101.915605177356
 21
2051.812314495667
 31
0.0
1001
REVIT
1002
{
1070
     3
1000
923255
1002
}
  0
ELLIPSE
  5
311
330
2C3
100
AcDbEntity
  8
M-PIPE
100
AcDbEllipse
 10
1127.114353943098
 20
2053.301636712394
 30
0.0
 11
25.57222116067392
 21
0.0
 31
0.0
210
0.0
220
0.0
230
1.0
 40
0.3420201433256565
 41
4.017674447043061
 42
4.359905962530552
1001
REVIT
1002
{
1070
     3
1000
923255
1002
}
  0
LINE
  5
312
330
2C3
100
AcDbEntity
  8
M-PIPE
100
AcDbLine
 10
1118.286075793254
 20
2045.093153272583
 30
0.0
 11
1118.286075793254
 21
2052.426141009121
 31
0.0
1001
REVIT
1002
{
1070
     3
1000
923255
1002
}
  0
LINE
  5
313
330
2C3
100
AcDbEntity
  8
M-PIPE
100
AcDbLine
 10
1110.74388332722
 20
2053.915463225854
 30
0.0
 11
1110.74388332722
 21
2046.582475489314
 31
0.0
1001
REVIT
1002
{
1070
     3
1000
923255
1002
}
  0
ELLIPSE
  5
314
330
2C3
100
AcDbEntity
  8
M-PIPE
100
AcDbEllipse
 10
1127.114353943098
 20
2053.301636712394
 30
0.0
 11
25.572221160674
 21
0.0
 31
0.0
210
0.0
220
0.0
230
1.0
 40
0.3420201433256618
 41
3.141592653589741
 42
3.312708411332967
1001
REVIT
1002
{
1070
     3
1000
923255
1002
}
  0
LINE
  5
315
330
2C3
100
AcDbEntity
  8
M-PIPE
100
AcDbLine
 10
1101.915605177356
 20
2051.812314495666
 30
0.0
 11
1101.915605177356
 21
2059.145302232205
 31
0.0
1001
REVIT
1002
{
1070
     3
1000
923255
1002
}
  0
ELLIPSE
  5
316
330
2C3
100
AcDbEntity
  8
M-PIPE
100
AcDbEllipse
 10
1127.114353943098
 20
2053.301636712394
 30
0.0
 11
25.57222116067403
 21
0.0
 31
0.0
210
0.0
220
0.0
230
0.9999999999999998
 40
0.3420201433256589
 41
5.064871998238757
 42
5.407103513729488
1001
REVIT
1002
{
1070
     3
1000
923255
1002
}
  0
LINE
  5
317
330
2C3
100
AcDbEntity
  8
M-PIPE
100
AcDbLine
 10
1143.484824559036
 20
2046.582475489331
 30
0.0
 11
1143.484824559036
 21
2053.91546322587
 31
0.0
1001
REVIT
1002
{
1070
     3
1000
923255
1002
}
  0
LINE
  5
318
330
2C3
100
AcDbEntity
  8
M-PIPE
100
AcDbLine
 10
1135.94263209294
 20
2052.426141009121
 30
0.0
 11
1135.94263209294
 21
2045.093153272582
 31
0.0
1001
REVIT
1002
{
1070
     3
1000
923255
1002
}
  0
ELLIPSE
  5
319
330
2C3
100
AcDbEntity
  8
M-PIPE
100
AcDbEllipse
 10
1127.114353943098
 20
2053.301636712394
 30
0.0
 11
-25.57222116067419
 21
0.0000000000000867
 31
0.0
210
0.0
220
0.0
230
1.0
 40
0.3420201433256567
 41
2.970476895843189
 42
3.141592653589798
1001
REVIT
1002
{
1070
     3
1000
923255
1002
}
  0
LINE
  5
31A
330
2C3
100
AcDbEntity
  8
M-PIPE
100
AcDbLine
 10
1152.313102708826
 20
2059.145302232177
 30
0.0
 11
1152.313102708826
 21
2051.812314495638
 31
0.0
1001
REVIT
1002
{
1070
     3
1000
923255
1002
}
  0
SPLINE
  5
31B
330
2C3
100
AcDbEntity
  8
M-PIPE
100
AcDbSpline
210
0.0
220
0.0
230
1.0
 70
     8
 71
     3
 72
     8
 73
     4
 74
     0
 42
0.000000001
 43
0.0000000001
 40
-0.1945193871626631
 40
-0.1945193871626631
 40
-0.1945193871626631
 40
-0.1945193871626631
 40
0.0
 40
0.0
 40
0.0
 40
0.0
 10
1103.652974550578
 20
2063.687713696114
 30
0.0
 10
1103.075469289883
 20
2063.210447260965
 30
0.0
 10
1102.496346165478
 20
2062.689191584152
 30
0.0
 10
1101.915605177362
 20
2062.123946665674
 30
0.0
1001
REVIT
1002
{
1070
     3
1000
923255
1002
}
  0
ELLIPSE
  5
31C
330
2C3
100
AcDbEntity
  8
M-PIPE
100
AcDbEllipse
 10
1127.114353943098
 20
2060.634624448933
 30
0.0
 11
25.57222116067411
 21
0.0
 31
0.0
210
0.0
220
0.0
230
1.0
 40
0.3420201433256603
 41
2.970476895845031
 42
3.312708411332968
1001
REVIT
1002
{
1070
     3
1000
923255
1002
}
  0
SPLINE
  5
31D
330
2C3
100
AcDbEntity
  8
M-PIPE
100
AcDbSpline
210
0.0
220
0.0
230
1.0
 70
     8
 71
     3
 72
     9
 73
     5
 74
     0
 42
0.000000001
 43
0.0000000001
 40
-1.0
 40
-1.0
 40
-1.0
 40
-1.0
 40
-0.5
 40
0.0
 40
0.0
 40
0.0
 40
0.0
 10
1101.915605177356
 20
2059.145302232206
 30
0.0
 10
1103.365605929773
 20
2058.854949510001
 30
0.0
 10
1106.286986373835
 20
2057.692956953405
 30
0.0
 10
1109.251124696351
 20
2055.368390172433
 30
0.0
 10
1110.743883327222
 20
2053.915463225852
 30
0.0
1001
REVIT
1002
{
1070
     3
1000
923255
1002
}
  0
ELLIPSE
  5
31E
330
2C3
100
AcDbEntity
  8
M-PIPE
100
AcDbEllipse
 10
1127.114353943098
 20
2060.634624448933
 30
0.0
 11
25.57222116067413
 21
0.0
 31
0.0
210
0.0
220
0.0
230
1.0
 40
0.3420201433256452
 41
4.017674447043071
 42
4.359905962530554
1001
REVIT
1002
{
1070
     3
1000
923255
1002
}
  0
SPLINE
  5
31F
330
2C3
100
AcDbEntity
  8
M-PIPE
100
AcDbSpline
210
0.0
220
0.0
230
1.0
 70
     8
 71
     3
 72
     9
 73
     5
 74
     0
 42
0.000000001
 43
0.0000000001
 40
-1.0
 40
-1.0
 40
-1.0
 40
-1.0
 40
-0.5
 40
0.0
 40
0.0
 40
0.0
 40
0.0
 10
1118.286075793252
 20
2052.426141009122
 30
0.0
 10
1119.742763640239
 20
2052.705586921531
 30
0.0
 10
1122.670831178868
 20
2053.127196160065
 30
0.0
 10
1125.628282406803
 20
2053.274240226035
 30
0.0
 10
1127.114353943098
 20
2053.279120965878
 30
0.0
1001
REVIT
1002
{
1070
     3
1000
923255
1002
}
  0
SPLINE
  5
320
330
2C3
100
AcDbEntity
  8
M-PIPE
100
AcDbSpline
210
0.0
220
0.0
230
1.0
 70
     8
 71
     3
 72
     9
 73
     5
 74
     0
 42
0.000000001
 43
0.0000000001
 40
-1.0
 40
-1.0
 40
-1.0
 40
-1.0
 40
-0.5
 40
0.0
 40
0.0
 40
0.0
 40
0.0
 10
1127.114353943098
 20
2053.279120965878
 30
0.0
 10
1128.600425479392
 20
2053.274240226035
 30
0.0
 10
1131.557876707327
 20
2053.127196160065
 30
0.0
 10
1134.485944245955
 20
2052.70558692153
 30
0.0
 10
1135.942632092942
 20
2052.426141009121
 30
0.0
1001
REVIT
1002
{
1070
     3
1000
923255
1002
}
  0
ELLIPSE
  5
321
330
2C3
100
AcDbEntity
  8
M-PIPE
100
AcDbEllipse
 10
1127.114353943098
 20
2060.634624448933
 30
0.0
 11
25.57222116067406
 21
0.0
 31
0.0
210
0.0
220
0.0
230
1.0
 40
0.3420201433256404
 41
5.064871998238722
 42
5.407103513729471
1001
REVIT
1002
{
1070
     3
1000
923255
1002
}
  0
SPLINE
  5
322
330
2C3
100
AcDbEntity
  8
M-PIPE
100
AcDbSpline
210
0.0
220
0.0
230
1.0
 70
     8
 71
     3
 72
     9
 73
     5
 74
     0
 42
0.000000001
 43
0.0000000001
 40
-1.0
 40
-1.0
 40
-1.0
 40
-1.0
 40
-0.5
 40
0.0
 40
0.0
 40
0.0
 40
0.0
 10
1143.484824559036
 20
2053.91546322587
 30
0.0
 10
1144.934825311441
 20
2055.343060564917
 30
0.0
 10
1147.856205755477
 20
2057.642297738349
 30
0.0
 10
1150.820344077968
 20
2058.829619902455
 30
0.0
 10
1152.313102708826
 20
2059.145302232176
 30
0.0
1001
REVIT
1002
{
1070
     3
1000
923255
1002
}
  0
ELLIPSE
  5
323
330
2C3
100
AcDbEntity
  8
M-PIPE
100
AcDbEllipse
 10
1127.114353943098
 20
2060.634624448933
 30
0.0
 11
25.57222116067392
 21
0.0
 31
0.0
210
0.0
220
0.0
230
1.0
 40
0.3420201433256549
 41
6.112069549432968
 42
6.454301064927517
1001
REVIT
1002
{
1070
     3
1000
923255
1002
}
  0
SPLINE
  5
324
330
2C3
100
AcDbEntity
  8
M-PIPE
100
AcDbSpline
210
0.0
220
0.0
230
1.0
 70
     8
 71
     3
 72
     8
 73
     4
 74
     0
 42
0.000000001
 43
0.0000000001
 40
-1.0
 40
-1.0
 40
-1.0
 40
-1.0
 40
-0.8015588586000543
 40
-0.8015588586000543
 40
-0.8015588586000543
 40
-0.8015588586000543
 10
1152.31310270882
 20
2062.123946665701
 30
0.0
 10
1151.737623100147
 20
2062.690534756538
 30
0.0
 10
1151.160459733826
 20
2063.213336872314
 30
0.0
 10
1150.581612609858
 20
2063.692353013029
 30
0.0
1001
REVIT
1002
{
1070
     3
1000
923255
1002
}
  0
ELLIPSE
  5
325
330
2C3
100
AcDbEntity
  8
M-PIPE
100
AcDbEllipse
 10
1127.114353943098
 20
2061.758870299465
 30
0.0
 11
-23.5
 21
0.0000000000004293
 31
0.0
210
0.0
220
0.0
230
1.0
 40
0.3420201433256536
 41
6.272134873927504
 42
7.853981633974481
1001
REVIT
1002
{
1070
     3
1000
923255
1002
}
  0
ELLIPSE
  5
326
330
2C3
100
AcDbEntity
  8
M-PIPE
100
AcDbEllipse
 10
1127.114353943098
 20
2061.758870299465
 30
0.0
 11
23.50000000000008
 21
0.0
 31
0.0
210
0.0
220
0.0
230
1.0
 40
0.3420201433256544
 41
4.712388980384673
 42
6.294235740431659
1001
REVIT
1002
{
1070
     3
1000
923255
1002
}
  0
ELLIPSE
  5
327
330
2C3
100
AcDbEntity
  8
M-PIPE
100
AcDbEllipse
 10
1127.114353943099
 20
2076.793952232039
 30
0.0
 11
-22.50000000000023
 21
0.000000000000426
 31
0.0
210
0.0
220
0.0
230
1.0
 40
0.3420201433256368
 41
6.248685391393845
 42
7.853981633974481
1001
REVIT
1002
{
1070
     3
1000
923255
1002
}
  0
ELLIPSE
  5
328
330
2C3
100
AcDbEntity
  8
M-PIPE
100
AcDbEllipse
 10
1127.114353943099
 20
2076.793952232039
 30
0.0
 11
22.50000000000011
 21
0.0
 31
0.0
210
0.0
220
0.0
230
0.9999999999999998
 40
0.3420201433256517
 41
4.712388980384673
 42
6.317685222965317
1001
REVIT
1002
{
1070
     3
1000
923255
1002
}
  0
LINE
  5
329
330
2C3
100
AcDbEntity
  8
P-SANR-FIXT
100
AcDbLine
 10
1109.796210118079
 20
2106.905293562663
 30
0.0
 11
1109.955372243377
 21
2107.219605467612
 31
0.0
  0
LWPOLYLINE
  5
32A
330
2C3
100
AcDbEntity
  8
P-SANR-FIXT
100
AcDbPolyline
 90
       37
 70
   128
 43
0.0
 10
1109.993053549357
 20
2107.294018164989
 10
1110.100609117269
 20
2107.506417913831
 10
1110.442019670672
 20
2108.05034046198
 10
1110.809613546666
 20
2108.539725443646
 10
1111.195351501874
 20
2108.979467404694
 10
1111.593750917084
 20
2109.375355896952
 10
1112.001377723079
 20
2109.733199109085
 10
1112.416295394572
 20
2110.058339552121
 10
1112.837585924502
 20
2110.355443082344
 10
1113.264978867094
 20
2110.628453145309
 10
1113.698584260442
 20
2110.880632302235
 10
1114.138710093828
 20
2111.11464203654
 10
1114.585742749183
 20
2111.33263310473
 10
1115.04007184356
 20
2111.536332332557
 10
1115.502045217598
 20
2111.72711973188
 10
1115.971943809335
 20
2111.906094122233
 10
1116.449969318764
 20
2112.074127569357
 10
1116.936239890547
 20
2112.231909865781
 10
1117.430790669569
 20
2112.379984555134
 10
1117.933577192187
 20
2112.518777970668
 10
1118.444480315917
 20
2112.648622596844
 10
1118.963311877343
 20
2112.769775861819
 10
1119.489820584823
 20
2112.882435271366
 10
1120.023697856441
 20
2112.986750619493
 10
1120.564583443272
 20
2113.082833862967
 10
1121.112070759258
 20
2113.170767125674
 10
1121.665711888975
 20
2113.250609201077
 10
1122.225022274371
 20
2113.322400843237
 10
1122.789485098715
 20
2113.386169075259
 10
1123.358555395046
 20
2113.441930695342
 10
1123.931663910612
 20
2113.489695122095
 10
1124.508220760085
 20
2113.529466690317
 10
1125.087618899934
 20
2113.561246484074
 10
1125.669237455141
 20
2113.585033774369
 10
1126.252444927961
 20
2113.60082711276
 10
1126.836602316867
 20
2113.608625119117
 10
1127.11435394308
 20
2113.609528045405
  0
LINE
  5
32B
330
2C3
100
AcDbEntity
  8
P-SANR-FIXT
100
AcDbLine
 10
1144.432263470084
 20
2106.90581738349
 30
0.0
 11
1144.273337412771
 21
2107.219601057789
 31
0.0
  0
LWPOLYLINE
  5
32C
330
2C3
100
AcDbEntity
  8
P-SANR-FIXT
100
AcDbPolyline
 90
       37
 70
   128
 43
0.0
 10
1144.236909597559
 20
2107.291524151442
 10
1144.127828454598
 20
2107.506894005912
 10
1143.786392002586
 20
2108.050769659207
 10
1143.418780074769
 20
2108.540111106875
 10
1143.033029631365
 20
2108.979814131019
 10
1142.634621357918
 20
2109.37566860143
 10
1142.226987853726
 20
2109.733482474297
 10
1141.812064611799
 20
2110.058597755795
 10
1141.390768961732
 20
2110.355679703668
 10
1140.96337093504
 20
2110.628671171813
 10
1140.529760263285
 20
2110.880834185363
 10
1140.089628849615
 20
2111.114829765138
 10
1139.642590283219
 20
2111.332808279995
 10
1139.18825496646
 20
2111.536496236691
 10
1138.726275106097
 20
2111.72727338751
 10
1138.256369826272
 20
2111.906238342214
 10
1137.778337495559
 20
2112.074262997711
 10
1137.292060039081
 20
2112.232037010967
 10
1136.797502379873
 20
2112.380103816915
 10
1136.294709045895
 20
2112.518889661731
 10
1135.783799239457
 20
2112.648726960198
 10
1135.264961178946
 20
2112.769873084785
 10
1134.738446206068
 20
2112.882525496863
 10
1134.204562948015
 20
2112.98683395515
 10
1133.663671694434
 20
2113.082910388502
 10
1133.116179067795
 20
2113.170836898881
 10
1132.56253301591
 20
2113.250672262694
 10
1132.003218125446
 20
2113.322457220911
 10
1131.438751238223
 20
2113.386218786778
 10
1130.86967734298
 20
2113.441973751254
 10
1130.296565711122
 20
2113.489731527834
 10
1129.720006243671
 20
2113.529496447911
 10
1129.14060599703
 20
2113.561269593496
 10
1128.558985856372
 20
2113.585050234583
 10
1127.97577732697
 20
2113.600836922501
 10
1127.391619415312
 20
2113.608628277424
 10
1127.11435394308
 20
2113.609528045405
  0
LINE
  5
32D
330
2C3
100
AcDbEntity
  8
P-SANR-FIXT
100
AcDbLine
 10
1106.146097112988
 20
2088.934873770172
 30
0.0
 11
1106.802619849315
 21
2092.81562899795
 31
0.0
  0
LINE
  5
32E
330
2C3
100
AcDbEntity
  8
P-SANR-FIXT
100
AcDbLine
 10
1106.813691101186
 20
2092.881071999693
 30
0.0
 11
1106.873690211627
 21
2093.23573125005
 31
0.0
  0
LINE
  5
32F
330
2C3
100
AcDbEntity
  8
P-SANR-FIXT
100
AcDbLine
 10
1148.082610773171
 20
2088.934873770177
 30
0.0
 11
1147.426088036845
 21
2092.81562899795
 31
0.0
  0
LINE
  5
330
330
2C3
100
AcDbEntity
  8
P-SANR-FIXT
100
AcDbLine
 10
1147.415016784974
 20
2092.881071999693
 30
0.0
 11
1147.355017674532
 21
2093.235731250055
 31
0.0
  0
ELLIPSE
  5
331
330
2C3
100
AcDbEntity
  8
P-SANR-FIXT
100
AcDbEllipse
 10
1127.114353943079
 20
2088.540109991861
 30
0.0
 11
20.99999999999841
 21
0.0
 31
0.0
210
0.0
220
0.0
230
1.0
 40
0.3420201433256547
 41
4.63808290473783
 42
4.712388980384672
  0
ELLIPSE
  5
332
330
2C3
100
AcDbEntity
  8
P-SANR-FIXT
100
AcDbEllipse
 10
1127.114353943079
 20
2088.540109991861
 30
0.0
 11
20.99999999999846
 21
0.0
 31
0.0
210
0.0
220
0.0
230
1.0
 40
0.3420201433256634
 41
4.490270481483243
 42
4.633849164044929
  0
ELLIPSE
  5
333
330
2C3
100
AcDbEntity
  8
P-SANR-FIXT
100
AcDbEllipse
 10
1127.114353943079
 20
2088.540109991861
 30
0.0
 11
20.99999999999845
 21
0.0
 31
0.0
210
0.0
220
0.0
230
1.0
 40
0.3420201433256542
 41
4.416769583972642
 42
4.476769531365432
  0
ELLIPSE
  5
334
330
2C3
100
AcDbEntity
  8
P-SANR-FIXT
100
AcDbEllipse
 10
1127.114353943079
 20
2088.540109991861
 30
0.0
 11
20.99999999999837
 21
0.0
 31
0.0
210
0.0
220
0.0
230
1.0
 40
0.3420201433256624
 41
4.270599735174828
 42
4.39822971502569
  0
ELLIPSE
  5
335
330
2C3
100
AcDbEntity
  8
P-SANR-FIXT
100
AcDbEllipse
 10
1127.114353943079
 20
2088.540109991861
 30
0.0
 11
20.99999999999862
 21
0.0
 31
0.0
210
0.0
220
0.0
230
1.0
 40
0.3420201433256639
 41
4.198107345204443
 42
4.24115008234621
  0
ELLIPSE
  5
336
330
2C3
100
AcDbEntity
  8
P-SANR-FIXT
100
AcDbEllipse
 10
1127.114353943079
 20
2088.540109991861
 30
0.0
 11
20.9999999999986
 21
0.0
 31
0.0
210
0.0
220
0.0
230
1.0
 40
0.3420201433256681
 41
4.126111796643272
 42
4.162610266006465
  0
ELLIPSE
  5
337
330
2C3
100
AcDbEntity
  8
P-SANR-FIXT
100
AcDbEllipse
 10
1127.114353943079
 20
2088.540109991861
 30
0.0
 11
20.99999999999859
 21
0.0
 31
0.0
210
0.0
220
0.0
230
1.0
 40
0.3420201433256608
 41
4.084070449666727
 42
4.102342314564602
  0
ELLIPSE
  5
338
330
2C3
100
AcDbEntity
  8
P-SANR-FIXT
100
AcDbEllipse
 10
1127.114353943079
 20
2088.540109991861
 30
0.0
 11
20.99999999999859
 21
0.0
 31
0.0
210
0.0
220
0.0
230
1.0
 40
0.3420201433256524
 41
4.005530633326999
 42
4.054432902190018
  0
ELLIPSE
  5
339
330
2C3
100
AcDbEntity
  8
P-SANR-FIXT
100
AcDbEllipse
 10
1127.114353943079
 20
2088.540109991861
 30
0.0
 11
20.99999999999855
 21
0.0
 31
0.0
210
0.0
220
0.0
230
1.0
 40
0.3420201433256532
 41
3.926990816987271
 42
3.982892299807906
  0
ELLIPSE
  5
33A
330
2C3
100
AcDbEntity
  8
P-SANR-FIXT
100
AcDbEllipse
 10
1127.114353943079
 20
2088.540109991861
 30
0.0
 11
20.99999999999861
 21
0.0
 31
0.0
210
0.0
220
0.0
230
0.9999999999999998
 40
0.3420201433256646
 41
3.848451000647509
 42
3.911312233849018
  0
ELLIPSE
  5
33B
330
2C3
100
AcDbEntity
  8
P-SANR-FIXT
100
AcDbEllipse
 10
1127.114353943079
 20
2088.540109991861
 30
0.0
 11
20.99999999999862
 21
0.0
 31
0.0
210
0.0
220
0.0
230
1.0
 40
0.3420201433256595
 41
3.769911184307741
 42
3.839514378401997
  0
ELLIPSE
  5
33C
330
2C3
100
AcDbEntity
  8
P-SANR-FIXT
100
AcDbEllipse
 10
1127.114353943079
 20
2088.540109991861
 30
0.0
 11
20.99999999999849
 21
0.0
 31
0.0
210
0.0
220
0.0
230
1.0
 40
0.342020143325654
 41
3.69515294025545
 42
3.767560675761217
  0
ELLIPSE
  5
33D
330
2C3
100
AcDbEntity
  8
P-SANR-FIXT
100
AcDbEllipse
 10
1127.114353943079
 20
2088.540109991861
 30
0.0
 11
20.99999999999848
 21
0.0
 31
0.0
210
0.0
220
0.0
230
1.0
 40
0.34202014332567
 41
3.622343444320892
 42
3.69137136796799
  0
ELLIPSE
  5
33E
330
2C3
100
AcDbEntity
  8
P-SANR-FIXT
100
AcDbEllipse
 10
1127.114353943079
 20
2088.540109991861
 30
0.0
 11
20.99999999999852
 21
0.0
 31
0.0
210
0.0
220
0.0
230
1.0
 40
0.3420201433256655
 41
3.549352296357379
 42
3.612831551628255
  0
ELLIPSE
  5
33F
330
2C3
100
AcDbEntity
  8
P-SANR-FIXT
100
AcDbEllipse
 10
1127.114353943079
 20
2088.540109991861
 30
0.0
 11
20.99999999999848
 21
0.0
 31
0.0
210
0.0
220
0.0
230
1.0
 40
0.3420201433256557
 41
3.476136082580643
 42
3.534291735288526
  0
ELLIPSE
  5
340
330
2C3
100
AcDbEntity
  8
P-SANR-FIXT
100
AcDbEllipse
 10
1127.114353943079
 20
2088.540109991861
 30
0.0
 11
20.99999999999847
 21
0.0
 31
0.0
210
0.0
220
0.0
230
0.9999999999999998
 40
0.3420201433256503
 41
3.086602463827337
 42
3.405301730732796
  0
ELLIPSE
  5
341
330
2C3
100
AcDbEntity
  8
P-SANR-FIXT
100
AcDbEllipse
 10
1127.114353943079
 20
2088.540109991861
 30
0.0
 11
20.99999999999847
 21
0.0
 31
0.0
210
0.0
220
0.0
230
1.0
 40
0.3420201433256538
 41
6.019476230036372
 42
6.338175496942105
  0
ELLIPSE
  5
342
330
2C3
100
AcDbEntity
  8
P-SANR-FIXT
100
AcDbEllipse
 10
1127.114353943079
 20
2088.540109991861
 30
0.0
 11
20.99999999999859
 21
0.0
 31
0.0
210
0.0
220
0.0
230
1.0
 40
0.3420201433256588
 41
5.950304338524308
 42
5.969026041820574
  0
ELLIPSE
  5
343
330
2C3
100
AcDbEntity
  8
P-SANR-FIXT
100
AcDbEllipse
 10
1127.114353943079
 20
2088.540109991861
 30
0.0
 11
20.99999999999854
 21
0.0
 31
0.0
210
0.0
220
0.0
230
1.0
 40
0.3420201433256547
 41
5.890486225480839
 42
5.948259938937447
  0
ELLIPSE
  5
344
330
2C3
100
AcDbEntity
  8
P-SANR-FIXT
100
AcDbEllipse
 10
1127.114353943079
 20
2088.540109991861
 30
0.0
 11
20.99999999999838
 21
0.0
 31
0.0
210
0.0
220
0.0
230
1.0
 40
0.3420201433256715
 41
5.811946409141118
 42
5.874737857858732
  0
ELLIPSE
  5
345
330
2C3
100
AcDbEntity
  8
P-SANR-FIXT
100
AcDbEllipse
 10
1127.114353943079
 20
2088.540109991861
 30
0.0
 11
20.99999999999838
 21
0.0
 31
0.0
210
0.0
220
0.0
230
1.0
 40
0.3420201433256632
 41
5.733406592801366
 42
5.801514727860876
  0
ELLIPSE
  5
346
330
2C3
100
AcDbEntity
  8
P-SANR-FIXT
100
AcDbEllipse
 10
1127.114353943079
 20
2088.540109991861
 30
0.0
 11
20.99999999999852
 21
0.0
 31
0.0
210
0.0
220
0.0
230
1.0
 40
0.3420201433256537
 41
5.655918376529944
 42
5.728546111183833
  0
ELLIPSE
  5
347
330
2C3
100
AcDbEntity
  8
P-SANR-FIXT
100
AcDbEllipse
 10
1127.114353943079
 20
2088.540109991861
 30
0.0
 11
20.99999999999861
 21
0.0
 31
0.0
210
0.0
220
0.0
230
1.0
 40
0.3420201433256622
 41
5.583969710300563
 42
5.654866776461628
  0
ELLIPSE
  5
348
330
2C3
100
AcDbEntity
  8
P-SANR-FIXT
100
AcDbEllipse
 10
1127.114353943079
 20
2088.540109991861
 30
0.0
 11
20.99999999999842
 21
0.0
 31
0.0
210
0.0
220
0.0
230
1.0
 40
0.3420201433256771
 41
5.440999336379064
 42
5.576326960121868
  0
ELLIPSE
  5
349
330
2C3
100
AcDbEntity
  8
P-SANR-FIXT
100
AcDbEllipse
 10
1127.114353943079
 20
2088.540109991861
 30
0.0
 11
20.99999999999845
 21
0.0
 31
0.0
210
0.0
220
0.0
230
1.0
 40
0.3420201433256603
 41
5.369802502584043
 42
5.419247327442402
  0
ELLIPSE
  5
34A
330
2C3
100
AcDbEntity
  8
P-SANR-FIXT
100
AcDbEllipse
 10
1127.114353943079
 20
2088.540109991861
 30
0.0
 11
20.99999999999847
 21
0.0
 31
0.0
210
0.0
220
0.0
230
0.9999999999999998
 40
0.3420201433256644
 41
5.298474969281105
 42
5.340707511102634
  0
ELLIPSE
  5
34B
330
2C3
100
AcDbEntity
  8
P-SANR-FIXT
100
AcDbEllipse
 10
1127.114353943079
 20
2088.540109991861
 30
0.0
 11
20.99999999999848
 21
0.0
 31
0.0
210
0.0
220
0.0
230
1.0
 40
0.34202014332567
 41
5.249099706401921
 42
5.262167694762895
  0
ELLIPSE
  5
34C
330
2C3
100
AcDbEntity
  8
P-SANR-FIXT
100
AcDbEllipse
 10
1127.114353943079
 20
2088.540109991861
 30
0.0
 11
20.99999999999851
 21
0.0
 31
0.0
210
0.0
220
0.0
230
1.0
 40
0.3420201433256453
 41
5.183627878423124
 42
5.226776427511392
  0
ELLIPSE
  5
34D
330
2C3
100
AcDbEntity
  8
P-SANR-FIXT
100
AcDbEllipse
 10
1127.114353943079
 20
2088.540109991861
 30
0.0
 11
20.99999999999855
 21
0.0
 31
0.0
210
0.0
220
0.0
230
1.0
 40
0.3420201433256691
 41
5.105088062083416
 42
5.154465237888855
  0
ELLIPSE
  5
34E
330
2C3
100
AcDbEntity
  8
P-SANR-FIXT
100
AcDbEllipse
 10
1127.114353943079
 20
2088.540109991861
 30
0.0
 11
20.99999999999852
 21
0.0
 31
0.0
210
0.0
220
0.0
230
1.0
 40
0.3420201433256667
 41
5.011316044853615
 42
5.081598461672957
  0
ELLIPSE
  5
34F
330
2C3
100
AcDbEntity
  8
P-SANR-FIXT
100
AcDbEllipse
 10
1127.114353943079
 20
2088.540109991861
 30
0.0
 11
20.99999999999838
 21
0.0
 31
0.0
210
0.0
220
0.0
230
1.0
 40
0.3420201433256701
 41
4.948008429403923
 42
5.008400586427006
  0
ELLIPSE
  5
350
330
2C3
100
AcDbEntity
  8
P-SANR-FIXT
100
AcDbEllipse
 10
1127.114353943079
 20
2088.540109991861
 30
0.0
 11
20.99999999999849
 21
0.0
 31
0.0
210
0.0
220
0.0
230
1.0
 40
0.3420201433256733
 41
4.869468613064174
 42
4.934877297070109
  0
ELLIPSE
  5
351
330
2C3
100
AcDbEntity
  8
P-SANR-FIXT
100
AcDbEllipse
 10
1127.114353943079
 20
2088.540109991861
 30
0.0
 11
20.99999999999847
 21
0.0
 31
0.0
210
0.0
220
0.0
230
1.0
 40
0.3420201433256656
 41
4.79009001276911
 42
4.861032610086109
  0
ELLIPSE
  5
352
330
2C3
100
AcDbEntity
  8
P-SANR-FIXT
100
AcDbEllipse
 10
1127.114353943079
 20
2088.540109991861
 30
0.0
 11
20.99999999999852
 21
0.0
 31
0.0
210
0.0
220
0.0
230
1.0
 40
0.3420201433256667
 41
4.712388980384683
 42
4.786869259818713
  0
SPLINE
  5
353
330
2C3
100
AcDbEntity
  8
P-SANR-FIXT
100
AcDbSpline
210
0.0
220
0.0
230
1.0
 70
     8
 71
     3
 72
    23
 73
    19
 74
     0
 42
0.000000001
 43
0.0000000001
 40
-1.0
 40
-1.0
 40
-1.0
 40
-1.0
 40
-0.9166666666666666
 40
-0.875
 40
-0.8333333333333332
 40
-0.75
 40
-0.7083333333333333
 40
-0.6666666666666666
 40
-0.5833333333333333
 40
-0.5
 40
-0.4166666666666666
 40
-0.3333333333333333
 40
-0.2916666666666666
 40
-0.25
 40
-0.1666666666666666
 40
-0.125
 40
-0.0833333333333333
 40
0.0
 40
0.0
 40
0.0
 40
0.0
 10
1109.592363966527
 20
2106.229321264882
 30
0.0
 10
1109.63114997431
 20
2106.41454596579
 30
0.0
 10
1109.698542491724
 20
2106.659257848019
 30
0.0
 10
1109.800777236573
 20
2106.918278355376
 30
0.0
 10
1109.90725347847
 20
2107.132407467848
 30
0.0
 10
1110.022615863772
 20
2107.277089339679
 30
0.0
 10
1110.125438946902
 20
2107.353147569649
 30
0.0
 10
1110.21208731255
 20
2107.386609892621
 30
0.0
 10
1110.292760729489
 20
2107.338518087923
 30
0.0
 10
1110.326565698201
 20
2107.160357339415
 30
0.0
 10
1110.2930843096
 20
2106.868923812061
 30
0.0
 10
1110.210697864265
 20
2106.540666272099
 30
0.0
 10
1110.123273500633
 20
2106.231661521819
 30
0.0
 10
1110.019814082217
 20
2105.885218317454
 30
0.0
 10
1109.904284757195
 20
2105.504395478756
 30
0.0
 10
1109.798104150871
 20
2105.105311199162
 30
0.0
 10
1109.696592640978
 20
2104.684256907725
 30
0.0
 10
1109.630233929591
 20
2104.346042306721
 30
0.0
 10
1109.592363966527
 20
2104.109997373404
 30
0.0
  0
SPLINE
  5
354
330
2C3
100
AcDbEntity
  8
P-SANR-FIXT
100
AcDbSpline
210
0.0
220
0.0
230
1.0
 70
     8
 71
     3
 72
    23
 73
    19
 74
     0
 42
0.000000001
 43
0.0000000001
 40
-1.0
 40
-1.0
 40
-1.0
 40
-1.0
 40
-0.9166666666666666
 40
-0.875
 40
-0.8333333333333332
 40
-0.75
 40
-0.7083333333333333
 40
-0.6666666666666666
 40
-0.5833333333333333
 40
-0.5
 40
-0.4166666666666666
 40
-0.3333333333333333
 40
-0.2916666666666666
 40
-0.25
 40
-0.1666666666666666
 40
-0.125
 40
-0.0833333333333333
 40
0.0
 40
0.0
 40
0.0
 40
0.0
 10
1115.670200718827
 20
2100.509509579314
 30
0.0
 10
1115.757646057983
 20
2100.719660606392
 30
0.0
 10
1115.91414700989
 20
2101.008583706983
 30
0.0
 10
1116.17391138043
 20
2101.339086522358
 30
0.0
 10
1116.463479118438
 20
2101.631420626379
 30
0.0
 10
1116.8186513934
 20
2101.869016823379
 30
0.0
 10
1117.209158577912
 20
2102.042490722745
 30
0.0
 10
1117.598660255696
 20
2102.169976214891
 30
0.0
 10
1118.110990298339
 20
2102.238982088479
 30
0.0
 10
1118.717119608095
 20
2102.187186232203
 30
0.0
 10
1119.296847038913
 20
2102.003617409992
 30
0.0
 10
1119.734112756578
 20
2101.745436255235
 30
0.0
 10
1120.037382576756
 20
2101.479053519078
 30
0.0
 10
1120.324959374717
 20
2101.168967130729
 30
0.0
 10
1120.563719266718
 20
2100.812478067921
 30
0.0
 10
1120.745536100982
 20
2100.428329327982
 30
0.0
 10
1120.901427384386
 20
2100.018013161459
 30
0.0
 10
1120.989007091463
 20
2099.683988973321
 30
0.0
 10
1121.036517190777
 20
2099.449847633575
 30
0.0
  0
SPLINE
  5
355
330
2C3
100
AcDbEntity
  8
P-SANR-FIXT
100
AcDbSpline
210
0.0
220
0.0
230
1.0
 70
     8
 71
     3
 72
    23
 73
    19
 74
     0
 42
0.000000001
 43
0.0000000001
 40
-1.0
 40
-1.0
 40
-1.0
 40
-1.0
 40
-0.9166666666666666
 40
-0.875
 40
-0.8333333333333332
 40
-0.75
 40
-0.7083333333333333
 40
-0.6666666666666666
 40
-0.5833333333333333
 40
-0.5
 40
-0.4166666666666666
 40
-0.3333333333333333
 40
-0.2916666666666666
 40
-0.25
 40
-0.1666666666666666
 40
-0.125
 40
-0.0833333333333333
 40
0.0
 40
0.0
 40
0.0
 40
0.0
 10
1133.192190695379
 20
2099.449847633575
 30
0.0
 10
1133.240850026751
 20
2099.68687462683
 30
0.0
 10
1133.329958461244
 20
2100.024297088509
 30
0.0
 10
1133.487488086935
 20
2100.437201038871
 30
0.0
 10
1133.670579583046
 20
2100.822868997934
 30
0.0
 10
1133.910389472707
 20
2101.177953599044
 30
0.0
 10
1134.198073574089
 20
2101.485346826752
 30
0.0
 10
1134.500926886225
 20
2101.74954848903
 30
0.0
 10
1134.932583511928
 20
2102.004959088273
 30
0.0
 10
1135.504907852973
 20
2102.185867079245
 30
0.0
 10
1136.118116672392
 20
2102.237861916888
 30
0.0
 10
1136.637768835392
 20
2102.168638955081
 30
0.0
 10
1137.028463019201
 20
2102.039290113698
 30
0.0
 10
1137.419499235579
 20
2101.863206330476
 30
0.0
 10
1137.773788452602
 20
2101.623823960139
 30
0.0
 10
1138.06178589319
 20
2101.33244729416
 30
0.0
 10
1138.319188686487
 20
2101.003742416827
 30
0.0
 10
1138.47312710495
 20
2100.717409707225
 30
0.0
 10
1138.558507167329
 20
2100.509509579314
 30
0.0
  0
SPLINE
  5
356
330
2C3
100
AcDbEntity
  8
P-SANR-FIXT
100
AcDbSpline
210
0.0
220
0.0
230
1.0
 70
     8
 71
     3
 72
    23
 73
    19
 74
     0
 42
0.000000001
 43
0.0000000001
 40
-1.0
 40
-1.0
 40
-1.0
 40
-1.0
 40
-0.9166666666666666
 40
-0.875
 40
-0.8333333333333332
 40
-0.75
 40
-0.7083333333333333
 40
-0.6666666666666666
 40
-0.5833333333333333
 40
-0.5
 40
-0.4166666666666666
 40
-0.3333333333333333
 40
-0.2916666666666666
 40
-0.25
 40
-0.1666666666666666
 40
-0.125
 40
-0.0833333333333333
 40
0.0
 40
0.0
 40
0.0
 40
0.0
 10
1144.63634391963
 20
2104.109997373404
 30
0.0
 10
1144.597557911847
 20
2104.348974006666
 30
0.0
 10
1144.530165394432
 20
2104.690684611071
 30
0.0
 10
1144.427930649584
 20
2105.114507388403
 30
0.0
 10
1144.321454407686
 20
2105.515304210957
 30
0.0
 10
1144.206092022385
 20
2105.894962891011
 30
0.0
 10
1144.103268939255
 20
2106.238859777664
 30
0.0
 10
1144.016620573607
 20
2106.5457544409
 30
0.0
 10
1143.935947156667
 20
2106.870472087512
 30
0.0
 10
1143.902142187956
 20
2107.157719033499
 30
0.0
 10
1143.935623576557
 20
2107.337412825853
 30
0.0
 10
1144.018010021892
 20
2107.387071671793
 30
0.0
 10
1144.105434385524
 20
2107.352134711058
 30
0.0
 10
1144.20889380394
 20
2107.273696716948
 30
0.0
 10
1144.324423128961
 20
2107.127087263193
 30
0.0
 10
1144.430603735286
 20
2106.913547131519
 30
0.0
 10
1144.532115245179
 20
2106.655715418461
 30
0.0
 10
1144.598473956565
 20
2106.41288377453
 30
0.0
 10
1144.63634391963
 20
2106.229321264882
 30
0.0
  0
SPLINE
  5
357
330
2C3
100
AcDbEntity
  8
P-SANR-FIXT
100
AcDbSpline
210
0.0
220
0.0
230
1.0
 70
     8
 71
     3
 72
     9
 73
     5
 74
     0
 42
0.000000001
 43
0.0000000001
 40
-1.0
 40
-1.0
 40
-1.0
 40
-1.0
 40
-0.5
 40
0.0
 40
0.0
 40
0.0
 40
0.0
 10
1121.036517190777
 20
2099.449847633575
 30
0.0
 10
1121.419297383579
 20
2097.232529646391
 30
0.0
 10
1121.924298031161
 20
2092.769515445731
 30
0.0
 10
1122.100380076735
 20
2088.312262231207
 30
0.0
 10
1122.150133701876
 20
2086.091216382977
 30
0.0
  0
ELLIPSE
  5
358
330
2C3
100
AcDbEntity
  8
P-SANR-FIXT
100
AcDbEllipse
 10
1127.114353943079
 20
2092.81562899795
 30
0.0
 11
20.27789883964978
 21
0.0
 31
0.0
210
0.0
220
0.0
230
1.0
 40
0.3420201433256449
 41
3.912514534744092
 42
4.465065874828646
  0
SPLINE
  5
359
330
2C3
100
AcDbEntity
  8
P-SANR-FIXT
100
AcDbSpline
210
0.0
220
0.0
230
1.0
 70
     8
 71
     3
 72
     9
 73
     5
 74
     0
 42
0.000000001
 43
0.0000000001
 40
-1.0
 40
-1.0
 40
-1.0
 40
-1.0
 40
-0.5
 40
0.0
 40
0.0
 40
0.0
 40
0.0
 10
1112.569653614833
 20
2087.983029924578
 30
0.0
 10
1112.909193070488
 20
2090.127203850398
 30
0.0
 10
1113.760588743116
 20
2094.381565743888
 30
0.0
 10
1114.982309150294
 20
2098.50361224311
 30
0.0
 10
1115.670200718827
 20
2100.509509579314
 30
0.0
  0
SPLINE
  5
35A
330
2C3
100
AcDbEntity
  8
P-SANR-FIXT
100
AcDbSpline
210
0.0
220
0.0
230
1.0
 70
     8
 71
     3
 72
     9
 73
     5
 74
     0
 42
0.000000001
 43
0.0000000001
 40
-1.0
 40
-1.0
 40
-1.0
 40
-1.0
 40
-0.5
 40
0.0
 40
0.0
 40
0.0
 40
0.0
 10
1109.592363966527
 20
2104.109997373404
 30
0.0
 10
1109.287252590795
 20
2101.877342480495
 30
0.0
 10
1108.570532831199
 20
2097.456135483596
 30
0.0
 10
1107.895219204144
 20
2093.097463243894
 30
0.0
 10
1107.605433373631
 20
2090.923815456347
 30
0.0
  0
ELLIPSE
  5
35B
330
2C3
100
AcDbEntity
  8
P-SANR-FIXT
100
AcDbEllipse
 10
1127.114353943079
 20
2092.81562899795
 30
0.0
 11
20.27789883964977
 21
0.0
 31
0.0
210
0.0
220
0.0
230
1.0
 40
0.3420201433256753
 41
2.865316983547475
 42
3.417868323632041
  0
SPLINE
  5
35C
330
2C3
100
AcDbEntity
  8
P-SANR-FIXT
100
AcDbSpline
210
0.0
220
0.0
230
1.0
 70
     8
 71
     3
 72
     9
 73
     5
 74
     0
 42
0.000000001
 43
0.0000000001
 40
-1.0
 40
-1.0
 40
-1.0
 40
-1.0
 40
-0.5
 40
0.0
 40
0.0
 40
0.0
 40
0.0
 10
1107.605433373631
 20
2094.707442539549
 30
0.0
 10
1107.895219204144
 20
2096.727346482276
 30
0.0
 10
1108.570532831198
 20
2100.680236079912
 30
0.0
 10
1109.287252590795
 20
2104.419507673934
 30
0.0
 10
1109.592363966527
 20
2106.229321264882
 30
0.0
  0
SPLINE
  5
35D
330
2C3
100
AcDbEntity
  8
P-SANR-FIXT
100
AcDbSpline
210
0.0
220
0.0
230
1.0
 70
     8
 71
     3
 72
     9
 73
     5
 74
     0
 42
0.000000001
 43
0.0000000001
 40
-1.0
 40
-1.0
 40
-1.0
 40
-1.0
 40
-0.5
 40
0.0
 40
0.0
 40
0.0
 40
0.0
 10
1144.63634391963
 20
2106.229321264882
 30
0.0
 10
1144.941455295362
 20
2104.419507673934
 30
0.0
 10
1145.658175054958
 20
2100.680236079912
 30
0.0
 10
1146.333488682013
 20
2096.727346482275
 30
0.0
 10
1146.623274512526
 20
2094.707442539549
 30
0.0
  0
ELLIPSE
  5
35E
330
2C3
100
AcDbEntity
  8
P-SANR-FIXT
100
AcDbEllipse
 10
1127.114353943079
 20
2092.81562899795
 30
0.0
 11
20.27789883964971
 21
0.0
 31
0.0
210
0.0
220
0.0
230
0.9999999999999998
 40
0.3420201433256393
 41
6.00690963713736
 42
6.559460977221931
  0
SPLINE
  5
35F
330
2C3
100
AcDbEntity
  8
P-SANR-FIXT
100
AcDbSpline
210
0.0
220
0.0
230
1.0
 70
     8
 71
     3
 72
     9
 73
     5
 74
     0
 42
0.000000001
 43
0.0000000001
 40
-1.0
 40
-1.0
 40
-1.0
 40
-1.0
 40
-0.5
 40
0.0
 40
0.0
 40
0.0
 40
0.0
 10
1146.623274512525
 20
2090.923815456347
 30
0.0
 10
1146.333488682013
 20
2093.097463243894
 30
0.0
 10
1145.658175054958
 20
2097.456135483596
 30
0.0
 10
1144.941455295362
 20
2101.877342480495
 30
0.0
 10
1144.63634391963
 20
2104.109997373404
 30
0.0
  0
SPLINE
  5
360
330
2C3
100
AcDbEntity
  8
P-SANR-FIXT
100
AcDbSpline
210
0.0
220
0.0
230
1.0
 70
     8
 71
     3
 72
     9
 73
     5
 74
     0
 42
0.000000001
 43
0.0000000001
 40
-1.0
 40
-1.0
 40
-1.0
 40
-1.0
 40
-0.5
 40
0.0
 40
0.0
 40
0.0
 40
0.0
 10
1138.558507167329
 20
2100.509509579314
 30
0.0
 10
1139.246398735863
 20
2098.50361224311
 30
0.0
 10
1140.468119143041
 20
2094.381565743888
 30
0.0
 10
1141.319514815669
 20
2090.127203850398
 30
0.0
 10
1141.659054271324
 20
2087.983029924578
 30
0.0
  0
ELLIPSE
  5
361
330
2C3
100
AcDbEntity
  8
P-SANR-FIXT
100
AcDbEllipse
 10
1127.114353943079
 20
2092.81562899795
 30
0.0
 11
20.27789883964973
 21
0.0
 31
0.0
210
0.0
220
0.0
230
1.0
 40
0.3420201433256365
 41
4.959712085940713
 42
5.512263426025254
  0
SPLINE
  5
362
330
2C3
100
AcDbEntity
  8
P-SANR-FIXT
100
AcDbSpline
210
0.0
220
0.0
230
1.0
 70
     8
 71
     3
 72
     9
 73
     5
 74
     0
 42
0.000000001
 43
0.0000000001
 40
-1.0
 40
-1.0
 40
-1.0
 40
-1.0
 40
-0.5
 40
0.0
 40
0.0
 40
0.0
 40
0.0
 10
1132.07857418428
 20
2086.091216382977
 30
0.0
 10
1132.128327809422
 20
2088.312262231207
 30
0.0
 10
1132.304409854996
 20
2092.769515445731
 30
0.0
 10
1132.809410502577
 20
2097.232529646392
 30
0.0
 10
1133.192190695379
 20
2099.449847633575
 30
0.0
  0
ELLIPSE
  5
363
330
2C3
100
AcDbEntity
  8
P-SANR-FIXT
100
AcDbEllipse
 10
1103.315351738753
 20
2092.815628997948
 30
0.0
 11
6.999999999999972
 21
0.0
 31
0.0
210
0.0
220
0.0
230
1.0
 40
0.3420201433257155
 41
0.803737304492364
 42
0.9111102751725329
  0
ELLIPSE
  5
364
330
2C3
100
AcDbEntity
  8
P-SANR-FIXT
100
AcDbEllipse
 10
1150.913356147404
 20
2092.815628997948
 30
0.0
 11
6.999999999999843
 21
0.0
 31
0.0
210
0.0
220
0.0
230
1.0
 40
0.3420201433256771
 41
2.23048237841718
 42
2.337900536149752
  0
ELLIPSE
  5
365
330
2C3
100
AcDbEntity
  8
P-SANR-FIXT
100
AcDbEllipse
 10
1115.214852840916
 20
2085.766408984284
 30
0.0
 11
7.00000000000003
 21
0.0
 31
0.0
210
0.0
220
0.0
230
0.9999999999999998
 40
0.3420201433257149
 41
0.1360872760241282
 42
1.958307826369181
  0
ELLIPSE
  5
366
330
2C3
100
AcDbEntity
  8
P-SANR-FIXT
100
AcDbEllipse
 10
1139.013855045241
 20
2085.766408984284
 30
0.0
 11
7.000000000000045
 21
0.0
 31
0.0
210
0.0
220
0.0
230
1.0
 40
0.3420201433256762
 41
1.183284827220651
 42
3.005505377565645
  0
ARC
  5
367
330
2C3
100
AcDbEntity
  8
P-SANR-FIXT
100
AcDbCircle
 10
1127.114353943078
 20
1999.982558850011
 30
0.0
 40
11.79999999999995
100
AcDbArc
 50
90.0
 51
269.9999999999997
  0
ARC
  5
368
330
2C3
100
AcDbEntity
  8
P-SANR-FIXT
100
AcDbCircle
 10
1127.114353943078
 20
1999.982558850011
 30
0.0
 40
11.79999999999995
100
AcDbArc
 50
269.9999999999997
 51
89.99999999999889
  0
SPLINE
  5
369
330
2C3
100
AcDbEntity
  8
P-SANR-FIXT
100
AcDbSpline
210
0.0
220
0.0
230
1.0
 70
     8
 71
     3
 72
    10
 73
     6
 74
     0
 42
0.000000001
 43
0.0000000001
 40
0.0
 40
0.0
 40
0.0
 40
0.0
 40
0.4
 40
0.7
 40
1.0
 40
1.0
 40
1.0
 40
1.0
 10
1139.36435394314
 20
2010.230526128128
 30
0.0
 10
1140.021782746897
 20
2009.850959431306
 30
0.0
 10
1141.0468297173
 20
2008.934984506551
 30
0.0
 10
1141.936668073041
 20
2007.183809715703
 30
0.0
 10
1142.114353943139
 20
2006.035562202293
 30
0.0
 10
1142.114353943139
 20
2005.467386407314
 30
0.0
  0
SPLINE
  5
36A
330
2C3
100
AcDbEntity
  8
P-SANR-FIXT
100
AcDbSpline
210
0.0
220
0.0
230
1.0
 70
    24
 71
     3
 72
     9
 73
     5
 74
     0
 42
0.000000001
 43
0.0000000001
 40
0.0
 40
0.0
 40
0.0
 40
0.0
 40
0.5
 40
1.0
 40
1.0
 40
1.0
 40
1.0
 10
1142.114353943139
 20
2005.467386407314
 30
0.0
 10
1142.114353943139
 20
2003.610718893285
 30
0.0
 10
1142.114353943139
 20
1999.925775526821
 30
0.0
 10
1142.114353943139
 20
1996.297615483548
 30
0.0
 10
1142.114353943139
 20
1994.497731292708
 30
0.0
  0
SPLINE
  5
36B
330
2C3
100
AcDbEntity
  8
P-SANR-FIXT
100
AcDbSpline
210
0.0
220
0.0
230
1.0
 70
     8
 71
     3
 72
    10
 73
     6
 74
     0
 42
0.000000001
 43
0.0000000001
 40
0.0
 40
0.0
 40
0.0
 40
0.0
 40
0.4
 40
0.7
 40
1.0
 40
1.0
 40
1.0
 40
1.0
 10
1142.114353943139
 20
1994.497731292708
 30
0.0
 10
1142.114353943139
 20
1993.738597899063
 30
0.0
 10
1141.833619874274
 20
1992.392893720244
 30
0.0
 10
1140.761977196803
 20
1990.746683703487
 30
0.0
 10
1139.856408615407
 20
1990.018679469383
 30
0.0
 10
1139.36435394314
 20
1989.734591571894
 30
0.0
  0
SPLINE
  5
36C
330
2C3
100
AcDbEntity
  8
P-SANR-FIXT
100
AcDbSpline
210
0.0
220
0.0
230
1.0
 70
    24
 71
     3
 72
     9
 73
     5
 74
     0
 42
0.000000001
 43
0.0000000001
 40
0.0
 40
0.0
 40
0.0
 40
0.0
 40
0.5
 40
1.0
 40
1.0
 40
1.0
 40
1.0
 10
1139.36435394314
 20
1989.734591571894
 30
0.0
 10
1137.756432709609
 20
1988.806257814879
 30
0.0
 10
1134.565178142746
 20
1986.963786131648
 30
0.0
 10
1131.423099376275
 20
1985.149706110011
 30
0.0
 10
1129.864353943138
 20
1984.249764014591
 30
0.0
  0
SPLINE
  5
36D
330
2C3
100
AcDbEntity
  8
P-SANR-FIXT
100
AcDbSpline
210
0.0
220
0.0
230
1.0
 70
     8
 71
     3
 72
     9
 73
     5
 74
     0
 42
0.000000001
 43
0.0000000001
 40
0.0
 40
0.0
 40
0.0
 40
0.0
 40
0.5
 40
1.0
 40
1.0
 40
1.0
 40
1.0
 10
1129.864353943138
 20
1984.249764014591
 30
0.0
 10
1129.453188885116
 20
1984.012377757661
 30
0.0
 10
1128.564412067181
 20
1983.642025455554
 30
0.0
 10
1127.599512517835
 20
1983.5129037354
 30
0.0
 10
1127.114353943078
 20
1983.512903735405
 30
0.0
  0
SPLINE
  5
36E
330
2C3
100
AcDbEntity
  8
P-SANR-FIXT
100
AcDbSpline
210
0.0
220
0.0
230
1.0
 70
     8
 71
     3
 72
     9
 73
     5
 74
     0
 42
0.000000001
 43
0.0000000001
 40
0.0
 40
0.0
 40
0.0
 40
0.0
 40
0.5
 40
1.0
 40
1.0
 40
1.0
 40
1.0
 10
1127.114353943078
 20
1983.512903735405
 30
0.0
 10
1126.629195368342
 20
1983.51290373541
 30
0.0
 10
1125.664295819039
 20
1983.642025455574
 30
0.0
 10
1124.775519001142
 20
1984.012377757671
 30
0.0
 10
1124.364353943138
 20
1984.249764014591
 30
0.0
  0
SPLINE
  5
36F
330
2C3
100
AcDbEntity
  8
P-SANR-FIXT
100
AcDbSpline
210
0.0
220
0.0
230
1.0
 70
    24
 71
     3
 72
     9
 73
     5
 74
     0
 42
0.000000001
 43
0.0000000001
 40
0.0
 40
0.0
 40
0.0
 40
0.0
 40
0.5
 40
1.0
 40
1.0
 40
1.0
 40
1.0
 10
1124.364353943137
 20
1984.249764014591
 30
0.0
 10
1122.756432709607
 20
1985.178097771606
 30
0.0
 10
1119.565178142743
 20
1987.020569454837
 30
0.0
 10
1116.423099376272
 20
1988.834649476473
 30
0.0
 10
1114.864353943135
 20
1989.734591571894
 30
0.0
  0
SPLINE
  5
370
330
2C3
100
AcDbEntity
  8
P-SANR-FIXT
100
AcDbSpline
210
0.0
220
0.0
230
1.0
 70
     8
 71
     3
 72
    10
 73
     6
 74
     0
 42
0.000000001
 43
0.0000000001
 40
0.0
 40
0.0
 40
0.0
 40
0.0
 40
0.4
 40
0.7
 40
1.0
 40
1.0
 40
1.0
 40
1.0
 10
1114.864353943135
 20
1989.734591571894
 30
0.0
 10
1114.206925139377
 20
1990.114158268716
 30
0.0
 10
1113.181878168974
 20
1991.03013319347
 30
0.0
 10
1112.292039813234
 20
1992.781307984319
 30
0.0
 10
1112.114353943135
 20
1993.929555497728
 30
0.0
 10
1112.114353943135
 20
1994.497731292708
 30
0.0
  0
SPLINE
  5
371
330
2C3
100
AcDbEntity
  8
P-SANR-FIXT
100
AcDbSpline
210
0.0
220
0.0
230
1.0
 70
    24
 71
     3
 72
     9
 73
     5
 74
     0
 42
0.000000001
 43
0.0000000001
 40
0.0
 40
0.0
 40
0.0
 40
0.0
 40
0.5
 40
1.0
 40
1.0
 40
1.0
 40
1.0
 10
1112.114353943135
 20
1994.497731292708
 30
0.0
 10
1112.114353943135
 20
1996.354398806737
 30
0.0
 10
1112.114353943135
 20
2000.039342173201
 30
0.0
 10
1112.114353943135
 20
2003.667502216474
 30
0.0
 10
1112.114353943135
 20
2005.467386407314
 30
0.0
  0
SPLINE
  5
372
330
2C3
100
AcDbEntity
  8
P-SANR-FIXT
100
AcDbSpline
210
0.0
220
0.0
230
1.0
 70
     8
 71
     3
 72
    10
 73
     6
 74
     0
 42
0.000000001
 43
0.0000000001
 40
0.0
 40
0.0
 40
0.0
 40
0.0
 40
0.4
 40
0.7
 40
1.0
 40
1.0
 40
1.0
 40
1.0
 10
1112.114353943135
 20
2005.467386407314
 30
0.0
 10
1112.114353943135
 20
2006.226519800959
 30
0.0
 10
1112.395088012
 20
2007.572223979777
 30
0.0
 10
1113.466730689471
 20
2009.218433996534
 30
0.0
 10
1114.372299270867
 20
2009.946438230638
 30
0.0
 10
1114.864353943135
 20
2010.230526128128
 30
0.0
  0
SPLINE
  5
373
330
2C3
100
AcDbEntity
  8
P-SANR-FIXT
100
AcDbSpline
210
0.0
220
0.0
230
1.0
 70
    24
 71
     3
 72
     9
 73
     5
 74
     0
 42
0.000000001
 43
0.0000000001
 40
0.0
 40
0.0
 40
0.0
 40
0.0
 40
0.5
 40
1.0
 40
1.0
 40
1.0
 40
1.0
 10
1114.864353943135
 20
2010.230526128128
 30
0.0
 10
1116.472275176666
 20
2011.158859885142
 30
0.0
 10
1119.66352974353
 20
2013.001331568375
 30
0.0
 10
1122.805608510001
 20
2014.815411590011
 30
0.0
 10
1124.364353943137
 20
2015.715353685431
 30
0.0
  0
SPLINE
  5
374
330
2C3
100
AcDbEntity
  8
P-SANR-FIXT
100
AcDbSpline
210
0.0
220
0.0
230
1.0
 70
     8
 71
     3
 72
     9
 73
     5
 74
     0
 42
0.000000001
 43
0.0000000001
 40
0.0
 40
0.0
 40
0.0
 40
0.0
 40
0.5
 40
1.0
 40
1.0
 40
1.0
 40
1.0
 10
1124.364353943137
 20
2015.715353685431
 30
0.0
 10
1124.775519001142
 20
2015.952739942351
 30
0.0
 10
1125.664295819039
 20
2016.323092244447
 30
0.0
 10
1126.629195368342
 20
2016.452213964611
 30
0.0
 10
1127.114353943078
 20
2016.452213964616
 30
0.0
  0
SPLINE
  5
375
330
2C3
100
AcDbEntity
  8
P-SANR-FIXT
100
AcDbSpline
210
0.0
220
0.0
230
1.0
 70
     8
 71
     3
 72
     9
 73
     5
 74
     0
 42
0.000000001
 43
0.0000000001
 40
0.0
 40
0.0
 40
0.0
 40
0.0
 40
0.5
 40
1.0
 40
1.0
 40
1.0
 40
1.0
 10
1127.114353943078
 20
2016.452213964616
 30
0.0
 10
1127.599512517835
 20
2016.452213964622
 30
0.0
 10
1128.564412067181
 20
2016.323092244467
 30
0.0
 10
1129.453188885116
 20
2015.95273994236
 30
0.0
 10
1129.864353943137
 20
2015.715353685431
 30
0.0
  0
SPLINE
  5
376
330
2C3
100
AcDbEntity
  8
P-SANR-FIXT
100
AcDbSpline
210
0.0
220
0.0
230
1.0
 70
    24
 71
     3
 72
     9
 73
     5
 74
     0
 42
0.000000001
 43
0.0000000001
 40
0.0
 40
0.0
 40
0.0
 40
0.0
 40
0.5
 40
1.0
 40
1.0
 40
1.0
 40
1.0
 10
1129.864353943137
 20
2015.715353685431
 30
0.0
 10
1131.423099376275
 20
2014.815411590011
 30
0.0
 10
1134.565178142746
 20
2013.001331568374
 30
0.0
 10
1137.756432709609
 20
2011.158859885142
 30
0.0
 10
1139.36435394314
 20
2010.230526128128
 30
0.0
  0
ARC
  5
377
330
2C3
100
AcDbEntity
  8
P-SANR-FIXT
100
AcDbCircle
 10
1127.114353943078
 20
1999.982558850011
 30
0.0
 40
9.350000000000363
100
AcDbArc
 50
90.0
 51
269.9999999999997
  0
ARC
  5
378
330
2C3
100
AcDbEntity
  8
P-SANR-FIXT
100
AcDbCircle
 10
1127.114353943078
 20
1999.982558850011
 30
0.0
 40
9.350000000000363
100
AcDbArc
 50
269.9999999999997
 51
90.0
  0
ARC
  5
379
330
2C3
100
AcDbEntity
  8
P-SANR-FIXT
100
AcDbCircle
 10
1127.114353943078
 20
1999.982558850011
 30
0.0
 40
10.65000000000032
100
AcDbArc
 50
90.00000000000122
 51
269.9999999999997
  0
ARC
  5
37A
330
2C3
100
AcDbEntity
  8
P-SANR-FIXT
100
AcDbCircle
 10
1127.114353943078
 20
1999.982558850011
 30
0.0
 40
10.65000000000032
100
AcDbArc
 50
269.9999999999997
 51
90.0
  0
LINE
  5
37B
330
2C3
100
AcDbEntity
  8
P-SANR-FIXT
100
AcDbLine
 10
1122.61435394308
 20
2017.907121048516
 30
0.0
 11
1122.61435394308
 21
2014.704990714315
 31
0.0
  0
LINE
  5
37C
330
2C3
100
AcDbEntity
  8
P-SANR-FIXT
100
AcDbLine
 10
1131.61435394308
 20
2014.704990714383
 30
0.0
 11
1131.61435394308
 21
2017.907121048583
 31
0.0
  0
LWPOLYLINE
  5
37D
330
2C3
100
AcDbEntity
  8
P-SANR-FIXT
100
AcDbPolyline
 90
       39
 70
   128
 43
0.0
 10
1108.799160784976
 20
1987.507827881018
 10
1108.997323700289
 20
1986.797827007395
 10
1109.259632818691
 20
1986.137868941106
 10
1109.571824718932
 20
1985.534222596442
 10
1109.920841980154
 20
1984.987733384809
 10
1110.296094310956
 20
1984.495484095952
 10
1110.689777891705
 20
1984.05246445934
 10
1111.096605498861
 20
1983.652866012617
 10
1111.513287055926
 20
1983.290919182228
 10
1111.937981886167
 20
1982.961348147115
 10
1112.369828746111
 20
1982.659562997929
 10
1112.808584722209
 20
1982.3816949553
 10
1113.254366630843
 20
1982.124549775725
 10
1113.707475006759
 20
1981.885526104084
 10
1114.168279244316
 20
1981.662525000855
 10
1114.63714568738
 20
1981.453863830632
 10
1115.114394796604
 20
1981.25820012749
 10
1115.600277452933
 20
1981.074466991426
 10
1116.094963543329
 20
1980.90181958328
 10
1116.598538227385
 20
1980.739591448638
 10
1117.111002857364
 20
1980.587259162788
 10
1117.632278593724
 20
1980.444413837236
 10
1118.162211471284
 20
1980.310738196213
 10
1118.70057814002
 20
1980.185988133603
 10
1119.247091809189
 20
1980.06997785648
 10
1119.801408119302
 20
1979.962567894409
 10
1120.363130790887
 20
1979.863655399231
 10
1120.931816976812
 20
1979.773166279073
 10
1121.506982292704
 20
1979.691048806047
 10
1122.088105528461
 20
1979.617268413313
 10
1122.674633060071
 20
1979.551803457505
 10
1123.265982989485
 20
1979.494641770176
 10
1123.861549044167
 20
1979.445777859632
 10
1124.46070426903
 20
1979.405210654373
 10
1125.062804542957
 20
1979.372941703258
 10
1125.667191950899
 20
1979.348973766649
 10
1126.273198040993
 20
1979.333309748467
 10
1126.880146994637
 20
1979.325951932058
 10
1127.11435394308
 20
1979.32533399983
  0
LINE
  5
37E
330
2C3
100
AcDbEntity
  8
P-SANR-FIXT
100
AcDbLine
 10
1145.429547101185
 20
1987.507827881017
 30
0.0
 11
1145.383207611772
 21
1987.341797431204
 31
0.0
  0
LWPOLYLINE
  5
37F
330
2C3
100
AcDbEntity
  8
P-SANR-FIXT
100
AcDbPolyline
 90
       39
 70
   128
 43
0.0
 10
1145.37554198208
 20
1987.314332131907
 10
1145.231384185871
 20
1986.797827007395
 10
1144.96907506747
 20
1986.137868941106
 10
1144.656883167229
 20
1985.534222596442
 10
1144.307865906007
 20
1984.987733384809
 10
1143.932613575205
 20
1984.495484095952
 10
1143.538929994455
 20
1984.05246445934
 10
1143.1321023873
 20
1983.652866012617
 10
1142.715420830235
 20
1983.290919182228
 10
1142.290725999993
 20
1982.961348147115
 10
1141.858879140049
 20
1982.659562997929
 10
1141.420123163951
 20
1982.3816949553
 10
1140.974341255317
 20
1982.124549775725
 10
1140.521232879401
 20
1981.885526104084
 10
1140.060428641844
 20
1981.662525000855
 10
1139.59156219878
 20
1981.453863830632
 10
1139.114313089557
 20
1981.25820012749
 10
1138.628430433228
 20
1981.074466991427
 10
1138.133744342831
 20
1980.90181958328
 10
1137.630169658776
 20
1980.739591448638
 10
1137.117705028797
 20
1980.587259162788
 10
1136.596429292436
 20
1980.444413837236
 10
1136.066496414876
 20
1980.310738196213
 10
1135.52812974614
 20
1980.185988133603
 10
1134.981616076972
 20
1980.06997785648
 10
1134.427299766859
 20
1979.962567894409
 10
1133.865577095273
 20
1979.863655399231
 10
1133.296890909348
 20
1979.773166279073
 10
1132.721725593457
 20
1979.691048806047
 10
1132.140602357699
 20
1979.617268413313
 10
1131.554074826089
 20
1979.551803457505
 10
1130.962724896676
 20
1979.494641770176
 10
1130.367158841993
 20
1979.445777859632
 10
1129.76800361713
 20
1979.405210654373
 10
1129.165903343203
 20
1979.372941703258
 10
1128.561515935261
 20
1979.348973766649
 10
1127.955509845167
 20
1979.333309748467
 10
1127.348560891523
 20
1979.325951932058
 10
1127.11435394308
 20
1979.32533399983
  0
LWPOLYLINE
  5
380
330
2C3
100
AcDbEntity
  8
P-SANR-FIXT
100
AcDbPolyline
 90
        3
 70
   128
 43
0.0
 10
1104.61456990152
 20
2028.350670692651
 10
1105.564004515438
 20
2007.491481933788
 10
1108.799160784976
 20
1987.507827881018
  0
LWPOLYLINE
  5
381
330
2C3
100
AcDbEntity
  8
P-SANR-FIXT
100
AcDbPolyline
 90
        3
 70
   128
 43
0.0
 10
1149.585121535297
 20
2027.713175929879
 10
1148.664703370722
 20
2007.491481933782
 10
1145.429547101184
 20
1987.507827881012
  0
LINE
  5
382
330
2C3
100
AcDbEntity
  8
P-SANR-FIXT
100
AcDbLine
 10
1104.61435394308
 20
2028.316954231124
 30
0.0
 11
1104.609258711249
 21
2028.405279063054
 31
0.0
  0
LINE
  5
383
330
2C3
100
AcDbEntity
  8
P-SANR-FIXT
100
AcDbLine
 10
1149.61435394308
 20
2028.316954231124
 30
0.0
 11
1149.619225113667
 21
2028.40139500589
 31
0.0
  0
LWPOLYLINE
  5
384
330
2C3
100
AcDbEntity
  8
P-SANR-FIXT
100
AcDbPolyline
 90
       13
 70
   128
 43
0.0
 10
1101.61435394308
 20
2034.185332767045
 10
1101.658658426185
 20
2033.426387400675
 10
1101.78867765251
 20
2032.68481074305
 10
1101.996544497802
 20
2031.975067563488
 10
1102.271441812986
 20
2031.306896593148
 10
1102.601895086625
 20
2030.684987535573
 10
1102.977528771097
 20
2030.109826630249
 10
1103.389977681882
 20
2029.579050922638
 10
1103.833072475366
 20
2029.088759088526
 10
1104.30258849743
 20
2028.634504500383
 10
1104.795820843754
 20
2028.211924717821
 10
1105.311150845617
 20
2027.817075750079
 10
1105.737640801237
 20
2027.519577788041
  0
LWPOLYLINE
  5
385
330
2C3
100
AcDbEntity
  8
P-SANR-FIXT
100
AcDbPolyline
 90
       13
 70
   128
 43
0.0
 10
1152.61435394308
 20
2034.185332767045
 10
1152.570049459975
 20
2033.426387400675
 10
1152.44003023365
 20
2032.68481074305
 10
1152.232163388358
 20
2031.975067563488
 10
1151.957266073175
 20
2031.306896593148
 10
1151.626812799536
 20
2030.684987535573
 10
1151.251179115063
 20
2030.109826630249
 10
1150.838730204279
 20
2029.579050922638
 10
1150.395635410794
 20
2029.088759088526
 10
1149.92611938873
 20
2028.634504500383
 10
1149.432887042407
 20
2028.211924717821
 10
1148.917557040543
 20
2027.817075750079
 10
1148.491067084923
 20
2027.519577788041
  0
LINE
  5
386
330
2C3
100
AcDbEntity
  8
P-SANR-FIXT
100
AcDbLine
 10
1101.61435394308
 20
2035.826622228807
 30
0.0
 11
1101.61435394308
 21
2034.185332767045
 31
0.0
  0
LINE
  5
387
330
2C3
100
AcDbEntity
  8
P-SANR-FIXT
100
AcDbLine
 10
1152.61435394308
 20
2034.185332767045
 30
0.0
 11
1152.61435394308
 21
2035.876944101907
 31
0.0
  0
LWPOLYLINE
  5
388
330
2C3
100
AcDbEntity
  8
P-SANR-FIXT
100
AcDbPolyline
 90
       13
 70
   128
 43
0.0
 10
1100.11435394308
 20
2039.51486794617
 10
1100.147904664714
 20
2038.940495764193
 10
1100.247091482983
 20
2038.37511973421
 10
1100.407926159524
 20
2037.826283539691
 10
1100.62490908993
 20
2037.299166848208
 10
1100.892175780615
 20
2036.796423320285
 10
1101.204375215447
 20
2036.31860289715
 10
1101.557125816553
 20
2035.864828444904
 10
1101.947108501549
 20
2035.433450679811
 10
1102.371941482845
 20
2035.022544219335
 10
1102.829968228876
 20
2034.630221850745
 10
1103.320041193464
 20
2034.254801192006
 10
1103.73357394419
 20
2033.966373315736
  0
LWPOLYLINE
  5
389
330
2C3
100
AcDbEntity
  8
P-SANR-FIXT
100
AcDbPolyline
 90
       13
 70
   128
 43
0.0
 10
1154.11435394308
 20
2039.51486794617
 10
1154.080803221447
 20
2038.940495764193
 10
1153.981616403177
 20
2038.37511973421
 10
1153.820781726637
 20
2037.826283539692
 10
1153.60379879623
 20
2037.299166848208
 10
1153.336532105546
 20
2036.796423320285
 10
1153.024332670713
 20
2036.31860289715
 10
1152.671582069608
 20
2035.864828444904
 10
1152.281599384612
 20
2035.433450679811
 10
1151.856766403316
 20
2035.022544219335
 10
1151.398739657284
 20
2034.630221850745
 10
1150.908666692696
 20
2034.254801192006
 10
1150.495133941971
 20
2033.966373315736
  0
LINE
  5
38A
330
2C3
100
AcDbEntity
  8
P-SANR-FIXT
100
AcDbLine
 10
1100.11435394308
 20
2050.008951488516
 30
0.0
 11
1100.11435394308
 21
2039.51486794617
 31
0.0
  0
LINE
  5
38B
330
2C3
100
AcDbEntity
  8
P-SANR-FIXT
100
AcDbLine
 10
1154.11435394308
 20
2039.51486794617
 30
0.0
 11
1154.11435394308
 21
2050.008951488516
 31
0.0
  0
ELLIPSE
  5
38C
330
2C3
100
AcDbEntity
  8
P-SANR-FIXT
100
AcDbEllipse
 10
1127.114353943079
 20
2050.482558850011
 30
0.0
 11
26.49599757301503
 21
0.0
 31
0.0
210
0.0
220
0.0
230
1.0
 40
0.3420201433256728
 41
3.220163288140345
 42
3.228859116189517
  0
ELLIPSE
  5
38D
330
2C3
100
AcDbEntity
  8
P-SANR-FIXT
100
AcDbEllipse
 10
1127.114353943079
 20
2050.482558850011
 30
0.0
 11
26.49599757301498
 21
0.0
 31
0.0
210
0.0
220
0.0
230
1.0
 40
0.3420201433256704
 41
3.298781661393787
 42
3.333644385786286
  0
ELLIPSE
  5
38E
330
2C3
100
AcDbEntity
  8
P-SANR-FIXT
100
AcDbEllipse
 10
1127.114353943079
 20
2050.482558850011
 30
0.0
 11
26.49599757301507
 21
0.0
 31
0.0
210
0.0
220
0.0
230
1.0
 40
0.3420201433256701
 41
3.377430182242107
 42
3.420895172211932
  0
ELLIPSE
  5
38F
330
2C3
100
AcDbEntity
  8
P-SANR-FIXT
100
AcDbEllipse
 10
1127.114353943079
 20
2050.482558850011
 30
0.0
 11
26.49599757301503
 21
0.0
 31
0.0
210
0.0
220
0.0
230
1.0
 40
0.3420201433256727
 41
3.456091718490552
 42
3.506213770773637
  0
ELLIPSE
  5
390
330
2C3
100
AcDbEntity
  8
P-SANR-FIXT
100
AcDbEllipse
 10
1127.114353943079
 20
2050.482558850011
 30
0.0
 11
26.49599757301517
 21
0.0
 31
0.0
210
0.0
220
0.0
230
0.9999999999999998
 40
0.3420201433256738
 41
3.665191429188084
 42
3.689871605045074
  0
ELLIPSE
  5
391
330
2C3
100
AcDbEntity
  8
P-SANR-FIXT
100
AcDbEllipse
 10
1127.114353943079
 20
2050.482558850011
 30
0.0
 11
26.49599757301513
 21
0.0
 31
0.0
210
0.0
220
0.0
230
0.9999999999999998
 40
0.3420201433256762
 41
3.752457891787795
 42
4.083496285142564
  0
ELLIPSE
  5
392
330
2C3
100
AcDbEntity
  8
P-SANR-FIXT
100
AcDbEllipse
 10
1127.114353943079
 20
2050.482558850011
 30
0.0
 11
26.49599757301528
 21
0.0
 31
0.0
210
0.0
220
0.0
230
1.0
 40
0.3420201433256742
 41
4.101523742186655
 42
4.162011823336688
  0
ELLIPSE
  5
393
330
2C3
100
AcDbEntity
  8
P-SANR-FIXT
100
AcDbEllipse
 10
1127.114353943079
 20
2050.482558850011
 30
0.0
 11
26.49599757301511
 21
0.0
 31
0.0
210
0.0
220
0.0
230
0.9999999999999998
 40
0.3420201433256788
 41
4.188790204786368
 42
4.240599608327324
  0
ELLIPSE
  5
394
330
2C3
100
AcDbEntity
  8
P-SANR-FIXT
100
AcDbEllipse
 10
1127.114353943079
 20
2050.482558850011
 30
0.0
 11
26.49599757301517
 21
0.0
 31
0.0
210
0.0
220
0.0
230
0.9999999999999998
 40
0.3420201433256785
 41
4.240864282416104
 42
4.319232943988016
  0
ELLIPSE
  5
395
330
2C3
100
AcDbEntity
  8
P-SANR-FIXT
100
AcDbEllipse
 10
1127.114353943079
 20
2050.482558850011
 30
0.0
 11
26.49599757301525
 21
0.0
 31
0.0
210
0.0
220
0.0
230
1.0
 40
0.3420201433256684
 41
4.3633231299858
 42
4.397889915481639
  0
ELLIPSE
  5
396
330
2C3
100
AcDbEntity
  8
P-SANR-FIXT
100
AcDbEllipse
 10
1127.114353943079
 20
2050.482558850011
 30
0.0
 11
26.49599757301542
 21
0.0
 31
0.0
210
0.0
220
0.0
230
0.9999999999999998
 40
0.342020143325666
 41
4.426231095454307
 42
4.450589592585519
  0
ELLIPSE
  5
397
330
2C3
100
AcDbEntity
  8
P-SANR-FIXT
100
AcDbEllipse
 10
1127.114353943079
 20
2050.482558850011
 30
0.0
 11
26.49599757301519
 21
0.0
 31
0.0
210
0.0
220
0.0
230
0.9999999999999998
 40
0.342020143325674
 41
4.476551451730128
 42
4.537856055185226
  0
ELLIPSE
  5
398
330
2C3
100
AcDbEntity
  8
P-SANR-FIXT
100
AcDbEllipse
 10
1127.114353943079
 20
2050.482558850011
 30
0.0
 11
26.49599757301523
 21
0.0
 31
0.0
210
0.0
220
0.0
230
1.0
 40
0.3420201433256724
 41
4.555199972578518
 42
4.625122517784943
  0
ELLIPSE
  5
399
330
2C3
100
AcDbEntity
  8
P-SANR-FIXT
100
AcDbEllipse
 10
1127.114353943079
 20
2050.482558850011
 30
0.0
 11
26.49599757301526
 21
0.0
 31
0.0
210
0.0
220
0.0
230
0.9999999999999998
 40
0.3420201433256679
 41
4.633818345831961
 42
4.712388980384666
  0
ELLIPSE
  5
39A
330
2C3
100
AcDbEntity
  8
P-SANR-FIXT
100
AcDbEllipse
 10
1127.114353943079
 20
2050.482558850011
 30
0.0
 11
26.4959975730153
 21
0.0
 31
0.0
210
0.0
220
0.0
230
0.9999999999999998
 40
0.3420201433256743
 41
4.712388980384683
 42
4.790959614938851
  0
ELLIPSE
  5
39B
330
2C3
100
AcDbEntity
  8
P-SANR-FIXT
100
AcDbEllipse
 10
1127.114353943079
 20
2050.482558850011
 30
0.0
 11
26.49599757301517
 21
0.0
 31
0.0
210
0.0
220
0.0
230
0.9999999999999998
 40
0.342020143325663
 41
4.799655442984395
 42
5.026888045289257
  0
ELLIPSE
  5
39C
330
2C3
100
AcDbEntity
  8
P-SANR-FIXT
100
AcDbEllipse
 10
1127.114353943079
 20
2050.482558850011
 30
0.0
 11
26.49599757301539
 21
0.0
 31
0.0
210
0.0
220
0.0
230
1.0
 40
0.3420201433256724
 41
5.037512108381117
 42
5.061454830783554
  0
ELLIPSE
  5
39D
330
2C3
100
AcDbEntity
  8
P-SANR-FIXT
100
AcDbEllipse
 10
1127.114353943079
 20
2050.482558850011
 30
0.0
 11
26.4959975730153
 21
0.0
 31
0.0
210
0.0
220
0.0
230
1.0
 40
0.3420201433256633
 41
5.105545016782905
 42
5.148721293383257
  0
ELLIPSE
  5
39E
330
2C3
100
AcDbEntity
  8
P-SANR-FIXT
100
AcDbEllipse
 10
1127.114353943079
 20
2050.482558850011
 30
0.0
 11
26.49599757301536
 21
0.0
 31
0.0
210
0.0
220
0.0
230
1.0
 40
0.342020143325666
 41
5.184178352443645
 42
5.235987755982975
  0
ELLIPSE
  5
39F
330
2C3
100
AcDbEntity
  8
P-SANR-FIXT
100
AcDbEllipse
 10
1127.114353943079
 20
2050.482558850011
 30
0.0
 11
26.49599757301543
 21
0.0
 31
0.0
210
0.0
220
0.0
230
1.0
 40
0.3420201433256644
 41
5.262766137434388
 42
5.327400937051142
  0
ELLIPSE
  5
3A0
330
2C3
100
AcDbEntity
  8
P-SANR-FIXT
100
AcDbEllipse
 10
1127.114353943079
 20
2050.482558850011
 30
0.0
 11
26.49599757301546
 21
0.0
 31
0.0
210
0.0
220
0.0
230
0.9999999999999998
 40
0.3420201433256622
 41
5.341281675628625
 42
5.672320068981546
  0
ELLIPSE
  5
3A1
330
2C3
100
AcDbEntity
  8
P-SANR-FIXT
100
AcDbEllipse
 10
1127.114353943079
 20
2050.482558850011
 30
0.0
 11
26.4959975730154
 21
0.0
 31
0.0
210
0.0
220
0.0
230
1.0
 40
0.3420201433256682
 41
5.734906355726997
 42
5.759586531581271
  0
ELLIPSE
  5
3A2
330
2C3
100
AcDbEntity
  8
P-SANR-FIXT
100
AcDbEllipse
 10
1127.114353943079
 20
2050.482558850011
 30
0.0
 11
26.49599757301546
 21
0.0
 31
0.0
210
0.0
220
0.0
230
1.0
 40
0.3420201433256565
 41
5.918564190030901
 42
5.968686242278697
  0
ELLIPSE
  5
3A3
330
2C3
100
AcDbEntity
  8
P-SANR-FIXT
100
AcDbEllipse
 10
1127.114353943079
 20
2050.482558850011
 30
0.0
 11
26.49599757301539
 21
0.0
 31
0.0
210
0.0
220
0.0
230
1.0
 40
0.3420201433256582
 41
6.003882788604255
 42
6.047347778527149
  0
ELLIPSE
  5
3A4
330
2C3
100
AcDbEntity
  8
P-SANR-FIXT
100
AcDbEllipse
 10
1127.114353943079
 20
2050.482558850011
 30
0.0
 11
26.49599757301535
 21
0.0
 31
0.0
210
0.0
220
0.0
230
1.0
 40
0.3420201433256657
 41
6.091133575049433
 42
6.125996299375525
  0
ELLIPSE
  5
3A5
330
2C3
100
AcDbEntity
  8
P-SANR-FIXT
100
AcDbEllipse
 10
1127.114353943079
 20
2050.482558850011
 30
0.0
 11
26.49599757301521
 21
0.0
 31
0.0
210
0.0
220
0.0
230
0.9999999999999998
 40
0.3420201433256555
 41
6.195918844579844
 42
6.204614672628917
  0
ELLIPSE
  5
3A6
330
2C3
100
AcDbEntity
  8
P-SANR-FIXT
100
AcDbEllipse
 10
1127.114353943079
 20
2028.316954231114
 30
0.0
 11
22.49999999999998
 21
0.0
 31
0.0
210
0.0
220
0.0
230
1.0
 40
0.3420201433256831
 41
3.141592653589845
 42
4.558670950236123
  0
ELLIPSE
  5
3A7
330
2C3
100
AcDbEntity
  8
P-SANR-FIXT
100
AcDbEllipse
 10
1127.114353943079
 20
2028.316954231114
 30
0.0
 11
22.50000000000003
 21
0.0
 31
0.0
210
0.0
220
0.0
230
1.0
 40
0.3420201433256686
 41
4.866107010533216
 42
6.20464549083983
  0
ELLIPSE
  5
3A8
330
2C3
100
AcDbEntity
  8
P-SANR-FIXT
100
AcDbEllipse
 10
1127.114353943079
 20
2050.008951488515
 30
0.0
 11
26.99999999999977
 21
0.0
 31
0.0
210
0.0
220
0.0
230
1.0
 40
0.3420201433256786
 41
2.950693443815239
 42
4.712388980384683
  0
ELLIPSE
  5
3A9
330
2C3
100
AcDbEntity
  8
P-SANR-FIXT
100
AcDbEllipse
 10
1127.114353943079
 20
2050.008951488515
 30
0.0
 11
27.00000000000027
 21
0.0
 31
0.0
210
0.0
220
0.0
230
1.0
 40
0.3420201433256615
 41
4.712388980384683
 42
6.474084463558384
  0
ENDBLK
  5
3AB
330
2C3
100
AcDbEntity
  8
0
100
AcDbBlockEnd
  0
ENDSEC
  0
SECTION
  2
ENTITIES
  0
INSERT
  5
1B4
330
71
100
AcDbEntity
  8
P-SANR-FIXT
100
AcDbBlockReference
  2
Automatic flow rate regulator valve_Caleffi_121 DN15 - 1_2___Pressure gauge-927103-Est - Idraulica
 10
0.0
 20
0.0
 30
0.0
1001
REVIT
1002
{
1070
     1
1000
863131
1002
}
1002
{
1070
     5
1000
927103
1002
}
1002
{
1070
     2
1000
-2001160
1002
}
  0
INSERT
  5
2C2
330
71
100
AcDbEntity
  8
P-SANR-FIXT
100
AcDbBlockReference
  2
Automatic flow rate regulator valve_Caleffi_121 DN15 - 1_2___Pressure gauge-V1-Est - Idraulica
 10
0.0
 20
0.0
 30
0.0
1001
REVIT
1002
{
1070
     1
1000
863152
1002
}
1002
{
1070
     5
1000
927103
1002
}
1002
{
1070
     2
1000
-2001160
1002
}
  0
INSERT
  5
3AC
330
71
100
AcDbEntity
  8
P-SANR-FIXT
100
AcDbBlockReference
  2
Automatic flow rate regulator valve_Caleffi_121 DN15 - 1_2___Pressure gauge-V2-Est - Idraulica
 10
0.0
 20
0.0
 30
0.0
1001
REVIT
1002
{
1070
     1
1000
863172
1002
}
1002
{
1070
     5
1000
927103
1002
}
1002
{
1070
     2
1000
-2001160
1002
}
  0
ENDSEC
  0
SECTION
  2
OBJECTS
  0
DICTIONARY
  5
C
330
0
100
AcDbDictionary
281
     1
  3
ACAD_CIP_PREVIOUS_PRODUCT_INFO
350
7A
  3
ACAD_COLOR
350
63
  3
ACAD_DETAILVIEWSTYLE
350
6B
  3
ACAD_GROUP
350
D
  3
ACAD_IMAGE_VARS
350
7B
  3
ACAD_LAYOUT
350
62
  3
ACAD_MATERIAL
350
10
  3
ACAD_MLEADERSTYLE
350
66
  3
ACAD_MLINESTYLE
350
5F
  3
ACAD_PLOTSETTINGS
350
61
  3
ACAD_PLOTSTYLENAME
350
E
  3
ACAD_SCALELIST
350
42
  3
ACAD_SECTIONVIEWSTYLE
350
68
  3
ACAD_TABLESTYLE
350
64
  3
ACAD_VISUALSTYLE
350
29
  3
ACDB_RECOMPOSE_DATA
350
3B7
  3
AcDbVariableDictionary
350
7C
  3
REVIT_DICTIONARY
350
3AE
  0
DICTIONARY
  5
3B3
330
71
100
AcDbDictionary
280
     1
281
     1
  3
ACAD_SORTENTS
360
3B4
  0
XRECORD
  5
7A
102
{ACAD_REACTORS
330
C
102
}
330
C
100
AcDbXrecord
280
     1
300
RVT
300
2013
300
RVT2013
  0
DICTIONARY
  5
63
102
{ACAD_REACTORS
330
C
102
}
330
C
100
AcDbDictionary
281
     1
  0
DICTIONARY
  5
6B
102
{ACAD_REACTORS
330
C
102
}
330
C
100
AcDbDictionary
281
     1
  3
Imperial24
350
6C
  0
DICTIONARY
  5
D
102
{ACAD_REACTORS
330
C
102
}
330
C
100
AcDbDictionary
281
     1
  0
RASTERVARIABLES
  5
7B
102
{ACAD_REACTORS
330
C
102
}
330
C
100
AcDbRasterVariables
 90
        0
 70
     0
 71
     1
 72
     1
  0
DICTIONARY
  5
62
102
{ACAD_REACTORS
330
C
102
}
330
C
100
AcDbDictionary
281
     1
  3
Layout1
350
70
  3
Layout2
350
78
  3
Model
350
74
  0
DICTIONARY
  5
10
102
{ACAD_REACTORS
330
C
102
}
330
C
100
AcDbDictionary
281
     1
  3
ByBlock
350
19
  3
ByLayer
350
11
  3
Global
350
21
  0
DICTIONARY
  5
66
102
{ACAD_REACTORS
330
C
102
}
330
C
100
AcDbDictionary
281
     1
  3
Standard
350
67
  0
DICTIONARY
  5
5F
102
{ACAD_REACTORS
330
C
102
}
330
C
100
AcDbDictionary
281
     1
  3
Standard
350
60
  0
DICTIONARY
  5
61
102
{ACAD_REACTORS
330
C
102
}
330
C
100
AcDbDictionary
281
     1
  0
ACDBDICTIONARYWDFLT
  5
E
102
{ACAD_REACTORS
330
C
102
}
330
C
100
AcDbDictionary
281
     1
  3
Normal
350
F
100
AcDbDictionaryWithDefault
340
F
  0
DICTIONARY
  5
42
102
{ACAD_REACTORS
330
C
102
}
330
C
100
AcDbDictionary
281
     1
  3
A0
350
43
  3
A1
350
44
  3
A2
350
45
  3
A3
350
46
  3
A4
350
47
  3
A5
350
48
  3
A6
350
49
  3
A7
350
4A
  3
A8
350
4B
  3
A9
350
4C
  3
B0
350
4D
  3
B1
350
4E
  3
B2
350
4F
  3
B3
350
50
  3
B4
350
51
  3
B5
350
52
  3
B6
350
53
  0
DICTIONARY
  5
68
102
{ACAD_REACTORS
330
C
102
}
330
C
100
AcDbDictionary
281
     1
  3
Imperial24
350
6A
  0
DICTIONARY
  5
64
102
{ACAD_REACTORS
330
C
102
}
330
C
100
AcDbDictionary
281
     1
  3
Standard
350
65
  0
DICTIONARY
  5
29
102
{ACAD_REACTORS
330
C
102
}
330
C
100
AcDbDictionary
281
     1
  3
2dWireframe
350
2F
  3
Basic
350
2E
  3
Brighten
350
35
  3
ColorChange
350
39
  3
Conceptual
350
32
  3
Dim
350
34
  3
EdgeColorOff
350
41
  3
Facepattern
350
38
  3
Flat
350
2A
  3
FlatWithEdges
350
2B
  3
Gouraud
350
2C
  3
GouraudWithEdges
350
2D
  3
Hidden
350
31
  3
JitterOff
350
3F
  3
Linepattern
350
37
  3
OverhangOff
350
40
  3
Realistic
350
33
  3
Shaded
350
3E
  3
Shaded with edges
350
3D
  3
Shades of Gray
350
3A
  3
Sketchy
350
3B
  3
Thicken
350
36
  3
Wireframe
350
30
  3
X-Ray
350
3C
  0
XRECORD
  5
3B7
102
{ACAD_REACTORS
330
C
102
}
330
C
100
AcDbXrecord
280
     1
 90
        1
330
65
  0
DICTIONARY
  5
7C
102
{ACAD_REACTORS
330
C
102
}
330
C
100
AcDbDictionary
281
     1
  3
CANNOSCALE
350
81
  3
CMLEADERSTYLE
350
7E
  3
CTABLESTYLE
350
7D
  3
CVIEWDETAILSTYLE
350
7F
  3
CVIEWSECTIONSTYLE
350
80
  0
DICTIONARY
  5
3AE
102
{ACAD_REACTORS
330
C
102
}
330
C
100
AcDbDictionary
281
     1
  3
DRAWING_TOOL
350
3B2
  3
REVIT_CATEGORY_MAPPING
350
3B0
  3
REVIT_SUB_CATEGORY_MAPPING
350
3B1
  3
REVIT_TYPE_MAPPING
350
3AF
  0
SORTENTSTABLE
  5
3B4
102
{ACAD_REACTORS
330
3B3
102
}
330
3B3
100
AcDbSortentsTable
330
71
  0
ACDBDETAILVIEWSTYLE
  5
6C
102
{ACAD_REACTORS
330
6B
102
}
330
6B
100
AcDbModelDocViewStyle
 70
     0
  3
Imperial24
290
     1
100
AcDbDetailViewStyle
 70
     0
 71
     0
 90
        3
 71
     1
340
55
 62
   256
 40
0.24
340
0
 62
   256
 40
0.24
300

 40
0.36
280
     3
 71
     2
340
5D
 90
       25
 62
   256
 71
     3
340
55
 62
   256
 40
0.24
 90
        1
 40
0.75
 90
        1
300
%<\AcVar ViewType \f "%tc1">% %<\AcVar ViewDetailId>%\PSCALA %<\AcVar ViewScale \f "%sn">%
 71
     4
340
5D
 90
       25
 62
   256
340
5D
 90
       25
 62
   256
280
     0
  0
LAYOUT
  5
70
102
{ACAD_REACTORS
330
62
102
}
330
62
100
AcDbPlotSettings
  1

  2

  4

  6

 40
0.0
 41
0.0
 42
0.0
 43
0.0
 44
0.0
 45
0.0
 46
0.0
 47
0.0
 48
0.0
 49
0.0
140
0.0
141
0.0
142
1.0
143
1.0
 70
   688
 72
     0
 73
     0
 74
     5
  7

 75
    16
147
1.0
 76
     0
 77
     2
 78
   300
148
0.0
149
0.0
100
AcDbLayout
  1
Layout1
 70
     1
 71
     1
 10
0.0
 20
0.0
 11
12.0
 21
9.0
 12
0.0
 22
0.0
 32
0.0
 14
0.0
 24
0.0
 34
0.0
 15
0.0
 25
0.0
 35
0.0
146
0.0
 13
0.0
 23
0.0
 33
0.0
 16
1.0
 26
0.0
 36
0.0
 17
0.0
 27
1.0
 37
0.0
 76
     0
330
6D
  0
LAYOUT
  5
78
102
{ACAD_REACTORS
330
62
102
}
330
62
100
AcDbPlotSettings
  1

  2

  4

  6

 40
0.0
 41
0.0
 42
0.0
 43
0.0
 44
0.0
 45
0.0
 46
0.0
 47
0.0
 48
0.0
 49
0.0
140
0.0
141
0.0
142
1.0
143
1.0
 70
   688
 72
     0
 73
     0
 74
     5
  7

 75
    16
147
1.0
 76
     0
 77
     2
 78
   300
148
0.0
149
0.0
100
AcDbLayout
  1
Layout2
 70
     1
 71
     2
 10
0.0
 20
0.0
 11
12.0
 21
9.0
 12
0.0
 22
0.0
 32
0.0
 14
0.0
 24
0.0
 34
0.0
 15
0.0
 25
0.0
 35
0.0
146
0.0
 13
0.0
 23
0.0
 33
0.0
 16
1.0
 26
0.0
 36
0.0
 17
0.0
 27
1.0
 37
0.0
 76
     0
330
75
  0
LAYOUT
  5
74
102
{ACAD_REACTORS
330
62
102
}
330
62
100
AcDbPlotSettings
  1

  2

  4

  6

 40
0.0
 41
0.0
 42
0.0
 43
0.0
 44
0.0
 45
0.0
 46
0.0
 47
0.0
 48
0.0
 49
0.0
140
0.0
141
0.0
142
1.0
143
1.0
 70
  1712
 72
     0
 73
     0
 74
     0
  7

 75
     0
147
1.0
 76
     0
 77
     2
 78
   300
148
0.0
149
0.0
100
AcDbLayout
  1
Model
 70
     1
 71
     0
 10
0.0
 20
0.0
 11
12.0
 21
9.0
 12
0.0
 22
0.0
 32
0.0
 14
0.0
 24
0.0
 34
0.0
 15
0.0
 25
0.0
 35
0.0
146
0.0
 13
0.0
 23
0.0
 33
0.0
 16
1.0
 26
0.0
 36
0.0
 17
0.0
 27
1.0
 37
0.0
 76
     0
330
71
  0
MATERIAL
  5
19
102
{ACAD_XDICTIONARY
360
1A
102
}
102
{ACAD_REACTORS
330
10
102
}
330
10
100
AcDbMaterial
  1
ByBlock
 72
     0
 43
0.0208333333333333
 43
0.0
 43
0.0
 43
0.0
 43
0.0
 43
0.0208333333333333
 43
0.0
 43
0.0
 43
0.0
 43
0.0
 43
1.0
 43
0.0
 43
0.0
 43
0.0
 43
0.0
 43
1.0
 77
     0
 47
0.0208333333333333
 47
0.0
 47
0.0
 47
0.0
 47
0.0
 47
0.0208333333333333
 47
0.0
 47
0.0
 47
0.0
 47
0.0
 47
1.0
 47
0.0
 47
0.0
 47
0.0
 47
0.0
 47
1.0
171
     0
 49
0.0208333333333333
 49
0.0
 49
0.0
 49
0.0
 49
0.0
 49
0.0208333333333333
 49
0.0
 49
0.0
 49
0.0
 49
0.0
 49
1.0
 49
0.0
 49
0.0
 49
0.0
 49
0.0
 49
1.0
175
     0
142
0.0208333333333333
142
0.0
142
0.0
142
0.0
142
0.0
142
0.0208333333333333
142
0.0
142
0.0
142
0.0
142
0.0
142
1.0
142
0.0
142
0.0
142
0.0
142
0.0
142
1.0
179
     0
144
0.0208333333333333
144
0.0
144
0.0
144
0.0
144
0.0
144
0.0208333333333333
144
0.0
144
0.0
144
0.0
144
0.0
144
1.0
144
0.0
144
0.0
144
0.0
144
0.0
144
1.0
147
0.0208333333333333
147
0.0
147
0.0
147
0.0
147
0.0
147
0.0208333333333333
147
0.0
147
0.0
147
0.0
147
0.0
147
1.0
147
0.0
147
0.0
147
0.0
147
0.0
147
1.0
  0
MATERIAL
  5
11
102
{ACAD_XDICTIONARY
360
12
102
}
102
{ACAD_REACTORS
330
10
102
}
330
10
100
AcDbMaterial
  1
ByLayer
 72
     0
 43
0.0208333333333333
 43
0.0
 43
0.0
 43
0.0
 43
0.0
 43
0.0208333333333333
 43
0.0
 43
0.0
 43
0.0
 43
0.0
 43
1.0
 43
0.0
 43
0.0
 43
0.0
 43
0.0
 43
1.0
 77
     0
 47
0.0208333333333333
 47
0.0
 47
0.0
 47
0.0
 47
0.0
 47
0.0208333333333333
 47
0.0
 47
0.0
 47
0.0
 47
0.0
 47
1.0
 47
0.0
 47
0.0
 47
0.0
 47
0.0
 47
1.0
171
     0
 49
0.0208333333333333
 49
0.0
 49
0.0
 49
0.0
 49
0.0
 49
0.0208333333333333
 49
0.0
 49
0.0
 49
0.0
 49
0.0
 49
1.0
 49
0.0
 49
0.0
 49
0.0
 49
0.0
 49
1.0
175
     0
142
0.0208333333333333
142
0.0
142
0.0
142
0.0
142
0.0
142
0.0208333333333333
142
0.0
142
0.0
142
0.0
142
0.0
142
1.0
142
0.0
142
0.0
142
0.0
142
0.0
142
1.0
179
     0
144
0.0208333333333333
144
0.0
144
0.0
144
0.0
144
0.0
144
0.0208333333333333
144
0.0
144
0.0
144
0.0
144
0.0
144
1.0
144
0.0
144
0.0
144
0.0
144
0.0
144
1.0
147
0.0208333333333333
147
0.0
147
0.0
147
0.0
147
0.0
147
0.0208333333333333
147
0.0
147
0.0
147
0.0
147
0.0
147
1.0
147
0.0
147
0.0
147
0.0
147
0.0
147
1.0
  0
MATERIAL
  5
21
102
{ACAD_XDICTIONARY
360
22
102
}
102
{ACAD_REACTORS
330
10
102
}
330
10
100
AcDbMaterial
  1
Global
 72
     0
 43
0.0208333333333333
 43
0.0
 43
0.0
 43
0.0
 43
0.0
 43
0.0208333333333333
 43
0.0
 43
0.0
 43
0.0
 43
0.0
 43
1.0
 43
0.0
 43
0.0
 43
0.0
 43
0.0
 43
1.0
 77
     0
 47
0.0208333333333333
 47
0.0
 47
0.0
 47
0.0
 47
0.0
 47
0.0208333333333333
 47
0.0
 47
0.0
 47
0.0
 47
0.0
 47
1.0
 47
0.0
 47
0.0
 47
0.0
 47
0.0
 47
1.0
171
     0
 49
0.0208333333333333
 49
0.0
 49
0.0
 49
0.0
 49
0.0
 49
0.0208333333333333
 49
0.0
 49
0.0
 49
0.0
 49
0.0
 49
1.0
 49
0.0
 49
0.0
 49
0.0
 49
0.0
 49
1.0
175
     0
142
0.0208333333333333
142
0.0
142
0.0
142
0.0
142
0.0
142
0.0208333333333333
142
0.0
142
0.0
142
0.0
142
0.0
142
1.0
142
0.0
142
0.0
142
0.0
142
0.0
142
1.0
179
     0
144
0.0208333333333333
144
0.0
144
0.0
144
0.0
144
0.0
144
0.0208333333333333
144
0.0
144
0.0
144
0.0
144
0.0
144
1.0
144
0.0
144
0.0
144
0.0
144
0.0
144
1.0
147
0.0208333333333333
147
0.0
147
0.0
147
0.0
147
0.0
147
0.0208333333333333
147
0.0
147
0.0
147
0.0
147
0.0
147
1.0
147
0.0
147
0.0
147
0.0
147
0.0
147
1.0
  0
MLEADERSTYLE
  5
67
102
{ACAD_REACTORS
330
66
102
}
330
66
100
AcDbMLeaderStyle
179
     2
170
     2
171
     1
172
     0
 90
        2
 40
0.0
 41
0.0
173
     1
 91
-1056964608
340
5B
 92
       -2
290
     1
 42
0.09
291
     1
 43
0.36
  3
Standard
 44
0.18
300

342
55
174
     1
178
     6
175
     1
176
     0
 93
-1056964608
 45
0.18
292
     0
297
     0
 46
0.18
 94
-1056964608
 47
1.0
 49
1.0
140
1.0
293
     1
141
0.0
294
     1
177
     0
142
1.0
295
     1
296
     0
143
0.125
271
     0
272
     9
273
     9
298
     1
  0
MLINESTYLE
  5
60
102
{ACAD_REACTORS
330
5F
102
}
330
5F
100
AcDbMlineStyle
  2
STANDARD
 70
     0
  3

 62
   256
 51
90.0
 52
90.0
 71
     2
 49
0.5
 62
   256
  6
BYLAYER
 49
-0.5
 62
   256
  6
BYLAYER
  0
ACDBPLACEHOLDER
  5
F
102
{ACAD_REACTORS
330
E
102
}
330
E
  0
SCALE
  5
43
102
{ACAD_REACTORS
330
42
102
}
330
42
100
AcDbScale
 70
     0
300
1:1
140
1.0
141
1.0
290
     1
  0
SCALE
  5
44
102
{ACAD_REACTORS
330
42
102
}
330
42
100
AcDbScale
 70
     0
300
1/128" = 1'-0"
140
0.0078125
141
12.0
290
     0
  0
SCALE
  5
45
102
{ACAD_REACTORS
330
42
102
}
330
42
100
AcDbScale
 70
     0
300
1/64" = 1'-0"
140
0.015625
141
12.0
290
     0
  0
SCALE
  5
46
102
{ACAD_REACTORS
330
42
102
}
330
42
100
AcDbScale
 70
     0
300
1/32" = 1'-0"
140
0.03125
141
12.0
290
     0
  0
SCALE
  5
47
102
{ACAD_REACTORS
330
42
102
}
330
42
100
AcDbScale
 70
     0
300
1/16" = 1'-0"
140
0.0625
141
12.0
290
     0
  0
SCALE
  5
48
102
{ACAD_REACTORS
330
42
102
}
330
42
100
AcDbScale
 70
     0
300
3/32" = 1'-0"
140
0.09375
141
12.0
290
     0
  0
SCALE
  5
49
102
{ACAD_REACTORS
330
42
102
}
330
42
100
AcDbScale
 70
     0
300
1/8" = 1'-0"
140
0.125
141
12.0
290
     0
  0
SCALE
  5
4A
102
{ACAD_REACTORS
330
42
102
}
330
42
100
AcDbScale
 70
     0
300
3/16" = 1'-0"
140
0.1875
141
12.0
290
     0
  0
SCALE
  5
4B
102
{ACAD_REACTORS
330
42
102
}
330
42
100
AcDbScale
 70
     0
300
1/4" = 1'-0"
140
0.25
141
12.0
290
     0
  0
SCALE
  5
4C
102
{ACAD_REACTORS
330
42
102
}
330
42
100
AcDbScale
 70
     0
300
3/8" = 1'-0"
140
0.375
141
12.0
290
     0
  0
SCALE
  5
4D
102
{ACAD_REACTORS
330
42
102
}
330
42
100
AcDbScale
 70
     0
300
1/2" = 1'-0"
140
0.5
141
12.0
290
     0
  0
SCALE
  5
4E
102
{ACAD_REACTORS
330
42
102
}
330
42
100
AcDbScale
 70
     0
300
3/4" = 1'-0"
140
0.75
141
12.0
290
     0
  0
SCALE
  5
4F
102
{ACAD_REACTORS
330
42
102
}
330
42
100
AcDbScale
 70
     0
300
1" = 1'-0"
140
1.0
141
12.0
290
     0
  0
SCALE
  5
50
102
{ACAD_REACTORS
330
42
102
}
330
42
100
AcDbScale
 70
     0
300
1-1/2" = 1'-0"
140
1.5
141
12.0
290
     0
  0
SCALE
  5
51
102
{ACAD_REACTORS
330
42
102
}
330
42
100
AcDbScale
 70
     0
300
3" = 1'-0"
140
3.0
141
12.0
290
     0
  0
SCALE
  5
52
102
{ACAD_REACTORS
330
42
102
}
330
42
100
AcDbScale
 70
     0
300
6" = 1'-0"
140
6.0
141
12.0
290
     0
  0
SCALE
  5
53
102
{ACAD_REACTORS
330
42
102
}
330
42
100
AcDbScale
 70
     0
300
1'-0" = 1'-0"
140
12.0
141
12.0
290
     0
  0
ACDBSECTIONVIEWSTYLE
  5
6A
102
{ACAD_REACTORS
330
68
102
}
330
68
100
AcDbModelDocViewStyle
 70
     0
  3
Imperial24
290
     1
100
AcDbSectionViewStyle
 70
     0
 71
     0
 90
       78
 71
     1
340
55
 62
   256
 40
0.24
340
0
340
0
 62
   256
 40
0.24
300
I, O, Q, S, X, Z
 40
0.48
 90
        3
 40
0.18
 90
        1
 71
     2
340
69
 90
       25
 62
   256
340
5D
 90
       50
 62
   256
 40
0.24
 40
0.0
 40
0.24
 71
     3
340
55
 62
   256
 40
0.24
 90
        1
 40
0.75
 90
        1
300
%<\AcVar ViewType \f "%tc1">% %<\AcVar ViewSectionStartId>%-%<\AcVar ViewSectionEndId>%\PSCALA %<\AcVar ViewScale \f "%sn">%
 71
     4
 62
   256
 62
   257
300
ANSI31
 40
1.0
 90
        0
290
     0
290
     0
 90
        6
 40
0.0
 40
1.570796326794896
 40
0.2617993877991494
 40
1.308996938995747
 40
-0.2617993877991494
 40
1.832595714594046
  0
TABLESTYLE
  5
65
102
{ACAD_XDICTIONARY
360
3B5
102
}
102
{ACAD_REACTORS
330
64
102
}
330
64
100
AcDbTableStyle
280
     0
  3
Standard
 70
     0
 71
     0
 40
0.06
 41
0.06
280
     0
281
     0
  7
Standard
140
0.18
170
     2
 62
     0
 63
     7
283
     0
 90
      512
 91
        0
  1

274
    -2
284
     1
 64
     0
275
    -2
285
     1
 65
     0
276
    -2
286
     1
 66
     0
277
    -2
287
     1
 67
     0
278
    -2
288
     1
 68
     0
279
    -2
289
     1
 69
     0
  7
Standard
140
0.25
170
     5
 62
     0
 63
     7
283
     0
 90
      512
 91
        0
  1

274
    -2
284
     1
 64
     0
275
    -2
285
     1
 65
     0
276
    -2
286
     1
 66
     0
277
    -2
287
     1
 67
     0
278
    -2
288
     1
 68
     0
279
    -2
289
     1
 69
     0
  7
Standard
140
0.18
170
     5
 62
     0
 63
     7
283
     0
 90
      512
 91
        0
  1

274
    -2
284
     1
 64
     0
275
    -2
285
     1
 65
     0
276
    -2
286
     1
 66
     0
277
    -2
287
     1
 67
     0
278
    -2
288
     1
 68
     0
279
    -2
289
     1
 69
     0
  0
VISUALSTYLE
  5
2F
102
{ACAD_REACTORS
330
29
102
}
330
29
100
AcDbVisualStyle
  2
2dWireframe
 70
     4
177
     3
291
     0
 70
    58
 90
        0
176
     1
 90
        2
176
     1
 90
        0
176
     1
 90
        0
176
     1
 40
0.6
176
     1
 40
30.0
176
     1
 62
     7
420
 16777215
176
     1
 90
        1
176
     1
 90
        4
176
     1
 62
     7
176
     1
 62
   257
176
     1
 90
        1
176
     1
 90
        1
176
     1
 40
1.0
176
     1
 90
        0
176
     1
 62
   257
176
     1
 40
1.0
176
     1
 90
        1
176
     1
 90
        6
176
     1
 90
        2
176
     1
 62
     7
176
     1
 90
        5
176
     1
 90
        0
176
     1
 90
        0
176
     1
290
     0
176
     1
 90
        1
176
     1
 40
0.0
176
     1
 90
        0
176
     1
290
     1
176
     1
290
     1
176
     1
290
     0
176
     1
290
     0
176
     1
290
     0
176
     1
290
     0
176
     1
290
     0
176
     1
290
     0
176
     1
290
     0
176
     1
 90
       50
176
     1
 40
0.0
176
     1
 40
1.0
176
     1
 90
        0
176
     1
 62
    18
420
        0
176
     1
 90
       50
176
     1
 90
        3
176
     1
 62
     5
420
      255
176
     1
290
     0
176
     1
 90
       50
176
     1
 90
       50
176
     1
 90
       50
176
     1
290
     0
176
     1
 90
       50
176
     1
 62
   256
176
     0
 40
1.0
176
     0
 90
        2
176
     1
  1
strokes_ogs.tif
176
     1
290
     0
176
     1
 40
1.0
176
     1
 40
1.0
176
     1
  0
VISUALSTYLE
  5
2E
102
{ACAD_REACTORS
330
29
102
}
330
29
100
AcDbVisualStyle
  2
Basic
 70
     7
177
     3
291
     1
 70
    58
 90
        1
176
     1
 90
        0
176
     1
 90
        1
176
     1
 90
        0
176
     1
 40
0.6
176
     1
 40
30.0
176
     1
 62
     7
420
 16777215
176
     1
 90
        0
176
     1
 90
        4
176
     1
 62
     7
176
     1
 62
   257
176
     1
 90
        1
176
     1
 90
        1
176
     1
 40
1.0
176
     1
 90
        8
176
     1
 62
     7
176
     1
 40
1.0
176
     1
 90
        1
176
     1
 90
        6
176
     1
 90
        2
176
     1
 62
     7
176
     1
 90
        5
176
     1
 90
        0
176
     1
 90
        0
176
     1
290
     0
176
     1
 90
        1
176
     1
 40
0.0
176
     1
 90
        0
176
     1
290
     0
176
     1
290
     1
176
     1
290
     1
176
     1
290
     0
176
     1
290
     0
176
     1
290
     0
176
     1
290
     0
176
     1
290
     0
176
     1
290
     0
176
     1
 90
       50
176
     1
 40
0.0
176
     1
 40
1.0
176
     1
 90
        0
176
     1
 62
    18
420
        0
176
     1
 90
       50
176
     1
 90
        3
176
     1
 62
     5
420
      255
176
     1
290
     0
176
     1
 90
       50
176
     1
 90
       50
176
     1
 90
       50
176
     1
290
     0
176
     1
 90
       50
176
     1
 62
   256
176
     0
 40
1.0
176
     0
 90
        2
176
     1
  1
strokes_ogs.tif
176
     1
290
     0
176
     1
 40
1.0
176
     1
 40
1.0
176
     1
  0
VISUALSTYLE
  5
35
102
{ACAD_REACTORS
330
29
102
}
330
29
100
AcDbVisualStyle
  2
Brighten
 70
    12
177
     3
291
     1
 70
    58
 90
        2
176
     1
 90
        2
176
     1
 90
        0
176
     1
 90
        0
176
     1
 40
0.6
176
     1
 40
30.0
176
     1
 62
     7
420
 16777215
176
     1
 90
        1
176
     1
 90
        4
176
     1
 62
     7
176
     1
 62
   257
176
     1
 90
        1
176
     1
 90
        1
176
     1
 40
1.0
176
     1
 90
        8
176
     1
 62
     7
176
     1
 40
1.0
176
     1
 90
        1
176
     1
 90
        6
176
     1
 90
        2
176
     1
 62
     7
176
     1
 90
        5
176
     1
 90
        0
176
     1
 90
        0
176
     1
290
     0
176
     1
 90
        1
176
     1
 40
50.0
176
     1
 90
        0
176
     1
290
     0
176
     1
290
     1
176
     1
290
     1
176
     1
290
     0
176
     1
290
     0
176
     1
290
     0
176
     1
290
     0
176
     1
290
     0
176
     1
290
     0
176
     1
 90
       50
176
     1
 40
0.0
176
     1
 40
1.0
176
     1
 90
        0
176
     1
 62
    18
420
        0
176
     1
 90
       50
176
     1
 90
        3
176
     1
 62
     5
420
      255
176
     1
290
     0
176
     1
 90
       50
176
     1
 90
       50
176
     1
 90
       50
176
     1
290
     0
176
     1
 90
       50
176
     1
 62
   256
176
     0
 40
1.0
176
     0
 90
        2
176
     1
  1
strokes_ogs.tif
176
     1
290
     0
176
     1
 40
1.0
176
     1
 40
1.0
176
     1
  0
VISUALSTYLE
  5
39
102
{ACAD_REACTORS
330
29
102
}
330
29
100
AcDbVisualStyle
  2
ColorChange
 70
    16
177
     3
291
     1
 70
    58
 90
        2
176
     1
 90
        2
176
     1
 90
        3
176
     1
 90
        0
176
     1
 40
0.6
176
     1
 40
30.0
176
     1
 62
     8
420
  8421504
176
     1
 90
        1
176
     1
 90
        4
176
     1
 62
     7
176
     1
 62
   257
176
     1
 90
        1
176
     1
 90
        1
176
     1
 40
1.0
176
     1
 90
        8
176
     1
 62
     8
420
  8421504
176
     1
 40
1.0
176
     1
 90
        1
176
     1
 90
        6
176
     1
 90
        2
176
     1
 62
     7
176
     1
 90
        5
176
     1
 90
        0
176
     1
 90
        0
176
     1
290
     0
176
     1
 90
        1
176
     1
 40
0.0
176
     1
 90
        0
176
     1
290
     0
176
     1
290
     1
176
     1
290
     1
176
     1
290
     0
176
     1
290
     0
176
     1
290
     0
176
     1
290
     0
176
     1
290
     0
176
     1
290
     0
176
     1
 90
       50
176
     1
 40
0.0
176
     1
 40
1.0
176
     1
 90
        0
176
     1
 62
    18
420
        0
176
     1
 90
       50
176
     1
 90
        3
176
     1
 62
     5
420
      255
176
     1
290
     0
176
     1
 90
       50
176
     1
 90
       50
176
     1
 90
       50
176
     1
290
     0
176
     1
 90
       50
176
     1
 62
   256
176
     0
 40
1.0
176
     0
 90
        2
176
     1
  1
strokes_ogs.tif
176
     1
290
     0
176
     1
 40
1.0
176
     1
 40
1.0
176
     1
  0
VISUALSTYLE
  5
32
102
{ACAD_REACTORS
330
29
102
}
330
29
100
AcDbVisualStyle
  2
Conceptual
 70
     9
177
     3
291
     0
 70
    58
 90
        3
176
     1
 90
        2
176
     1
 90
        0
176
     1
 90
        0
176
     1
 40
0.6
176
     1
 40
30.0
176
     1
 62
     7
420
 16777215
176
     1
 90
        2
176
     1
 90
        2
176
     1
 62
     7
176
     1
 62
   257
176
     1
 90
        1
176
     1
 90
        1
176
     1
 40
179.0
176
     1
 90
        8
176
     1
 62
     7
176
     1
 40
1.0
176
     1
 90
        1
176
     1
 90
        6
176
     1
 90
        2
176
     1
 62
     7
176
     1
 90
        3
176
     1
 90
        0
176
     1
 90
        0
176
     1
290
     0
176
     1
 90
        1
176
     1
 40
0.0
176
     1
 90
        0
176
     1
290
     0
176
     1
290
     1
176
     1
290
     1
176
     1
290
     0
176
     1
290
     0
176
     1
290
     0
176
     1
290
     0
176
     1
290
     0
176
     1
290
     0
176
     1
 90
       50
176
     1
 40
0.0
176
     1
 40
1.0
176
     1
 90
        0
176
     1
 62
    18
420
        0
176
     1
 90
       50
176
     1
 90
        3
176
     1
 62
     5
420
      255
176
     1
290
     0
176
     1
 90
       50
176
     1
 90
       50
176
     1
 90
       50
176
     1
290
     0
176
     1
 90
       50
176
     1
 62
   256
176
     0
 40
1.0
176
     0
 90
        2
176
     1
  1
strokes_ogs.tif
176
     1
290
     0
176
     1
 40
1.0
176
     1
 40
1.0
176
     1
  0
VISUALSTYLE
  5
34
102
{ACAD_REACTORS
330
29
102
}
330
29
100
AcDbVisualStyle
  2
Dim
 70
    11
177
     3
291
     1
 70
    58
 90
        2
176
     1
 90
        2
176
     1
 90
        0
176
     1
 90
        0
176
     1
 40
0.6
176
     1
 40
30.0
176
     1
 62
     7
420
 16777215
176
     1
 90
        1
176
     1
 90
        4
176
     1
 62
     7
176
     1
 62
   257
176
     1
 90
        1
176
     1
 90
        1
176
     1
 40
1.0
176
     1
 90
        8
176
     1
 62
     7
176
     1
 40
1.0
176
     1
 90
        1
176
     1
 90
        6
176
     1
 90
        2
176
     1
 62
     7
176
     1
 90
        5
176
     1
 90
        0
176
     1
 90
        0
176
     1
290
     0
176
     1
 90
        1
176
     1
 40
-50.0
176
     1
 90
        0
176
     1
290
     0
176
     1
290
     1
176
     1
290
     1
176
     1
290
     0
176
     1
290
     0
176
     1
290
     0
176
     1
290
     0
176
     1
290
     0
176
     1
290
     0
176
     1
 90
       50
176
     1
 40
0.0
176
     1
 40
1.0
176
     1
 90
        0
176
     1
 62
    18
420
        0
176
     1
 90
       50
176
     1
 90
        3
176
     1
 62
     5
420
      255
176
     1
290
     0
176
     1
 90
       50
176
     1
 90
       50
176
     1
 90
       50
176
     1
290
     0
176
     1
 90
       50
176
     1
 62
   256
176
     0
 40
1.0
176
     0
 90
        2
176
     1
  1
strokes_ogs.tif
176
     1
290
     0
176
     1
 40
1.0
176
     1
 40
1.0
176
     1
  0
VISUALSTYLE
  5
41
102
{ACAD_REACTORS
330
29
102
}
330
29
100
AcDbVisualStyle
  2
EdgeColorOff
 70
    22
177
     3
291
     1
 70
    58
 90
        2
176
     0
 90
        2
176
     0
 90
        0
176
     0
 90
        0
176
     0
 40
0.6
176
     0
 40
30.0
176
     0
 62
     7
420
 16777215
176
     0
 90
        1
176
     0
 90
        4
176
     0
 62
     7
176
     0
 62
   257
176
     0
 90
        1
176
     0
 90
        1
176
     0
 40
1.0
176
     0
 90
        8
176
     2
 62
     7
176
     0
 40
1.0
176
     0
 90
        1
176
     0
 90
        6
176
     0
 90
        2
176
     0
 62
     7
176
     0
 90
        5
176
     0
 90
        0
176
     0
 90
        0
176
     0
290
     0
176
     0
 90
        1
176
     0
 40
0.0
176
     0
 90
        0
176
     0
290
     0
176
     0
290
     1
176
     0
290
     1
176
     0
290
     0
176
     0
290
     0
176
     0
290
     0
176
     0
290
     0
176
     0
290
     0
176
     0
290
     0
176
     0
 90
       50
176
     0
 40
0.0
176
     0
 40
1.0
176
     0
 90
        0
176
     0
 62
    18
420
        0
176
     0
 90
       50
176
     0
 90
        3
176
     0
 62
     5
420
      255
176
     0
290
     0
176
     0
 90
       50
176
     0
 90
       50
176
     0
 90
       50
176
     0
290
     0
176
     0
 90
       50
176
     0
 62
   256
176
     0
 40
1.0
176
     0
 90
        2
176
     0
  1
strokes_ogs.tif
176
     0
290
     0
176
     0
 40
1.0
176
     0
 40
1.0
176
     0
  0
VISUALSTYLE
  5
38
102
{ACAD_REACTORS
330
29
102
}
330
29
100
AcDbVisualStyle
  2
Facepattern
 70
    15
177
     3
291
     1
 70
    58
 90
        2
176
     1
 90
        2
176
     1
 90
        0
176
     1
 90
        0
176
     1
 40
0.6
176
     1
 40
30.0
176
     1
 62
     7
420
 16777215
176
     1
 90
        1
176
     1
 90
        4
176
     1
 62
     7
176
     1
 62
   257
176
     1
 90
        1
176
     1
 90
        1
176
     1
 40
1.0
176
     1
 90
        8
176
     1
 62
     7
176
     1
 40
1.0
176
     1
 90
        1
176
     1
 90
        6
176
     1
 90
        2
176
     1
 62
     7
176
     1
 90
        5
176
     1
 90
        0
176
     1
 90
        0
176
     1
290
     0
176
     1
 90
        1
176
     1
 40
0.0
176
     1
 90
        0
176
     1
290
     0
176
     1
290
     1
176
     1
290
     1
176
     1
290
     0
176
     1
290
     0
176
     1
290
     0
176
     1
290
     0
176
     1
290
     0
176
     1
290
     0
176
     1
 90
       50
176
     1
 40
0.0
176
     1
 40
1.0
176
     1
 90
        0
176
     1
 62
    18
420
        0
176
     1
 90
       50
176
     1
 90
        3
176
     1
 62
     5
420
      255
176
     1
290
     0
176
     1
 90
       50
176
     1
 90
       50
176
     1
 90
       50
176
     1
290
     0
176
     1
 90
       50
176
     1
 62
   256
176
     0
 40
1.0
176
     0
 90
        2
176
     1
  1
strokes_ogs.tif
176
     1
290
     0
176
     1
 40
1.0
176
     1
 40
1.0
176
     1
  0
VISUALSTYLE
  5
2A
102
{ACAD_REACTORS
330
29
102
}
330
29
100
AcDbVisualStyle
  2
Flat
 70
     0
177
     3
291
     1
 70
    58
 90
        2
176
     1
 90
        1
176
     1
 90
        1
176
     1
 90
        2
176
     1
 40
0.6
176
     1
 40
30.0
176
     1
 62
     7
420
 16777215
176
     1
 90
        0
176
     1
 90
        0
176
     1
 62
     7
176
     1
 62
   257
176
     1
 90
        1
176
     1
 90
        1
176
     1
 40
1.0
176
     1
 90
        8
176
     1
 62
     7
176
     1
 40
1.0
176
     1
 90
        1
176
     1
 90
        6
176
     1
 90
        2
176
     1
 62
     7
176
     1
 90
        5
176
     1
 90
        0
176
     1
 90
        0
176
     1
290
     0
176
     1
 90
       13
176
     1
 40
0.0
176
     1
 90
        0
176
     1
290
     0
176
     1
290
     1
176
     1
290
     1
176
     1
290
     0
176
     1
290
     0
176
     1
290
     0
176
     1
290
     0
176
     1
290
     0
176
     1
290
     0
176
     1
 90
       50
176
     1
 40
0.0
176
     1
 40
1.0
176
     1
 90
        0
176
     1
 62
    18
420
        0
176
     1
 90
       50
176
     1
 90
        3
176
     1
 62
     5
420
      255
176
     1
290
     0
176
     1
 90
       50
176
     1
 90
       50
176
     1
 90
       50
176
     1
290
     0
176
     1
 90
       50
176
     1
 62
   256
176
     0
 40
1.0
176
     0
 90
        2
176
     1
  1
strokes_ogs.tif
176
     1
290
     0
176
     1
 40
1.0
176
     1
 40
1.0
176
     1
  0
VISUALSTYLE
  5
2B
102
{ACAD_REACTORS
330
29
102
}
330
29
100
AcDbVisualStyle
  2
FlatWithEdges
 70
     1
177
     3
291
     1
 70
    58
 90
        2
176
     1
 90
        1
176
     1
 90
        1
176
     1
 90
        2
176
     1
 40
0.6
176
     1
 40
30.0
176
     1
 62
     7
420
 16777215
176
     1
 90
        1
176
     1
 90
        0
176
     1
 62
     7
176
     1
 62
   257
176
     1
 90
        1
176
     1
 90
        1
176
     1
 40
1.0
176
     1
 90
        0
176
     1
 62
   257
176
     1
 40
1.0
176
     1
 90
        1
176
     1
 90
        6
176
     1
 90
        2
176
     1
 62
     7
176
     1
 90
        5
176
     1
 90
        0
176
     1
 90
        0
176
     1
290
     0
176
     1
 90
       13
176
     1
 40
0.0
176
     1
 90
        0
176
     1
290
     0
176
     1
290
     1
176
     1
290
     1
176
     1
290
     0
176
     1
290
     0
176
     1
290
     0
176
     1
290
     0
176
     1
290
     0
176
     1
290
     0
176
     1
 90
       50
176
     1
 40
0.0
176
     1
 40
1.0
176
     1
 90
        0
176
     1
 62
    18
420
        0
176
     1
 90
       50
176
     1
 90
        3
176
     1
 62
     5
420
      255
176
     1
290
     0
176
     1
 90
       50
176
     1
 90
       50
176
     1
 90
       50
176
     1
290
     0
176
     1
 90
       50
176
     1
 62
   256
176
     0
 40
1.0
176
     0
 90
        2
176
     1
  1
strokes_ogs.tif
176
     1
290
     0
176
     1
 40
1.0
176
     1
 40
1.0
176
     1
  0
VISUALSTYLE
  5
2C
102
{ACAD_REACTORS
330
29
102
}
330
29
100
AcDbVisualStyle
  2
Gouraud
 70
     2
177
     3
291
     1
 70
    58
 90
        2
176
     1
 90
        2
176
     1
 90
        1
176
     1
 90
        2
176
     1
 40
0.6
176
     1
 40
30.0
176
     1
 62
     7
420
 16777215
176
     1
 90
        0
176
     1
 90
        0
176
     1
 62
     7
176
     1
 62
   257
176
     1
 90
        1
176
     1
 90
        1
176
     1
 40
1.0
176
     1
 90
        0
176
     1
 62
     7
176
     1
 40
1.0
176
     1
 90
        1
176
     1
 90
        6
176
     1
 90
        2
176
     1
 62
     7
176
     1
 90
        5
176
     1
 90
        0
176
     1
 90
        0
176
     1
290
     0
176
     1
 90
       13
176
     1
 40
0.0
176
     1
 90
        0
176
     1
290
     0
176
     1
290
     1
176
     1
290
     1
176
     1
290
     0
176
     1
290
     0
176
     1
290
     0
176
     1
290
     0
176
     1
290
     0
176
     1
290
     0
176
     1
 90
       50
176
     1
 40
0.0
176
     1
 40
1.0
176
     1
 90
        0
176
     1
 62
    18
420
        0
176
     1
 90
       50
176
     1
 90
        3
176
     1
 62
     5
420
      255
176
     1
290
     0
176
     1
 90
       50
176
     1
 90
       50
176
     1
 90
       50
176
     1
290
     0
176
     1
 90
       50
176
     1
 62
   256
176
     0
 40
1.0
176
     0
 90
        2
176
     1
  1
strokes_ogs.tif
176
     1
290
     0
176
     1
 40
1.0
176
     1
 40
1.0
176
     1
  0
VISUALSTYLE
  5
2D
102
{ACAD_REACTORS
330
29
102
}
330
29
100
AcDbVisualStyle
  2
GouraudWithEdges
 70
     3
177
     3
291
     1
 70
    58
 90
        2
176
     1
 90
        2
176
     1
 90
        1
176
     1
 90
        2
176
     1
 40
0.6
176
     1
 40
30.0
176
     1
 62
     7
420
 16777215
176
     1
 90
        1
176
     1
 90
        0
176
     1
 62
     7
176
     1
 62
   257
176
     1
 90
        1
176
     1
 90
        1
176
     1
 40
1.0
176
     1
 90
        0
176
     1
 62
   257
176
     1
 40
1.0
176
     1
 90
        1
176
     1
 90
        6
176
     1
 90
        2
176
     1
 62
     7
176
     1
 90
        5
176
     1
 90
        0
176
     1
 90
        0
176
     1
290
     0
176
     1
 90
       13
176
     1
 40
0.0
176
     1
 90
        0
176
     1
290
     0
176
     1
290
     1
176
     1
290
     1
176
     1
290
     0
176
     1
290
     0
176
     1
290
     0
176
     1
290
     0
176
     1
290
     0
176
     1
290
     0
176
     1
 90
       50
176
     1
 40
0.0
176
     1
 40
1.0
176
     1
 90
        0
176
     1
 62
    18
420
        0
176
     1
 90
       50
176
     1
 90
        3
176
     1
 62
     5
420
      255
176
     1
290
     0
176
     1
 90
       50
176
     1
 90
       50
176
     1
 90
       50
176
     1
290
     0
176
     1
 90
       50
176
     1
 62
   256
176
     0
 40
1.0
176
     0
 90
        2
176
     1
  1
strokes_ogs.tif
176
     1
290
     0
176
     1
 40
1.0
176
     1
 40
1.0
176
     1
  0
VISUALSTYLE
  5
31
102
{ACAD_REACTORS
330
29
102
}
330
29
100
AcDbVisualStyle
  2
Hidden
 70
     6
177
     3
291
     0
 70
    58
 90
        1
176
     1
 90
        2
176
     1
 90
        2
176
     1
 90
        0
176
     1
 40
0.6
176
     1
 40
30.0
176
     1
 62
     7
420
 16777215
176
     1
 90
        2
176
     1
 90
        2
176
     1
 62
     7
176
     1
 62
   257
176
     1
 90
        2
176
     1
 90
        1
176
     1
 40
40.0
176
     1
 90
        0
176
     1
 62
   257
176
     1
 40
1.0
176
     1
 90
        1
176
     1
 90
        6
176
     1
 90
        2
176
     1
 62
     7
176
     1
 90
        3
176
     1
 90
        0
176
     1
 90
        0
176
     1
290
     0
176
     1
 90
        1
176
     1
 40
0.0
176
     1
 90
        0
176
     1
290
     0
176
     1
290
     1
176
     1
290
     1
176
     1
290
     0
176
     1
290
     0
176
     1
290
     0
176
     1
290
     0
176
     1
290
     0
176
     1
290
     0
176
     1
 90
       50
176
     1
 40
0.0
176
     1
 40
1.0
176
     1
 90
        0
176
     1
 62
    18
420
        0
176
     1
 90
       50
176
     1
 90
        3
176
     1
 62
     5
420
      255
176
     1
290
     0
176
     1
 90
       50
176
     1
 90
       50
176
     1
 90
       50
176
     1
290
     0
176
     1
 90
       50
176
     1
 62
   256
176
     0
 40
1.0
176
     0
 90
        2
176
     1
  1
strokes_ogs.tif
176
     1
290
     0
176
     1
 40
1.0
176
     1
 40
1.0
176
     1
  0
VISUALSTYLE
  5
3F
102
{ACAD_REACTORS
330
29
102
}
330
29
100
AcDbVisualStyle
  2
JitterOff
 70
    20
177
     3
291
     1
 70
    58
 90
        2
176
     0
 90
        2
176
     0
 90
        0
176
     0
 90
        0
176
     0
 40
0.6
176
     0
 40
30.0
176
     0
 62
     7
420
 16777215
176
     0
 90
        1
176
     0
 90
        4
176
     0
 62
     7
176
     0
 62
   257
176
     0
 90
        1
176
     0
 90
        1
176
     0
 40
1.0
176
     0
 90
       10
176
     2
 62
     7
176
     0
 40
1.0
176
     0
 90
        1
176
     0
 90
        6
176
     0
 90
        2
176
     0
 62
     7
176
     0
 90
        5
176
     0
 90
        0
176
     0
 90
        0
176
     0
290
     0
176
     0
 90
        1
176
     0
 40
0.0
176
     0
 90
        0
176
     0
290
     0
176
     0
290
     1
176
     0
290
     1
176
     0
290
     0
176
     0
290
     0
176
     0
290
     0
176
     0
290
     0
176
     0
290
     0
176
     0
290
     0
176
     0
 90
       50
176
     0
 40
0.0
176
     0
 40
1.0
176
     0
 90
        0
176
     0
 62
    18
420
        0
176
     0
 90
       50
176
     0
 90
        3
176
     0
 62
     5
420
      255
176
     0
290
     0
176
     0
 90
       50
176
     0
 90
       50
176
     0
 90
       50
176
     0
290
     0
176
     0
 90
       50
176
     0
 62
   256
176
     0
 40
1.0
176
     0
 90
        2
176
     0
  1
strokes_ogs.tif
176
     0
290
     0
176
     0
 40
1.0
176
     0
 40
1.0
176
     0
  0
VISUALSTYLE
  5
37
102
{ACAD_REACTORS
330
29
102
}
330
29
100
AcDbVisualStyle
  2
Linepattern
 70
    14
177
     3
291
     1
 70
    58
 90
        2
176
     1
 90
        2
176
     1
 90
        0
176
     1
 90
        0
176
     1
 40
0.6
176
     1
 40
30.0
176
     1
 62
     7
420
 16777215
176
     1
 90
        1
176
     1
 90
        4
176
     1
 62
     7
176
     1
 62
   257
176
     1
 90
        7
176
     1
 90
        7
176
     1
 40
1.0
176
     1
 90
        8
176
     1
 62
     7
176
     1
 40
1.0
176
     1
 90
        1
176
     1
 90
        6
176
     1
 90
        2
176
     1
 62
     7
176
     1
 90
        5
176
     1
 90
        0
176
     1
 90
        0
176
     1
290
     0
176
     1
 90
        1
176
     1
 40
0.0
176
     1
 90
        0
176
     1
290
     0
176
     1
290
     1
176
     1
290
     1
176
     1
290
     0
176
     1
290
     0
176
     1
290
     0
176
     1
290
     0
176
     1
290
     0
176
     1
290
     0
176
     1
 90
       50
176
     1
 40
0.0
176
     1
 40
1.0
176
     1
 90
        0
176
     1
 62
    18
420
        0
176
     1
 90
       50
176
     1
 90
        3
176
     1
 62
     5
420
      255
176
     1
290
     0
176
     1
 90
       50
176
     1
 90
       50
176
     1
 90
       50
176
     1
290
     0
176
     1
 90
       50
176
     1
 62
   256
176
     0
 40
1.0
176
     0
 90
        2
176
     1
  1
strokes_ogs.tif
176
     1
290
     0
176
     1
 40
1.0
176
     1
 40
1.0
176
     1
  0
VISUALSTYLE
  5
40
102
{ACAD_REACTORS
330
29
102
}
330
29
100
AcDbVisualStyle
  2
OverhangOff
 70
    21
177
     3
291
     1
 70
    58
 90
        2
176
     0
 90
        2
176
     0
 90
        0
176
     0
 90
        0
176
     0
 40
0.6
176
     0
 40
30.0
176
     0
 62
     7
420
 16777215
176
     0
 90
        1
176
     0
 90
        4
176
     0
 62
     7
176
     0
 62
   257
176
     0
 90
        1
176
     0
 90
        1
176
     0
 40
1.0
176
     0
 90
        9
176
     2
 62
     7
176
     0
 40
1.0
176
     0
 90
        1
176
     0
 90
        6
176
     0
 90
        2
176
     0
 62
     7
176
     0
 90
        5
176
     0
 90
        0
176
     0
 90
        0
176
     0
290
     0
176
     0
 90
        1
176
     0
 40
0.0
176
     0
 90
        0
176
     0
290
     0
176
     0
290
     1
176
     0
290
     1
176
     0
290
     0
176
     0
290
     0
176
     0
290
     0
176
     0
290
     0
176
     0
290
     0
176
     0
290
     0
176
     0
 90
       50
176
     0
 40
0.0
176
     0
 40
1.0
176
     0
 90
        0
176
     0
 62
    18
420
        0
176
     0
 90
       50
176
     0
 90
        3
176
     0
 62
     5
420
      255
176
     0
290
     0
176
     0
 90
       50
176
     0
 90
       50
176
     0
 90
       50
176
     0
290
     0
176
     0
 90
       50
176
     0
 62
   256
176
     0
 40
1.0
176
     0
 90
        2
176
     0
  1
strokes_ogs.tif
176
     0
290
     0
176
     0
 40
1.0
176
     0
 40
1.0
176
     0
  0
VISUALSTYLE
  5
33
102
{ACAD_REACTORS
330
29
102
}
330
29
100
AcDbVisualStyle
  2
Realistic
 70
     8
177
     3
291
     0
 70
    58
 90
        2
176
     1
 90
        3
176
     1
 90
        0
176
     1
 90
        2
176
     1
 40
0.6
176
     1
 40
30.0
176
     1
 62
     7
420
 16777215
176
     1
 90
        0
176
     1
 90
        0
176
     1
 62
     7
176
     1
 62
   257
176
     1
 90
        1
176
     1
 90
        1
176
     1
 40
1.0
176
     1
 90
        8
176
     1
 62
   257
176
     1
 40
1.0
176
     1
 90
        1
176
     1
 90
        6
176
     1
 90
        2
176
     1
 62
     7
176
     1
 90
        3
176
     1
 90
        0
176
     1
 90
        0
176
     1
290
     0
176
     1
 90
       13
176
     1
 40
0.0
176
     1
 90
        0
176
     1
290
     0
176
     1
290
     1
176
     1
290
     1
176
     1
290
     0
176
     1
290
     0
176
     1
290
     0
176
     1
290
     0
176
     1
290
     0
176
     1
290
     0
176
     1
 90
       50
176
     1
 40
0.0
176
     1
 40
1.0
176
     1
 90
        0
176
     1
 62
    18
420
        0
176
     1
 90
       50
176
     1
 90
        3
176
     1
 62
     5
420
      255
176
     1
290
     0
176
     1
 90
       50
176
     1
 90
       50
176
     1
 90
       50
176
     1
290
     0
176
     1
 90
       50
176
     1
 62
   256
176
     0
 40
1.0
176
     0
 90
        2
176
     1
  1
strokes_ogs.tif
176
     1
290
     0
176
     1
 40
1.0
176
     1
 40
1.0
176
     1
  0
VISUALSTYLE
  5
3E
102
{ACAD_REACTORS
330
29
102
}
330
29
100
AcDbVisualStyle
  2
Shaded
 70
    27
177
     3
291
     0
 70
    58
 90
        2
176
     1
 90
        2
176
     1
 90
        1
176
     1
 90
        2
176
     1
 40
0.6
176
     1
 40
30.0
176
     1
 62
     7
420
 16777215
176
     1
 90
        0
176
     1
 90
        4
176
     1
 62
     7
176
     1
 62
   257
176
     1
 90
        1
176
     1
 90
        1
176
     1
 40
1.0
176
     1
 90
        8
176
     1
 62
   257
176
     1
 40
1.0
176
     1
 90
        1
176
     1
 90
        6
176
     1
 90
        2
176
     1
 62
     8
420
  7895160
176
     1
 90
        3
176
     1
 90
        0
176
     1
 90
        0
176
     1
290
     0
176
     1
 90
        5
176
     1
 40
0.0
176
     1
 90
        0
176
     1
290
     0
176
     1
290
     1
176
     1
290
     1
176
     1
290
     0
176
     1
290
     0
176
     1
290
     0
176
     1
290
     0
176
     1
290
     0
176
     1
290
     0
176
     1
 90
       50
176
     1
 40
0.0
176
     1
 40
1.0
176
     1
 90
        0
176
     1
 62
    18
420
        0
176
     1
 90
       50
176
     1
 90
        3
176
     1
 62
     5
420
      255
176
     1
290
     0
176
     1
 90
       50
176
     1
 90
       50
176
     1
 90
       50
176
     1
290
     0
176
     1
 90
       50
176
     1
 62
   256
176
     0
 40
1.0
176
     0
 90
        2
176
     1
  1
strokes_ogs.tif
176
     1
290
     0
176
     1
 40
1.0
176
     1
 40
1.0
176
     1
  0
VISUALSTYLE
  5
3D
102
{ACAD_REACTORS
330
29
102
}
330
29
100
AcDbVisualStyle
  2
Shaded with edges
 70
    26
177
     3
291
     0
 70
    58
 90
        2
176
     1
 90
        2
176
     1
 90
        1
176
     1
 90
        2
176
     1
 40
0.6
176
     1
 40
30.0
176
     1
 62
     7
420
 16777215
176
     1
 90
        1
176
     1
 90
       10
176
     1
 62
     7
176
     1
 62
   257
176
     1
 90
        2
176
     1
 90
        1
176
     1
 40
1.0
176
     1
 90
        8
176
     1
 62
   257
176
     1
 40
1.0
176
     1
 90
        1
176
     1
 90
        6
176
     1
 90
        2
176
     1
 62
     7
176
     1
 90
        3
176
     1
 90
        0
176
     1
 90
        0
176
     1
290
     0
176
     1
 90
        5
176
     1
 40
0.0
176
     1
 90
        0
176
     1
290
     0
176
     1
290
     1
176
     1
290
     1
176
     1
290
     0
176
     1
290
     0
176
     1
290
     0
176
     1
290
     0
176
     1
290
     0
176
     1
290
     0
176
     1
 90
       50
176
     1
 40
0.0
176
     1
 40
1.0
176
     1
 90
        0
176
     1
 62
    18
420
        0
176
     1
 90
       50
176
     1
 90
        3
176
     1
 62
     5
420
      255
176
     1
290
     0
176
     1
 90
       50
176
     1
 90
       50
176
     1
 90
       50
176
     1
290
     0
176
     1
 90
       50
176
     1
 62
   256
176
     0
 40
1.0
176
     0
 90
        2
176
     1
  1
strokes_ogs.tif
176
     1
290
     0
176
     1
 40
1.0
176
     1
 40
1.0
176
     1
  0
VISUALSTYLE
  5
3A
102
{ACAD_REACTORS
330
29
102
}
330
29
100
AcDbVisualStyle
  2
Shades of Gray
 70
    23
177
     3
291
     0
 70
    58
 90
        2
176
     1
 90
        2
176
     1
 90
        3
176
     1
 90
        0
176
     1
 40
0.6
176
     1
 40
30.0
176
     1
 62
     7
420
 16777215
176
     1
 90
        2
176
     1
 90
        2
176
     1
 62
     7
176
     1
 62
     7
176
     1
 90
        1
176
     1
 90
        1
176
     1
 40
40.0
176
     1
 90
        8
176
     1
 62
     7
176
     1
 40
1.0
176
     1
 90
        1
176
     1
 90
        6
176
     1
 90
        2
176
     1
 62
     7
176
     1
 90
        3
176
     1
 90
        0
176
     1
 90
        0
176
     1
290
     0
176
     1
 90
        1
176
     1
 40
0.0
176
     1
 90
        0
176
     1
290
     0
176
     1
290
     1
176
     1
290
     1
176
     1
290
     0
176
     1
290
     0
176
     1
290
     0
176
     1
290
     0
176
     1
290
     0
176
     1
290
     0
176
     1
 90
       50
176
     1
 40
0.0
176
     1
 40
1.0
176
     1
 90
        0
176
     1
 62
    18
420
        0
176
     1
 90
       50
176
     1
 90
        3
176
     1
 62
     5
420
      255
176
     1
290
     0
176
     1
 90
       50
176
     1
 90
       50
176
     1
 90
       50
176
     1
290
     0
176
     1
 90
       50
176
     1
 62
   256
176
     0
 40
1.0
176
     0
 90
        2
176
     1
  1
strokes_ogs.tif
176
     1
290
     0
176
     1
 40
1.0
176
     1
 40
1.0
176
     1
  0
VISUALSTYLE
  5
3B
102
{ACAD_REACTORS
330
29
102
}
330
29
100
AcDbVisualStyle
  2
Sketchy
 70
    24
177
     3
291
     0
 70
    58
 90
        1
176
     1
 90
        2
176
     1
 90
        2
176
     1
 90
        0
176
     1
 40
0.6
176
     1
 40
30.0
176
     1
 62
     7
420
 16777215
176
     1
 90
        2
176
     1
 90
        2
176
     1
 62
     7
176
     1
 62
     7
176
     1
 90
        1
176
     1
 90
        1
176
     1
 40
40.0
176
     1
 90
       11
176
     1
 62
     7
176
     1
 40
1.0
176
     1
 90
        1
176
     1
 90
        6
176
     1
 90
        2
176
     1
 62
     7
176
     1
 90
        6
176
     1
 90
        0
176
     1
 90
        0
176
     1
290
     0
176
     1
 90
        1
176
     1
 40
0.0
176
     1
 90
        0
176
     1
290
     0
176
     1
290
     1
176
     1
290
     1
176
     1
290
     0
176
     1
290
     0
176
     1
290
     0
176
     1
290
     0
176
     1
290
     0
176
     1
290
     0
176
     1
 90
       50
176
     1
 40
0.0
176
     1
 40
1.0
176
     1
 90
        0
176
     1
 62
    18
420
        0
176
     1
 90
       50
176
     1
 90
        3
176
     1
 62
     5
420
      255
176
     1
290
     0
176
     1
 90
       50
176
     1
 90
       50
176
     1
 90
       50
176
     1
290
     0
176
     1
 90
       50
176
     1
 62
   256
176
     0
 40
1.0
176
     0
 90
        2
176
     1
  1
strokes_ogs.tif
176
     1
290
     0
176
     1
 40
1.0
176
     1
 40
1.0
176
     1
  0
VISUALSTYLE
  5
36
102
{ACAD_REACTORS
330
29
102
}
330
29
100
AcDbVisualStyle
  2
Thicken
 70
    13
177
     3
291
     1
 70
    58
 90
        2
176
     1
 90
        2
176
     1
 90
        0
176
     1
 90
        0
176
     1
 40
0.6
176
     1
 40
30.0
176
     1
 62
     7
420
 16777215
176
     1
 90
        1
176
     1
 90
        4
176
     1
 62
     7
176
     1
 62
   257
176
     1
 90
        1
176
     1
 90
        1
176
     1
 40
1.0
176
     1
 90
       12
176
     1
 62
     7
176
     1
 40
1.0
176
     1
 90
        1
176
     1
 90
        6
176
     1
 90
        2
176
     1
 62
     7
176
     1
 90
        5
176
     1
 90
        0
176
     1
 90
        0
176
     1
290
     0
176
     1
 90
        1
176
     1
 40
0.0
176
     1
 90
        0
176
     1
290
     0
176
     1
290
     1
176
     1
290
     1
176
     1
290
     0
176
     1
290
     0
176
     1
290
     0
176
     1
290
     0
176
     1
290
     0
176
     1
290
     0
176
     1
 90
       50
176
     1
 40
0.0
176
     1
 40
1.0
176
     1
 90
        0
176
     1
 62
    18
420
        0
176
     1
 90
       50
176
     1
 90
        3
176
     1
 62
     5
420
      255
176
     1
290
     0
176
     1
 90
       50
176
     1
 90
       50
176
     1
 90
       50
176
     1
290
     0
176
     1
 90
       50
176
     1
 62
   256
176
     0
 40
1.0
176
     0
 90
        2
176
     1
  1
strokes_ogs.tif
176
     1
290
     0
176
     1
 40
1.0
176
     1
 40
1.0
176
     1
  0
VISUALSTYLE
  5
30
102
{ACAD_REACTORS
330
29
102
}
330
29
100
AcDbVisualStyle
  2
Wireframe
 70
     5
177
     3
291
     0
 70
    58
 90
        0
176
     1
 90
        2
176
     1
 90
        0
176
     1
 90
        0
176
     1
 40
0.6
176
     1
 40
30.0
176
     1
 62
     7
420
 16777215
176
     1
 90
        1
176
     1
 90
        4
176
     1
 62
     7
176
     1
 62
   257
176
     1
 90
        1
176
     1
 90
        1
176
     1
 40
1.0
176
     1
 90
        0
176
     1
 62
   257
176
     1
 40
1.0
176
     1
 90
        1
176
     1
 90
        6
176
     1
 90
        2
176
     1
 62
     7
176
     1
 90
        3
176
     1
 90
        0
176
     1
 90
        0
176
     1
290
     0
176
     1
 90
        1
176
     1
 40
0.0
176
     1
 90
        0
176
     1
290
     0
176
     1
290
     1
176
     1
290
     1
176
     1
290
     0
176
     1
290
     0
176
     1
290
     0
176
     1
290
     0
176
     1
290
     0
176
     1
290
     0
176
     1
 90
       50
176
     1
 40
0.0
176
     1
 40
1.0
176
     1
 90
        0
176
     1
 62
    18
420
        0
176
     1
 90
       50
176
     1
 90
        3
176
     1
 62
     5
420
      255
176
     1
290
     0
176
     1
 90
       50
176
     1
 90
       50
176
     1
 90
       50
176
     1
290
     0
176
     1
 90
       50
176
     1
 62
   256
176
     0
 40
1.0
176
     0
 90
        2
176
     1
  1
strokes_ogs.tif
176
     1
290
     0
176
     1
 40
1.0
176
     1
 40
1.0
176
     1
  0
VISUALSTYLE
  5
3C
102
{ACAD_REACTORS
330
29
102
}
330
29
100
AcDbVisualStyle
  2
X-Ray
 70
    25
177
     3
291
     0
 70
    58
 90
        2
176
     1
 90
        2
176
     1
 90
        1
176
     1
 90
        1
176
     1
 40
0.5
176
     1
 40
30.0
176
     1
 62
     7
420
 16777215
176
     1
 90
        1
176
     1
 90
        0
176
     1
 62
     7
176
     1
 62
   257
176
     1
 90
        1
176
     1
 90
        1
176
     1
 40
1.0
176
     1
 90
        8
176
     1
 62
     7
176
     1
 40
1.0
176
     1
 90
        1
176
     1
 90
        6
176
     1
 90
        2
176
     1
 62
     7
176
     1
 90
        3
176
     1
 90
        0
176
     1
 90
        0
176
     1
290
     0
176
     1
 90
       13
176
     1
 40
0.0
176
     1
 90
        0
176
     1
290
     0
176
     1
290
     1
176
     1
290
     1
176
     1
290
     0
176
     1
290
     0
176
     1
290
     0
176
     1
290
     0
176
     1
290
     0
176
     1
290
     0
176
     1
 90
       50
176
     1
 40
0.0
176
     1
 40
1.0
176
     1
 90
        0
176
     1
 62
    18
420
        0
176
     1
 90
       50
176
     1
 90
        3
176
     1
 62
     5
420
      255
176
     1
290
     0
176
     1
 90
       50
176
     1
 90
       50
176
     1
 90
       50
176
     1
290
     0
176
     1
 90
       50
176
     1
 62
   256
176
     0
 40
1.0
176
     0
 90
        2
176
     1
  1
strokes_ogs.tif
176
     1
290
     0
176
     1
 40
1.0
176
     1
 40
1.0
176
     1
  0
DICTIONARYVAR
  5
81
102
{ACAD_REACTORS
330
7C
102
}
330
7C
100
DictionaryVariables
280
     0
  1
1:1
  0
DICTIONARYVAR
  5
7E
102
{ACAD_REACTORS
330
7C
102
}
330
7C
100
DictionaryVariables
280
     0
  1
STANDARD
  0
DICTIONARYVAR
  5
7D
102
{ACAD_REACTORS
330
7C
102
}
330
7C
100
DictionaryVariables
280
     0
  1
STANDARD
  0
DICTIONARYVAR
  5
7F
102
{ACAD_REACTORS
330
7C
102
}
330
7C
100
DictionaryVariables
280
     0
  1
Imperial24
  0
DICTIONARYVAR
  5
80
102
{ACAD_REACTORS
330
7C
102
}
330
7C
100
DictionaryVariables
280
     0
  1
Imperial24
  0
XRECORD
  5
3B2
102
{ACAD_REACTORS
330
3AE
102
}
330
3AE
100
AcDbXrecord
280
     1
  1
BUILDING_ID
  1
Progetto per messa in tavola DXF, DWG
  1
FLOOR_ID
  1
694395
  0
XRECORD
  5
3B0
102
{ACAD_REACTORS
330
3AE
102
}
330
3AE
100
AcDbXrecord
280
     1
  1
-2001160
  1
Apparecchi idraulici
  0
XRECORD
  5
3B1
102
{ACAD_REACTORS
330
3AE
102
}
330
3AE
100
AcDbXrecord
280
     1
  1
923255
  1
Handle
  1
923395
  1
Pressure gauge
  0
XRECORD
  5
3AF
102
{ACAD_REACTORS
330
3AE
102
}
330
3AE
100
AcDbXrecord
280
     1
  1
927103
  1
Automatic flow rate regulator valve_Caleffi_121 DN15 : 1/2''_Pressure gauge
  0
DICTIONARY
  5
1A
330
19
100
AcDbDictionary
280
     1
281
     1
  3
BUMPTILE
360
1C
  3
DIFFUSETILE
360
1B
  3
OPACITYTILE
360
1F
  3
REFLECTIONTILE
360
1E
  3
REFRACTIONTILE
360
20
  3
SPECULARTILE
360
1D
  0
DICTIONARY
  5
12
330
11
100
AcDbDictionary
280
     1
281
     1
  3
BUMPTILE
360
14
  3
DIFFUSETILE
360
13
  3
OPACITYTILE
360
17
  3
REFLECTIONTILE
360
16
  3
REFRACTIONTILE
360
18
  3
SPECULARTILE
360
15
  0
DICTIONARY
  5
22
330
21
100
AcDbDictionary
280
     1
281
     1
  3
BUMPTILE
360
24
  3
DIFFUSETILE
360
23
  3
OPACITYTILE
360
27
  3
REFLECTIONTILE
360
26
  3
REFRACTIONTILE
360
28
  3
SPECULARTILE
360
25
  0
DICTIONARY
  5
3B5
330
65
100
AcDbDictionary
280
     1
281
     1
  3
ACAD_ROUNDTRIP_2008_TABLESTYLE_CELLSTYLEMAP
360
3B6
  0
XRECORD
  5
1C
102
{ACAD_REACTORS
330
1A
102
}
330
1A
100
AcDbXrecord
280
     1
270
     1
271
     1
  0
XRECORD
  5
1B
102
{ACAD_REACTORS
330
1A
102
}
330
1A
100
AcDbXrecord
280
     1
270
     1
271
     1
  0
XRECORD
  5
1F
102
{ACAD_REACTORS
330
1A
102
}
330
1A
100
AcDbXrecord
280
     1
270
     1
271
     1
  0
XRECORD
  5
1E
102
{ACAD_REACTORS
330
1A
102
}
330
1A
100
AcDbXrecord
280
     1
270
     1
271
     1
  0
XRECORD
  5
20
102
{ACAD_REACTORS
330
1A
102
}
330
1A
100
AcDbXrecord
280
     1
270
     1
271
     1
  0
XRECORD
  5
1D
102
{ACAD_REACTORS
330
1A
102
}
330
1A
100
AcDbXrecord
280
     1
270
     1
271
     1
  0
XRECORD
  5
14
102
{ACAD_REACTORS
330
12
102
}
330
12
100
AcDbXrecord
280
     1
270
     1
271
     1
  0
XRECORD
  5
13
102
{ACAD_REACTORS
330
12
102
}
330
12
100
AcDbXrecord
280
     1
270
     1
271
     1
  0
XRECORD
  5
17
102
{ACAD_REACTORS
330
12
102
}
330
12
100
AcDbXrecord
280
     1
270
     1
271
     1
  0
XRECORD
  5
16
102
{ACAD_REACTORS
330
12
102
}
330
12
100
AcDbXrecord
280
     1
270
     1
271
     1
  0
XRECORD
  5
18
102
{ACAD_REACTORS
330
12
102
}
330
12
100
AcDbXrecord
280
     1
270
     1
271
     1
  0
XRECORD
  5
15
102
{ACAD_REACTORS
330
12
102
}
330
12
100
AcDbXrecord
280
     1
270
     1
271
     1
  0
XRECORD
  5
24
102
{ACAD_REACTORS
330
22
102
}
330
22
100
AcDbXrecord
280
     1
270
     1
271
     1
  0
XRECORD
  5
23
102
{ACAD_REACTORS
330
22
102
}
330
22
100
AcDbXrecord
280
     1
270
     1
271
     1
  0
XRECORD
  5
27
102
{ACAD_REACTORS
330
22
102
}
330
22
100
AcDbXrecord
280
     1
270
     1
271
     1
  0
XRECORD
  5
26
102
{ACAD_REACTORS
330
22
102
}
330
22
100
AcDbXrecord
280
     1
270
     1
271
     1
  0
XRECORD
  5
28
102
{ACAD_REACTORS
330
22
102
}
330
22
100
AcDbXrecord
280
     1
270
     1
271
     1
  0
XRECORD
  5
25
102
{ACAD_REACTORS
330
22
102
}
330
22
100
AcDbXrecord
280
     1
270
     1
271
     1
  0
CELLSTYLEMAP
  5
3B6
102
{ACAD_REACTORS
330
3B5
102
}
330
3B5
100
AcDbCellStyleMap
 90
        3
300
CELLSTYLE
  1
TABLEFORMAT_BEGIN
 90
        5
170
     1
 91
        0
 92
    32768
 62
   257
 93
        1
300
CONTENTFORMAT
  1
CONTENTFORMAT_BEGIN
 90
        0
 91
        0
 92
      512
 93
        0
300

 40
0.0
140
1.0
 94
        5
 62
     0
340
55
144
0.25
309
CONTENTFORMAT_END
171
     0
 94
        0
309
TABLEFORMAT_END
  1
CELLSTYLE_BEGIN
 90
        1
 91
        1
300
_TITLE
309
CELLSTYLE_END
300
CELLSTYLE
  1
TABLEFORMAT_BEGIN
 90
        5
170
     1
 91
        0
 92
        0
 62
   257
 93
        1
300
CONTENTFORMAT
  1
CONTENTFORMAT_BEGIN
 90
        0
 91
        0
 92
      512
 93
        0
300

 40
0.0
140
1.0
 94
        5
 62
     0
340
55
144
0.18
309
CONTENTFORMAT_END
171
     0
 94
        0
309
TABLEFORMAT_END
  1
CELLSTYLE_BEGIN
 90
        2
 91
        1
300
_HEADER
309
CELLSTYLE_END
300
CELLSTYLE
  1
TABLEFORMAT_BEGIN
 90
        5
170
     1
 91
        0
 92
        0
 62
   257
 93
        1
300
CONTENTFORMAT
  1
CONTENTFORMAT_BEGIN
 90
        0
 91
        0
 92
      512
 93
        0
300

 40
0.0
140
1.0
 94
        2
 62
     0
340
55
144
0.18
309
CONTENTFORMAT_END
171
     0
 94
        0
309
TABLEFORMAT_END
  1
CELLSTYLE_BEGIN
 90
        3
 91
        2
300
_DATA
309
CELLSTYLE_END
  0
ENDSEC
  0
EOF
