  0
SECTION
  2
HEADER
  9
$ACADVER
  1
AC1027
  9
$ACADMAINTVER
 70
    20
  9
$DWGCODEPAGE
  3
ANSI_1252
  9
$REQUIREDVERSIONS
160
                 0
  9
$INSBASE
 10
0.0
 20
0.0
 30
0.0
  9
$EXTMIN
 10
767.6664074431877
 20
1775.745878720052
 30
-0.00000001
  9
$EXTMAX
 10
1097.614353943098
 20
2129.000000000194
 30
0.00000001
  9
$LIMMIN
 10
0.0
 20
0.0
  9
$LIMMAX
 10
12.0
 20
9.0
  9
$ORTHOMODE
 70
     0
  9
$REGENMODE
 70
     1
  9
$FILLMODE
 70
     1
  9
$QTEXTMODE
 70
     0
  9
$MIRRTEXT
 70
     0
  9
$LTSCALE
 40
1.0
  9
$ATTMODE
 70
     1
  9
$TEXTSIZE
 40
0.2
  9
$TRACEWID
 40
0.05
  9
$TEXTSTYLE
  7
Standard
  9
$CLAYER
  8
0
  9
$CELTYPE
  6
ByLayer
  9
$CECOLOR
 62
   256
  9
$CELTSCALE
 40
1.0
  9
$DISPSILH
 70
     0
  9
$DIMSCALE
 40
1.0
  9
$DIMASZ
 40
0.18
  9
$DIMEXO
 40
0.0625
  9
$DIMDLI
 40
0.38
  9
$DIMRND
 40
0.0
  9
$DIMDLE
 40
0.0
  9
$DIMEXE
 40
0.18
  9
$DIMTP
 40
0.0
  9
$DIMTM
 40
0.0
  9
$DIMTXT
 40
0.18
  9
$DIMCEN
 40
0.09
  9
$DIMTSZ
 40
0.0
  9
$DIMTOL
 70
     0
  9
$DIMLIM
 70
     0
  9
$DIMTIH
 70
     1
  9
$DIMTOH
 70
     1
  9
$DIMSE1
 70
     0
  9
$DIMSE2
 70
     0
  9
$DIMTAD
 70
     0
  9
$DIMZIN
 70
     0
  9
$DIMBLK
  1

  9
$DIMASO
 70
     1
  9
$DIMSHO
 70
     1
  9
$DIMPOST
  1

  9
$DIMAPOST
  1

  9
$DIMALT
 70
     0
  9
$DIMALTD
 70
     2
  9
$DIMALTF
 40
25.4
  9
$DIMLFAC
 40
1.0
  9
$DIMTOFL
 70
     0
  9
$DIMTVP
 40
0.0
  9
$DIMTIX
 70
     0
  9
$DIMSOXD
 70
     0
  9
$DIMSAH
 70
     0
  9
$DIMBLK1
  1

  9
$DIMBLK2
  1

  9
$DIMSTYLE
  2
Standard
  9
$DIMCLRD
 70
     0
  9
$DIMCLRE
 70
     0
  9
$DIMCLRT
 70
     0
  9
$DIMTFAC
 40
1.0
  9
$DIMGAP
 40
0.09
  9
$DIMJUST
 70
     0
  9
$DIMSD1
 70
     0
  9
$DIMSD2
 70
     0
  9
$DIMTOLJ
 70
     1
  9
$DIMTZIN
 70
     0
  9
$DIMALTZ
 70
     0
  9
$DIMALTTZ
 70
     0
  9
$DIMUPT
 70
     0
  9
$DIMDEC
 70
     4
  9
$DIMTDEC
 70
     4
  9
$DIMALTU
 70
     2
  9
$DIMALTTD
 70
     2
  9
$DIMTXSTY
  7
Standard
  9
$DIMAUNIT
 70
     0
  9
$DIMADEC
 70
     0
  9
$DIMALTRND
 40
0.0
  9
$DIMAZIN
 70
     0
  9
$DIMDSEP
 70
    46
  9
$DIMATFIT
 70
     3
  9
$DIMFRAC
 70
     0
  9
$DIMLDRBLK
  1

  9
$DIMLUNIT
 70
     2
  9
$DIMLWD
 70
    -2
  9
$DIMLWE
 70
    -2
  9
$DIMTMOVE
 70
     0
  9
$DIMFXL
 40
1.0
  9
$DIMFXLON
 70
     0
  9
$DIMJOGANG
 40
0.7853981633974483
  9
$DIMTFILL
 70
     0
  9
$DIMTFILLCLR
 70
     0
  9
$DIMARCSYM
 70
     0
  9
$DIMLTYPE
  6

  9
$DIMLTEX1
  6

  9
$DIMLTEX2
  6

  9
$DIMTXTDIRECTION
 70
     0
  9
$LUNITS
 70
     2
  9
$LUPREC
 70
     4
  9
$SKETCHINC
 40
0.1
  9
$FILLETRAD
 40
0.0
  9
$AUNITS
 70
     0
  9
$AUPREC
 70
     0
  9
$MENU
  1
.
  9
$ELEVATION
 40
0.0
  9
$PELEVATION
 40
0.0
  9
$THICKNESS
 40
0.0
  9
$LIMCHECK
 70
     0
  9
$CHAMFERA
 40
0.0
  9
$CHAMFERB
 40
0.0
  9
$CHAMFERC
 40
0.0
  9
$CHAMFERD
 40
0.0
  9
$SKPOLY
 70
     0
  9
$TDCREATE
 40
2457568.483669039
  9
$TDUCREATE
 40
2457568.400335706
  9
$TDUPDATE
 40
2457568.483669039
  9
$TDUUPDATE
 40
2457568.400335706
  9
$TDINDWG
 40
0.0000070023
  9
$TDUSRTIMER
 40
0.0000070023
  9
$USRTIMER
 70
     1
  9
$ANGBASE
 50
0.0
  9
$ANGDIR
 70
     0
  9
$PDMODE
 70
     0
  9
$PDSIZE
 40
0.0
  9
$PLINEWID
 40
0.0
  9
$SPLFRAME
 70
     0
  9
$SPLINETYPE
 70
     6
  9
$SPLINESEGS
 70
     8
  9
$HANDSEED
  5
260
  9
$SURFTAB1
 70
     6
  9
$SURFTAB2
 70
     6
  9
$SURFTYPE
 70
     6
  9
$SURFU
 70
     6
  9
$SURFV
 70
     6
  9
$UCSBASE
  2

  9
$UCSNAME
  2

  9
$UCSORG
 10
0.0
 20
0.0
 30
0.0
  9
$UCSXDIR
 10
1.0
 20
0.0
 30
0.0
  9
$UCSYDIR
 10
0.0
 20
1.0
 30
0.0
  9
$UCSORTHOREF
  2

  9
$UCSORTHOVIEW
 70
     0
  9
$UCSORGTOP
 10
0.0
 20
0.0
 30
0.0
  9
$UCSORGBOTTOM
 10
0.0
 20
0.0
 30
0.0
  9
$UCSORGLEFT
 10
0.0
 20
0.0
 30
0.0
  9
$UCSORGRIGHT
 10
0.0
 20
0.0
 30
0.0
  9
$UCSORGFRONT
 10
0.0
 20
0.0
 30
0.0
  9
$UCSORGBACK
 10
0.0
 20
0.0
 30
0.0
  9
$PUCSBASE
  2

  9
$PUCSNAME
  2

  9
$PUCSORG
 10
0.0
 20
0.0
 30
0.0
  9
$PUCSXDIR
 10
1.0
 20
0.0
 30
0.0
  9
$PUCSYDIR
 10
0.0
 20
1.0
 30
0.0
  9
$PUCSORTHOREF
  2

  9
$PUCSORTHOVIEW
 70
     0
  9
$PUCSORGTOP
 10
0.0
 20
0.0
 30
0.0
  9
$PUCSORGBOTTOM
 10
0.0
 20
0.0
 30
0.0
  9
$PUCSORGLEFT
 10
0.0
 20
0.0
 30
0.0
  9
$PUCSORGRIGHT
 10
0.0
 20
0.0
 30
0.0
  9
$PUCSORGFRONT
 10
0.0
 20
0.0
 30
0.0
  9
$PUCSORGBACK
 10
0.0
 20
0.0
 30
0.0
  9
$USERI1
 70
     0
  9
$USERI2
 70
     0
  9
$USERI3
 70
     0
  9
$USERI4
 70
     0
  9
$USERI5
 70
     0
  9
$USERR1
 40
0.0
  9
$USERR2
 40
0.0
  9
$USERR3
 40
0.0
  9
$USERR4
 40
0.0
  9
$USERR5
 40
0.0
  9
$WORLDVIEW
 70
     1
  9
$SHADEDGE
 70
     3
  9
$SHADEDIF
 70
    70
  9
$TILEMODE
 70
     1
  9
$MAXACTVP
 70
    64
  9
$PINSBASE
 10
0.0
 20
0.0
 30
0.0
  9
$PLIMCHECK
 70
     0
  9
$PEXTMIN
 10
1.000000000000000E+20
 20
1.000000000000000E+20
 30
1.000000000000000E+20
  9
$PEXTMAX
 10
-1.000000000000000E+20
 20
-1.000000000000000E+20
 30
-1.000000000000000E+20
  9
$PLIMMIN
 10
0.0
 20
0.0
  9
$PLIMMAX
 10
12.0
 20
9.0
  9
$UNITMODE
 70
     0
  9
$VISRETAIN
 70
     1
  9
$PLINEGEN
 70
     0
  9
$PSLTSCALE
 70
     1
  9
$TREEDEPTH
 70
  3020
  9
$CMLSTYLE
  2
Standard
  9
$CMLJUST
 70
     0
  9
$CMLSCALE
 40
1.0
  9
$PROXYGRAPHICS
 70
     1
  9
$MEASUREMENT
 70
     1
  9
$CELWEIGHT
370
    -1
  9
$ENDCAPS
280
     0
  9
$JOINSTYLE
280
     0
  9
$LWDISPLAY
290
     0
  9
$INSUNITS
 70
     4
  9
$HYPERLINKBASE
  1

  9
$STYLESHEET
  1

  9
$XEDIT
290
     1
  9
$CEPSNTYPE
380
     0
  9
$PSTYLEMODE
290
     1
  9
$FINGERPRINTGUID
  2
{37F8471E-7708-4045-AC28-7713087BE495}
  9
$VERSIONGUID
  2
{DCC013F6-7502-4D15-B5AA-40EEA0AB17AE}
  9
$EXTNAMES
290
     1
  9
$PSVPSCALE
 40
0.0
  9
$OLESTARTUP
290
     0
  9
$SORTENTS
280
   127
  9
$INDEXCTL
280
     0
  9
$HIDETEXT
280
     1
  9
$XCLIPFRAME
280
     2
  9
$HALOGAP
280
     0
  9
$OBSCOLOR
 70
   257
  9
$OBSLTYPE
280
     0
  9
$INTERSECTIONDISPLAY
280
     0
  9
$INTERSECTIONCOLOR
 70
   257
  9
$DIMASSOC
280
     2
  9
$PROJECTNAME
  1

  9
$CAMERADISPLAY
290
     0
  9
$LENSLENGTH
 40
50.0
  9
$CAMERAHEIGHT
 40
0.0
  9
$STEPSPERSEC
 40
2.0
  9
$STEPSIZE
 40
6.0
  9
$3DDWFPREC
 40
2.0
  9
$PSOLWIDTH
 40
0.25
  9
$PSOLHEIGHT
 40
4.0
  9
$LOFTANG1
 40
1.570796326794896
  9
$LOFTANG2
 40
1.570796326794896
  9
$LOFTMAG1
 40
0.0
  9
$LOFTMAG2
 40
0.0
  9
$LOFTPARAM
 70
     7
  9
$LOFTNORMALS
280
     1
  9
$LATITUDE
 40
37.795
  9
$LONGITUDE
 40
-122.394
  9
$NORTHDIRECTION
 40
0.0
  9
$TIMEZONE
 70
 -8000
  9
$LIGHTGLYPHDISPLAY
280
     1
  9
$TILEMODELIGHTSYNCH
280
     1
  9
$CMATERIAL
347
11
  9
$SOLIDHIST
280
     0
  9
$SHOWHIST
280
     1
  9
$DWFFRAME
280
     2
  9
$DGNFRAME
280
     0
  9
$REALWORLDSCALE
290
     1
  9
$INTERFERECOLOR
 62
     1
  9
$INTERFEREOBJVS
345
33
  9
$INTERFEREVPVS
346
30
  9
$CSHADOW
280
     0
  9
$SHADOWPLANELOCATION
 40
0.0
  0
ENDSEC
  0
SECTION
  2
CLASSES
  0
CLASS
  1
ACDBDICTIONARYWDFLT
  2
AcDbDictionaryWithDefault
  3
ObjectDBX Classes
 90
        0
 91
        1
280
     0
281
     0
  0
CLASS
  1
MATERIAL
  2
AcDbMaterial
  3
ObjectDBX Classes
 90
     1153
 91
        3
280
     0
281
     0
  0
CLASS
  1
VISUALSTYLE
  2
AcDbVisualStyle
  3
ObjectDBX Classes
 90
     4095
 91
       24
280
     0
281
     0
  0
CLASS
  1
SCALE
  2
AcDbScale
  3
ObjectDBX Classes
 90
     1153
 91
       17
280
     0
281
     0
  0
CLASS
  1
TABLESTYLE
  2
AcDbTableStyle
  3
ObjectDBX Classes
 90
     4095
 91
        1
280
     0
281
     0
  0
CLASS
  1
MLEADERSTYLE
  2
AcDbMLeaderStyle
  3
ACDB_MLEADERSTYLE_CLASS
 90
     4095
 91
        1
280
     0
281
     0
  0
CLASS
  1
ACDBSECTIONVIEWSTYLE
  2
AcDbSectionViewStyle
  3
ObjectDBX Classes
 90
     1025
 91
        1
280
     0
281
     0
  0
CLASS
  1
ACDBDETAILVIEWSTYLE
  2
AcDbDetailViewStyle
  3
ObjectDBX Classes
 90
     1025
 91
        1
280
     0
281
     0
  0
CLASS
  1
RASTERVARIABLES
  2
AcDbRasterVariables
  3
ISM
 90
        0
 91
        1
280
     0
281
     0
  0
CLASS
  1
DICTIONARYVAR
  2
AcDbDictionaryVar
  3
ObjectDBX Classes
 90
        0
 91
        5
280
     0
281
     0
  0
CLASS
  1
CELLSTYLEMAP
  2
AcDbCellStyleMap
  3
ObjectDBX Classes
 90
     1152
 91
        2
280
     0
281
     0
  0
CLASS
  1
SORTENTSTABLE
  2
AcDbSortentsTable
  3
ObjectDBX Classes
 90
        0
 91
        1
280
     0
281
     0
  0
ENDSEC
  0
SECTION
  2
TABLES
  0
TABLE
  2
VPORT
  5
8
330
0
100
AcDbSymbolTable
 70
     1
  0
VPORT
  5
57
330
8
100
AcDbSymbolTableRecord
100
AcDbViewportTableRecord
  2
*Active
 70
     0
 10
0.0
 20
0.0
 11
1.0
 21
1.0
 12
932.6403806931431
 22
1952.372939360123
 13
0.0
 23
0.0
 14
1.0
 24
1.0
 15
0.0
 25
0.0
 16
0.0
 26
0.0
 36
1.0
 17
0.0
 27
0.0
 37
0.0
 40
353.2541212801413
 41
0.9340243372228108
 42
50.0
 43
0.0
 44
0.0
 50
0.0
 51
0.0
 71
     0
 72
  1000
 73
     1
 74
     1
 75
     0
 76
     0
 77
     0
 78
     0
281
     0
 65
     1
110
0.0
120
0.0
130
0.0
111
1.0
121
0.0
131
0.0
112
0.0
122
1.0
132
0.0
 79
     0
146
0.0
 60
     3
 61
     5
292
     1
282
     1
141
0.0
142
0.0
 63
   250
421
  3355443
  0
ENDTAB
  0
TABLE
  2
LTYPE
  5
5
330
0
100
AcDbSymbolTable
 70
     3
  0
LTYPE
  5
5B
330
5
100
AcDbSymbolTableRecord
100
AcDbLinetypeTableRecord
  2
ByBlock
 70
     0
  3

 72
    65
 73
     0
 40
0.0
  0
LTYPE
  5
5C
330
5
100
AcDbSymbolTableRecord
100
AcDbLinetypeTableRecord
  2
ByLayer
 70
     0
  3

 72
    65
 73
     0
 40
0.0
  0
LTYPE
  5
5D
330
5
100
AcDbSymbolTableRecord
100
AcDbLinetypeTableRecord
  2
Continuous
 70
     0
  3
Solid line
 72
    65
 73
     0
 40
0.0
  0
LTYPE
  5
69
330
5
100
AcDbSymbolTableRecord
100
AcDbLinetypeTableRecord
  2
PHANTOM2
 70
     0
  3
___ _ _ ___ _ _ ___ _ _ ___ _ _
 72
    65
 73
     6
 40
1.25
 49
0.625
 74
     0
 49
-0.125
 74
     0
 49
0.125
 74
     0
 49
-0.125
 74
     0
 49
0.125
 74
     0
 49
-0.125
 74
     0
  0
LTYPE
  5
86
330
5
100
AcDbSymbolTableRecord
100
AcDbLinetypeTableRecord
  2
Nascosto 1_5 mm
 70
     0
  3

 72
    65
 73
     2
 40
2.2
 49
1.5
 74
     0
 49
-0.7000000000000001
 74
     0
  0
ENDTAB
  0
TABLE
  2
LAYER
  5
2
330
0
100
AcDbSymbolTable
 70
     3
  0
LAYER
  5
54
330
2
100
AcDbSymbolTableRecord
100
AcDbLayerTableRecord
  2
0
 70
     0
 62
     7
  6
Continuous
370
    -3
390
F
347
21
348
0
  0
LAYER
  5
85
330
2
100
AcDbSymbolTableRecord
100
AcDbLayerTableRecord
  2
P-SANR-FIXT
 70
     0
 62
     6
  6
Continuous
370
    18
390
F
347
21
348
0
  0
ENDTAB
  0
TABLE
  2
STYLE
  5
3
330
0
100
AcDbSymbolTable
 70
     2
  0
STYLE
  5
55
330
3
100
AcDbSymbolTableRecord
100
AcDbTextStyleTableRecord
  2
Standard
 70
     0
 40
0.0
 41
1.0
 50
0.0
 71
     0
 42
0.2
  3
txt
  4

  0
STYLE
  5
5A
330
3
100
AcDbSymbolTableRecord
100
AcDbTextStyleTableRecord
  2
Annotative
 70
     0
 40
0.0
 41
1.0
 50
0.0
 71
     0
 42
0.2
  3
txt
  4

1001
AcadAnnotative
1000
AnnotativeData
1002
{
1070
     1
1070
     1
1002
}
  0
ENDTAB
  0
TABLE
  2
VIEW
  5
6
330
0
100
AcDbSymbolTable
 70
     0
  0
ENDTAB
  0
TABLE
  2
UCS
  5
7
330
0
100
AcDbSymbolTable
 70
     0
  0
ENDTAB
  0
TABLE
  2
APPID
  5
9
330
0
100
AcDbSymbolTable
 70
     3
  0
APPID
  5
56
330
9
100
AcDbSymbolTableRecord
100
AcDbRegAppTableRecord
  2
ACAD
 70
     0
  0
APPID
  5
5E
330
9
100
AcDbSymbolTableRecord
100
AcDbRegAppTableRecord
  2
AcadAnnotative
 70
     0
  0
APPID
  5
79
330
9
100
AcDbSymbolTableRecord
100
AcDbRegAppTableRecord
  2
REVIT
 70
     0
  0
ENDTAB
  0
TABLE
  2
DIMSTYLE
  5
A
330
0
100
AcDbSymbolTable
 70
     2
100
AcDbDimStyleTable
 71
     0
  0
DIMSTYLE
105
58
330
A
100
AcDbSymbolTableRecord
100
AcDbDimStyleTableRecord
  2
Standard
 70
     0
340
55
  0
DIMSTYLE
105
59
330
A
100
AcDbSymbolTableRecord
100
AcDbDimStyleTableRecord
  2
Annotative
 70
     0
340
55
1001
AcadAnnotative
1000
AnnotativeData
1002
{
1070
     1
1070
     1
1002
}
  0
ENDTAB
  0
TABLE
  2
BLOCK_RECORD
  5
1
330
0
100
AcDbSymbolTable
 70
     4
  0
BLOCK_RECORD
  5
71
102
{ACAD_XDICTIONARY
360
25B
102
}
330
1
100
AcDbSymbolTableRecord
100
AcDbBlockTableRecord
  2
*Model_Space
340
74
 70
     0
280
     1
281
     0
  0
BLOCK_RECORD
  5
6D
330
1
100
AcDbSymbolTableRecord
100
AcDbBlockTableRecord
  2
*Paper_Space
340
70
 70
     0
280
     1
281
     0
  0
BLOCK_RECORD
  5
75
330
1
100
AcDbSymbolTableRecord
100
AcDbBlockTableRecord
  2
*Paper_Space0
340
78
 70
     0
280
     1
281
     0
  0
BLOCK_RECORD
  5
87
330
1
100
AcDbSymbolTableRecord
100
AcDbBlockTableRecord
  2
Automatic flow rate regulator valve_Caleffi_121 DN15 - 1_2__-859151-Est - Idraulica
340
0
102
{BLKREFS
331
E3
102
}
 70
     0
280
     1
281
     0
  0
BLOCK_RECORD
  5
E4
330
1
100
AcDbSymbolTableRecord
100
AcDbBlockTableRecord
  2
Automatic flow rate regulator valve_Caleffi_121 DN15 - 1_2__-V1-Est - Idraulica
340
0
102
{BLKREFS
331
1EF
102
}
 70
     0
280
     1
281
     0
  0
BLOCK_RECORD
  5
1F0
330
1
100
AcDbSymbolTableRecord
100
AcDbBlockTableRecord
  2
Automatic flow rate regulator valve_Caleffi_121 DN15 - 1_2__-V2-Est - Idraulica
340
0
102
{BLKREFS
331
255
102
}
 70
     0
280
     1
281
     0
  0
ENDTAB
  0
ENDSEC
  0
SECTION
  2
BLOCKS
  0
BLOCK
  5
72
330
71
100
AcDbEntity
  8
0
100
AcDbBlockBegin
  2
*Model_Space
 70
     0
 10
0.0
 20
0.0
 30
0.0
  3
*Model_Space
  1

  0
ENDBLK
  5
73
330
71
100
AcDbEntity
  8
0
100
AcDbBlockEnd
  0
BLOCK
  5
6E
330
6D
100
AcDbEntity
 67
     1
  8
0
100
AcDbBlockBegin
  2
*Paper_Space
 70
     0
 10
0.0
 20
0.0
 30
0.0
  3
*Paper_Space
  1

  0
ENDBLK
  5
6F
330
6D
100
AcDbEntity
 67
     1
  8
0
100
AcDbBlockEnd
  0
BLOCK
  5
76
330
75
100
AcDbEntity
 67
     1
  8
0
100
AcDbBlockBegin
  2
*Paper_Space0
 70
     0
 10
0.0
 20
0.0
 30
0.0
  3
*Paper_Space0
  1

  0
ENDBLK
  5
77
330
75
100
AcDbEntity
 67
     1
  8
0
100
AcDbBlockEnd
  0
BLOCK
  5
E1
330
87
100
AcDbEntity
  8
0
100
AcDbBlockBegin
  2
Automatic flow rate regulator valve_Caleffi_121 DN15 - 1_2__-859151-Est - Idraulica
 70
     0
 10
0.0
 20
0.0
 30
0.0
  3
Automatic flow rate regulator valve_Caleffi_121 DN15 - 1_2__-859151-Est - Idraulica
  1

  0
LINE
  5
88
330
87
100
AcDbEntity
  8
P-SANR-FIXT
100
AcDbLine
 10
793.5164074431894
 20
2129.000000000194
 30
0.0
 11
793.5164074431894
 21
2125.00000000023
 31
0.0
  0
LINE
  5
89
330
87
100
AcDbEntity
  8
P-SANR-FIXT
100
AcDbLine
 10
837.8164074431891
 20
2125.00000000023
 30
0.0
 11
837.8164074431891
 21
2129.000000000194
 31
0.0
  0
LINE
  5
8A
330
87
100
AcDbEntity
  8
P-SANR-FIXT
100
AcDbLine
 10
793.166407443206
 20
2125.00000000023
 30
0.0
 11
793.166407443206
 21
2098.000000000193
 31
0.0
  0
LINE
  5
8B
330
87
100
AcDbEntity
  8
P-SANR-FIXT
100
AcDbLine
 10
838.1664074431723
 20
2098.000000000193
 30
0.0
 11
838.1664074431723
 21
2125.00000000023
 31
0.0
  0
LINE
  5
8C
330
87
100
AcDbEntity
  8
P-SANR-FIXT
100
AcDbLine
 10
793.5164074431881
 20
2129.000000000193
 30
0.0
 11
837.8164074431875
 21
2129.000000000193
 31
0.0
  0
LINE
  5
8D
330
87
100
AcDbEntity
  8
P-SANR-FIXT
100
AcDbLine
 10
838.1664074431709
 20
2098.000000000192
 30
0.0
 11
793.1664074432046
 21
2098.000000000192
 31
0.0
  0
LINE
  5
8E
330
87
100
AcDbEntity
  8
P-SANR-FIXT
100
AcDbLine
 10
793.1664074432046
 20
2125.000000000229
 30
0.0
 11
838.1664074431709
 21
2125.000000000229
 31
0.0
  0
LINE
  5
8F
330
87
100
AcDbEntity
  8
P-SANR-FIXT
100
AcDbLine
 10
785.1664074431892
 20
2033.799999999996
 30
0.0
 11
785.1664074431892
 21
2024.499999999996
 31
0.0
  0
LINE
  5
90
330
87
100
AcDbEntity
  8
P-SANR-FIXT
100
AcDbLine
 10
846.1664074431892
 20
1985.899999999996
 30
0.0
 11
846.1664074431892
 21
2033.799999999996
 31
0.0
  0
LINE
  5
91
330
87
100
AcDbEntity
  8
P-SANR-FIXT
100
AcDbLine
 10
837.9164074431953
 20
1962.587713240255
 30
0.0
 11
837.9164074431953
 21
1980.899999999996
 31
0.0
  0
LINE
  5
92
330
87
100
AcDbEntity
  8
P-SANR-FIXT
100
AcDbLine
 10
793.4164074431834
 20
1980.499999999995
 30
0.0
 11
793.4164074431834
 21
1962.587713240255
 31
0.0
  0
LWPOLYLINE
  5
93
330
87
100
AcDbEntity
  8
P-SANR-FIXT
100
AcDbPolyline
 90
       76
 70
   128
 43
0.0
 10
790.4709713485312
 20
1980.899999999996
 10
790.6482581616753
 20
1980.899999999996
 10
790.8655686767493
 20
1980.899999999996
 10
791.1225552432863
 20
1980.899999999996
 10
791.4188067376005
 20
1980.899999999996
 10
791.7538492204982
 20
1980.899999999996
 10
792.1271466954781
 20
1980.899999999996
 10
792.5381019662134
 20
1980.899999999996
 10
792.9860575919367
 20
1980.899999999996
 10
793.4702969392053
 20
1980.899999999996
 10
793.9900453283625
 20
1980.899999999996
 10
794.5444712728596
 20
1980.899999999996
 10
795.1326878094564
 20
1980.899999999996
 10
795.7537539171738
 20
1980.899999999996
 10
796.4066760227267
 20
1980.899999999996
 10
797.0904095900291
 20
1980.899999999996
 10
797.803860791228
 20
1980.899999999996
 10
798.5458882565965
 20
1980.899999999996
 10
799.3153049004812
 20
1980.899999999996
 10
800.110879820385
 20
1980.899999999996
 10
800.9313402661499
 20
1980.899999999996
 10
801.7753736760845
 20
1980.899999999996
 10
802.6416297767839
 20
1980.899999999996
 10
803.5287227432785
 20
1980.899999999996
 10
804.4352334160585
 20
1980.899999999996
 10
805.3597115714259
 20
1980.899999999996
 10
806.3006782415435
 20
1980.899999999996
 10
807.256628080468
 20
1980.899999999996
 10
808.2260317723823
 20
1980.899999999996
 10
809.2073384781745
 20
1980.899999999996
 10
810.1989783164494
 20
1980.899999999996
 10
811.1993648750045
 20
1980.899999999996
 10
812.2068977487504
 20
1980.899999999996
 10
813.2199651000179
 20
1980.899999999996
 10
814.2369462371547
 20
1980.899999999996
 10
815.2562142072859
 20
1980.899999999996
 10
816.2761383990911
 20
1980.899999999996
 10
817.2950871514357
 20
1980.899999999996
 10
818.3114303636806
 20
1980.899999999996
 10
819.3235421034941
 20
1980.899999999996
 10
820.3298032079981
 20
1980.899999999996
 10
821.3286038740832
 20
1980.899999999996
 10
822.3183462337498
 20
1980.899999999996
 10
823.2974469103558
 20
1980.899999999996
 10
824.2643395516827
 20
1980.899999999996
 10
825.2174773357639
 20
1980.899999999996
 10
826.1553354454695
 20
1980.899999999996
 10
827.0764135078906
 20
1980.899999999996
 10
827.9792379946126
 20
1980.899999999996
 10
828.8623645790496
 20
1980.899999999996
 10
829.7243804470564
 20
1980.899999999996
 10
830.5639065571314
 20
1980.899999999996
 10
831.3795998465879
 20
1980.899999999996
 10
832.170155380168
 20
1980.899999999996
 10
832.9343084376603
 20
1980.899999999996
 10
833.6708365371842
 20
1980.899999999996
 10
834.3785613908975
 20
1980.899999999996
 10
835.056350790008
 20
1980.899999999996
 10
835.7031204160641
 20
1980.899999999996
 10
836.3178355756344
 20
1980.899999999996
 10
836.8995128555958
 20
1980.899999999996
 10
837.4472216963848
 20
1980.899999999996
 10
837.9600858806949
 20
1980.899999999996
 10
838.4372849352358
 20
1980.899999999996
 10
838.8780554433177
 20
1980.899999999996
 10
839.2816922661534
 20
1980.899999999996
 10
839.6475496709312
 20
1980.899999999996
 10
839.975042363849
 20
1980.899999999996
 10
840.263646426459
 20
1980.899999999996
 10
840.5129001538268
 20
1980.899999999996
 10
840.7224047931604
 20
1980.899999999996
 10
840.8918251817279
 20
1980.899999999996
 10
841.0208902830497
 20
1980.899999999996
 10
841.1093936204952
 20
1980.899999999996
 10
841.157193607605
 20
1980.899999999996
 10
841.1664074431893
 20
1980.899999999996
  0
LWPOLYLINE
  5
94
330
87
100
AcDbEntity
  8
P-SANR-FIXT
100
AcDbPolyline
 90
       41
 70
   128
 43
0.0
 10
846.1664074431892
 20
1985.899999999996
 10
846.1624079764941
 20
1985.700053329063
 10
846.1504159747025
 20
1985.50042653015
 10
846.1304506224587
 20
1985.301438963551
 10
846.1025438600673
 20
1985.103408966924
 10
846.0667403323954
 20
1984.90665334602
 10
846.0230973174496
 20
1984.71148686786
 10
845.9716846347433
 20
1984.518221757175
 10
845.9125845336014
 20
1984.327167196915
 10
845.8458915615789
 20
1984.13862883362
 10
845.7717124132038
 20
1983.952908288452
 10
845.690165759289
 20
1983.770302674665
 10
845.6013820570857
 20
1983.591104122288
 10
845.5055033415774
 20
1983.415599310777
 10
845.4026829982563
 20
1983.244069010391
 10
845.2930855177378
 20
1983.07678763302
 10
845.1768862326106
 20
1982.914022793184
 10
845.054271036944
 20
1982.756034879903
 10
844.9254360888936
 20
1982.603076640138
 10
844.7905874968936
 20
1982.455392774443
 10
844.6499409899251
 20
1982.313219545498
 10
844.5037215723957
 20
1982.176784400141
 10
844.3521631641822
 20
1982.046305605501
 10
844.1955082264065
 20
1981.921991899814
 10
844.0340073735516
 20
1981.804042158491
 10
843.86791897253
 20
1981.692645075956
 10
843.6975087293532
 20
1981.587978863779
 10
843.5230492640579
 20
1981.490210965571
 10
843.3448196745729
 20
1981.399497789113
 10
843.1631050902208
 20
1981.315984456137
 10
842.9781962155727
 20
1981.239804570159
 10
842.7903888653831
 20
1981.171080002748
 10
842.5999834913492
 20
1981.109920698549
 10
842.407284701451
 20
1981.056424499404
 10
842.2126007726463
 20
1981.010676987819
 10
842.0162431576903
 20
1980.972751350053
 10
841.8185259868799
 20
1980.942708259037
 10
841.6197655655109
 20
1980.920595777307
 10
841.4202798678569
 20
1980.906449280118
 10
841.2203880284806
 20
1980.900291398846
 10
841.1664074431893
 20
1980.899999999996
  0
LWPOLYLINE
  5
95
330
87
100
AcDbEntity
  8
P-SANR-FIXT
100
AcDbPolyline
 90
        4
 70
   128
 43
0.0
 10
841.1664074431893
 20
1980.899999999996
 10
841.1460101630444
 20
1980.899999999996
 10
841.0848509539061
 20
1980.899999999996
 10
841.0259176219206
 20
1980.899999999996
  0
LINE
  5
96
330
87
100
AcDbEntity
  8
P-SANR-FIXT
100
AcDbLine
 10
796.1664074432101
 20
2095.521768186697
 30
0.0
 11
796.1664074432101
 21
2054.300000000031
 31
0.0
  0
LINE
  5
97
330
87
100
AcDbEntity
  8
P-SANR-FIXT
100
AcDbLine
 10
835.1664074431685
 20
2054.300000000031
 30
0.0
 11
835.1664074431685
 21
2095.521768186697
 31
0.0
  0
LINE
  5
98
330
87
100
AcDbEntity
  8
P-SANR-FIXT
100
AcDbLine
 10
785.8664074431893
 20
2034.499999999996
 30
0.0
 11
785.1664074431892
 21
2033.799999999996
 31
0.0
  0
LINE
  5
99
330
87
100
AcDbEntity
  8
P-SANR-FIXT
100
AcDbLine
 10
846.1664074431892
 20
2033.799999999996
 30
0.0
 11
845.4664074431892
 21
2034.499999999996
 31
0.0
  0
LINE
  5
9A
330
87
100
AcDbEntity
  8
P-SANR-FIXT
100
AcDbLine
 10
768.3664074431894
 20
1975.499999999995
 30
0.0
 11
787.6664074431894
 21
1975.499999999995
 31
0.0
  0
LINE
  5
9B
330
87
100
AcDbEntity
  8
P-SANR-FIXT
100
AcDbLine
 10
785.1664074431892
 20
2024.499999999996
 30
0.0
 11
768.3664074431893
 21
2024.499999999996
 31
0.0
  0
LWPOLYLINE
  5
9C
330
87
100
AcDbEntity
  8
P-SANR-FIXT
100
AcDbPolyline
 90
       64
 70
   128
 43
0.0
 10
788.6664074431895
 20
1976.499999999995
 10
788.6664074431895
 20
1976.518797493462
 10
788.6664074431895
 20
1976.575159901884
 10
788.6664074431895
 20
1976.66899705743
 10
788.6664074431895
 20
1976.800158840668
 10
788.6664074431895
 20
1976.968435420726
 10
788.6664074431895
 20
1977.173557590973
 10
788.6664074431895
 20
1977.415197199692
 10
788.6664074431895
 20
1977.692967675058
 10
788.6664074431895
 20
1978.006424643564
 10
788.6664074431895
 20
1978.355066640927
 10
788.6664074431895
 20
1978.738335914326
 10
788.6664074431895
 20
1979.155619314682
 10
788.6664074431895
 20
1979.606249277571
 10
788.6664074431895
 20
1980.08950489118
 10
788.6664074431895
 20
1980.604613049618
 10
788.6664074431895
 20
1981.150749689714
 10
788.6664074431895
 20
1981.727041109348
 10
788.6664074431895
 20
1982.332565365184
 10
788.6664074431895
 20
1982.966353747584
 10
788.6664074431895
 20
1983.627392330337
 10
788.6664074431895
 20
1984.314623592725
 10
788.6664074431895
 20
1985.026948111329
 10
788.6664074431895
 20
1985.763226318874
 10
788.6664074431895
 20
1986.522280327293
 10
788.6664074431895
 20
1987.302895812094
 10
788.6664074431895
 20
1988.103823955025
 10
788.6664074431895
 20
1988.923783441913
 10
788.6664074431895
 20
1989.761462512493
 10
788.6664074431895
 20
1990.615521058948
 10
788.6664074431895
 20
1991.484592769794
 10
788.6664074431893
 20
1992.367287315684
 10
788.6664074431893
 20
1993.262192573644
 10
788.6664074431893
 20
1994.167876886165
 10
788.6664074431893
 20
1995.082891351547
 10
788.6664074431893
 20
1996.00577214184
 10
788.6664074431893
 20
1996.935042844649
 10
788.6664074431893
 20
1997.869216825084
 10
788.6664074431893
 20
1998.806799604057
 10
788.6664074431893
 20
1999.746291249126
 10
788.6664074431893
 20
2000.686188774076
 10
788.6664074431893
 20
2001.624988543366
 10
788.6664074431893
 20
2002.561188677633
 10
788.6664074431893
 20
2003.493291456373
 10
788.6664074431893
 20
2004.419805713979
 10
788.6664074431893
 20
2005.339249225284
 10
788.6664074431893
 20
2006.250151076807
 10
788.6664074431893
 20
2007.151054019902
 10
788.6664074431893
 20
2008.040516802042
 10
788.6664074431893
 20
2008.917116472517
 10
788.6664074431893
 20
2009.779450658854
 10
788.6664074431893
 20
2010.626139810308
 10
788.6664074431893
 20
2011.455829404853
 10
788.6664074431893
 20
2012.267192116131
 10
788.6664074431893
 20
2013.058929936885
 10
788.6664074431893
 20
2013.829776255497
 10
788.6664074431893
 20
2014.578497882294
 10
788.6664074431893
 20
2015.303897022393
 10
788.6664074431893
 20
2016.004813191914
 10
788.6664074431893
 20
2016.680125074506
 10
788.6664074431893
 20
2017.328752315215
 10
788.6664074431893
 20
2017.949657248824
 10
788.6664074431893
 20
2018.54184655989
 10
788.6664074431893
 20
2018.734993995191
  0
LWPOLYLINE
  5
9D
330
87
100
AcDbEntity
  8
P-SANR-FIXT
100
AcDbPolyline
 90
       41
 70
   128
 43
0.0
 10
788.6664074431895
 20
1976.499999999995
 10
788.6656075498503
 20
1976.460010665809
 10
788.6632091494919
 20
1976.420085306026
 10
788.6592160790431
 20
1976.380287792706
 10
788.6536347265651
 20
1976.340681793381
 10
788.6464740210307
 20
1976.3013306692
 10
788.6377454180413
 20
1976.262297373568
 10
788.6274628815002
 20
1976.223644351431
 10
788.6156428612718
 20
1976.185433439379
 10
788.6023042668674
 20
1976.14772576672
 10
788.5874684371922
 20
1976.110581657687
 10
788.5711591064094
 20
1976.074060534929
 10
788.5534023659687
 20
1976.038220824454
 10
788.5342266228672
 20
1976.003119862151
 10
788.5136625542028
 20
1975.968813802074
 10
788.4917430580992
 20
1975.935357526601
 10
788.4685032010737
 20
1975.902804558633
 10
788.4439801619403
 20
1975.871206975977
 10
788.4182131723303
 20
1975.840615328024
 10
788.3912434539303
 20
1975.811078554885
 10
788.3631141525365
 20
1975.782643909096
 10
788.3338702690307
 20
1975.755356880025
 10
788.303558587388
 20
1975.729261121097
 10
788.2722275998329
 20
1975.704398379959
 10
788.2399274292619
 20
1975.680808431695
 10
788.2067097490574
 20
1975.658529015188
 10
788.1726277004221
 20
1975.637595772752
 10
788.1377358073629
 20
1975.61804219311
 10
788.1020898894662
 20
1975.599899557819
 10
788.0657469725957
 20
1975.583196891223
 10
788.0287651976661
 20
1975.567960914028
 10
787.9912037276282
 20
1975.554216000546
 10
787.9531226528214
 20
1975.541984139706
 10
787.9145828948417
 20
1975.531284899877
 10
787.8756461090808
 20
1975.52213539756
 10
787.8363745860895
 20
1975.514550270007
 10
787.7968311519274
 20
1975.508541651803
 10
787.7570790676537
 20
1975.504119155458
 10
787.7171819281228
 20
1975.50128985602
 10
787.6772035602477
 20
1975.500058279765
 10
787.6664074431894
 20
1975.499999999995
  0
LWPOLYLINE
  5
9E
330
87
100
AcDbEntity
  8
P-SANR-FIXT
100
AcDbPolyline
 90
        4
 70
   128
 43
0.0
 10
788.6664074431895
 20
1976.564429155913
 10
788.6664074431895
 20
1976.533617457115
 10
788.6664074431895
 20
1976.502139900738
 10
788.6664074431895
 20
1976.499999999995
  0
LINE
  5
9F
330
87
100
AcDbEntity
  8
P-SANR-FIXT
100
AcDbLine
 10
788.6664074431895
 20
1980.499999999995
 30
0.0
 11
793.4164074431834
 21
1980.499999999995
 31
0.0
  0
LINE
  5
A0
330
87
100
AcDbEntity
  8
P-SANR-FIXT
100
AcDbLine
 10
767.6664074431892
 20
1976.199999999996
 30
0.0
 11
768.3664074431893
 21
1975.499999999996
 31
0.0
  0
LINE
  5
A1
330
87
100
AcDbEntity
  8
P-SANR-FIXT
100
AcDbLine
 10
768.3664074431893
 20
2024.499999999996
 30
0.0
 11
767.6664074431892
 21
2023.799999999996
 31
0.0
  0
LINE
  5
A2
330
87
100
AcDbEntity
  8
P-SANR-FIXT
100
AcDbLine
 10
796.16640744321
 20
2054.300000000031
 30
0.0
 11
792.1664074431896
 21
2051.990598923261
 31
0.0
  0
LINE
  5
A3
330
87
100
AcDbEntity
  8
P-SANR-FIXT
100
AcDbLine
 10
839.166407443189
 20
2051.990598923261
 30
0.0
 11
835.1664074431687
 21
2054.300000000031
 31
0.0
  0
LINE
  5
A4
330
87
100
AcDbEntity
  8
P-SANR-FIXT
100
AcDbLine
 10
792.1664074431896
 20
2040.467344008569
 30
0.0
 11
792.1664074431896
 21
2039.964101615135
 31
0.0
  0
LINE
  5
A5
330
87
100
AcDbEntity
  8
P-SANR-FIXT
100
AcDbLine
 10
839.166407443189
 20
2039.964101615135
 30
0.0
 11
839.166407443189
 21
2040.467344008569
 31
0.0
  0
LINE
  5
A6
330
87
100
AcDbEntity
  8
P-SANR-FIXT
100
AcDbLine
 10
792.1664074431896
 20
2039.964101615135
 30
0.0
 11
786.2573460979273
 21
2036.55250345679
 31
0.0
  0
LINE
  5
A7
330
87
100
AcDbEntity
  8
P-SANR-FIXT
100
AcDbLine
 10
786.2323647136121
 20
2036.538080447831
 30
0.0
 11
786.1664074431869
 21
2036.499999999996
 31
0.0
  0
LINE
  5
A8
330
87
100
AcDbEntity
  8
P-SANR-FIXT
100
AcDbLine
 10
845.1664074431917
 20
2036.499999999996
 30
0.0
 11
845.1004501727663
 21
2036.538080447831
 31
0.0
  0
LINE
  5
A9
330
87
100
AcDbEntity
  8
P-SANR-FIXT
100
AcDbLine
 10
845.0754687884511
 20
2036.55250345679
 30
0.0
 11
839.166407443189
 21
2039.964101615135
 31
0.0
  0
LINE
  5
AA
330
87
100
AcDbEntity
  8
P-SANR-FIXT
100
AcDbLine
 10
786.1664074430542
 20
2036.499999999996
 30
0.0
 11
786.1664074430542
 21
2034.499999999996
 31
0.0
  0
LINE
  5
AB
330
87
100
AcDbEntity
  8
P-SANR-FIXT
100
AcDbLine
 10
845.1664074433244
 20
2034.499999999996
 30
0.0
 11
845.1664074433244
 21
2036.499999999996
 31
0.0
  0
LINE
  5
AC
330
87
100
AcDbEntity
  8
P-SANR-FIXT
100
AcDbLine
 10
796.5642171524203
 20
2098.000000000193
 30
0.0
 11
796.5642171524203
 21
2095.521768186697
 31
0.0
  0
LINE
  5
AD
330
87
100
AcDbEntity
  8
P-SANR-FIXT
100
AcDbLine
 10
834.7685977339581
 20
2095.521768186697
 30
0.0
 11
834.7685977339581
 21
2098.000000000193
 31
0.0
  0
LINE
  5
AE
330
87
100
AcDbEntity
  8
P-SANR-FIXT
100
AcDbLine
 10
793.4164074431834
 20
1962.587713240255
 30
0.0
 11
793.4688348523909
 21
1962.557444261436
 31
0.0
  0
LINE
  5
AF
330
87
100
AcDbEntity
  8
P-SANR-FIXT
100
AcDbLine
 10
793.4708993674915
 20
1962.556252313086
 30
0.0
 11
796.1664074431873
 21
1960.999999999981
 31
0.0
  0
LINE
  5
B0
330
87
100
AcDbEntity
  8
P-SANR-FIXT
100
AcDbLine
 10
835.1664074431912
 20
1960.999999999981
 30
0.0
 11
837.8619155188872
 21
1962.556252313087
 31
0.0
  0
LINE
  5
B1
330
87
100
AcDbEntity
  8
P-SANR-FIXT
100
AcDbLine
 10
837.8639794861678
 20
1962.557443945152
 30
0.0
 11
837.9164074431953
 21
1962.587713240255
 31
0.0
  0
LINE
  5
B2
330
87
100
AcDbEntity
  8
P-SANR-FIXT
100
AcDbLine
 10
846.1664074431878
 20
2033.799999999995
 30
0.0
 11
785.1664074431878
 21
2033.799999999995
 31
0.0
  0
SPLINE
  5
B3
330
87
100
AcDbEntity
  8
P-SANR-FIXT
100
AcDbSpline
210
0.0
220
0.0
230
1.0
 70
     8
 71
     3
 72
    10
 73
     6
 74
     0
 42
0.000000001
 43
0.0000000001
 40
0.0
 40
0.0
 40
0.0
 40
0.0
 40
0.3333333333333333
 40
0.6666666666666666
 40
1.0
 40
1.0
 40
1.0
 40
1.0
 10
785.1664074431878
 20
2024.499999999995
 30
0.0
 10
785.1664074431878
 20
2024.493013133568
 30
0.0
 10
785.3741002930028
 20
2024.246526137597
 30
0.0
 10
786.2601990840791
 20
2023.124736238705
 30
0.0
 10
787.1572761561467
 20
2021.984542600648
 30
0.0
 10
787.6664074431877
 20
2021.307275752658
 30
0.0
  0
SPLINE
  5
B4
330
87
100
AcDbEntity
  8
P-SANR-FIXT
100
AcDbSpline
210
0.0
220
0.0
230
1.0
 70
     8
 71
     3
 72
    16
 73
    12
 74
     0
 42
0.000000001
 43
0.0000000001
 40
0.0
 40
0.0
 40
0.0
 40
0.0
 40
0.3333333333333333
 40
0.4166666666666666
 40
0.5
 40
0.5833333333333333
 40
0.6666666666666666
 40
0.75
 40
0.8333333333333333
 40
0.9166666666666667
 40
1.0
 40
1.0
 40
1.0
 40
1.0
 10
787.6664074431877
 20
2021.307275752658
 30
0.0
 10
787.8069921839951
 20
2021.122851014791
 30
0.0
 10
787.9801929836376
 20
2020.852026151649
 30
0.0
 10
788.1774575854797
 20
2020.467717040889
 30
0.0
 10
788.2723311000638
 20
2020.262973522828
 30
0.0
 10
788.3640263640078
 20
2020.046142926096
 30
0.0
 10
788.4486157106644
 20
2019.815503133866
 30
0.0
 10
788.5288514695462
 20
2019.570839046989
 30
0.0
 10
788.5968419580755
 20
2019.310803863372
 30
0.0
 10
788.6416451141228
 20
2019.032543101257
 30
0.0
 10
788.6602944799034
 20
2018.836070439426
 30
0.0
 10
788.6664074431877
 20
2018.73499399519
 30
0.0
  0
SPLINE
  5
B5
330
87
100
AcDbEntity
  8
P-SANR-FIXT
100
AcDbSpline
210
0.0
220
0.0
230
1.0
 70
     8
 71
     3
 72
    22
 73
    18
 74
     0
 42
0.000000001
 43
0.0000000001
 40
0.0
 40
0.0
 40
0.0
 40
0.0
 40
0.1428571428571428
 40
0.2142857142857143
 40
0.2857142857142857
 40
0.3214285714285714
 40
0.3571428571428571
 40
0.4285714285714286
 40
0.5
 40
0.5714285714285714
 40
0.6785714285714287
 40
0.7053571428571429
 40
0.7321428571428572
 40
0.7857142857142857
 40
0.8392857142857142
 40
0.8928571428571427
 40
1.0
 40
1.0
 40
1.0
 40
1.0
 10
788.6664074431877
 20
2013.379088160255
 30
0.0
 10
789.1681771055215
 20
2012.378267472619
 30
0.0
 10
789.9051951669881
 20
2010.754667694814
 30
0.0
 10
790.8062982879287
 20
2008.311974713835
 30
0.0
 10
791.2955386629034
 20
2006.691857719208
 30
0.0
 10
791.6155442186629
 20
2005.345280215413
 30
0.0
 10
791.8989037638834
 20
2003.952326344274
 30
0.0
 10
792.1483351565385
 20
2002.185333107485
 30
0.0
 10
792.2398256253966
 20
2000.002295092537
 30
0.0
 10
792.134475514801
 20
1997.459852613033
 30
0.0
 10
791.7941511921684
 20
1995.426578448161
 30
0.0
 10
791.435802839434
 20
1993.89882994157
 30
0.0
 10
791.1775759648251
 20
1992.909156999006
 30
0.0
 10
790.8005206225257
 20
1991.698344529712
 30
0.0
 10
790.2991286897687
 20
1990.311292025173
 30
0.0
 10
789.6039005260864
 20
1988.570731916756
 30
0.0
 10
789.0428951293743
 20
1987.371812955753
 30
0.0
 10
788.6664074431877
 20
1986.620911839735
 30
0.0
  0
LINE
  5
B6
330
87
100
AcDbEntity
  8
P-SANR-FIXT
100
AcDbLine
 10
835.1664074431896
 20
1960.99999999998
 30
0.0
 11
796.166407443186
 21
1960.99999999998
 31
0.0
  0
LINE
  5
B7
330
87
100
AcDbEntity
  8
P-SANR-FIXT
100
AcDbLine
 10
837.8619155188857
 20
1980.899999999995
 30
0.0
 11
837.8619155188857
 21
1962.587713240254
 31
0.0
  0
LINE
  5
B8
330
87
100
AcDbEntity
  8
P-SANR-FIXT
100
AcDbLine
 10
837.8619155188857
 20
1962.587713240254
 30
0.0
 11
837.9164074431939
 21
1962.587713240254
 31
0.0
  0
LINE
  5
B9
330
87
100
AcDbEntity
  8
P-SANR-FIXT
100
AcDbLine
 10
793.416407443182
 20
1962.587713240254
 30
0.0
 11
793.4708993674901
 21
1962.587713240254
 31
0.0
  0
LINE
  5
BA
330
87
100
AcDbEntity
  8
P-SANR-FIXT
100
AcDbLine
 10
793.4708993674901
 20
1962.587713240254
 30
0.0
 11
793.4708993674901
 21
1980.562199745385
 31
0.0
  0
SPLINE
  5
BB
330
87
100
AcDbEntity
  8
P-SANR-FIXT
100
AcDbSpline
210
0.0
220
0.0
230
1.0
 70
     8
 71
     3
 72
     9
 73
     5
 74
     0
 42
0.000000001
 43
0.0000000001
 40
0.0
 40
0.0
 40
0.0
 40
0.0
 40
0.5
 40
1.0
 40
1.0
 40
1.0
 40
1.0
 10
793.4708993674901
 20
1962.587713240254
 30
0.0
 10
795.1214975399623
 20
1961.72174458399
 30
0.0
 10
798.3970957124417
 20
1960.855775927726
 30
0.0
 10
801.6214975399911
 20
1961.72174458399
 30
0.0
 10
803.2208993675332
 20
1962.587713240254
 30
0.0
  0
LINE
  5
BC
330
87
100
AcDbEntity
  8
P-SANR-FIXT
100
AcDbLine
 10
803.2208993675332
 20
1962.587713240254
 30
0.0
 11
803.2208993675332
 21
1980.899999999995
 31
0.0
  0
LINE
  5
BD
330
87
100
AcDbEntity
  8
P-SANR-FIXT
100
AcDbLine
 10
803.2208993675332
 20
1962.587713240254
 30
0.0
 11
805.9164074431445
 21
1962.587713240254
 31
0.0
  0
LINE
  5
BE
330
87
100
AcDbEntity
  8
P-SANR-FIXT
100
AcDbLine
 10
805.9164074431445
 20
1962.587713240254
 30
0.0
 11
805.9164074431445
 21
1980.899999999995
 31
0.0
  0
SPLINE
  5
BF
330
87
100
AcDbEntity
  8
P-SANR-FIXT
100
AcDbSpline
210
0.0
220
0.0
230
1.0
 70
     8
 71
     3
 72
     9
 73
     5
 74
     0
 42
0.000000001
 43
0.0000000001
 40
0.0
 40
0.0
 40
0.0
 40
0.0
 40
0.5
 40
1.0
 40
1.0
 40
1.0
 40
1.0
 10
805.9164074431445
 20
1962.587713240254
 30
0.0
 10
809.2176037880889
 20
1961.72174458399
 30
0.0
 10
815.7688001330477
 20
1960.855775927726
 30
0.0
 10
822.2176037881466
 20
1961.72174458399
 30
0.0
 10
825.416407443231
 20
1962.587713240254
 30
0.0
  0
LINE
  5
C0
330
87
100
AcDbEntity
  8
P-SANR-FIXT
100
AcDbLine
 10
825.416407443231
 20
1962.587713240254
 30
0.0
 11
825.416407443231
 21
1980.899999999995
 31
0.0
  0
LINE
  5
C1
330
87
100
AcDbEntity
  8
P-SANR-FIXT
100
AcDbLine
 10
825.416407443231
 20
1962.587713240254
 30
0.0
 11
828.1119155188424
 21
1962.587713240254
 31
0.0
  0
LINE
  5
C2
330
87
100
AcDbEntity
  8
P-SANR-FIXT
100
AcDbLine
 10
828.1119155188424
 20
1962.587713240254
 30
0.0
 11
828.1119155188424
 21
1980.899999999995
 31
0.0
  0
SPLINE
  5
C3
330
87
100
AcDbEntity
  8
P-SANR-FIXT
100
AcDbSpline
210
0.0
220
0.0
230
1.0
 70
     8
 71
     3
 72
     9
 73
     5
 74
     0
 42
0.000000001
 43
0.0000000001
 40
0.0
 40
0.0
 40
0.0
 40
0.0
 40
0.5
 40
1.0
 40
1.0
 40
1.0
 40
1.0
 10
828.1119155188424
 20
1962.587713240254
 30
0.0
 10
829.7113173463845
 20
1961.72174458399
 30
0.0
 10
832.935719173934
 20
1960.855775927726
 30
0.0
 10
836.2113173464136
 20
1961.72174458399
 30
0.0
 10
837.8619155188857
 20
1962.587713240254
 30
0.0
  0
LINE
  5
C4
330
87
100
AcDbEntity
  8
P-SANR-FIXT
100
AcDbLine
 10
785.8664074431877
 20
2034.499999999995
 30
0.0
 11
845.4664074431878
 21
2034.499999999995
 31
0.0
  0
SPLINE
  5
C5
330
87
100
AcDbEntity
  8
P-SANR-FIXT
100
AcDbSpline
210
0.0
220
0.0
230
1.0
 70
     8
 71
     3
 72
    16
 73
    12
 74
     0
 42
0.000000001
 43
0.0000000001
 40
-1.0
 40
-1.0
 40
-1.0
 40
-1.0
 40
-0.8333333333333332
 40
-0.75
 40
-0.6666666666666666
 40
-0.5833333333333333
 40
-0.5
 40
-0.375
 40
-0.3125
 40
-0.25
 40
-0.1666666666666666
 40
-0.1666666666666666
 40
-0.1666666666666666
 40
-0.1666666666666666
 10
788.6664074431879
 20
1981.363955979503
 30
0.0
 10
788.7236751290141
 20
1981.322468491397
 30
0.0
 10
788.8188857435384
 20
1981.264152785794
 30
0.0
 10
788.9639053381473
 20
1981.193244149148
 30
0.0
 10
789.082798214379
 20
1981.143971052754
 30
0.0
 10
789.2074507669393
 20
1981.095867398371
 30
0.0
 10
789.3606564553741
 20
1981.041835848562
 30
0.0
 10
789.5199349344007
 20
1980.99841646681
 30
0.0
 10
789.6908711796286
 20
1980.968157998543
 30
0.0
 10
789.8438534477755
 20
1980.946653269253
 30
0.0
 10
789.959066470393
 20
1980.934250005109
 30
0.0
 10
790.0275930473362
 20
1980.927990297203
 30
0.0
  0
LINE
  5
C6
330
87
100
AcDbEntity
  8
P-SANR-FIXT
100
AcDbLine
 10
796.1664074432087
 20
2095.521768186697
 30
0.0
 11
835.1664074431671
 21
2095.521768186697
 31
0.0
  0
LINE
  5
C7
330
87
100
AcDbEntity
  8
P-SANR-FIXT
100
AcDbLine
 10
767.6664074431877
 20
1976.199999999995
 30
0.0
 11
767.6664074431877
 21
2023.799999999995
 31
0.0
  0
LINE
  5
C8
330
87
100
AcDbEntity
  8
P-SANR-FIXT
100
AcDbLine
 10
768.366407443188
 20
2024.499999999995
 30
0.0
 11
768.3664074431881
 21
1975.499999999995
 31
0.0
  0
SPLINE
  5
C9
330
87
100
AcDbEntity
  8
P-SANR-FIXT
100
AcDbSpline
210
0.0
220
0.0
230
1.0
 70
     8
 71
     3
 72
     9
 73
     5
 74
     0
 42
0.000000001
 43
0.0000000001
 40
-1.0
 40
-1.0
 40
-1.0
 40
-1.0
 40
-0.5
 40
0.0
 40
0.0
 40
0.0
 40
0.0
 10
793.4708993674901
 20
1980.562199745385
 30
0.0
 10
793.4527526469186
 20
1980.541502837011
 30
0.0
 10
793.4255239389626
 20
1980.510398872223
 30
0.0
 10
793.4164246973799
 20
1980.499999999994
 30
0.0
 10
793.416407443182
 20
1980.499999999994
 30
0.0
  0
LWPOLYLINE
  5
CA
330
87
100
AcDbEntity
  8
P-SANR-FIXT
100
AcDbPolyline
 90
        3
 70
   128
 43
0.0
 10
794.8410232792431
 20
1980.899999999994
 10
794.1589609125568
 20
1980.69460070948
 10
793.4708993674901
 20
1980.562199745385
  0
LINE
  5
CB
330
87
100
AcDbEntity
  8
P-SANR-FIXT
100
AcDbLine
 10
805.1693979017338
 20
2040.467344008568
 30
0.0
 11
805.118895888323
 21
2040.467344008568
 31
0.0
  0
LINE
  5
CC
330
87
100
AcDbEntity
  8
P-SANR-FIXT
100
AcDbLine
 10
796.1664074432085
 20
2054.30000000003
 30
0.0
 11
835.1664074431671
 21
2054.30000000003
 31
0.0
  0
SPLINE
  5
CD
330
87
100
AcDbEntity
  8
P-SANR-FIXT
100
AcDbSpline
210
0.0
220
0.0
230
1.0
 70
     8
 71
     3
 72
     9
 73
     5
 74
     0
 42
0.000000001
 43
0.0000000001
 40
0.0
 40
0.0
 40
0.0
 40
0.0
 40
0.5
 40
1.0
 40
1.0
 40
1.0
 40
1.0
 10
802.753629741146
 20
2051.99059892326
 30
0.0
 10
801.018435933021
 20
2052.952806778762
 30
0.0
 10
797.5253235324187
 20
2053.915014634265
 30
0.0
 10
793.986761563112
 20
2052.952806778762
 30
0.0
 10
792.2061181862828
 20
2051.99059892326
 30
0.0
  0
SPLINE
  5
CE
330
87
100
AcDbEntity
  8
P-SANR-FIXT
100
AcDbSpline
210
0.0
220
0.0
230
1.0
 70
     8
 71
     3
 72
     9
 73
     5
 74
     0
 42
0.000000001
 43
0.0000000001
 40
0.0
 40
0.0
 40
0.0
 40
0.0
 40
0.5
 40
1.0
 40
1.0
 40
1.0
 40
1.0
 10
826.213918998051
 20
2051.99059892326
 30
0.0
 10
822.7435313818004
 20
2052.952806778762
 30
0.0
 10
815.7573065805957
 20
2053.915014634265
 30
0.0
 10
808.6801826419822
 20
2052.952806778762
 30
0.0
 10
805.1188958883237
 20
2051.99059892326
 30
0.0
  0
SPLINE
  5
CF
330
87
100
AcDbEntity
  8
P-SANR-FIXT
100
AcDbSpline
210
0.0
220
0.0
230
1.0
 70
     8
 71
     3
 72
     9
 73
     5
 74
     0
 42
0.000000001
 43
0.0000000001
 40
0.0
 40
0.0
 40
0.0
 40
0.0
 40
0.5
 40
1.0
 40
1.0
 40
1.0
 40
1.0
 10
839.1266967000927
 20
2051.99059892326
 30
0.0
 10
837.3915028919675
 20
2052.952806778762
 30
0.0
 10
833.898390491365
 20
2053.915014634264
 30
0.0
 10
830.3598285220582
 20
2052.952806778762
 30
0.0
 10
828.5791851452291
 20
2051.99059892326
 30
0.0
  0
LINE
  5
D0
330
87
100
AcDbEntity
  8
P-SANR-FIXT
100
AcDbLine
 10
839.1266967000927
 20
2051.99059892326
 30
0.0
 11
839.1664074431874
 21
2051.99059892326
 31
0.0
  0
LINE
  5
D1
330
87
100
AcDbEntity
  8
P-SANR-FIXT
100
AcDbLine
 10
839.1266967000927
 20
2040.467344008568
 30
0.0
 11
839.1266967000927
 21
2051.99059892326
 31
0.0
  0
LINE
  5
D2
330
87
100
AcDbEntity
  8
P-SANR-FIXT
100
AcDbLine
 10
828.5791851452282
 20
2040.467344008568
 30
0.0
 11
839.1266967000927
 21
2040.467344008568
 31
0.0
  0
LINE
  5
D3
330
87
100
AcDbEntity
  8
P-SANR-FIXT
100
AcDbLine
 10
828.5791851452291
 20
2051.99059892326
 30
0.0
 11
828.5791851452291
 21
2040.467344008568
 31
0.0
  0
LINE
  5
D4
330
87
100
AcDbEntity
  8
P-SANR-FIXT
100
AcDbLine
 10
826.2139189980507
 20
2051.99059892326
 30
0.0
 11
828.5791851452287
 21
2051.99059892326
 31
0.0
  0
LINE
  5
D5
330
87
100
AcDbEntity
  8
P-SANR-FIXT
100
AcDbLine
 10
826.213918998051
 20
2040.467344008568
 30
0.0
 11
826.213918998051
 21
2051.99059892326
 31
0.0
  0
LINE
  5
D6
330
87
100
AcDbEntity
  8
P-SANR-FIXT
100
AcDbLine
 10
805.1188958883232
 20
2040.467344008568
 30
0.0
 11
826.2139189980516
 21
2040.467344008568
 31
0.0
  0
LINE
  5
D7
330
87
100
AcDbEntity
  8
P-SANR-FIXT
100
AcDbLine
 10
805.1188958883237
 20
2051.99059892326
 30
0.0
 11
805.1188958883237
 21
2040.467344008568
 31
0.0
  0
LINE
  5
D8
330
87
100
AcDbEntity
  8
P-SANR-FIXT
100
AcDbLine
 10
802.7536297411458
 20
2051.99059892326
 30
0.0
 11
805.1188958883233
 21
2051.99059892326
 31
0.0
  0
LINE
  5
D9
330
87
100
AcDbEntity
  8
P-SANR-FIXT
100
AcDbLine
 10
802.753629741146
 20
2040.467344008568
 30
0.0
 11
802.753629741146
 21
2051.99059892326
 31
0.0
  0
LINE
  5
DA
330
87
100
AcDbEntity
  8
P-SANR-FIXT
100
AcDbLine
 10
792.2061181862828
 20
2040.467344008568
 30
0.0
 11
802.7536297411465
 21
2040.467344008568
 31
0.0
  0
LINE
  5
DB
330
87
100
AcDbEntity
  8
P-SANR-FIXT
100
AcDbLine
 10
792.2061181862828
 20
2051.99059892326
 30
0.0
 11
792.2061181862828
 21
2040.467344008568
 31
0.0
  0
LINE
  5
DC
330
87
100
AcDbEntity
  8
P-SANR-FIXT
100
AcDbLine
 10
792.1664074431882
 20
2051.99059892326
 30
0.0
 11
792.2061181862828
 21
2051.99059892326
 31
0.0
  0
LINE
  5
DD
330
87
100
AcDbEntity
  8
P-SANR-FIXT
100
AcDbLine
 10
792.166407443188
 20
2039.964101615134
 30
0.0
 11
839.1664074431876
 21
2039.964101615134
 31
0.0
  0
LINE
  5
DE
330
87
100
AcDbEntity
  8
P-SANR-FIXT
100
AcDbLine
 10
786.1664074430527
 20
2036.499999999995
 30
0.0
 11
845.1664074433228
 21
2036.499999999995
 31
0.0
  0
ARC
  5
DF
330
87
100
AcDbEntity
  8
P-SANR-FIXT
100
AcDbCircle
 10
815.6664074431878
 20
2046.699999999993
 30
0.0
 40
4.000000000000113
100
AcDbArc
 50
180.0000000000029
 51
0.0
  0
ARC
  5
E0
330
87
100
AcDbEntity
  8
P-SANR-FIXT
100
AcDbCircle
 10
815.6664074431878
 20
2046.699999999993
 30
0.0
 40
4.000000000000341
100
AcDbArc
 50
0.0
 51
180.0
  0
ENDBLK
  5
E2
330
87
100
AcDbEntity
  8
0
100
AcDbBlockEnd
  0
BLOCK
  5
1ED
330
E4
100
AcDbEntity
  8
0
100
AcDbBlockBegin
  2
Automatic flow rate regulator valve_Caleffi_121 DN15 - 1_2__-V1-Est - Idraulica
 70
     0
 10
0.0
 20
0.0
 30
0.0
  3
Automatic flow rate regulator valve_Caleffi_121 DN15 - 1_2__-V1-Est - Idraulica
  1

  0
ARC
  5
E5
330
E4
100
AcDbEntity
  8
P-SANR-FIXT
100
AcDbCircle
 10
815.6664074431878
 20
1806.245878730053
 30
0.0
 40
22.14999999999989
100
AcDbArc
 50
179.9999999999998
 51
359.9999999999984
  0
ARC
  5
E6
330
E4
100
AcDbEntity
  8
P-SANR-FIXT
100
AcDbCircle
 10
815.6664074431878
 20
1806.245878730053
 30
0.0
 40
22.14999999999978
100
AcDbArc
 50
184.5010858294794
 51
184.9999999999999
  0
ARC
  5
E7
330
E4
100
AcDbEntity
  8
P-SANR-FIXT
100
AcDbCircle
 10
815.6664074431878
 20
1806.245878730053
 30
0.0
 40
22.14999999999976
100
AcDbArc
 50
189.0049006804603
 51
189.9999999999998
  0
ARC
  5
E8
330
E4
100
AcDbEntity
  8
P-SANR-FIXT
100
AcDbCircle
 10
815.6664074431878
 20
1806.245878730053
 30
0.0
 40
22.14999999999981
100
AcDbArc
 50
193.5104248664714
 51
194.9999999999997
  0
ARC
  5
E9
330
E4
100
AcDbEntity
  8
P-SANR-FIXT
100
AcDbCircle
 10
815.6664074431878
 20
1806.245878730053
 30
0.0
 40
22.14999999999979
100
AcDbArc
 50
198.0166638628842
 51
200.0
  0
ARC
  5
EA
330
E4
100
AcDbEntity
  8
P-SANR-FIXT
100
AcDbCircle
 10
815.6664074431878
 20
1806.245878730053
 30
0.0
 40
22.14999999999973
100
AcDbArc
 50
204.9999999999997
 51
207.0271086372933
  0
ARC
  5
EB
330
E4
100
AcDbEntity
  8
P-SANR-FIXT
100
AcDbCircle
 10
815.6664074431878
 20
1806.245878730053
 30
0.0
 40
22.1499999999998
100
AcDbArc
 50
209.9999999999996
 51
211.5289246008461
  0
ARC
  5
EC
330
E4
100
AcDbEntity
  8
P-SANR-FIXT
100
AcDbCircle
 10
815.6664074431878
 20
1806.245878730053
 30
0.0
 40
22.14999999999976
100
AcDbArc
 50
214.9999999999993
 51
216.0264828102644
  0
ARC
  5
ED
330
E4
100
AcDbEntity
  8
P-SANR-FIXT
100
AcDbCircle
 10
815.6664074431878
 20
1806.245878730053
 30
0.0
 40
22.1499999999998
100
AcDbArc
 50
219.9999999999994
 51
220.5177646484172
  0
ARC
  5
EE
330
E4
100
AcDbEntity
  8
P-SANR-FIXT
100
AcDbCircle
 10
815.6664074431878
 20
1806.245878730053
 30
0.0
 40
22.14999999999976
100
AcDbArc
 50
229.4822353515817
 51
229.9999999999991
  0
ARC
  5
EF
330
E4
100
AcDbEntity
  8
P-SANR-FIXT
100
AcDbCircle
 10
815.6664074431878
 20
1806.245878730053
 30
0.0
 40
22.14999999999967
100
AcDbArc
 50
233.9735171897342
 51
234.9999999999992
  0
ARC
  5
F0
330
E4
100
AcDbEntity
  8
P-SANR-FIXT
100
AcDbCircle
 10
815.6664074431878
 20
1806.245878730053
 30
0.0
 40
22.14999999999976
100
AcDbArc
 50
238.4710753991523
 51
239.9999999999993
  0
ARC
  5
F1
330
E4
100
AcDbEntity
  8
P-SANR-FIXT
100
AcDbCircle
 10
815.6664074431878
 20
1806.245878730053
 30
0.0
 40
22.14999999999969
100
AcDbArc
 50
242.9728913627052
 51
244.9999999999991
  0
ARC
  5
F2
330
E4
100
AcDbEntity
  8
P-SANR-FIXT
100
AcDbCircle
 10
815.6664074431878
 20
1806.245878730053
 30
0.0
 40
22.14999999999974
100
AcDbArc
 50
249.9999999999993
 51
251.9833361371143
  0
ARC
  5
F3
330
E4
100
AcDbEntity
  8
P-SANR-FIXT
100
AcDbCircle
 10
815.6664074431878
 20
1806.245878730053
 30
0.0
 40
22.1499999999997
100
AcDbArc
 50
254.9999999999995
 51
256.4895751335275
  0
ARC
  5
F4
330
E4
100
AcDbEntity
  8
P-SANR-FIXT
100
AcDbCircle
 10
815.6664074431878
 20
1806.245878730053
 30
0.0
 40
22.14999999999971
100
AcDbArc
 50
259.9999999999996
 51
260.9950993195393
  0
ARC
  5
F5
330
E4
100
AcDbEntity
  8
P-SANR-FIXT
100
AcDbCircle
 10
815.6664074431878
 20
1806.245878730053
 30
0.0
 40
22.14999999999981
100
AcDbArc
 50
264.9999999999993
 51
265.4989141705201
  0
ARC
  5
F6
330
E4
100
AcDbEntity
  8
P-SANR-FIXT
100
AcDbCircle
 10
815.6664074431878
 20
1806.245878730053
 30
0.0
 40
22.14999999999978
100
AcDbArc
 50
274.5010858294786
 51
274.9999999999995
  0
ARC
  5
F7
330
E4
100
AcDbEntity
  8
P-SANR-FIXT
100
AcDbCircle
 10
815.6664074431878
 20
1806.245878730053
 30
0.0
 40
22.14999999999974
100
AcDbArc
 50
279.0049006804596
 51
279.9999999999995
  0
ARC
  5
F8
330
E4
100
AcDbEntity
  8
P-SANR-FIXT
100
AcDbCircle
 10
815.6664074431878
 20
1806.245878730053
 30
0.0
 40
22.14999999999975
100
AcDbArc
 50
283.5104248664715
 51
284.9999999999995
  0
ARC
  5
F9
330
E4
100
AcDbEntity
  8
P-SANR-FIXT
100
AcDbCircle
 10
815.6664074431878
 20
1806.245878730053
 30
0.0
 40
22.14999999999972
100
AcDbArc
 50
288.0166638628848
 51
289.9999999999994
  0
ARC
  5
FA
330
E4
100
AcDbEntity
  8
P-SANR-FIXT
100
AcDbCircle
 10
815.6664074431878
 20
1806.245878730053
 30
0.0
 40
22.14999999999973
100
AcDbArc
 50
294.9999999999992
 51
297.0271086372928
  0
ARC
  5
FB
330
E4
100
AcDbEntity
  8
P-SANR-FIXT
100
AcDbCircle
 10
815.6664074431878
 20
1806.245878730053
 30
0.0
 40
22.1499999999997
100
AcDbArc
 50
299.9999999999994
 51
301.5289246008458
  0
ARC
  5
FC
330
E4
100
AcDbEntity
  8
P-SANR-FIXT
100
AcDbCircle
 10
815.6664074431878
 20
1806.245878730053
 30
0.0
 40
22.14999999999967
100
AcDbArc
 50
304.9999999999991
 51
306.0264828102641
  0
ARC
  5
FD
330
E4
100
AcDbEntity
  8
P-SANR-FIXT
100
AcDbCircle
 10
815.6664074431878
 20
1806.245878730053
 30
0.0
 40
22.14999999999971
100
AcDbArc
 50
309.999999999999
 51
310.5177646484167
  0
ARC
  5
FE
330
E4
100
AcDbEntity
  8
P-SANR-FIXT
100
AcDbCircle
 10
815.6664074431878
 20
1806.245878730053
 30
0.0
 40
22.14999999999967
100
AcDbArc
 50
319.4822353515814
 51
319.9999999999994
  0
ARC
  5
FF
330
E4
100
AcDbEntity
  8
P-SANR-FIXT
100
AcDbCircle
 10
815.6664074431878
 20
1806.245878730053
 30
0.0
 40
22.14999999999976
100
AcDbArc
 50
323.9735171897342
 51
324.9999999999989
  0
ARC
  5
100
330
E4
100
AcDbEntity
  8
P-SANR-FIXT
100
AcDbCircle
 10
815.6664074431878
 20
1806.245878730053
 30
0.0
 40
22.1499999999997
100
AcDbArc
 50
328.4710753991526
 51
329.999999999999
  0
ARC
  5
101
330
E4
100
AcDbEntity
  8
P-SANR-FIXT
100
AcDbCircle
 10
815.6664074431878
 20
1806.245878730053
 30
0.0
 40
22.14999999999974
100
AcDbArc
 50
332.9728913627047
 51
334.9999999999996
  0
ARC
  5
102
330
E4
100
AcDbEntity
  8
P-SANR-FIXT
100
AcDbCircle
 10
815.6664074431878
 20
1806.245878730053
 30
0.0
 40
22.14999999999974
100
AcDbArc
 50
339.9999999999986
 51
341.9833361371132
  0
ARC
  5
103
330
E4
100
AcDbEntity
  8
P-SANR-FIXT
100
AcDbCircle
 10
815.6664074431878
 20
1806.245878730053
 30
0.0
 40
22.14999999999973
100
AcDbArc
 50
344.9999999999994
 51
346.4895751335271
  0
ARC
  5
104
330
E4
100
AcDbEntity
  8
P-SANR-FIXT
100
AcDbCircle
 10
815.6664074431878
 20
1806.245878730053
 30
0.0
 40
22.14999999999973
100
AcDbArc
 50
349.9999999999992
 51
350.9950993195382
  0
ARC
  5
105
330
E4
100
AcDbEntity
  8
P-SANR-FIXT
100
AcDbCircle
 10
815.6664074431878
 20
1806.245878730053
 30
0.0
 40
22.14999999999981
100
AcDbArc
 50
354.9999999999986
 51
355.4989141705198
  0
ARC
  5
106
330
E4
100
AcDbEntity
  8
P-SANR-FIXT
100
AcDbCircle
 10
815.6664074431878
 20
1806.245878730053
 30
0.0
 40
22.14999999999964
100
AcDbArc
 50
0.0
 51
180.0
  0
ARC
  5
107
330
E4
100
AcDbEntity
  8
P-SANR-FIXT
100
AcDbCircle
 10
815.6664074431878
 20
1806.245878730053
 30
0.0
 40
22.1499999999998
100
AcDbArc
 50
4.501085829479245
 51
5.000000000000369
  0
ARC
  5
108
330
E4
100
AcDbEntity
  8
P-SANR-FIXT
100
AcDbCircle
 10
815.6664074431878
 20
1806.245878730053
 30
0.0
 40
22.14999999999976
100
AcDbArc
 50
9.004900680460304
 51
9.999999999999898
  0
ARC
  5
109
330
E4
100
AcDbEntity
  8
P-SANR-FIXT
100
AcDbCircle
 10
815.6664074431878
 20
1806.245878730053
 30
0.0
 40
22.14999999999975
100
AcDbArc
 50
13.51042486647195
 51
15.00000000000023
  0
ARC
  5
10A
330
E4
100
AcDbEntity
  8
P-SANR-FIXT
100
AcDbCircle
 10
815.6664074431878
 20
1806.245878730053
 30
0.0
 40
22.14999999999972
100
AcDbArc
 50
18.01666386288479
 51
20.00000000000055
  0
ARC
  5
10B
330
E4
100
AcDbEntity
  8
P-SANR-FIXT
100
AcDbCircle
 10
815.6664074431878
 20
1806.245878730053
 30
0.0
 40
22.14999999999983
100
AcDbArc
 50
24.99999999999993
 51
27.0271086372937
  0
ARC
  5
10C
330
E4
100
AcDbEntity
  8
P-SANR-FIXT
100
AcDbCircle
 10
815.6664074431878
 20
1806.245878730053
 30
0.0
 40
22.14999999999966
100
AcDbArc
 50
30.00000000000023
 51
31.52892460084667
  0
ARC
  5
10D
330
E4
100
AcDbEntity
  8
P-SANR-FIXT
100
AcDbCircle
 10
815.6664074431878
 20
1806.245878730053
 30
0.0
 40
22.14999999999977
100
AcDbArc
 50
35.00000000000021
 51
36.02648281026472
  0
ARC
  5
10E
330
E4
100
AcDbEntity
  8
P-SANR-FIXT
100
AcDbCircle
 10
815.6664074431878
 20
1806.245878730053
 30
0.0
 40
22.14999999999977
100
AcDbArc
 50
40.00000000000027
 51
40.51776464841807
  0
ARC
  5
10F
330
E4
100
AcDbEntity
  8
P-SANR-FIXT
100
AcDbCircle
 10
815.6664074431878
 20
1806.245878730053
 30
0.0
 40
22.14999999999977
100
AcDbArc
 50
49.48223535158253
 51
50.00000000000014
  0
ARC
  5
110
330
E4
100
AcDbEntity
  8
P-SANR-FIXT
100
AcDbCircle
 10
815.6664074431878
 20
1806.245878730053
 30
0.0
 40
22.14999999999969
100
AcDbArc
 50
53.9735171897351
 51
55.00000000000026
  0
ARC
  5
111
330
E4
100
AcDbEntity
  8
P-SANR-FIXT
100
AcDbCircle
 10
815.6664074431878
 20
1806.245878730053
 30
0.0
 40
22.14999999999974
100
AcDbArc
 50
58.47107539915349
 51
60.00000000000016
  0
ARC
  5
112
330
E4
100
AcDbEntity
  8
P-SANR-FIXT
100
AcDbCircle
 10
815.6664074431878
 20
1806.245878730053
 30
0.0
 40
22.14999999999983
100
AcDbArc
 50
62.97289136270627
 51
65.00000000000044
  0
ARC
  5
113
330
E4
100
AcDbEntity
  8
P-SANR-FIXT
100
AcDbCircle
 10
815.6664074431878
 20
1806.245878730053
 30
0.0
 40
22.14999999999981
100
AcDbArc
 50
70.00000000000017
 51
71.98333613711472
  0
ARC
  5
114
330
E4
100
AcDbEntity
  8
P-SANR-FIXT
100
AcDbCircle
 10
815.6664074431878
 20
1806.245878730053
 30
0.0
 40
22.14999999999978
100
AcDbArc
 50
75.00000000000018
 51
76.48957513352818
  0
ARC
  5
115
330
E4
100
AcDbEntity
  8
P-SANR-FIXT
100
AcDbCircle
 10
815.6664074431878
 20
1806.245878730053
 30
0.0
 40
22.1499999999998
100
AcDbArc
 50
80.00000000000026
 51
80.99509931953951
  0
ARC
  5
116
330
E4
100
AcDbEntity
  8
P-SANR-FIXT
100
AcDbCircle
 10
815.6664074431878
 20
1806.245878730053
 30
0.0
 40
22.14999999999979
100
AcDbArc
 50
85.00000000000023
 51
85.49891417052108
  0
ARC
  5
117
330
E4
100
AcDbEntity
  8
P-SANR-FIXT
100
AcDbCircle
 10
815.6664074431878
 20
1806.245878730053
 30
0.0
 40
22.1499999999998
100
AcDbArc
 50
94.50108582947953
 51
95.00000000000042
  0
ARC
  5
118
330
E4
100
AcDbEntity
  8
P-SANR-FIXT
100
AcDbCircle
 10
815.6664074431878
 20
1806.245878730053
 30
0.0
 40
22.14999999999976
100
AcDbArc
 50
99.00490068046025
 51
100.0
  0
ARC
  5
119
330
E4
100
AcDbEntity
  8
P-SANR-FIXT
100
AcDbCircle
 10
815.6664074431878
 20
1806.245878730053
 30
0.0
 40
22.14999999999986
100
AcDbArc
 50
103.5104248664718
 51
105.0000000000001
  0
ARC
  5
11A
330
E4
100
AcDbEntity
  8
P-SANR-FIXT
100
AcDbCircle
 10
815.6664074431878
 20
1806.245878730053
 30
0.0
 40
22.14999999999979
100
AcDbArc
 50
108.0166638628849
 51
109.9999999999999
  0
ARC
  5
11B
330
E4
100
AcDbEntity
  8
P-SANR-FIXT
100
AcDbCircle
 10
815.6664074431878
 20
1806.245878730053
 30
0.0
 40
22.14999999999983
100
AcDbArc
 50
115.0000000000002
 51
117.0271086372941
  0
ARC
  5
11C
330
E4
100
AcDbEntity
  8
P-SANR-FIXT
100
AcDbCircle
 10
815.6664074431878
 20
1806.245878730053
 30
0.0
 40
22.14999999999985
100
AcDbArc
 50
120.0000000000002
 51
121.5289246008463
  0
ARC
  5
11D
330
E4
100
AcDbEntity
  8
P-SANR-FIXT
100
AcDbCircle
 10
815.6664074431878
 20
1806.245878730053
 30
0.0
 40
22.14999999999989
100
AcDbArc
 50
125.0
 51
126.0264828102647
  0
ARC
  5
11E
330
E4
100
AcDbEntity
  8
P-SANR-FIXT
100
AcDbCircle
 10
815.6664074431878
 20
1806.245878730053
 30
0.0
 40
22.14999999999977
100
AcDbArc
 50
130.0000000000003
 51
130.5177646484177
  0
ARC
  5
11F
330
E4
100
AcDbEntity
  8
P-SANR-FIXT
100
AcDbCircle
 10
815.6664074431878
 20
1806.245878730053
 30
0.0
 40
22.14999999999985
100
AcDbArc
 50
139.4822353515824
 51
140.0
  0
ARC
  5
120
330
E4
100
AcDbEntity
  8
P-SANR-FIXT
100
AcDbCircle
 10
815.6664074431878
 20
1806.245878730053
 30
0.0
 40
22.14999999999969
100
AcDbArc
 50
143.9735171897354
 51
145.0000000000004
  0
ARC
  5
121
330
E4
100
AcDbEntity
  8
P-SANR-FIXT
100
AcDbCircle
 10
815.6664074431878
 20
1806.245878730053
 30
0.0
 40
22.14999999999986
100
AcDbArc
 50
148.4710753991534
 51
150.0
  0
ARC
  5
122
330
E4
100
AcDbEntity
  8
P-SANR-FIXT
100
AcDbCircle
 10
815.6664074431878
 20
1806.245878730053
 30
0.0
 40
22.14999999999989
100
AcDbArc
 50
152.9728913627066
 51
155.0000000000002
  0
ARC
  5
123
330
E4
100
AcDbEntity
  8
P-SANR-FIXT
100
AcDbCircle
 10
815.6664074431878
 20
1806.245878730053
 30
0.0
 40
22.14999999999985
100
AcDbArc
 50
160.0000000000001
 51
161.9833361371153
  0
ARC
  5
124
330
E4
100
AcDbEntity
  8
P-SANR-FIXT
100
AcDbCircle
 10
815.6664074431878
 20
1806.245878730053
 30
0.0
 40
22.14999999999981
100
AcDbArc
 50
164.9999999999999
 51
166.4895751335281
  0
ARC
  5
125
330
E4
100
AcDbEntity
  8
P-SANR-FIXT
100
AcDbCircle
 10
815.6664074431878
 20
1806.245878730053
 30
0.0
 40
22.14999999999982
100
AcDbArc
 50
170.0000000000002
 51
170.9950993195398
  0
ARC
  5
126
330
E4
100
AcDbEntity
  8
P-SANR-FIXT
100
AcDbCircle
 10
815.6664074431878
 20
1806.245878730053
 30
0.0
 40
22.14999999999981
100
AcDbArc
 50
175.0000000000002
 51
175.4989141705207
  0
ARC
  5
127
330
E4
100
AcDbEntity
  8
P-SANR-FIXT
100
AcDbCircle
 10
815.6664074431878
 20
1806.245878730053
 30
0.0
 40
22.49999999998341
100
AcDbArc
 50
179.9999999999998
 51
359.9999999999984
  0
ARC
  5
128
330
E4
100
AcDbEntity
  8
P-SANR-FIXT
100
AcDbCircle
 10
815.6664074431878
 20
1806.245878730053
 30
0.0
 40
22.49999999998317
100
AcDbArc
 50
0.0
 51
180.0
  0
LINE
  5
129
330
E4
100
AcDbEntity
  8
P-SANR-FIXT
100
AcDbLine
 10
768.3664074431894
 20
1781.745878730053
 30
0.0
 11
787.6664074431893
 21
1781.745878730053
 31
0.0
  0
LINE
  5
12A
330
E4
100
AcDbEntity
  8
P-SANR-FIXT
100
AcDbLine
 10
787.6664074431893
 20
1830.745878730053
 30
0.0
 11
768.3664074431894
 21
1830.745878730053
 31
0.0
  0
LWPOLYLINE
  5
12B
330
E4
100
AcDbEntity
  8
P-SANR-FIXT
100
AcDbPolyline
 90
       41
 70
   128
 43
0.0
 10
788.6664074431893
 20
1782.745878730053
 10
788.6656075498503
 20
1782.705889395866
 10
788.6632091494918
 20
1782.665964036084
 10
788.6592160790431
 20
1782.626166522764
 10
788.6536347265651
 20
1782.586560523438
 10
788.6464740210306
 20
1782.547209399258
 10
788.6377454180413
 20
1782.508176103626
 10
788.6274628815002
 20
1782.469523081489
 10
788.6156428612718
 20
1782.431312169437
 10
788.6023042668673
 20
1782.393604496778
 10
788.5874684371922
 20
1782.356460387744
 10
788.5711591064094
 20
1782.319939264987
 10
788.5534023659685
 20
1782.284099554511
 10
788.5342266228668
 20
1782.248998592209
 10
788.5136625542027
 20
1782.214692532132
 10
788.4917430580989
 20
1782.181236256658
 10
788.4685032010736
 20
1782.14868328869
 10
788.4439801619403
 20
1782.117085706034
 10
788.4182131723303
 20
1782.086494058081
 10
788.3912434539303
 20
1782.056957284942
 10
788.3631141525365
 20
1782.028522639153
 10
788.3338702690307
 20
1782.001235610082
 10
788.303558587388
 20
1781.975139851154
 10
788.2722275998329
 20
1781.950277110016
 10
788.2399274292618
 20
1781.926687161752
 10
788.2067097490573
 20
1781.904407745244
 10
788.1726277004221
 20
1781.883474502809
 10
788.1377358073629
 20
1781.863920923168
 10
788.102089889466
 20
1781.845778287876
 10
788.0657469725955
 20
1781.829075621281
 10
788.0287651976659
 20
1781.813839644086
 10
787.991203727628
 20
1781.800094730603
 10
787.9531226528213
 20
1781.787862869763
 10
787.9145828948417
 20
1781.777163629934
 10
787.8756461090808
 20
1781.768014127617
 10
787.8363745860895
 20
1781.760429000064
 10
787.7968311519274
 20
1781.754420381861
 10
787.7570790676535
 20
1781.749997885515
 10
787.7171819281228
 20
1781.747168586077
 10
787.6772035602475
 20
1781.745937009822
 10
787.6664074431893
 20
1781.745878730053
  0
LINE
  5
12C
330
E4
100
AcDbEntity
  8
P-SANR-FIXT
100
AcDbLine
 10
788.6664074431895
 20
1792.122006832
 30
0.0
 11
788.6664074431895
 21
1792.059617770942
 31
0.0
  0
LWPOLYLINE
  5
12D
330
E4
100
AcDbEntity
  8
P-SANR-FIXT
100
AcDbPolyline
 90
       17
 70
   128
 43
0.0
 10
788.6664074431895
 20
1786.745878750033
 10
788.6664074431895
 20
1786.471310587067
 10
788.6664074431895
 20
1785.979379389834
 10
788.6664074431895
 20
1785.519870268256
 10
788.6664074431895
 20
1785.093518338905
 10
788.6664074431895
 20
1784.701005673916
 10
788.6664074431895
 20
1784.342960209823
 10
788.6664074431893
 20
1784.019954742988
 10
788.6664074431893
 20
1783.732506013256
 10
788.6664074431893
 20
1783.481073877273
 10
788.6664074431893
 20
1783.266060572823
 10
788.6664074431893
 20
1783.087810075324
 10
788.6664074431893
 20
1782.946607547548
 10
788.6664074431893
 20
1782.842678883418
 10
788.6664074431893
 20
1782.776190346627
 10
788.6664074431893
 20
1782.747248304649
 10
788.6664074431893
 20
1782.745878730053
  0
LWPOLYLINE
  5
12E
330
E4
100
AcDbEntity
  8
P-SANR-FIXT
100
AcDbPolyline
 90
       25
 70
   128
 43
0.0
 10
788.6664074431893
 20
1782.745878730053
 10
788.6664074431893
 20
1782.76467622352
 10
788.6664074431893
 20
1782.821038631941
 10
788.6664074431893
 20
1782.914875787487
 10
788.6664074431893
 20
1783.046037570725
 10
788.6664074431893
 20
1783.214314150784
 10
788.6664074431893
 20
1783.41943632103
 10
788.6664074431893
 20
1783.66107592975
 10
788.6664074431893
 20
1783.938846405115
 10
788.6664074431893
 20
1784.252303373621
 10
788.6664074431893
 20
1784.600945370985
 10
788.6664074431893
 20
1784.984214644384
 10
788.6664074431893
 20
1785.40149804474
 10
788.6664074431893
 20
1785.852128007628
 10
788.6664074431893
 20
1786.335383621238
 10
788.6664074431893
 20
1786.850491779675
 10
788.6664074431893
 20
1787.396628419772
 10
788.6664074431893
 20
1787.972919839406
 10
788.6664074431893
 20
1788.578444095242
 10
788.6664074431893
 20
1789.212232477641
 10
788.6664074431893
 20
1789.873271060394
 10
788.6664074431893
 20
1790.560502322782
 10
788.6664074431893
 20
1791.272826841386
 10
788.6664074431893
 20
1792.009105048931
 10
788.6664074431893
 20
1792.059617770942
  0
LWPOLYLINE
  5
12F
330
E4
100
AcDbEntity
  8
P-SANR-FIXT
100
AcDbPolyline
 90
       41
 70
   128
 43
0.0
 10
787.6664074431893
 20
1830.745878730053
 10
787.7063967773759
 20
1830.745078836714
 10
787.7463221371585
 20
1830.742680436356
 10
787.7861196504782
 20
1830.738687365907
 10
787.8257256498035
 20
1830.733106013429
 10
787.8650767739843
 20
1830.725945307894
 10
787.9041100696165
 20
1830.717216704905
 10
787.9427630917533
 20
1830.706934168364
 10
787.9809740038055
 20
1830.695114148135
 10
788.0186816764644
 20
1830.681775553731
 10
788.0558257854979
 20
1830.666939724056
 10
788.0923469082553
 20
1830.650630393273
 10
788.1281866187308
 20
1830.632873652832
 10
788.1632875810331
 20
1830.613697909731
 10
788.1975936411102
 20
1830.593133841066
 10
788.2310499165843
 20
1830.571214344963
 10
788.2636028845516
 20
1830.547974487937
 10
788.2952004672077
 20
1830.523451448804
 10
788.3257921151607
 20
1830.497684459194
 10
788.3553288882999
 20
1830.470714740794
 10
788.3837635340889
 20
1830.4425854394
 10
788.4110505631602
 20
1830.413341555894
 10
788.4371463220884
 20
1830.383029874252
 10
788.4620090632256
 20
1830.351698886697
 10
788.4855990114902
 20
1830.319398716126
 10
788.5078784279971
 20
1830.286181035921
 10
788.5288116704327
 20
1830.252098987286
 10
788.5483652500742
 20
1830.217207094227
 10
788.5665078853659
 20
1830.18156117633
 10
788.5832105519611
 20
1830.145218259459
 10
788.5984465291564
 20
1830.10823648453
 10
788.6121914426388
 20
1830.070675014492
 10
788.6244233034785
 20
1830.032593939685
 10
788.6351225433076
 20
1829.994054181706
 10
788.6442720456247
 20
1829.955117395945
 10
788.6518571731778
 20
1829.915845872953
 10
788.657865791381
 20
1829.876302438791
 10
788.6622882877269
 20
1829.836550354517
 10
788.6651175871649
 20
1829.796653214987
 10
788.6663491634192
 20
1829.756674847111
 10
788.6664074431893
 20
1829.745878730053
  0
LWPOLYLINE
  5
130
330
E4
100
AcDbEntity
  8
P-SANR-FIXT
100
AcDbPolyline
 90
       25
 70
   128
 43
0.0
 10
788.6664074431893
 20
1820.432139689164
 10
788.6664074431893
 20
1821.169992129376
 10
788.6664074431893
 20
1821.883969171789
 10
788.6664074431893
 20
1822.572928605445
 10
788.6664074431893
 20
1823.235768242217
 10
788.6664074431893
 20
1823.871427680087
 10
788.6664074431893
 20
1824.478889999553
 10
788.6664074431893
 20
1825.057183390489
 10
788.6664074431893
 20
1825.605382706834
 10
788.6664074431893
 20
1826.122610946622
 10
788.6664074431893
 20
1826.608040655008
 10
788.6664074431893
 20
1827.060895248009
 10
788.6664074431893
 20
1827.480450254882
 10
788.6664074431893
 20
1827.866034477116
 10
788.6664074431893
 20
1828.217031062208
 10
788.6664074431893
 20
1828.532878490498
 10
788.6664074431893
 20
1828.813071473478
 10
788.6664074431893
 20
1829.057161762146
 10
788.6664074431893
 20
1829.26475886411
 10
788.6664074431893
 20
1829.435530668292
 10
788.6664074431893
 20
1829.569203976235
 10
788.6664074431893
 20
1829.665564939161
 10
788.6664074431893
 20
1829.724459400086
 10
788.6664074431893
 20
1829.745793140436
 10
788.6664074431893
 20
1829.745878730053
  0
LWPOLYLINE
  5
131
330
E4
100
AcDbEntity
  8
P-SANR-FIXT
100
AcDbPolyline
 90
       16
 70
   128
 43
0.0
 10
788.6664074431893
 20
1829.745878730053
 10
788.6664074431893
 20
1829.727081236586
 10
788.6664074431893
 20
1829.670718828165
 10
788.6664074431893
 20
1829.576881672619
 10
788.6664074431893
 20
1829.44571988938
 10
788.6664074431893
 20
1829.277443309322
 10
788.6664074431893
 20
1829.072321139076
 10
788.6664074431893
 20
1828.830681530356
 10
788.6664074431893
 20
1828.55291105499
 10
788.6664074431893
 20
1828.239454086485
 10
788.6664074431895
 20
1827.890812089121
 10
788.6664074431895
 20
1827.507542815722
 10
788.6664074431895
 20
1827.090259415366
 10
788.6664074431895
 20
1826.639629452477
 10
788.6664074431895
 20
1826.156373838868
 10
788.6664074431895
 20
1825.745878710073
  0
LINE
  5
132
330
E4
100
AcDbEntity
  8
P-SANR-FIXT
100
AcDbLine
 10
788.6664074431895
 20
1820.432139689164
 30
0.0
 11
788.6664074431895
 21
1820.369750628105
 31
0.0
  0
LINE
  5
133
330
E4
100
AcDbEntity
  8
P-SANR-FIXT
100
AcDbLine
 10
788.6664074431893
 20
1786.745878730053
 30
0.0
 11
792.2069410486997
 21
1786.745878730053
 31
0.0
  0
LINE
  5
134
330
E4
100
AcDbEntity
  8
P-SANR-FIXT
100
AcDbLine
 10
792.2069410486997
 20
1825.745878730053
 30
0.0
 11
788.6664074431893
 21
1825.745878730053
 31
0.0
  0
LINE
  5
135
330
E4
100
AcDbEntity
  8
P-SANR-FIXT
100
AcDbLine
 10
767.6664074431892
 20
1782.445878730053
 30
0.0
 11
768.3664074431893
 21
1781.745878730053
 31
0.0
  0
LINE
  5
136
330
E4
100
AcDbEntity
  8
P-SANR-FIXT
100
AcDbLine
 10
768.3664074431894
 20
1830.745878730053
 30
0.0
 11
767.6664074431892
 21
1830.045878730053
 31
0.0
  0
ARC
  5
137
330
E4
100
AcDbEntity
  8
P-SANR-FIXT
100
AcDbCircle
 10
815.6664074431878
 20
1806.245878730052
 30
0.0
 40
30.5
100
AcDbArc
 50
180.0
 51
0.0
  0
SPLINE
  5
138
330
E4
100
AcDbEntity
  8
P-SANR-FIXT
100
AcDbSpline
210
0.0
220
0.0
230
1.0
 70
     8
 71
     3
 72
     8
 73
     4
 74
     0
 42
0.000000001
 43
0.0000000001
 40
0.0
 40
0.0
 40
0.0
 40
0.0
 40
0.2222222222222222
 40
0.2222222222222222
 40
0.2222222222222222
 40
0.2222222222222222
 10
785.1664074431878
 20
1806.245878730052
 30
0.0
 10
785.1664074431878
 20
1805.273968458578
 30
0.0
 10
785.2125614098134
 20
1804.3132678052
 30
0.0
 10
785.3024733414303
 20
1803.365628381438
 30
0.0
  0
SPLINE
  5
139
330
E4
100
AcDbEntity
  8
P-SANR-FIXT
100
AcDbSpline
210
0.0
220
0.0
230
1.0
 70
     8
 71
     3
 72
     8
 73
     4
 74
     0
 42
0.000000001
 43
0.0000000001
 40
0.3333333333333333
 40
0.3333333333333333
 40
0.3333333333333333
 40
0.3333333333333333
 40
0.4444444444444445
 40
0.4444444444444445
 40
0.4444444444444445
 40
0.4444444444444445
 10
785.4698602123951
 20
1801.954196619445
 30
0.0
 10
785.536395660495
 20
1801.487138973811
 30
0.0
 10
785.6066873380598
 20
1801.018085064562
 30
0.0
 10
785.6869088665487
 20
1800.553742662907
 30
0.0
  0
SPLINE
  5
13A
330
E4
100
AcDbEntity
  8
P-SANR-FIXT
100
AcDbSpline
210
0.0
220
0.0
230
1.0
 70
     8
 71
     3
 72
     8
 73
     4
 74
     0
 42
0.000000001
 43
0.0000000001
 40
0.5555555555555556
 40
0.5555555555555556
 40
0.5555555555555556
 40
0.5555555555555556
 40
0.6666666666666666
 40
0.6666666666666666
 40
0.6666666666666666
 40
0.6666666666666666
 10
785.9910716725632
 20
1799.203529841765
 30
0.0
 10
786.0973265243602
 20
1798.755318226506
 30
0.0
 10
786.2070852999964
 20
1798.307756462077
 30
0.0
 10
786.3367852202499
 20
1797.877888513773
 30
0.0
  0
SPLINE
  5
13B
330
E4
100
AcDbEntity
  8
P-SANR-FIXT
100
AcDbSpline
210
0.0
220
0.0
230
1.0
 70
     8
 71
     3
 72
     8
 73
     4
 74
     0
 42
0.000000001
 43
0.0000000001
 40
0.7777777777777779
 40
0.7777777777777779
 40
0.7777777777777779
 40
0.7777777777777779
 40
0.8888888888888891
 40
0.8888888888888891
 40
0.8888888888888891
 40
0.8888888888888891
 10
786.7336739845711
 20
1796.593807935771
 30
0.0
 10
786.8740849116315
 20
1796.172875060313
 30
0.0
 10
787.0294417634678
 20
1795.765977333648
 30
0.0
 10
787.1886091399479
 20
1795.362597210658
 30
0.0
  0
SPLINE
  5
13C
330
E4
100
AcDbEntity
  8
P-SANR-FIXT
100
AcDbSpline
210
0.0
220
0.0
230
1.0
 70
     8
 71
     3
 72
    12
 73
     8
 74
     0
 42
0.000000001
 43
0.0000000001
 40
0.0
 40
0.0
 40
0.0
 40
0.0
 40
0.3333333333333333
 40
0.4166666666666666
 40
0.5
 40
0.5833333333333333
 40
0.6666666666666666
 40
0.6666666666666666
 40
0.6666666666666666
 40
0.6666666666666666
 10
787.6664074431877
 20
1794.152492107605
 30
0.0
 10
787.8069921839951
 20
1793.826994142022
 30
0.0
 10
787.9801929836376
 20
1793.445535600132
 30
0.0
 10
788.1774575854797
 20
1793.031332352913
 30
0.0
 10
788.2723311000638
 20
1792.835819334232
 30
0.0
 10
788.3640263640078
 20
1792.650180193061
 30
0.0
 10
788.4204192617789
 20
1792.537852375214
 30
0.0
 10
788.4478901127019
 20
1792.483527392797
 30
0.0
  0
SPLINE
  5
13D
330
E4
100
AcDbEntity
  8
P-SANR-FIXT
100
AcDbSpline
210
0.0
220
0.0
230
1.0
 70
     8
 71
     3
 72
     8
 73
     4
 74
     0
 42
0.000000001
 43
0.0000000001
 40
0.0
 40
0.0
 40
0.0
 40
0.0
 40
0.0952380952380952
 40
0.0952380952380952
 40
0.0952380952380952
 40
0.0952380952380952
 10
788.6664074431877
 20
1792.059617770942
 30
0.0
 10
789.0009205514102
 20
1791.422955725315
 30
0.0
 10
789.3308006427338
 20
1790.848107102666
 30
0.0
 10
789.6510783577891
 20
1790.325029331761
 30
0.0
  0
SPLINE
  5
13E
330
E4
100
AcDbEntity
  8
P-SANR-FIXT
100
AcDbSpline
210
0.0
220
0.0
230
1.0
 70
     8
 71
     3
 72
     9
 73
     5
 74
     0
 42
0.000000001
 43
0.0000000001
 40
0.1428571428571428
 40
0.1428571428571428
 40
0.1428571428571428
 40
0.1428571428571428
 40
0.2142857142857143
 40
0.2857142857142857
 40
0.2857142857142857
 40
0.2857142857142857
 40
0.2857142857142857
 10
790.1236719782498
 20
1789.577985492807
 30
0.0
 10
790.3557467274583
 20
1789.22262232133
 30
0.0
 10
790.8062983030346
 20
1788.564489215113
 30
0.0
 10
791.1976905576966
 20
1788.035664839011
 30
0.0
 10
791.3695911564916
 20
1787.809102484446
 30
0.0
  0
SPLINE
  5
13F
330
E4
100
AcDbEntity
  8
P-SANR-FIXT
100
AcDbSpline
210
0.0
220
0.0
230
1.0
 70
     8
 71
     3
 72
    11
 73
     7
 74
     0
 42
0.000000001
 43
0.0000000001
 40
0.3333333333333333
 40
0.3333333333333333
 40
0.3333333333333333
 40
0.3333333333333333
 40
0.3571428571428571
 40
0.4285714285714286
 40
0.5
 40
0.5238095238095238
 40
0.5238095238095238
 40
0.5238095238095238
 40
0.5238095238095238
 10
791.6847681588026
 20
1787.400973911835
 30
0.0
 10
791.7328346362909
 20
1787.339811193893
 30
0.0
 10
791.9155323688595
 20
1787.109223545798
 30
0.0
 10
792.1483368950487
 20
1786.82484000954
 30
0.0
 10
792.2194899286012
 20
1786.739743266531
 30
0.0
 10
792.2062960606711
 20
1786.755516242697
 30
0.0
 10
792.1994451088125
 20
1786.763755586578
 30
0.0
  0
SPLINE
  5
140
330
E4
100
AcDbEntity
  8
P-SANR-FIXT
100
AcDbSpline
210
0.0
220
0.0
230
1.0
 70
     8
 71
     3
 72
    10
 73
     6
 74
     0
 42
0.000000001
 43
0.0000000001
 40
0.4761904761904761
 40
0.4761904761904761
 40
0.4761904761904761
 40
0.4761904761904761
 40
0.5
 40
0.5714285714285714
 40
0.6666666666666665
 40
0.6666666666666665
 40
0.6666666666666665
 40
0.6666666666666665
 10
792.1992536589146
 20
1825.727769126299
 30
0.0
 10
792.2061527439851
 20
1825.736067238504
 30
0.0
 10
792.2196333325748
 20
1825.752187763216
 30
0.0
 10
792.1388876246634
 20
1825.655635987897
 30
0.0
 10
791.8761358097119
 20
1825.334364375355
 30
0.0
 10
791.6846617864515
 20
1825.090666199313
 30
0.0
  0
SPLINE
  5
141
330
E4
100
AcDbEntity
  8
P-SANR-FIXT
100
AcDbSpline
210
0.0
220
0.0
230
1.0
 70
     8
 71
     3
 72
    11
 73
     7
 74
     0
 42
0.000000001
 43
0.0000000001
 40
0.714285714285714
 40
0.714285714285714
 40
0.714285714285714
 40
0.714285714285714
 40
0.7321428571428572
 40
0.7857142857142857
 40
0.8392857142857142
 40
0.8571428571428565
 40
0.8571428571428565
 40
0.8571428571428565
 40
0.8571428571428565
 10
791.3694115731407
 20
1824.682428509952
 30
0.0
 10
791.3268212206713
 20
1824.626304497312
 30
0.0
 10
791.1514325861362
 20
1824.393385453349
 30
0.0
 10
790.8000156209374
 20
1823.915158108021
 30
0.0
 10
790.4088986311258
 20
1823.342584550087
 30
0.0
 10
790.1818007203289
 20
1823.005827109346
 30
0.0
 10
790.1245323849369
 20
1822.919492614292
 30
0.0
  0
SPLINE
  5
142
330
E4
100
AcDbEntity
  8
P-SANR-FIXT
100
AcDbSpline
210
0.0
220
0.0
230
1.0
 70
     8
 71
     3
 72
     8
 73
     4
 74
     0
 42
0.000000001
 43
0.0000000001
 40
0.9047619047619042
 40
0.9047619047619042
 40
0.9047619047619042
 40
0.9047619047619042
 40
1.0
 40
1.0
 40
1.0
 40
1.0
 10
789.6534598346008
 20
1822.169957406669
 30
0.0
 10
789.3334702795863
 20
1821.647240391094
 30
0.0
 10
789.0009205514102
 20
1821.068801734789
 30
0.0
 10
788.6664074431876
 20
1820.432139689163
 30
0.0
  0
SPLINE
  5
143
330
E4
100
AcDbEntity
  8
P-SANR-FIXT
100
AcDbSpline
210
0.0
220
0.0
230
1.0
 70
     8
 71
     3
 72
    12
 73
     8
 74
     0
 42
0.000000001
 43
0.0000000001
 40
0.3333333333333333
 40
0.3333333333333333
 40
0.3333333333333333
 40
0.3333333333333333
 40
0.375
 40
0.4583333333333333
 40
0.5833333333333333
 40
0.6666666666666666
 40
1.0
 40
1.0
 40
1.0
 40
1.0
 10
788.447813108667
 20
1820.008082447615
 30
0.0
 10
788.4342665291275
 20
1819.981292259402
 30
0.0
 10
788.3930864310277
 20
1819.899548368584
 30
0.0
 10
788.30338369556
 20
1819.71946370299
 30
0.0
 10
788.1939156939036
 20
1819.494979446623
 30
0.0
 10
787.9801725714231
 20
1819.046182489273
 30
0.0
 10
787.8069921839951
 20
1818.664763318082
 30
0.0
 10
787.6664074431877
 20
1818.3392653525
 30
0.0
  0
SPLINE
  5
144
330
E4
100
AcDbEntity
  8
P-SANR-FIXT
100
AcDbSpline
210
0.0
220
0.0
230
1.0
 70
     8
 71
     3
 72
     8
 73
     4
 74
     0
 42
0.000000001
 43
0.0000000001
 40
0.1111111111111111
 40
0.1111111111111111
 40
0.1111111111111111
 40
0.1111111111111111
 40
0.2222222222222222
 40
0.2222222222222222
 40
0.2222222222222222
 40
0.2222222222222222
 10
787.1780660874143
 20
1817.139607262734
 30
0.0
 10
787.0224130617787
 20
1816.732744801982
 30
0.0
 10
786.8777799360278
 20
1816.317171287678
 30
0.0
 10
786.7392165211656
 20
1815.895382856164
 30
0.0
  0
SPLINE
  5
145
330
E4
100
AcDbEntity
  8
P-SANR-FIXT
100
AcDbSpline
210
0.0
220
0.0
230
1.0
 70
     8
 71
     3
 72
     8
 73
     4
 74
     0
 42
0.000000001
 43
0.0000000001
 40
0.3333333333333333
 40
0.3333333333333333
 40
0.3333333333333333
 40
0.3333333333333333
 40
0.4444444444444445
 40
0.4444444444444445
 40
0.4444444444444445
 40
0.4444444444444445
 10
786.3367852202499
 20
1814.613868946332
 30
0.0
 10
786.2128010869622
 20
1814.178724592512
 30
0.0
 10
786.0884719533771
 20
1813.739584526971
 30
0.0
 10
785.9733625305969
 20
1813.294518205086
 30
0.0
  0
SPLINE
  5
146
330
E4
100
AcDbEntity
  8
P-SANR-FIXT
100
AcDbSpline
210
0.0
220
0.0
230
1.0
 70
     8
 71
     3
 72
     8
 73
     4
 74
     0
 42
0.000000001
 43
0.0000000001
 40
0.5555555555555556
 40
0.5555555555555556
 40
0.5555555555555556
 40
0.5555555555555556
 40
0.6666666666666666
 40
0.6666666666666666
 40
0.6666666666666666
 40
0.6666666666666666
 10
785.7006763897063
 20
1811.927028752281
 30
0.0
 10
785.6135710996385
 20
1811.468179373084
 30
0.0
 10
785.5280787294824
 20
1811.006980672556
 30
0.0
 10
785.4698602123951
 20
1810.537560840659
 30
0.0
  0
SPLINE
  5
147
330
E4
100
AcDbEntity
  8
P-SANR-FIXT
100
AcDbSpline
210
0.0
220
0.0
230
1.0
 70
     8
 71
     3
 72
     8
 73
     4
 74
     0
 42
0.000000001
 43
0.0000000001
 40
0.7777777777777779
 40
0.7777777777777779
 40
0.7777777777777779
 40
0.7777777777777779
 40
1.0
 40
1.0
 40
1.0
 40
1.0
 10
785.3024733414303
 20
1809.126129078666
 30
0.0
 10
785.2125614098134
 20
1808.178489654904
 30
0.0
 10
785.1664074431878
 20
1807.217789001526
 30
0.0
 10
785.1664074431878
 20
1806.245878730052
 30
0.0
  0
ARC
  5
148
330
E4
100
AcDbEntity
  8
P-SANR-FIXT
100
AcDbCircle
 10
815.6664074431878
 20
1806.245878730052
 30
0.0
 40
30.49999999999999
100
AcDbArc
 50
0.0000000000009446
 51
180.0000000000001
  0
ARC
  5
149
330
E4
100
AcDbEntity
  8
P-SANR-FIXT
100
AcDbCircle
 10
815.6664074431878
 20
1806.245878730052
 30
0.0
 40
29.80000000000009
100
AcDbArc
 50
179.9999999999999
 51
359.9999999999992
  0
ARC
  5
14A
330
E4
100
AcDbEntity
  8
P-SANR-FIXT
100
AcDbCircle
 10
815.6664074431878
 20
1806.245878730052
 30
0.0
 40
29.50000000013499
100
AcDbArc
 50
354.9999999999997
 51
355.498914170541
  0
ARC
  5
14B
330
E4
100
AcDbEntity
  8
P-SANR-FIXT
100
AcDbCircle
 10
815.6664074431878
 20
1806.245878730052
 30
0.0
 40
29.50000000013492
100
AcDbArc
 50
349.9999999999999
 51
350.9950993195797
  0
ARC
  5
14C
330
E4
100
AcDbEntity
  8
P-SANR-FIXT
100
AcDbCircle
 10
815.6664074431878
 20
1806.245878730052
 30
0.0
 40
29.50000000013487
100
AcDbArc
 50
344.9999999999999
 51
346.4895751335894
  0
ARC
  5
14D
330
E4
100
AcDbEntity
  8
P-SANR-FIXT
100
AcDbCircle
 10
815.6664074431878
 20
1806.245878730052
 30
0.0
 40
29.50000000013504
100
AcDbArc
 50
332.9728913628376
 51
341.9833361371984
  0
ARC
  5
14E
330
E4
100
AcDbEntity
  8
P-SANR-FIXT
100
AcDbCircle
 10
815.6664074431878
 20
1806.245878730052
 30
0.0
 40
29.50000000013498
100
AcDbArc
 50
328.4710753993131
 51
329.9999999999997
  0
ARC
  5
14F
330
E4
100
AcDbEntity
  8
P-SANR-FIXT
100
AcDbCircle
 10
815.6664074431878
 20
1806.245878730052
 30
0.0
 40
29.50000000013491
100
AcDbArc
 50
323.9735171899261
 51
324.9999999999998
  0
ARC
  5
150
330
E4
100
AcDbEntity
  8
P-SANR-FIXT
100
AcDbCircle
 10
815.6664074431878
 20
1806.245878730052
 30
0.0
 40
29.50000000013487
100
AcDbArc
 50
319.4822353518089
 51
319.9999999999998
  0
ARC
  5
151
330
E4
100
AcDbEntity
  8
P-SANR-FIXT
100
AcDbCircle
 10
815.6664074431878
 20
1806.245878730052
 30
0.0
 40
29.50000000013503
100
AcDbArc
 50
309.9999999999997
 51
310.5177646481908
  0
ARC
  5
152
330
E4
100
AcDbEntity
  8
P-SANR-FIXT
100
AcDbCircle
 10
815.6664074431878
 20
1806.245878730052
 30
0.0
 40
29.50000000013496
100
AcDbArc
 50
304.9999999999996
 51
306.0264828100733
  0
ARC
  5
153
330
E4
100
AcDbEntity
  8
P-SANR-FIXT
100
AcDbCircle
 10
815.6664074431878
 20
1806.245878730052
 30
0.0
 40
29.50000000013492
100
AcDbArc
 50
299.9999999999994
 51
301.5289246006869
  0
ARC
  5
154
330
E4
100
AcDbEntity
  8
P-SANR-FIXT
100
AcDbCircle
 10
815.6664074431878
 20
1806.245878730052
 30
0.0
 40
29.50000000013491
100
AcDbArc
 50
288.0166638628016
 51
297.0271086371614
  0
ARC
  5
155
330
E4
100
AcDbEntity
  8
P-SANR-FIXT
100
AcDbCircle
 10
815.6664074431878
 20
1806.245878730052
 30
0.0
 40
29.50000000013499
100
AcDbArc
 50
283.5104248664099
 51
284.9999999999998
  0
ARC
  5
156
330
E4
100
AcDbEntity
  8
P-SANR-FIXT
100
AcDbCircle
 10
815.6664074431878
 20
1806.245878730052
 30
0.0
 40
29.50000000013493
100
AcDbArc
 50
279.0049006804193
 51
279.9999999999997
  0
ARC
  5
157
330
E4
100
AcDbEntity
  8
P-SANR-FIXT
100
AcDbCircle
 10
815.6664074431878
 20
1806.245878730052
 30
0.0
 40
29.50000000013505
100
AcDbArc
 50
274.5010858294585
 51
274.9999999999996
  0
ARC
  5
158
330
E4
100
AcDbEntity
  8
P-SANR-FIXT
100
AcDbCircle
 10
815.6664074431878
 20
1806.245878730052
 30
0.0
 40
29.50000000013499
100
AcDbArc
 50
264.9999999999998
 51
265.4989141705406
  0
ARC
  5
159
330
E4
100
AcDbEntity
  8
P-SANR-FIXT
100
AcDbCircle
 10
815.6664074431878
 20
1806.245878730052
 30
0.0
 40
29.50000000013503
100
AcDbArc
 50
259.9999999999997
 51
260.9950993195801
  0
ARC
  5
15A
330
E4
100
AcDbEntity
  8
P-SANR-FIXT
100
AcDbCircle
 10
815.6664074431878
 20
1806.245878730052
 30
0.0
 40
29.50000000013498
100
AcDbArc
 50
254.9999999999998
 51
256.4895751335896
  0
ARC
  5
15B
330
E4
100
AcDbEntity
  8
P-SANR-FIXT
100
AcDbCircle
 10
815.6664074431878
 20
1806.245878730052
 30
0.0
 40
29.50000000013504
100
AcDbArc
 50
242.9728913628376
 51
251.983336137198
  0
ARC
  5
15C
330
E4
100
AcDbEntity
  8
P-SANR-FIXT
100
AcDbCircle
 10
815.6664074431878
 20
1806.245878730052
 30
0.0
 40
29.50000000013498
100
AcDbArc
 50
238.471075399313
 51
239.9999999999998
  0
ARC
  5
15D
330
E4
100
AcDbEntity
  8
P-SANR-FIXT
100
AcDbCircle
 10
815.6664074431878
 20
1806.245878730052
 30
0.0
 40
29.50000000013491
100
AcDbArc
 50
233.9735171899256
 51
234.9999999999996
  0
ARC
  5
15E
330
E4
100
AcDbEntity
  8
P-SANR-FIXT
100
AcDbCircle
 10
815.6664074431878
 20
1806.245878730052
 30
0.0
 40
29.50000000013511
100
AcDbArc
 50
229.4822353518093
 51
229.9999999999996
  0
ARC
  5
15F
330
E4
100
AcDbEntity
  8
P-SANR-FIXT
100
AcDbCircle
 10
815.6664074431878
 20
1806.245878730052
 30
0.0
 40
29.50000000013504
100
AcDbArc
 50
219.9999999999995
 51
220.5177646481903
  0
ARC
  5
160
330
E4
100
AcDbEntity
  8
P-SANR-FIXT
100
AcDbCircle
 10
815.6664074431878
 20
1806.245878730052
 30
0.0
 40
29.50000000013503
100
AcDbArc
 50
214.9999999999995
 51
216.0264828100733
  0
ARC
  5
161
330
E4
100
AcDbEntity
  8
P-SANR-FIXT
100
AcDbCircle
 10
815.6664074431878
 20
1806.245878730052
 30
0.0
 40
29.50000000013496
100
AcDbArc
 50
209.9999999999997
 51
211.5289246006867
  0
ARC
  5
162
330
E4
100
AcDbEntity
  8
P-SANR-FIXT
100
AcDbCircle
 10
815.6664074431878
 20
1806.245878730052
 30
0.0
 40
29.50000000013501
100
AcDbArc
 50
198.0166638628008
 51
207.0271086371617
  0
ARC
  5
163
330
E4
100
AcDbEntity
  8
P-SANR-FIXT
100
AcDbCircle
 10
815.6664074431878
 20
1806.245878730052
 30
0.0
 40
29.50000000013499
100
AcDbArc
 50
193.5104248664098
 51
194.9999999999992
  0
ARC
  5
164
330
E4
100
AcDbEntity
  8
P-SANR-FIXT
100
AcDbCircle
 10
815.6664074431878
 20
1806.245878730052
 30
0.0
 40
29.50000000013495
100
AcDbArc
 50
189.0049006804194
 51
189.9999999999993
  0
ARC
  5
165
330
E4
100
AcDbEntity
  8
P-SANR-FIXT
100
AcDbCircle
 10
815.6664074431878
 20
1806.245878730052
 30
0.0
 40
29.50000000013507
100
AcDbArc
 50
184.5010858294592
 51
184.9999999999995
  0
ARC
  5
166
330
E4
100
AcDbEntity
  8
P-SANR-FIXT
100
AcDbCircle
 10
815.6664074431878
 20
1806.245878730052
 30
0.0
 40
29.80000000000027
100
AcDbArc
 50
0.0000000000005471
 51
179.9999999999997
  0
ARC
  5
167
330
E4
100
AcDbEntity
  8
P-SANR-FIXT
100
AcDbCircle
 10
815.6664074431878
 20
1806.245878730052
 30
0.0
 40
29.50000000013497
100
AcDbArc
 50
175.0000000000001
 51
175.4989141705409
  0
ARC
  5
168
330
E4
100
AcDbEntity
  8
P-SANR-FIXT
100
AcDbCircle
 10
815.6664074431878
 20
1806.245878730052
 30
0.0
 40
29.50000000013499
100
AcDbArc
 50
169.9999999999998
 51
170.9950993195806
  0
ARC
  5
169
330
E4
100
AcDbEntity
  8
P-SANR-FIXT
100
AcDbCircle
 10
815.6664074431878
 20
1806.245878730052
 30
0.0
 40
29.50000000013498
100
AcDbArc
 50
165.0
 51
166.4895751335898
  0
ARC
  5
16A
330
E4
100
AcDbEntity
  8
P-SANR-FIXT
100
AcDbCircle
 10
815.6664074431878
 20
1806.245878730052
 30
0.0
 40
29.50000000013501
100
AcDbArc
 50
152.9728913628385
 51
161.9833361371984
  0
ARC
  5
16B
330
E4
100
AcDbEntity
  8
P-SANR-FIXT
100
AcDbCircle
 10
815.6664074431878
 20
1806.245878730052
 30
0.0
 40
29.50000000013492
100
AcDbArc
 50
148.471075399313
 51
150.0000000000003
  0
ARC
  5
16C
330
E4
100
AcDbEntity
  8
P-SANR-FIXT
100
AcDbCircle
 10
815.6664074431878
 20
1806.245878730052
 30
0.0
 40
29.50000000013483
100
AcDbArc
 50
143.9735171899265
 51
145.0000000000002
  0
ARC
  5
16D
330
E4
100
AcDbEntity
  8
P-SANR-FIXT
100
AcDbCircle
 10
815.6664074431878
 20
1806.245878730052
 30
0.0
 40
29.50000000013496
100
AcDbArc
 50
139.4822353518092
 51
140.0000000000002
  0
ARC
  5
16E
330
E4
100
AcDbEntity
  8
P-SANR-FIXT
100
AcDbCircle
 10
815.6664074431878
 20
1806.245878730052
 30
0.0
 40
29.50000000013487
100
AcDbArc
 50
130.0000000000007
 51
130.5177646481909
  0
ARC
  5
16F
330
E4
100
AcDbEntity
  8
P-SANR-FIXT
100
AcDbCircle
 10
815.6664074431878
 20
1806.245878730052
 30
0.0
 40
29.50000000013493
100
AcDbArc
 50
125.0000000000007
 51
126.026482810074
  0
ARC
  5
170
330
E4
100
AcDbEntity
  8
P-SANR-FIXT
100
AcDbCircle
 10
815.6664074431878
 20
1806.245878730052
 30
0.0
 40
29.50000000013496
100
AcDbArc
 50
120.0000000000002
 51
121.5289246006871
  0
ARC
  5
171
330
E4
100
AcDbEntity
  8
P-SANR-FIXT
100
AcDbCircle
 10
815.6664074431878
 20
1806.245878730052
 30
0.0
 40
29.50000000013501
100
AcDbArc
 50
108.0166638628019
 51
117.0271086371622
  0
ARC
  5
172
330
E4
100
AcDbEntity
  8
P-SANR-FIXT
100
AcDbCircle
 10
815.6664074431878
 20
1806.245878730052
 30
0.0
 40
29.50000000013491
100
AcDbArc
 50
103.5104248664103
 51
105.0000000000004
  0
ARC
  5
173
330
E4
100
AcDbEntity
  8
P-SANR-FIXT
100
AcDbCircle
 10
815.6664074431878
 20
1806.245878730052
 30
0.0
 40
29.50000000013497
100
AcDbArc
 50
99.00490068042005
 51
100.0000000000004
  0
ARC
  5
174
330
E4
100
AcDbEntity
  8
P-SANR-FIXT
100
AcDbCircle
 10
815.6664074431878
 20
1806.245878730052
 30
0.0
 40
29.50000000013497
100
AcDbArc
 50
94.50108582945917
 51
95.00000000000058
  0
ARC
  5
175
330
E4
100
AcDbEntity
  8
P-SANR-FIXT
100
AcDbCircle
 10
815.6664074431878
 20
1806.245878730052
 30
0.0
 40
29.50000000013496
100
AcDbArc
 50
85.00000000000055
 51
85.49891417054153
  0
ARC
  5
176
330
E4
100
AcDbEntity
  8
P-SANR-FIXT
100
AcDbCircle
 10
815.6664074431878
 20
1806.245878730052
 30
0.0
 40
29.50000000013492
100
AcDbArc
 50
80.00000000000047
 51
80.99509931958037
  0
ARC
  5
177
330
E4
100
AcDbEntity
  8
P-SANR-FIXT
100
AcDbCircle
 10
815.6664074431878
 20
1806.245878730052
 30
0.0
 40
29.50000000013487
100
AcDbArc
 50
75.00000000000049
 51
76.48957513358986
  0
ARC
  5
178
330
E4
100
AcDbEntity
  8
P-SANR-FIXT
100
AcDbCircle
 10
815.6664074431878
 20
1806.245878730052
 30
0.0
 40
29.50000000013501
100
AcDbArc
 50
62.97289136283864
 51
71.98333613719862
  0
ARC
  5
179
330
E4
100
AcDbEntity
  8
P-SANR-FIXT
100
AcDbCircle
 10
815.6664074431878
 20
1806.245878730052
 30
0.0
 40
29.50000000013502
100
AcDbArc
 50
58.47107539931296
 51
60.00000000000044
  0
ARC
  5
17A
330
E4
100
AcDbEntity
  8
P-SANR-FIXT
100
AcDbCircle
 10
815.6664074431878
 20
1806.245878730052
 30
0.0
 40
29.50000000013493
100
AcDbArc
 50
53.97351718992665
 51
55.00000000000046
  0
ARC
  5
17B
330
E4
100
AcDbEntity
  8
P-SANR-FIXT
100
AcDbCircle
 10
815.6664074431878
 20
1806.245878730052
 30
0.0
 40
29.50000000013489
100
AcDbArc
 50
49.48223535180986
 51
50.00000000000076
  0
ARC
  5
17C
330
E4
100
AcDbEntity
  8
P-SANR-FIXT
100
AcDbCircle
 10
815.6664074431878
 20
1806.245878730052
 30
0.0
 40
29.50000000013501
100
AcDbArc
 50
40.00000000000053
 51
40.51776464819144
  0
ARC
  5
17D
330
E4
100
AcDbEntity
  8
P-SANR-FIXT
100
AcDbCircle
 10
815.6664074431878
 20
1806.245878730052
 30
0.0
 40
29.500000000135
100
AcDbArc
 50
35.00000000000078
 51
36.02648281007451
  0
ARC
  5
17E
330
E4
100
AcDbEntity
  8
P-SANR-FIXT
100
AcDbCircle
 10
815.6664074431878
 20
1806.245878730052
 30
0.0
 40
29.50000000013498
100
AcDbArc
 50
30.00000000000102
 51
31.5289246006875
  0
ARC
  5
17F
330
E4
100
AcDbEntity
  8
P-SANR-FIXT
100
AcDbCircle
 10
815.6664074431878
 20
1806.245878730052
 30
0.0
 40
29.50000000013496
100
AcDbArc
 50
18.01666386280223
 51
27.02710863716244
  0
ARC
  5
180
330
E4
100
AcDbEntity
  8
P-SANR-FIXT
100
AcDbCircle
 10
815.6664074431878
 20
1806.245878730052
 30
0.0
 40
29.50000000013494
100
AcDbArc
 50
13.51042486641129
 51
15.00000000000065
  0
ARC
  5
181
330
E4
100
AcDbEntity
  8
P-SANR-FIXT
100
AcDbCircle
 10
815.6664074431878
 20
1806.245878730052
 30
0.0
 40
29.50000000013499
100
AcDbArc
 50
9.004900680419945
 51
10.0000000000007
  0
ARC
  5
182
330
E4
100
AcDbEntity
  8
P-SANR-FIXT
100
AcDbCircle
 10
815.6664074431878
 20
1806.245878730052
 30
0.0
 40
29.50000000013498
100
AcDbArc
 50
4.501085829459578
 51
5.000000000000796
  0
SPLINE
  5
183
330
E4
100
AcDbEntity
  8
P-SANR-FIXT
100
AcDbSpline
210
0.0
220
0.0
230
1.0
 70
    24
 71
     3
 72
     8
 73
     4
 74
     0
 42
0.000000001
 43
0.0000000001
 40
-1.0
 40
-1.0
 40
-1.0
 40
-1.0
 40
-0.95382372497737
 40
-0.95382372497737
 40
-0.95382372497737
 40
-0.95382372497737
 10
788.6664074431879
 20
1792.059617770941
 30
0.0
 10
788.6664074431879
 20
1792.080040183233
 30
0.0
 10
788.6664074431879
 20
1792.109552258924
 30
0.0
 10
788.6664074431879
 20
1792.148131698017
 30
0.0
  0
SPLINE
  5
184
330
E4
100
AcDbEntity
  8
P-SANR-FIXT
100
AcDbSpline
210
0.0
220
0.0
230
1.0
 70
    24
 71
     3
 72
     8
 73
     4
 74
     0
 42
0.000000001
 43
0.0000000001
 40
-0.0461762750225669
 40
-0.0461762750225669
 40
-0.0461762750225669
 40
-0.0461762750225669
 40
0.0
 40
0.0
 40
0.0
 40
0.0
 10
788.6664074431879
 20
1820.343625762087
 30
0.0
 10
788.6664074431879
 20
1820.38220520118
 30
0.0
 10
788.6664074431879
 20
1820.411717276871
 30
0.0
 10
788.6664074431879
 20
1820.432139689163
 30
0.0
  0
LINE
  5
185
330
E4
100
AcDbEntity
  8
P-SANR-FIXT
100
AcDbLine
 10
767.6664074431877
 20
1782.445878730052
 30
0.0
 11
767.6664074431877
 21
1806.245878730052
 31
0.0
  0
LINE
  5
186
330
E4
100
AcDbEntity
  8
P-SANR-FIXT
100
AcDbLine
 10
767.6664074431877
 20
1806.245878730053
 30
0.0
 11
767.6664074431877
 21
1830.045878730052
 31
0.0
  0
LINE
  5
187
330
E4
100
AcDbEntity
  8
P-SANR-FIXT
100
AcDbLine
 10
768.366407443188
 20
1806.245878730052
 30
0.0
 11
768.366407443188
 21
1781.745878730052
 31
0.0
  0
LINE
  5
188
330
E4
100
AcDbEntity
  8
P-SANR-FIXT
100
AcDbLine
 10
768.366407443188
 20
1830.745878730052
 30
0.0
 11
768.366407443188
 21
1806.245878730053
 31
0.0
  0
SPLINE
  5
189
330
E4
100
AcDbEntity
  8
P-SANR-FIXT
100
AcDbSpline
210
0.0
220
0.0
230
1.0
 70
    24
 71
     3
 72
     8
 73
     4
 74
     0
 42
0.000000001
 43
0.0000000001
 40
0.0
 40
0.0
 40
0.0
 40
0.0
 40
0.1115308565645021
 40
0.1115308565645021
 40
0.1115308565645021
 40
0.1115308565645021
 10
802.753629741146
 20
1786.611465776831
 30
0.0
 10
802.3665744376948
 20
1787.281865227747
 30
0.0
 10
801.9789537810606
 20
1787.953243899101
 30
0.0
 10
801.5907677712437
 20
1788.625601790891
 30
0.0
  0
SPLINE
  5
18A
330
E4
100
AcDbEntity
  8
P-SANR-FIXT
100
AcDbSpline
210
0.0
220
0.0
230
1.0
 70
    24
 71
     3
 72
     8
 73
     4
 74
     0
 42
0.000000001
 43
0.0000000001
 40
0.8921922434975828
 40
0.8921922434975828
 40
0.8921922434975828
 40
0.8921922434975828
 40
1.0
 40
1.0
 40
1.0
 40
1.0
 10
793.3563364772816
 20
1802.888055163469
 30
0.0
 10
792.9734586184561
 20
1803.551219068049
 30
0.0
 10
792.5900525214565
 20
1804.215297907983
 30
0.0
 10
792.2061181862828
 20
1804.880291683275
 30
0.0
  0
SPLINE
  5
18B
330
E4
100
AcDbEntity
  8
P-SANR-FIXT
100
AcDbSpline
210
0.0
220
0.0
230
1.0
 70
    24
 71
     3
 72
     8
 73
     4
 74
     0
 42
0.000000001
 43
0.0000000001
 40
0.0
 40
0.0
 40
0.0
 40
0.0
 40
0.1116109349465283
 40
0.1116109349465283
 40
0.1116109349465283
 40
0.1116109349465283
 10
826.213918998051
 20
1785.245878730052
 30
0.0
 10
825.4392525850978
 20
1785.245878730052
 30
0.0
 10
824.6634538415172
 20
1785.245878730052
 30
0.0
 10
823.8865227673093
 20
1785.245878730052
 30
0.0
  0
SPLINE
  5
18C
330
E4
100
AcDbEntity
  8
P-SANR-FIXT
100
AcDbSpline
210
0.0
220
0.0
230
1.0
 70
    24
 71
     3
 72
     8
 73
     4
 74
     0
 42
0.000000001
 43
0.0000000001
 40
0.8905395664299456
 40
0.8905395664299456
 40
0.8905395664299456
 40
0.8905395664299456
 40
1.0
 40
1.0
 40
1.0
 40
1.0
 10
807.4545484934224
 20
1785.245878730052
 30
0.0
 10
806.6770867409355
 20
1785.245878730052
 30
0.0
 10
805.898535872569
 20
1785.245878730053
 30
0.0
 10
805.1188958883237
 20
1785.245878730053
 30
0.0
  0
SPLINE
  5
18D
330
E4
100
AcDbEntity
  8
P-SANR-FIXT
100
AcDbSpline
210
0.0
220
0.0
230
1.0
 70
    24
 71
     3
 72
     8
 73
     4
 74
     0
 42
0.000000001
 43
0.0000000001
 40
0.0
 40
0.0
 40
0.0
 40
0.0
 40
0.10992578875557
 40
0.10992578875557
 40
0.10992578875557
 40
0.10992578875557
 10
839.1266967000927
 20
1804.880291683273
 30
0.0
 10
838.7452116040888
 20
1804.219540114664
 30
0.0
 10
838.3631773100844
 20
1803.557837307215
 30
0.0
 10
837.9805938180796
 20
1802.895183260926
 30
0.0
  0
SPLINE
  5
18E
330
E4
100
AcDbEntity
  8
P-SANR-FIXT
100
AcDbSpline
210
0.0
220
0.0
230
1.0
 70
    24
 71
     3
 72
     8
 73
     4
 74
     0
 42
0.000000001
 43
0.0000000001
 40
0.8906181018746858
 40
0.8906181018746858
 40
0.8906181018746858
 40
0.8906181018746858
 40
1.0
 40
1.0
 40
1.0
 40
1.0
 10
829.7461747294702
 20
1788.63275102864
 30
0.0
 10
829.3577219781932
 20
1787.959931127088
 30
0.0
 10
828.9687254501128
 20
1787.286169376485
 30
0.0
 10
828.5791851452291
 20
1786.61146577683
 30
0.0
  0
SPLINE
  5
18F
330
E4
100
AcDbEntity
  8
P-SANR-FIXT
100
AcDbSpline
210
0.0
220
0.0
230
1.0
 70
    24
 71
     3
 72
     8
 73
     4
 74
     0
 42
0.000000001
 43
0.0000000001
 40
0.0
 40
0.0
 40
0.0
 40
0.0
 40
0.1115308565644949
 40
0.1115308565644949
 40
0.1115308565644949
 40
0.1115308565644949
 10
828.57918514523
 20
1825.880291683273
 30
0.0
 10
828.9662404486811
 20
1825.209892232357
 30
0.0
 10
829.3538611053152
 20
1824.538513561003
 30
0.0
 10
829.7420471151323
 20
1823.866155669213
 30
0.0
  0
SPLINE
  5
190
330
E4
100
AcDbEntity
  8
P-SANR-FIXT
100
AcDbSpline
210
0.0
220
0.0
230
1.0
 70
    24
 71
     3
 72
     8
 73
     4
 74
     0
 42
0.000000001
 43
0.0000000001
 40
0.8916834544269464
 40
0.8916834544269464
 40
0.8916834544269464
 40
0.8916834544269464
 40
1.0
 40
1.0
 40
1.0
 40
1.0
 10
837.9710575708942
 20
1809.613091463817
 30
0.0
 10
838.3557373780753
 20
1808.946806493133
 30
0.0
 10
838.7409504211413
 20
1808.279597930804
 30
0.0
 10
839.1266967000927
 20
1807.61146577683
 30
0.0
  0
SPLINE
  5
191
330
E4
100
AcDbEntity
  8
P-SANR-FIXT
100
AcDbSpline
210
0.0
220
0.0
230
1.0
 70
    24
 71
     3
 72
     8
 73
     4
 74
     0
 42
0.000000001
 43
0.0000000001
 40
0.0
 40
0.0
 40
0.0
 40
0.0
 40
0.1116109349465057
 40
0.1116109349465057
 40
0.1116109349465057
 40
0.1116109349465057
 10
805.1188958883248
 20
1827.245878730053
 30
0.0
 10
805.8935623012779
 20
1827.245878730053
 30
0.0
 10
806.6693610448581
 20
1827.245878730053
 30
0.0
 10
807.4462921190658
 20
1827.245878730053
 30
0.0
  0
SPLINE
  5
192
330
E4
100
AcDbEntity
  8
P-SANR-FIXT
100
AcDbSpline
210
0.0
220
0.0
230
1.0
 70
    24
 71
     3
 72
     8
 73
     4
 74
     0
 42
0.000000001
 43
0.0000000001
 40
0.8905395664299678
 40
0.8905395664299678
 40
0.8905395664299678
 40
0.8905395664299678
 40
1.0
 40
1.0
 40
1.0
 40
1.0
 10
823.8782663929534
 20
1827.245878730052
 30
0.0
 10
824.6557281454402
 20
1827.245878730052
 30
0.0
 10
825.4342790138064
 20
1827.245878730052
 30
0.0
 10
826.2139189980519
 20
1827.245878730052
 30
0.0
  0
SPLINE
  5
193
330
E4
100
AcDbEntity
  8
P-SANR-FIXT
100
AcDbSpline
210
0.0
220
0.0
230
1.0
 70
    24
 71
     3
 72
     8
 73
     4
 74
     0
 42
0.000000001
 43
0.0000000001
 40
0.0
 40
0.0
 40
0.0
 40
0.0
 40
0.1104445736901314
 40
0.1104445736901314
 40
0.1104445736901314
 40
0.1104445736901314
 10
792.2061181862828
 20
1807.611465776831
 30
0.0
 10
792.5894036670992
 20
1808.275335703408
 30
0.0
 10
792.9732435419298
 20
1808.940165868586
 30
0.0
 10
793.3576378107748
 20
1809.605956272364
 30
0.0
  0
SPLINE
  5
194
330
E4
100
AcDbEntity
  8
P-SANR-FIXT
100
AcDbSpline
210
0.0
220
0.0
230
1.0
 70
    24
 71
     3
 72
     8
 73
     4
 74
     0
 42
0.000000001
 43
0.0000000001
 40
0.8906181018747226
 40
0.8906181018747226
 40
0.8906181018747226
 40
0.8906181018747226
 40
1.0
 40
1.0
 40
1.0
 40
1.0
 10
801.5866401569063
 20
1823.859006431465
 30
0.0
 10
801.9750929081832
 20
1824.531826333017
 30
0.0
 10
802.3640894362635
 20
1825.20558808362
 30
0.0
 10
802.7536297411471
 20
1825.880291683274
 30
0.0
  0
ARC
  5
195
330
E4
100
AcDbEntity
  8
P-SANR-FIXT
100
AcDbCircle
 10
815.6664074431878
 20
1806.245878730052
 30
0.0
 40
23.49999999999949
100
AcDbArc
 50
356.66866059735
 51
359.9999999999991
  0
ARC
  5
196
330
E4
100
AcDbEntity
  8
P-SANR-FIXT
100
AcDbCircle
 10
815.6664074431878
 20
1806.245878730052
 30
0.0
 40
23.49999999999953
100
AcDbArc
 50
303.3313394026441
 51
356.6686605973528
  0
ARC
  5
197
330
E4
100
AcDbEntity
  8
P-SANR-FIXT
100
AcDbCircle
 10
815.6664074431878
 20
1806.245878730052
 30
0.0
 40
23.4999999999996
100
AcDbArc
 50
296.6686605973507
 51
303.3313394026458
  0
ARC
  5
198
330
E4
100
AcDbEntity
  8
P-SANR-FIXT
100
AcDbCircle
 10
815.6664074431878
 20
1806.245878730052
 30
0.0
 40
23.49999999999955
100
AcDbArc
 50
243.3313394026441
 51
296.6686605973529
  0
ARC
  5
199
330
E4
100
AcDbEntity
  8
P-SANR-FIXT
100
AcDbCircle
 10
815.6664074431878
 20
1806.245878730052
 30
0.0
 40
23.49999999999965
100
AcDbArc
 50
236.6686605973511
 51
243.3313394026448
  0
ARC
  5
19A
330
E4
100
AcDbEntity
  8
P-SANR-FIXT
100
AcDbCircle
 10
815.6664074431878
 20
1806.245878730052
 30
0.0
 40
23.49999999999958
100
AcDbArc
 50
183.3313394026437
 51
236.6686605973526
  0
ARC
  5
19B
330
E4
100
AcDbEntity
  8
P-SANR-FIXT
100
AcDbCircle
 10
815.6664074431878
 20
1806.245878730052
 30
0.0
 40
23.4999999999996
100
AcDbArc
 50
179.9999999999998
 51
183.3313394026445
  0
ARC
  5
19C
330
E4
100
AcDbEntity
  8
P-SANR-FIXT
100
AcDbCircle
 10
815.6664074431878
 20
1806.245878730052
 30
0.0
 40
23.4999999999997
100
AcDbArc
 50
176.6686605973509
 51
180.0
  0
ARC
  5
19D
330
E4
100
AcDbEntity
  8
P-SANR-FIXT
100
AcDbCircle
 10
815.6664074431878
 20
1806.245878730052
 30
0.0
 40
23.49999999999959
100
AcDbArc
 50
123.3313394026443
 51
176.6686605973537
  0
ARC
  5
19E
330
E4
100
AcDbEntity
  8
P-SANR-FIXT
100
AcDbCircle
 10
815.6664074431878
 20
1806.245878730052
 30
0.0
 40
23.4999999999996
100
AcDbArc
 50
116.6686605973507
 51
123.3313394026447
  0
ARC
  5
19F
330
E4
100
AcDbEntity
  8
P-SANR-FIXT
100
AcDbCircle
 10
815.6664074431878
 20
1806.245878730052
 30
0.0
 40
23.49999999999955
100
AcDbArc
 50
63.33133940264438
 51
116.6686605973534
  0
ARC
  5
1A0
330
E4
100
AcDbEntity
  8
P-SANR-FIXT
100
AcDbCircle
 10
815.6664074431878
 20
1806.245878730052
 30
0.0
 40
23.49999999999955
100
AcDbArc
 50
56.66866059735014
 51
63.33133940264537
  0
ARC
  5
1A1
330
E4
100
AcDbEntity
  8
P-SANR-FIXT
100
AcDbCircle
 10
815.6664074431878
 20
1806.245878730052
 30
0.0
 40
23.49999999999948
100
AcDbArc
 50
3.331339402645176
 51
56.66866059735394
  0
ARC
  5
1A2
330
E4
100
AcDbEntity
  8
P-SANR-FIXT
100
AcDbCircle
 10
815.6664074431878
 20
1806.245878730052
 30
0.0
 40
23.49999999999955
100
AcDbArc
 50
0.0
 51
3.331339402646301
  0
ARC
  5
1A3
330
E4
100
AcDbEntity
  8
P-SANR-FIXT
100
AcDbCircle
 10
815.6664074431878
 20
1806.245878730052
 30
0.0
 40
23.49999999999969
100
AcDbArc
 50
183.332888169436
 51
184.4999999999989
  0
ARC
  5
1A4
330
E4
100
AcDbEntity
  8
P-SANR-FIXT
100
AcDbCircle
 10
815.6664074431878
 20
1806.245878730052
 30
0.0
 40
23.49999999999981
100
AcDbArc
 50
187.7804668732109
 51
188.9999999999991
  0
ARC
  5
1A5
330
E4
100
AcDbEntity
  8
P-SANR-FIXT
100
AcDbCircle
 10
815.6664074431878
 20
1806.245878730052
 30
0.0
 40
23.49999999999972
100
AcDbArc
 50
192.2282482134497
 51
193.4999999999994
  0
ARC
  5
1A6
330
E4
100
AcDbEntity
  8
P-SANR-FIXT
100
AcDbCircle
 10
815.6664074431878
 20
1806.245878730052
 30
0.0
 40
23.49999999999975
100
AcDbArc
 50
196.6762633148486
 51
197.9999999999996
  0
ARC
  5
1A7
330
E4
100
AcDbEntity
  8
P-SANR-FIXT
100
AcDbCircle
 10
815.6664074431878
 20
1806.245878730052
 30
0.0
 40
23.49999999999974
100
AcDbArc
 50
201.1245516365107
 51
202.4999999999995
  0
ARC
  5
1A8
330
E4
100
AcDbEntity
  8
P-SANR-FIXT
100
AcDbCircle
 10
815.6664074431878
 20
1806.245878730052
 30
0.0
 40
23.49999999999972
100
AcDbArc
 50
205.5731638664344
 51
206.9999999999994
  0
ARC
  5
1A9
330
E4
100
AcDbEntity
  8
P-SANR-FIXT
100
AcDbCircle
 10
815.6664074431878
 20
1806.245878730052
 30
0.0
 40
23.49999999999972
100
AcDbArc
 50
210.0221660945061
 51
211.4999999999995
  0
ARC
  5
1AA
330
E4
100
AcDbEntity
  8
P-SANR-FIXT
100
AcDbCircle
 10
815.6664074431878
 20
1806.245878730052
 30
0.0
 40
23.49999999999975
100
AcDbArc
 50
214.4716459825041
 51
215.9999999999995
  0
ARC
  5
1AB
330
E4
100
AcDbEntity
  8
P-SANR-FIXT
100
AcDbCircle
 10
815.6664074431878
 20
1806.245878730052
 30
0.0
 40
23.49999999999969
100
AcDbArc
 50
218.9217221486635
 51
220.4999999999992
  0
ARC
  5
1AC
330
E4
100
AcDbEntity
  8
P-SANR-FIXT
100
AcDbCircle
 10
815.6664074431878
 20
1806.245878730052
 30
0.0
 40
23.49999999999968
100
AcDbArc
 50
223.3725589113703
 51
224.9999999999992
  0
ARC
  5
1AD
330
E4
100
AcDbEntity
  8
P-SANR-FIXT
100
AcDbCircle
 10
815.6664074431878
 20
1806.245878730052
 30
0.0
 40
23.49999999999986
100
AcDbArc
 50
227.7406508966891
 51
229.4999999999996
  0
ARC
  5
1AE
330
E4
100
AcDbEntity
  8
P-SANR-FIXT
100
AcDbCircle
 10
815.6664074431878
 20
1806.245878730052
 30
0.0
 40
23.49999999999972
100
AcDbArc
 50
232.1907134305181
 51
233.9999999999994
  0
ARC
  5
1AF
330
E4
100
AcDbEntity
  8
P-SANR-FIXT
100
AcDbCircle
 10
815.6664074431878
 20
1806.245878730052
 30
0.0
 40
23.49999999999979
100
AcDbArc
 50
242.9999999999994
 51
243.3256478564622
  0
ARC
  5
1B0
330
E4
100
AcDbEntity
  8
P-SANR-FIXT
100
AcDbCircle
 10
815.6664074431878
 20
1806.245878730052
 30
0.0
 40
23.49999999999966
100
AcDbArc
 50
247.4999999999994
 51
247.7722444016508
  0
ARC
  5
1B1
330
E4
100
AcDbEntity
  8
P-SANR-FIXT
100
AcDbCircle
 10
815.6664074431878
 20
1806.245878730052
 30
0.0
 40
23.49999999999973
100
AcDbArc
 50
251.9999999999995
 51
252.218469136679
  0
ARC
  5
1B2
330
E4
100
AcDbEntity
  8
P-SANR-FIXT
100
AcDbCircle
 10
815.6664074431878
 20
1806.245878730052
 30
0.0
 40
23.49999999999977
100
AcDbArc
 50
256.4999999999992
 51
256.6643472354385
  0
ARC
  5
1B3
330
E4
100
AcDbEntity
  8
P-SANR-FIXT
100
AcDbCircle
 10
815.6664074431878
 20
1806.245878730052
 30
0.0
 40
23.49999999999972
100
AcDbArc
 50
260.9999999999994
 51
261.1098930486164
  0
LINE
  5
1B4
330
E4
100
AcDbEntity
  8
P-SANR-FIXT
100
AcDbLine
 10
813.8226186935835
 20
1782.818321387324
 30
0.0
 11
813.8451540648395
 21
1782.816558720034
 31
0.0
  0
LINE
  5
1B5
330
E4
100
AcDbEntity
  8
P-SANR-FIXT
100
AcDbLine
 10
817.4876608215349
 20
1782.816558720034
 30
0.0
 11
817.5101961927921
 21
1782.818321387324
 31
0.0
  0
ARC
  5
1B6
330
E4
100
AcDbEntity
  8
P-SANR-FIXT
100
AcDbCircle
 10
815.6664074431878
 20
1806.245878730052
 30
0.0
 40
23.49999999999979
100
AcDbArc
 50
278.89010695138
 51
278.9999999999992
  0
ARC
  5
1B7
330
E4
100
AcDbEntity
  8
P-SANR-FIXT
100
AcDbCircle
 10
815.6664074431878
 20
1806.245878730052
 30
0.0
 40
23.49999999999968
100
AcDbArc
 50
283.3356527645586
 51
283.4999999999994
  0
ARC
  5
1B8
330
E4
100
AcDbEntity
  8
P-SANR-FIXT
100
AcDbCircle
 10
815.6664074431878
 20
1806.245878730052
 30
0.0
 40
23.49999999999976
100
AcDbArc
 50
287.7815308633176
 51
287.9999999999994
  0
ARC
  5
1B9
330
E4
100
AcDbEntity
  8
P-SANR-FIXT
100
AcDbCircle
 10
815.6664074431878
 20
1806.245878730052
 30
0.0
 40
23.49999999999981
100
AcDbArc
 50
292.2277555983459
 51
292.4999999999995
  0
ARC
  5
1BA
330
E4
100
AcDbEntity
  8
P-SANR-FIXT
100
AcDbCircle
 10
815.6664074431878
 20
1806.245878730052
 30
0.0
 40
23.49999999999975
100
AcDbArc
 50
296.6743521435354
 51
296.9999999999997
  0
ARC
  5
1BB
330
E4
100
AcDbEntity
  8
P-SANR-FIXT
100
AcDbCircle
 10
815.6664074431878
 20
1806.245878730052
 30
0.0
 40
23.49999999999975
100
AcDbArc
 50
305.9999999999993
 51
307.8092865694787
  0
ARC
  5
1BC
330
E4
100
AcDbEntity
  8
P-SANR-FIXT
100
AcDbCircle
 10
815.6664074431878
 20
1806.245878730052
 30
0.0
 40
23.49999999999983
100
AcDbArc
 50
310.4999999999995
 51
312.2593491033078
  0
ARC
  5
1BD
330
E4
100
AcDbEntity
  8
P-SANR-FIXT
100
AcDbCircle
 10
815.6664074431878
 20
1806.245878730052
 30
0.0
 40
23.49999999999971
100
AcDbArc
 50
314.9999999999995
 51
316.6274410886263
  0
ARC
  5
1BE
330
E4
100
AcDbEntity
  8
P-SANR-FIXT
100
AcDbCircle
 10
815.6664074431878
 20
1806.245878730052
 30
0.0
 40
23.49999999999972
100
AcDbArc
 50
319.4999999999997
 51
321.0782778513334
  0
ARC
  5
1BF
330
E4
100
AcDbEntity
  8
P-SANR-FIXT
100
AcDbCircle
 10
815.6664074431878
 20
1806.245878730052
 30
0.0
 40
23.49999999999972
100
AcDbArc
 50
323.9999999999993
 51
325.5283540174929
  0
ARC
  5
1C0
330
E4
100
AcDbEntity
  8
P-SANR-FIXT
100
AcDbCircle
 10
815.6664074431878
 20
1806.245878730052
 30
0.0
 40
23.49999999999977
100
AcDbArc
 50
328.4999999999995
 51
329.9778339054909
  0
ARC
  5
1C1
330
E4
100
AcDbEntity
  8
P-SANR-FIXT
100
AcDbCircle
 10
815.6664074431878
 20
1806.245878730052
 30
0.0
 40
23.49999999999979
100
AcDbArc
 50
332.9999999999999
 51
334.4268361335619
  0
ARC
  5
1C2
330
E4
100
AcDbEntity
  8
P-SANR-FIXT
100
AcDbCircle
 10
815.6664074431878
 20
1806.245878730052
 30
0.0
 40
23.49999999999971
100
AcDbArc
 50
337.4999999999993
 51
338.8754483634867
  0
ARC
  5
1C3
330
E4
100
AcDbEntity
  8
P-SANR-FIXT
100
AcDbCircle
 10
815.6664074431878
 20
1806.245878730052
 30
0.0
 40
23.49999999999977
100
AcDbArc
 50
341.9999999999993
 51
343.3237366851479
  0
ARC
  5
1C4
330
E4
100
AcDbEntity
  8
P-SANR-FIXT
100
AcDbCircle
 10
815.6664074431878
 20
1806.245878730052
 30
0.0
 40
23.49999999999974
100
AcDbArc
 50
346.5
 51
347.7717517865469
  0
ARC
  5
1C5
330
E4
100
AcDbEntity
  8
P-SANR-FIXT
100
AcDbCircle
 10
815.6664074431878
 20
1806.245878730052
 30
0.0
 40
23.49999999999972
100
AcDbArc
 50
350.9999999999998
 51
352.2195331267857
  0
ARC
  5
1C6
330
E4
100
AcDbEntity
  8
P-SANR-FIXT
100
AcDbCircle
 10
815.6664074431878
 20
1806.245878730052
 30
0.0
 40
23.49999999999978
100
AcDbArc
 50
355.4999999999997
 51
356.6671118305582
  0
ARC
  5
1C7
330
E4
100
AcDbEntity
  8
P-SANR-FIXT
100
AcDbCircle
 10
815.6664074431878
 20
1806.245878730052
 30
0.0
 40
23.49999999999973
100
AcDbArc
 50
3.332888169438113
 51
4.500000000000438
  0
ARC
  5
1C8
330
E4
100
AcDbEntity
  8
P-SANR-FIXT
100
AcDbCircle
 10
815.6664074431878
 20
1806.245878730052
 30
0.0
 40
23.49999999999974
100
AcDbArc
 50
7.780466873212332
 51
9.000000000000454
  0
ARC
  5
1C9
330
E4
100
AcDbEntity
  8
P-SANR-FIXT
100
AcDbCircle
 10
815.6664074431878
 20
1806.245878730052
 30
0.0
 40
23.49999999999968
100
AcDbArc
 50
12.22824821345106
 51
13.50000000000012
  0
ARC
  5
1CA
330
E4
100
AcDbEntity
  8
P-SANR-FIXT
100
AcDbCircle
 10
815.6664074431878
 20
1806.245878730052
 30
0.0
 40
23.49999999999967
100
AcDbArc
 50
16.6762633148498
 51
17.99999999999972
  0
ARC
  5
1CB
330
E4
100
AcDbEntity
  8
P-SANR-FIXT
100
AcDbCircle
 10
815.6664074431878
 20
1806.245878730052
 30
0.0
 40
23.49999999999976
100
AcDbArc
 50
21.12455163651198
 51
22.49999999999966
  0
ARC
  5
1CC
330
E4
100
AcDbEntity
  8
P-SANR-FIXT
100
AcDbCircle
 10
815.6664074431878
 20
1806.245878730052
 30
0.0
 40
23.49999999999976
100
AcDbArc
 50
25.57316386643572
 51
27.00000000000017
  0
ARC
  5
1CD
330
E4
100
AcDbEntity
  8
P-SANR-FIXT
100
AcDbCircle
 10
815.6664074431878
 20
1806.245878730052
 30
0.0
 40
23.49999999999964
100
AcDbArc
 50
30.02216609450679
 51
31.49999999999992
  0
ARC
  5
1CE
330
E4
100
AcDbEntity
  8
P-SANR-FIXT
100
AcDbCircle
 10
815.6664074431878
 20
1806.245878730052
 30
0.0
 40
23.49999999999972
100
AcDbArc
 50
34.47164598250497
 51
36.0
  0
ARC
  5
1CF
330
E4
100
AcDbEntity
  8
P-SANR-FIXT
100
AcDbCircle
 10
815.6664074431878
 20
1806.245878730052
 30
0.0
 40
23.49999999999975
100
AcDbArc
 50
38.9217221486645
 51
40.50000000000044
  0
ARC
  5
1D0
330
E4
100
AcDbEntity
  8
P-SANR-FIXT
100
AcDbCircle
 10
815.6664074431878
 20
1806.245878730052
 30
0.0
 40
23.49999999999983
100
AcDbArc
 50
43.37255891137104
 51
44.99999999999991
  0
ARC
  5
1D1
330
E4
100
AcDbEntity
  8
P-SANR-FIXT
100
AcDbCircle
 10
815.6664074431878
 20
1806.245878730052
 30
0.0
 40
23.49999999999979
100
AcDbArc
 50
47.74065089668981
 51
49.49999999999986
  0
ARC
  5
1D2
330
E4
100
AcDbEntity
  8
P-SANR-FIXT
100
AcDbCircle
 10
815.6664074431878
 20
1806.245878730052
 30
0.0
 40
23.49999999999967
100
AcDbArc
 50
52.19071343051895
 51
53.99999999999976
  0
ARC
  5
1D3
330
E4
100
AcDbEntity
  8
P-SANR-FIXT
100
AcDbCircle
 10
815.6664074431878
 20
1806.245878730052
 30
0.0
 40
23.49999999999974
100
AcDbArc
 50
63.0
 51
63.32564785646162
  0
ARC
  5
1D4
330
E4
100
AcDbEntity
  8
P-SANR-FIXT
100
AcDbCircle
 10
815.6664074431878
 20
1806.245878730052
 30
0.0
 40
23.49999999999977
100
AcDbArc
 50
67.49999999999997
 51
67.77224440165138
  0
ARC
  5
1D5
330
E4
100
AcDbEntity
  8
P-SANR-FIXT
100
AcDbCircle
 10
815.6664074431878
 20
1806.245878730052
 30
0.0
 40
23.49999999999973
100
AcDbArc
 50
71.99999999999993
 51
72.21846913668035
  0
ARC
  5
1D6
330
E4
100
AcDbEntity
  8
P-SANR-FIXT
100
AcDbCircle
 10
815.6664074431878
 20
1806.245878730052
 30
0.0
 40
23.49999999999972
100
AcDbArc
 50
76.50000000000005
 51
76.66434723543869
  0
ARC
  5
1D7
330
E4
100
AcDbEntity
  8
P-SANR-FIXT
100
AcDbCircle
 10
815.6664074431878
 20
1806.245878730052
 30
0.0
 40
23.4999999999997
100
AcDbArc
 50
81.00000000000004
 51
81.10989304861757
  0
LINE
  5
1D8
330
E4
100
AcDbEntity
  8
P-SANR-FIXT
100
AcDbLine
 10
817.5101961927921
 20
1829.673436072781
 30
0.0
 11
817.4876608215358
 21
1829.675198740071
 31
0.0
  0
LINE
  5
1D9
330
E4
100
AcDbEntity
  8
P-SANR-FIXT
100
AcDbLine
 10
813.8451540648404
 20
1829.675198740071
 30
0.0
 11
813.8226186935835
 21
1829.673436072781
 31
0.0
  0
ARC
  5
1DA
330
E4
100
AcDbEntity
  8
P-SANR-FIXT
100
AcDbCircle
 10
815.6664074431878
 20
1806.245878730052
 30
0.0
 40
23.49999999999981
100
AcDbArc
 50
98.89010695138066
 51
98.99999999999982
  0
ARC
  5
1DB
330
E4
100
AcDbEntity
  8
P-SANR-FIXT
100
AcDbCircle
 10
815.6664074431878
 20
1806.245878730052
 30
0.0
 40
23.49999999999979
100
AcDbArc
 50
103.3356527645588
 51
103.5000000000002
  0
ARC
  5
1DC
330
E4
100
AcDbEntity
  8
P-SANR-FIXT
100
AcDbCircle
 10
815.6664074431878
 20
1806.245878730052
 30
0.0
 40
23.49999999999979
100
AcDbArc
 50
107.7815308633182
 51
107.9999999999997
  0
ARC
  5
1DD
330
E4
100
AcDbEntity
  8
P-SANR-FIXT
100
AcDbCircle
 10
815.6664074431878
 20
1806.245878730052
 30
0.0
 40
23.49999999999971
100
AcDbArc
 50
112.2277555983464
 51
112.4999999999998
  0
ARC
  5
1DE
330
E4
100
AcDbEntity
  8
P-SANR-FIXT
100
AcDbCircle
 10
815.6664074431878
 20
1806.245878730052
 30
0.0
 40
23.49999999999975
100
AcDbArc
 50
116.6743521435355
 51
116.9999999999999
  0
ARC
  5
1DF
330
E4
100
AcDbEntity
  8
P-SANR-FIXT
100
AcDbCircle
 10
815.6664074431878
 20
1806.245878730052
 30
0.0
 40
23.49999999999984
100
AcDbArc
 50
125.9999999999996
 51
127.8092865694792
  0
ARC
  5
1E0
330
E4
100
AcDbEntity
  8
P-SANR-FIXT
100
AcDbCircle
 10
815.6664074431878
 20
1806.245878730052
 30
0.0
 40
23.49999999999983
100
AcDbArc
 50
130.4999999999997
 51
132.2593491033076
  0
ARC
  5
1E1
330
E4
100
AcDbEntity
  8
P-SANR-FIXT
100
AcDbCircle
 10
815.6664074431878
 20
1806.245878730052
 30
0.0
 40
23.49999999999971
100
AcDbArc
 50
134.9999999999997
 51
136.6274410886262
  0
ARC
  5
1E2
330
E4
100
AcDbEntity
  8
P-SANR-FIXT
100
AcDbCircle
 10
815.6664074431878
 20
1806.245878730052
 30
0.0
 40
23.49999999999981
100
AcDbArc
 50
139.4999999999996
 51
141.0782778513332
  0
ARC
  5
1E3
330
E4
100
AcDbEntity
  8
P-SANR-FIXT
100
AcDbCircle
 10
815.6664074431878
 20
1806.245878730052
 30
0.0
 40
23.49999999999972
100
AcDbArc
 50
143.9999999999999
 51
145.528354017493
  0
ARC
  5
1E4
330
E4
100
AcDbEntity
  8
P-SANR-FIXT
100
AcDbCircle
 10
815.6664074431878
 20
1806.245878730052
 30
0.0
 40
23.49999999999983
100
AcDbArc
 50
148.4999999999996
 51
149.9778339054909
  0
ARC
  5
1E5
330
E4
100
AcDbEntity
  8
P-SANR-FIXT
100
AcDbCircle
 10
815.6664074431878
 20
1806.245878730052
 30
0.0
 40
23.49999999999979
100
AcDbArc
 50
152.9999999999997
 51
154.4268361335629
  0
ARC
  5
1E6
330
E4
100
AcDbEntity
  8
P-SANR-FIXT
100
AcDbCircle
 10
815.6664074431878
 20
1806.245878730052
 30
0.0
 40
23.49999999999977
100
AcDbArc
 50
157.5
 51
158.8754483634863
  0
ARC
  5
1E7
330
E4
100
AcDbEntity
  8
P-SANR-FIXT
100
AcDbCircle
 10
815.6664074431878
 20
1806.245878730052
 30
0.0
 40
23.49999999999973
100
AcDbArc
 50
162.0
 51
163.3237366851477
  0
ARC
  5
1E8
330
E4
100
AcDbEntity
  8
P-SANR-FIXT
100
AcDbCircle
 10
815.6664074431878
 20
1806.245878730052
 30
0.0
 40
23.49999999999974
100
AcDbArc
 50
166.4999999999997
 51
167.7717517865477
  0
ARC
  5
1E9
330
E4
100
AcDbEntity
  8
P-SANR-FIXT
100
AcDbCircle
 10
815.6664074431878
 20
1806.245878730052
 30
0.0
 40
23.49999999999972
100
AcDbArc
 50
170.9999999999995
 51
172.219533126786
  0
ARC
  5
1EA
330
E4
100
AcDbEntity
  8
P-SANR-FIXT
100
AcDbCircle
 10
815.6664074431878
 20
1806.245878730052
 30
0.0
 40
23.49999999999978
100
AcDbArc
 50
175.4999999999995
 51
176.6671118305591
  0
ARC
  5
1EB
330
E4
100
AcDbEntity
  8
P-SANR-FIXT
100
AcDbCircle
 10
815.6664074431878
 20
1806.245878730052
 30
0.0
 40
29.50000000013508
100
AcDbArc
 50
179.9999999999998
 51
359.9999999999991
  0
ARC
  5
1EC
330
E4
100
AcDbEntity
  8
P-SANR-FIXT
100
AcDbCircle
 10
815.6664074431878
 20
1806.245878730052
 30
0.0
 40
29.50000000013495
100
AcDbArc
 50
0.0
 51
180.0
  0
ENDBLK
  5
1EE
330
E4
100
AcDbEntity
  8
0
100
AcDbBlockEnd
  0
BLOCK
  5
253
330
1F0
100
AcDbEntity
  8
0
100
AcDbBlockBegin
  2
Automatic flow rate regulator valve_Caleffi_121 DN15 - 1_2__-V2-Est - Idraulica
 70
     0
 10
0.0
 20
0.0
 30
0.0
  3
Automatic flow rate regulator valve_Caleffi_121 DN15 - 1_2__-V2-Est - Idraulica
  1

  0
LINE
  5
1F1
330
1F0
100
AcDbEntity
  8
P-SANR-FIXT
100
AcDbLine
 10
1089.264353943098
 20
2124.982558850245
 30
0.0
 11
1089.264353943098
 21
2128.982558850209
 31
0.0
  0
LINE
  5
1F2
330
1F0
100
AcDbEntity
  8
P-SANR-FIXT
100
AcDbLine
 10
1044.964353943098
 20
2128.982558850209
 30
0.0
 11
1044.964353943098
 21
2124.982558850245
 31
0.0
  0
LINE
  5
1F3
330
1F0
100
AcDbEntity
  8
P-SANR-FIXT
100
AcDbLine
 10
1089.614353943081
 20
2097.982558850208
 30
0.0
 11
1089.614353943081
 21
2124.982558850245
 31
0.0
  0
LINE
  5
1F4
330
1F0
100
AcDbEntity
  8
P-SANR-FIXT
100
AcDbLine
 10
1044.614353943115
 20
2124.982558850245
 30
0.0
 11
1044.614353943115
 21
2097.982558850208
 31
0.0
  0
LINE
  5
1F5
330
1F0
100
AcDbEntity
  8
P-SANR-FIXT
100
AcDbLine
 10
1067.114353943096
 20
2128.982558850209
 30
0.0
 11
1089.264353943096
 21
2128.982558850209
 31
0.0
  0
LINE
  5
1F6
330
1F0
100
AcDbEntity
  8
P-SANR-FIXT
100
AcDbLine
 10
1044.964353943097
 20
2128.982558850209
 30
0.0
 11
1067.114353943096
 21
2128.982558850209
 31
0.0
  0
LINE
  5
1F7
330
1F0
100
AcDbEntity
  8
P-SANR-FIXT
100
AcDbLine
 10
1089.61435394308
 20
2097.982558850208
 30
0.0
 11
1067.114353943097
 21
2097.982558850208
 31
0.0
  0
LINE
  5
1F8
330
1F0
100
AcDbEntity
  8
P-SANR-FIXT
100
AcDbLine
 10
1067.114353943097
 20
2097.982558850208
 30
0.0
 11
1044.614353943114
 21
2097.982558850208
 31
0.0
  0
LINE
  5
1F9
330
1F0
100
AcDbEntity
  8
P-SANR-FIXT
100
AcDbLine
 10
1067.114353943096
 20
2124.982558850245
 30
0.0
 11
1089.61435394308
 21
2124.982558850245
 31
0.0
  0
LINE
  5
1FA
330
1F0
100
AcDbEntity
  8
P-SANR-FIXT
100
AcDbLine
 10
1044.614353943114
 20
2124.982558850245
 30
0.0
 11
1067.114353943096
 21
2124.982558850245
 31
0.0
  0
LINE
  5
1FB
330
1F0
100
AcDbEntity
  8
P-SANR-FIXT
100
AcDbLine
 10
1097.614353943098
 20
1985.882558850011
 30
0.0
 11
1097.614353943098
 21
2033.782558850012
 31
0.0
  0
LINE
  5
1FC
330
1F0
100
AcDbEntity
  8
P-SANR-FIXT
100
AcDbLine
 10
1036.614353943098
 20
2033.782558850012
 30
0.0
 11
1036.614353943098
 21
1985.882558850011
 31
0.0
  0
LWPOLYLINE
  5
1FD
330
1F0
100
AcDbEntity
  8
P-SANR-FIXT
100
AcDbPolyline
 90
       41
 70
   128
 43
0.0
 10
1097.614353943098
 20
1985.882558850011
 10
1097.610354476403
 20
1985.682612179078
 10
1097.598362474611
 20
1985.482985380165
 10
1097.578397122368
 20
1985.283997813567
 10
1097.550490359976
 20
1985.08596781694
 10
1097.514686832304
 20
1984.889212196036
 10
1097.471043817358
 20
1984.694045717876
 10
1097.419631134652
 20
1984.500780607191
 10
1097.36053103351
 20
1984.30972604693
 10
1097.293838061488
 20
1984.121187683636
 10
1097.219658913112
 20
1983.935467138468
 10
1097.138112259198
 20
1983.752861524681
 10
1097.049328556995
 20
1983.573662972304
 10
1096.953449841486
 20
1983.398158160793
 10
1096.850629498165
 20
1983.226627860407
 10
1096.741032017646
 20
1983.059346483036
 10
1096.62483273252
 20
1982.896581643199
 10
1096.502217536853
 20
1982.738593729919
 10
1096.373382588803
 20
1982.585635490154
 10
1096.238533996803
 20
1982.437951624459
 10
1096.097887489834
 20
1982.295778395514
 10
1095.951668072305
 20
1982.159343250157
 10
1095.800109664091
 20
1982.028864455516
 10
1095.643454726315
 20
1981.904550749829
 10
1095.481953873461
 20
1981.786601008506
 10
1095.315865472439
 20
1981.675203925972
 10
1095.145455229262
 20
1981.570537713795
 10
1094.970995763967
 20
1981.472769815587
 10
1094.792766174482
 20
1981.382056639129
 10
1094.611051590129
 20
1981.298543306152
 10
1094.426142715481
 20
1981.222363420175
 10
1094.238335365292
 20
1981.153638852764
 10
1094.047929991258
 20
1981.092479548565
 10
1093.85523120136
 20
1981.03898334942
 10
1093.660547272555
 20
1980.993235837835
 10
1093.464189657599
 20
1980.955310200069
 10
1093.266472486789
 20
1980.925267109053
 10
1093.06771206542
 20
1980.903154627323
 10
1092.868226367766
 20
1980.889008130133
 10
1092.66833452839
 20
1980.882850248861
 10
1092.614353943098
 20
1980.882558850012
  0
LWPOLYLINE
  5
1FE
330
1F0
100
AcDbEntity
  8
P-SANR-FIXT
100
AcDbPolyline
 90
       25
 70
   128
 43
0.0
 10
1082.43009535657
 20
1980.882558850012
 10
1083.043454029194
 20
1980.882558850012
 10
1083.827006204533
 20
1980.882558850012
 10
1084.58382170143
 20
1980.882558850012
 10
1085.312689776534
 20
1980.882558850012
 10
1086.012444396409
 20
1980.882558850012
 10
1086.681966102937
 20
1980.882558850012
 10
1087.32018380421
 20
1980.882558850012
 10
1087.926076488052
 20
1980.882558850012
 10
1088.49867485542
 20
1980.882558850012
 10
1089.037062871073
 20
1980.882558850012
 10
1089.540379229037
 20
1980.882558850012
 10
1090.007818730507
 20
1980.882558850012
 10
1090.438633571995
 20
1980.882558850012
 10
1090.832134541658
 20
1980.882558850012
 10
1091.187692121887
 20
1980.882558850012
 10
1091.504737496402
 20
1980.882558850012
 10
1091.782763460235
 20
1980.882558850012
 10
1092.021325231155
 20
1980.882558850012
 10
1092.220041161217
 20
1980.882558850012
 10
1092.378593347325
 20
1980.882558850012
 10
1092.496728139803
 20
1980.882558850012
 10
1092.574256548184
 20
1980.882558850012
 10
1092.611054543553
 20
1980.882558850012
 10
1092.614353943098
 20
1980.882558850012
  0
LWPOLYLINE
  5
1FF
330
1F0
100
AcDbEntity
  8
P-SANR-FIXT
100
AcDbPolyline
 90
       18
 70
   128
 43
0.0
 10
1092.614353943098
 20
1980.882558850012
 10
1092.593956662953
 20
1980.882558850012
 10
1092.532797453815
 20
1980.882558850012
 10
1092.430974157372
 20
1980.882558850012
 10
1092.288649669177
 20
1980.882558850012
 10
1092.10605167805
 20
1980.882558850012
 10
1091.883472301825
 20
1980.882558850012
 10
1091.621267620023
 20
1980.882558850012
 10
1091.3198571042
 20
1980.882558850012
 10
1090.979722946886
 20
1980.882558850012
 10
1090.601409290171
 20
1980.882558850012
 10
1090.185521355207
 20
1980.882558850012
 10
1089.73272447397
 20
1980.882558850012
 10
1089.243743024878
 20
1980.882558850012
 10
1088.71935927394
 20
1980.882558850012
 10
1088.160412123295
 20
1980.882558850012
 10
1087.567795769147
 20
1980.882558850012
 10
1087.114353943083
 20
1980.882558850012
  0
LWPOLYLINE
  5
200
330
1F0
100
AcDbEntity
  8
P-SANR-FIXT
100
AcDbPolyline
 90
       41
 70
   128
 43
0.0
 10
1041.614353943098
 20
1980.882558850012
 10
1041.414407272165
 20
1980.886558316706
 10
1041.214780473252
 20
1980.898550318498
 10
1041.015792906654
 20
1980.918515670742
 10
1040.817762910027
 20
1980.946422433133
 10
1040.621007289123
 20
1980.982225960805
 10
1040.425840810963
 20
1981.025868975751
 10
1040.232575700278
 20
1981.077281658458
 10
1040.041521140018
 20
1981.136381759599
 10
1039.852982776723
 20
1981.203074731622
 10
1039.667262231555
 20
1981.277253879997
 10
1039.484656617768
 20
1981.358800533912
 10
1039.305458065391
 20
1981.447584236115
 10
1039.12995325388
 20
1981.543462951623
 10
1038.958422953494
 20
1981.646283294944
 10
1038.791141576123
 20
1981.755880775463
 10
1038.628376736286
 20
1981.87208006059
 10
1038.470388823006
 20
1981.994695256257
 10
1038.317430583241
 20
1982.123530204307
 10
1038.169746717545
 20
1982.258378796307
 10
1038.027573488601
 20
1982.399025303276
 10
1037.891138343244
 20
1982.545244720805
 10
1037.760659548603
 20
1982.696803129018
 10
1037.636345842916
 20
1982.853458066794
 10
1037.518396101593
 20
1983.014958919649
 10
1037.406999019059
 20
1983.181047320671
 10
1037.302332806881
 20
1983.351457563847
 10
1037.204564908673
 20
1983.525917029143
 10
1037.113851732216
 20
1983.704146618627
 10
1037.030338399239
 20
1983.88586120298
 10
1036.954158513262
 20
1984.070770077628
 10
1036.885433945851
 20
1984.258577427817
 10
1036.824274641652
 20
1984.448982801852
 10
1036.770778442507
 20
1984.641681591749
 10
1036.725030930922
 20
1984.836365520554
 10
1036.687105293156
 20
1985.03272313551
 10
1036.65706220214
 20
1985.23044030632
 10
1036.63494972041
 20
1985.42920072769
 10
1036.62080322322
 20
1985.628686425343
 10
1036.614645341948
 20
1985.82857826472
 10
1036.614353943098
 20
1985.882558850011
  0
LWPOLYLINE
  5
201
330
1F0
100
AcDbEntity
  8
P-SANR-FIXT
100
AcDbPolyline
 90
       19
 70
   128
 43
0.0
 10
1047.114353943112
 20
1980.882558850012
 10
1046.826512632171
 20
1980.882558850012
 10
1046.224968951423
 20
1980.882558850012
 10
1045.656843830497
 20
1980.882558850012
 10
1045.123046148393
 20
1980.882558850012
 10
1044.624429867532
 20
1980.882558850012
 10
1044.161792667597
 20
1980.882558850012
 10
1043.735874669418
 20
1980.882558850012
 10
1043.347357250934
 20
1980.882558850012
 10
1042.996861957135
 20
1980.882558850012
 10
1042.684949505723
 20
1980.882558850012
 10
1042.412118890083
 20
1980.882558850012
 10
1042.178806580998
 20
1980.882558850012
 10
1041.985385828392
 20
1980.882558850012
 10
1041.83216606421
 20
1980.882558850012
 10
1041.719392407388
 20
1980.882558850012
 10
1041.647245271721
 20
1980.882558850012
 10
1041.615840077234
 20
1980.882558850012
 10
1041.614353943098
 20
1980.882558850012
  0
LWPOLYLINE
  5
202
330
1F0
100
AcDbEntity
  8
P-SANR-FIXT
100
AcDbPolyline
 90
       25
 70
   128
 43
0.0
 10
1041.614353943098
 20
1980.882558850012
 10
1041.634751223243
 20
1980.882558850012
 10
1041.695910432381
 20
1980.882558850012
 10
1041.797733728825
 20
1980.882558850012
 10
1041.94005821702
 20
1980.882558850012
 10
1042.122656208147
 20
1980.882558850012
 10
1042.345235584372
 20
1980.882558850012
 10
1042.607440266174
 20
1980.882558850012
 10
1042.908850781996
 20
1980.882558850012
 10
1043.248984939311
 20
1980.882558850012
 10
1043.627298596025
 20
1980.882558850012
 10
1044.043186530989
 20
1980.882558850012
 10
1044.495983412226
 20
1980.882558850012
 10
1044.984964861318
 20
1980.882558850012
 10
1045.509348612256
 20
1980.882558850012
 10
1046.068295762901
 20
1980.882558850012
 10
1046.660912117049
 20
1980.882558850012
 10
1047.28624961495
 20
1980.882558850012
 10
1047.943307850006
 20
1980.882558850012
 10
1048.631035669205
 20
1980.882558850012
 10
1049.348332854746
 20
1980.882558850012
 10
1050.094051884145
 20
1980.882558850012
 10
1050.866999766034
 20
1980.882558850012
 10
1051.66593994869
 20
1980.882558850012
 10
1051.798612529626
 20
1980.882558850012
  0
LINE
  5
203
330
1F0
100
AcDbEntity
  8
P-SANR-FIXT
100
AcDbLine
 10
1086.614353943077
 20
2054.282558850046
 30
0.0
 11
1086.614353943077
 21
2095.504327036713
 31
0.0
  0
LINE
  5
204
330
1F0
100
AcDbEntity
  8
P-SANR-FIXT
100
AcDbLine
 10
1047.614353943119
 20
2095.504327036713
 30
0.0
 11
1047.614353943119
 21
2054.282558850046
 31
0.0
  0
LINE
  5
205
330
1F0
100
AcDbEntity
  8
P-SANR-FIXT
100
AcDbLine
 10
1097.614353943098
 20
2033.782558850012
 30
0.0
 11
1096.914353943098
 21
2034.482558850012
 31
0.0
  0
LINE
  5
206
330
1F0
100
AcDbEntity
  8
P-SANR-FIXT
100
AcDbLine
 10
1037.314353943098
 20
2034.482558850012
 30
0.0
 11
1036.614353943098
 21
2033.782558850012
 31
0.0
  0
LINE
  5
207
330
1F0
100
AcDbEntity
  8
P-SANR-FIXT
100
AcDbLine
 10
1088.114586200044
 20
2053.416399352641
 30
0.0
 11
1086.614353943077
 21
2054.282558850046
 31
0.0
  0
LINE
  5
208
330
1F0
100
AcDbEntity
  8
P-SANR-FIXT
100
AcDbLine
 10
1047.614353943119
 20
2054.282558850046
 30
0.0
 11
1046.114121686153
 21
2053.416399352641
 31
0.0
  0
LINE
  5
209
330
1F0
100
AcDbEntity
  8
P-SANR-FIXT
100
AcDbLine
 10
1090.614353943098
 20
2039.946660465151
 30
0.0
 11
1090.614353943098
 21
2040.449902858585
 31
0.0
  0
LINE
  5
20A
330
1F0
100
AcDbEntity
  8
P-SANR-FIXT
100
AcDbLine
 10
1043.614353943099
 20
2040.449902858585
 30
0.0
 11
1043.614353943099
 21
2039.946660465151
 31
0.0
  0
LINE
  5
20B
330
1F0
100
AcDbEntity
  8
P-SANR-FIXT
100
AcDbLine
 10
1096.614353943101
 20
2036.482558850012
 30
0.0
 11
1096.548396672676
 21
2036.520639297846
 31
0.0
  0
LINE
  5
20C
330
1F0
100
AcDbEntity
  8
P-SANR-FIXT
100
AcDbLine
 10
1096.52341528836
 20
2036.535062306806
 30
0.0
 11
1090.614353943098
 21
2039.946660465151
 31
0.0
  0
LINE
  5
20D
330
1F0
100
AcDbEntity
  8
P-SANR-FIXT
100
AcDbLine
 10
1043.614353943098
 20
2039.946660465151
 30
0.0
 11
1037.705292597836
 21
2036.535062306806
 31
0.0
  0
LINE
  5
20E
330
1F0
100
AcDbEntity
  8
P-SANR-FIXT
100
AcDbLine
 10
1037.680311213521
 20
2036.520639297846
 30
0.0
 11
1037.614353943096
 21
2036.482558850012
 31
0.0
  0
LINE
  5
20F
330
1F0
100
AcDbEntity
  8
P-SANR-FIXT
100
AcDbLine
 10
1096.614353943233
 20
2034.482558850012
 30
0.0
 11
1096.614353943233
 21
2036.482558850012
 31
0.0
  0
LINE
  5
210
330
1F0
100
AcDbEntity
  8
P-SANR-FIXT
100
AcDbLine
 10
1037.614353942963
 20
2036.482558850012
 30
0.0
 11
1037.614353942963
 21
2034.482558850012
 31
0.0
  0
LINE
  5
211
330
1F0
100
AcDbEntity
  8
P-SANR-FIXT
100
AcDbLine
 10
1086.216544233867
 20
2095.504327036713
 30
0.0
 11
1086.216544233867
 21
2097.982558850208
 31
0.0
  0
LINE
  5
212
330
1F0
100
AcDbEntity
  8
P-SANR-FIXT
100
AcDbLine
 10
1048.012163652329
 20
2097.982558850208
 30
0.0
 11
1048.012163652329
 21
2095.504327036713
 31
0.0
  0
LINE
  5
213
330
1F0
100
AcDbEntity
  8
P-SANR-FIXT
100
AcDbLine
 10
1086.6143539431
 20
1960.982558849996
 30
0.0
 11
1087.114662570539
 21
1961.271412170726
 31
0.0
  0
LINE
  5
214
330
1F0
100
AcDbEntity
  8
P-SANR-FIXT
100
AcDbLine
 10
1047.114045315657
 20
1961.271412170726
 30
0.0
 11
1047.614353943096
 21
1960.982558849996
 31
0.0
  0
LINE
  5
215
330
1F0
100
AcDbEntity
  8
P-SANR-FIXT
100
AcDbLine
 10
1097.614353943097
 20
2033.782558850011
 30
0.0
 11
1067.114353943097
 21
2033.782558850011
 31
0.0
  0
SPLINE
  5
216
330
1F0
100
AcDbEntity
  8
P-SANR-FIXT
100
AcDbSpline
210
0.0
220
0.0
230
1.0
 70
     8
 71
     3
 72
     8
 73
     4
 74
     0
 42
0.000000001
 43
0.0000000001
 40
0.1111111111111111
 40
0.1111111111111111
 40
0.1111111111111111
 40
0.1111111111111111
 40
0.2222222222222222
 40
0.2222222222222222
 40
0.2222222222222222
 40
0.2222222222222222
 10
1068.563580685296
 20
2024.436483232227
 30
0.0
 10
1069.043699560545
 20
2024.407982928901
 30
0.0
 10
1069.518655985035
 20
2024.361744184307
 30
0.0
 10
1069.991411399519
 20
2024.304157202996
 30
0.0
  0
SPLINE
  5
217
330
1F0
100
AcDbEntity
  8
P-SANR-FIXT
100
AcDbSpline
210
0.0
220
0.0
230
1.0
 70
     8
 71
     3
 72
     8
 73
     4
 74
     0
 42
0.000000001
 43
0.0000000001
 40
0.3303938049155288
 40
0.3303938049155288
 40
0.3303938049155288
 40
0.3303938049155288
 40
0.3333333333333333
 40
0.3333333333333333
 40
0.3333333333333333
 40
0.3333333333333333
 10
1071.368959626775
 20
2024.110289066689
 30
0.0
 10
1071.3813208803
 20
2024.108116372414
 30
0.0
 10
1071.393677545579
 20
2024.105929801486
 30
0.0
 10
1071.406036053704
 20
2024.103741753457
 30
0.0
  0
SPLINE
  5
218
330
1F0
100
AcDbEntity
  8
P-SANR-FIXT
100
AcDbSpline
210
0.0
220
0.0
230
1.0
 70
     8
 71
     3
 72
     8
 73
     4
 74
     0
 42
0.000000001
 43
0.0000000001
 40
0.4444444444444445
 40
0.4444444444444445
 40
0.4444444444444445
 40
0.4444444444444445
 40
0.5555555555555556
 40
0.5555555555555556
 40
0.5555555555555556
 40
0.5555555555555556
 10
1072.795503965325
 20
2023.814383565774
 30
0.0
 10
1073.254353344522
 20
2023.704676892203
 30
0.0
 10
1073.714019066681
 20
2023.591175190917
 30
0.0
 10
1074.164994607217
 20
2023.46120452074
 30
0.0
  0
SPLINE
  5
219
330
1F0
100
AcDbEntity
  8
P-SANR-FIXT
100
AcDbSpline
210
0.0
220
0.0
230
1.0
 70
     8
 71
     3
 72
     8
 73
     4
 74
     0
 42
0.000000001
 43
0.0000000001
 40
0.7777777777777779
 40
0.7777777777777779
 40
0.7777777777777779
 40
0.7777777777777779
 40
0.8888888888888891
 40
0.8888888888888891
 40
0.8888888888888891
 40
0.8888888888888891
 10
1076.766424737378
 20
2022.5041672534
 30
0.0
 10
1077.187357612835
 20
2022.324696598039
 30
0.0
 10
1077.594255339501
 20
2022.122251732778
 30
0.0
 10
1077.99763546249
 20
2021.914105382647
 30
0.0
  0
SPLINE
  5
21A
330
1F0
100
AcDbEntity
  8
P-SANR-FIXT
100
AcDbSpline
210
0.0
220
0.0
230
1.0
 70
     8
 71
     3
 72
     8
 73
     4
 74
     0
 42
0.000000001
 43
0.0000000001
 40
0.0
 40
0.0
 40
0.0
 40
0.0
 40
0.0552790009114319
 40
0.0552790009114319
 40
0.0552790009114319
 40
0.0552790009114319
 10
1079.207740565544
 20
2021.289834602673
 30
0.0
 10
1079.261720172552
 20
2021.259250156916
 30
0.0
 10
1079.315140634566
 20
2021.227779182843
 30
0.0
 10
1079.367988752822
 20
2021.195424408775
 30
0.0
  0
SPLINE
  5
21B
330
1F0
100
AcDbEntity
  8
P-SANR-FIXT
100
AcDbSpline
210
0.0
220
0.0
230
1.0
 70
     8
 71
     3
 72
     8
 73
     4
 74
     0
 42
0.000000001
 43
0.0000000001
 40
0.9447209990884084
 40
0.9447209990884084
 40
0.9447209990884084
 40
0.9447209990884084
 40
1.0
 40
1.0
 40
1.0
 40
1.0
 10
1054.860721301066
 20
2021.195424072097
 30
0.0
 10
1054.913568117842
 20
2021.227779048306
 30
0.0
 10
1054.96698771364
 20
2021.259250156916
 30
0.0
 10
1055.020967320649
 20
2021.289834602673
 30
0.0
  0
SPLINE
  5
21C
330
1F0
100
AcDbEntity
  8
P-SANR-FIXT
100
AcDbSpline
210
0.0
220
0.0
230
1.0
 70
     8
 71
     3
 72
     8
 73
     4
 74
     0
 42
0.000000001
 43
0.0000000001
 40
0.1111111111111111
 40
0.1111111111111111
 40
0.1111111111111111
 40
0.1111111111111111
 40
0.2222222222222222
 40
0.2222222222222222
 40
0.2222222222222222
 40
0.2222222222222222
 10
1056.220625410415
 20
2021.931714648514
 30
0.0
 10
1056.627487871167
 20
2022.133991243356
 30
0.0
 10
1057.04306138547
 20
2022.320034974358
 30
0.0
 10
1057.464849816984
 20
2022.497174817878
 30
0.0
  0
SPLINE
  5
21D
330
1F0
100
AcDbEntity
  8
P-SANR-FIXT
100
AcDbSpline
210
0.0
220
0.0
230
1.0
 70
     8
 71
     3
 72
     8
 73
     4
 74
     0
 42
0.000000001
 43
0.0000000001
 40
0.4444444444444445
 40
0.4444444444444445
 40
0.4444444444444445
 40
0.4444444444444445
 40
0.5555555555555556
 40
0.5555555555555556
 40
0.5555555555555556
 40
0.5555555555555556
 10
1060.072005054809
 20
2023.447520957052
 30
0.0
 10
1060.520216670068
 20
2023.582052815125
 30
0.0
 10
1060.971643966017
 20
2023.715414664012
 30
0.0
 10
1061.429138057387
 20
2023.830490223488
 30
0.0
  0
SPLINE
  5
21E
330
1F0
100
AcDbEntity
  8
P-SANR-FIXT
100
AcDbSpline
210
0.0
220
0.0
230
1.0
 70
     8
 71
     3
 72
     8
 73
     4
 74
     0
 42
0.000000001
 43
0.0000000001
 40
0.6666666666666666
 40
0.6666666666666666
 40
0.6666666666666666
 40
0.6666666666666666
 40
0.6696061950844178
 40
0.6696061950844178
 40
0.6696061950844178
 40
0.6696061950844178
 10
1062.822671832489
 20
2024.103741753457
 30
0.0
 10
1062.835028195488
 20
2024.105933936747
 30
0.0
 10
1062.847391371594
 20
2024.108097755675
 30
0.0
 10
1062.859761241023
 20
2024.110233708992
 30
0.0
  0
SPLINE
  5
21F
330
1F0
100
AcDbEntity
  8
P-SANR-FIXT
100
AcDbSpline
210
0.0
220
0.0
230
1.0
 70
     8
 71
     3
 72
     8
 73
     4
 74
     0
 42
0.000000001
 43
0.0000000001
 40
0.7777777777777779
 40
0.7777777777777779
 40
0.7777777777777779
 40
0.7777777777777779
 40
0.8888888888888891
 40
0.8888888888888891
 40
0.8888888888888891
 40
0.8888888888888891
 10
1064.234103594482
 20
2024.310883948383
 30
0.0
 10
1064.707923306364
 20
2024.366228681233
 30
0.0
 10
1065.187926455893
 20
2024.394897254977
 30
0.0
 10
1065.669504396264
 20
2024.41685472134
 30
0.0
  0
LINE
  5
220
330
1F0
100
AcDbEntity
  8
P-SANR-FIXT
100
AcDbLine
 10
1067.114353943097
 20
2033.782558850011
 30
0.0
 11
1036.614353943097
 21
2033.782558850011
 31
0.0
  0
LINE
  5
221
330
1F0
100
AcDbEntity
  8
P-SANR-FIXT
100
AcDbLine
 10
1086.614353943098
 20
1960.982558849996
 30
0.0
 11
1067.114353943097
 21
1960.982558849996
 31
0.0
  0
LINE
  5
222
330
1F0
100
AcDbEntity
  8
P-SANR-FIXT
100
AcDbLine
 10
1067.114353943097
 20
1960.982558849996
 30
0.0
 11
1047.614353943095
 21
1960.982558849996
 31
0.0
  0
SPLINE
  5
223
330
1F0
100
AcDbEntity
  8
P-SANR-FIXT
100
AcDbSpline
210
0.0
220
0.0
230
1.0
 70
    24
 71
     3
 72
     9
 73
     5
 74
     0
 42
0.000000001
 43
0.0000000001
 40
0.4957678004841703
 40
0.4957678004841703
 40
0.4957678004841703
 40
0.4957678004841703
 40
0.5
 40
1.0
 40
1.0
 40
1.0
 40
1.0
 10
1047.114353943111
 20
1961.271412170725
 30
0.0
 10
1047.114353943111
 20
1961.271350127491
 30
0.0
 10
1047.114353943111
 20
1961.267654153745
 30
0.0
 10
1047.114353943111
 20
1961.704303434027
 30
0.0
 10
1047.114353943111
 20
1962.570272090269
 30
0.0
  0
LINE
  5
224
330
1F0
100
AcDbEntity
  8
P-SANR-FIXT
100
AcDbLine
 10
1047.114353943111
 20
1962.570272090269
 30
0.0
 11
1047.114353943111
 21
1980.88255885001
 31
0.0
  0
LINE
  5
225
330
1F0
100
AcDbEntity
  8
P-SANR-FIXT
100
AcDbLine
 10
1047.114353943111
 20
1962.570272090269
 30
0.0
 11
1048.670606256168
 21
1962.570272090269
 31
0.0
  0
LINE
  5
226
330
1F0
100
AcDbEntity
  8
P-SANR-FIXT
100
AcDbLine
 10
1048.670606256168
 20
1962.570272090269
 30
0.0
 11
1048.670606256168
 21
1980.88255885001
 31
0.0
  0
SPLINE
  5
227
330
1F0
100
AcDbEntity
  8
P-SANR-FIXT
100
AcDbSpline
210
0.0
220
0.0
230
1.0
 70
     8
 71
     3
 72
     9
 73
     5
 74
     0
 42
0.000000001
 43
0.0000000001
 40
0.0
 40
0.0
 40
0.0
 40
0.0
 40
0.5
 40
1.0
 40
1.0
 40
1.0
 40
1.0
 10
1048.670606256168
 20
1962.570272090269
 30
0.0
 10
1051.52952615377
 20
1961.704303434006
 30
0.0
 10
1057.203028613684
 20
1960.838334777742
 30
0.0
 10
1062.787856403018
 20
1961.704303434006
 30
0.0
 10
1065.558101630039
 20
1962.570272090269
 30
0.0
  0
LINE
  5
228
330
1F0
100
AcDbEntity
  8
P-SANR-FIXT
100
AcDbLine
 10
1067.114353943096
 20
1962.570272090269
 30
0.0
 11
1068.670606256153
 21
1962.570272090269
 31
0.0
  0
LINE
  5
229
330
1F0
100
AcDbEntity
  8
P-SANR-FIXT
100
AcDbLine
 10
1065.558101630039
 20
1962.570272090269
 30
0.0
 11
1065.558101630039
 21
1975.550506293402
 31
0.0
  0
LINE
  5
22A
330
1F0
100
AcDbEntity
  8
P-SANR-FIXT
100
AcDbLine
 10
1065.558101630039
 20
1962.570272090269
 30
0.0
 11
1067.114353943096
 21
1962.570272090269
 31
0.0
  0
LINE
  5
22B
330
1F0
100
AcDbEntity
  8
P-SANR-FIXT
100
AcDbLine
 10
1068.670606256153
 20
1962.570272090269
 30
0.0
 11
1068.670606256153
 21
1975.550506293402
 31
0.0
  0
SPLINE
  5
22C
330
1F0
100
AcDbEntity
  8
P-SANR-FIXT
100
AcDbSpline
210
0.0
220
0.0
230
1.0
 70
     8
 71
     3
 72
     9
 73
     5
 74
     0
 42
0.000000001
 43
0.0000000001
 40
0.0
 40
0.0
 40
0.0
 40
0.0
 40
0.5
 40
1.0
 40
1.0
 40
1.0
 40
1.0
 10
1068.670606256153
 20
1962.570272090269
 30
0.0
 10
1071.529526153756
 20
1961.704303434006
 30
0.0
 10
1077.20302861367
 20
1960.838334777742
 30
0.0
 10
1082.787856403004
 20
1961.704303434006
 30
0.0
 10
1085.558101630025
 20
1962.570272090269
 30
0.0
  0
LINE
  5
22D
330
1F0
100
AcDbEntity
  8
P-SANR-FIXT
100
AcDbLine
 10
1085.558101630025
 20
1962.570272090269
 30
0.0
 11
1085.558101630025
 21
1980.88255885001
 31
0.0
  0
LINE
  5
22E
330
1F0
100
AcDbEntity
  8
P-SANR-FIXT
100
AcDbLine
 10
1085.558101630025
 20
1962.570272090269
 30
0.0
 11
1087.114353943082
 21
1962.570272090269
 31
0.0
  0
LINE
  5
22F
330
1F0
100
AcDbEntity
  8
P-SANR-FIXT
100
AcDbLine
 10
1087.114353943082
 20
1962.570272090269
 30
0.0
 11
1087.114353943082
 21
1980.88255885001
 31
0.0
  0
SPLINE
  5
230
330
1F0
100
AcDbEntity
  8
P-SANR-FIXT
100
AcDbSpline
210
0.0
220
0.0
230
1.0
 70
    24
 71
     3
 72
     8
 73
     4
 74
     0
 42
0.000000001
 43
0.0000000001
 40
0.0
 40
0.0
 40
0.0
 40
0.0
 40
0.5
 40
0.5
 40
0.5
 40
0.5
 10
1087.114353943082
 20
1962.570272090269
 30
0.0
 10
1087.114353943082
 20
1961.704303434006
 30
0.0
 10
1087.114353943082
 20
1961.271319105874
 30
0.0
 10
1087.114353943082
 20
1961.271319105874
 30
0.0
  0
LINE
  5
231
330
1F0
100
AcDbEntity
  8
P-SANR-FIXT
100
AcDbLine
 10
1067.114353943096
 20
2034.482558850011
 30
0.0
 11
1096.914353943096
 21
2034.482558850011
 31
0.0
  0
LINE
  5
232
330
1F0
100
AcDbEntity
  8
P-SANR-FIXT
100
AcDbLine
 10
1037.314353943097
 20
2034.482558850011
 30
0.0
 11
1067.114353943096
 21
2034.482558850011
 31
0.0
  0
LINE
  5
233
330
1F0
100
AcDbEntity
  8
P-SANR-FIXT
100
AcDbLine
 10
1067.114353943097
 20
2095.504327036712
 30
0.0
 11
1086.614353943076
 21
2095.504327036712
 31
0.0
  0
LINE
  5
234
330
1F0
100
AcDbEntity
  8
P-SANR-FIXT
100
AcDbLine
 10
1047.614353943117
 20
2095.504327036712
 30
0.0
 11
1067.114353943097
 21
2095.504327036712
 31
0.0
  0
ARC
  5
235
330
1F0
100
AcDbEntity
  8
P-SANR-FIXT
100
AcDbCircle
 10
1067.114353943096
 20
1999.982558850011
 30
0.0
 40
23.79999999999995
100
AcDbArc
 50
269.9999999999997
 51
89.99999999999944
  0
ARC
  5
236
330
1F0
100
AcDbEntity
  8
P-SANR-FIXT
100
AcDbCircle
 10
1067.114353943096
 20
1999.982558850011
 30
0.0
 40
15.90000000000009
100
AcDbArc
 50
269.9999999999997
 51
90.0
  0
ARC
  5
237
330
1F0
100
AcDbEntity
  8
P-SANR-FIXT
100
AcDbCircle
 10
1067.114353943096
 20
1999.982558850011
 30
0.0
 40
23.79999999999973
100
AcDbArc
 50
90.0
 51
269.9999999999997
  0
ARC
  5
238
330
1F0
100
AcDbEntity
  8
P-SANR-FIXT
100
AcDbCircle
 10
1067.114353943096
 20
1999.982558850011
 30
0.0
 40
15.89999999999986
100
AcDbArc
 50
90.0
 51
269.9999999999997
  0
ARC
  5
239
330
1F0
100
AcDbEntity
  8
P-SANR-FIXT
100
AcDbCircle
 10
1067.114353943096
 20
1999.98255885001
 30
0.0
 40
24.50000000000028
100
AcDbArc
 50
270.0000000000004
 51
89.99999999999975
  0
ARC
  5
23A
330
1F0
100
AcDbEntity
  8
P-SANR-FIXT
100
AcDbCircle
 10
1067.114353943096
 20
1999.98255885001
 30
0.0
 40
24.49999999999966
100
AcDbArc
 50
90.00000000000028
 51
269.9999999999999
  0
LINE
  5
23B
330
1F0
100
AcDbEntity
  8
P-SANR-FIXT
100
AcDbLine
 10
1067.114353943097
 20
2054.282558850045
 30
0.0
 11
1086.614353943076
 21
2054.282558850045
 31
0.0
  0
SPLINE
  5
23C
330
1F0
100
AcDbEntity
  8
P-SANR-FIXT
100
AcDbSpline
210
0.0
220
0.0
230
1.0
 70
     8
 71
     3
 72
     9
 73
     5
 74
     0
 42
0.000000001
 43
0.0000000001
 40
0.0
 40
0.0
 40
0.0
 40
0.0
 40
0.5
 40
1.0
 40
1.0
 40
1.0
 40
1.0
 10
1086.748766896318
 20
2051.973157773276
 30
0.0
 10
1083.743323059666
 20
2052.935365628778
 30
0.0
 10
1077.693074905274
 20
2053.89757348428
 30
0.0
 10
1071.564105788703
 20
2052.935365628778
 30
0.0
 10
1068.479940989874
 20
2051.973157773276
 30
0.0
  0
SPLINE
  5
23D
330
1F0
100
AcDbEntity
  8
P-SANR-FIXT
100
AcDbSpline
210
0.0
220
0.0
230
1.0
 70
    24
 71
     3
 72
     8
 73
     4
 74
     0
 42
0.000000001
 43
0.0000000001
 40
0.5
 40
0.5
 40
0.5
 40
0.5
 40
1.0
 40
1.0
 40
1.0
 40
1.0
 10
1088.114353943097
 20
2053.416469556529
 30
0.0
 10
1088.114353943096
 20
2053.416469556529
 30
0.0
 10
1088.114353943096
 20
2052.935365628778
 30
0.0
 10
1088.114353943096
 20
2051.973157773276
 30
0.0
  0
LINE
  5
23E
330
1F0
100
AcDbEntity
  8
P-SANR-FIXT
100
AcDbLine
 10
1047.614353943117
 20
2054.282558850045
 30
0.0
 11
1067.114353943097
 21
2054.282558850045
 31
0.0
  0
SPLINE
  5
23F
330
1F0
100
AcDbEntity
  8
P-SANR-FIXT
100
AcDbSpline
210
0.0
220
0.0
230
1.0
 70
    24
 71
     3
 72
     9
 73
     5
 74
     0
 42
0.000000001
 43
0.0000000001
 40
0.0
 40
0.0
 40
0.0
 40
0.0
 40
0.5
 40
0.5034871490642038
 40
0.5034871490642038
 40
0.5034871490642038
 40
0.5034871490642038
 10
1046.114353943096
 20
2051.973157773276
 30
0.0
 10
1046.114353943096
 20
2052.935365628778
 30
0.0
 10
1046.114353943096
 20
2053.419824918751
 30
0.0
 10
1046.114353943097
 20
2053.416446155232
 30
0.0
 10
1046.114353943097
 20
2053.41639935264
 30
0.0
  0
SPLINE
  5
240
330
1F0
100
AcDbEntity
  8
P-SANR-FIXT
100
AcDbSpline
210
0.0
220
0.0
230
1.0
 70
     8
 71
     3
 72
     9
 73
     5
 74
     0
 42
0.000000001
 43
0.0000000001
 40
0.0
 40
0.0
 40
0.0
 40
0.0
 40
0.5
 40
1.0
 40
1.0
 40
1.0
 40
1.0
 10
1065.748766896318
 20
2051.973157773276
 30
0.0
 10
1062.743323059666
 20
2052.935365628778
 30
0.0
 10
1056.693074905274
 20
2053.89757348428
 30
0.0
 10
1050.564105788704
 20
2052.935365628778
 30
0.0
 10
1047.479940989874
 20
2051.973157773276
 30
0.0
  0
LINE
  5
241
330
1F0
100
AcDbEntity
  8
P-SANR-FIXT
100
AcDbLine
 10
1088.114353943096
 20
2040.449902858584
 30
0.0
 11
1090.614353943096
 21
2040.449902858584
 31
0.0
  0
LINE
  5
242
330
1F0
100
AcDbEntity
  8
P-SANR-FIXT
100
AcDbLine
 10
1088.114353943096
 20
2051.973157773276
 30
0.0
 11
1088.114353943096
 21
2040.449902858584
 31
0.0
  0
LINE
  5
243
330
1F0
100
AcDbEntity
  8
P-SANR-FIXT
100
AcDbLine
 10
1086.748766896318
 20
2051.973157773276
 30
0.0
 11
1088.114353943096
 21
2051.973157773276
 31
0.0
  0
LINE
  5
244
330
1F0
100
AcDbEntity
  8
P-SANR-FIXT
100
AcDbLine
 10
1086.748766896318
 20
2040.449902858584
 30
0.0
 11
1086.748766896318
 21
2051.973157773276
 31
0.0
  0
LINE
  5
245
330
1F0
100
AcDbEntity
  8
P-SANR-FIXT
100
AcDbLine
 10
1068.479940989873
 20
2040.449902858584
 30
0.0
 11
1086.748766896318
 21
2040.449902858584
 31
0.0
  0
LINE
  5
246
330
1F0
100
AcDbEntity
  8
P-SANR-FIXT
100
AcDbLine
 10
1068.479940989874
 20
2051.973157773276
 30
0.0
 11
1068.479940989874
 21
2040.449902858584
 31
0.0
  0
LINE
  5
247
330
1F0
100
AcDbEntity
  8
P-SANR-FIXT
100
AcDbLine
 10
1067.114353943096
 20
2051.973157773276
 30
0.0
 11
1068.479940989874
 21
2051.973157773276
 31
0.0
  0
LINE
  5
248
330
1F0
100
AcDbEntity
  8
P-SANR-FIXT
100
AcDbLine
 10
1065.748766896318
 20
2051.973157773276
 30
0.0
 11
1067.114353943096
 21
2051.973157773276
 31
0.0
  0
LINE
  5
249
330
1F0
100
AcDbEntity
  8
P-SANR-FIXT
100
AcDbLine
 10
1065.748766896318
 20
2040.449902858584
 30
0.0
 11
1065.748766896318
 21
2051.973157773276
 31
0.0
  0
LINE
  5
24A
330
1F0
100
AcDbEntity
  8
P-SANR-FIXT
100
AcDbLine
 10
1047.479940989874
 20
2040.449902858584
 30
0.0
 11
1065.748766896319
 21
2040.449902858584
 31
0.0
  0
LINE
  5
24B
330
1F0
100
AcDbEntity
  8
P-SANR-FIXT
100
AcDbLine
 10
1047.479940989874
 20
2051.973157773276
 30
0.0
 11
1047.479940989874
 21
2040.449902858584
 31
0.0
  0
LINE
  5
24C
330
1F0
100
AcDbEntity
  8
P-SANR-FIXT
100
AcDbLine
 10
1046.114353943096
 20
2051.973157773276
 30
0.0
 11
1047.479940989874
 21
2051.973157773276
 31
0.0
  0
LINE
  5
24D
330
1F0
100
AcDbEntity
  8
P-SANR-FIXT
100
AcDbLine
 10
1046.114353943096
 20
2040.449902858584
 30
0.0
 11
1046.114353943096
 21
2051.973157773276
 31
0.0
  0
LINE
  5
24E
330
1F0
100
AcDbEntity
  8
P-SANR-FIXT
100
AcDbLine
 10
1043.614353943097
 20
2040.449902858584
 30
0.0
 11
1046.114353943097
 21
2040.449902858584
 31
0.0
  0
LINE
  5
24F
330
1F0
100
AcDbEntity
  8
P-SANR-FIXT
100
AcDbLine
 10
1067.114353943096
 20
2039.94666046515
 30
0.0
 11
1090.614353943096
 21
2039.94666046515
 31
0.0
  0
LINE
  5
250
330
1F0
100
AcDbEntity
  8
P-SANR-FIXT
100
AcDbLine
 10
1043.614353943097
 20
2039.94666046515
 30
0.0
 11
1067.114353943096
 21
2039.94666046515
 31
0.0
  0
LINE
  5
251
330
1F0
100
AcDbEntity
  8
P-SANR-FIXT
100
AcDbLine
 10
1067.114353943096
 20
2036.482558850011
 30
0.0
 11
1096.614353943232
 21
2036.482558850011
 31
0.0
  0
LINE
  5
252
330
1F0
100
AcDbEntity
  8
P-SANR-FIXT
100
AcDbLine
 10
1037.614353942962
 20
2036.482558850011
 30
0.0
 11
1067.114353943096
 21
2036.482558850011
 31
0.0
  0
ENDBLK
  5
254
330
1F0
100
AcDbEntity
  8
0
100
AcDbBlockEnd
  0
ENDSEC
  0
SECTION
  2
ENTITIES
  0
INSERT
  5
E3
330
71
100
AcDbEntity
  8
P-SANR-FIXT
100
AcDbBlockReference
  2
Automatic flow rate regulator valve_Caleffi_121 DN15 - 1_2__-859151-Est - Idraulica
 10
0.0
 20
0.0
 30
0.0
1001
REVIT
1002
{
1070
     1
1000
863131
1002
}
1002
{
1070
     5
1000
859151
1002
}
1002
{
1070
     2
1000
-2001160
1002
}
  0
INSERT
  5
1EF
330
71
100
AcDbEntity
  8
P-SANR-FIXT
100
AcDbBlockReference
  2
Automatic flow rate regulator valve_Caleffi_121 DN15 - 1_2__-V1-Est - Idraulica
 10
0.0
 20
0.0
 30
0.0
1001
REVIT
1002
{
1070
     1
1000
863152
1002
}
1002
{
1070
     5
1000
859151
1002
}
1002
{
1070
     2
1000
-2001160
1002
}
  0
INSERT
  5
255
330
71
100
AcDbEntity
  8
P-SANR-FIXT
100
AcDbBlockReference
  2
Automatic flow rate regulator valve_Caleffi_121 DN15 - 1_2__-V2-Est - Idraulica
 10
0.0
 20
0.0
 30
0.0
1001
REVIT
1002
{
1070
     1
1000
863172
1002
}
1002
{
1070
     5
1000
859151
1002
}
1002
{
1070
     2
1000
-2001160
1002
}
  0
ENDSEC
  0
SECTION
  2
OBJECTS
  0
DICTIONARY
  5
C
330
0
100
AcDbDictionary
281
     1
  3
ACAD_CIP_PREVIOUS_PRODUCT_INFO
350
7A
  3
ACAD_COLOR
350
63
  3
ACAD_DETAILVIEWSTYLE
350
6B
  3
ACAD_GROUP
350
D
  3
ACAD_IMAGE_VARS
350
7B
  3
ACAD_LAYOUT
350
62
  3
ACAD_MATERIAL
350
10
  3
ACAD_MLEADERSTYLE
350
66
  3
ACAD_MLINESTYLE
350
5F
  3
ACAD_PLOTSETTINGS
350
61
  3
ACAD_PLOTSTYLENAME
350
E
  3
ACAD_SCALELIST
350
42
  3
ACAD_SECTIONVIEWSTYLE
350
68
  3
ACAD_TABLESTYLE
350
64
  3
ACAD_VISUALSTYLE
350
29
  3
ACDB_RECOMPOSE_DATA
350
25F
  3
AcDbVariableDictionary
350
7C
  3
REVIT_DICTIONARY
350
257
  0
DICTIONARY
  5
25B
330
71
100
AcDbDictionary
280
     1
281
     1
  3
ACAD_SORTENTS
360
25C
  0
XRECORD
  5
7A
102
{ACAD_REACTORS
330
C
102
}
330
C
100
AcDbXrecord
280
     1
300
RVT
300
2013
300
RVT2013
  0
DICTIONARY
  5
63
102
{ACAD_REACTORS
330
C
102
}
330
C
100
AcDbDictionary
281
     1
  0
DICTIONARY
  5
6B
102
{ACAD_REACTORS
330
C
102
}
330
C
100
AcDbDictionary
281
     1
  3
Imperial24
350
6C
  0
DICTIONARY
  5
D
102
{ACAD_REACTORS
330
C
102
}
330
C
100
AcDbDictionary
281
     1
  0
RASTERVARIABLES
  5
7B
102
{ACAD_REACTORS
330
C
102
}
330
C
100
AcDbRasterVariables
 90
        0
 70
     0
 71
     1
 72
     1
  0
DICTIONARY
  5
62
102
{ACAD_REACTORS
330
C
102
}
330
C
100
AcDbDictionary
281
     1
  3
Layout1
350
70
  3
Layout2
350
78
  3
Model
350
74
  0
DICTIONARY
  5
10
102
{ACAD_REACTORS
330
C
102
}
330
C
100
AcDbDictionary
281
     1
  3
ByBlock
350
19
  3
ByLayer
350
11
  3
Global
350
21
  0
DICTIONARY
  5
66
102
{ACAD_REACTORS
330
C
102
}
330
C
100
AcDbDictionary
281
     1
  3
Standard
350
67
  0
DICTIONARY
  5
5F
102
{ACAD_REACTORS
330
C
102
}
330
C
100
AcDbDictionary
281
     1
  3
Standard
350
60
  0
DICTIONARY
  5
61
102
{ACAD_REACTORS
330
C
102
}
330
C
100
AcDbDictionary
281
     1
  0
ACDBDICTIONARYWDFLT
  5
E
102
{ACAD_REACTORS
330
C
102
}
330
C
100
AcDbDictionary
281
     1
  3
Normal
350
F
100
AcDbDictionaryWithDefault
340
F
  0
DICTIONARY
  5
42
102
{ACAD_REACTORS
330
C
102
}
330
C
100
AcDbDictionary
281
     1
  3
A0
350
43
  3
A1
350
44
  3
A2
350
45
  3
A3
350
46
  3
A4
350
47
  3
A5
350
48
  3
A6
350
49
  3
A7
350
4A
  3
A8
350
4B
  3
A9
350
4C
  3
B0
350
4D
  3
B1
350
4E
  3
B2
350
4F
  3
B3
350
50
  3
B4
350
51
  3
B5
350
52
  3
B6
350
53
  0
DICTIONARY
  5
68
102
{ACAD_REACTORS
330
C
102
}
330
C
100
AcDbDictionary
281
     1
  3
Imperial24
350
6A
  0
DICTIONARY
  5
64
102
{ACAD_REACTORS
330
C
102
}
330
C
100
AcDbDictionary
281
     1
  3
Standard
350
65
  0
DICTIONARY
  5
29
102
{ACAD_REACTORS
330
C
102
}
330
C
100
AcDbDictionary
281
     1
  3
2dWireframe
350
2F
  3
Basic
350
2E
  3
Brighten
350
35
  3
ColorChange
350
39
  3
Conceptual
350
32
  3
Dim
350
34
  3
EdgeColorOff
350
41
  3
Facepattern
350
38
  3
Flat
350
2A
  3
FlatWithEdges
350
2B
  3
Gouraud
350
2C
  3
GouraudWithEdges
350
2D
  3
Hidden
350
31
  3
JitterOff
350
3F
  3
Linepattern
350
37
  3
OverhangOff
350
40
  3
Realistic
350
33
  3
Shaded
350
3E
  3
Shaded with edges
350
3D
  3
Shades of Gray
350
3A
  3
Sketchy
350
3B
  3
Thicken
350
36
  3
Wireframe
350
30
  3
X-Ray
350
3C
  0
XRECORD
  5
25F
102
{ACAD_REACTORS
330
C
102
}
330
C
100
AcDbXrecord
280
     1
 90
        1
330
65
  0
DICTIONARY
  5
7C
102
{ACAD_REACTORS
330
C
102
}
330
C
100
AcDbDictionary
281
     1
  3
CANNOSCALE
350
81
  3
CMLEADERSTYLE
350
7E
  3
CTABLESTYLE
350
7D
  3
CVIEWDETAILSTYLE
350
7F
  3
CVIEWSECTIONSTYLE
350
80
  0
DICTIONARY
  5
257
102
{ACAD_REACTORS
330
C
102
}
330
C
100
AcDbDictionary
281
     1
  3
DRAWING_TOOL
350
25A
  3
REVIT_CATEGORY_MAPPING
350
259
  3
REVIT_TYPE_MAPPING
350
258
  0
SORTENTSTABLE
  5
25C
102
{ACAD_REACTORS
330
25B
102
}
330
25B
100
AcDbSortentsTable
330
71
  0
ACDBDETAILVIEWSTYLE
  5
6C
102
{ACAD_REACTORS
330
6B
102
}
330
6B
100
AcDbModelDocViewStyle
 70
     0
  3
Imperial24
290
     1
100
AcDbDetailViewStyle
 70
     0
 71
     0
 90
        3
 71
     1
340
55
 62
   256
 40
0.24
340
0
 62
   256
 40
0.24
300

 40
0.36
280
     3
 71
     2
340
5D
 90
       25
 62
   256
 71
     3
340
55
 62
   256
 40
0.24
 90
        1
 40
0.75
 90
        1
300
%<\AcVar ViewType \f "%tc1">% %<\AcVar ViewDetailId>%\PSCALA %<\AcVar ViewScale \f "%sn">%
 71
     4
340
5D
 90
       25
 62
   256
340
5D
 90
       25
 62
   256
280
     0
  0
LAYOUT
  5
70
102
{ACAD_REACTORS
330
62
102
}
330
62
100
AcDbPlotSettings
  1

  2

  4

  6

 40
0.0
 41
0.0
 42
0.0
 43
0.0
 44
0.0
 45
0.0
 46
0.0
 47
0.0
 48
0.0
 49
0.0
140
0.0
141
0.0
142
1.0
143
1.0
 70
   688
 72
     0
 73
     0
 74
     5
  7

 75
    16
147
1.0
 76
     0
 77
     2
 78
   300
148
0.0
149
0.0
100
AcDbLayout
  1
Layout1
 70
     1
 71
     1
 10
0.0
 20
0.0
 11
12.0
 21
9.0
 12
0.0
 22
0.0
 32
0.0
 14
0.0
 24
0.0
 34
0.0
 15
0.0
 25
0.0
 35
0.0
146
0.0
 13
0.0
 23
0.0
 33
0.0
 16
1.0
 26
0.0
 36
0.0
 17
0.0
 27
1.0
 37
0.0
 76
     0
330
6D
  0
LAYOUT
  5
78
102
{ACAD_REACTORS
330
62
102
}
330
62
100
AcDbPlotSettings
  1

  2

  4

  6

 40
0.0
 41
0.0
 42
0.0
 43
0.0
 44
0.0
 45
0.0
 46
0.0
 47
0.0
 48
0.0
 49
0.0
140
0.0
141
0.0
142
1.0
143
1.0
 70
   688
 72
     0
 73
     0
 74
     5
  7

 75
    16
147
1.0
 76
     0
 77
     2
 78
   300
148
0.0
149
0.0
100
AcDbLayout
  1
Layout2
 70
     1
 71
     2
 10
0.0
 20
0.0
 11
12.0
 21
9.0
 12
0.0
 22
0.0
 32
0.0
 14
0.0
 24
0.0
 34
0.0
 15
0.0
 25
0.0
 35
0.0
146
0.0
 13
0.0
 23
0.0
 33
0.0
 16
1.0
 26
0.0
 36
0.0
 17
0.0
 27
1.0
 37
0.0
 76
     0
330
75
  0
LAYOUT
  5
74
102
{ACAD_REACTORS
330
62
102
}
330
62
100
AcDbPlotSettings
  1

  2

  4

  6

 40
0.0
 41
0.0
 42
0.0
 43
0.0
 44
0.0
 45
0.0
 46
0.0
 47
0.0
 48
0.0
 49
0.0
140
0.0
141
0.0
142
1.0
143
1.0
 70
  1712
 72
     0
 73
     0
 74
     0
  7

 75
     0
147
1.0
 76
     0
 77
     2
 78
   300
148
0.0
149
0.0
100
AcDbLayout
  1
Model
 70
     1
 71
     0
 10
0.0
 20
0.0
 11
12.0
 21
9.0
 12
0.0
 22
0.0
 32
0.0
 14
0.0
 24
0.0
 34
0.0
 15
0.0
 25
0.0
 35
0.0
146
0.0
 13
0.0
 23
0.0
 33
0.0
 16
1.0
 26
0.0
 36
0.0
 17
0.0
 27
1.0
 37
0.0
 76
     0
330
71
  0
MATERIAL
  5
19
102
{ACAD_XDICTIONARY
360
1A
102
}
102
{ACAD_REACTORS
330
10
102
}
330
10
100
AcDbMaterial
  1
ByBlock
 72
     0
 43
0.0208333333333333
 43
0.0
 43
0.0
 43
0.0
 43
0.0
 43
0.0208333333333333
 43
0.0
 43
0.0
 43
0.0
 43
0.0
 43
1.0
 43
0.0
 43
0.0
 43
0.0
 43
0.0
 43
1.0
 77
     0
 47
0.0208333333333333
 47
0.0
 47
0.0
 47
0.0
 47
0.0
 47
0.0208333333333333
 47
0.0
 47
0.0
 47
0.0
 47
0.0
 47
1.0
 47
0.0
 47
0.0
 47
0.0
 47
0.0
 47
1.0
171
     0
 49
0.0208333333333333
 49
0.0
 49
0.0
 49
0.0
 49
0.0
 49
0.0208333333333333
 49
0.0
 49
0.0
 49
0.0
 49
0.0
 49
1.0
 49
0.0
 49
0.0
 49
0.0
 49
0.0
 49
1.0
175
     0
142
0.0208333333333333
142
0.0
142
0.0
142
0.0
142
0.0
142
0.0208333333333333
142
0.0
142
0.0
142
0.0
142
0.0
142
1.0
142
0.0
142
0.0
142
0.0
142
0.0
142
1.0
179
     0
144
0.0208333333333333
144
0.0
144
0.0
144
0.0
144
0.0
144
0.0208333333333333
144
0.0
144
0.0
144
0.0
144
0.0
144
1.0
144
0.0
144
0.0
144
0.0
144
0.0
144
1.0
147
0.0208333333333333
147
0.0
147
0.0
147
0.0
147
0.0
147
0.0208333333333333
147
0.0
147
0.0
147
0.0
147
0.0
147
1.0
147
0.0
147
0.0
147
0.0
147
0.0
147
1.0
  0
MATERIAL
  5
11
102
{ACAD_XDICTIONARY
360
12
102
}
102
{ACAD_REACTORS
330
10
102
}
330
10
100
AcDbMaterial
  1
ByLayer
 72
     0
 43
0.0208333333333333
 43
0.0
 43
0.0
 43
0.0
 43
0.0
 43
0.0208333333333333
 43
0.0
 43
0.0
 43
0.0
 43
0.0
 43
1.0
 43
0.0
 43
0.0
 43
0.0
 43
0.0
 43
1.0
 77
     0
 47
0.0208333333333333
 47
0.0
 47
0.0
 47
0.0
 47
0.0
 47
0.0208333333333333
 47
0.0
 47
0.0
 47
0.0
 47
0.0
 47
1.0
 47
0.0
 47
0.0
 47
0.0
 47
0.0
 47
1.0
171
     0
 49
0.0208333333333333
 49
0.0
 49
0.0
 49
0.0
 49
0.0
 49
0.0208333333333333
 49
0.0
 49
0.0
 49
0.0
 49
0.0
 49
1.0
 49
0.0
 49
0.0
 49
0.0
 49
0.0
 49
1.0
175
     0
142
0.0208333333333333
142
0.0
142
0.0
142
0.0
142
0.0
142
0.0208333333333333
142
0.0
142
0.0
142
0.0
142
0.0
142
1.0
142
0.0
142
0.0
142
0.0
142
0.0
142
1.0
179
     0
144
0.0208333333333333
144
0.0
144
0.0
144
0.0
144
0.0
144
0.0208333333333333
144
0.0
144
0.0
144
0.0
144
0.0
144
1.0
144
0.0
144
0.0
144
0.0
144
0.0
144
1.0
147
0.0208333333333333
147
0.0
147
0.0
147
0.0
147
0.0
147
0.0208333333333333
147
0.0
147
0.0
147
0.0
147
0.0
147
1.0
147
0.0
147
0.0
147
0.0
147
0.0
147
1.0
  0
MATERIAL
  5
21
102
{ACAD_XDICTIONARY
360
22
102
}
102
{ACAD_REACTORS
330
10
102
}
330
10
100
AcDbMaterial
  1
Global
 72
     0
 43
0.0208333333333333
 43
0.0
 43
0.0
 43
0.0
 43
0.0
 43
0.0208333333333333
 43
0.0
 43
0.0
 43
0.0
 43
0.0
 43
1.0
 43
0.0
 43
0.0
 43
0.0
 43
0.0
 43
1.0
 77
     0
 47
0.0208333333333333
 47
0.0
 47
0.0
 47
0.0
 47
0.0
 47
0.0208333333333333
 47
0.0
 47
0.0
 47
0.0
 47
0.0
 47
1.0
 47
0.0
 47
0.0
 47
0.0
 47
0.0
 47
1.0
171
     0
 49
0.0208333333333333
 49
0.0
 49
0.0
 49
0.0
 49
0.0
 49
0.0208333333333333
 49
0.0
 49
0.0
 49
0.0
 49
0.0
 49
1.0
 49
0.0
 49
0.0
 49
0.0
 49
0.0
 49
1.0
175
     0
142
0.0208333333333333
142
0.0
142
0.0
142
0.0
142
0.0
142
0.0208333333333333
142
0.0
142
0.0
142
0.0
142
0.0
142
1.0
142
0.0
142
0.0
142
0.0
142
0.0
142
1.0
179
     0
144
0.0208333333333333
144
0.0
144
0.0
144
0.0
144
0.0
144
0.0208333333333333
144
0.0
144
0.0
144
0.0
144
0.0
144
1.0
144
0.0
144
0.0
144
0.0
144
0.0
144
1.0
147
0.0208333333333333
147
0.0
147
0.0
147
0.0
147
0.0
147
0.0208333333333333
147
0.0
147
0.0
147
0.0
147
0.0
147
1.0
147
0.0
147
0.0
147
0.0
147
0.0
147
1.0
  0
MLEADERSTYLE
  5
67
102
{ACAD_REACTORS
330
66
102
}
330
66
100
AcDbMLeaderStyle
179
     2
170
     2
171
     1
172
     0
 90
        2
 40
0.0
 41
0.0
173
     1
 91
-1056964608
340
5B
 92
       -2
290
     1
 42
0.09
291
     1
 43
0.36
  3
Standard
 44
0.18
300

342
55
174
     1
178
     6
175
     1
176
     0
 93
-1056964608
 45
0.18
292
     0
297
     0
 46
0.18
 94
-1056964608
 47
1.0
 49
1.0
140
1.0
293
     1
141
0.0
294
     1
177
     0
142
1.0
295
     1
296
     0
143
0.125
271
     0
272
     9
273
     9
298
     1
  0
MLINESTYLE
  5
60
102
{ACAD_REACTORS
330
5F
102
}
330
5F
100
AcDbMlineStyle
  2
STANDARD
 70
     0
  3

 62
   256
 51
90.0
 52
90.0
 71
     2
 49
0.5
 62
   256
  6
BYLAYER
 49
-0.5
 62
   256
  6
BYLAYER
  0
ACDBPLACEHOLDER
  5
F
102
{ACAD_REACTORS
330
E
102
}
330
E
  0
SCALE
  5
43
102
{ACAD_REACTORS
330
42
102
}
330
42
100
AcDbScale
 70
     0
300
1:1
140
1.0
141
1.0
290
     1
  0
SCALE
  5
44
102
{ACAD_REACTORS
330
42
102
}
330
42
100
AcDbScale
 70
     0
300
1/128" = 1'-0"
140
0.0078125
141
12.0
290
     0
  0
SCALE
  5
45
102
{ACAD_REACTORS
330
42
102
}
330
42
100
AcDbScale
 70
     0
300
1/64" = 1'-0"
140
0.015625
141
12.0
290
     0
  0
SCALE
  5
46
102
{ACAD_REACTORS
330
42
102
}
330
42
100
AcDbScale
 70
     0
300
1/32" = 1'-0"
140
0.03125
141
12.0
290
     0
  0
SCALE
  5
47
102
{ACAD_REACTORS
330
42
102
}
330
42
100
AcDbScale
 70
     0
300
1/16" = 1'-0"
140
0.0625
141
12.0
290
     0
  0
SCALE
  5
48
102
{ACAD_REACTORS
330
42
102
}
330
42
100
AcDbScale
 70
     0
300
3/32" = 1'-0"
140
0.09375
141
12.0
290
     0
  0
SCALE
  5
49
102
{ACAD_REACTORS
330
42
102
}
330
42
100
AcDbScale
 70
     0
300
1/8" = 1'-0"
140
0.125
141
12.0
290
     0
  0
SCALE
  5
4A
102
{ACAD_REACTORS
330
42
102
}
330
42
100
AcDbScale
 70
     0
300
3/16" = 1'-0"
140
0.1875
141
12.0
290
     0
  0
SCALE
  5
4B
102
{ACAD_REACTORS
330
42
102
}
330
42
100
AcDbScale
 70
     0
300
1/4" = 1'-0"
140
0.25
141
12.0
290
     0
  0
SCALE
  5
4C
102
{ACAD_REACTORS
330
42
102
}
330
42
100
AcDbScale
 70
     0
300
3/8" = 1'-0"
140
0.375
141
12.0
290
     0
  0
SCALE
  5
4D
102
{ACAD_REACTORS
330
42
102
}
330
42
100
AcDbScale
 70
     0
300
1/2" = 1'-0"
140
0.5
141
12.0
290
     0
  0
SCALE
  5
4E
102
{ACAD_REACTORS
330
42
102
}
330
42
100
AcDbScale
 70
     0
300
3/4" = 1'-0"
140
0.75
141
12.0
290
     0
  0
SCALE
  5
4F
102
{ACAD_REACTORS
330
42
102
}
330
42
100
AcDbScale
 70
     0
300
1" = 1'-0"
140
1.0
141
12.0
290
     0
  0
SCALE
  5
50
102
{ACAD_REACTORS
330
42
102
}
330
42
100
AcDbScale
 70
     0
300
1-1/2" = 1'-0"
140
1.5
141
12.0
290
     0
  0
SCALE
  5
51
102
{ACAD_REACTORS
330
42
102
}
330
42
100
AcDbScale
 70
     0
300
3" = 1'-0"
140
3.0
141
12.0
290
     0
  0
SCALE
  5
52
102
{ACAD_REACTORS
330
42
102
}
330
42
100
AcDbScale
 70
     0
300
6" = 1'-0"
140
6.0
141
12.0
290
     0
  0
SCALE
  5
53
102
{ACAD_REACTORS
330
42
102
}
330
42
100
AcDbScale
 70
     0
300
1'-0" = 1'-0"
140
12.0
141
12.0
290
     0
  0
ACDBSECTIONVIEWSTYLE
  5
6A
102
{ACAD_REACTORS
330
68
102
}
330
68
100
AcDbModelDocViewStyle
 70
     0
  3
Imperial24
290
     1
100
AcDbSectionViewStyle
 70
     0
 71
     0
 90
       78
 71
     1
340
55
 62
   256
 40
0.24
340
0
340
0
 62
   256
 40
0.24
300
I, O, Q, S, X, Z
 40
0.48
 90
        3
 40
0.18
 90
        1
 71
     2
340
69
 90
       25
 62
   256
340
5D
 90
       50
 62
   256
 40
0.24
 40
0.0
 40
0.24
 71
     3
340
55
 62
   256
 40
0.24
 90
        1
 40
0.75
 90
        1
300
%<\AcVar ViewType \f "%tc1">% %<\AcVar ViewSectionStartId>%-%<\AcVar ViewSectionEndId>%\PSCALA %<\AcVar ViewScale \f "%sn">%
 71
     4
 62
   256
 62
   257
300
ANSI31
 40
1.0
 90
        0
290
     0
290
     0
 90
        6
 40
0.0
 40
1.570796326794896
 40
0.2617993877991494
 40
1.308996938995747
 40
-0.2617993877991494
 40
1.832595714594046
  0
TABLESTYLE
  5
65
102
{ACAD_XDICTIONARY
360
25D
102
}
102
{ACAD_REACTORS
330
64
102
}
330
64
100
AcDbTableStyle
280
     0
  3
Standard
 70
     0
 71
     0
 40
0.06
 41
0.06
280
     0
281
     0
  7
Standard
140
0.18
170
     2
 62
     0
 63
     7
283
     0
 90
      512
 91
        0
  1

274
    -2
284
     1
 64
     0
275
    -2
285
     1
 65
     0
276
    -2
286
     1
 66
     0
277
    -2
287
     1
 67
     0
278
    -2
288
     1
 68
     0
279
    -2
289
     1
 69
     0
  7
Standard
140
0.25
170
     5
 62
     0
 63
     7
283
     0
 90
      512
 91
        0
  1

274
    -2
284
     1
 64
     0
275
    -2
285
     1
 65
     0
276
    -2
286
     1
 66
     0
277
    -2
287
     1
 67
     0
278
    -2
288
     1
 68
     0
279
    -2
289
     1
 69
     0
  7
Standard
140
0.18
170
     5
 62
     0
 63
     7
283
     0
 90
      512
 91
        0
  1

274
    -2
284
     1
 64
     0
275
    -2
285
     1
 65
     0
276
    -2
286
     1
 66
     0
277
    -2
287
     1
 67
     0
278
    -2
288
     1
 68
     0
279
    -2
289
     1
 69
     0
  0
VISUALSTYLE
  5
2F
102
{ACAD_REACTORS
330
29
102
}
330
29
100
AcDbVisualStyle
  2
2dWireframe
 70
     4
177
     3
291
     0
 70
    58
 90
        0
176
     1
 90
        2
176
     1
 90
        0
176
     1
 90
        0
176
     1
 40
0.6
176
     1
 40
30.0
176
     1
 62
     7
420
 16777215
176
     1
 90
        1
176
     1
 90
        4
176
     1
 62
     7
176
     1
 62
   257
176
     1
 90
        1
176
     1
 90
        1
176
     1
 40
1.0
176
     1
 90
        0
176
     1
 62
   257
176
     1
 40
1.0
176
     1
 90
        1
176
     1
 90
        6
176
     1
 90
        2
176
     1
 62
     7
176
     1
 90
        5
176
     1
 90
        0
176
     1
 90
        0
176
     1
290
     0
176
     1
 90
        1
176
     1
 40
0.0
176
     1
 90
        0
176
     1
290
     1
176
     1
290
     1
176
     1
290
     0
176
     1
290
     0
176
     1
290
     0
176
     1
290
     0
176
     1
290
     0
176
     1
290
     0
176
     1
290
     0
176
     1
 90
       50
176
     1
 40
0.0
176
     1
 40
1.0
176
     1
 90
        0
176
     1
 62
    18
420
        0
176
     1
 90
       50
176
     1
 90
        3
176
     1
 62
     5
420
      255
176
     1
290
     0
176
     1
 90
       50
176
     1
 90
       50
176
     1
 90
       50
176
     1
290
     0
176
     1
 90
       50
176
     1
 62
   256
176
     0
 40
1.0
176
     0
 90
        2
176
     1
  1
strokes_ogs.tif
176
     1
290
     0
176
     1
 40
1.0
176
     1
 40
1.0
176
     1
  0
VISUALSTYLE
  5
2E
102
{ACAD_REACTORS
330
29
102
}
330
29
100
AcDbVisualStyle
  2
Basic
 70
     7
177
     3
291
     1
 70
    58
 90
        1
176
     1
 90
        0
176
     1
 90
        1
176
     1
 90
        0
176
     1
 40
0.6
176
     1
 40
30.0
176
     1
 62
     7
420
 16777215
176
     1
 90
        0
176
     1
 90
        4
176
     1
 62
     7
176
     1
 62
   257
176
     1
 90
        1
176
     1
 90
        1
176
     1
 40
1.0
176
     1
 90
        8
176
     1
 62
     7
176
     1
 40
1.0
176
     1
 90
        1
176
     1
 90
        6
176
     1
 90
        2
176
     1
 62
     7
176
     1
 90
        5
176
     1
 90
        0
176
     1
 90
        0
176
     1
290
     0
176
     1
 90
        1
176
     1
 40
0.0
176
     1
 90
        0
176
     1
290
     0
176
     1
290
     1
176
     1
290
     1
176
     1
290
     0
176
     1
290
     0
176
     1
290
     0
176
     1
290
     0
176
     1
290
     0
176
     1
290
     0
176
     1
 90
       50
176
     1
 40
0.0
176
     1
 40
1.0
176
     1
 90
        0
176
     1
 62
    18
420
        0
176
     1
 90
       50
176
     1
 90
        3
176
     1
 62
     5
420
      255
176
     1
290
     0
176
     1
 90
       50
176
     1
 90
       50
176
     1
 90
       50
176
     1
290
     0
176
     1
 90
       50
176
     1
 62
   256
176
     0
 40
1.0
176
     0
 90
        2
176
     1
  1
strokes_ogs.tif
176
     1
290
     0
176
     1
 40
1.0
176
     1
 40
1.0
176
     1
  0
VISUALSTYLE
  5
35
102
{ACAD_REACTORS
330
29
102
}
330
29
100
AcDbVisualStyle
  2
Brighten
 70
    12
177
     3
291
     1
 70
    58
 90
        2
176
     1
 90
        2
176
     1
 90
        0
176
     1
 90
        0
176
     1
 40
0.6
176
     1
 40
30.0
176
     1
 62
     7
420
 16777215
176
     1
 90
        1
176
     1
 90
        4
176
     1
 62
     7
176
     1
 62
   257
176
     1
 90
        1
176
     1
 90
        1
176
     1
 40
1.0
176
     1
 90
        8
176
     1
 62
     7
176
     1
 40
1.0
176
     1
 90
        1
176
     1
 90
        6
176
     1
 90
        2
176
     1
 62
     7
176
     1
 90
        5
176
     1
 90
        0
176
     1
 90
        0
176
     1
290
     0
176
     1
 90
        1
176
     1
 40
50.0
176
     1
 90
        0
176
     1
290
     0
176
     1
290
     1
176
     1
290
     1
176
     1
290
     0
176
     1
290
     0
176
     1
290
     0
176
     1
290
     0
176
     1
290
     0
176
     1
290
     0
176
     1
 90
       50
176
     1
 40
0.0
176
     1
 40
1.0
176
     1
 90
        0
176
     1
 62
    18
420
        0
176
     1
 90
       50
176
     1
 90
        3
176
     1
 62
     5
420
      255
176
     1
290
     0
176
     1
 90
       50
176
     1
 90
       50
176
     1
 90
       50
176
     1
290
     0
176
     1
 90
       50
176
     1
 62
   256
176
     0
 40
1.0
176
     0
 90
        2
176
     1
  1
strokes_ogs.tif
176
     1
290
     0
176
     1
 40
1.0
176
     1
 40
1.0
176
     1
  0
VISUALSTYLE
  5
39
102
{ACAD_REACTORS
330
29
102
}
330
29
100
AcDbVisualStyle
  2
ColorChange
 70
    16
177
     3
291
     1
 70
    58
 90
        2
176
     1
 90
        2
176
     1
 90
        3
176
     1
 90
        0
176
     1
 40
0.6
176
     1
 40
30.0
176
     1
 62
     8
420
  8421504
176
     1
 90
        1
176
     1
 90
        4
176
     1
 62
     7
176
     1
 62
   257
176
     1
 90
        1
176
     1
 90
        1
176
     1
 40
1.0
176
     1
 90
        8
176
     1
 62
     8
420
  8421504
176
     1
 40
1.0
176
     1
 90
        1
176
     1
 90
        6
176
     1
 90
        2
176
     1
 62
     7
176
     1
 90
        5
176
     1
 90
        0
176
     1
 90
        0
176
     1
290
     0
176
     1
 90
        1
176
     1
 40
0.0
176
     1
 90
        0
176
     1
290
     0
176
     1
290
     1
176
     1
290
     1
176
     1
290
     0
176
     1
290
     0
176
     1
290
     0
176
     1
290
     0
176
     1
290
     0
176
     1
290
     0
176
     1
 90
       50
176
     1
 40
0.0
176
     1
 40
1.0
176
     1
 90
        0
176
     1
 62
    18
420
        0
176
     1
 90
       50
176
     1
 90
        3
176
     1
 62
     5
420
      255
176
     1
290
     0
176
     1
 90
       50
176
     1
 90
       50
176
     1
 90
       50
176
     1
290
     0
176
     1
 90
       50
176
     1
 62
   256
176
     0
 40
1.0
176
     0
 90
        2
176
     1
  1
strokes_ogs.tif
176
     1
290
     0
176
     1
 40
1.0
176
     1
 40
1.0
176
     1
  0
VISUALSTYLE
  5
32
102
{ACAD_REACTORS
330
29
102
}
330
29
100
AcDbVisualStyle
  2
Conceptual
 70
     9
177
     3
291
     0
 70
    58
 90
        3
176
     1
 90
        2
176
     1
 90
        0
176
     1
 90
        0
176
     1
 40
0.6
176
     1
 40
30.0
176
     1
 62
     7
420
 16777215
176
     1
 90
        2
176
     1
 90
        2
176
     1
 62
     7
176
     1
 62
   257
176
     1
 90
        1
176
     1
 90
        1
176
     1
 40
179.0
176
     1
 90
        8
176
     1
 62
     7
176
     1
 40
1.0
176
     1
 90
        1
176
     1
 90
        6
176
     1
 90
        2
176
     1
 62
     7
176
     1
 90
        3
176
     1
 90
        0
176
     1
 90
        0
176
     1
290
     0
176
     1
 90
        1
176
     1
 40
0.0
176
     1
 90
        0
176
     1
290
     0
176
     1
290
     1
176
     1
290
     1
176
     1
290
     0
176
     1
290
     0
176
     1
290
     0
176
     1
290
     0
176
     1
290
     0
176
     1
290
     0
176
     1
 90
       50
176
     1
 40
0.0
176
     1
 40
1.0
176
     1
 90
        0
176
     1
 62
    18
420
        0
176
     1
 90
       50
176
     1
 90
        3
176
     1
 62
     5
420
      255
176
     1
290
     0
176
     1
 90
       50
176
     1
 90
       50
176
     1
 90
       50
176
     1
290
     0
176
     1
 90
       50
176
     1
 62
   256
176
     0
 40
1.0
176
     0
 90
        2
176
     1
  1
strokes_ogs.tif
176
     1
290
     0
176
     1
 40
1.0
176
     1
 40
1.0
176
     1
  0
VISUALSTYLE
  5
34
102
{ACAD_REACTORS
330
29
102
}
330
29
100
AcDbVisualStyle
  2
Dim
 70
    11
177
     3
291
     1
 70
    58
 90
        2
176
     1
 90
        2
176
     1
 90
        0
176
     1
 90
        0
176
     1
 40
0.6
176
     1
 40
30.0
176
     1
 62
     7
420
 16777215
176
     1
 90
        1
176
     1
 90
        4
176
     1
 62
     7
176
     1
 62
   257
176
     1
 90
        1
176
     1
 90
        1
176
     1
 40
1.0
176
     1
 90
        8
176
     1
 62
     7
176
     1
 40
1.0
176
     1
 90
        1
176
     1
 90
        6
176
     1
 90
        2
176
     1
 62
     7
176
     1
 90
        5
176
     1
 90
        0
176
     1
 90
        0
176
     1
290
     0
176
     1
 90
        1
176
     1
 40
-50.0
176
     1
 90
        0
176
     1
290
     0
176
     1
290
     1
176
     1
290
     1
176
     1
290
     0
176
     1
290
     0
176
     1
290
     0
176
     1
290
     0
176
     1
290
     0
176
     1
290
     0
176
     1
 90
       50
176
     1
 40
0.0
176
     1
 40
1.0
176
     1
 90
        0
176
     1
 62
    18
420
        0
176
     1
 90
       50
176
     1
 90
        3
176
     1
 62
     5
420
      255
176
     1
290
     0
176
     1
 90
       50
176
     1
 90
       50
176
     1
 90
       50
176
     1
290
     0
176
     1
 90
       50
176
     1
 62
   256
176
     0
 40
1.0
176
     0
 90
        2
176
     1
  1
strokes_ogs.tif
176
     1
290
     0
176
     1
 40
1.0
176
     1
 40
1.0
176
     1
  0
VISUALSTYLE
  5
41
102
{ACAD_REACTORS
330
29
102
}
330
29
100
AcDbVisualStyle
  2
EdgeColorOff
 70
    22
177
     3
291
     1
 70
    58
 90
        2
176
     0
 90
        2
176
     0
 90
        0
176
     0
 90
        0
176
     0
 40
0.6
176
     0
 40
30.0
176
     0
 62
     7
420
 16777215
176
     0
 90
        1
176
     0
 90
        4
176
     0
 62
     7
176
     0
 62
   257
176
     0
 90
        1
176
     0
 90
        1
176
     0
 40
1.0
176
     0
 90
        8
176
     2
 62
     7
176
     0
 40
1.0
176
     0
 90
        1
176
     0
 90
        6
176
     0
 90
        2
176
     0
 62
     7
176
     0
 90
        5
176
     0
 90
        0
176
     0
 90
        0
176
     0
290
     0
176
     0
 90
        1
176
     0
 40
0.0
176
     0
 90
        0
176
     0
290
     0
176
     0
290
     1
176
     0
290
     1
176
     0
290
     0
176
     0
290
     0
176
     0
290
     0
176
     0
290
     0
176
     0
290
     0
176
     0
290
     0
176
     0
 90
       50
176
     0
 40
0.0
176
     0
 40
1.0
176
     0
 90
        0
176
     0
 62
    18
420
        0
176
     0
 90
       50
176
     0
 90
        3
176
     0
 62
     5
420
      255
176
     0
290
     0
176
     0
 90
       50
176
     0
 90
       50
176
     0
 90
       50
176
     0
290
     0
176
     0
 90
       50
176
     0
 62
   256
176
     0
 40
1.0
176
     0
 90
        2
176
     0
  1
strokes_ogs.tif
176
     0
290
     0
176
     0
 40
1.0
176
     0
 40
1.0
176
     0
  0
VISUALSTYLE
  5
38
102
{ACAD_REACTORS
330
29
102
}
330
29
100
AcDbVisualStyle
  2
Facepattern
 70
    15
177
     3
291
     1
 70
    58
 90
        2
176
     1
 90
        2
176
     1
 90
        0
176
     1
 90
        0
176
     1
 40
0.6
176
     1
 40
30.0
176
     1
 62
     7
420
 16777215
176
     1
 90
        1
176
     1
 90
        4
176
     1
 62
     7
176
     1
 62
   257
176
     1
 90
        1
176
     1
 90
        1
176
     1
 40
1.0
176
     1
 90
        8
176
     1
 62
     7
176
     1
 40
1.0
176
     1
 90
        1
176
     1
 90
        6
176
     1
 90
        2
176
     1
 62
     7
176
     1
 90
        5
176
     1
 90
        0
176
     1
 90
        0
176
     1
290
     0
176
     1
 90
        1
176
     1
 40
0.0
176
     1
 90
        0
176
     1
290
     0
176
     1
290
     1
176
     1
290
     1
176
     1
290
     0
176
     1
290
     0
176
     1
290
     0
176
     1
290
     0
176
     1
290
     0
176
     1
290
     0
176
     1
 90
       50
176
     1
 40
0.0
176
     1
 40
1.0
176
     1
 90
        0
176
     1
 62
    18
420
        0
176
     1
 90
       50
176
     1
 90
        3
176
     1
 62
     5
420
      255
176
     1
290
     0
176
     1
 90
       50
176
     1
 90
       50
176
     1
 90
       50
176
     1
290
     0
176
     1
 90
       50
176
     1
 62
   256
176
     0
 40
1.0
176
     0
 90
        2
176
     1
  1
strokes_ogs.tif
176
     1
290
     0
176
     1
 40
1.0
176
     1
 40
1.0
176
     1
  0
VISUALSTYLE
  5
2A
102
{ACAD_REACTORS
330
29
102
}
330
29
100
AcDbVisualStyle
  2
Flat
 70
     0
177
     3
291
     1
 70
    58
 90
        2
176
     1
 90
        1
176
     1
 90
        1
176
     1
 90
        2
176
     1
 40
0.6
176
     1
 40
30.0
176
     1
 62
     7
420
 16777215
176
     1
 90
        0
176
     1
 90
        0
176
     1
 62
     7
176
     1
 62
   257
176
     1
 90
        1
176
     1
 90
        1
176
     1
 40
1.0
176
     1
 90
        8
176
     1
 62
     7
176
     1
 40
1.0
176
     1
 90
        1
176
     1
 90
        6
176
     1
 90
        2
176
     1
 62
     7
176
     1
 90
        5
176
     1
 90
        0
176
     1
 90
        0
176
     1
290
     0
176
     1
 90
       13
176
     1
 40
0.0
176
     1
 90
        0
176
     1
290
     0
176
     1
290
     1
176
     1
290
     1
176
     1
290
     0
176
     1
290
     0
176
     1
290
     0
176
     1
290
     0
176
     1
290
     0
176
     1
290
     0
176
     1
 90
       50
176
     1
 40
0.0
176
     1
 40
1.0
176
     1
 90
        0
176
     1
 62
    18
420
        0
176
     1
 90
       50
176
     1
 90
        3
176
     1
 62
     5
420
      255
176
     1
290
     0
176
     1
 90
       50
176
     1
 90
       50
176
     1
 90
       50
176
     1
290
     0
176
     1
 90
       50
176
     1
 62
   256
176
     0
 40
1.0
176
     0
 90
        2
176
     1
  1
strokes_ogs.tif
176
     1
290
     0
176
     1
 40
1.0
176
     1
 40
1.0
176
     1
  0
VISUALSTYLE
  5
2B
102
{ACAD_REACTORS
330
29
102
}
330
29
100
AcDbVisualStyle
  2
FlatWithEdges
 70
     1
177
     3
291
     1
 70
    58
 90
        2
176
     1
 90
        1
176
     1
 90
        1
176
     1
 90
        2
176
     1
 40
0.6
176
     1
 40
30.0
176
     1
 62
     7
420
 16777215
176
     1
 90
        1
176
     1
 90
        0
176
     1
 62
     7
176
     1
 62
   257
176
     1
 90
        1
176
     1
 90
        1
176
     1
 40
1.0
176
     1
 90
        0
176
     1
 62
   257
176
     1
 40
1.0
176
     1
 90
        1
176
     1
 90
        6
176
     1
 90
        2
176
     1
 62
     7
176
     1
 90
        5
176
     1
 90
        0
176
     1
 90
        0
176
     1
290
     0
176
     1
 90
       13
176
     1
 40
0.0
176
     1
 90
        0
176
     1
290
     0
176
     1
290
     1
176
     1
290
     1
176
     1
290
     0
176
     1
290
     0
176
     1
290
     0
176
     1
290
     0
176
     1
290
     0
176
     1
290
     0
176
     1
 90
       50
176
     1
 40
0.0
176
     1
 40
1.0
176
     1
 90
        0
176
     1
 62
    18
420
        0
176
     1
 90
       50
176
     1
 90
        3
176
     1
 62
     5
420
      255
176
     1
290
     0
176
     1
 90
       50
176
     1
 90
       50
176
     1
 90
       50
176
     1
290
     0
176
     1
 90
       50
176
     1
 62
   256
176
     0
 40
1.0
176
     0
 90
        2
176
     1
  1
strokes_ogs.tif
176
     1
290
     0
176
     1
 40
1.0
176
     1
 40
1.0
176
     1
  0
VISUALSTYLE
  5
2C
102
{ACAD_REACTORS
330
29
102
}
330
29
100
AcDbVisualStyle
  2
Gouraud
 70
     2
177
     3
291
     1
 70
    58
 90
        2
176
     1
 90
        2
176
     1
 90
        1
176
     1
 90
        2
176
     1
 40
0.6
176
     1
 40
30.0
176
     1
 62
     7
420
 16777215
176
     1
 90
        0
176
     1
 90
        0
176
     1
 62
     7
176
     1
 62
   257
176
     1
 90
        1
176
     1
 90
        1
176
     1
 40
1.0
176
     1
 90
        0
176
     1
 62
     7
176
     1
 40
1.0
176
     1
 90
        1
176
     1
 90
        6
176
     1
 90
        2
176
     1
 62
     7
176
     1
 90
        5
176
     1
 90
        0
176
     1
 90
        0
176
     1
290
     0
176
     1
 90
       13
176
     1
 40
0.0
176
     1
 90
        0
176
     1
290
     0
176
     1
290
     1
176
     1
290
     1
176
     1
290
     0
176
     1
290
     0
176
     1
290
     0
176
     1
290
     0
176
     1
290
     0
176
     1
290
     0
176
     1
 90
       50
176
     1
 40
0.0
176
     1
 40
1.0
176
     1
 90
        0
176
     1
 62
    18
420
        0
176
     1
 90
       50
176
     1
 90
        3
176
     1
 62
     5
420
      255
176
     1
290
     0
176
     1
 90
       50
176
     1
 90
       50
176
     1
 90
       50
176
     1
290
     0
176
     1
 90
       50
176
     1
 62
   256
176
     0
 40
1.0
176
     0
 90
        2
176
     1
  1
strokes_ogs.tif
176
     1
290
     0
176
     1
 40
1.0
176
     1
 40
1.0
176
     1
  0
VISUALSTYLE
  5
2D
102
{ACAD_REACTORS
330
29
102
}
330
29
100
AcDbVisualStyle
  2
GouraudWithEdges
 70
     3
177
     3
291
     1
 70
    58
 90
        2
176
     1
 90
        2
176
     1
 90
        1
176
     1
 90
        2
176
     1
 40
0.6
176
     1
 40
30.0
176
     1
 62
     7
420
 16777215
176
     1
 90
        1
176
     1
 90
        0
176
     1
 62
     7
176
     1
 62
   257
176
     1
 90
        1
176
     1
 90
        1
176
     1
 40
1.0
176
     1
 90
        0
176
     1
 62
   257
176
     1
 40
1.0
176
     1
 90
        1
176
     1
 90
        6
176
     1
 90
        2
176
     1
 62
     7
176
     1
 90
        5
176
     1
 90
        0
176
     1
 90
        0
176
     1
290
     0
176
     1
 90
       13
176
     1
 40
0.0
176
     1
 90
        0
176
     1
290
     0
176
     1
290
     1
176
     1
290
     1
176
     1
290
     0
176
     1
290
     0
176
     1
290
     0
176
     1
290
     0
176
     1
290
     0
176
     1
290
     0
176
     1
 90
       50
176
     1
 40
0.0
176
     1
 40
1.0
176
     1
 90
        0
176
     1
 62
    18
420
        0
176
     1
 90
       50
176
     1
 90
        3
176
     1
 62
     5
420
      255
176
     1
290
     0
176
     1
 90
       50
176
     1
 90
       50
176
     1
 90
       50
176
     1
290
     0
176
     1
 90
       50
176
     1
 62
   256
176
     0
 40
1.0
176
     0
 90
        2
176
     1
  1
strokes_ogs.tif
176
     1
290
     0
176
     1
 40
1.0
176
     1
 40
1.0
176
     1
  0
VISUALSTYLE
  5
31
102
{ACAD_REACTORS
330
29
102
}
330
29
100
AcDbVisualStyle
  2
Hidden
 70
     6
177
     3
291
     0
 70
    58
 90
        1
176
     1
 90
        2
176
     1
 90
        2
176
     1
 90
        0
176
     1
 40
0.6
176
     1
 40
30.0
176
     1
 62
     7
420
 16777215
176
     1
 90
        2
176
     1
 90
        2
176
     1
 62
     7
176
     1
 62
   257
176
     1
 90
        2
176
     1
 90
        1
176
     1
 40
40.0
176
     1
 90
        0
176
     1
 62
   257
176
     1
 40
1.0
176
     1
 90
        1
176
     1
 90
        6
176
     1
 90
        2
176
     1
 62
     7
176
     1
 90
        3
176
     1
 90
        0
176
     1
 90
        0
176
     1
290
     0
176
     1
 90
        1
176
     1
 40
0.0
176
     1
 90
        0
176
     1
290
     0
176
     1
290
     1
176
     1
290
     1
176
     1
290
     0
176
     1
290
     0
176
     1
290
     0
176
     1
290
     0
176
     1
290
     0
176
     1
290
     0
176
     1
 90
       50
176
     1
 40
0.0
176
     1
 40
1.0
176
     1
 90
        0
176
     1
 62
    18
420
        0
176
     1
 90
       50
176
     1
 90
        3
176
     1
 62
     5
420
      255
176
     1
290
     0
176
     1
 90
       50
176
     1
 90
       50
176
     1
 90
       50
176
     1
290
     0
176
     1
 90
       50
176
     1
 62
   256
176
     0
 40
1.0
176
     0
 90
        2
176
     1
  1
strokes_ogs.tif
176
     1
290
     0
176
     1
 40
1.0
176
     1
 40
1.0
176
     1
  0
VISUALSTYLE
  5
3F
102
{ACAD_REACTORS
330
29
102
}
330
29
100
AcDbVisualStyle
  2
JitterOff
 70
    20
177
     3
291
     1
 70
    58
 90
        2
176
     0
 90
        2
176
     0
 90
        0
176
     0
 90
        0
176
     0
 40
0.6
176
     0
 40
30.0
176
     0
 62
     7
420
 16777215
176
     0
 90
        1
176
     0
 90
        4
176
     0
 62
     7
176
     0
 62
   257
176
     0
 90
        1
176
     0
 90
        1
176
     0
 40
1.0
176
     0
 90
       10
176
     2
 62
     7
176
     0
 40
1.0
176
     0
 90
        1
176
     0
 90
        6
176
     0
 90
        2
176
     0
 62
     7
176
     0
 90
        5
176
     0
 90
        0
176
     0
 90
        0
176
     0
290
     0
176
     0
 90
        1
176
     0
 40
0.0
176
     0
 90
        0
176
     0
290
     0
176
     0
290
     1
176
     0
290
     1
176
     0
290
     0
176
     0
290
     0
176
     0
290
     0
176
     0
290
     0
176
     0
290
     0
176
     0
290
     0
176
     0
 90
       50
176
     0
 40
0.0
176
     0
 40
1.0
176
     0
 90
        0
176
     0
 62
    18
420
        0
176
     0
 90
       50
176
     0
 90
        3
176
     0
 62
     5
420
      255
176
     0
290
     0
176
     0
 90
       50
176
     0
 90
       50
176
     0
 90
       50
176
     0
290
     0
176
     0
 90
       50
176
     0
 62
   256
176
     0
 40
1.0
176
     0
 90
        2
176
     0
  1
strokes_ogs.tif
176
     0
290
     0
176
     0
 40
1.0
176
     0
 40
1.0
176
     0
  0
VISUALSTYLE
  5
37
102
{ACAD_REACTORS
330
29
102
}
330
29
100
AcDbVisualStyle
  2
Linepattern
 70
    14
177
     3
291
     1
 70
    58
 90
        2
176
     1
 90
        2
176
     1
 90
        0
176
     1
 90
        0
176
     1
 40
0.6
176
     1
 40
30.0
176
     1
 62
     7
420
 16777215
176
     1
 90
        1
176
     1
 90
        4
176
     1
 62
     7
176
     1
 62
   257
176
     1
 90
        7
176
     1
 90
        7
176
     1
 40
1.0
176
     1
 90
        8
176
     1
 62
     7
176
     1
 40
1.0
176
     1
 90
        1
176
     1
 90
        6
176
     1
 90
        2
176
     1
 62
     7
176
     1
 90
        5
176
     1
 90
        0
176
     1
 90
        0
176
     1
290
     0
176
     1
 90
        1
176
     1
 40
0.0
176
     1
 90
        0
176
     1
290
     0
176
     1
290
     1
176
     1
290
     1
176
     1
290
     0
176
     1
290
     0
176
     1
290
     0
176
     1
290
     0
176
     1
290
     0
176
     1
290
     0
176
     1
 90
       50
176
     1
 40
0.0
176
     1
 40
1.0
176
     1
 90
        0
176
     1
 62
    18
420
        0
176
     1
 90
       50
176
     1
 90
        3
176
     1
 62
     5
420
      255
176
     1
290
     0
176
     1
 90
       50
176
     1
 90
       50
176
     1
 90
       50
176
     1
290
     0
176
     1
 90
       50
176
     1
 62
   256
176
     0
 40
1.0
176
     0
 90
        2
176
     1
  1
strokes_ogs.tif
176
     1
290
     0
176
     1
 40
1.0
176
     1
 40
1.0
176
     1
  0
VISUALSTYLE
  5
40
102
{ACAD_REACTORS
330
29
102
}
330
29
100
AcDbVisualStyle
  2
OverhangOff
 70
    21
177
     3
291
     1
 70
    58
 90
        2
176
     0
 90
        2
176
     0
 90
        0
176
     0
 90
        0
176
     0
 40
0.6
176
     0
 40
30.0
176
     0
 62
     7
420
 16777215
176
     0
 90
        1
176
     0
 90
        4
176
     0
 62
     7
176
     0
 62
   257
176
     0
 90
        1
176
     0
 90
        1
176
     0
 40
1.0
176
     0
 90
        9
176
     2
 62
     7
176
     0
 40
1.0
176
     0
 90
        1
176
     0
 90
        6
176
     0
 90
        2
176
     0
 62
     7
176
     0
 90
        5
176
     0
 90
        0
176
     0
 90
        0
176
     0
290
     0
176
     0
 90
        1
176
     0
 40
0.0
176
     0
 90
        0
176
     0
290
     0
176
     0
290
     1
176
     0
290
     1
176
     0
290
     0
176
     0
290
     0
176
     0
290
     0
176
     0
290
     0
176
     0
290
     0
176
     0
290
     0
176
     0
 90
       50
176
     0
 40
0.0
176
     0
 40
1.0
176
     0
 90
        0
176
     0
 62
    18
420
        0
176
     0
 90
       50
176
     0
 90
        3
176
     0
 62
     5
420
      255
176
     0
290
     0
176
     0
 90
       50
176
     0
 90
       50
176
     0
 90
       50
176
     0
290
     0
176
     0
 90
       50
176
     0
 62
   256
176
     0
 40
1.0
176
     0
 90
        2
176
     0
  1
strokes_ogs.tif
176
     0
290
     0
176
     0
 40
1.0
176
     0
 40
1.0
176
     0
  0
VISUALSTYLE
  5
33
102
{ACAD_REACTORS
330
29
102
}
330
29
100
AcDbVisualStyle
  2
Realistic
 70
     8
177
     3
291
     0
 70
    58
 90
        2
176
     1
 90
        3
176
     1
 90
        0
176
     1
 90
        2
176
     1
 40
0.6
176
     1
 40
30.0
176
     1
 62
     7
420
 16777215
176
     1
 90
        0
176
     1
 90
        0
176
     1
 62
     7
176
     1
 62
   257
176
     1
 90
        1
176
     1
 90
        1
176
     1
 40
1.0
176
     1
 90
        8
176
     1
 62
   257
176
     1
 40
1.0
176
     1
 90
        1
176
     1
 90
        6
176
     1
 90
        2
176
     1
 62
     7
176
     1
 90
        3
176
     1
 90
        0
176
     1
 90
        0
176
     1
290
     0
176
     1
 90
       13
176
     1
 40
0.0
176
     1
 90
        0
176
     1
290
     0
176
     1
290
     1
176
     1
290
     1
176
     1
290
     0
176
     1
290
     0
176
     1
290
     0
176
     1
290
     0
176
     1
290
     0
176
     1
290
     0
176
     1
 90
       50
176
     1
 40
0.0
176
     1
 40
1.0
176
     1
 90
        0
176
     1
 62
    18
420
        0
176
     1
 90
       50
176
     1
 90
        3
176
     1
 62
     5
420
      255
176
     1
290
     0
176
     1
 90
       50
176
     1
 90
       50
176
     1
 90
       50
176
     1
290
     0
176
     1
 90
       50
176
     1
 62
   256
176
     0
 40
1.0
176
     0
 90
        2
176
     1
  1
strokes_ogs.tif
176
     1
290
     0
176
     1
 40
1.0
176
     1
 40
1.0
176
     1
  0
VISUALSTYLE
  5
3E
102
{ACAD_REACTORS
330
29
102
}
330
29
100
AcDbVisualStyle
  2
Shaded
 70
    27
177
     3
291
     0
 70
    58
 90
        2
176
     1
 90
        2
176
     1
 90
        1
176
     1
 90
        2
176
     1
 40
0.6
176
     1
 40
30.0
176
     1
 62
     7
420
 16777215
176
     1
 90
        0
176
     1
 90
        4
176
     1
 62
     7
176
     1
 62
   257
176
     1
 90
        1
176
     1
 90
        1
176
     1
 40
1.0
176
     1
 90
        8
176
     1
 62
   257
176
     1
 40
1.0
176
     1
 90
        1
176
     1
 90
        6
176
     1
 90
        2
176
     1
 62
     8
420
  7895160
176
     1
 90
        3
176
     1
 90
        0
176
     1
 90
        0
176
     1
290
     0
176
     1
 90
        5
176
     1
 40
0.0
176
     1
 90
        0
176
     1
290
     0
176
     1
290
     1
176
     1
290
     1
176
     1
290
     0
176
     1
290
     0
176
     1
290
     0
176
     1
290
     0
176
     1
290
     0
176
     1
290
     0
176
     1
 90
       50
176
     1
 40
0.0
176
     1
 40
1.0
176
     1
 90
        0
176
     1
 62
    18
420
        0
176
     1
 90
       50
176
     1
 90
        3
176
     1
 62
     5
420
      255
176
     1
290
     0
176
     1
 90
       50
176
     1
 90
       50
176
     1
 90
       50
176
     1
290
     0
176
     1
 90
       50
176
     1
 62
   256
176
     0
 40
1.0
176
     0
 90
        2
176
     1
  1
strokes_ogs.tif
176
     1
290
     0
176
     1
 40
1.0
176
     1
 40
1.0
176
     1
  0
VISUALSTYLE
  5
3D
102
{ACAD_REACTORS
330
29
102
}
330
29
100
AcDbVisualStyle
  2
Shaded with edges
 70
    26
177
     3
291
     0
 70
    58
 90
        2
176
     1
 90
        2
176
     1
 90
        1
176
     1
 90
        2
176
     1
 40
0.6
176
     1
 40
30.0
176
     1
 62
     7
420
 16777215
176
     1
 90
        1
176
     1
 90
       10
176
     1
 62
     7
176
     1
 62
   257
176
     1
 90
        2
176
     1
 90
        1
176
     1
 40
1.0
176
     1
 90
        8
176
     1
 62
   257
176
     1
 40
1.0
176
     1
 90
        1
176
     1
 90
        6
176
     1
 90
        2
176
     1
 62
     7
176
     1
 90
        3
176
     1
 90
        0
176
     1
 90
        0
176
     1
290
     0
176
     1
 90
        5
176
     1
 40
0.0
176
     1
 90
        0
176
     1
290
     0
176
     1
290
     1
176
     1
290
     1
176
     1
290
     0
176
     1
290
     0
176
     1
290
     0
176
     1
290
     0
176
     1
290
     0
176
     1
290
     0
176
     1
 90
       50
176
     1
 40
0.0
176
     1
 40
1.0
176
     1
 90
        0
176
     1
 62
    18
420
        0
176
     1
 90
       50
176
     1
 90
        3
176
     1
 62
     5
420
      255
176
     1
290
     0
176
     1
 90
       50
176
     1
 90
       50
176
     1
 90
       50
176
     1
290
     0
176
     1
 90
       50
176
     1
 62
   256
176
     0
 40
1.0
176
     0
 90
        2
176
     1
  1
strokes_ogs.tif
176
     1
290
     0
176
     1
 40
1.0
176
     1
 40
1.0
176
     1
  0
VISUALSTYLE
  5
3A
102
{ACAD_REACTORS
330
29
102
}
330
29
100
AcDbVisualStyle
  2
Shades of Gray
 70
    23
177
     3
291
     0
 70
    58
 90
        2
176
     1
 90
        2
176
     1
 90
        3
176
     1
 90
        0
176
     1
 40
0.6
176
     1
 40
30.0
176
     1
 62
     7
420
 16777215
176
     1
 90
        2
176
     1
 90
        2
176
     1
 62
     7
176
     1
 62
     7
176
     1
 90
        1
176
     1
 90
        1
176
     1
 40
40.0
176
     1
 90
        8
176
     1
 62
     7
176
     1
 40
1.0
176
     1
 90
        1
176
     1
 90
        6
176
     1
 90
        2
176
     1
 62
     7
176
     1
 90
        3
176
     1
 90
        0
176
     1
 90
        0
176
     1
290
     0
176
     1
 90
        1
176
     1
 40
0.0
176
     1
 90
        0
176
     1
290
     0
176
     1
290
     1
176
     1
290
     1
176
     1
290
     0
176
     1
290
     0
176
     1
290
     0
176
     1
290
     0
176
     1
290
     0
176
     1
290
     0
176
     1
 90
       50
176
     1
 40
0.0
176
     1
 40
1.0
176
     1
 90
        0
176
     1
 62
    18
420
        0
176
     1
 90
       50
176
     1
 90
        3
176
     1
 62
     5
420
      255
176
     1
290
     0
176
     1
 90
       50
176
     1
 90
       50
176
     1
 90
       50
176
     1
290
     0
176
     1
 90
       50
176
     1
 62
   256
176
     0
 40
1.0
176
     0
 90
        2
176
     1
  1
strokes_ogs.tif
176
     1
290
     0
176
     1
 40
1.0
176
     1
 40
1.0
176
     1
  0
VISUALSTYLE
  5
3B
102
{ACAD_REACTORS
330
29
102
}
330
29
100
AcDbVisualStyle
  2
Sketchy
 70
    24
177
     3
291
     0
 70
    58
 90
        1
176
     1
 90
        2
176
     1
 90
        2
176
     1
 90
        0
176
     1
 40
0.6
176
     1
 40
30.0
176
     1
 62
     7
420
 16777215
176
     1
 90
        2
176
     1
 90
        2
176
     1
 62
     7
176
     1
 62
     7
176
     1
 90
        1
176
     1
 90
        1
176
     1
 40
40.0
176
     1
 90
       11
176
     1
 62
     7
176
     1
 40
1.0
176
     1
 90
        1
176
     1
 90
        6
176
     1
 90
        2
176
     1
 62
     7
176
     1
 90
        6
176
     1
 90
        0
176
     1
 90
        0
176
     1
290
     0
176
     1
 90
        1
176
     1
 40
0.0
176
     1
 90
        0
176
     1
290
     0
176
     1
290
     1
176
     1
290
     1
176
     1
290
     0
176
     1
290
     0
176
     1
290
     0
176
     1
290
     0
176
     1
290
     0
176
     1
290
     0
176
     1
 90
       50
176
     1
 40
0.0
176
     1
 40
1.0
176
     1
 90
        0
176
     1
 62
    18
420
        0
176
     1
 90
       50
176
     1
 90
        3
176
     1
 62
     5
420
      255
176
     1
290
     0
176
     1
 90
       50
176
     1
 90
       50
176
     1
 90
       50
176
     1
290
     0
176
     1
 90
       50
176
     1
 62
   256
176
     0
 40
1.0
176
     0
 90
        2
176
     1
  1
strokes_ogs.tif
176
     1
290
     0
176
     1
 40
1.0
176
     1
 40
1.0
176
     1
  0
VISUALSTYLE
  5
36
102
{ACAD_REACTORS
330
29
102
}
330
29
100
AcDbVisualStyle
  2
Thicken
 70
    13
177
     3
291
     1
 70
    58
 90
        2
176
     1
 90
        2
176
     1
 90
        0
176
     1
 90
        0
176
     1
 40
0.6
176
     1
 40
30.0
176
     1
 62
     7
420
 16777215
176
     1
 90
        1
176
     1
 90
        4
176
     1
 62
     7
176
     1
 62
   257
176
     1
 90
        1
176
     1
 90
        1
176
     1
 40
1.0
176
     1
 90
       12
176
     1
 62
     7
176
     1
 40
1.0
176
     1
 90
        1
176
     1
 90
        6
176
     1
 90
        2
176
     1
 62
     7
176
     1
 90
        5
176
     1
 90
        0
176
     1
 90
        0
176
     1
290
     0
176
     1
 90
        1
176
     1
 40
0.0
176
     1
 90
        0
176
     1
290
     0
176
     1
290
     1
176
     1
290
     1
176
     1
290
     0
176
     1
290
     0
176
     1
290
     0
176
     1
290
     0
176
     1
290
     0
176
     1
290
     0
176
     1
 90
       50
176
     1
 40
0.0
176
     1
 40
1.0
176
     1
 90
        0
176
     1
 62
    18
420
        0
176
     1
 90
       50
176
     1
 90
        3
176
     1
 62
     5
420
      255
176
     1
290
     0
176
     1
 90
       50
176
     1
 90
       50
176
     1
 90
       50
176
     1
290
     0
176
     1
 90
       50
176
     1
 62
   256
176
     0
 40
1.0
176
     0
 90
        2
176
     1
  1
strokes_ogs.tif
176
     1
290
     0
176
     1
 40
1.0
176
     1
 40
1.0
176
     1
  0
VISUALSTYLE
  5
30
102
{ACAD_REACTORS
330
29
102
}
330
29
100
AcDbVisualStyle
  2
Wireframe
 70
     5
177
     3
291
     0
 70
    58
 90
        0
176
     1
 90
        2
176
     1
 90
        0
176
     1
 90
        0
176
     1
 40
0.6
176
     1
 40
30.0
176
     1
 62
     7
420
 16777215
176
     1
 90
        1
176
     1
 90
        4
176
     1
 62
     7
176
     1
 62
   257
176
     1
 90
        1
176
     1
 90
        1
176
     1
 40
1.0
176
     1
 90
        0
176
     1
 62
   257
176
     1
 40
1.0
176
     1
 90
        1
176
     1
 90
        6
176
     1
 90
        2
176
     1
 62
     7
176
     1
 90
        3
176
     1
 90
        0
176
     1
 90
        0
176
     1
290
     0
176
     1
 90
        1
176
     1
 40
0.0
176
     1
 90
        0
176
     1
290
     0
176
     1
290
     1
176
     1
290
     1
176
     1
290
     0
176
     1
290
     0
176
     1
290
     0
176
     1
290
     0
176
     1
290
     0
176
     1
290
     0
176
     1
 90
       50
176
     1
 40
0.0
176
     1
 40
1.0
176
     1
 90
        0
176
     1
 62
    18
420
        0
176
     1
 90
       50
176
     1
 90
        3
176
     1
 62
     5
420
      255
176
     1
290
     0
176
     1
 90
       50
176
     1
 90
       50
176
     1
 90
       50
176
     1
290
     0
176
     1
 90
       50
176
     1
 62
   256
176
     0
 40
1.0
176
     0
 90
        2
176
     1
  1
strokes_ogs.tif
176
     1
290
     0
176
     1
 40
1.0
176
     1
 40
1.0
176
     1
  0
VISUALSTYLE
  5
3C
102
{ACAD_REACTORS
330
29
102
}
330
29
100
AcDbVisualStyle
  2
X-Ray
 70
    25
177
     3
291
     0
 70
    58
 90
        2
176
     1
 90
        2
176
     1
 90
        1
176
     1
 90
        1
176
     1
 40
0.5
176
     1
 40
30.0
176
     1
 62
     7
420
 16777215
176
     1
 90
        1
176
     1
 90
        0
176
     1
 62
     7
176
     1
 62
   257
176
     1
 90
        1
176
     1
 90
        1
176
     1
 40
1.0
176
     1
 90
        8
176
     1
 62
     7
176
     1
 40
1.0
176
     1
 90
        1
176
     1
 90
        6
176
     1
 90
        2
176
     1
 62
     7
176
     1
 90
        3
176
     1
 90
        0
176
     1
 90
        0
176
     1
290
     0
176
     1
 90
       13
176
     1
 40
0.0
176
     1
 90
        0
176
     1
290
     0
176
     1
290
     1
176
     1
290
     1
176
     1
290
     0
176
     1
290
     0
176
     1
290
     0
176
     1
290
     0
176
     1
290
     0
176
     1
290
     0
176
     1
 90
       50
176
     1
 40
0.0
176
     1
 40
1.0
176
     1
 90
        0
176
     1
 62
    18
420
        0
176
     1
 90
       50
176
     1
 90
        3
176
     1
 62
     5
420
      255
176
     1
290
     0
176
     1
 90
       50
176
     1
 90
       50
176
     1
 90
       50
176
     1
290
     0
176
     1
 90
       50
176
     1
 62
   256
176
     0
 40
1.0
176
     0
 90
        2
176
     1
  1
strokes_ogs.tif
176
     1
290
     0
176
     1
 40
1.0
176
     1
 40
1.0
176
     1
  0
DICTIONARYVAR
  5
81
102
{ACAD_REACTORS
330
7C
102
}
330
7C
100
DictionaryVariables
280
     0
  1
1:1
  0
DICTIONARYVAR
  5
7E
102
{ACAD_REACTORS
330
7C
102
}
330
7C
100
DictionaryVariables
280
     0
  1
STANDARD
  0
DICTIONARYVAR
  5
7D
102
{ACAD_REACTORS
330
7C
102
}
330
7C
100
DictionaryVariables
280
     0
  1
STANDARD
  0
DICTIONARYVAR
  5
7F
102
{ACAD_REACTORS
330
7C
102
}
330
7C
100
DictionaryVariables
280
     0
  1
Imperial24
  0
DICTIONARYVAR
  5
80
102
{ACAD_REACTORS
330
7C
102
}
330
7C
100
DictionaryVariables
280
     0
  1
Imperial24
  0
XRECORD
  5
25A
102
{ACAD_REACTORS
330
257
102
}
330
257
100
AcDbXrecord
280
     1
  1
BUILDING_ID
  1
Progetto per messa in tavola DXF, DWG
  1
FLOOR_ID
  1
694395
  0
XRECORD
  5
259
102
{ACAD_REACTORS
330
257
102
}
330
257
100
AcDbXrecord
280
     1
  1
-2001160
  1
Apparecchi idraulici
  0
XRECORD
  5
258
102
{ACAD_REACTORS
330
257
102
}
330
257
100
AcDbXrecord
280
     1
  1
859151
  1
Automatic flow rate regulator valve_Caleffi_121 DN15 : 1/2''
  0
DICTIONARY
  5
1A
330
19
100
AcDbDictionary
280
     1
281
     1
  3
BUMPTILE
360
1C
  3
DIFFUSETILE
360
1B
  3
OPACITYTILE
360
1F
  3
REFLECTIONTILE
360
1E
  3
REFRACTIONTILE
360
20
  3
SPECULARTILE
360
1D
  0
DICTIONARY
  5
12
330
11
100
AcDbDictionary
280
     1
281
     1
  3
BUMPTILE
360
14
  3
DIFFUSETILE
360
13
  3
OPACITYTILE
360
17
  3
REFLECTIONTILE
360
16
  3
REFRACTIONTILE
360
18
  3
SPECULARTILE
360
15
  0
DICTIONARY
  5
22
330
21
100
AcDbDictionary
280
     1
281
     1
  3
BUMPTILE
360
24
  3
DIFFUSETILE
360
23
  3
OPACITYTILE
360
27
  3
REFLECTIONTILE
360
26
  3
REFRACTIONTILE
360
28
  3
SPECULARTILE
360
25
  0
DICTIONARY
  5
25D
330
65
100
AcDbDictionary
280
     1
281
     1
  3
ACAD_ROUNDTRIP_2008_TABLESTYLE_CELLSTYLEMAP
360
25E
  0
XRECORD
  5
1C
102
{ACAD_REACTORS
330
1A
102
}
330
1A
100
AcDbXrecord
280
     1
270
     1
271
     1
  0
XRECORD
  5
1B
102
{ACAD_REACTORS
330
1A
102
}
330
1A
100
AcDbXrecord
280
     1
270
     1
271
     1
  0
XRECORD
  5
1F
102
{ACAD_REACTORS
330
1A
102
}
330
1A
100
AcDbXrecord
280
     1
270
     1
271
     1
  0
XRECORD
  5
1E
102
{ACAD_REACTORS
330
1A
102
}
330
1A
100
AcDbXrecord
280
     1
270
     1
271
     1
  0
XRECORD
  5
20
102
{ACAD_REACTORS
330
1A
102
}
330
1A
100
AcDbXrecord
280
     1
270
     1
271
     1
  0
XRECORD
  5
1D
102
{ACAD_REACTORS
330
1A
102
}
330
1A
100
AcDbXrecord
280
     1
270
     1
271
     1
  0
XRECORD
  5
14
102
{ACAD_REACTORS
330
12
102
}
330
12
100
AcDbXrecord
280
     1
270
     1
271
     1
  0
XRECORD
  5
13
102
{ACAD_REACTORS
330
12
102
}
330
12
100
AcDbXrecord
280
     1
270
     1
271
     1
  0
XRECORD
  5
17
102
{ACAD_REACTORS
330
12
102
}
330
12
100
AcDbXrecord
280
     1
270
     1
271
     1
  0
XRECORD
  5
16
102
{ACAD_REACTORS
330
12
102
}
330
12
100
AcDbXrecord
280
     1
270
     1
271
     1
  0
XRECORD
  5
18
102
{ACAD_REACTORS
330
12
102
}
330
12
100
AcDbXrecord
280
     1
270
     1
271
     1
  0
XRECORD
  5
15
102
{ACAD_REACTORS
330
12
102
}
330
12
100
AcDbXrecord
280
     1
270
     1
271
     1
  0
XRECORD
  5
24
102
{ACAD_REACTORS
330
22
102
}
330
22
100
AcDbXrecord
280
     1
270
     1
271
     1
  0
XRECORD
  5
23
102
{ACAD_REACTORS
330
22
102
}
330
22
100
AcDbXrecord
280
     1
270
     1
271
     1
  0
XRECORD
  5
27
102
{ACAD_REACTORS
330
22
102
}
330
22
100
AcDbXrecord
280
     1
270
     1
271
     1
  0
XRECORD
  5
26
102
{ACAD_REACTORS
330
22
102
}
330
22
100
AcDbXrecord
280
     1
270
     1
271
     1
  0
XRECORD
  5
28
102
{ACAD_REACTORS
330
22
102
}
330
22
100
AcDbXrecord
280
     1
270
     1
271
     1
  0
XRECORD
  5
25
102
{ACAD_REACTORS
330
22
102
}
330
22
100
AcDbXrecord
280
     1
270
     1
271
     1
  0
CELLSTYLEMAP
  5
25E
102
{ACAD_REACTORS
330
25D
102
}
330
25D
100
AcDbCellStyleMap
 90
        3
300
CELLSTYLE
  1
TABLEFORMAT_BEGIN
 90
        5
170
     1
 91
        0
 92
    32768
 62
   257
 93
        1
300
CONTENTFORMAT
  1
CONTENTFORMAT_BEGIN
 90
        0
 91
        0
 92
      512
 93
        0
300

 40
0.0
140
1.0
 94
        5
 62
     0
340
55
144
0.25
309
CONTENTFORMAT_END
171
     0
 94
        0
309
TABLEFORMAT_END
  1
CELLSTYLE_BEGIN
 90
        1
 91
        1
300
_TITLE
309
CELLSTYLE_END
300
CELLSTYLE
  1
TABLEFORMAT_BEGIN
 90
        5
170
     1
 91
        0
 92
        0
 62
   257
 93
        1
300
CONTENTFORMAT
  1
CONTENTFORMAT_BEGIN
 90
        0
 91
        0
 92
      512
 93
        0
300

 40
0.0
140
1.0
 94
        5
 62
     0
340
55
144
0.18
309
CONTENTFORMAT_END
171
     0
 94
        0
309
TABLEFORMAT_END
  1
CELLSTYLE_BEGIN
 90
        2
 91
        1
300
_HEADER
309
CELLSTYLE_END
300
CELLSTYLE
  1
TABLEFORMAT_BEGIN
 90
        5
170
     1
 91
        0
 92
        0
 62
   257
 93
        1
300
CONTENTFORMAT
  1
CONTENTFORMAT_BEGIN
 90
        0
 91
        0
 92
      512
 93
        0
300

 40
0.0
140
1.0
 94
        2
 62
     0
340
55
144
0.18
309
CONTENTFORMAT_END
171
     0
 94
        0
309
TABLEFORMAT_END
  1
CELLSTYLE_BEGIN
 90
        3
 91
        2
300
_DATA
309
CELLSTYLE_END
  0
ENDSEC
  0
EOF
