  0
SECTION
  2
HEADER
  9
$ACADVER
  1
AC1027
  9
$ACADMAINTVER
 70
    20
  9
$DWGCODEPAGE
  3
ANSI_1252
  9
$REQUIREDVERSIONS
160
                 0
  9
$INSBASE
 10
0.0
 20
0.0
 30
0.0
  9
$EXTMIN
 10
760.5101574431738
 20
1817.745878730055
 30
-0.00000001
  9
$EXTMAX
 10
1033.114353943098
 20
2056.895268257149
 30
0.00000001
  9
$LIMMIN
 10
0.0
 20
0.0
  9
$LIMMAX
 10
12.0
 20
9.0
  9
$ORTHOMODE
 70
     0
  9
$REGENMODE
 70
     1
  9
$FILLMODE
 70
     1
  9
$QTEXTMODE
 70
     0
  9
$MIRRTEXT
 70
     0
  9
$LTSCALE
 40
1.0
  9
$ATTMODE
 70
     1
  9
$TEXTSIZE
 40
0.2
  9
$TRACEWID
 40
0.05
  9
$TEXTSTYLE
  7
Standard
  9
$CLAYER
  8
0
  9
$CELTYPE
  6
ByLayer
  9
$CECOLOR
 62
   256
  9
$CELTSCALE
 40
1.0
  9
$DISPSILH
 70
     0
  9
$DIMSCALE
 40
1.0
  9
$DIMASZ
 40
0.18
  9
$DIMEXO
 40
0.0625
  9
$DIMDLI
 40
0.38
  9
$DIMRND
 40
0.0
  9
$DIMDLE
 40
0.0
  9
$DIMEXE
 40
0.18
  9
$DIMTP
 40
0.0
  9
$DIMTM
 40
0.0
  9
$DIMTXT
 40
0.18
  9
$DIMCEN
 40
0.09
  9
$DIMTSZ
 40
0.0
  9
$DIMTOL
 70
     0
  9
$DIMLIM
 70
     0
  9
$DIMTIH
 70
     1
  9
$DIMTOH
 70
     1
  9
$DIMSE1
 70
     0
  9
$DIMSE2
 70
     0
  9
$DIMTAD
 70
     0
  9
$DIMZIN
 70
     0
  9
$DIMBLK
  1

  9
$DIMASO
 70
     1
  9
$DIMSHO
 70
     1
  9
$DIMPOST
  1

  9
$DIMAPOST
  1

  9
$DIMALT
 70
     0
  9
$DIMALTD
 70
     2
  9
$DIMALTF
 40
25.4
  9
$DIMLFAC
 40
1.0
  9
$DIMTOFL
 70
     0
  9
$DIMTVP
 40
0.0
  9
$DIMTIX
 70
     0
  9
$DIMSOXD
 70
     0
  9
$DIMSAH
 70
     0
  9
$DIMBLK1
  1

  9
$DIMBLK2
  1

  9
$DIMSTYLE
  2
Standard
  9
$DIMCLRD
 70
     0
  9
$DIMCLRE
 70
     0
  9
$DIMCLRT
 70
     0
  9
$DIMTFAC
 40
1.0
  9
$DIMGAP
 40
0.09
  9
$DIMJUST
 70
     0
  9
$DIMSD1
 70
     0
  9
$DIMSD2
 70
     0
  9
$DIMTOLJ
 70
     1
  9
$DIMTZIN
 70
     0
  9
$DIMALTZ
 70
     0
  9
$DIMALTTZ
 70
     0
  9
$DIMUPT
 70
     0
  9
$DIMDEC
 70
     4
  9
$DIMTDEC
 70
     4
  9
$DIMALTU
 70
     2
  9
$DIMALTTD
 70
     2
  9
$DIMTXSTY
  7
Standard
  9
$DIMAUNIT
 70
     0
  9
$DIMADEC
 70
     0
  9
$DIMALTRND
 40
0.0
  9
$DIMAZIN
 70
     0
  9
$DIMDSEP
 70
    46
  9
$DIMATFIT
 70
     3
  9
$DIMFRAC
 70
     0
  9
$DIMLDRBLK
  1

  9
$DIMLUNIT
 70
     2
  9
$DIMLWD
 70
    -2
  9
$DIMLWE
 70
    -2
  9
$DIMTMOVE
 70
     0
  9
$DIMFXL
 40
1.0
  9
$DIMFXLON
 70
     0
  9
$DIMJOGANG
 40
0.7853981633974483
  9
$DIMTFILL
 70
     0
  9
$DIMTFILLCLR
 70
     0
  9
$DIMARCSYM
 70
     0
  9
$DIMLTYPE
  6

  9
$DIMLTEX1
  6

  9
$DIMLTEX2
  6

  9
$DIMTXTDIRECTION
 70
     0
  9
$LUNITS
 70
     2
  9
$LUPREC
 70
     4
  9
$SKETCHINC
 40
0.1
  9
$FILLETRAD
 40
0.0
  9
$AUNITS
 70
     0
  9
$AUPREC
 70
     0
  9
$MENU
  1
.
  9
$ELEVATION
 40
0.0
  9
$PELEVATION
 40
0.0
  9
$THICKNESS
 40
0.0
  9
$LIMCHECK
 70
     0
  9
$CHAMFERA
 40
0.0
  9
$CHAMFERB
 40
0.0
  9
$CHAMFERC
 40
0.0
  9
$CHAMFERD
 40
0.0
  9
$SKPOLY
 70
     0
  9
$TDCREATE
 40
2457548.495470498
  9
$TDUCREATE
 40
2457548.412137164
  9
$TDUPDATE
 40
2457548.495470498
  9
$TDUUPDATE
 40
2457548.412137164
  9
$TDINDWG
 40
0.0000099190
  9
$TDUSRTIMER
 40
0.0000099190
  9
$USRTIMER
 70
     1
  9
$ANGBASE
 50
0.0
  9
$ANGDIR
 70
     0
  9
$PDMODE
 70
     0
  9
$PDSIZE
 40
0.0
  9
$PLINEWID
 40
0.0
  9
$SPLFRAME
 70
     0
  9
$SPLINETYPE
 70
     6
  9
$SPLINESEGS
 70
     8
  9
$HANDSEED
  5
311
  9
$SURFTAB1
 70
     6
  9
$SURFTAB2
 70
     6
  9
$SURFTYPE
 70
     6
  9
$SURFU
 70
     6
  9
$SURFV
 70
     6
  9
$UCSBASE
  2

  9
$UCSNAME
  2

  9
$UCSORG
 10
0.0
 20
0.0
 30
0.0
  9
$UCSXDIR
 10
1.0
 20
0.0
 30
0.0
  9
$UCSYDIR
 10
0.0
 20
1.0
 30
0.0
  9
$UCSORTHOREF
  2

  9
$UCSORTHOVIEW
 70
     0
  9
$UCSORGTOP
 10
0.0
 20
0.0
 30
0.0
  9
$UCSORGBOTTOM
 10
0.0
 20
0.0
 30
0.0
  9
$UCSORGLEFT
 10
0.0
 20
0.0
 30
0.0
  9
$UCSORGRIGHT
 10
0.0
 20
0.0
 30
0.0
  9
$UCSORGFRONT
 10
0.0
 20
0.0
 30
0.0
  9
$UCSORGBACK
 10
0.0
 20
0.0
 30
0.0
  9
$PUCSBASE
  2

  9
$PUCSNAME
  2

  9
$PUCSORG
 10
0.0
 20
0.0
 30
0.0
  9
$PUCSXDIR
 10
1.0
 20
0.0
 30
0.0
  9
$PUCSYDIR
 10
0.0
 20
1.0
 30
0.0
  9
$PUCSORTHOREF
  2

  9
$PUCSORTHOVIEW
 70
     0
  9
$PUCSORGTOP
 10
0.0
 20
0.0
 30
0.0
  9
$PUCSORGBOTTOM
 10
0.0
 20
0.0
 30
0.0
  9
$PUCSORGLEFT
 10
0.0
 20
0.0
 30
0.0
  9
$PUCSORGRIGHT
 10
0.0
 20
0.0
 30
0.0
  9
$PUCSORGFRONT
 10
0.0
 20
0.0
 30
0.0
  9
$PUCSORGBACK
 10
0.0
 20
0.0
 30
0.0
  9
$USERI1
 70
     0
  9
$USERI2
 70
     0
  9
$USERI3
 70
     0
  9
$USERI4
 70
     0
  9
$USERI5
 70
     0
  9
$USERR1
 40
0.0
  9
$USERR2
 40
0.0
  9
$USERR3
 40
0.0
  9
$USERR4
 40
0.0
  9
$USERR5
 40
0.0
  9
$WORLDVIEW
 70
     1
  9
$SHADEDGE
 70
     3
  9
$SHADEDIF
 70
    70
  9
$TILEMODE
 70
     1
  9
$MAXACTVP
 70
    64
  9
$PINSBASE
 10
0.0
 20
0.0
 30
0.0
  9
$PLIMCHECK
 70
     0
  9
$PEXTMIN
 10
1.000000000000000E+20
 20
1.000000000000000E+20
 30
1.000000000000000E+20
  9
$PEXTMAX
 10
-1.000000000000000E+20
 20
-1.000000000000000E+20
 30
-1.000000000000000E+20
  9
$PLIMMIN
 10
0.0
 20
0.0
  9
$PLIMMAX
 10
12.0
 20
9.0
  9
$UNITMODE
 70
     0
  9
$VISRETAIN
 70
     1
  9
$PLINEGEN
 70
     0
  9
$PSLTSCALE
 70
     1
  9
$TREEDEPTH
 70
  3020
  9
$CMLSTYLE
  2
Standard
  9
$CMLJUST
 70
     0
  9
$CMLSCALE
 40
1.0
  9
$PROXYGRAPHICS
 70
     1
  9
$MEASUREMENT
 70
     1
  9
$CELWEIGHT
370
    -1
  9
$ENDCAPS
280
     0
  9
$JOINSTYLE
280
     0
  9
$LWDISPLAY
290
     0
  9
$INSUNITS
 70
     4
  9
$HYPERLINKBASE
  1

  9
$STYLESHEET
  1

  9
$XEDIT
290
     1
  9
$CEPSNTYPE
380
     0
  9
$PSTYLEMODE
290
     1
  9
$FINGERPRINTGUID
  2
{D0E4CEE4-90E7-4249-BF75-A80482D1AD88}
  9
$VERSIONGUID
  2
{97783DB9-B6FC-4697-9494-4CD4DD4EE0ED}
  9
$EXTNAMES
290
     1
  9
$PSVPSCALE
 40
0.0
  9
$OLESTARTUP
290
     0
  9
$SORTENTS
280
   127
  9
$INDEXCTL
280
     0
  9
$HIDETEXT
280
     1
  9
$XCLIPFRAME
280
     2
  9
$HALOGAP
280
     0
  9
$OBSCOLOR
 70
   257
  9
$OBSLTYPE
280
     0
  9
$INTERSECTIONDISPLAY
280
     0
  9
$INTERSECTIONCOLOR
 70
   257
  9
$DIMASSOC
280
     2
  9
$PROJECTNAME
  1

  9
$CAMERADISPLAY
290
     0
  9
$LENSLENGTH
 40
50.0
  9
$CAMERAHEIGHT
 40
0.0
  9
$STEPSPERSEC
 40
2.0
  9
$STEPSIZE
 40
6.0
  9
$3DDWFPREC
 40
2.0
  9
$PSOLWIDTH
 40
0.25
  9
$PSOLHEIGHT
 40
4.0
  9
$LOFTANG1
 40
1.570796326794896
  9
$LOFTANG2
 40
1.570796326794896
  9
$LOFTMAG1
 40
0.0
  9
$LOFTMAG2
 40
0.0
  9
$LOFTPARAM
 70
     7
  9
$LOFTNORMALS
280
     1
  9
$LATITUDE
 40
37.795
  9
$LONGITUDE
 40
-122.394
  9
$NORTHDIRECTION
 40
0.0
  9
$TIMEZONE
 70
 -8000
  9
$LIGHTGLYPHDISPLAY
280
     1
  9
$TILEMODELIGHTSYNCH
280
     1
  9
$CMATERIAL
347
11
  9
$SOLIDHIST
280
     0
  9
$SHOWHIST
280
     1
  9
$DWFFRAME
280
     2
  9
$DGNFRAME
280
     0
  9
$REALWORLDSCALE
290
     1
  9
$INTERFERECOLOR
 62
     1
  9
$INTERFEREOBJVS
345
33
  9
$INTERFEREVPVS
346
30
  9
$CSHADOW
280
     0
  9
$SHADOWPLANELOCATION
 40
0.0
  0
ENDSEC
  0
SECTION
  2
CLASSES
  0
CLASS
  1
ACDBDICTIONARYWDFLT
  2
AcDbDictionaryWithDefault
  3
ObjectDBX Classes
 90
        0
 91
        1
280
     0
281
     0
  0
CLASS
  1
MATERIAL
  2
AcDbMaterial
  3
ObjectDBX Classes
 90
     1153
 91
        3
280
     0
281
     0
  0
CLASS
  1
VISUALSTYLE
  2
AcDbVisualStyle
  3
ObjectDBX Classes
 90
     4095
 91
       24
280
     0
281
     0
  0
CLASS
  1
SCALE
  2
AcDbScale
  3
ObjectDBX Classes
 90
     1153
 91
       17
280
     0
281
     0
  0
CLASS
  1
TABLESTYLE
  2
AcDbTableStyle
  3
ObjectDBX Classes
 90
     4095
 91
        1
280
     0
281
     0
  0
CLASS
  1
MLEADERSTYLE
  2
AcDbMLeaderStyle
  3
ACDB_MLEADERSTYLE_CLASS
 90
     4095
 91
        1
280
     0
281
     0
  0
CLASS
  1
ACDBSECTIONVIEWSTYLE
  2
AcDbSectionViewStyle
  3
ObjectDBX Classes
 90
     1025
 91
        1
280
     0
281
     0
  0
CLASS
  1
ACDBDETAILVIEWSTYLE
  2
AcDbDetailViewStyle
  3
ObjectDBX Classes
 90
     1025
 91
        1
280
     0
281
     0
  0
CLASS
  1
RASTERVARIABLES
  2
AcDbRasterVariables
  3
ISM
 90
        0
 91
        1
280
     0
281
     0
  0
CLASS
  1
DICTIONARYVAR
  2
AcDbDictionaryVar
  3
ObjectDBX Classes
 90
        0
 91
        5
280
     0
281
     0
  0
CLASS
  1
CELLSTYLEMAP
  2
AcDbCellStyleMap
  3
ObjectDBX Classes
 90
     1152
 91
        2
280
     0
281
     0
  0
CLASS
  1
SORTENTSTABLE
  2
AcDbSortentsTable
  3
ObjectDBX Classes
 90
        0
 91
        1
280
     0
281
     0
  0
ENDSEC
  0
SECTION
  2
TABLES
  0
TABLE
  2
VPORT
  5
8
330
0
100
AcDbSymbolTable
 70
     1
  0
VPORT
  5
57
330
8
100
AcDbSymbolTableRecord
100
AcDbViewportTableRecord
  2
*Active
 70
     0
 10
0.0
 20
0.0
 11
1.0
 21
1.0
 12
896.8122556931362
 22
1937.320573493602
 13
0.0
 23
0.0
 14
1.0
 24
1.0
 15
0.0
 25
0.0
 16
0.0
 26
0.0
 36
1.0
 17
0.0
 27
0.0
 37
0.0
 40
239.1493895270942
 41
1.139890831580149
 42
50.0
 43
0.0
 44
0.0
 50
0.0
 51
0.0
 71
     0
 72
  1000
 73
     1
 74
     1
 75
     0
 76
     0
 77
     0
 78
     0
281
     0
 65
     1
110
0.0
120
0.0
130
0.0
111
1.0
121
0.0
131
0.0
112
0.0
122
1.0
132
0.0
 79
     0
146
0.0
 60
     3
 61
     5
292
     1
282
     1
141
0.0
142
0.0
 63
   250
421
  3355443
  0
ENDTAB
  0
TABLE
  2
LTYPE
  5
5
330
0
100
AcDbSymbolTable
 70
     3
  0
LTYPE
  5
5B
330
5
100
AcDbSymbolTableRecord
100
AcDbLinetypeTableRecord
  2
ByBlock
 70
     0
  3

 72
    65
 73
     0
 40
0.0
  0
LTYPE
  5
5C
330
5
100
AcDbSymbolTableRecord
100
AcDbLinetypeTableRecord
  2
ByLayer
 70
     0
  3

 72
    65
 73
     0
 40
0.0
  0
LTYPE
  5
5D
330
5
100
AcDbSymbolTableRecord
100
AcDbLinetypeTableRecord
  2
Continuous
 70
     0
  3
Solid line
 72
    65
 73
     0
 40
0.0
  0
LTYPE
  5
69
330
5
100
AcDbSymbolTableRecord
100
AcDbLinetypeTableRecord
  2
PHANTOM2
 70
     0
  3
___ _ _ ___ _ _ ___ _ _ ___ _ _
 72
    65
 73
     6
 40
1.25
 49
0.625
 74
     0
 49
-0.125
 74
     0
 49
0.125
 74
     0
 49
-0.125
 74
     0
 49
0.125
 74
     0
 49
-0.125
 74
     0
  0
LTYPE
  5
86
330
5
100
AcDbSymbolTableRecord
100
AcDbLinetypeTableRecord
  2
Nascosto 1_5 mm
 70
     0
  3

 72
    65
 73
     2
 40
2.2
 49
1.5
 74
     0
 49
-0.7000000000000001
 74
     0
  0
ENDTAB
  0
TABLE
  2
LAYER
  5
2
330
0
100
AcDbSymbolTable
 70
     4
  0
LAYER
  5
54
330
2
100
AcDbSymbolTableRecord
100
AcDbLayerTableRecord
  2
0
 70
     0
 62
     7
  6
Continuous
370
    -3
390
F
347
21
348
0
  0
LAYER
  5
85
330
2
100
AcDbSymbolTableRecord
100
AcDbLayerTableRecord
  2
P-SANR-FIXT
 70
     0
 62
     6
  6
Continuous
370
    18
390
F
347
21
348
0
  0
LAYER
  5
88
330
2
100
AcDbSymbolTableRecord
100
AcDbLayerTableRecord
  2
M-PIPE
 70
     0
 62
     3
  6
Continuous
370
    18
390
F
347
21
348
0
  0
ENDTAB
  0
TABLE
  2
STYLE
  5
3
330
0
100
AcDbSymbolTable
 70
     2
  0
STYLE
  5
55
330
3
100
AcDbSymbolTableRecord
100
AcDbTextStyleTableRecord
  2
Standard
 70
     0
 40
0.0
 41
1.0
 50
0.0
 71
     0
 42
0.2
  3
txt
  4

  0
STYLE
  5
5A
330
3
100
AcDbSymbolTableRecord
100
AcDbTextStyleTableRecord
  2
Annotative
 70
     0
 40
0.0
 41
1.0
 50
0.0
 71
     0
 42
0.2
  3
txt
  4

1001
AcadAnnotative
1000
AnnotativeData
1002
{
1070
     1
1070
     1
1002
}
  0
ENDTAB
  0
TABLE
  2
VIEW
  5
6
330
0
100
AcDbSymbolTable
 70
     0
  0
ENDTAB
  0
TABLE
  2
UCS
  5
7
330
0
100
AcDbSymbolTable
 70
     0
  0
ENDTAB
  0
TABLE
  2
APPID
  5
9
330
0
100
AcDbSymbolTable
 70
     3
  0
APPID
  5
56
330
9
100
AcDbSymbolTableRecord
100
AcDbRegAppTableRecord
  2
ACAD
 70
     0
  0
APPID
  5
5E
330
9
100
AcDbSymbolTableRecord
100
AcDbRegAppTableRecord
  2
AcadAnnotative
 70
     0
  0
APPID
  5
79
330
9
100
AcDbSymbolTableRecord
100
AcDbRegAppTableRecord
  2
REVIT
 70
     0
  0
ENDTAB
  0
TABLE
  2
DIMSTYLE
  5
A
330
0
100
AcDbSymbolTable
 70
     2
100
AcDbDimStyleTable
 71
     0
  0
DIMSTYLE
105
58
330
A
100
AcDbSymbolTableRecord
100
AcDbDimStyleTableRecord
  2
Standard
 70
     0
340
55
  0
DIMSTYLE
105
59
330
A
100
AcDbSymbolTableRecord
100
AcDbDimStyleTableRecord
  2
Annotative
 70
     0
340
55
1001
AcadAnnotative
1000
AnnotativeData
1002
{
1070
     1
1070
     1
1002
}
  0
ENDTAB
  0
TABLE
  2
BLOCK_RECORD
  5
1
330
0
100
AcDbSymbolTable
 70
     4
  0
BLOCK_RECORD
  5
71
102
{ACAD_XDICTIONARY
360
30C
102
}
330
1
100
AcDbSymbolTableRecord
100
AcDbBlockTableRecord
  2
*Model_Space
340
74
 70
     0
280
     1
281
     0
  0
BLOCK_RECORD
  5
6D
330
1
100
AcDbSymbolTableRecord
100
AcDbBlockTableRecord
  2
*Paper_Space
340
70
 70
     0
280
     1
281
     0
  0
BLOCK_RECORD
  5
75
330
1
100
AcDbSymbolTableRecord
100
AcDbBlockTableRecord
  2
*Paper_Space0
340
78
 70
     0
280
     1
281
     0
  0
BLOCK_RECORD
  5
87
330
1
100
AcDbSymbolTableRecord
100
AcDbBlockTableRecord
  2
Automatic flow rate regulator valve_Caleffi_121 DN15 - 1_2__-859151-Est - Idraulica
340
0
102
{BLKREFS
331
192
102
}
 70
     0
280
     1
281
     0
  0
BLOCK_RECORD
  5
193
330
1
100
AcDbSymbolTableRecord
100
AcDbBlockTableRecord
  2
Automatic flow rate regulator valve_Caleffi_121 DN15 - 1_2__-V1-Est - Idraulica
340
0
102
{BLKREFS
331
255
102
}
 70
     0
280
     1
281
     0
  0
BLOCK_RECORD
  5
256
330
1
100
AcDbSymbolTableRecord
100
AcDbBlockTableRecord
  2
Automatic flow rate regulator valve_Caleffi_121 DN15 - 1_2__-V2-Est - Idraulica
340
0
102
{BLKREFS
331
305
102
}
 70
     0
280
     1
281
     0
  0
ENDTAB
  0
ENDSEC
  0
SECTION
  2
BLOCKS
  0
BLOCK
  5
72
330
71
100
AcDbEntity
  8
0
100
AcDbBlockBegin
  2
*Model_Space
 70
     0
 10
0.0
 20
0.0
 30
0.0
  3
*Model_Space
  1

  0
ENDBLK
  5
73
330
71
100
AcDbEntity
  8
0
100
AcDbBlockEnd
  0
BLOCK
  5
6E
330
6D
100
AcDbEntity
 67
     1
  8
0
100
AcDbBlockBegin
  2
*Paper_Space
 70
     0
 10
0.0
 20
0.0
 30
0.0
  3
*Paper_Space
  1

  0
ENDBLK
  5
6F
330
6D
100
AcDbEntity
 67
     1
  8
0
100
AcDbBlockEnd
  0
BLOCK
  5
76
330
75
100
AcDbEntity
 67
     1
  8
0
100
AcDbBlockBegin
  2
*Paper_Space0
 70
     0
 10
0.0
 20
0.0
 30
0.0
  3
*Paper_Space0
  1

  0
ENDBLK
  5
77
330
75
100
AcDbEntity
 67
     1
  8
0
100
AcDbBlockEnd
  0
BLOCK
  5
190
330
87
100
AcDbEntity
  8
0
100
AcDbBlockBegin
  2
Automatic flow rate regulator valve_Caleffi_121 DN15 - 1_2__-859151-Est - Idraulica
 70
     0
 10
0.0
 20
0.0
 30
0.0
  3
Automatic flow rate regulator valve_Caleffi_121 DN15 - 1_2__-859151-Est - Idraulica
  1

  0
LINE
  5
89
330
87
100
AcDbEntity
  8
M-PIPE
100
AcDbLine
 10
800.166407443198
 20
2033.330079021723
 30
0.0
 11
800.166407443198
 21
2026.330079021697
 31
0.0
1001
REVIT
1002
{
1070
     3
1000
924079
1002
}
  0
LINE
  5
8A
330
87
100
AcDbEntity
  8
M-PIPE
100
AcDbLine
 10
831.1664074431842
 20
2026.330079021697
 30
0.0
 11
831.1664074431842
 21
2033.330079021722
 31
0.0
1001
REVIT
1002
{
1070
     3
1000
924079
1002
}
  0
LWPOLYLINE
  5
8B
330
87
100
AcDbEntity
  8
M-PIPE
100
AcDbPolyline
 90
       30
 70
   128
 43
0.0
 10
827.8164074431911
 20
2038.395268257149
 10
828.0222206324198
 20
2038.297196853013
 10
828.2239473828953
 20
2038.190973563136
 10
828.4212649748491
 20
2038.076768322121
 10
828.6138577422269
 20
2037.954763833993
 10
828.8014175776849
 20
2037.825155279906
 10
828.9836444254971
 20
2037.688150005898
 10
829.1602467615799
 20
2037.54396719118
 10
829.3309420598685
 20
2037.3928374975
 10
829.4954572442991
 20
2037.235002700128
 10
829.6535291256711
 20
2037.07071530107
 10
829.8049048226944
 20
2036.900238125119
 10
829.9493421665456
 20
2036.723843899389
 10
830.0866100882865
 20
2036.541814817013
 10
830.2164889885242
 20
2036.354442085692
 10
830.3387710887243
 20
2036.162025461826
 10
830.4532607636122
 20
2035.964872770964
 10
830.5597748541313
 20
2035.763299415358
 10
830.6581429604584
 20
2035.557627869374
 10
830.7482077146071
 20
2035.348187163613
 10
830.8298250321842
 20
2035.135312358525
 10
830.9028643428922
 20
2034.919344008388
 10
830.9672087994142
 20
2034.700627616491
 10
831.0227554643468
 20
2034.479513082404
 10
831.0694154748746
 20
2034.256354142213
 10
831.1071141849351
 20
2034.031507802617
 10
831.1357912846338
 20
2033.805333769796
 10
831.1554008967284
 20
2033.578193873954
 10
831.1659116500232
 20
2033.350451490471
 10
831.1664074431842
 20
2033.330079021722
1001
REVIT
1002
{
1070
     3
1000
924079
1002
}
  0
LWPOLYLINE
  5
8C
330
87
100
AcDbEntity
  8
M-PIPE
100
AcDbPolyline
 90
       30
 70
   128
 43
0.0
 10
800.166407443198
 20
2033.330079021723
 10
800.1761039116134
 20
2033.557857527447
 10
800.1949013346742
 20
2033.785066079345
 10
800.2227696405133
 20
2034.011341192204
 10
800.2596642457868
 20
2034.236320874112
 10
800.305526126996
 20
2034.459645205571
 10
800.3602819149147
 20
2034.680956915291
 10
800.4238440119628
 20
2034.899901951746
 10
800.4961107323442
 20
2035.116130049585
 10
800.5769664647221
 20
2035.329295289977
 10
800.6662818571735
 20
2035.539056654009
 10
800.7639140241233
 20
2035.745078568248
 10
800.8697067749309
 20
2035.947031441578
 10
800.9834908637637
 20
2036.144592192483
 10
801.1050842603518
 20
2036.337444765905
 10
801.2342924411992
 20
2036.525280638869
 10
801.3709087007795
 20
2036.707799314044
 10
801.5147144822208
 20
2036.884708800488
 10
801.6654797269493
 20
2037.05572608076
 10
801.8229632427356
 20
2037.220577563693
 10
801.9869130895488
 20
2037.378999522081
 10
802.1570669826079
 20
2037.530738514586
 10
802.3331527119818
 20
2037.67555179119
 10
802.5148885780666
 20
2037.81320768154
 10
802.7019838422443
 20
2037.943485965578
 10
802.8941391920042
 20
2038.06617822584
 10
803.0910472197776
 20
2038.181088180883
 10
803.2923929147248
 20
2038.288031999293
 10
803.4978541666854
 20
2038.386838593771
 10
803.5164074431913
 20
2038.395268257149
1001
REVIT
1002
{
1070
     3
1000
924079
1002
}
  0
LINE
  5
8D
330
87
100
AcDbEntity
  8
M-PIPE
100
AcDbLine
 10
831.9664074431887
 20
2020.330079021713
 30
0.0
 11
831.9664074431891
 21
2026.330079021697
 31
0.0
1001
REVIT
1002
{
1070
     3
1000
924079
1002
}
  0
LINE
  5
8E
330
87
100
AcDbEntity
  8
M-PIPE
100
AcDbLine
 10
799.3664074431929
 20
2026.330079021697
 30
0.0
 11
799.3664074431929
 21
2020.330079021713
 31
0.0
1001
REVIT
1002
{
1070
     3
1000
924079
1002
}
  0
LWPOLYLINE
  5
8F
330
87
100
AcDbEntity
  8
M-PIPE
100
AcDbPolyline
 90
        4
 70
   128
 43
0.0
 10
803.5164074431911
 20
2038.395268257148
 10
803.9736965239372
 20
2044.497750788296
 10
804.6746540354996
 20
2050.577065298446
 10
805.3778376979906
 20
2055.224797547419
1001
REVIT
1002
{
1070
     3
1000
924079
1002
}
  0
LWPOLYLINE
  5
90
330
87
100
AcDbEntity
  8
M-PIPE
100
AcDbPolyline
 90
        4
 70
   128
 43
0.0
 10
825.9549771883921
 20
2055.224797547419
 10
826.8423568899965
 20
2049.169885193675
 10
827.4868948689038
 20
2043.084330400555
 10
827.8164074431915
 20
2038.395268257147
1001
REVIT
1002
{
1070
     3
1000
924079
1002
}
  0
LWPOLYLINE
  5
91
330
87
100
AcDbEntity
  8
M-PIPE
100
AcDbPolyline
 90
       37
 70
   128
 43
0.0
 10
805.3778376979908
 20
2055.22479754742
 10
805.3925932771551
 20
2055.303419551946
 10
805.4104810950434
 20
2055.381388601468
 10
805.4314725349629
 20
2055.45857996214
 10
805.4555340150876
 20
2055.534870144249
 10
805.4826270421823
 20
2055.610137099781
 10
805.5127082731829
 20
2055.684260417662
 10
805.5457295845373
 20
2055.757121516396
 10
805.5816381491906
 20
2055.828603833766
 10
805.6203765211005
 20
2055.898593013315
 10
805.6618827271348
 20
2055.966977087286
 10
805.7060903662186
 20
2056.033646655747
 10
805.7529287155597
 20
2056.098495061612
 10
805.8023228437907
 20
2056.161418561264
 10
805.8541937308435
 20
2056.222316490528
 10
805.9084583943633
 20
2056.281091425706
 10
805.9650300224653
 20
2056.337649339441
 10
806.023818112612
 20
2056.391899751136
 10
806.0847286163998
 20
2056.443755871705
 10
806.1476640900167
 20
2056.493134742418
 10
806.2125238501298
 20
2056.539957367613
 10
806.2792041349595
 20
2056.58414884108
 10
806.3475982702744
 20
2056.625638465888
 10
806.4175968400475
 20
2056.664359867489
 10
806.4890878614995
 20
2056.700251099899
 10
806.5619569642473
 20
2056.733254744803
 10
806.6360875732703
 20
2056.763318003409
 10
806.7113610954081
 20
2056.790392780918
 10
806.7876571090828
 20
2056.81443576346
 10
806.8648535569481
 20
2056.835408487393
 10
806.9428269411551
 20
2056.853277400831
 10
807.0214525209225
 20
2056.868013917327
 10
807.1006045120952
 20
2056.879594461595
 10
807.1801562883724
 20
2056.888000507237
 10
807.2599805838818
 20
2056.893218606373
 10
807.3399496967793
 20
2056.895240411157
 10
807.3505035203877
 20
2056.895268257148
1001
REVIT
1002
{
1070
     3
1000
924079
1002
}
  0
LWPOLYLINE
  5
92
330
87
100
AcDbEntity
  8
M-PIPE
100
AcDbPolyline
 90
       37
 70
   128
 43
0.0
 10
823.9982155055532
 20
2056.89495013194
 10
824.0622900343685
 20
2056.893668470471
 10
824.1421407539334
 20
2056.888871669754
 10
824.221735780573
 20
2056.880885528856
 10
824.3009477792234
 20
2056.8697228239
 10
824.3796500275852
 20
2056.855401412831
 10
824.4577166188493
 20
2056.837944206852
 10
824.5350226631234
 20
2056.81737913377
 10
824.6114444872272
 20
2056.793739093313
 10
824.6868598325454
 20
2056.767061904504
 10
824.7611480506124
 20
2056.737390245154
 10
824.834190296127
 20
2056.704771583588
 10
824.9058697170781
 20
2056.669258102707
 10
824.9760716416826
 20
2056.630906616504
 10
825.0446837618367
 20
2056.589778479176
 10
825.1115963127851
 20
2056.545939486968
 10
825.17670224872
 20
2056.499459772918
 10
825.2398974140319
 20
2056.45041369465
 10
825.301080709938
 20
2056.39887971543
 10
825.3601542562163
 20
2056.344940278631
 10
825.4170235477941
 20
2056.288681675843
 10
825.4715976059369
 20
2056.230193908831
 10
825.523789123793
 20
2056.169570545546
 10
825.5735146060679
 20
2056.106908570435
 10
825.620694502597
 20
2056.042308229293
 10
825.665253335611
 20
2055.975872868885
 10
825.7071198204819
 20
2055.907708771614
 10
825.7462269797649
 20
2055.837924985496
 10
825.7825122503481
 20
2055.766633149702
 10
825.8159175835384
 20
2055.693947315961
 10
825.8463895379296
 20
2055.619983766101
 10
825.8738793648943
 20
2055.544860826026
 10
825.8983430865734
 20
2055.468698676412
 10
825.9197415662315
 20
2055.391619160453
 10
825.9380405708657
 20
2055.313745588931
 10
825.9532108259721
 20
2055.235202542949
 10
825.9549771883921
 20
2055.22479754742
1001
REVIT
1002
{
1070
     3
1000
924079
1002
}
  0
LWPOLYLINE
  5
93
330
87
100
AcDbEntity
  8
M-PIPE
100
AcDbPolyline
 90
        5
 70
   128
 43
0.0
 10
807.3505035203877
 20
2056.895268257148
 10
807.3571553565436
 20
2056.895268257149
 10
807.377100223492
 20
2056.895268257149
 10
807.4103062137009
 20
2056.895268257149
 10
807.4354009969626
 20
2056.895268257149
1001
REVIT
1002
{
1070
     3
1000
924079
1002
}
  0
LWPOLYLINE
  5
94
330
87
100
AcDbEntity
  8
M-PIPE
100
AcDbPolyline
 90
        5
 70
   128
 43
0.0
 10
823.8990899292172
 20
2056.895268257148
 10
823.9394337617158
 20
2056.895268257148
 10
823.9665425169226
 20
2056.895268257148
 10
823.9803728266128
 20
2056.895268257148
 10
823.9823113659952
 20
2056.895268257148
1001
REVIT
1002
{
1070
     3
1000
924079
1002
}
  0
LWPOLYLINE
  5
95
330
87
100
AcDbEntity
  8
M-PIPE
100
AcDbPolyline
 90
       80
 70
   128
 43
0.0
 10
823.9823113659952
 20
2056.895268257148
 10
823.9756595298393
 20
2056.895268257148
 10
823.9557146628907
 20
2056.895268257148
 10
823.922508672682
 20
2056.895268257148
 10
823.8760946817137
 20
2056.895268257148
 10
823.8165469424702
 20
2056.895268257148
 10
823.7439607186317
 20
2056.895268257148
 10
823.6584521326717
 20
2056.895268257148
 10
823.5601579800874
 20
2056.895268257148
 10
823.4492355105544
 20
2056.895268257148
 10
823.3258621763615
 20
2056.895268257148
 10
823.1902353485255
 20
2056.895268257148
 10
823.0425720010385
 20
2056.895268257148
 10
822.8831083637571
 20
2056.895268257148
 10
822.7120995444833
 20
2056.895268257148
 10
822.5298191208484
 20
2056.895268257148
 10
822.3365587026457
 20
2056.895268257148
 10
822.1326274653174
 20
2056.895268257148
 10
821.9183516553403
 20
2056.895268257148
 10
821.6940740683011
 20
2056.895268257148
 10
821.4601535004952
 20
2056.895268257148
 10
821.2169641749307
 20
2056.895268257148
 10
820.9648951426512
 20
2056.895268257148
 10
820.7043496603365
 20
2056.895268257148
 10
820.4357445451776
 20
2056.895268257148
 10
820.1595095080602
 20
2056.895268257148
 10
819.8760864661164
 20
2056.895268257148
 10
819.5859288357526
 20
2056.895268257148
 10
819.2895008072806
 20
2056.895268257148
 10
818.9872766023116
 20
2056.895268257148
 10
818.6797397151023
 20
2056.895268257148
 10
818.3673821390678
 20
2056.895268257148
 10
818.0507035796972
 20
2056.895268257148
 10
817.730210655131
 20
2056.895268257148
 10
817.4064160856801
 20
2056.895268257148
 10
817.0798378735831
 20
2056.895268257148
 10
816.7509984743135
 20
2056.895268257148
 10
816.4204239607611
 20
2056.895268257148
 10
816.0886431816289
 20
2056.895268257148
 10
815.7561869153873
 20
2056.895268257148
 10
815.4235870211422
 20
2056.895268257148
 10
815.0913755877732
 20
2056.895268257148
 10
814.7600840827063
 20
2056.895268257148
 10
814.4302425016773
 20
2056.895268257148
 10
814.1023785208535
 20
2056.895268257148
 10
813.7770166526641
 20
2056.895268257148
 10
813.4546774066906
 20
2056.895268257148
 10
813.1358764569652
 20
2056.895268257148
 10
812.8211238169999
 20
2056.895268257148
 10
812.5109230238749
 20
2056.895268257148
 10
812.2057703326866
 20
2056.895268257148
 10
811.9061539226455
 20
2056.895268257148
 10
811.6125531160927
 20
2056.895268257148
 10
811.3254376116866
 20
2056.895268257148
 10
811.0452667329873
 20
2056.895268257148
 10
810.7724886936335
 20
2056.895268257148
 10
810.5075398802984
 20
2056.895268257148
 10
810.2508441545642
 20
2056.895268257148
 10
810.0028121748335
 20
2056.895268257148
 10
809.7638407393628
 20
2056.895268257148
 10
809.5343121514712
 20
2056.895268257148
 10
809.3145936079357
 20
2056.895268257148
 10
809.1050366115554
 20
2056.895268257148
 10
808.905976408821
 20
2056.895268257148
 10
808.7177314535935
 20
2056.895268257148
 10
808.5406028976443
 20
2056.895268257148
 10
808.3748741088772
 20
2056.895268257148
 10
808.2208102180009
 20
2056.895268257148
 10
808.0786576943754
 20
2056.895268257148
 10
807.9486439517147
 20
2056.895268257148
 10
807.8309769842718
 20
2056.895268257148
 10
807.7258450340936
 20
2056.895268257148
 10
807.633416289874
 20
2056.895268257148
 10
807.5538386178861
 20
2056.895268257148
 10
807.4872393254297
 20
2056.895268257148
 10
807.4337249571655
 20
2056.895268257148
 10
807.3933811246671
 20
2056.895268257148
 10
807.3662723694603
 20
2056.895268257148
 10
807.3524420597703
 20
2056.895268257148
 10
807.3505035203877
 20
2056.895268257148
1001
REVIT
1002
{
1070
     3
1000
924079
1002
}
  0
LINE
  5
96
330
87
100
AcDbEntity
  8
M-PIPE
100
AcDbLine
 10
831.1167967700724
 20
2028.830079021696
 30
0.0
 11
824.464729422303
 21
2028.830079021696
 31
0.0
1001
REVIT
1002
{
1070
     3
1000
924079
1002
}
  0
LINE
  5
97
330
87
100
AcDbEntity
  8
M-PIPE
100
AcDbLine
 10
824.4647294223018
 20
2028.830079021696
 30
0.0
 11
824.4647294223019
 21
2033.330079021698
 31
0.0
1001
REVIT
1002
{
1070
     3
1000
924079
1002
}
  0
LINE
  5
98
330
87
100
AcDbEntity
  8
M-PIPE
100
AcDbLine
 10
824.4647294223019
 20
2033.330079021721
 30
0.0
 11
822.3184747909639
 21
2033.330079021721
 31
0.0
1001
REVIT
1002
{
1070
     3
1000
924079
1002
}
  0
LINE
  5
99
330
87
100
AcDbEntity
  8
M-PIPE
100
AcDbLine
 10
822.3184747909639
 20
2033.330079021698
 30
0.0
 11
822.3184747909639
 21
2028.830079021696
 31
0.0
1001
REVIT
1002
{
1070
     3
1000
924079
1002
}
  0
LINE
  5
9A
330
87
100
AcDbEntity
  8
M-PIPE
100
AcDbLine
 10
822.3184747909625
 20
2028.830079021696
 30
0.0
 11
809.0143400954158
 21
2028.830079021696
 31
0.0
1001
REVIT
1002
{
1070
     3
1000
924079
1002
}
  0
LINE
  5
9B
330
87
100
AcDbEntity
  8
M-PIPE
100
AcDbLine
 10
809.0143400954147
 20
2028.830079021696
 30
0.0
 11
809.0143400954147
 21
2033.330079021698
 31
0.0
1001
REVIT
1002
{
1070
     3
1000
924079
1002
}
  0
LINE
  5
9C
330
87
100
AcDbEntity
  8
M-PIPE
100
AcDbLine
 10
809.0143400954147
 20
2033.330079021721
 30
0.0
 11
806.8680854641153
 21
2033.330079021721
 31
0.0
1001
REVIT
1002
{
1070
     3
1000
924079
1002
}
  0
LINE
  5
9D
330
87
100
AcDbEntity
  8
M-PIPE
100
AcDbLine
 10
806.8680854641153
 20
2033.330079021698
 30
0.0
 11
806.8680854641153
 21
2028.830079021696
 31
0.0
1001
REVIT
1002
{
1070
     3
1000
924079
1002
}
  0
LINE
  5
9E
330
87
100
AcDbEntity
  8
M-PIPE
100
AcDbLine
 10
806.8680854641153
 20
2028.830079021696
 30
0.0
 11
800.2160181163024
 21
2028.830079021696
 31
0.0
1001
REVIT
1002
{
1070
     3
1000
924079
1002
}
  0
LINE
  5
9F
330
87
100
AcDbEntity
  8
M-PIPE
100
AcDbLine
 10
800.2160181163024
 20
2028.830079021696
 30
0.0
 11
800.2160181163025
 21
2033.330079021698
 31
0.0
1001
REVIT
1002
{
1070
     3
1000
924079
1002
}
  0
LINE
  5
A0
330
87
100
AcDbEntity
  8
M-PIPE
100
AcDbLine
 10
800.2160181163025
 20
2033.330079021721
 30
0.0
 11
800.1664074431964
 21
2033.330079021721
 31
0.0
1001
REVIT
1002
{
1070
     3
1000
924079
1002
}
  0
LINE
  5
A1
330
87
100
AcDbEntity
  8
M-PIPE
100
AcDbLine
 10
831.1664074431824
 20
2033.330079021721
 30
0.0
 11
831.1167967700724
 21
2033.330079021721
 31
0.0
1001
REVIT
1002
{
1070
     3
1000
924079
1002
}
  0
LINE
  5
A2
330
87
100
AcDbEntity
  8
M-PIPE
100
AcDbLine
 10
831.1167967700724
 20
2033.330079021698
 30
0.0
 11
831.1167967700724
 21
2028.830079021696
 31
0.0
1001
REVIT
1002
{
1070
     3
1000
924079
1002
}
  0
SPLINE
  5
A3
330
87
100
AcDbEntity
  8
M-PIPE
100
AcDbSpline
210
0.0
220
0.0
230
1.0
 70
     8
 71
     3
 72
    42
 73
    38
 74
     0
 42
0.000000001
 43
0.0000000001
 40
0.0476190476190476
 40
0.0476190476190476
 40
0.0476190476190476
 40
0.0476190476190476
 40
0.0714285714285714
 40
0.1071428571428571
 40
0.125
 40
0.1428571428571428
 40
0.1607142857142857
 40
0.1785714285714286
 40
0.2142857142857143
 40
0.25
 40
0.2678571428571428
 40
0.2857142857142857
 40
0.3035714285714286
 40
0.3214285714285714
 40
0.3571428571428571
 40
0.3928571428571428
 40
0.4285714285714286
 40
0.4642857142857144
 40
0.5
 40
0.5357142857142857
 40
0.5714285714285714
 40
0.6071428571428572
 40
0.6428571428571428
 40
0.6785714285714287
 40
0.6964285714285714
 40
0.7142857142857144
 40
0.7321428571428572
 40
0.75
 40
0.7857142857142857
 40
0.8214285714285713
 40
0.8392857142857142
 40
0.8571428571428571
 40
0.875
 40
0.8928571428571427
 40
0.9285714285714286
 40
0.9642857142857142
 40
1.0
 40
1.0
 40
1.0
 40
1.0
 10
830.9908139345001
 20
2034.115737396254
 30
0.0
 10
830.9652935592669
 20
2034.238226836118
 30
0.0
 10
830.8958452404281
 20
2034.533888102628
 30
0.0
 10
830.7872826967967
 20
2034.883972482603
 30
0.0
 10
830.6715455781612
 20
2035.178413413053
 30
0.0
 10
830.5778436505704
 20
2035.385495648314
 30
0.0
 10
830.4737262175008
 20
2035.576352044895
 30
0.0
 10
830.3191220342441
 20
2035.807860502726
 30
0.0
 10
830.1036039485378
 20
2036.059333055465
 30
0.0
 10
829.8719824707447
 20
2036.269867218941
 30
0.0
 10
829.6850165922407
 20
2036.419267246865
 30
0.0
 10
829.5471982190928
 20
2036.52432676453
 30
0.0
 10
829.409126394197
 20
2036.619543353339
 30
0.0
 10
829.219323151902
 20
2036.729053556575
 30
0.0
 10
828.9762058848912
 20
2036.838757893614
 30
0.0
 10
828.6796911247034
 20
2036.934340412971
 30
0.0
 10
828.3858234458504
 20
2037.004794467368
 30
0.0
 10
828.095680886666
 20
2037.051842722322
 30
0.0
 10
827.8043662747299
 20
2037.067837953013
 30
0.0
 10
827.5123917271049
 20
2037.05474702823
 30
0.0
 10
827.2207236191155
 20
2037.009624492272
 30
0.0
 10
826.923102003556
 20
2036.939560093788
 30
0.0
 10
826.6208533336657
 20
2036.843675385227
 30
0.0
 10
826.3729344342591
 20
2036.733468603155
 30
0.0
 10
826.1799962323346
 20
2036.623657633781
 30
0.0
 10
826.0401811357597
 20
2036.528337526263
 30
0.0
 10
825.9012259758204
 20
2036.423304464075
 30
0.0
 10
825.7131832030847
 20
2036.27400295236
 30
0.0
 10
825.4809588209637
 20
2036.063671614719
 30
0.0
 10
825.2652524463524
 20
2035.812304258175
 30
0.0
 10
825.1104421903697
 20
2035.580711852955
 30
0.0
 10
825.0060274699004
 20
2035.389667292845
 30
0.0
 10
824.9119408785713
 20
2035.182291514022
 30
0.0
 10
824.7957554059611
 20
2034.887383588249
 30
0.0
 10
824.6699681153494
 20
2034.482684681964
 30
0.0
 10
824.5494822422076
 20
2033.939831079862
 30
0.0
 10
824.4895828628687
 20
2033.539696768642
 30
0.0
 10
824.4647294223025
 20
2033.330079021698
 30
0.0
1001
REVIT
1002
{
1070
     3
1000
924079
1002
}
  0
SPLINE
  5
A4
330
87
100
AcDbEntity
  8
M-PIPE
100
AcDbSpline
210
0.0
220
0.0
230
1.0
 70
     8
 71
     3
 72
    43
 73
    39
 74
     0
 42
0.000000001
 43
0.0000000001
 40
0.0
 40
0.0
 40
0.0
 40
0.0
 40
0.0357142857142857
 40
0.0714285714285714
 40
0.1071428571428571
 40
0.125
 40
0.1428571428571428
 40
0.1607142857142857
 40
0.1785714285714286
 40
0.2142857142857143
 40
0.25
 40
0.2678571428571428
 40
0.2857142857142857
 40
0.3035714285714286
 40
0.3214285714285714
 40
0.3571428571428571
 40
0.3928571428571428
 40
0.4285714285714286
 40
0.4642857142857144
 40
0.5
 40
0.5357142857142857
 40
0.5714285714285714
 40
0.6071428571428572
 40
0.6428571428571428
 40
0.6785714285714287
 40
0.6964285714285714
 40
0.7142857142857144
 40
0.7321428571428572
 40
0.75
 40
0.7857142857142857
 40
0.8214285714285713
 40
0.8392857142857142
 40
0.8571428571428571
 40
0.875
 40
0.8928571428571427
 40
0.9285714285714286
 40
0.9642857142857142
 40
1.0
 40
1.0
 40
1.0
 40
1.0
 10
822.3184747909639
 20
2033.330079021698
 30
0.0
 10
822.2690485113481
 20
2033.539172439448
 30
0.0
 10
822.1498653813949
 20
2033.938347075272
 30
0.0
 10
821.909975591253
 20
2034.480028967247
 30
0.0
 10
821.6594466444112
 20
2034.883972482604
 30
0.0
 10
821.4279724071403
 20
2035.178413413055
 30
0.0
 10
821.2405685519584
 20
2035.385495648315
 30
0.0
 10
821.0323336858191
 20
2035.576352044897
 30
0.0
 10
820.7231253193054
 20
2035.807860502727
 30
0.0
 10
820.292089147893
 20
2036.059333055467
 30
0.0
 10
819.8288461923063
 20
2036.269867218943
 30
0.0
 10
819.4549144352977
 20
2036.419267246867
 30
0.0
 10
819.1792776890022
 20
2036.524326764531
 30
0.0
 10
818.9031340392102
 20
2036.619543353341
 30
0.0
 10
818.5235275546199
 20
2036.729053556578
 30
0.0
 10
818.0372930205978
 20
2036.838757893616
 30
0.0
 10
817.4442635002222
 20
2036.934340412973
 30
0.0
 10
816.8565281425156
 20
2037.004794467371
 30
0.0
 10
816.2762430241466
 20
2037.051842722324
 30
0.0
 10
815.6936138002738
 20
2037.067837953015
 30
0.0
 10
815.1096647050234
 20
2037.054747028232
 30
0.0
 10
814.5263284890445
 20
2037.009624492275
 30
0.0
 10
813.9310852579253
 20
2036.93956009379
 30
0.0
 10
813.3265879181438
 20
2036.84367538523
 30
0.0
 10
812.8307501193305
 20
2036.733468603157
 30
0.0
 10
812.4448737154812
 20
2036.623657633783
 30
0.0
 10
812.1652435223314
 20
2036.528337526265
 30
0.0
 10
811.8873332024525
 20
2036.423304464077
 30
0.0
 10
811.5112476569805
 20
2036.274002952362
 30
0.0
 10
811.046798892738
 20
2036.063671614721
 30
0.0
 10
810.6153861435151
 20
2035.812304258176
 30
0.0
 10
810.3057656315497
 20
2035.580711852956
 30
0.0
 10
810.0969361906109
 20
2035.389667292847
 30
0.0
 10
809.9087630079527
 20
2035.182291514024
 30
0.0
 10
809.6763920627322
 20
2034.88738358825
 30
0.0
 10
809.4248174815083
 20
2034.482684681965
 30
0.0
 10
809.1838457352249
 20
2033.939831079862
 30
0.0
 10
809.0640469765471
 20
2033.539696768642
 30
0.0
 10
809.0143400954147
 20
2033.330079021698
 30
0.0
1001
REVIT
1002
{
1070
     3
1000
924079
1002
}
  0
SPLINE
  5
A5
330
87
100
AcDbEntity
  8
M-PIPE
100
AcDbSpline
210
0.0
220
0.0
230
1.0
 70
     8
 71
     3
 72
    42
 73
    38
 74
     0
 42
0.000000001
 43
0.0000000001
 40
0.0
 40
0.0
 40
0.0
 40
0.0
 40
0.0357142857142857
 40
0.0714285714285714
 40
0.1071428571428571
 40
0.125
 40
0.1428571428571428
 40
0.1607142857142857
 40
0.1785714285714286
 40
0.2142857142857143
 40
0.25
 40
0.2678571428571428
 40
0.2857142857142857
 40
0.3035714285714286
 40
0.3214285714285714
 40
0.3571428571428571
 40
0.3928571428571428
 40
0.4285714285714286
 40
0.4642857142857144
 40
0.5
 40
0.5357142857142857
 40
0.5714285714285714
 40
0.6071428571428572
 40
0.6428571428571428
 40
0.6785714285714287
 40
0.6964285714285714
 40
0.7142857142857144
 40
0.7321428571428572
 40
0.75
 40
0.7857142857142857
 40
0.8214285714285713
 40
0.8392857142857142
 40
0.8571428571428571
 40
0.875
 40
0.8928571428571427
 40
0.9285714285714286
 40
0.9523809523809527
 40
0.9523809523809527
 40
0.9523809523809527
 40
0.9523809523809527
 10
806.8680854641154
 20
2033.330079021698
 30
0.0
 10
806.8433723243074
 20
2033.539172439449
 30
0.0
 10
806.7837807593305
 20
2033.938347075276
 30
0.0
 10
806.6638358642592
 20
2034.480028967255
 30
0.0
 10
806.5385713908375
 20
2034.883972482614
 30
0.0
 10
806.4228342722016
 20
2035.178413413066
 30
0.0
 10
806.3291323446103
 20
2035.385495648327
 30
0.0
 10
806.2250149115399
 20
2035.57635204491
 30
0.0
 10
806.0704107282822
 20
2035.807860502742
 30
0.0
 10
805.8548926425746
 20
2036.059333055483
 30
0.0
 10
805.6232711647799
 20
2036.26986721896
 30
0.0
 10
805.4363052862747
 20
2036.419267246885
 30
0.0
 10
805.2984869131259
 20
2036.52432676455
 30
0.0
 10
805.160415088229
 20
2036.61954335336
 30
0.0
 10
804.9706118459328
 20
2036.729053556597
 30
0.0
 10
804.7274945789201
 20
2036.838757893635
 30
0.0
 10
804.4309798187304
 20
2036.934340412994
 30
0.0
 10
804.1371121398752
 20
2037.004794467391
 30
0.0
 10
803.8469695806892
 20
2037.051842722345
 30
0.0
 10
803.5556549687511
 20
2037.067837953036
 30
0.0
 10
803.2636804211243
 20
2037.054747028252
 30
0.0
 10
802.9720123131331
 20
2037.009624492295
 30
0.0
 10
802.6743906975717
 20
2036.93956009381
 30
0.0
 10
802.3721420276793
 20
2036.84367538525
 30
0.0
 10
802.1242231282711
 20
2036.733468603177
 30
0.0
 10
801.9312849263453
 20
2036.623657633802
 30
0.0
 10
801.7914698297696
 20
2036.528337526283
 30
0.0
 10
801.6525146698292
 20
2036.423304464095
 30
0.0
 10
801.464471897092
 20
2036.274002952379
 30
0.0
 10
801.2322475149693
 20
2036.063671614737
 30
0.0
 10
801.0165411403564
 20
2035.812304258191
 30
0.0
 10
800.8617308843726
 20
2035.580711852969
 30
0.0
 10
800.7573161639026
 20
2035.389667292858
 30
0.0
 10
800.6632295725731
 20
2035.182291514034
 30
0.0
 10
800.5470440999623
 20
2034.887383588259
 30
0.0
 10
800.438028448098
 20
2034.536644536143
 30
0.0
 10
800.3682715856493
 20
2034.240356878914
 30
0.0
 10
800.3426338402714
 20
2034.117597108763
 30
0.0
1001
REVIT
1002
{
1070
     3
1000
924079
1002
}
  0
LINE
  5
A6
330
87
100
AcDbEntity
  8
M-PIPE
100
AcDbLine
 10
827.8164074431893
 20
2038.395268257147
 30
0.0
 11
803.5164074431895
 21
2038.395268257148
 31
0.0
1001
REVIT
1002
{
1070
     3
1000
924079
1002
}
  0
LINE
  5
A7
330
87
100
AcDbEntity
  8
M-PIPE
100
AcDbLine
 10
831.9664074431871
 20
2020.330079021711
 30
0.0
 11
799.3664074431912
 21
2020.330079021712
 31
0.0
1001
REVIT
1002
{
1070
     3
1000
924079
1002
}
  0
LINE
  5
A8
330
87
100
AcDbEntity
  8
M-PIPE
100
AcDbLine
 10
831.9664074431871
 20
2026.330079021696
 30
0.0
 11
799.3664074431912
 21
2026.330079021696
 31
0.0
1001
REVIT
1002
{
1070
     3
1000
924079
1002
}
  0
LINE
  5
A9
330
87
100
AcDbEntity
  8
M-PIPE
100
AcDbLine
 10
836.4164074431741
 20
1965.199999999908
 30
0.0
 11
836.4164074431741
 21
1976.199999999909
 31
0.0
1001
REVIT
1002
{
1070
     3
1000
790271
1002
}
  0
LINE
  5
AA
330
87
100
AcDbEntity
  8
M-PIPE
100
AcDbLine
 10
794.9164074431741
 20
1976.199999999909
 30
0.0
 11
794.9164074431741
 21
1965.199999999908
 31
0.0
1001
REVIT
1002
{
1070
     3
1000
790271
1002
}
  0
LINE
  5
AB
330
87
100
AcDbEntity
  8
M-PIPE
100
AcDbLine
 10
835.5664074431741
 20
1961.899999999909
 30
0.0
 11
835.5664074431741
 21
1965.199999999908
 31
0.0
1001
REVIT
1002
{
1070
     3
1000
790271
1002
}
  0
LINE
  5
AC
330
87
100
AcDbEntity
  8
M-PIPE
100
AcDbLine
 10
795.7664074431741
 20
1965.199999999908
 30
0.0
 11
795.7664074431741
 21
1961.899999999909
 31
0.0
1001
REVIT
1002
{
1070
     3
1000
790271
1002
}
  0
LINE
  5
AD
330
87
100
AcDbEntity
  8
M-PIPE
100
AcDbLine
 10
836.4164074431723
 20
1965.199999999908
 30
0.0
 11
835.7510835672981
 21
1965.199999999908
 31
0.0
1001
REVIT
1002
{
1070
     3
1000
790271
1002
}
  0
LINE
  5
AE
330
87
100
AcDbEntity
  8
M-PIPE
100
AcDbLine
 10
835.7510835672981
 20
1965.199999999908
 30
0.0
 11
830.2227474704244
 21
1965.199999999908
 31
0.0
1001
REVIT
1002
{
1070
     3
1000
790271
1002
}
  0
LINE
  5
AF
330
87
100
AcDbEntity
  8
M-PIPE
100
AcDbLine
 10
830.2227474704244
 20
1965.199999999908
 30
0.0
 11
821.1947435400471
 21
1965.199999999908
 31
0.0
1001
REVIT
1002
{
1070
     3
1000
790271
1002
}
  0
LINE
  5
B0
330
87
100
AcDbEntity
  8
M-PIPE
100
AcDbLine
 10
821.1947435400471
 20
1965.199999999908
 30
0.0
 11
810.1380713462985
 21
1965.199999999908
 31
0.0
1001
REVIT
1002
{
1070
     3
1000
790271
1002
}
  0
LINE
  5
B1
330
87
100
AcDbEntity
  8
M-PIPE
100
AcDbLine
 10
810.1380713462985
 20
1965.199999999908
 30
0.0
 11
801.1100674159216
 21
1965.199999999908
 31
0.0
1001
REVIT
1002
{
1070
     3
1000
790271
1002
}
  0
LINE
  5
B2
330
87
100
AcDbEntity
  8
M-PIPE
100
AcDbLine
 10
801.1100674159214
 20
1965.199999999908
 30
0.0
 11
795.5817313190465
 21
1965.199999999908
 31
0.0
1001
REVIT
1002
{
1070
     3
1000
790271
1002
}
  0
LINE
  5
B3
330
87
100
AcDbEntity
  8
M-PIPE
100
AcDbLine
 10
795.5817313190465
 20
1965.199999999908
 30
0.0
 11
794.9164074431722
 21
1965.199999999908
 31
0.0
1001
REVIT
1002
{
1070
     3
1000
790271
1002
}
  0
LINE
  5
B4
330
87
100
AcDbEntity
  8
M-PIPE
100
AcDbLine
 10
794.9164074431722
 20
1976.199999999908
 30
0.0
 11
795.5817313190464
 21
1976.199999999908
 31
0.0
1001
REVIT
1002
{
1070
     3
1000
790271
1002
}
  0
LINE
  5
B5
330
87
100
AcDbEntity
  8
M-PIPE
100
AcDbLine
 10
795.5817313190465
 20
1976.199999999908
 30
0.0
 11
796.7423324270158
 21
1976.199999999908
 31
0.0
1001
REVIT
1002
{
1070
     3
1000
790271
1002
}
  0
LINE
  5
B6
330
87
100
AcDbEntity
  8
M-PIPE
100
AcDbLine
 10
800.008081405592
 20
1976.199999999908
 30
0.0
 11
801.1100674159214
 21
1976.199999999908
 31
0.0
1001
REVIT
1002
{
1070
     3
1000
790271
1002
}
  0
LINE
  5
B7
330
87
100
AcDbEntity
  8
M-PIPE
100
AcDbLine
 10
801.1100674159214
 20
1976.199999999908
 30
0.0
 11
810.1380713462985
 21
1976.199999999908
 31
0.0
1001
REVIT
1002
{
1070
     3
1000
790271
1002
}
  0
LINE
  5
B8
330
87
100
AcDbEntity
  8
M-PIPE
100
AcDbLine
 10
810.1380713462985
 20
1976.199999999908
 30
0.0
 11
812.6960714712474
 21
1976.199999999908
 31
0.0
1001
REVIT
1002
{
1070
     3
1000
790271
1002
}
  0
LINE
  5
B9
330
87
100
AcDbEntity
  8
M-PIPE
100
AcDbLine
 10
818.8526641636416
 20
1976.199999999908
 30
0.0
 11
821.1947435400471
 21
1976.199999999908
 31
0.0
1001
REVIT
1002
{
1070
     3
1000
790271
1002
}
  0
LINE
  5
BA
330
87
100
AcDbEntity
  8
M-PIPE
100
AcDbLine
 10
821.1947435400469
 20
1976.199999999908
 30
0.0
 11
830.2227474704244
 21
1976.199999999908
 31
0.0
1001
REVIT
1002
{
1070
     3
1000
790271
1002
}
  0
LINE
  5
BB
330
87
100
AcDbEntity
  8
M-PIPE
100
AcDbLine
 10
830.2227474704244
 20
1976.199999999908
 30
0.0
 11
831.3247334806941
 21
1976.199999999908
 31
0.0
1001
REVIT
1002
{
1070
     3
1000
790271
1002
}
  0
LINE
  5
BC
330
87
100
AcDbEntity
  8
M-PIPE
100
AcDbLine
 10
834.5904824594164
 20
1976.199999999908
 30
0.0
 11
835.7510835672981
 21
1976.199999999908
 31
0.0
1001
REVIT
1002
{
1070
     3
1000
790271
1002
}
  0
LINE
  5
BD
330
87
100
AcDbEntity
  8
M-PIPE
100
AcDbLine
 10
835.7510835672981
 20
1976.199999999908
 30
0.0
 11
836.4164074431723
 21
1976.199999999908
 31
0.0
1001
REVIT
1002
{
1070
     3
1000
790271
1002
}
  0
LINE
  5
BE
330
87
100
AcDbEntity
  8
M-PIPE
100
AcDbLine
 10
835.7510835672981
 20
1976.199999999908
 30
0.0
 11
835.7510835672981
 21
1965.199999999908
 31
0.0
1001
REVIT
1002
{
1070
     3
1000
790271
1002
}
  0
LINE
  5
BF
330
87
100
AcDbEntity
  8
M-PIPE
100
AcDbLine
 10
830.2227474704244
 20
1976.199999999908
 30
0.0
 11
830.2227474704244
 21
1965.199999999908
 31
0.0
1001
REVIT
1002
{
1070
     3
1000
790271
1002
}
  0
LINE
  5
C0
330
87
100
AcDbEntity
  8
M-PIPE
100
AcDbLine
 10
821.1947435400471
 20
1976.199999999908
 30
0.0
 11
821.1947435400471
 21
1965.199999999908
 31
0.0
1001
REVIT
1002
{
1070
     3
1000
790271
1002
}
  0
LINE
  5
C1
330
87
100
AcDbEntity
  8
M-PIPE
100
AcDbLine
 10
810.1380713462985
 20
1976.199999999908
 30
0.0
 11
810.1380713462985
 21
1965.199999999908
 31
0.0
1001
REVIT
1002
{
1070
     3
1000
790271
1002
}
  0
LINE
  5
C2
330
87
100
AcDbEntity
  8
M-PIPE
100
AcDbLine
 10
801.1100674159214
 20
1976.199999999908
 30
0.0
 11
801.1100674159214
 21
1965.199999999908
 31
0.0
1001
REVIT
1002
{
1070
     3
1000
790271
1002
}
  0
LINE
  5
C3
330
87
100
AcDbEntity
  8
M-PIPE
100
AcDbLine
 10
795.5817313190465
 20
1976.199999999908
 30
0.0
 11
795.5817313190465
 21
1965.199999999908
 31
0.0
1001
REVIT
1002
{
1070
     3
1000
790271
1002
}
  0
LINE
  5
C4
330
87
100
AcDbEntity
  8
M-PIPE
100
AcDbLine
 10
835.5664074431723
 20
1961.899999999908
 30
0.0
 11
835.0793525535742
 21
1961.899999999908
 31
0.0
1001
REVIT
1002
{
1070
     3
1000
790271
1002
}
  0
LINE
  5
C5
330
87
100
AcDbEntity
  8
M-PIPE
100
AcDbLine
 10
835.0793525535742
 20
1961.899999999908
 30
0.0
 11
829.1624276765796
 21
1961.899999999908
 31
0.0
1001
REVIT
1002
{
1070
     3
1000
790271
1002
}
  0
LINE
  5
C6
330
87
100
AcDbEntity
  8
M-PIPE
100
AcDbLine
 10
829.1624276765796
 20
1961.899999999908
 30
0.0
 11
821.5833323201675
 21
1961.899999999908
 31
0.0
1001
REVIT
1002
{
1070
     3
1000
790271
1002
}
  0
LINE
  5
C7
330
87
100
AcDbEntity
  8
M-PIPE
100
AcDbLine
 10
821.5833323201675
 20
1961.899999999908
 30
0.0
 11
809.749482566178
 21
1961.899999999908
 31
0.0
1001
REVIT
1002
{
1070
     3
1000
790271
1002
}
  0
LINE
  5
C8
330
87
100
AcDbEntity
  8
M-PIPE
100
AcDbLine
 10
809.7494825661781
 20
1961.899999999908
 30
0.0
 11
802.170387209766
 21
1961.899999999908
 31
0.0
1001
REVIT
1002
{
1070
     3
1000
790271
1002
}
  0
LINE
  5
C9
330
87
100
AcDbEntity
  8
M-PIPE
100
AcDbLine
 10
802.1703872097658
 20
1961.899999999908
 30
0.0
 11
796.2534623327707
 21
1961.899999999908
 31
0.0
1001
REVIT
1002
{
1070
     3
1000
790271
1002
}
  0
LINE
  5
CA
330
87
100
AcDbEntity
  8
M-PIPE
100
AcDbLine
 10
796.2534623327707
 20
1961.899999999908
 30
0.0
 11
795.7664074431723
 21
1961.899999999908
 31
0.0
1001
REVIT
1002
{
1070
     3
1000
790271
1002
}
  0
LINE
  5
CB
330
87
100
AcDbEntity
  8
M-PIPE
100
AcDbLine
 10
835.0793525535742
 20
1965.199999999908
 30
0.0
 11
835.0793525535742
 21
1961.899999999908
 31
0.0
1001
REVIT
1002
{
1070
     3
1000
790271
1002
}
  0
LINE
  5
CC
330
87
100
AcDbEntity
  8
M-PIPE
100
AcDbLine
 10
829.1624276765796
 20
1965.199999999908
 30
0.0
 11
829.1624276765796
 21
1961.899999999908
 31
0.0
1001
REVIT
1002
{
1070
     3
1000
790271
1002
}
  0
LINE
  5
CD
330
87
100
AcDbEntity
  8
M-PIPE
100
AcDbLine
 10
821.5833323201675
 20
1965.199999999908
 30
0.0
 11
821.5833323201675
 21
1961.899999999908
 31
0.0
1001
REVIT
1002
{
1070
     3
1000
790271
1002
}
  0
LINE
  5
CE
330
87
100
AcDbEntity
  8
M-PIPE
100
AcDbLine
 10
809.7494825661781
 20
1965.199999999908
 30
0.0
 11
809.7494825661781
 21
1961.899999999908
 31
0.0
1001
REVIT
1002
{
1070
     3
1000
790271
1002
}
  0
LINE
  5
CF
330
87
100
AcDbEntity
  8
M-PIPE
100
AcDbLine
 10
802.1703872097658
 20
1965.199999999908
 30
0.0
 11
802.1703872097658
 21
1961.899999999908
 31
0.0
1001
REVIT
1002
{
1070
     3
1000
790271
1002
}
  0
LINE
  5
D0
330
87
100
AcDbEntity
  8
M-PIPE
100
AcDbLine
 10
796.2534623327707
 20
1965.199999999908
 30
0.0
 11
796.2534623327707
 21
1961.899999999908
 31
0.0
1001
REVIT
1002
{
1070
     3
1000
790271
1002
}
  0
LINE
  5
D1
330
87
100
AcDbEntity
  8
P-SANR-FIXT
100
AcDbLine
 10
829.166407443191
 20
2014.530285549653
 30
0.0
 11
829.166407443191
 21
2017.099999999907
 31
0.0
  0
LINE
  5
D2
330
87
100
AcDbEntity
  8
P-SANR-FIXT
100
AcDbLine
 10
802.166407443191
 20
2017.099999999907
 30
0.0
 11
802.166407443191
 21
2013.349999999907
 31
0.0
  0
LINE
  5
D3
330
87
100
AcDbEntity
  8
P-SANR-FIXT
100
AcDbLine
 10
830.6664074431909
 20
2017.099999999907
 30
0.0
 11
830.6664074431909
 21
2020.330079021713
 31
0.0
  0
LINE
  5
D4
330
87
100
AcDbEntity
  8
P-SANR-FIXT
100
AcDbLine
 10
800.6664074431908
 20
2020.330079021713
 30
0.0
 11
800.6664074431908
 21
2017.099999999907
 31
0.0
  0
LINE
  5
D5
330
87
100
AcDbEntity
  8
P-SANR-FIXT
100
AcDbLine
 10
841.6664074431896
 20
2011.249999999908
 30
0.0
 11
837.6664074431909
 21
2011.249999999908
 31
0.0
  0
LINE
  5
D6
330
87
100
AcDbEntity
  8
P-SANR-FIXT
100
AcDbLine
 10
837.6664074431909
 20
1984.949999999907
 30
0.0
 11
841.6664074431896
 21
1984.949999999907
 31
0.0
  0
LINE
  5
D7
330
87
100
AcDbEntity
  8
P-SANR-FIXT
100
AcDbLine
 10
837.6664074431909
 20
2013.349999999907
 30
0.0
 11
830.986019773073
 21
2013.349999999907
 31
0.0
  0
LINE
  5
D8
330
87
100
AcDbEntity
  8
P-SANR-FIXT
100
AcDbLine
 10
835.9418812990231
 20
1982.849999999907
 30
0.0
 11
837.6664074431909
 21
1982.849999999907
 31
0.0
  0
LINE
  5
D9
330
87
100
AcDbEntity
  8
P-SANR-FIXT
100
AcDbLine
 10
802.166407443191
 20
2013.349999999907
 30
0.0
 11
793.6664074431908
 21
2013.349999999907
 31
0.0
  0
LINE
  5
DA
330
87
100
AcDbEntity
  8
P-SANR-FIXT
100
AcDbLine
 10
793.6664074431908
 20
1982.849999999907
 30
0.0
 11
795.3909335873587
 21
1982.849999999907
 31
0.0
  0
LINE
  5
DB
330
87
100
AcDbEntity
  8
P-SANR-FIXT
100
AcDbLine
 10
793.6664074431908
 20
2011.249999999907
 30
0.0
 11
789.6664074431932
 21
2011.249999999907
 31
0.0
  0
LINE
  5
DC
330
87
100
AcDbEntity
  8
P-SANR-FIXT
100
AcDbLine
 10
789.6664074431932
 20
1984.949999999907
 30
0.0
 11
793.6664074431908
 21
1984.949999999907
 31
0.0
  0
LINE
  5
DD
330
87
100
AcDbEntity
  8
P-SANR-FIXT
100
AcDbLine
 10
835.9418812990231
 20
1976.199999999909
 30
0.0
 11
835.9418812990231
 21
1982.849999999907
 31
0.0
  0
LINE
  5
DE
330
87
100
AcDbEntity
  8
P-SANR-FIXT
100
AcDbLine
 10
795.3909335873587
 20
1982.849999999907
 30
0.0
 11
795.3909335873587
 21
1976.199999999909
 31
0.0
  0
LINE
  5
DF
330
87
100
AcDbEntity
  8
P-SANR-FIXT
100
AcDbLine
 10
870.6664074432062
 20
2007.249999999965
 30
0.0
 11
869.3664074432062
 21
2008.549999999965
 31
0.0
  0
LINE
  5
E0
330
87
100
AcDbEntity
  8
P-SANR-FIXT
100
AcDbLine
 10
869.366407443206
 20
1987.649999999937
 30
0.0
 11
870.6664074432062
 21
1988.949999999938
 31
0.0
  0
LINE
  5
E1
330
87
100
AcDbEntity
  8
P-SANR-FIXT
100
AcDbLine
 10
869.3664074432062
 20
2008.549999999965
 30
0.0
 11
854.6664074431891
 21
2008.549999999965
 31
0.0
  0
LINE
  5
E2
330
87
100
AcDbEntity
  8
P-SANR-FIXT
100
AcDbLine
 10
854.6664074431891
 20
1987.649999999937
 30
0.0
 11
869.366407443206
 21
1987.649999999937
 31
0.0
  0
LINE
  5
E3
330
87
100
AcDbEntity
  8
P-SANR-FIXT
100
AcDbLine
 10
854.6664074431891
 20
2009.899999999955
 30
0.0
 11
852.0004108143874
 21
2014.527312827943
 31
0.0
  0
LINE
  5
E4
330
87
100
AcDbEntity
  8
P-SANR-FIXT
100
AcDbLine
 10
851.9906038106132
 20
2014.544334632801
 30
0.0
 11
851.9585325660939
 21
2014.599999999955
 31
0.0
  0
LINE
  5
E5
330
87
100
AcDbEntity
  8
P-SANR-FIXT
100
AcDbLine
 10
851.9585325660937
 20
1981.599999999947
 30
0.0
 11
851.9906366258183
 21
1981.655722323745
 31
0.0
  0
LINE
  5
E6
330
87
100
AcDbEntity
  8
P-SANR-FIXT
100
AcDbLine
 10
852.0004108144066
 20
1981.672687171993
 30
0.0
 11
854.6664074431891
 21
1986.299999999948
 31
0.0
  0
LINE
  5
E7
330
87
100
AcDbEntity
  8
P-SANR-FIXT
100
AcDbLine
 10
851.9585325660939
 20
2014.599999999955
 30
0.0
 11
841.6664074431896
 21
2014.599999999955
 31
0.0
  0
LINE
  5
E8
330
87
100
AcDbEntity
  8
P-SANR-FIXT
100
AcDbLine
 10
841.6664074431896
 20
1981.599999999947
 30
0.0
 11
851.9585325660937
 21
1981.599999999947
 31
0.0
  0
LINE
  5
E9
330
87
100
AcDbEntity
  8
P-SANR-FIXT
100
AcDbLine
 10
761.9664074431757
 20
2008.549999999965
 30
0.0
 11
760.6664074431757
 21
2007.249999999965
 31
0.0
  0
LINE
  5
EA
330
87
100
AcDbEntity
  8
P-SANR-FIXT
100
AcDbLine
 10
760.6664074431757
 20
1988.949999999938
 30
0.0
 11
761.9664074431759
 21
1987.649999999937
 31
0.0
  0
LINE
  5
EB
330
87
100
AcDbEntity
  8
P-SANR-FIXT
100
AcDbLine
 10
776.6664074431928
 20
2008.549999999965
 30
0.0
 11
761.9664074431757
 21
2008.549999999965
 31
0.0
  0
LINE
  5
EC
330
87
100
AcDbEntity
  8
P-SANR-FIXT
100
AcDbLine
 10
761.9664074431759
 20
1987.649999999937
 30
0.0
 11
776.6664074431928
 21
1987.649999999937
 31
0.0
  0
LINE
  5
ED
330
87
100
AcDbEntity
  8
P-SANR-FIXT
100
AcDbLine
 10
779.374282320288
 20
2014.599999999955
 30
0.0
 11
779.3422230493635
 21
2014.544355415111
 31
0.0
  0
LINE
  5
EE
330
87
100
AcDbEntity
  8
P-SANR-FIXT
100
AcDbLine
 10
779.3324040719944
 20
2014.527312827943
 30
0.0
 11
776.6664074431927
 21
2009.899999999955
 31
0.0
  0
LINE
  5
EF
330
87
100
AcDbEntity
  8
P-SANR-FIXT
100
AcDbLine
 10
776.6664074431928
 20
1986.299999999948
 30
0.0
 11
779.3324040719755
 21
1981.672687171993
 31
0.0
  0
LINE
  5
F0
330
87
100
AcDbEntity
  8
P-SANR-FIXT
100
AcDbLine
 10
779.3421782275037
 20
1981.655722381127
 30
0.0
 11
779.374282320288
 21
1981.599999999947
 31
0.0
  0
LINE
  5
F1
330
87
100
AcDbEntity
  8
P-SANR-FIXT
100
AcDbLine
 10
789.6664074431931
 20
2014.599999999955
 30
0.0
 11
779.374282320288
 21
2014.599999999955
 31
0.0
  0
LINE
  5
F2
330
87
100
AcDbEntity
  8
P-SANR-FIXT
100
AcDbLine
 10
779.374282320288
 20
1981.599999999947
 30
0.0
 11
789.6664074431924
 21
1981.599999999947
 31
0.0
  0
SPLINE
  5
F3
330
87
100
AcDbEntity
  8
P-SANR-FIXT
100
AcDbSpline
210
0.0
220
0.0
230
1.0
 70
     8
 71
     3
 72
    34
 73
    30
 74
     0
 42
0.000000001
 43
0.0000000001
 40
0.0
 40
0.0
 40
0.0
 40
0.0
 40
0.0833333333333333
 40
0.1666666666666666
 40
0.2083333333333333
 40
0.25
 40
0.2916666666666666
 40
0.3333333333333333
 40
0.375
 40
0.4166666666666666
 40
0.4583333333333333
 40
0.4791666666666666
 40
0.5
 40
0.5208333333333333
 40
0.5416666666666666
 40
0.5833333333333333
 40
0.625
 40
0.6458333333333333
 40
0.6666666666666666
 40
0.6875
 40
0.7083333333333333
 40
0.75
 40
0.7916666666666666
 40
0.8125
 40
0.8333333333333332
 40
0.8541666666666666
 40
0.875
 40
0.9166666666666666
 40
1.0
 40
1.0
 40
1.0
 40
1.0
 10
802.1664074431891
 20
2013.349999999906
 30
0.0
 10
802.1664074431891
 20
2013.33966560456
 30
0.0
 10
802.2519623135996
 20
2013.256691762402
 30
0.0
 10
802.5567128279499
 20
2013.005002799731
 30
0.0
 10
802.9084993329169
 20
2012.700844889968
 30
0.0
 10
803.2235640985881
 20
2012.420192951171
 30
0.0
 10
803.5858309779982
 20
2012.101253927196
 30
0.0
 10
803.9912605062831
 20
2011.760551261053
 30
0.0
 10
804.4342730777191
 20
2011.390123750939
 30
0.0
 10
804.9117543650007
 20
2010.981471927042
 30
0.0
 10
805.3374304849366
 20
2010.623850910951
 30
0.0
 10
805.6940787639106
 20
2010.332179297813
 30
0.0
 10
805.9699888226635
 20
2010.113568875019
 30
0.0
 10
806.2527219554445
 20
2009.891248829584
 30
0.0
 10
806.6368860540126
 20
2009.585035810689
 30
0.0
 10
807.1320562296575
 20
2009.19123211522
 30
0.0
 10
807.6493665154526
 20
2008.793318156754
 30
0.0
 10
808.0781241143947
 20
2008.478503157529
 30
0.0
 10
808.4085511938704
 20
2008.247837650554
 30
0.0
 10
808.7449925219395
 20
2008.015936155226
 30
0.0
 10
809.1981828453999
 20
2007.698363174299
 30
0.0
 10
809.7777634052743
 20
2007.299015247497
 30
0.0
 10
810.3815785998893
 20
2006.917401321718
 30
0.0
 10
810.8838949981919
 20
2006.635646250474
 30
0.0
 10
811.2721225057352
 20
2006.440723726565
 30
0.0
 10
811.6707425974867
 20
2006.259951991279
 30
0.0
 10
812.2125559596231
 20
2006.030386179475
 30
0.0
 10
813.1888860919708
 20
2005.663488078985
 30
0.0
 10
814.0696757110831
 20
2005.407252346078
 30
0.0
 10
814.6721050124179
 20
2005.262481226676
 30
0.0
  0
SPLINE
  5
F4
330
87
100
AcDbEntity
  8
P-SANR-FIXT
100
AcDbSpline
210
0.0
220
0.0
230
1.0
 70
     8
 71
     3
 72
     9
 73
     5
 74
     0
 42
0.000000001
 43
0.0000000001
 40
0.0
 40
0.0
 40
0.0
 40
0.0
 40
0.5
 40
1.0
 40
1.0
 40
1.0
 40
1.0
 10
814.6721050124179
 20
2005.262481226676
 30
0.0
 10
814.6702072523053
 20
2005.318636575456
 30
0.0
 10
814.6673599380804
 20
2005.431045053107
 30
0.0
 10
814.6664089025097
 20
2005.543649090943
 30
0.0
 10
814.6664074431891
 20
2005.599999999907
 30
0.0
  0
SPLINE
  5
F5
330
87
100
AcDbEntity
  8
P-SANR-FIXT
100
AcDbSpline
210
0.0
220
0.0
230
1.0
 70
     8
 71
     3
 72
     8
 73
     4
 74
     0
 42
0.000000001
 43
0.0000000001
 40
0.0333333333333333
 40
0.0333333333333333
 40
0.0333333333333333
 40
0.0333333333333333
 40
0.0666666666666667
 40
0.0666666666666667
 40
0.0666666666666667
 40
0.0666666666666667
 10
814.7122298796485
 20
2006.540277138673
 30
0.0
 10
814.7411993790312
 20
2006.849618542835
 30
0.0
 10
814.7839416594928
 20
2007.155067987345
 30
0.0
 10
814.8406890025805
 20
2007.457202519531
 30
0.0
  0
SPLINE
  5
F6
330
87
100
AcDbEntity
  8
P-SANR-FIXT
100
AcDbSpline
210
0.0
220
0.0
230
1.0
 70
     8
 71
     3
 72
     8
 73
     4
 74
     0
 42
0.000000001
 43
0.0000000001
 40
0.0938129285296277
 40
0.0938129285296277
 40
0.0938129285296277
 40
0.0938129285296277
 40
0.1
 40
0.1
 40
0.1
 40
0.1
 10
815.0073231360979
 20
2008.189082654661
 30
0.0
 10
815.0221187449638
 20
2008.244231363176
 30
0.0
 10
815.0374033715651
 20
2008.299282057093
 30
0.0
 10
815.053178501269
 20
2008.354238426446
 30
0.0
  0
SPLINE
  5
F7
330
87
100
AcDbEntity
  8
P-SANR-FIXT
100
AcDbSpline
210
0.0
220
0.0
230
1.0
 70
     8
 71
     3
 72
     8
 73
     4
 74
     0
 42
0.000000001
 43
0.0000000001
 40
0.1333333333333333
 40
0.1333333333333333
 40
0.1333333333333333
 40
0.1333333333333333
 40
0.140864016160389
 40
0.140864016160389
 40
0.140864016160389
 40
0.140864016160389
 10
815.350225750527
 20
2009.232538954075
 30
0.0
 10
815.3757164503961
 20
2009.297801707668
 30
0.0
 10
815.4019014641617
 20
2009.362836362852
 30
0.0
 10
815.428773480793
 20
2009.427622957836
 30
0.0
  0
SPLINE
  5
F8
330
87
100
AcDbEntity
  8
P-SANR-FIXT
100
AcDbSpline
210
0.0
220
0.0
230
1.0
 70
     8
 71
     3
 72
     8
 73
     4
 74
     0
 42
0.000000001
 43
0.0000000001
 40
0.1666666666666666
 40
0.1666666666666666
 40
0.1666666666666666
 40
0.1666666666666666
 40
0.2
 40
0.2
 40
0.2
 40
0.2
 10
815.7288928672828
 20
2010.084025439827
 30
0.0
 10
815.8682958621687
 20
2010.362231166776
 30
0.0
 10
816.0206681353804
 20
2010.634236744761
 30
0.0
 10
816.1853756539944
 20
2010.898311031798
 30
0.0
  0
SPLINE
  5
F9
330
87
100
AcDbEntity
  8
P-SANR-FIXT
100
AcDbSpline
210
0.0
220
0.0
230
1.0
 70
     8
 71
     3
 72
     8
 73
     4
 74
     0
 42
0.000000001
 43
0.0000000001
 40
0.2333333333333333
 40
0.2333333333333333
 40
0.2333333333333333
 40
0.2333333333333333
 40
0.2345368886286721
 40
0.2345368886286721
 40
0.2345368886286721
 40
0.2345368886286721
 10
816.7153752105976
 20
2011.665492046538
 30
0.0
 10
816.7221722629136
 20
2011.674409081746
 30
0.0
 10
816.7289839250535
 20
2011.683314150031
 30
0.0
 10
816.735810143886
 20
2011.69220719265
 30
0.0
  0
SPLINE
  5
FA
330
87
100
AcDbEntity
  8
P-SANR-FIXT
100
AcDbSpline
210
0.0
220
0.0
230
1.0
 70
     8
 71
     3
 72
     8
 73
     4
 74
     0
 42
0.000000001
 43
0.0000000001
 40
0.2666666666666666
 40
0.2666666666666666
 40
0.2666666666666666
 40
0.2666666666666666
 40
0.3
 40
0.3
 40
0.3
 40
0.3
 10
817.3126138269386
 20
2012.377597474407
 30
0.0
 10
817.5221473853779
 20
2012.60495470353
 30
0.0
 10
817.7417587183279
 20
2012.821884694644
 30
0.0
 10
817.9703190903422
 20
2013.027139474217
 30
0.0
  0
SPLINE
  5
FB
330
87
100
AcDbEntity
  8
P-SANR-FIXT
100
AcDbSpline
210
0.0
220
0.0
230
1.0
 70
     8
 71
     3
 72
     8
 73
     4
 74
     0
 42
0.000000001
 43
0.0000000001
 40
0.3286168085486734
 40
0.3286168085486734
 40
0.3286168085486734
 40
0.3286168085486734
 40
0.3333333333333333
 40
0.3333333333333333
 40
0.3333333333333333
 40
0.3333333333333333
 10
818.5780572599464
 20
2013.53018234812
 30
0.0
 10
818.6124548709297
 20
2013.556425046417
 30
0.0
 10
818.6470123885143
 20
2013.582440011608
 30
0.0
 10
818.6817266379183
 20
2013.608228235366
 30
0.0
  0
SPLINE
  5
FC
330
87
100
AcDbEntity
  8
P-SANR-FIXT
100
AcDbSpline
210
0.0
220
0.0
230
1.0
 70
     8
 71
     3
 72
     9
 73
     5
 74
     0
 42
0.000000001
 43
0.0000000001
 40
0.3666666666666666
 40
0.3666666666666666
 40
0.3666666666666666
 40
0.3666666666666666
 40
0.375
 40
0.4
 40
0.4
 40
0.4
 40
0.4
 10
819.4392169294809
 20
2014.120898683503
 30
0.0
 10
819.5037416876699
 20
2014.160653530866
 30
0.0
 10
819.7626302609238
 20
2014.316461759877
 30
0.0
 10
820.0226220718809
 20
2014.458578089211
 30
0.0
 10
820.2199682404124
 20
2014.557074210607
 30
0.0
  0
SPLINE
  5
FD
330
87
100
AcDbEntity
  8
P-SANR-FIXT
100
AcDbSpline
210
0.0
220
0.0
230
1.0
 70
     8
 71
     3
 72
     8
 73
     4
 74
     0
 42
0.000000001
 43
0.0000000001
 40
0.4258763345868107
 40
0.4258763345868107
 40
0.4258763345868107
 40
0.4258763345868107
 40
0.4333333333333333
 40
0.4333333333333333
 40
0.4333333333333333
 40
0.4333333333333333
 10
820.8391765937042
 20
2014.837559339698
 30
0.0
 10
820.8991639668848
 20
2014.862128257049
 30
0.0
 10
820.9592656678479
 20
2014.886030767297
 30
0.0
 10
821.0194543313384
 20
2014.909282278719
 30
0.0
  0
SPLINE
  5
FE
330
87
100
AcDbEntity
  8
P-SANR-FIXT
100
AcDbSpline
210
0.0
220
0.0
230
1.0
 70
     8
 71
     3
 72
     9
 73
     5
 74
     0
 42
0.000000001
 43
0.0000000001
 40
0.466527347369302
 40
0.466527347369302
 40
0.466527347369302
 40
0.466527347369302
 40
0.475
 40
0.5
 40
0.5
 40
0.5
 40
0.5
 10
821.8254373698464
 20
2015.182575657491
 30
0.0
 10
821.8938092954225
 20
2015.202821501623
 30
0.0
 10
822.163183251208
 20
2015.279968693425
 30
0.0
 10
822.427862861342
 20
2015.346527989881
 30
0.0
 10
822.6232777131459
 20
2015.389056180469
 30
0.0
  0
SPLINE
  5
FF
330
87
100
AcDbEntity
  8
P-SANR-FIXT
100
AcDbSpline
210
0.0
220
0.0
230
1.0
 70
     8
 71
     3
 72
     8
 73
     4
 74
     0
 42
0.000000001
 43
0.0000000001
 40
0.5318907811658891
 40
0.5318907811658891
 40
0.5318907811658891
 40
0.5318907811658891
 40
0.5333333333333333
 40
0.5333333333333333
 40
0.5333333333333333
 40
0.5333333333333333
 10
823.3613333350627
 20
2015.516253056994
 30
0.0
 10
823.3723260916594
 20
2015.517635945469
 30
0.0
 10
823.383311952403
 20
2015.51899606592
 30
0.0
 10
823.3942906028643
 20
2015.520333839535
 30
0.0
  0
SPLINE
  5
100
330
87
100
AcDbEntity
  8
P-SANR-FIXT
100
AcDbSpline
210
0.0
220
0.0
230
1.0
 70
     8
 71
     3
 72
    10
 73
     6
 74
     0
 42
0.000000001
 43
0.0000000001
 40
0.5666666666666666
 40
0.5666666666666666
 40
0.5666666666666666
 40
0.5666666666666666
 40
0.5750000000000001
 40
0.5875000000000002
 40
0.6000000000000001
 40
0.6000000000000001
 40
0.6000000000000001
 40
0.6000000000000001
 10
824.1401601716379
 20
2015.582223245613
 30
0.0
 10
824.2008074172726
 20
2015.585160485716
 30
0.0
 10
824.351368557162
 20
2015.591296199983
 30
0.0
 10
824.587733777194
 20
2015.596785788529
 30
0.0
 10
824.760272131159
 20
2015.598597206102
 30
0.0
 10
824.8454249883945
 20
2015.598397507432
 30
0.0
  0
SPLINE
  5
101
330
87
100
AcDbEntity
  8
P-SANR-FIXT
100
AcDbSpline
210
0.0
220
0.0
230
1.0
 70
     8
 71
     3
 72
     9
 73
     5
 74
     0
 42
0.000000001
 43
0.0000000001
 40
0.6333333333333333
 40
0.6333333333333333
 40
0.6333333333333333
 40
0.6333333333333333
 40
0.6500000000000002
 40
0.6666666666666666
 40
0.6666666666666666
 40
0.6666666666666666
 40
0.6666666666666666
 10
825.5042557878882
 20
2015.567864915544
 30
0.0
 10
825.6102998156471
 20
2015.558235005729
 30
0.0
 10
825.8184896969508
 20
2015.535218383269
 30
0.0
 10
826.0185625197076
 20
2015.506739595481
 30
0.0
 10
826.1164877458423
 20
2015.49164721423
 30
0.0
  0
SPLINE
  5
102
330
87
100
AcDbEntity
  8
P-SANR-FIXT
100
AcDbSpline
210
0.0
220
0.0
230
1.0
 70
     8
 71
     3
 72
     9
 73
     5
 74
     0
 42
0.000000001
 43
0.0000000001
 40
0.7333333333333333
 40
0.7333333333333333
 40
0.7333333333333333
 40
0.7333333333333333
 40
0.75
 40
0.7666666666666666
 40
0.7666666666666666
 40
0.7666666666666666
 40
0.7666666666666666
 10
827.1859776666797
 20
2015.280546713938
 30
0.0
 10
827.2660733418106
 20
2015.259084671787
 30
0.0
 10
827.4217009197123
 20
2015.214562968004
 30
0.0
 10
827.5681434481128
 20
2015.168493387132
 30
0.0
 10
827.6390579266914
 20
2015.145710733833
 30
0.0
  0
SPLINE
  5
103
330
87
100
AcDbEntity
  8
P-SANR-FIXT
100
AcDbSpline
210
0.0
220
0.0
230
1.0
 70
     8
 71
     3
 72
    10
 73
     6
 74
     0
 42
0.000000001
 43
0.0000000001
 40
0.8333333333333332
 40
0.8333333333333332
 40
0.8333333333333332
 40
0.8333333333333332
 40
0.85
 40
0.875
 40
0.9
 40
0.9
 40
0.9
 40
0.9
 10
828.3768770844154
 20
2014.88954238969
 30
0.0
 10
828.4286772008501
 20
2014.868447000953
 30
0.0
 10
828.5518188669586
 20
2014.816262440163
 30
0.0
 10
828.7255792475695
 20
2014.737216265632
 30
0.0
 10
828.8289378155244
 20
2014.691234339561
 30
0.0
 10
828.8787842309954
 20
2014.669502841713
 30
0.0
  0
LINE
  5
104
330
87
100
AcDbEntity
  8
P-SANR-FIXT
100
AcDbLine
 10
830.6664074431891
 20
2017.099999999906
 30
0.0
 11
800.666407443189
 21
2017.099999999906
 31
0.0
  0
LINE
  5
105
330
87
100
AcDbEntity
  8
P-SANR-FIXT
100
AcDbLine
 10
837.6664074431891
 20
2013.349999999906
 30
0.0
 11
837.6664074431891
 21
1982.849999999906
 31
0.0
  0
SPLINE
  5
106
330
87
100
AcDbEntity
  8
P-SANR-FIXT
100
AcDbSpline
210
0.0
220
0.0
230
1.0
 70
     8
 71
     3
 72
     8
 73
     4
 74
     0
 42
0.000000001
 43
0.0000000001
 40
0.0
 40
0.0
 40
0.0
 40
0.0
 40
0.0167482518407644
 40
0.0167482518407644
 40
0.0167482518407644
 40
0.0167482518407644
 10
800.5880649660172
 20
1986.2838106184
 30
0.0
 10
800.554402307743
 20
1986.308975046517
 30
0.0
 10
800.5209621984633
 20
1986.334343461393
 30
0.0
 10
800.4877434124525
 20
1986.359917841858
 30
0.0
  0
SPLINE
  5
107
330
87
100
AcDbEntity
  8
P-SANR-FIXT
100
AcDbSpline
210
0.0
220
0.0
230
1.0
 70
     8
 71
     3
 72
     8
 73
     4
 74
     0
 42
0.000000001
 43
0.0000000001
 40
0.125
 40
0.125
 40
0.125
 40
0.125
 40
0.163585800027024
 40
0.163585800027024
 40
0.163585800027024
 40
0.163585800027024
 10
799.8710252677394
 20
1986.882163038094
 30
0.0
 10
799.8009669638051
 20
1986.947407612304
 30
0.0
 10
799.7320996473639
 20
1987.013854318664
 30
0.0
 10
799.6643543453221
 20
1987.081489371405
 30
0.0
  0
SPLINE
  5
108
330
87
100
AcDbEntity
  8
P-SANR-FIXT
100
AcDbSpline
210
0.0
220
0.0
230
1.0
 70
     8
 71
     3
 72
     8
 73
     4
 74
     0
 42
0.000000001
 43
0.0000000001
 40
0.25
 40
0.25
 40
0.25
 40
0.25
 40
0.375
 40
0.375
 40
0.375
 40
0.375
 10
799.2253083757178
 20
1987.553627960183
 30
0.0
 10
799.0216168241507
 20
1987.790183469822
 30
0.0
 10
798.8278590567979
 20
1988.038856727321
 30
0.0
 10
798.6477294732576
 20
1988.300761465611
 30
0.0
  0
SPLINE
  5
109
330
87
100
AcDbEntity
  8
P-SANR-FIXT
100
AcDbSpline
210
0.0
220
0.0
230
1.0
 70
     8
 71
     3
 72
     8
 73
     4
 74
     0
 42
0.000000001
 43
0.0000000001
 40
0.4579548441707299
 40
0.4579548441707299
 40
0.4579548441707299
 40
0.4579548441707299
 40
0.5
 40
0.5
 40
0.5
 40
0.5
 10
798.3102086744811
 20
1988.841242765953
 30
0.0
 10
798.2558512937304
 20
1988.935162633278
 30
0.0
 10
798.2027781705647
 20
1989.030350104325
 30
0.0
 10
798.1519196736721
 20
1989.127283855783
 30
0.0
  0
SPLINE
  5
10A
330
87
100
AcDbEntity
  8
P-SANR-FIXT
100
AcDbSpline
210
0.0
220
0.0
230
1.0
 70
     8
 71
     3
 72
     8
 73
     4
 74
     0
 42
0.000000001
 43
0.0000000001
 40
0.6000054309417628
 40
0.6000054309417628
 40
0.6000054309417628
 40
0.6000054309417628
 40
0.625
 40
0.625
 40
0.625
 40
0.625
 10
797.8156965386816
 20
1989.84140242663
 30
0.0
 10
797.7901676738197
 20
1989.902818301456
 30
0.0
 10
797.7656092561734
 20
1989.964867515609
 30
0.0
 10
797.7410520458462
 20
1990.027050111347
 30
0.0
  0
SPLINE
  5
10B
330
87
100
AcDbEntity
  8
P-SANR-FIXT
100
AcDbSpline
210
0.0
220
0.0
230
1.0
 70
     8
 71
     3
 72
     8
 73
     4
 74
     0
 42
0.000000001
 43
0.0000000001
 40
0.7377689590212407
 40
0.7377689590212407
 40
0.7377689590212407
 40
0.7377689590212407
 40
0.75
 40
0.75
 40
0.75
 40
0.75
 10
797.4564800137693
 20
1990.897369593931
 30
0.0
 10
797.447874480329
 20
1990.929728859938
 30
0.0
 10
797.4392864652632
 20
1990.962094695142
 30
0.0
 10
797.4312523877106
 20
1990.994715883159
 30
0.0
  0
SPLINE
  5
10C
330
87
100
AcDbEntity
  8
P-SANR-FIXT
100
AcDbSpline
210
0.0
220
0.0
230
1.0
 70
     8
 71
     3
 72
     8
 73
     4
 74
     0
 42
0.000000001
 43
0.0000000001
 40
0.871579579294884
 40
0.871579579294884
 40
0.871579579294884
 40
0.871579579294884
 40
0.875
 40
0.875
 40
0.875
 40
0.875
 10
797.2441362452065
 20
1991.991077913923
 30
0.0
 10
797.2429115419615
 20
1992.000665735325
 30
0.0
 10
797.2417287800579
 20
1992.010273757861
 30
0.0
 10
797.2405857459907
 20
1992.019900915172
 30
0.0
  0
SPLINE
  5
10D
330
87
100
AcDbEntity
  8
P-SANR-FIXT
100
AcDbSpline
210
0.0
220
0.0
230
1.0
 70
     8
 71
     3
 72
     8
 73
     4
 74
     0
 42
0.000000001
 43
0.0000000001
 40
0.037037037037037
 40
0.037037037037037
 40
0.037037037037037
 40
0.037037037037037
 40
0.0500198925763053
 40
0.0500198925763053
 40
0.0500198925763053
 40
0.0500198925763053
 10
797.2045849147418
 20
1993.922824206789
 30
0.0
 10
797.2137332022096
 20
1994.018390263109
 30
0.0
 10
797.2245328687781
 20
1994.113756871328
 30
0.0
 10
797.2369925970828
 20
1994.208927201616
 30
0.0
  0
SPLINE
  5
10E
330
87
100
AcDbEntity
  8
P-SANR-FIXT
100
AcDbSpline
210
0.0
220
0.0
230
1.0
 70
     8
 71
     3
 72
     8
 73
     4
 74
     0
 42
0.000000001
 43
0.0000000001
 40
0.1000318384170666
 40
0.1000318384170666
 40
0.1000318384170666
 40
0.1000318384170666
 40
0.1111111111111111
 40
0.1111111111111111
 40
0.1111111111111111
 40
0.1111111111111111
 10
797.4553805659988
 20
1995.300203086852
 30
0.0
 10
797.4770377532274
 20
1995.380168867996
 30
0.0
 10
797.4999282537319
 20
1995.460000518937
 30
0.0
 10
797.5240574547962
 20
1995.539700118059
 30
0.0
  0
SPLINE
  5
10F
330
87
100
AcDbEntity
  8
P-SANR-FIXT
100
AcDbSpline
210
0.0
220
0.0
230
1.0
 70
     8
 71
     3
 72
     8
 73
     4
 74
     0
 42
0.000000001
 43
0.0000000001
 40
0.1481481481481481
 40
0.1481481481481481
 40
0.1481481481481481
 40
0.1481481481481481
 40
0.1490797416051839
 40
0.1490797416051839
 40
0.1490797416051839
 40
0.1490797416051839
 10
797.8069658261286
 20
1996.332236827033
 30
0.0
 10
797.8096758657516
 20
1996.338805690593
 30
0.0
 10
797.8123942804708
 20
1996.345372153228
 30
0.0
 10
797.8151210606601
 20
1996.351936178001
 30
0.0
  0
SPLINE
  5
110
330
87
100
AcDbEntity
  8
P-SANR-FIXT
100
AcDbSpline
210
0.0
220
0.0
230
1.0
 70
     8
 71
     3
 72
     8
 73
     4
 74
     0
 42
0.000000001
 43
0.0000000001
 40
0.1851851851851852
 40
0.1851851851851852
 40
0.1851851851851852
 40
0.1851851851851852
 40
0.1975402271487115
 40
0.1975402271487115
 40
0.1975402271487115
 40
0.1975402271487115
 10
798.1693000936136
 20
1997.101997383804
 30
0.0
 10
798.2138713417265
 20
1997.185809076574
 30
0.0
 10
798.2598483526762
 20
1997.268940394092
 30
0.0
 10
798.3072086644266
 20
1997.351305083763
 30
0.0
  0
SPLINE
  5
111
330
87
100
AcDbEntity
  8
P-SANR-FIXT
100
AcDbSpline
210
0.0
220
0.0
230
1.0
 70
     8
 71
     3
 72
     8
 73
     4
 74
     0
 42
0.000000001
 43
0.0000000001
 40
0.2461268799208817
 40
0.2461268799208817
 40
0.2461268799208817
 40
0.2461268799208817
 40
0.2592592592592593
 40
0.2592592592592593
 40
0.2592592592592593
 40
0.2592592592592593
 10
798.9286218237038
 20
1998.282587760289
 30
0.0
 10
798.9900817245919
 20
1998.362519986789
 30
0.0
 10
799.0529632829003
 20
1998.441318358808
 30
0.0
 10
799.1172168342473
 20
1998.518943021734
 30
0.0
  0
SPLINE
  5
112
330
87
100
AcDbEntity
  8
P-SANR-FIXT
100
AcDbSpline
210
0.0
220
0.0
230
1.0
 70
     8
 71
     3
 72
     8
 73
     4
 74
     0
 42
0.000000001
 43
0.0000000001
 40
0.2940773191570945
 40
0.2940773191570945
 40
0.2940773191570945
 40
0.2940773191570945
 40
0.2962962962962963
 40
0.2962962962962963
 40
0.2962962962962963
 40
0.2962962962962963
 10
799.6562942772279
 20
1999.110879012942
 30
0.0
 10
799.6683215008421
 20
1999.122896383555
 30
0.0
 10
799.6803841329739
 20
1999.134877201811
 30
0.0
 10
799.6924819343649
 20
1999.146821277221
 30
0.0
  0
SPLINE
  5
113
330
87
100
AcDbEntity
  8
P-SANR-FIXT
100
AcDbSpline
210
0.0
220
0.0
230
1.0
 70
     8
 71
     3
 72
     8
 73
     4
 74
     0
 42
0.000000001
 43
0.0000000001
 40
0.3333333333333333
 40
0.3333333333333333
 40
0.3333333333333333
 40
0.3333333333333333
 40
0.3422805410203984
 40
0.3422805410203984
 40
0.3422805410203984
 40
0.3422805410203984
 10
800.326537563661
 20
1999.713303990326
 30
0.0
 10
800.3797823555682
 20
1999.756303298914
 30
0.0
 10
800.433534067703
 20
1999.798653676077
 30
0.0
 10
800.4877789312278
 20
1999.840344952286
 30
0.0
  0
SPLINE
  5
114
330
87
100
AcDbEntity
  8
P-SANR-FIXT
100
AcDbSpline
210
0.0
220
0.0
230
1.0
 70
     8
 71
     3
 72
     8
 73
     4
 74
     0
 42
0.000000001
 43
0.0000000001
 40
0.3703703703703703
 40
0.3703703703703703
 40
0.3703703703703703
 40
0.3703703703703703
 40
0.4074074074074074
 40
0.4074074074074074
 40
0.4074074074074074
 40
0.4074074074074074
 10
801.0128366108027
 20
2000.213188468905
 30
0.0
 10
801.2496373578953
 20
2000.368212152682
 30
0.0
 10
801.4941517825295
 20
2000.51140745233
 30
0.0
 10
801.745399754831
 20
2000.642045273735
 30
0.0
  0
SPLINE
  5
115
330
87
100
AcDbEntity
  8
P-SANR-FIXT
100
AcDbSpline
210
0.0
220
0.0
230
1.0
 70
     8
 71
     3
 72
     8
 73
     4
 74
     0
 42
0.000000001
 43
0.0000000001
 40
0.4394012806760353
 40
0.4394012806760353
 40
0.4394012806760353
 40
0.4394012806760353
 40
0.4444444444444445
 40
0.4444444444444445
 40
0.4444444444444445
 40
0.4444444444444445
 10
802.4109491118478
 20
2000.952003100318
 30
0.0
 10
802.446645674299
 20
2000.966765815515
 30
0.0
 10
802.4824516660594
 20
2000.981284848898
 30
0.0
 10
802.518364184862
 20
2000.995557209103
 30
0.0
  0
SPLINE
  5
116
330
87
100
AcDbEntity
  8
P-SANR-FIXT
100
AcDbSpline
210
0.0
220
0.0
230
1.0
 70
     8
 71
     3
 72
     8
 73
     4
 74
     0
 42
0.000000001
 43
0.0000000001
 40
0.4814814814814815
 40
0.4814814814814815
 40
0.4814814814814815
 40
0.4814814814814815
 40
0.4880038368402401
 40
0.4880038368402401
 40
0.4880038368402401
 40
0.4880038368402401
 10
803.3247072892514
 20
2001.269892563193
 30
0.0
 10
803.3728004507036
 20
2001.283621228362
 30
0.0
 10
803.4210042422323
 20
2001.296926389395
 30
0.0
 10
803.4693072673126
 20
2001.309807235265
 30
0.0
  0
SPLINE
  5
117
330
87
100
AcDbEntity
  8
P-SANR-FIXT
100
AcDbSpline
210
0.0
220
0.0
230
1.0
 70
     8
 71
     3
 72
     8
 73
     4
 74
     0
 42
0.000000001
 43
0.0000000001
 40
0.5185185185185186
 40
0.5185185185185186
 40
0.5185185185185186
 40
0.5185185185185186
 40
0.5555555555555556
 40
0.5555555555555556
 40
0.5555555555555556
 40
0.5555555555555556
 10
804.1526037891792
 20
2001.462626436806
 30
0.0
 10
804.430746740959
 20
2001.513047070993
 30
0.0
 10
804.710656500006
 20
2001.549685463885
 30
0.0
 10
804.9922079271238
 20
2001.57213224968
 30
0.0
  0
SPLINE
  5
118
330
87
100
AcDbEntity
  8
P-SANR-FIXT
100
AcDbSpline
210
0.0
220
0.0
230
1.0
 70
     8
 71
     3
 72
     8
 73
     4
 74
     0
 42
0.000000001
 43
0.0000000001
 40
0.5849163642350913
 40
0.5849163642350913
 40
0.5849163642350913
 40
0.5849163642350913
 40
0.5925925925925926
 40
0.5925925925925926
 40
0.5925925925925926
 40
0.5925925925925926
 10
805.6648505699383
 20
2001.598588341381
 30
0.0
 10
805.7237558320633
 20
2001.598578491335
 30
0.0
 10
805.7827165447266
 20
2001.597938335843
 30
0.0
 10
805.84170980548
 20
2001.596674796329
 30
0.0
  0
SPLINE
  5
119
330
87
100
AcDbEntity
  8
P-SANR-FIXT
100
AcDbSpline
210
0.0
220
0.0
230
1.0
 70
     8
 71
     3
 72
     8
 73
     4
 74
     0
 42
0.000000001
 43
0.0000000001
 40
0.6296296296296296
 40
0.6296296296296296
 40
0.6296296296296296
 40
0.6296296296296296
 40
0.6330841734597489
 40
0.6330841734597489
 40
0.6330841734597489
 40
0.6330841734597489
 10
806.6957308282859
 20
2001.536297381111
 30
0.0
 10
806.7221817790086
 20
2001.533095265161
 30
0.0
 10
806.7486112066763
 20
2001.529764910866
 30
0.0
 10
806.7750181787635
 20
2001.526308556794
 30
0.0
  0
SPLINE
  5
11A
330
87
100
AcDbEntity
  8
P-SANR-FIXT
100
AcDbSpline
210
0.0
220
0.0
230
1.0
 70
     8
 71
     3
 72
     8
 73
     4
 74
     0
 42
0.000000001
 43
0.0000000001
 40
0.6666666666666666
 40
0.6666666666666666
 40
0.6666666666666666
 40
0.6666666666666666
 40
0.7037037037037035
 40
0.7037037037037035
 40
0.7037037037037035
 40
0.7037037037037035
 10
807.5373494205518
 20
2001.390861307978
 30
0.0
 10
807.8140943762717
 20
2001.328323587242
 30
0.0
 10
808.0876593837782
 20
2001.253152260945
 30
0.0
 10
808.3554972770732
 20
2001.163639211976
 30
0.0
  0
SPLINE
  5
11B
330
87
100
AcDbEntity
  8
P-SANR-FIXT
100
AcDbSpline
210
0.0
220
0.0
230
1.0
 70
     8
 71
     3
 72
     8
 73
     4
 74
     0
 42
0.000000001
 43
0.0000000001
 40
0.7301170819858465
 40
0.7301170819858465
 40
0.7301170819858465
 40
0.7301170819858465
 40
0.7407407407407405
 40
0.7407407407407405
 40
0.7407407407407405
 40
0.7407407407407405
 10
808.9201162598525
 20
2000.951157758775
 30
0.0
 10
808.9949233645491
 20
2000.920216623882
 30
0.0
 10
809.0690310362795
 20
2000.887917759054
 30
0.0
 10
809.1425585975953
 20
2000.854416560351
 30
0.0
  0
SPLINE
  5
11C
330
87
100
AcDbEntity
  8
P-SANR-FIXT
100
AcDbSpline
210
0.0
220
0.0
230
1.0
 70
     8
 71
     3
 72
     8
 73
     4
 74
     0
 42
0.000000001
 43
0.0000000001
 40
0.7777777777777775
 40
0.7777777777777775
 40
0.7777777777777775
 40
0.7777777777777775
 40
0.7785027186052965
 40
0.7785027186052965
 40
0.7785027186052965
 40
0.7785027186052965
 10
809.8991795268572
 20
2000.470965457195
 30
0.0
 10
809.9039929875035
 20
2000.468205810797
 30
0.0
 10
809.9088022985302
 20
2000.465439445641
 30
0.0
 10
809.9136077209482
 20
2000.46266663443
 30
0.0
  0
SPLINE
  5
11D
330
87
100
AcDbEntity
  8
P-SANR-FIXT
100
AcDbSpline
210
0.0
220
0.0
230
1.0
 70
     8
 71
     3
 72
     8
 73
     4
 74
     0
 42
0.000000001
 43
0.0000000001
 40
0.8148148148148145
 40
0.8148148148148145
 40
0.8148148148148145
 40
0.8148148148148145
 40
0.8273193989392702
 40
0.8273193989392702
 40
0.8273193989392702
 40
0.8273193989392702
 10
810.616578813182
 20
2000.009469584988
 30
0.0
 10
810.6948133699722
 20
1999.953350689677
 30
0.0
 10
810.7732284090655
 20
1999.89689129531
 30
0.0
 10
810.8508340311392
 20
1999.839363759727
 30
0.0
  0
SPLINE
  5
11E
330
87
100
AcDbEntity
  8
P-SANR-FIXT
100
AcDbSpline
210
0.0
220
0.0
230
1.0
 70
     8
 71
     3
 72
     8
 73
     4
 74
     0
 42
0.000000001
 43
0.0000000001
 40
0.8757603316608776
 40
0.8757603316608776
 40
0.8757603316608776
 40
0.8757603316608776
 40
0.8888888888888883
 40
0.8888888888888883
 40
0.8888888888888883
 40
0.8888888888888883
 10
811.6839597591805
 20
1999.10276060267
 30
0.0
 10
811.7544837376691
 20
1999.032034196107
 30
0.0
 10
811.8212797644957
 20
1998.958085924028
 30
0.0
 10
811.8851050785261
 20
1998.881571014177
 30
0.0
  0
SPLINE
  5
11F
330
87
100
AcDbEntity
  8
P-SANR-FIXT
100
AcDbSpline
210
0.0
220
0.0
230
1.0
 70
     8
 71
     3
 72
     8
 73
     4
 74
     0
 42
0.000000001
 43
0.0000000001
 40
0.924162555839732
 40
0.924162555839732
 40
0.924162555839732
 40
0.924162555839732
 40
0.9259259259259254
 40
0.9259259259259254
 40
0.9259259259259254
 40
0.9259259259259254
 10
812.4084075619018
 20
1998.273542290808
 30
0.0
 10
812.4165377296002
 20
1998.262901043997
 30
0.0
 10
812.4245981576116
 20
1998.252198021022
 30
0.0
 10
812.4325920631237
 20
1998.241436072164
 30
0.0
  0
SPLINE
  5
120
330
87
100
AcDbEntity
  8
P-SANR-FIXT
100
AcDbSpline
210
0.0
220
0.0
230
1.0
 70
     8
 71
     3
 72
     8
 73
     4
 74
     0
 42
0.000000001
 43
0.0000000001
 40
0.9629629629629622
 40
0.9629629629629622
 40
0.9629629629629622
 40
0.9629629629629622
 40
0.9723924044933184
 40
0.9723924044933184
 40
0.9723924044933184
 40
0.9723924044933184
 10
812.9104778095273
 20
1997.540771325073
 30
0.0
 10
812.948371669648
 20
1997.478949837872
 30
0.0
 10
812.9846161391105
 20
1997.415633923479
 30
0.0
 10
813.019964653475
 20
1997.351506832745
 30
0.0
  0
LINE
  5
121
330
87
100
AcDbEntity
  8
P-SANR-FIXT
100
AcDbLine
 10
793.6664074431889
 20
2013.349999999906
 30
0.0
 11
793.6664074431889
 21
1982.849999999906
 31
0.0
  0
LINE
  5
122
330
87
100
AcDbEntity
  8
P-SANR-FIXT
100
AcDbLine
 10
796.7235817369489
 20
1976.199999999906
 30
0.0
 11
799.993254205748
 21
1976.199999999906
 31
0.0
  0
LINE
  5
123
330
87
100
AcDbEntity
  8
P-SANR-FIXT
100
AcDbLine
 10
812.6924883680521
 20
1976.199999999906
 30
0.0
 11
818.8561591205603
 21
1976.199999999906
 31
0.0
  0
LINE
  5
124
330
87
100
AcDbEntity
  8
P-SANR-FIXT
100
AcDbLine
 10
831.3395606806304
 20
1976.199999999906
 30
0.0
 11
834.6092331494871
 21
1976.199999999906
 31
0.0
  0
SPLINE
  5
125
330
87
100
AcDbEntity
  8
P-SANR-FIXT
100
AcDbSpline
210
0.0
220
0.0
230
1.0
 70
     8
 71
     3
 72
     9
 73
     5
 74
     0
 42
0.000000001
 43
0.0000000001
 40
-0.9960600726695885
 40
-0.9960600726695885
 40
-0.9960600726695885
 40
-0.9960600726695885
 40
-0.5
 40
0.0
 40
0.0
 40
0.0
 40
0.0
 10
834.937373265301
 20
1984.213238663794
 30
0.0
 10
835.2527047441473
 20
1983.769127175565
 30
0.0
 10
835.7559523199205
 20
1983.095180632296
 30
0.0
 10
835.9418812990211
 20
1982.858571506342
 30
0.0
 10
835.9418812990211
 20
1982.849999999906
 30
0.0
  0
SPLINE
  5
126
330
87
100
AcDbEntity
  8
P-SANR-FIXT
100
AcDbSpline
210
0.0
220
0.0
230
1.0
 70
     8
 71
     3
 72
     9
 73
     5
 74
     0
 42
0.000000001
 43
0.0000000001
 40
-1.0
 40
-1.0
 40
-1.0
 40
-1.0
 40
-0.5
 40
0.0
 40
0.0
 40
0.0
 40
0.0
 10
795.3909335873569
 20
1982.849999999906
 30
0.0
 10
795.3909335873569
 20
1982.858571506343
 30
0.0
 10
795.5775980107208
 20
1983.096116542476
 30
0.0
 10
796.0840963104283
 20
1983.774465625132
 30
0.0
 10
796.4029673629026
 20
1984.22384117809
 30
0.0
  0
LINE
  5
127
330
87
100
AcDbEntity
  8
P-SANR-FIXT
100
AcDbLine
 10
810.6269725070392
 20
1986.200060387577
 30
0.0
 11
810.6031987025241
 21
1986.200060387577
 31
0.0
  0
SPLINE
  5
128
330
87
100
AcDbEntity
  8
P-SANR-FIXT
100
AcDbSpline
210
0.0
220
0.0
230
1.0
 70
     8
 71
     3
 72
     8
 73
     4
 74
     0
 42
0.000000001
 43
0.0000000001
 40
-1.0
 40
-1.0
 40
-1.0
 40
-1.0
 40
-0.8571428571428571
 40
-0.8571428571428571
 40
-0.8571428571428571
 40
-0.8571428571428571
 10
812.6456015300695
 20
1988.248108626673
 30
0.0
 10
812.5455151681299
 20
1988.104139586211
 30
0.0
 10
812.4413637868924
 20
1987.963776639223
 30
0.0
 10
812.3329149038678
 20
1987.826701385498
 30
0.0
  0
SPLINE
  5
129
330
87
100
AcDbEntity
  8
P-SANR-FIXT
100
AcDbSpline
210
0.0
220
0.0
230
1.0
 70
     8
 71
     3
 72
     8
 73
     4
 74
     0
 42
0.000000001
 43
0.0000000001
 40
-0.5834821779851524
 40
-0.5834821779851524
 40
-0.5834821779851524
 40
-0.5834821779851524
 40
-0.5714285714285714
 40
-0.5714285714285714
 40
-0.5714285714285714
 40
-0.5714285714285714
 10
811.6755698891513
 20
1987.08833202349
 30
0.0
 10
811.6656324588531
 20
1987.078398509364
 30
0.0
 10
811.6556886443774
 20
1987.068508186918
 30
0.0
 10
811.6457383957422
 20
1987.058660529844
 30
0.0
  0
SPLINE
  5
12A
330
87
100
AcDbEntity
  8
P-SANR-FIXT
100
AcDbSpline
210
0.0
220
0.0
230
1.0
 70
     8
 71
     3
 72
    10
 73
     6
 74
     0
 42
0.000000001
 43
0.0000000001
 40
-0.2857142857142858
 40
-0.2857142857142858
 40
-0.2857142857142858
 40
-0.2857142857142858
 40
-0.2678571428571428
 40
-0.2142857142857143
 40
-0.1428571428571428
 40
-0.1428571428571428
 40
-0.1428571428571428
 40
-0.1428571428571428
 10
810.9684443514966
 20
1986.456311667955
 30
0.0
 10
810.9562885929932
 20
1986.446614087927
 30
0.0
 10
810.9083646122327
 20
1986.408606075629
 30
0.0
 10
810.8149800968828
 20
1986.336193200168
 30
0.0
 10
810.7526519474557
 20
1986.289604619924
 30
0.0
 10
810.7215083122834
 20
1986.266556124137
 30
0.0
  0
LINE
  5
12B
330
87
100
AcDbEntity
  8
P-SANR-FIXT
100
AcDbLine
 10
810.6303608420653
 20
1986.200060387577
 30
0.0
 11
819.5296585446236
 21
1986.200060387577
 31
0.0
  0
LINE
  5
12C
330
87
100
AcDbEntity
  8
P-SANR-FIXT
100
AcDbLine
 10
799.8414987662839
 20
1986.200060387577
 30
0.0
 11
800.25823890352
 21
1986.200060387577
 31
0.0
  0
SPLINE
  5
12D
330
87
100
AcDbEntity
  8
P-SANR-FIXT
100
AcDbSpline
210
0.0
220
0.0
230
1.0
 70
     8
 71
     3
 72
     8
 73
     4
 74
     0
 42
0.000000001
 43
0.0000000001
 40
-0.5
 40
-0.5
 40
-0.5
 40
-0.5
 40
0.0
 40
0.0
 40
0.0
 40
0.0
 10
800.6679461818654
 20
1986.225017453088
 30
0.0
 10
800.6488346425763
 20
1986.238912513672
 30
0.0
 10
800.622141824434
 20
1986.258421952109
 30
0.0
 10
800.5880649660172
 20
1986.2838106184
 30
0.0
  0
SPLINE
  5
12E
330
87
100
AcDbEntity
  8
P-SANR-FIXT
100
AcDbSpline
210
0.0
220
0.0
230
1.0
 70
     8
 71
     3
 72
     8
 73
     4
 74
     0
 42
0.000000001
 43
0.0000000001
 40
0.5496520016839765
 40
0.5496520016839765
 40
0.5496520016839765
 40
0.5496520016839765
 40
1.0
 40
1.0
 40
1.0
 40
1.0
 10
800.2588733102401
 20
1986.227886741772
 30
0.0
 10
800.3705219036469
 20
1986.241523953749
 30
0.0
 10
800.4802524555724
 20
1986.260130799358
 30
0.0
 10
800.5880649660172
 20
1986.2838106184
 30
0.0
  0
SPLINE
  5
12F
330
87
100
AcDbEntity
  8
P-SANR-FIXT
100
AcDbSpline
210
0.0
220
0.0
230
1.0
 70
     8
 71
     3
 72
     8
 73
     4
 74
     0
 42
0.000000001
 43
0.0000000001
 40
0.4203263259501031
 40
0.4203263259501031
 40
0.4203263259501031
 40
0.4203263259501031
 40
0.5
 40
0.5
 40
0.5
 40
0.5
 10
814.0935705719893
 20
1994.2103001086
 30
0.0
 10
814.1002269968035
 20
1994.159811828437
 30
0.0
 10
814.1068211259531
 20
1994.109316362177
 30
0.0
 10
814.1121718070253
 20
1994.058678418646
 30
0.0
  0
SPLINE
  5
130
330
87
100
AcDbEntity
  8
P-SANR-FIXT
100
AcDbSpline
210
0.0
220
0.0
230
1.0
 70
     8
 71
     3
 72
     9
 73
     5
 74
     0
 42
0.000000001
 43
0.0000000001
 40
0.2163337526766374
 40
0.2163337526766374
 40
0.2163337526766374
 40
0.2163337526766374
 40
0.3333333333333333
 40
0.4329712387203567
 40
0.4329712387203567
 40
0.4329712387203567
 40
0.4329712387203567
 10
814.0928754602906
 20
1991.983742208606
 30
0.0
 10
814.0666003089343
 20
1991.784956873327
 30
0.0
 10
814.0009032289469
 20
1991.420679381126
 30
0.0
 10
813.9252225110849
 20
1991.052996480037
 30
0.0
 10
813.8852213125385
 20
1990.885128235742
 30
0.0
  0
SPLINE
  5
131
330
87
100
AcDbEntity
  8
P-SANR-FIXT
100
AcDbSpline
210
0.0
220
0.0
230
1.0
 70
     8
 71
     3
 72
     8
 73
     4
 74
     0
 42
0.000000001
 43
0.0000000001
 40
0.6468617462737313
 40
0.6468617462737313
 40
0.6468617462737313
 40
0.6468617462737313
 40
0.6666666666666666
 40
0.6666666666666666
 40
0.6666666666666666
 40
0.6666666666666666
 10
813.5179338282281
 20
1989.843765480647
 30
0.0
 10
813.5049037843854
 20
1989.812316051292
 30
0.0
 10
813.4918624162088
 20
1989.780879452062
 30
0.0
 10
813.478290387481
 20
1989.749703764544
 30
0.0
  0
SPLINE
  5
132
330
87
100
AcDbEntity
  8
P-SANR-FIXT
100
AcDbSpline
210
0.0
220
0.0
230
1.0
 70
     8
 71
     3
 72
     8
 73
     4
 74
     0
 42
0.000000001
 43
0.0000000001
 40
0.8663884474020989
 40
0.8663884474020989
 40
0.8663884474020989
 40
0.8663884474020989
 40
1.0
 40
1.0
 40
1.0
 40
1.0
 10
813.0168988830028
 20
1988.832606785635
 30
0.0
 10
812.9015061423853
 20
1988.634121591366
 30
0.0
 10
812.7777435107358
 20
1988.439440159997
 30
0.0
 10
812.6456015300695
 20
1988.248108626673
 30
0.0
  0
SPLINE
  5
133
330
87
100
AcDbEntity
  8
P-SANR-FIXT
100
AcDbSpline
210
0.0
220
0.0
230
1.0
 70
     8
 71
     3
 72
     8
 73
     4
 74
     0
 42
0.000000001
 43
0.0000000001
 40
0.3173528120114266
 40
0.3173528120114266
 40
0.3173528120114266
 40
0.3173528120114266
 40
0.3198649653886204
 40
0.3198649653886204
 40
0.3198649653886204
 40
0.3198649653886204
 10
813.3260320317285
 20
1996.78484699188
 30
0.0
 10
813.3198668694912
 20
1996.784340111722
 30
0.0
 10
813.3137022100958
 20
1996.783830386765
 30
0.0
 10
813.3075380393146
 20
1996.783317886693
 30
0.0
  0
SPLINE
  5
134
330
87
100
AcDbEntity
  8
P-SANR-FIXT
100
AcDbSpline
210
0.0
220
0.0
230
1.0
 70
     8
 71
     3
 72
    26
 73
    22
 74
     0
 42
0.000000001
 43
0.0000000001
 40
0.0
 40
0.0
 40
0.0
 40
0.0
 40
0.1666666666666666
 40
0.25
 40
0.2916666666666666
 40
0.3333333333333333
 40
0.375
 40
0.4166666666666666
 40
0.4583333333333333
 40
0.5
 40
0.5416666666666666
 40
0.5833333333333333
 40
0.625
 40
0.6666666666666666
 40
0.7083333333333333
 40
0.75
 40
0.7916666666666668
 40
0.8333333333333333
 40
0.875
 40
0.9166666666666667
 40
0.9631517801190753
 40
0.9631517801190753
 40
0.9631517801190753
 40
0.9631517801190753
 10
815.6664074431892
 20
1996.868188937335
 30
0.0
 10
816.0752800847264
 20
1996.869601363638
 30
0.0
 10
816.6886379081567
 20
1996.857907669161
 30
0.0
 10
817.4071598261598
 20
1996.825778228761
 30
0.0
 10
817.8176765196297
 20
1996.800407048473
 30
0.0
 10
818.1244939515517
 20
1996.775506996356
 30
0.0
 10
818.430630785013
 20
1996.746643076895
 30
0.0
 10
818.7364456076036
 20
1996.714328982557
 30
0.0
 10
819.0413899661098
 20
1996.675861646059
 30
0.0
 10
819.3443623473632
 20
1996.627653049694
 30
0.0
 10
819.6473805188183
 20
1996.572889645492
 30
0.0
 10
819.9502864314681
 20
1996.512706880746
 30
0.0
 10
820.2507292284209
 20
1996.442183712211
 30
0.0
 10
820.5436684581504
 20
1996.354827194904
 30
0.0
 10
820.8370148555557
 20
1996.256557280012
 30
0.0
 10
821.131161055997
 20
1996.149622450319
 30
0.0
 10
821.4141171544792
 20
1996.024011507742
 30
0.0
 10
821.6745925793942
 20
1995.870974952522
 30
0.0
 10
821.9108819659403
 20
1995.689265439494
 30
0.0
 10
822.1397838606485
 20
1995.477792641473
 30
0.0
 10
822.2818197566546
 20
1995.3167550659
 30
0.0
 10
822.3530541334859
 20
1995.227095997119
 30
0.0
  0
SPLINE
  5
135
330
87
100
AcDbEntity
  8
P-SANR-FIXT
100
AcDbSpline
210
0.0
220
0.0
230
1.0
 70
     8
 71
     3
 72
     9
 73
     5
 74
     0
 42
0.000000001
 43
0.0000000001
 40
0.0
 40
0.0
 40
0.0
 40
0.0
 40
0.5
 40
1.0
 40
1.0
 40
1.0
 40
1.0
 10
813.3263143467754
 20
1996.784538808006
 30
0.0
 10
813.717183228711
 20
1996.813577599368
 30
0.0
 10
814.4980676267154
 20
1996.856568102884
 30
0.0
 10
815.2772452929868
 20
1996.869351390573
 30
0.0
 10
815.6664074431892
 20
1996.868188937335
 30
0.0
  0
SPLINE
  5
136
330
87
100
AcDbEntity
  8
P-SANR-FIXT
100
AcDbSpline
210
0.0
220
0.0
230
1.0
 70
     8
 71
     3
 72
     8
 73
     4
 74
     0
 42
0.000000001
 43
0.0000000001
 40
-0.8
 40
-0.8
 40
-0.8
 40
-0.8
 40
-0.6
 40
-0.6
 40
-0.6
 40
-0.6
 10
813.4398857924082
 20
1996.538326266729
 30
0.0
 10
813.481098779091
 20
1996.445086759139
 30
0.0
 10
813.5246135457661
 20
1996.339347688558
 30
0.0
 10
813.5692943116767
 20
1996.225046927486
 30
0.0
  0
SPLINE
  5
137
330
87
100
AcDbEntity
  8
P-SANR-FIXT
100
AcDbSpline
210
0.0
220
0.0
230
1.0
 70
     8
 71
     3
 72
     8
 73
     4
 74
     0
 42
0.000000001
 43
0.0000000001
 40
-0.2
 40
-0.2
 40
-0.2
 40
-0.2
 40
0.0
 40
0.0
 40
0.0
 40
0.0
 10
813.8359087582736
 20
1995.447178787905
 30
0.0
 10
813.8770363627051
 20
1995.304130594249
 30
0.0
 10
813.9151856082932
 20
1995.157193698904
 30
0.0
 10
813.9501847155012
 20
1995.005002389072
 30
0.0
  0
SPLINE
  5
138
330
87
100
AcDbEntity
  8
P-SANR-FIXT
100
AcDbSpline
210
0.0
220
0.0
230
1.0
 70
     8
 71
     3
 72
     8
 73
     4
 74
     0
 42
0.000000001
 43
0.0000000001
 40
-1.0
 40
-1.0
 40
-1.0
 40
-1.0
 40
-0.9982404963654291
 40
-0.9982404963654291
 40
-0.9982404963654291
 40
-0.9982404963654291
 10
810.6303608420654
 20
1986.200060387577
 30
0.0
 10
810.6263256658497
 20
1986.197157401781
 30
0.0
 10
810.6222718457798
 20
1986.19424622159
 30
0.0
 10
810.6181993198347
 20
1986.191326953148
 30
0.0
  0
SPLINE
  5
139
330
87
100
AcDbEntity
  8
P-SANR-FIXT
100
AcDbSpline
210
0.0
220
0.0
230
1.0
 70
     8
 71
     3
 72
    10
 73
     6
 74
     0
 42
0.000000001
 43
0.0000000001
 40
-0.9259259259259259
 40
-0.9259259259259259
 40
-0.9259259259259259
 40
-0.9259259259259259
 40
-0.9131944444444444
 40
-0.8914930555555555
 40
-0.8888888888888889
 40
-0.8888888888888889
 40
-0.8888888888888889
 40
-0.8888888888888889
 10
810.0169688439574
 20
1985.797769882402
 30
0.0
 10
809.9756231731376
 20
1985.773138322425
 30
0.0
 10
809.8608393712039
 20
1985.706031983692
 30
0.0
 10
809.7289488150053
 20
1985.63305111882
 30
0.0
 10
809.6374591264456
 20
1985.584622850404
 30
0.0
 10
809.6275927617833
 20
1985.579425286583
 30
0.0
  0
SPLINE
  5
13A
330
87
100
AcDbEntity
  8
P-SANR-FIXT
100
AcDbSpline
210
0.0
220
0.0
230
1.0
 70
     8
 71
     3
 72
    10
 73
     6
 74
     0
 42
0.000000001
 43
0.0000000001
 40
-0.8518518518518519
 40
-0.8518518518518519
 40
-0.8518518518518519
 40
-0.8518518518518519
 40
-0.84375
 40
-0.8263888888888889
 40
-0.8148148148148148
 40
-0.8148148148148148
 40
-0.8148148148148148
 40
-0.8148148148148148
 10
809.1597063970745
 20
1985.351008352007
 30
0.0
 10
809.122609145978
 20
1985.334284786381
 30
0.0
 10
809.0044515476197
 20
1985.282025102783
 30
0.0
 10
808.8266492444287
 20
1985.208214871972
 30
0.0
 10
808.6855620901433
 20
1985.154035344647
 30
0.0
 10
808.6290543084516
 20
1985.133021549322
 30
0.0
  0
SPLINE
  5
13B
330
87
100
AcDbEntity
  8
P-SANR-FIXT
100
AcDbSpline
210
0.0
220
0.0
230
1.0
 70
     8
 71
     3
 72
    10
 73
     6
 74
     0
 42
0.000000001
 43
0.0000000001
 40
-0.7777777777777778
 40
-0.7777777777777778
 40
-0.7777777777777778
 40
-0.7777777777777778
 40
-0.7743055555555556
 40
-0.7569444444444445
 40
-0.7407407407407407
 40
-0.7407407407407407
 40
-0.7407407407407407
 40
-0.7407407407407407
 10
808.0964007690253
 20
1984.954744038361
 30
0.0
 10
808.0802820954016
 20
1984.949936763232
 30
0.0
 10
807.9837771377693
 20
1984.921467765288
 30
0.0
 10
807.8137870923422
 20
1984.874565460262
 30
0.0
 10
807.6598925556096
 20
1984.836722698135
 30
0.0
 10
807.5857019503178
 20
1984.819526741503
 30
0.0
  0
SPLINE
  5
13C
330
87
100
AcDbEntity
  8
P-SANR-FIXT
100
AcDbSpline
210
0.0
220
0.0
230
1.0
 70
     8
 71
     3
 72
    10
 73
     6
 74
     0
 42
0.000000001
 43
0.0000000001
 40
-0.7037037037037038
 40
-0.7037037037037038
 40
-0.7037037037037038
 40
-0.7037037037037038
 40
-0.6875
 40
-0.6701388888888889
 40
-0.6666666666666668
 40
-0.6666666666666668
 40
-0.6666666666666668
 40
-0.6666666666666668
 10
807.0792773194323
 20
1984.718242969928
 30
0.0
 10
807.0058180451232
 20
1984.705860813516
 30
0.0
 10
806.8540221990438
 20
1984.682333998094
 30
0.0
 10
806.6873664172794
 20
1984.661086881018
 30
0.0
 10
806.5939636195501
 20
1984.650746542134
 30
0.0
 10
806.5784065047408
 20
1984.649067699634
 30
0.0
  0
SPLINE
  5
13D
330
87
100
AcDbEntity
  8
P-SANR-FIXT
100
AcDbSpline
210
0.0
220
0.0
230
1.0
 70
     8
 71
     3
 72
     8
 73
     4
 74
     0
 42
0.000000001
 43
0.0000000001
 40
-0.5976113267289202
 40
-0.5976113267289202
 40
-0.5976113267289202
 40
-0.5976113267289202
 40
-0.5925925925925926
 40
-0.5925925925925926
 40
-0.5925925925925926
 40
-0.5925925925925926
 10
805.6649743083275
 20
1984.600004265166
 30
0.0
 10
805.643253484537
 20
1984.600007891459
 30
0.0
 10
805.6215665829878
 20
1984.600094622175
 30
0.0
 10
805.5999147282305
 20
1984.600263653886
 30
0.0
  0
SPLINE
  5
13E
330
87
100
AcDbEntity
  8
P-SANR-FIXT
100
AcDbSpline
210
0.0
220
0.0
230
1.0
 70
     8
 71
     3
 72
     9
 73
     5
 74
     0
 42
0.000000001
 43
0.0000000001
 40
-0.5185185185185186
 40
-0.5185185185185186
 40
-0.5185185185185186
 40
-0.5185185185185186
 40
-0.5138888888888889
 40
-0.4814814814814815
 40
-0.4814814814814815
 40
-0.4814814814814815
 40
-0.4814814814814815
 10
804.6634774054782
 20
1984.659379334242
 30
0.0
 10
804.6444570552163
 20
1984.661638261359
 30
0.0
 10
804.492608998027
 20
1984.680193677618
 30
0.0
 10
804.3434289654987
 20
1984.702572324142
 30
0.0
 10
804.2150928353851
 20
1984.724811993745
 30
0.0
  0
SPLINE
  5
13F
330
87
100
AcDbEntity
  8
P-SANR-FIXT
100
AcDbSpline
210
0.0
220
0.0
230
1.0
 70
     8
 71
     3
 72
     8
 73
     4
 74
     0
 42
0.000000001
 43
0.0000000001
 40
-0.4444444444444445
 40
-0.4444444444444445
 40
-0.4444444444444445
 40
-0.4444444444444445
 40
-0.4074074074074075
 40
-0.4074074074074075
 40
-0.4074074074074075
 40
-0.4074074074074075
 10
803.7839189597406
 20
1984.811077445697
 30
0.0
 10
803.643215983773
 20
1984.843037237261
 30
0.0
 10
803.505611248244
 20
1984.878067894055
 30
0.0
 10
803.371594516593
 20
1984.915639718164
 30
0.0
  0
SPLINE
  5
140
330
87
100
AcDbEntity
  8
P-SANR-FIXT
100
AcDbSpline
210
0.0
220
0.0
230
1.0
 70
     8
 71
     3
 72
     9
 73
     5
 74
     0
 42
0.000000001
 43
0.0000000001
 40
-0.3333333333333333
 40
-0.3333333333333333
 40
-0.3333333333333333
 40
-0.3333333333333333
 40
-0.3055555555555556
 40
-0.2962962962962965
 40
-0.2962962962962965
 40
-0.2962962962962965
 40
-0.2962962962962965
 10
802.6147069552177
 20
1985.16670786286
 30
0.0
 10
802.5265464981833
 20
1985.200611642431
 30
0.0
 10
802.4125052890864
 20
1985.246721170004
 30
0.0
 10
802.3020295405716
 20
1985.294118289628
 30
0.0
 10
802.2746614090547
 20
1985.306028778998
 30
0.0
  0
SPLINE
  5
141
330
87
100
AcDbEntity
  8
P-SANR-FIXT
100
AcDbSpline
210
0.0
220
0.0
230
1.0
 70
     8
 71
     3
 72
    10
 73
     6
 74
     0
 42
0.000000001
 43
0.0000000001
 40
-0.2222222222222222
 40
-0.2222222222222222
 40
-0.2222222222222222
 40
-0.2222222222222222
 40
-0.1944444444444444
 40
-0.1666666666666666
 40
-0.1481481481481486
 40
-0.1481481481481486
 40
-0.1481481481481486
 40
-0.1481481481481486
 10
801.6781475191772
 20
1985.593750418489
 30
0.0
 10
801.611783832889
 20
1985.62901124874
 30
0.0
 10
801.4849534467847
 20
1985.698624848987
 30
0.0
 10
801.3272862250747
 20
1985.790354146001
 30
0.0
 10
801.2406173649589
 20
1985.843037935498
 30
0.0
 10
801.2074456709218
 20
1985.863511705765
 30
0.0
  0
SPLINE
  5
142
330
87
100
AcDbEntity
  8
P-SANR-FIXT
100
AcDbSpline
210
0.0
220
0.0
230
1.0
 70
     8
 71
     3
 72
     8
 73
     4
 74
     0
 42
0.000000001
 43
0.0000000001
 40
-0.0054353976336642
 40
-0.0054353976336642
 40
-0.0054353976336642
 40
-0.0054353976336642
 40
0.0
 40
0.0
 40
0.0
 40
0.0
 10
800.71087679643
 20
1986.194008039722
 30
0.0
 10
800.7079456542001
 20
1986.196111706846
 30
0.0
 10
800.7051379815019
 20
1986.198129509935
 30
0.0
 10
800.7024540443129
 20
1986.200060387577
 30
0.0
  0
SPLINE
  5
143
330
87
100
AcDbEntity
  8
P-SANR-FIXT
100
AcDbSpline
210
0.0
220
0.0
230
1.0
 70
     8
 71
     3
 72
    19
 73
    15
 74
     0
 42
0.000000001
 43
0.0000000001
 40
0.0
 40
0.0
 40
0.0
 40
0.0
 40
0.1428571428571428
 40
0.2857142857142857
 40
0.4285714285714286
 40
0.5
 40
0.5714285714285714
 40
0.625
 40
0.6785714285714287
 40
0.7321428571428572
 40
0.7857142857142857
 40
0.8392857142857142
 40
0.8928571428571427
 40
1.0
 40
1.0
 40
1.0
 40
1.0
 10
796.4029673629026
 20
1984.22384117809
 30
0.0
 10
796.4754063236625
 20
1984.326026734315
 30
0.0
 10
796.6446576363581
 20
1984.536883724299
 30
0.0
 10
796.9684099289337
 20
1984.870968019249
 30
0.0
 10
797.3045450673424
 20
1985.15365013697
 30
0.0
 10
797.6155058149578
 20
1985.375272487308
 30
0.0
 10
797.848595526143
 20
1985.523007539469
 30
0.0
 10
798.0765506519881
 20
1985.651547217464
 30
0.0
 10
798.2938056058508
 20
1985.76325726655
 30
0.0
 10
798.5229268104244
 20
1985.864901538126
 30
0.0
 10
798.7650307854959
 20
1985.961108456104
 30
0.0
 10
799.018455889641
 20
1986.046032815403
 30
0.0
 10
799.3692257070538
 20
1986.135355227759
 30
0.0
 10
799.6483693070957
 20
1986.180469437073
 30
0.0
 10
799.841498766284
 20
1986.200060387577
 30
0.0
  0
LINE
  5
144
330
87
100
AcDbEntity
  8
P-SANR-FIXT
100
AcDbLine
 10
841.6664074431876
 20
1981.599999999947
 30
0.0
 11
841.6664074431876
 21
1981.672687171993
 31
0.0
  0
LINE
  5
145
330
87
100
AcDbEntity
  8
P-SANR-FIXT
100
AcDbLine
 10
841.6664074431878
 20
1988.546550714326
 30
0.0
 11
841.6664074431876
 21
1981.672687171993
 31
0.0
  0
LINE
  5
146
330
87
100
AcDbEntity
  8
P-SANR-FIXT
100
AcDbLine
 10
841.6664074431878
 20
1988.546550714326
 30
0.0
 11
841.6664074431878
 21
1991.226136457868
 31
0.0
  0
LINE
  5
147
330
87
100
AcDbEntity
  8
P-SANR-FIXT
100
AcDbLine
 10
841.6664074431878
 20
2004.973863542236
 30
0.0
 11
841.6664074431878
 21
1991.226136457868
 31
0.0
  0
LINE
  5
148
330
87
100
AcDbEntity
  8
P-SANR-FIXT
100
AcDbLine
 10
841.6664074431878
 20
2004.973863542236
 30
0.0
 11
841.6664074431878
 21
2007.653449285649
 31
0.0
  0
LINE
  5
149
330
87
100
AcDbEntity
  8
P-SANR-FIXT
100
AcDbLine
 10
841.6664074431876
 20
2014.527312827942
 30
0.0
 11
841.6664074431878
 21
2007.653449285649
 31
0.0
  0
LINE
  5
14A
330
87
100
AcDbEntity
  8
P-SANR-FIXT
100
AcDbLine
 10
841.6664074431876
 20
2014.527312827942
 30
0.0
 11
841.6664074431876
 21
2014.599999999954
 31
0.0
  0
LINE
  5
14B
330
87
100
AcDbEntity
  8
P-SANR-FIXT
100
AcDbLine
 10
870.6664074432042
 20
2007.249999999964
 30
0.0
 11
870.6664074432042
 21
1988.949999999937
 31
0.0
  0
LINE
  5
14C
330
87
100
AcDbEntity
  8
P-SANR-FIXT
100
AcDbLine
 10
869.3664074432042
 20
2008.549999999964
 30
0.0
 11
869.3664074432041
 21
1987.649999999937
 31
0.0
  0
LINE
  5
14D
330
87
100
AcDbEntity
  8
P-SANR-FIXT
100
AcDbLine
 10
854.6664074431873
 20
2009.899999999954
 30
0.0
 11
854.6664074431872
 21
1986.299999999947
 31
0.0
  0
SPLINE
  5
14E
330
87
100
AcDbEntity
  8
P-SANR-FIXT
100
AcDbSpline
210
0.0
220
0.0
230
1.0
 70
     8
 71
     3
 72
     9
 73
     5
 74
     0
 42
0.000000001
 43
0.0000000001
 40
0.0
 40
0.0
 40
0.0
 40
0.0
 40
0.5
 40
1.0
 40
1.0
 40
1.0
 40
1.0
 10
851.9585325660923
 20
2007.653449285649
 30
0.0
 10
852.5346363020865
 20
2008.780495431176
 30
0.0
 10
853.1107400380808
 20
2011.053185500419
 30
0.0
 10
852.5346363020865
 20
2013.363071126038
 30
0.0
 10
851.9585325660921
 20
2014.527312827942
 30
0.0
  0
SPLINE
  5
14F
330
87
100
AcDbEntity
  8
P-SANR-FIXT
100
AcDbSpline
210
0.0
220
0.0
230
1.0
 70
     8
 71
     3
 72
     9
 73
     5
 74
     0
 42
0.000000001
 43
0.0000000001
 40
0.0
 40
0.0
 40
0.0
 40
0.0
 40
0.5
 40
1.0
 40
1.0
 40
1.0
 40
1.0
 10
851.9585325660923
 20
1991.226136457868
 30
0.0
 10
852.5346363020531
 20
1993.480228748886
 30
0.0
 10
853.1107400380141
 20
1998.025608887299
 30
0.0
 10
852.5346363020531
 20
2002.645380138465
 30
0.0
 10
851.9585325660923
 20
2004.973863542236
 30
0.0
  0
SPLINE
  5
150
330
87
100
AcDbEntity
  8
P-SANR-FIXT
100
AcDbSpline
210
0.0
220
0.0
230
1.0
 70
     8
 71
     3
 72
     9
 73
     5
 74
     0
 42
0.000000001
 43
0.0000000001
 40
0.0
 40
0.0
 40
0.0
 40
0.0
 40
0.5
 40
1.0
 40
1.0
 40
1.0
 40
1.0
 10
851.9585325660919
 20
1981.672687171993
 30
0.0
 10
852.5346363020652
 20
1982.799733317526
 30
0.0
 10
853.1107400380383
 20
1985.072423386782
 30
0.0
 10
852.5346363020654
 20
1987.382309012415
 30
0.0
 10
851.9585325660921
 20
1988.546550714326
 30
0.0
  0
LINE
  5
151
330
87
100
AcDbEntity
  8
P-SANR-FIXT
100
AcDbLine
 10
851.9585325660921
 20
1988.546550714326
 30
0.0
 11
841.6664074431878
 21
1988.546550714326
 31
0.0
  0
LINE
  5
152
330
87
100
AcDbEntity
  8
P-SANR-FIXT
100
AcDbLine
 10
851.9585325660923
 20
1991.226136457868
 30
0.0
 11
851.9585325660921
 21
1988.546550714326
 31
0.0
  0
LINE
  5
153
330
87
100
AcDbEntity
  8
P-SANR-FIXT
100
AcDbLine
 10
841.6664074431878
 20
1991.226136457868
 30
0.0
 11
851.9585325660921
 21
1991.226136457868
 31
0.0
  0
LINE
  5
154
330
87
100
AcDbEntity
  8
P-SANR-FIXT
100
AcDbLine
 10
851.9585325660923
 20
2004.973863542236
 30
0.0
 11
841.6664074431878
 21
2004.973863542236
 31
0.0
  0
LINE
  5
155
330
87
100
AcDbEntity
  8
P-SANR-FIXT
100
AcDbLine
 10
851.9585325660923
 20
2007.653449285649
 30
0.0
 11
851.9585325660923
 21
2004.973863542236
 31
0.0
  0
LINE
  5
156
330
87
100
AcDbEntity
  8
P-SANR-FIXT
100
AcDbLine
 10
841.6664074431878
 20
2007.653449285649
 30
0.0
 11
851.9585325660923
 21
2007.653449285649
 31
0.0
  0
LINE
  5
157
330
87
100
AcDbEntity
  8
P-SANR-FIXT
100
AcDbLine
 10
851.9585325660921
 20
2014.527312827942
 30
0.0
 11
841.6664074431876
 21
2014.527312827942
 31
0.0
  0
LINE
  5
158
330
87
100
AcDbEntity
  8
P-SANR-FIXT
100
AcDbLine
 10
851.9585325660921
 20
2014.599999999954
 30
0.0
 11
851.9585325660921
 21
2014.527312827942
 31
0.0
  0
LINE
  5
159
330
87
100
AcDbEntity
  8
P-SANR-FIXT
100
AcDbLine
 10
851.9585325660919
 20
1981.672687171993
 30
0.0
 11
851.9585325660919
 21
1981.599999999946
 31
0.0
  0
LINE
  5
15A
330
87
100
AcDbEntity
  8
P-SANR-FIXT
100
AcDbLine
 10
841.6664074431876
 20
1981.672687171993
 30
0.0
 11
851.9585325660919
 21
1981.672687171993
 31
0.0
  0
LINE
  5
15B
330
87
100
AcDbEntity
  8
P-SANR-FIXT
100
AcDbLine
 10
789.6664074431912
 20
2014.527312827942
 30
0.0
 11
789.6664074431916
 21
2007.653449285649
 31
0.0
  0
LINE
  5
15C
330
87
100
AcDbEntity
  8
P-SANR-FIXT
100
AcDbLine
 10
789.6664074431916
 20
2004.973863542236
 30
0.0
 11
789.6664074431916
 21
1991.226136457868
 31
0.0
  0
LINE
  5
15D
330
87
100
AcDbEntity
  8
P-SANR-FIXT
100
AcDbLine
 10
789.6664074431916
 20
1988.546550714326
 30
0.0
 11
789.6664074431915
 21
1981.672687171993
 31
0.0
  0
LINE
  5
15E
330
87
100
AcDbEntity
  8
P-SANR-FIXT
100
AcDbLine
 10
760.6664074431741
 20
1988.949999999937
 30
0.0
 11
760.6664074431741
 21
2007.249999999964
 31
0.0
  0
LINE
  5
15F
330
87
100
AcDbEntity
  8
P-SANR-FIXT
100
AcDbLine
 10
761.9664074431741
 20
1987.649999999937
 30
0.0
 11
761.966407443174
 21
2008.549999999964
 31
0.0
  0
LINE
  5
160
330
87
100
AcDbEntity
  8
P-SANR-FIXT
100
AcDbLine
 10
776.6664074431911
 20
1986.299999999947
 30
0.0
 11
776.6664074431909
 21
2009.899999999954
 31
0.0
  0
LINE
  5
161
330
87
100
AcDbEntity
  8
P-SANR-FIXT
100
AcDbLine
 10
779.3742823202864
 20
1981.599999999946
 30
0.0
 11
779.3742823202864
 21
1981.672687171993
 31
0.0
  0
SPLINE
  5
162
330
87
100
AcDbEntity
  8
P-SANR-FIXT
100
AcDbSpline
210
0.0
220
0.0
230
1.0
 70
     8
 71
     3
 72
     9
 73
     5
 74
     0
 42
0.000000001
 43
0.0000000001
 40
-1.0
 40
-1.0
 40
-1.0
 40
-1.0
 40
-0.5
 40
0.0
 40
0.0
 40
0.0
 40
0.0
 10
779.3742823202864
 20
1981.672687171993
 30
0.0
 10
778.7981785843132
 20
1982.836928873903
 30
0.0
 10
778.2220748483399
 20
1985.146814499536
 30
0.0
 10
778.7981785843133
 20
1987.419504568792
 30
0.0
 10
779.3742823202864
 20
1988.546550714326
 30
0.0
  0
LINE
  5
163
330
87
100
AcDbEntity
  8
P-SANR-FIXT
100
AcDbLine
 10
779.3742823202864
 20
1988.546550714326
 30
0.0
 11
779.3742823202864
 21
1991.226136457868
 31
0.0
  0
SPLINE
  5
164
330
87
100
AcDbEntity
  8
P-SANR-FIXT
100
AcDbSpline
210
0.0
220
0.0
230
1.0
 70
     8
 71
     3
 72
     9
 73
     5
 74
     0
 42
0.000000001
 43
0.0000000001
 40
-1.0
 40
-1.0
 40
-1.0
 40
-1.0
 40
-0.5
 40
0.0
 40
0.0
 40
0.0
 40
0.0
 10
779.3742823202864
 20
1991.226136457868
 30
0.0
 10
778.7981785843254
 20
1993.554619861639
 30
0.0
 10
778.2220748483644
 20
1998.174391112805
 30
0.0
 10
778.7981785843254
 20
2002.719771251218
 30
0.0
 10
779.3742823202864
 20
2004.973863542236
 30
0.0
  0
LINE
  5
165
330
87
100
AcDbEntity
  8
P-SANR-FIXT
100
AcDbLine
 10
779.3742823202864
 20
2004.973863542236
 30
0.0
 11
779.3742823202864
 21
2007.653449285649
 31
0.0
  0
SPLINE
  5
166
330
87
100
AcDbEntity
  8
P-SANR-FIXT
100
AcDbSpline
210
0.0
220
0.0
230
1.0
 70
     8
 71
     3
 72
     9
 73
     5
 74
     0
 42
0.000000001
 43
0.0000000001
 40
-1.0
 40
-1.0
 40
-1.0
 40
-1.0
 40
-0.5
 40
0.0
 40
0.0
 40
0.0
 40
0.0
 10
779.3742823202864
 20
2007.653449285649
 30
0.0
 10
778.798178584292
 20
2008.817690987552
 30
0.0
 10
778.2220748482976
 20
2011.127576613171
 30
0.0
 10
778.7981785842919
 20
2013.400266682414
 30
0.0
 10
779.3742823202863
 20
2014.527312827942
 30
0.0
  0
LINE
  5
167
330
87
100
AcDbEntity
  8
P-SANR-FIXT
100
AcDbLine
 10
779.3742823202863
 20
2014.527312827942
 30
0.0
 11
779.3742823202863
 21
2014.599999999954
 31
0.0
  0
LINE
  5
168
330
87
100
AcDbEntity
  8
P-SANR-FIXT
100
AcDbLine
 10
779.3742823202864
 20
1988.546550714326
 30
0.0
 11
789.6664074431916
 21
1988.546550714326
 31
0.0
  0
LINE
  5
169
330
87
100
AcDbEntity
  8
P-SANR-FIXT
100
AcDbLine
 10
789.6664074431916
 20
1991.226136457868
 30
0.0
 11
789.6664074431916
 21
1988.546550714326
 31
0.0
  0
LINE
  5
16A
330
87
100
AcDbEntity
  8
P-SANR-FIXT
100
AcDbLine
 10
789.6664074431916
 20
1991.226136457868
 30
0.0
 11
779.3742823202864
 21
1991.226136457868
 31
0.0
  0
LINE
  5
16B
330
87
100
AcDbEntity
  8
P-SANR-FIXT
100
AcDbLine
 10
779.3742823202864
 20
2004.973863542236
 30
0.0
 11
789.6664074431916
 21
2004.973863542236
 31
0.0
  0
LINE
  5
16C
330
87
100
AcDbEntity
  8
P-SANR-FIXT
100
AcDbLine
 10
789.6664074431916
 20
2007.653449285649
 30
0.0
 11
789.6664074431916
 21
2004.973863542236
 31
0.0
  0
LINE
  5
16D
330
87
100
AcDbEntity
  8
P-SANR-FIXT
100
AcDbLine
 10
789.6664074431916
 20
2007.653449285649
 30
0.0
 11
779.3742823202864
 21
2007.653449285649
 31
0.0
  0
LINE
  5
16E
330
87
100
AcDbEntity
  8
P-SANR-FIXT
100
AcDbLine
 10
779.3742823202863
 20
2014.527312827942
 30
0.0
 11
789.6664074431912
 21
2014.527312827942
 31
0.0
  0
LINE
  5
16F
330
87
100
AcDbEntity
  8
P-SANR-FIXT
100
AcDbLine
 10
789.6664074431912
 20
2014.599999999954
 30
0.0
 11
789.6664074431912
 21
2014.527312827942
 31
0.0
  0
LINE
  5
170
330
87
100
AcDbEntity
  8
P-SANR-FIXT
100
AcDbLine
 10
789.6664074431905
 20
1981.672687171993
 30
0.0
 11
789.6664074431905
 21
1981.599999999947
 31
0.0
  0
LINE
  5
171
330
87
100
AcDbEntity
  8
P-SANR-FIXT
100
AcDbLine
 10
789.6664074431915
 20
1981.672687171993
 30
0.0
 11
779.3742823202864
 21
1981.672687171993
 31
0.0
  0
ARC
  5
172
330
87
100
AcDbEntity
  8
P-SANR-FIXT
100
AcDbCircle
 10
824.6664074431892
 20
2005.599999999906
 30
0.0
 40
9.999999999999943
100
AcDbArc
 50
179.999999999999
 51
260.8903969678695
  0
ARC
  5
173
330
87
100
AcDbEntity
  8
P-SANR-FIXT
100
AcDbCircle
 10
824.6664074431892
 20
2005.599999999906
 30
0.0
 40
9.999999999999888
100
AcDbArc
 50
299.1722959887626
 51
0.0
  0
ARC
  5
174
330
87
100
AcDbEntity
  8
P-SANR-FIXT
100
AcDbCircle
 10
824.6664074431892
 20
2005.599999999906
 30
0.0
 40
9.999999999999886
100
AcDbArc
 50
0.0
 51
179.9999999999987
  0
SPLINE
  5
175
330
87
100
AcDbEntity
  8
P-SANR-FIXT
100
AcDbSpline
210
0.0
220
0.0
230
1.0
 70
     8
 71
     3
 72
     8
 73
     4
 74
     0
 42
0.000000001
 43
0.0000000001
 40
-1.0
 40
-1.0
 40
-1.0
 40
-1.0
 40
-0.75
 40
-0.75
 40
-0.75
 40
-0.75
 10
815.6664074431892
 20
2001.241101056366
 30
0.0
 10
815.5072985779929
 20
2001.569619750034
 30
0.0
 10
815.3681624987129
 20
2001.902889612267
 30
0.0
 10
815.2483730215775
 20
2002.238525606521
 30
0.0
  0
SPLINE
  5
176
330
87
100
AcDbEntity
  8
P-SANR-FIXT
100
AcDbSpline
210
0.0
220
0.0
230
1.0
 70
     8
 71
     3
 72
     8
 73
     4
 74
     0
 42
0.000000001
 43
0.0000000001
 40
-0.5588885849181363
 40
-0.5588885849181363
 40
-0.5588885849181363
 40
-0.5588885849181363
 40
-0.5
 40
-0.5
 40
-0.5
 40
-0.5
 10
815.0072927897335
 20
2003.011334730407
 30
0.0
 10
814.9859570897122
 20
2003.090919070629
 30
0.0
 10
814.9647925289274
 20
2003.170629645065
 30
0.0
 10
814.9464182128337
 20
2003.250146948804
 30
0.0
  0
SPLINE
  5
177
330
87
100
AcDbEntity
  8
P-SANR-FIXT
100
AcDbSpline
210
0.0
220
0.0
230
1.0
 70
     8
 71
     3
 72
     8
 73
     4
 74
     0
 42
0.000000001
 43
0.0000000001
 40
-0.25
 40
-0.25
 40
-0.25
 40
-0.25
 40
-0.2419214097266956
 40
-0.2419214097266956
 40
-0.2419214097266956
 40
-0.2419214097266956
 10
814.7563341629508
 20
2004.262122625704
 30
0.0
 10
814.754868397911
 20
2004.272981160291
 30
0.0
 10
814.7534555856102
 20
2004.283831760201
 30
0.0
 10
814.7520923422176
 20
2004.294674933953
 30
0.0
  0
SPLINE
  5
178
330
87
100
AcDbEntity
  8
P-SANR-FIXT
100
AcDbSpline
210
0.0
220
0.0
230
1.0
 70
     8
 71
     3
 72
     8
 73
     4
 74
     0
 42
0.000000001
 43
0.0000000001
 40
-0.9629629629629629
 40
-0.9629629629629629
 40
-0.9629629629629629
 40
-0.9629629629629629
 40
-0.9259259259259259
 40
-0.9259259259259259
 40
-0.9259259259259259
 40
-0.9259259259259259
 10
834.6257610911328
 20
2004.698286576404
 30
0.0
 10
834.5983612659676
 20
2004.395175522446
 30
0.0
 10
834.556808142528
 20
2004.089881200012
 30
0.0
 10
834.5001949494308
 20
2003.783473542046
 30
0.0
  0
SPLINE
  5
179
330
87
100
AcDbEntity
  8
P-SANR-FIXT
100
AcDbSpline
210
0.0
220
0.0
230
1.0
 70
     8
 71
     3
 72
     8
 73
     4
 74
     0
 42
0.000000001
 43
0.0000000001
 40
-0.8949147057271387
 40
-0.8949147057271387
 40
-0.8949147057271387
 40
-0.8949147057271387
 40
-0.8888888888888889
 40
-0.8888888888888889
 40
-0.8888888888888889
 40
-0.8888888888888889
 10
834.3257807124611
 20
2003.012091904095
 30
0.0
 10
834.3123633157167
 20
2002.962058988325
 30
0.0
 10
834.2985271765384
 20
2002.912020315853
 30
0.0
 10
834.284268389783
 20
2002.8619804945
 30
0.0
  0
SPLINE
  5
17A
330
87
100
AcDbEntity
  8
P-SANR-FIXT
100
AcDbSpline
210
0.0
220
0.0
230
1.0
 70
     8
 71
     3
 72
     8
 73
     4
 74
     0
 42
0.000000001
 43
0.0000000001
 40
-0.8518518518518519
 40
-0.8518518518518519
 40
-0.8518518518518519
 40
-0.8518518518518519
 40
-0.8448947733688701
 40
-0.8448947733688701
 40
-0.8448947733688701
 40
-0.8448947733688701
 10
833.9732452934432
 20
2001.941942149564
 30
0.0
 10
833.9507464266075
 20
2001.884675750757
 30
0.0
 10
833.9276770445218
 20
2001.827506089058
 30
0.0
 10
833.9040358066268
 20
2001.770451623341
 30
0.0
  0
SPLINE
  5
17B
330
87
100
AcDbEntity
  8
P-SANR-FIXT
100
AcDbSpline
210
0.0
220
0.0
230
1.0
 70
     8
 71
     3
 72
     9
 73
     5
 74
     0
 42
0.000000001
 43
0.0000000001
 40
-0.8148148148148148
 40
-0.8148148148148148
 40
-0.8148148148148148
 40
-0.8148148148148148
 40
-0.8055555555555555
 40
-0.7777777777777778
 40
-0.7777777777777778
 40
-0.7777777777777778
 40
-0.7777777777777778
 10
833.5654921842147
 20
2001.038622206098
 30
0.0
 10
833.5275553575637
 20
2000.964607010834
 30
0.0
 10
833.3719998141225
 20
2000.670196415203
 30
0.0
 10
833.2017299665508
 20
2000.383619845115
 30
0.0
 10
833.0661471752167
 20
2000.173733103208
 30
0.0
  0
SPLINE
  5
17C
330
87
100
AcDbEntity
  8
P-SANR-FIXT
100
AcDbSpline
210
0.0
220
0.0
230
1.0
 70
     8
 71
     3
 72
     8
 73
     4
 74
     0
 42
0.000000001
 43
0.0000000001
 40
-0.7477064796123846
 40
-0.7477064796123846
 40
-0.7477064796123846
 40
-0.7477064796123846
 40
-0.7407407407407407
 40
-0.7407407407407407
 40
-0.7407407407407407
 40
-0.7407407407407407
 10
832.5969421847881
 20
1999.508479933191
 30
0.0
 10
832.5584793874487
 20
1999.458405835578
 30
0.0
 10
832.5195138712896
 20
1999.40865984057
 30
0.0
 10
832.4800554030705
 20
1999.35925706312
 30
0.0
  0
SPLINE
  5
17D
330
87
100
AcDbEntity
  8
P-SANR-FIXT
100
AcDbSpline
210
0.0
220
0.0
230
1.0
 70
     8
 71
     3
 72
     8
 73
     4
 74
     0
 42
0.000000001
 43
0.0000000001
 40
-0.7037037037037038
 40
-0.7037037037037038
 40
-0.7037037037037038
 40
-0.7037037037037038
 40
-0.7000667382716856
 40
-0.7000667382716856
 40
-0.7000667382716856
 40
-0.7000667382716856
 10
831.8103693667261
 20
1998.602590861008
 30
0.0
 10
831.7871861343812
 20
1998.578921540798
 30
0.0
 10
831.763884980543
 20
1998.555366949879
 30
0.0
 10
831.7404677482846
 20
1998.531929093427
 30
0.0
  0
SPLINE
  5
17E
330
87
100
AcDbEntity
  8
P-SANR-FIXT
100
AcDbSpline
210
0.0
220
0.0
230
1.0
 70
     8
 71
     3
 72
    10
 73
     6
 74
     0
 42
0.000000001
 43
0.0000000001
 40
-0.6666666666666666
 40
-0.6666666666666666
 40
-0.6666666666666666
 40
-0.6666666666666666
 40
-0.6527777777777777
 40
-0.6388888888888889
 40
-0.6296296296296297
 40
-0.6296296296296297
 40
-0.6296296296296297
 40
-0.6296296296296297
 10
831.0675455563693
 20
1997.917199022658
 30
0.0
 10
830.9706114406111
 20
1997.836435315537
 30
0.0
 10
830.7737956718037
 20
1997.678665675241
 30
0.0
 10
830.5034626979052
 20
1997.478275400947
 30
0.0
 10
830.3306464677548
 20
1997.358430767411
 30
0.0
 10
830.2609252024288
 20
1997.311371735312
 30
0.0
  0
SPLINE
  5
17F
330
87
100
AcDbEntity
  8
P-SANR-FIXT
100
AcDbSpline
210
0.0
220
0.0
230
1.0
 70
     8
 71
     3
 72
     8
 73
     4
 74
     0
 42
0.000000001
 43
0.0000000001
 40
-0.6041372498443451
 40
-0.6041372498443451
 40
-0.6041372498443451
 40
-0.6041372498443451
 40
-0.598678015714385
 40
-0.598678015714385
 40
-0.598678015714385
 40
-0.598678015714385
 10
829.6720061653962
 20
1996.942981652395
 30
0.0
 10
829.6290691504546
 20
1996.918155186213
 30
0.0
 10
829.5859475092216
 20
1996.893648156429
 30
0.0
 10
829.5426463068345
 20
1996.869463343944
 30
0.0
  0
SPLINE
  5
180
330
87
100
AcDbEntity
  8
P-SANR-FIXT
100
AcDbSpline
210
0.0
220
0.0
230
1.0
 70
     8
 71
     3
 72
     9
 73
     5
 74
     0
 42
0.000000001
 43
0.0000000001
 40
-0.3333333333333333
 40
-0.3333333333333333
 40
-0.3333333333333333
 40
-0.3333333333333333
 40
-0.3055555555555556
 40
-0.2962962962962965
 40
-0.2962962962962965
 40
-0.2962962962962965
 40
-0.2962962962962965
 10
822.5485771630255
 20
1995.826832913213
 30
0.0
 10
822.3021243841357
 20
1995.880238269549
 30
0.0
 10
821.9762347867646
 20
1995.963878426633
 30
0.0
 10
821.6551999928904
 20
1996.063769773382
 30
0.0
 10
821.5752690270575
 20
1996.089750100725
 30
0.0
  0
SPLINE
  5
181
330
87
100
AcDbEntity
  8
P-SANR-FIXT
100
AcDbSpline
210
0.0
220
0.0
230
1.0
 70
     8
 71
     3
 72
     8
 73
     4
 74
     0
 42
0.000000001
 43
0.0000000001
 40
-0.2673733336499569
 40
-0.2673733336499569
 40
-0.2673733336499569
 40
-0.2673733336499569
 40
-0.2592592592592595
 40
-0.2592592592592595
 40
-0.2592592592592595
 40
-0.2592592592592595
 10
820.8365660882364
 20
1996.362451616892
 30
0.0
 10
820.7685223364293
 20
1996.390662389551
 30
0.0
 10
820.7007880387564
 20
1996.419625777108
 30
0.0
 10
820.6333791100119
 20
1996.449335148839
 30
0.0
  0
SPLINE
  5
182
330
87
100
AcDbEntity
  8
P-SANR-FIXT
100
AcDbSpline
210
0.0
220
0.0
230
1.0
 70
     8
 71
     3
 72
     8
 73
     4
 74
     0
 42
0.000000001
 43
0.0000000001
 40
-0.2222222222222222
 40
-0.2222222222222222
 40
-0.2222222222222222
 40
-0.2222222222222222
 40
-0.2193638304313288
 40
-0.2193638304313288
 40
-0.2193638304313288
 40
-0.2193638304313288
 10
819.7321682249388
 20
1996.902110408914
 30
0.0
 10
819.7095819718965
 20
1996.914923426956
 30
0.0
 10
819.6870438905442
 20
1996.927825259709
 30
0.0
 10
819.6645546598412
 20
1996.940815655497
 30
0.0
  0
SPLINE
  5
183
330
87
100
AcDbEntity
  8
P-SANR-FIXT
100
AcDbSpline
210
0.0
220
0.0
230
1.0
 70
     8
 71
     3
 72
    10
 73
     6
 74
     0
 42
0.000000001
 43
0.0000000001
 40
-0.1851851851851856
 40
-0.1851851851851856
 40
-0.1851851851851856
 40
-0.1851851851851856
 40
-0.1666666666666666
 40
-0.1388888888888889
 40
-0.1111111111111111
 40
-0.1111111111111111
 40
-0.1111111111111111
 40
-0.1111111111111111
 10
818.8800213672442
 20
1997.44416140067
 30
0.0
 10
818.7425965262466
 20
1997.541662228344
 30
0.0
 10
818.4050918445786
 20
1997.794067155
 30
0.0
 10
817.8923469508351
 20
1998.231534182573
 30
0.0
 10
817.533045836183
 20
1998.585886565312
 30
0.0
 10
817.3620102054529
 20
1998.770228335103
 30
0.0
  0
SPLINE
  5
184
330
87
100
AcDbEntity
  8
P-SANR-FIXT
100
AcDbSpline
210
0.0
220
0.0
230
1.0
 70
     8
 71
     3
 72
     8
 73
     4
 74
     0
 42
0.000000001
 43
0.0000000001
 40
-0.0753300463118892
 40
-0.0753300463118892
 40
-0.0753300463118892
 40
-0.0753300463118892
 40
-0.0740740740740746
 40
-0.0740740740740746
 40
-0.0740740740740746
 40
-0.0740740740740746
 10
816.734286316546
 20
1999.510546192487
 30
0.0
 10
816.7273758644197
 20
1999.519547733942
 30
0.0
 10
816.7204646713232
 20
1999.528551205913
 30
0.0
 10
816.7135558839774
 20
1999.537558361419
 30
0.0
  0
SPLINE
  5
185
330
87
100
AcDbEntity
  8
P-SANR-FIXT
100
AcDbSpline
210
0.0
220
0.0
230
1.0
 70
     8
 71
     3
 72
     8
 73
     4
 74
     0
 42
0.000000001
 43
0.0000000001
 40
-0.0370370370370377
 40
-0.0370370370370377
 40
-0.0370370370370377
 40
-0.0370370370370377
 40
-0.0271250467773382
 40
-0.0271250467773382
 40
-0.0271250467773382
 40
-0.0271250467773382
 10
816.1467016531297
 20
2000.364128930665
 30
0.0
 10
816.0999255514855
 20
2000.440245556522
 30
0.0
 10
816.05574744611
 20
2000.517746686913
 30
0.0
 10
816.0129259218845
 20
2000.595975451114
 30
0.0
  0
SPLINE
  5
186
330
87
100
AcDbEntity
  8
P-SANR-FIXT
100
AcDbSpline
210
0.0
220
0.0
230
1.0
 70
     8
 71
     3
 72
    10
 73
     6
 74
     0
 42
0.000000001
 43
0.0000000001
 40
-0.8
 40
-0.8
 40
-0.8
 40
-0.8
 40
-0.775
 40
-0.7
 40
-0.6666666666666668
 40
-0.6666666666666668
 40
-0.6666666666666668
 40
-0.6666666666666668
 10
831.3961658349258
 20
2012.996654716536
 30
0.0
 10
831.4260519776393
 20
2012.969468660306
 30
0.0
 10
831.5522217359784
 20
2012.853345779535
 30
0.0
 10
831.7599247618424
 20
2012.652456427052
 30
0.0
 10
831.9443917356732
 20
2012.458382149331
 30
0.0
 10
832.0020155835631
 20
2012.396172128946
 30
0.0
  0
SPLINE
  5
187
330
87
100
AcDbEntity
  8
P-SANR-FIXT
100
AcDbSpline
210
0.0
220
0.0
230
1.0
 70
     8
 71
     3
 72
    10
 73
     6
 74
     0
 42
0.000000001
 43
0.0000000001
 40
-0.6000000000000001
 40
-0.6000000000000001
 40
-0.6000000000000001
 40
-0.6000000000000001
 40
-0.5875
 40
-0.55
 40
-0.5333333333333334
 40
-0.5333333333333334
 40
-0.5333333333333334
 40
-0.5333333333333334
 10
832.3532120241186
 20
2011.996331057209
 30
0.0
 10
832.3752444742058
 20
2011.969854264019
 30
0.0
 10
832.4634189494021
 20
2011.862601604986
 30
0.0
 10
832.5846584060013
 20
2011.71074844811
 30
0.0
 10
832.6821699350499
 20
2011.577714899059
 30
0.0
 10
832.7121033215114
 20
2011.535952203757
 30
0.0
  0
SPLINE
  5
188
330
87
100
AcDbEntity
  8
P-SANR-FIXT
100
AcDbSpline
210
0.0
220
0.0
230
1.0
 70
     8
 71
     3
 72
     8
 73
     4
 74
     0
 42
0.000000001
 43
0.0000000001
 40
-0.4666666666666667
 40
-0.4666666666666667
 40
-0.4666666666666667
 40
-0.4666666666666667
 40
-0.4
 40
-0.4
 40
-0.4
 40
-0.4
 10
833.0766083109269
 20
2011.009636210655
 30
0.0
 10
833.1967322635431
 20
2010.822877112211
 30
0.0
 10
833.3113728403944
 20
2010.621706261745
 30
0.0
 10
833.4293679656672
 20
2010.417730054765
 30
0.0
  0
SPLINE
  5
189
330
87
100
AcDbEntity
  8
P-SANR-FIXT
100
AcDbSpline
210
0.0
220
0.0
230
1.0
 70
     8
 71
     3
 72
     8
 73
     4
 74
     0
 42
0.000000001
 43
0.0000000001
 40
-0.3333333333333334
 40
-0.3333333333333334
 40
-0.3333333333333334
 40
-0.3333333333333334
 40
-0.2666666666666667
 40
-0.2666666666666667
 40
-0.2666666666666667
 40
-0.2666666666666667
 10
833.7584889447185
 20
2009.764151285332
 30
0.0
 10
833.863014515462
 20
2009.536086815614
 30
0.0
 10
833.9709039800274
 20
2009.305156943048
 30
0.0
 10
834.066726494699
 20
2009.060304619808
 30
0.0
  0
SPLINE
  5
18A
330
87
100
AcDbEntity
  8
P-SANR-FIXT
100
AcDbSpline
210
0.0
220
0.0
230
1.0
 70
     8
 71
     3
 72
     8
 73
     4
 74
     0
 42
0.000000001
 43
0.0000000001
 40
-0.2
 40
-0.2
 40
-0.2
 40
-0.2
 40
-0.1932199060368178
 40
-0.1932199060368178
 40
-0.1932199060368178
 40
-0.1932199060368178
 10
834.3025623453169
 20
2008.272923250245
 30
0.0
 10
834.3101400846606
 20
2008.245560073174
 30
0.0
 10
834.317371862595
 20
2008.217915108657
 30
0.0
 10
834.3242809132634
 20
2008.190007218942
 30
0.0
  0
SPLINE
  5
18B
330
87
100
AcDbEntity
  8
P-SANR-FIXT
100
AcDbSpline
210
0.0
220
0.0
230
1.0
 70
     8
 71
     3
 72
     8
 73
     4
 74
     0
 42
0.000000001
 43
0.0000000001
 40
-0.1333333333333334
 40
-0.1333333333333334
 40
-0.1333333333333334
 40
-0.1333333333333334
 40
-0.0666666666666668
 40
-0.0666666666666668
 40
-0.0666666666666668
 40
-0.0666666666666668
 10
834.4962387941761
 20
2007.435890029548
 30
0.0
 10
834.5501417716388
 20
2007.147244213504
 30
0.0
 10
834.5781507249482
 20
2006.84142367768
 30
0.0
 10
834.5999505383637
 20
2006.531188610074
 30
0.0
  0
ARC
  5
18C
330
87
100
AcDbEntity
  8
P-SANR-FIXT
100
AcDbCircle
 10
805.6664074431893
 20
1993.099999999906
 30
0.0
 40
8.500000000000184
100
AcDbArc
 50
179.9999999999992
 51
359.9999999999988
  0
ARC
  5
18D
330
87
100
AcDbEntity
  8
P-SANR-FIXT
100
AcDbCircle
 10
805.6664074431893
 20
1993.099999999906
 30
0.0
 40
8.499999999999886
100
AcDbArc
 50
0.0
 51
180.0
  0
ARC
  5
18E
330
87
100
AcDbEntity
  8
P-SANR-FIXT
100
AcDbCircle
 10
827.6664074431893
 20
1988.599999999906
 30
0.0
 40
8.500000000000138
100
AcDbArc
 50
179.9999999999996
 51
359.9999999999992
  0
ARC
  5
18F
330
87
100
AcDbEntity
  8
P-SANR-FIXT
100
AcDbCircle
 10
827.6664074431893
 20
1988.599999999906
 30
0.0
 40
8.499999999999886
100
AcDbArc
 50
0.0
 51
180.0
  0
ENDBLK
  5
191
330
87
100
AcDbEntity
  8
0
100
AcDbBlockEnd
  0
BLOCK
  5
253
330
193
100
AcDbEntity
  8
0
100
AcDbBlockBegin
  2
Automatic flow rate regulator valve_Caleffi_121 DN15 - 1_2__-V1-Est - Idraulica
 70
     0
 10
0.0
 20
0.0
 30
0.0
  3
Automatic flow rate regulator valve_Caleffi_121 DN15 - 1_2__-V1-Est - Idraulica
  1

  0
ARC
  5
194
330
193
100
AcDbEntity
  8
M-PIPE
100
AcDbCircle
 10
815.510157443189
 20
1843.745878730054
 30
0.0
 40
15.4999999999931
100
AcDbArc
 50
124.5853790847307
 51
175.4146209152692
1001
REVIT
1002
{
1070
     3
1000
924079
1002
}
  0
ARC
  5
195
330
193
100
AcDbEntity
  8
M-PIPE
100
AcDbCircle
 10
815.510157443189
 20
1843.745878730054
 30
0.0
 40
15.49999999999301
100
AcDbArc
 50
115.4146209152472
 51
124.5853790847366
1001
REVIT
1002
{
1070
     3
1000
924079
1002
}
  0
ARC
  5
196
330
193
100
AcDbEntity
  8
M-PIPE
100
AcDbCircle
 10
815.510157443189
 20
1843.745878730054
 30
0.0
 40
15.49999999999297
100
AcDbArc
 50
64.58537908474816
 51
115.4146209152514
1001
REVIT
1002
{
1070
     3
1000
924079
1002
}
  0
ARC
  5
197
330
193
100
AcDbEntity
  8
M-PIPE
100
AcDbCircle
 10
815.510157443189
 20
1843.745878730054
 30
0.0
 40
15.49999999999321
100
AcDbArc
 50
55.41462091509105
 51
64.58537908475382
1001
REVIT
1002
{
1070
     3
1000
924079
1002
}
  0
ARC
  5
198
330
193
100
AcDbEntity
  8
M-PIPE
100
AcDbCircle
 10
815.510157443189
 20
1843.745878730054
 30
0.0
 40
15.49999999999301
100
AcDbArc
 50
4.585379084910355
 51
55.41462091508957
1001
REVIT
1002
{
1070
     3
1000
924079
1002
}
  0
ARC
  5
199
330
193
100
AcDbEntity
  8
M-PIPE
100
AcDbCircle
 10
815.510157443189
 20
1843.745878730054
 30
0.0
 40
15.49999999999309
100
AcDbArc
 50
0.0000000000008405
 51
4.58537908491036
1001
REVIT
1002
{
1070
     3
1000
924079
1002
}
  0
ARC
  5
19A
330
193
100
AcDbEntity
  8
M-PIPE
100
AcDbCircle
 10
815.510157443189
 20
1843.745878730054
 30
0.0
 40
15.49999999999297
100
AcDbArc
 50
4.586304818702037
 51
5.000000000000349
1001
REVIT
1002
{
1070
     3
1000
924079
1002
}
  0
ARC
  5
19B
330
193
100
AcDbEntity
  8
M-PIPE
100
AcDbCircle
 10
815.510157443189
 20
1843.745878730054
 30
0.0
 40
15.49999999999297
100
AcDbArc
 50
10.00000000000017
 51
10.94611033377906
1001
REVIT
1002
{
1070
     3
1000
924079
1002
}
  0
ARC
  5
19C
330
193
100
AcDbEntity
  8
M-PIPE
100
AcDbCircle
 10
815.510157443189
 20
1843.745878730054
 30
0.0
 40
15.49999999999298
100
AcDbArc
 50
15.00000000000033
 51
19.99999999999989
1001
REVIT
1002
{
1070
     3
1000
924079
1002
}
  0
ARC
  5
19D
330
193
100
AcDbEntity
  8
M-PIPE
100
AcDbCircle
 10
815.510157443189
 20
1843.745878730054
 30
0.0
 40
15.49999999999291
100
AcDbArc
 50
23.70798092021513
 51
25.00000000000022
1001
REVIT
1002
{
1070
     3
1000
924079
1002
}
  0
ARC
  5
19E
330
193
100
AcDbEntity
  8
M-PIPE
100
AcDbCircle
 10
815.510157443189
 20
1843.745878730054
 30
0.0
 40
15.499999999993
100
AcDbArc
 50
35.00000000000051
 51
36.38642373417452
1001
REVIT
1002
{
1070
     3
1000
924079
1002
}
  0
ARC
  5
19F
330
193
100
AcDbEntity
  8
M-PIPE
100
AcDbCircle
 10
815.510157443189
 20
1843.745878730054
 30
0.0
 40
15.49999999999293
100
AcDbArc
 50
40.0
 51
45.00000000000043
1001
REVIT
1002
{
1070
     3
1000
924079
1002
}
  0
ARC
  5
1A0
330
193
100
AcDbEntity
  8
M-PIPE
100
AcDbCircle
 10
815.510157443189
 20
1843.745878730054
 30
0.0
 40
15.49999999999313
100
AcDbArc
 50
49.03077126447453
 51
49.99999999999962
1001
REVIT
1002
{
1070
     3
1000
924079
1002
}
  0
ARC
  5
1A1
330
193
100
AcDbEntity
  8
M-PIPE
100
AcDbCircle
 10
815.510157443189
 20
1843.745878730054
 30
0.0
 40
15.49999999999315
100
AcDbArc
 50
55.00000000000023
 51
55.40384942352083
1001
REVIT
1002
{
1070
     3
1000
924079
1002
}
  0
ARC
  5
1A2
330
193
100
AcDbEntity
  8
M-PIPE
100
AcDbCircle
 10
815.510157443189
 20
1843.745878730054
 30
0.0
 40
15.49999999999313
100
AcDbArc
 50
64.57694323289262
 51
64.99999999999985
1001
REVIT
1002
{
1070
     3
1000
924079
1002
}
  0
ARC
  5
1A3
330
193
100
AcDbEntity
  8
M-PIPE
100
AcDbCircle
 10
815.510157443189
 20
1843.745878730054
 30
0.0
 40
15.49999999999315
100
AcDbArc
 50
69.99999999999984
 51
70.92823849688781
1001
REVIT
1002
{
1070
     3
1000
924079
1002
}
  0
ARC
  5
1A4
330
193
100
AcDbEntity
  8
M-PIPE
100
AcDbCircle
 10
815.510157443189
 20
1843.745878730054
 30
0.0
 40
15.49999999999301
100
AcDbArc
 50
74.9999999999999
 51
79.99999999999973
1001
REVIT
1002
{
1070
     3
1000
924079
1002
}
  0
ARC
  5
1A5
330
193
100
AcDbEntity
  8
M-PIPE
100
AcDbCircle
 10
815.510157443189
 20
1843.745878730054
 30
0.0
 40
15.4999999999931
100
AcDbArc
 50
83.64096061171631
 51
85.0
1001
REVIT
1002
{
1070
     3
1000
924079
1002
}
  0
ARC
  5
1A6
330
193
100
AcDbEntity
  8
M-PIPE
100
AcDbCircle
 10
815.510157443189
 20
1843.745878730054
 30
0.0
 40
15.49999999999305
100
AcDbArc
 50
94.9999999999995
 51
96.3590393882815
1001
REVIT
1002
{
1070
     3
1000
924079
1002
}
  0
ARC
  5
1A7
330
193
100
AcDbEntity
  8
M-PIPE
100
AcDbCircle
 10
815.510157443189
 20
1843.745878730054
 30
0.0
 40
15.49999999999308
100
AcDbArc
 50
99.99999999999985
 51
104.9999999999996
1001
REVIT
1002
{
1070
     3
1000
924079
1002
}
  0
ARC
  5
1A8
330
193
100
AcDbEntity
  8
M-PIPE
100
AcDbCircle
 10
815.510157443189
 20
1843.745878730054
 30
0.0
 40
15.49999999999305
100
AcDbArc
 50
109.0717615031109
 51
109.9999999999995
1001
REVIT
1002
{
1070
     3
1000
924079
1002
}
  0
ARC
  5
1A9
330
193
100
AcDbEntity
  8
M-PIPE
100
AcDbCircle
 10
815.510157443189
 20
1843.745878730054
 30
0.0
 40
15.49999999999301
100
AcDbArc
 50
114.9999999999999
 51
115.4230567671053
1001
REVIT
1002
{
1070
     3
1000
924079
1002
}
  0
ARC
  5
1AA
330
193
100
AcDbEntity
  8
M-PIPE
100
AcDbCircle
 10
815.510157443189
 20
1843.745878730054
 30
0.0
 40
15.49999999999307
100
AcDbArc
 50
124.5961505763102
 51
124.9999999999994
1001
REVIT
1002
{
1070
     3
1000
924079
1002
}
  0
ARC
  5
1AB
330
193
100
AcDbEntity
  8
M-PIPE
100
AcDbCircle
 10
815.510157443189
 20
1843.745878730054
 30
0.0
 40
15.4999999999931
100
AcDbArc
 50
130.0
 51
130.9692287353859
1001
REVIT
1002
{
1070
     3
1000
924079
1002
}
  0
ARC
  5
1AC
330
193
100
AcDbEntity
  8
M-PIPE
100
AcDbCircle
 10
815.510157443189
 20
1843.745878730054
 30
0.0
 40
15.49999999999313
100
AcDbArc
 50
134.9999999999997
 51
140.0000000000004
1001
REVIT
1002
{
1070
     3
1000
924079
1002
}
  0
ARC
  5
1AD
330
193
100
AcDbEntity
  8
M-PIPE
100
AcDbCircle
 10
815.510157443189
 20
1843.745878730054
 30
0.0
 40
15.49999999999327
100
AcDbArc
 50
143.6135762657787
 51
144.9999999999998
1001
REVIT
1002
{
1070
     3
1000
924079
1002
}
  0
ARC
  5
1AE
330
193
100
AcDbEntity
  8
M-PIPE
100
AcDbCircle
 10
815.510157443189
 20
1843.745878730054
 30
0.0
 40
15.4999999999931
100
AcDbArc
 50
155.0000000000004
 51
156.2920190797847
1001
REVIT
1002
{
1070
     3
1000
924079
1002
}
  0
ARC
  5
1AF
330
193
100
AcDbEntity
  8
M-PIPE
100
AcDbCircle
 10
815.510157443189
 20
1843.745878730054
 30
0.0
 40
15.49999999999323
100
AcDbArc
 50
160.0000000000001
 51
164.9999999999994
1001
REVIT
1002
{
1070
     3
1000
924079
1002
}
  0
ARC
  5
1B0
330
193
100
AcDbEntity
  8
M-PIPE
100
AcDbCircle
 10
815.510157443189
 20
1843.745878730054
 30
0.0
 40
15.49999999999318
100
AcDbArc
 50
169.0538896663552
 51
169.9999999999997
1001
REVIT
1002
{
1070
     3
1000
924079
1002
}
  0
ARC
  5
1B1
330
193
100
AcDbEntity
  8
M-PIPE
100
AcDbCircle
 10
815.510157443189
 20
1843.745878730054
 30
0.0
 40
15.49999999999308
100
AcDbArc
 50
174.9999999999997
 51
175.4136951814708
1001
REVIT
1002
{
1070
     3
1000
924079
1002
}
  0
ARC
  5
1B2
330
193
100
AcDbEntity
  8
M-PIPE
100
AcDbCircle
 10
815.510157443189
 20
1843.745878730054
 30
0.0
 40
15.49999999999319
100
AcDbArc
 50
175.4146209152632
 51
179.9999999999998
1001
REVIT
1002
{
1070
     3
1000
924079
1002
}
  0
ARC
  5
1B3
330
193
100
AcDbEntity
  8
M-PIPE
100
AcDbCircle
 10
815.510157443189
 20
1843.745878730054
 30
0.0
 40
15.49999999999308
100
AcDbArc
 50
304.5853790850533
 51
355.4146209149442
1001
REVIT
1002
{
1070
     3
1000
924079
1002
}
  0
ARC
  5
1B4
330
193
100
AcDbEntity
  8
M-PIPE
100
AcDbCircle
 10
815.510157443189
 20
1843.745878730054
 30
0.0
 40
15.49999999999291
100
AcDbArc
 50
295.4146209149656
 51
304.5853790850488
1001
REVIT
1002
{
1070
     3
1000
924079
1002
}
  0
ARC
  5
1B5
330
193
100
AcDbEntity
  8
M-PIPE
100
AcDbCircle
 10
815.510157443189
 20
1843.745878730054
 30
0.0
 40
15.49999999999287
100
AcDbArc
 50
244.5853790850359
 51
295.4146209149603
1001
REVIT
1002
{
1070
     3
1000
924079
1002
}
  0
ARC
  5
1B6
330
193
100
AcDbEntity
  8
M-PIPE
100
AcDbCircle
 10
815.510157443189
 20
1843.745878730054
 30
0.0
 40
15.49999999999309
100
AcDbArc
 50
235.4146209151221
 51
244.5853790850313
1001
REVIT
1002
{
1070
     3
1000
924079
1002
}
  0
ARC
  5
1B7
330
193
100
AcDbEntity
  8
M-PIPE
100
AcDbCircle
 10
815.510157443189
 20
1843.745878730054
 30
0.0
 40
15.49999999999319
100
AcDbArc
 50
184.5853790848746
 51
235.4146209151225
1001
REVIT
1002
{
1070
     3
1000
924079
1002
}
  0
ARC
  5
1B8
330
193
100
AcDbEntity
  8
M-PIPE
100
AcDbCircle
 10
815.510157443189
 20
1843.745878730054
 30
0.0
 40
15.49999999999291
100
AcDbArc
 50
180.0
 51
184.5853790848745
1001
REVIT
1002
{
1070
     3
1000
924079
1002
}
  0
ARC
  5
1B9
330
193
100
AcDbEntity
  8
M-PIPE
100
AcDbCircle
 10
815.510157443189
 20
1843.745878730054
 30
0.0
 40
15.49999999999305
100
AcDbArc
 50
184.5863048186697
 51
184.9999999999992
1001
REVIT
1002
{
1070
     3
1000
924079
1002
}
  0
ARC
  5
1BA
330
193
100
AcDbEntity
  8
M-PIPE
100
AcDbCircle
 10
815.510157443189
 20
1843.745878730054
 30
0.0
 40
15.49999999999304
100
AcDbArc
 50
189.9999999999991
 51
190.9461103337523
1001
REVIT
1002
{
1070
     3
1000
924079
1002
}
  0
ARC
  5
1BB
330
193
100
AcDbEntity
  8
M-PIPE
100
AcDbCircle
 10
815.510157443189
 20
1843.745878730054
 30
0.0
 40
15.49999999999317
100
AcDbArc
 50
194.9999999999994
 51
199.9999999999998
1001
REVIT
1002
{
1070
     3
1000
924079
1002
}
  0
ARC
  5
1BC
330
193
100
AcDbEntity
  8
M-PIPE
100
AcDbCircle
 10
815.510157443189
 20
1843.745878730054
 30
0.0
 40
15.49999999999303
100
AcDbArc
 50
203.6644760827083
 51
204.9999999999996
1001
REVIT
1002
{
1070
     3
1000
924079
1002
}
  0
ARC
  5
1BD
330
193
100
AcDbEntity
  8
M-PIPE
100
AcDbCircle
 10
815.510157443189
 20
1843.745878730054
 30
0.0
 40
15.49999999999289
100
AcDbArc
 50
214.9999999999993
 51
216.3864237341821
1001
REVIT
1002
{
1070
     3
1000
924079
1002
}
  0
ARC
  5
1BE
330
193
100
AcDbEntity
  8
M-PIPE
100
AcDbCircle
 10
815.510157443189
 20
1843.745878730054
 30
0.0
 40
15.49999999999296
100
AcDbArc
 50
219.9999999999988
 51
224.9999999999995
1001
REVIT
1002
{
1070
     3
1000
924079
1002
}
  0
ARC
  5
1BF
330
193
100
AcDbEntity
  8
M-PIPE
100
AcDbCircle
 10
815.510157443189
 20
1843.745878730054
 30
0.0
 40
15.49999999999315
100
AcDbArc
 50
229.0307712645004
 51
229.9999999999989
1001
REVIT
1002
{
1070
     3
1000
924079
1002
}
  0
ARC
  5
1C0
330
193
100
AcDbEntity
  8
M-PIPE
100
AcDbCircle
 10
815.510157443189
 20
1843.745878730054
 30
0.0
 40
15.49999999999301
100
AcDbArc
 50
234.9999999999987
 51
235.4038494235531
1001
REVIT
1002
{
1070
     3
1000
924079
1002
}
  0
ARC
  5
1C1
330
193
100
AcDbEntity
  8
M-PIPE
100
AcDbCircle
 10
815.510157443189
 20
1843.745878730054
 30
0.0
 40
15.49999999999293
100
AcDbArc
 50
244.5769432331778
 51
244.9999999999985
1001
REVIT
1002
{
1070
     3
1000
924079
1002
}
  0
ARC
  5
1C2
330
193
100
AcDbEntity
  8
M-PIPE
100
AcDbCircle
 10
815.510157443189
 20
1843.745878730054
 30
0.0
 40
15.49999999999301
100
AcDbArc
 50
249.9999999999985
 51
250.9282384971011
1001
REVIT
1002
{
1070
     3
1000
924079
1002
}
  0
ARC
  5
1C3
330
193
100
AcDbEntity
  8
M-PIPE
100
AcDbCircle
 10
815.510157443189
 20
1843.745878730054
 30
0.0
 40
15.49999999999299
100
AcDbArc
 50
254.9999999999983
 51
259.9999999999984
1001
REVIT
1002
{
1070
     3
1000
924079
1002
}
  0
ARC
  5
1C4
330
193
100
AcDbEntity
  8
M-PIPE
100
AcDbCircle
 10
815.510157443189
 20
1843.745878730054
 30
0.0
 40
15.49999999999301
100
AcDbArc
 50
263.6409606117874
 51
264.9999999999985
1001
REVIT
1002
{
1070
     3
1000
924079
1002
}
  0
ARC
  5
1C5
330
193
100
AcDbEntity
  8
M-PIPE
100
AcDbCircle
 10
815.510157443189
 20
1843.745878730054
 30
0.0
 40
15.49999999999303
100
AcDbArc
 50
274.9999999999983
 51
276.3590393882077
1001
REVIT
1002
{
1070
     3
1000
924079
1002
}
  0
ARC
  5
1C6
330
193
100
AcDbEntity
  8
M-PIPE
100
AcDbCircle
 10
815.510157443189
 20
1843.745878730054
 30
0.0
 40
15.49999999999302
100
AcDbArc
 50
279.9999999999982
 51
284.999999999998
1001
REVIT
1002
{
1070
     3
1000
924079
1002
}
  0
ARC
  5
1C7
330
193
100
AcDbEntity
  8
M-PIPE
100
AcDbCircle
 10
815.510157443189
 20
1843.745878730054
 30
0.0
 40
15.49999999999304
100
AcDbArc
 50
289.0717615028945
 51
289.9999999999979
1001
REVIT
1002
{
1070
     3
1000
924079
1002
}
  0
ARC
  5
1C8
330
193
100
AcDbEntity
  8
M-PIPE
100
AcDbCircle
 10
815.510157443189
 20
1843.745878730054
 30
0.0
 40
15.49999999999286
100
AcDbArc
 50
294.9999999999985
 51
295.4230567668205
1001
REVIT
1002
{
1070
     3
1000
924079
1002
}
  0
ARC
  5
1C9
330
193
100
AcDbEntity
  8
M-PIPE
100
AcDbCircle
 10
815.510157443189
 20
1843.745878730054
 30
0.0
 40
15.49999999999287
100
AcDbArc
 50
304.5961505766169
 51
304.9999999999982
1001
REVIT
1002
{
1070
     3
1000
924079
1002
}
  0
ARC
  5
1CA
330
193
100
AcDbEntity
  8
M-PIPE
100
AcDbCircle
 10
815.510157443189
 20
1843.745878730054
 30
0.0
 40
15.49999999999288
100
AcDbArc
 50
309.9999999999985
 51
310.9692287356335
1001
REVIT
1002
{
1070
     3
1000
924079
1002
}
  0
ARC
  5
1CB
330
193
100
AcDbEntity
  8
M-PIPE
100
AcDbCircle
 10
815.510157443189
 20
1843.745878730054
 30
0.0
 40
15.49999999999297
100
AcDbArc
 50
314.9999999999987
 51
319.9999999999986
1001
REVIT
1002
{
1070
     3
1000
924079
1002
}
  0
ARC
  5
1CC
330
193
100
AcDbEntity
  8
M-PIPE
100
AcDbCircle
 10
815.510157443189
 20
1843.745878730054
 30
0.0
 40
15.49999999999304
100
AcDbArc
 50
323.61357626586
 51
324.9999999999988
1001
REVIT
1002
{
1070
     3
1000
924079
1002
}
  0
ARC
  5
1CD
330
193
100
AcDbEntity
  8
M-PIPE
100
AcDbCircle
 10
815.510157443189
 20
1843.745878730054
 30
0.0
 40
15.49999999999305
100
AcDbArc
 50
334.9999999999986
 51
336.3355239172442
1001
REVIT
1002
{
1070
     3
1000
924079
1002
}
  0
ARC
  5
1CE
330
193
100
AcDbEntity
  8
M-PIPE
100
AcDbCircle
 10
815.510157443189
 20
1843.745878730054
 30
0.0
 40
15.49999999999305
100
AcDbArc
 50
339.9999999999989
 51
344.9999999999992
1001
REVIT
1002
{
1070
     3
1000
924079
1002
}
  0
ARC
  5
1CF
330
193
100
AcDbEntity
  8
M-PIPE
100
AcDbCircle
 10
815.510157443189
 20
1843.745878730054
 30
0.0
 40
15.49999999999303
100
AcDbArc
 50
349.0538896661099
 51
349.9999999999984
1001
REVIT
1002
{
1070
     3
1000
924079
1002
}
  0
ARC
  5
1D0
330
193
100
AcDbEntity
  8
M-PIPE
100
AcDbCircle
 10
815.510157443189
 20
1843.745878730054
 30
0.0
 40
15.49999999999298
100
AcDbArc
 50
354.9999999999993
 51
355.4136951811576
1001
REVIT
1002
{
1070
     3
1000
924079
1002
}
  0
ARC
  5
1D1
330
193
100
AcDbEntity
  8
M-PIPE
100
AcDbCircle
 10
815.510157443189
 20
1843.745878730054
 30
0.0
 40
15.49999999999308
100
AcDbArc
 50
355.4146209149499
 51
359.9999999999994
1001
REVIT
1002
{
1070
     3
1000
924079
1002
}
  0
SPLINE
  5
1D2
330
193
100
AcDbEntity
  8
M-PIPE
100
AcDbSpline
210
0.0
220
0.0
230
1.0
 70
    24
 71
     3
 72
    43
 73
    39
 74
     0
 42
0.000000001
 43
0.0000000001
 40
0.0
 40
0.0
 40
0.0
 40
0.0
 40
0.0357142857142857
 40
0.0714285714285714
 40
0.1071428571428571
 40
0.125
 40
0.1428571428571428
 40
0.1607142857142857
 40
0.1785714285714286
 40
0.2142857142857143
 40
0.25
 40
0.2678571428571428
 40
0.2857142857142857
 40
0.3035714285714286
 40
0.3214285714285714
 40
0.3571428571428571
 40
0.3928571428571428
 40
0.4285714285714286
 40
0.4642857142857144
 40
0.5
 40
0.5357142857142857
 40
0.5714285714285714
 40
0.6071428571428572
 40
0.6428571428571428
 40
0.6785714285714287
 40
0.6964285714285714
 40
0.7142857142857144
 40
0.7321428571428572
 40
0.75
 40
0.7857142857142857
 40
0.8214285714285713
 40
0.8392857142857142
 40
0.8571428571428571
 40
0.875
 40
0.8928571428571427
 40
0.9285714285714286
 40
0.9642857142857142
 40
1.0
 40
1.0
 40
1.0
 40
1.0
 10
830.9605467700727
 20
1842.506738040899
 30
0.0
 10
830.9358336302647
 20
1842.463933627137
 30
0.0
 10
830.8762420652882
 20
1842.360718008895
 30
0.0
 10
830.7562971702173
 20
1842.152967356524
 30
0.0
 10
830.6310326967965
 20
1841.936002924176
 30
0.0
 10
830.5152955781609
 20
1841.735540354378
 30
0.0
 10
830.4215936505702
 20
1841.573243855023
 30
0.0
 10
830.3174762175006
 20
1841.392907170993
 30
0.0
 10
830.1628720342439
 20
1841.125124870529
 30
0.0
 10
829.9473539485376
 20
1840.751836596136
 30
0.0
 10
829.7157324707445
 20
1840.350656428474
 30
0.0
 10
829.5287665922405
 20
1840.026822027624
 30
0.0
 10
829.3909482190926
 20
1839.788113603115
 30
0.0
 10
829.2528763941968
 20
1839.548966187302
 30
0.0
 10
829.0630731519017
 20
1839.220217328206
 30
0.0
 10
828.8199558848909
 20
1838.799125869545
 30
0.0
 10
828.5234411247031
 20
1838.285547239706
 30
0.0
 10
828.2295734458502
 20
1837.77655348923
 30
0.0
 10
827.9394308866658
 20
1837.274011835285
 30
0.0
 10
827.6481162747296
 20
1836.769440126424
 30
0.0
 10
827.3561417271046
 20
1836.26372537542
 30
0.0
 10
827.0644736191153
 20
1835.758541393436
 30
0.0
 10
826.7668520035558
 20
1835.243045633857
 30
0.0
 10
826.4646033336655
 20
1834.719535581086
 30
0.0
 10
826.2166844342589
 20
1834.290127451157
 30
0.0
 10
826.0237462323344
 20
1833.955948682703
 30
0.0
 10
825.8839311357595
 20
1833.71378183177
 30
0.0
 10
825.7449759758202
 20
1833.473104434781
 30
0.0
 10
825.5569332030844
 20
1833.147404798407
 30
0.0
 10
825.3247088209633
 20
1832.745180369817
 30
0.0
 10
825.109002446352
 20
1832.371565969474
 30
0.0
 10
824.9541921903691
 20
1832.103426740579
 30
0.0
 10
824.8497774698998
 20
1831.922575139668
 30
0.0
 10
824.7556908785707
 20
1831.759612383175
 30
0.0
 10
824.6395054059606
 20
1831.558373241513
 30
0.0
 10
824.5137181153488
 20
1831.340503263227
 30
0.0
 10
824.393232242207
 20
1831.131815609351
 30
0.0
 10
824.3333328628683
 20
1831.028066840994
 30
0.0
 10
824.3084794223021
 20
1830.98501941919
 30
0.0
1001
REVIT
1002
{
1070
     3
1000
924079
1002
}
  0
SPLINE
  5
1D3
330
193
100
AcDbEntity
  8
M-PIPE
100
AcDbSpline
210
0.0
220
0.0
230
1.0
 70
    24
 71
     3
 72
    43
 73
    39
 74
     0
 42
0.000000001
 43
0.0000000001
 40
0.0
 40
0.0
 40
0.0
 40
0.0
 40
0.0357142857142857
 40
0.0714285714285714
 40
0.1071428571428571
 40
0.125
 40
0.1428571428571428
 40
0.1607142857142857
 40
0.1785714285714286
 40
0.2142857142857143
 40
0.25
 40
0.2678571428571428
 40
0.2857142857142857
 40
0.3035714285714286
 40
0.3214285714285714
 40
0.3571428571428571
 40
0.3928571428571428
 40
0.4285714285714286
 40
0.4642857142857144
 40
0.5
 40
0.5357142857142857
 40
0.5714285714285714
 40
0.6071428571428572
 40
0.6428571428571428
 40
0.6785714285714287
 40
0.6964285714285714
 40
0.7142857142857144
 40
0.7321428571428572
 40
0.75
 40
0.7857142857142857
 40
0.8214285714285713
 40
0.8392857142857142
 40
0.8571428571428571
 40
0.875
 40
0.8928571428571427
 40
0.9285714285714286
 40
0.9642857142857142
 40
1.0
 40
1.0
 40
1.0
 40
1.0
 10
822.1622247909635
 20
1829.745878730038
 30
0.0
 10
822.1127985113476
 20
1829.745878730038
 30
0.0
 10
821.9936153813943
 20
1829.745878730038
 30
0.0
 10
821.7537255912525
 20
1829.745878730038
 30
0.0
 10
821.5031966444108
 20
1829.745878730038
 30
0.0
 10
821.2717224071397
 20
1829.745878730038
 30
0.0
 10
821.084318551958
 20
1829.745878730038
 30
0.0
 10
820.8760836858186
 20
1829.745878730038
 30
0.0
 10
820.5668753193048
 20
1829.745878730038
 30
0.0
 10
820.1358391478924
 20
1829.745878730038
 30
0.0
 10
819.6725961923057
 20
1829.745878730038
 30
0.0
 10
819.2986644352973
 20
1829.745878730038
 30
0.0
 10
819.0230276890016
 20
1829.745878730038
 30
0.0
 10
818.7468840392096
 20
1829.745878730038
 30
0.0
 10
818.3672775546193
 20
1829.745878730038
 30
0.0
 10
817.8810430205972
 20
1829.745878730038
 30
0.0
 10
817.2880135002216
 20
1829.745878730038
 30
0.0
 10
816.700278142515
 20
1829.745878730038
 30
0.0
 10
816.119993024146
 20
1829.745878730038
 30
0.0
 10
815.5373638002734
 20
1829.745878730038
 30
0.0
 10
814.9534147050228
 20
1829.745878730038
 30
0.0
 10
814.3700784890441
 20
1829.745878730038
 30
0.0
 10
813.7748352579249
 20
1829.745878730038
 30
0.0
 10
813.1703379181434
 20
1829.745878730038
 30
0.0
 10
812.6745001193301
 20
1829.745878730038
 30
0.0
 10
812.2886237154807
 20
1829.745878730038
 30
0.0
 10
812.008993522331
 20
1829.745878730038
 30
0.0
 10
811.731083202452
 20
1829.745878730038
 30
0.0
 10
811.35499765698
 20
1829.745878730038
 30
0.0
 10
810.8905488927375
 20
1829.745878730038
 30
0.0
 10
810.4591361435147
 20
1829.745878730038
 30
0.0
 10
810.1495156315493
 20
1829.745878730038
 30
0.0
 10
809.9406861906103
 20
1829.745878730038
 30
0.0
 10
809.7525130079523
 20
1829.745878730038
 30
0.0
 10
809.5201420627317
 20
1829.745878730038
 30
0.0
 10
809.2685674815077
 20
1829.745878730038
 30
0.0
 10
809.0275957352245
 20
1829.745878730038
 30
0.0
 10
808.9077969765465
 20
1829.745878730038
 30
0.0
 10
808.8580900954141
 20
1829.745878730038
 30
0.0
1001
REVIT
1002
{
1070
     3
1000
924079
1002
}
  0
SPLINE
  5
1D4
330
193
100
AcDbEntity
  8
M-PIPE
100
AcDbSpline
210
0.0
220
0.0
230
1.0
 70
    24
 71
     3
 72
    43
 73
    39
 74
     0
 42
0.000000001
 43
0.0000000001
 40
0.0
 40
0.0
 40
0.0
 40
0.0
 40
0.0357142857142857
 40
0.0714285714285714
 40
0.1071428571428571
 40
0.125
 40
0.1428571428571428
 40
0.1607142857142857
 40
0.1785714285714286
 40
0.2142857142857143
 40
0.25
 40
0.2678571428571428
 40
0.2857142857142857
 40
0.3035714285714286
 40
0.3214285714285714
 40
0.3571428571428571
 40
0.3928571428571428
 40
0.4285714285714286
 40
0.4642857142857144
 40
0.5
 40
0.5357142857142857
 40
0.5714285714285714
 40
0.6071428571428572
 40
0.6428571428571428
 40
0.6785714285714287
 40
0.6964285714285714
 40
0.7142857142857144
 40
0.7321428571428572
 40
0.75
 40
0.7857142857142857
 40
0.8214285714285713
 40
0.8392857142857142
 40
0.8571428571428571
 40
0.875
 40
0.8928571428571427
 40
0.9285714285714286
 40
0.9642857142857142
 40
1.0
 40
1.0
 40
1.0
 40
1.0
 10
806.7118354641149
 20
1830.985019419165
 30
0.0
 10
806.6871223243069
 20
1831.027823832927
 30
0.0
 10
806.6275307593301
 20
1831.131039451169
 30
0.0
 10
806.5075858642586
 20
1831.338790103541
 30
0.0
 10
806.3823213908371
 20
1831.555754535891
 30
0.0
 10
806.266584272201
 20
1831.75621710569
 30
0.0
 10
806.1728823446097
 20
1831.918513605045
 30
0.0
 10
806.0687649115394
 20
1832.098850289076
 30
0.0
 10
805.9141607282818
 20
1832.366632589542
 30
0.0
 10
805.6986426425742
 20
1832.739920863937
 30
0.0
 10
805.4670211647797
 20
1833.141101031602
 30
0.0
 10
805.2800552862745
 20
1833.464935432455
 30
0.0
 10
805.1422369131255
 20
1833.703643856965
 30
0.0
 10
805.0041650882288
 20
1833.942791272779
 30
0.0
 10
804.8143618459326
 20
1834.271540131878
 30
0.0
 10
804.5712445789199
 20
1834.692631590541
 30
0.0
 10
804.2747298187302
 20
1835.206210220384
 30
0.0
 10
803.980862139875
 20
1835.715203970863
 30
0.0
 10
803.690719580689
 20
1836.217745624812
 30
0.0
 10
803.3994049687509
 20
1836.722317333676
 30
0.0
 10
803.1074304211241
 20
1837.228032084682
 30
0.0
 10
802.8157623131329
 20
1837.733216066671
 30
0.0
 10
802.5181406975715
 20
1838.248711826254
 30
0.0
 10
802.215892027679
 20
1838.772221879027
 30
0.0
 10
801.9679731282709
 20
1839.201630008959
 30
0.0
 10
801.7750349263451
 20
1839.535808777415
 30
0.0
 10
801.6352198297694
 20
1839.77797562835
 30
0.0
 10
801.496264669829
 20
1840.01865302534
 30
0.0
 10
801.3082218970918
 20
1840.344352661717
 30
0.0
 10
801.075997514969
 20
1840.74657709031
 30
0.0
 10
800.8602911403562
 20
1841.120191490657
 30
0.0
 10
800.7054808843724
 20
1841.388330719553
 30
0.0
 10
800.6010661639024
 20
1841.569182320465
 30
0.0
 10
800.5069795725727
 20
1841.732145076959
 30
0.0
 10
800.3907940999619
 20
1841.933384218622
 30
0.0
 10
800.2650068093494
 20
1842.15125419691
 30
0.0
 10
800.1445209362074
 20
1842.359941850786
 30
0.0
 10
800.0846215568683
 20
1842.463690619143
 30
0.0
 10
800.0597681163023
 20
1842.506738040946
 30
0.0
1001
REVIT
1002
{
1070
     3
1000
924079
1002
}
  0
SPLINE
  5
1D5
330
193
100
AcDbEntity
  8
M-PIPE
100
AcDbSpline
210
0.0
220
0.0
230
1.0
 70
    24
 71
     3
 72
    43
 73
    39
 74
     0
 42
0.000000001
 43
0.0000000001
 40
0.0
 40
0.0
 40
0.0
 40
0.0
 40
0.0357142857142857
 40
0.0714285714285714
 40
0.1071428571428571
 40
0.125
 40
0.1428571428571428
 40
0.1607142857142857
 40
0.1785714285714286
 40
0.2142857142857143
 40
0.25
 40
0.2678571428571428
 40
0.2857142857142857
 40
0.3035714285714286
 40
0.3214285714285714
 40
0.3571428571428571
 40
0.3928571428571428
 40
0.4285714285714286
 40
0.4642857142857144
 40
0.5
 40
0.5357142857142857
 40
0.5714285714285714
 40
0.6071428571428572
 40
0.6428571428571428
 40
0.6785714285714287
 40
0.6964285714285714
 40
0.7142857142857144
 40
0.7321428571428572
 40
0.75
 40
0.7857142857142857
 40
0.8214285714285713
 40
0.8392857142857142
 40
0.8571428571428571
 40
0.875
 40
0.8928571428571427
 40
0.9285714285714286
 40
0.9642857142857142
 40
1.0
 40
1.0
 40
1.0
 40
1.0
 10
800.0597681162997
 20
1844.985019419124
 30
0.0
 10
800.0844812561078
 20
1845.027823832887
 30
0.0
 10
800.1440728210848
 20
1845.131039451129
 30
0.0
 10
800.2640177161566
 20
1845.338790103502
 30
0.0
 10
800.3892821895787
 20
1845.555754535853
 30
0.0
 10
800.5050193082153
 20
1845.756217105653
 30
0.0
 10
800.5987212358071
 20
1845.918513605009
 30
0.0
 10
800.7028386688778
 20
1846.098850289041
 30
0.0
 10
800.8574428521365
 20
1846.366632589508
 30
0.0
 10
801.0729609378451
 20
1846.739920863905
 30
0.0
 10
801.304582415641
 20
1847.141101031572
 30
0.0
 10
801.4915482941471
 20
1847.464935432427
 30
0.0
 10
801.6293666672966
 20
1847.703643856938
 30
0.0
 10
801.7674384921942
 20
1847.942791272754
 30
0.0
 10
801.9572417344917
 20
1848.271540131855
 30
0.0
 10
802.2003590015057
 20
1848.69263159052
 30
0.0
 10
802.4968737616971
 20
1849.206210220366
 30
0.0
 10
802.790741440554
 20
1849.715203970848
 30
0.0
 10
803.0808839997416
 20
1850.217745624799
 30
0.0
 10
803.3721986116811
 20
1850.722317333665
 30
0.0
 10
803.6641731593093
 20
1851.228032084675
 30
0.0
 10
803.9558412673018
 20
1851.733216066665
 30
0.0
 10
804.2534628828647
 20
1852.248711826251
 30
0.0
 10
804.5557115527589
 20
1852.772221879028
 30
0.0
 10
804.8036304521684
 20
1853.201630008962
 30
0.0
 10
804.9965686540954
 20
1853.53580877742
 30
0.0
 10
805.136383750672
 20
1853.777975628355
 30
0.0
 10
805.2753389106131
 20
1854.018653025347
 30
0.0
 10
805.4633816833513
 20
1854.344352661726
 30
0.0
 10
805.6956060654755
 20
1854.746577090322
 30
0.0
 10
805.9113124400898
 20
1855.12019149067
 30
0.0
 10
806.0661226960743
 20
1855.388330719568
 30
0.0
 10
806.170537416545
 20
1855.569182320481
 30
0.0
 10
806.264624007875
 20
1855.732145076976
 30
0.0
 10
806.3808094804864
 20
1855.93338421864
 30
0.0
 10
806.5065967710992
 20
1856.151254196928
 30
0.0
 10
806.6270826442417
 20
1856.359941850805
 30
0.0
 10
806.6869820235808
 20
1856.463690619162
 30
0.0
 10
806.7118354641468
 20
1856.506738040966
 30
0.0
1001
REVIT
1002
{
1070
     3
1000
924079
1002
}
  0
SPLINE
  5
1D6
330
193
100
AcDbEntity
  8
M-PIPE
100
AcDbSpline
210
0.0
220
0.0
230
1.0
 70
    24
 71
     3
 72
    43
 73
    39
 74
     0
 42
0.000000001
 43
0.0000000001
 40
0.0
 40
0.0
 40
0.0
 40
0.0
 40
0.0357142857142857
 40
0.0714285714285714
 40
0.1071428571428571
 40
0.125
 40
0.1428571428571428
 40
0.1607142857142857
 40
0.1785714285714286
 40
0.2142857142857143
 40
0.25
 40
0.2678571428571428
 40
0.2857142857142857
 40
0.3035714285714286
 40
0.3214285714285714
 40
0.3571428571428571
 40
0.3928571428571428
 40
0.4285714285714286
 40
0.4642857142857144
 40
0.5
 40
0.5357142857142857
 40
0.5714285714285714
 40
0.6071428571428572
 40
0.6428571428571428
 40
0.6785714285714287
 40
0.6964285714285714
 40
0.7142857142857144
 40
0.7321428571428572
 40
0.75
 40
0.7857142857142857
 40
0.8214285714285713
 40
0.8392857142857142
 40
0.8571428571428571
 40
0.875
 40
0.8928571428571427
 40
0.9285714285714286
 40
0.9642857142857142
 40
1.0
 40
1.0
 40
1.0
 40
1.0
 10
808.8580900953463
 20
1857.745878730037
 30
0.0
 10
808.9075163749622
 20
1857.745878730037
 30
0.0
 10
809.0266995049162
 20
1857.745878730037
 30
0.0
 10
809.2665892950602
 20
1857.745878730037
 30
0.0
 10
809.5171182419042
 20
1857.745878730037
 30
0.0
 10
809.7485924791774
 20
1857.745878730037
 30
0.0
 10
809.9359963343607
 20
1857.745878730037
 30
0.0
 10
810.1442312005023
 20
1857.745878730037
 30
0.0
 10
810.453439567019
 20
1857.745878730037
 30
0.0
 10
810.8844757384359
 20
1857.745878730037
 30
0.0
 10
811.3477186940276
 20
1857.745878730037
 30
0.0
 10
811.7216504510397
 20
1857.745878730037
 30
0.0
 10
811.9972871973386
 20
1857.745878730037
 30
0.0
 10
812.2734308471335
 20
1857.745878730037
 30
0.0
 10
812.653037331728
 20
1857.745878730037
 30
0.0
 10
813.1392718657558
 20
1857.745878730037
 30
0.0
 10
813.7323013861381
 20
1857.745878730037
 30
0.0
 10
814.3200367438511
 20
1857.745878730037
 30
0.0
 10
814.9003218622263
 20
1857.745878730037
 30
0.0
 10
815.4829510861048
 20
1857.745878730037
 30
0.0
 10
816.0669001813612
 20
1857.745878730037
 30
0.0
 10
816.650236397346
 20
1857.745878730037
 30
0.0
 10
817.2454796284716
 20
1857.745878730037
 30
0.0
 10
817.8499769682593
 20
1857.745878730037
 30
0.0
 10
818.345814767078
 20
1857.745878730037
 30
0.0
 10
818.7316911709315
 20
1857.745878730037
 30
0.0
 10
819.0113213640843
 20
1857.745878730037
 30
0.0
 10
819.2892316839664
 20
1857.745878730037
 30
0.0
 10
819.6653172294428
 20
1857.745878730037
 30
0.0
 10
820.1297659936908
 20
1857.745878730037
 30
0.0
 10
820.5611787429187
 20
1857.745878730037
 30
0.0
 10
820.8707992548877
 20
1857.745878730037
 30
0.0
 10
821.079628695829
 20
1857.745878730037
 30
0.0
 10
821.2678018784888
 20
1857.745878730037
 30
0.0
 10
821.5001728237112
 20
1857.745878730037
 30
0.0
 10
821.7517474049373
 20
1857.745878730037
 30
0.0
 10
821.9927191512219
 20
1857.745878730037
 30
0.0
 10
822.1125179099001
 20
1857.745878730037
 30
0.0
 10
822.1622247910323
 20
1857.745878730037
 30
0.0
1001
REVIT
1002
{
1070
     3
1000
924079
1002
}
  0
SPLINE
  5
1D7
330
193
100
AcDbEntity
  8
M-PIPE
100
AcDbSpline
210
0.0
220
0.0
230
1.0
 70
    24
 71
     3
 72
    43
 73
    39
 74
     0
 42
0.000000001
 43
0.0000000001
 40
0.0
 40
0.0
 40
0.0
 40
0.0
 40
0.0357142857142857
 40
0.0714285714285714
 40
0.1071428571428571
 40
0.125
 40
0.1428571428571428
 40
0.1607142857142857
 40
0.1785714285714286
 40
0.2142857142857143
 40
0.25
 40
0.2678571428571428
 40
0.2857142857142857
 40
0.3035714285714286
 40
0.3214285714285714
 40
0.3571428571428571
 40
0.3928571428571428
 40
0.4285714285714286
 40
0.4642857142857144
 40
0.5
 40
0.5357142857142857
 40
0.5714285714285714
 40
0.6071428571428572
 40
0.6428571428571428
 40
0.6785714285714287
 40
0.6964285714285714
 40
0.7142857142857144
 40
0.7321428571428572
 40
0.75
 40
0.7857142857142857
 40
0.8214285714285713
 40
0.8392857142857142
 40
0.8571428571428571
 40
0.875
 40
0.8928571428571427
 40
0.9285714285714286
 40
0.9642857142857142
 40
1.0
 40
1.0
 40
1.0
 40
1.0
 10
824.3084794222708
 20
1856.506738040939
 30
0.0
 10
824.3331925620788
 20
1856.463933627177
 30
0.0
 10
824.3927841270554
 20
1856.360718008935
 30
0.0
 10
824.5127290221269
 20
1856.152967356563
 30
0.0
 10
824.6379934955482
 20
1855.936002924213
 30
0.0
 10
824.7537306141843
 20
1855.735540354414
 30
0.0
 10
824.8474325417756
 20
1855.573243855059
 30
0.0
 10
824.9515499748456
 20
1855.392907171028
 30
0.0
 10
825.106154158103
 20
1855.125124870563
 30
0.0
 10
825.3216722438104
 20
1854.751836596168
 30
0.0
 10
825.5532937216047
 20
1854.350656428504
 30
0.0
 10
825.7402596001098
 20
1854.026822027652
 30
0.0
 10
825.8780779732584
 20
1853.788113603142
 30
0.0
 10
826.0161497981549
 20
1853.548966187327
 30
0.0
 10
826.205953040451
 20
1853.220217328229
 30
0.0
 10
826.4490703074633
 20
1852.799125869567
 30
0.0
 10
826.7455850676524
 20
1852.285547239725
 30
0.0
 10
827.0394527465073
 20
1851.776553489246
 30
0.0
 10
827.3295953056932
 20
1851.274011835298
 30
0.0
 10
827.6209099176309
 20
1850.769440126435
 30
0.0
 10
827.9128844652573
 20
1850.263725375429
 30
0.0
 10
828.2045525732481
 20
1849.758541393441
 30
0.0
 10
828.502174188809
 20
1849.243045633859
 30
0.0
 10
828.8044228587013
 20
1848.719535581086
 30
0.0
 10
829.052341758109
 20
1848.290127451155
 30
0.0
 10
829.2452799600345
 20
1847.955948682699
 30
0.0
 10
829.3850950566103
 20
1847.713781831765
 30
0.0
 10
829.5240502165505
 20
1847.473104434774
 30
0.0
 10
829.7120929892873
 20
1847.147404798398
 30
0.0
 10
829.9443173714095
 20
1846.745180369806
 30
0.0
 10
830.1600237460224
 20
1846.37156596946
 30
0.0
 10
830.3148340020056
 20
1846.103426740564
 30
0.0
 10
830.4192487224758
 20
1845.922575139652
 30
0.0
 10
830.5133353138051
 20
1845.759612383158
 30
0.0
 10
830.629520786416
 20
1845.558373241495
 30
0.0
 10
830.7553080770283
 20
1845.340503263208
 30
0.0
 10
830.8757939501703
 20
1845.131815609332
 30
0.0
 10
830.9356933295092
 20
1845.028066840975
 30
0.0
 10
830.9605467700754
 20
1844.985019419171
 30
0.0
1001
REVIT
1002
{
1070
     3
1000
924079
1002
}
  0
ARC
  5
1D8
330
193
100
AcDbEntity
  8
M-PIPE
100
AcDbCircle
 10
815.5101574431892
 20
1843.745878730054
 30
0.0
 40
12.14999999999998
100
AcDbArc
 50
0.0
 51
179.9999999999989
1001
REVIT
1002
{
1070
     3
1000
924079
1002
}
  0
ARC
  5
1D9
330
193
100
AcDbEntity
  8
M-PIPE
100
AcDbCircle
 10
815.5101574431892
 20
1843.745878730054
 30
0.0
 40
12.15
100
AcDbArc
 50
179.9999999999997
 51
359.9999999999994
1001
REVIT
1002
{
1070
     3
1000
924079
1002
}
  0
ARC
  5
1DA
330
193
100
AcDbEntity
  8
M-PIPE
100
AcDbCircle
 10
815.510157443189
 20
1843.745878730054
 30
0.0
 40
16.2999999999982
100
AcDbArc
 50
359.9999999999992
 51
180.0000000000004
1001
REVIT
1002
{
1070
     3
1000
924079
1002
}
  0
ARC
  5
1DB
330
193
100
AcDbEntity
  8
M-PIPE
100
AcDbCircle
 10
815.510157443189
 20
1843.745878730054
 30
0.0
 40
16.29999999999796
100
AcDbArc
 50
180.0000000000006
 51
359.9999999999994
1001
REVIT
1002
{
1070
     3
1000
924079
1002
}
  0
LINE
  5
1DC
330
193
100
AcDbEntity
  8
M-PIPE
100
AcDbLine
 10
812.3462004417351
 20
1863.745878730067
 30
0.0
 11
809.9818213462979
 21
1863.745878730067
 31
0.0
1001
REVIT
1002
{
1070
     3
1000
790271
1002
}
  0
ARC
  5
1DD
330
193
100
AcDbEntity
  8
M-PIPE
100
AcDbCircle
 10
815.510157443172
 20
1843.745878730067
 30
0.0
 40
20.74999999999992
100
AcDbArc
 50
105.4516934309448
 51
132.6898814487883
1001
REVIT
1002
{
1070
     3
1000
790271
1002
}
  0
LINE
  5
1DE
330
193
100
AcDbEntity
  8
M-PIPE
100
AcDbLine
 10
818.674114444642
 20
1823.745878730067
 30
0.0
 11
819.0101574431887
 21
1823.745878730067
 31
0.0
1001
REVIT
1002
{
1070
     3
1000
790271
1002
}
  0
LINE
  5
1DF
330
193
100
AcDbEntity
  8
P-SANR-FIXT
100
AcDbLine
 10
841.5101574431888
 20
1856.895878730055
 30
0.0
 11
837.5101574431905
 21
1856.895878730055
 31
0.0
  0
LINE
  5
1E0
330
193
100
AcDbEntity
  8
P-SANR-FIXT
100
AcDbLine
 10
837.5101574431901
 20
1830.595878730055
 30
0.0
 11
841.5101574431885
 21
1830.595878730055
 31
0.0
  0
LINE
  5
1E1
330
193
100
AcDbEntity
  8
P-SANR-FIXT
100
AcDbLine
 10
837.5101574431903
 20
1858.995878730056
 30
0.0
 11
834.51015744319
 21
1858.995878730056
 31
0.0
  0
LINE
  5
1E2
330
193
100
AcDbEntity
  8
P-SANR-FIXT
100
AcDbLine
 10
834.5079366604212
 20
1828.495878730055
 30
0.0
 11
837.5101574431901
 21
1828.495878730055
 31
0.0
  0
LINE
  5
1E3
330
193
100
AcDbEntity
  8
P-SANR-FIXT
100
AcDbLine
 10
812.872842630861
 20
1858.995878730055
 30
0.0
 11
812.818610689354
 21
1858.995878730055
 31
0.0
  0
LINE
  5
1E4
330
193
100
AcDbEntity
  8
P-SANR-FIXT
100
AcDbLine
 10
809.8055660975331
 20
1858.995878730056
 30
0.0
 11
793.5101574431901
 21
1858.995878730055
 31
0.0
  0
LINE
  5
1E5
330
193
100
AcDbEntity
  8
P-SANR-FIXT
100
AcDbLine
 10
793.5101574431899
 20
1828.495878730055
 30
0.0
 11
798.6363476586461
 21
1828.495878730055
 31
0.0
  0
LINE
  5
1E6
330
193
100
AcDbEntity
  8
P-SANR-FIXT
100
AcDbLine
 10
812.8186106893537
 20
1828.495878730055
 30
0.0
 11
812.8728426308491
 21
1828.495878730055
 31
0.0
  0
LINE
  5
1E7
330
193
100
AcDbEntity
  8
P-SANR-FIXT
100
AcDbLine
 10
793.5101574431903
 20
1856.895878730055
 30
0.0
 11
789.5101574431927
 21
1856.895878730056
 31
0.0
  0
LINE
  5
1E8
330
193
100
AcDbEntity
  8
P-SANR-FIXT
100
AcDbLine
 10
789.5101574431921
 20
1830.595878730056
 30
0.0
 11
793.5101574431899
 21
1830.595878730055
 31
0.0
  0
LWPOLYLINE
  5
1E9
330
193
100
AcDbEntity
  8
P-SANR-FIXT
100
AcDbPolyline
 90
       10
 70
   128
 43
0.0
 10
814.5101574431901
 20
1860.141264962089
 10
814.0342678155887
 20
1860.10791796702
 10
813.3811413148489
 20
1860.035810237282
 10
812.7314207857489
 20
1859.937642092131
 10
812.086145642535
 20
1859.813570579659
 10
811.4463481877855
 20
1859.66379418782
 10
810.8130519609447
 20
1859.488552526889
 10
810.1872701008799
 20
1859.288125946141
 10
809.5700037250741
 20
1859.06283508535
 10
809.3535831475517
 20
1858.973884815245
  0
LWPOLYLINE
  5
1EA
330
193
100
AcDbEntity
  8
P-SANR-FIXT
100
AcDbPolyline
 90
       11
 70
   128
 43
0.0
 10
813.7939347155018
 20
1827.407299913836
 10
814.4486763990464
 20
1827.351738430004
 10
815.1051162258244
 20
1827.322404073422
 10
815.7622040321461
 20
1827.319343772802
 10
816.4188886176924
 20
1827.342562423974
 10
817.0741194272119
 20
1827.392022882048
 10
817.7268482311843
 20
1827.467646020843
 10
818.376030802765
 20
1827.569310859467
 10
819.020628588324
 20
1827.696854755868
 10
819.6596103689111
 20
1827.850073667018
 10
820.0967402813645
 20
1827.973570995402
  0
LWPOLYLINE
  5
1EB
330
193
100
AcDbEntity
  8
P-SANR-FIXT
100
AcDbPolyline
 90
       19
 70
   128
 43
0.0
 10
814.5101574431901
 20
1863.992700410455
 10
814.1630512168161
 20
1863.976552097331
 10
813.3551176000091
 20
1863.906499835389
 10
812.5506315872337
 20
1863.804194880382
 10
811.7508801844959
 20
1863.669800898414
 10
810.9571428234357
 20
1863.503532891186
 10
810.170689314509
 20
1863.305656852041
 10
809.3927778155626
 20
1863.076489340432
 10
808.6246528190489
 20
1862.81639697549
 10
807.8675431611046
 20
1862.525795849516
 10
807.1226600556743
 20
1862.205150862319
 10
806.3911951568265
 20
1861.854974977478
 10
805.674318652362
 20
1861.475828401709
 10
804.9731773917624
 20
1861.068317688653
 10
804.2888930514759
 20
1860.63309476852
 10
803.6225603404743
 20
1860.170855905139
 10
802.9752452489514
 20
1859.682340582087
 10
802.3479833429675
 20
1859.168330319669
 10
802.1404331267833
 20
1858.983898142541
  0
LWPOLYLINE
  5
1EC
330
193
100
AcDbEntity
  8
P-SANR-FIXT
100
AcDbPolyline
 90
        8
 70
   128
 43
0.0
 10
814.01015744319
 20
1823.530029760142
 10
814.4257175744082
 20
1823.499426442073
 10
815.2362271572735
 20
1823.472255416079
 10
816.0471749701612
 20
1823.477517862579
 10
816.8572636695632
 20
1823.515205362779
 10
817.6651972863705
 20
1823.585257624721
 10
818.4696832991459
 20
1823.687562579728
 10
819.0101574431899
 20
1823.778386393379
  0
LINE
  5
1ED
330
193
100
AcDbEntity
  8
P-SANR-FIXT
100
AcDbLine
 10
870.5101574432053
 20
1852.895878730069
 30
0.0
 11
869.2101574432053
 21
1854.195878730069
 31
0.0
  0
LINE
  5
1EE
330
193
100
AcDbEntity
  8
P-SANR-FIXT
100
AcDbLine
 10
869.2101574432053
 20
1833.295878730041
 30
0.0
 11
870.5101574432053
 21
1834.595878730041
 31
0.0
  0
LINE
  5
1EF
330
193
100
AcDbEntity
  8
P-SANR-FIXT
100
AcDbLine
 10
869.2101574432053
 20
1854.195878730069
 30
0.0
 11
854.5101574431882
 21
1854.195878730069
 31
0.0
  0
LINE
  5
1F0
330
193
100
AcDbEntity
  8
P-SANR-FIXT
100
AcDbLine
 10
854.5101574431882
 20
1833.295878730041
 30
0.0
 11
869.2101574432053
 21
1833.295878730041
 31
0.0
  0
LINE
  5
1F1
330
193
100
AcDbEntity
  8
P-SANR-FIXT
100
AcDbLine
 10
854.5101574431884
 20
1855.545878730059
 30
0.0
 11
852.6663734298345
 21
1858.74609486119
 31
0.0
  0
LINE
  5
1F2
330
193
100
AcDbEntity
  8
P-SANR-FIXT
100
AcDbLine
 10
852.6663734296976
 20
1828.745662598684
 30
0.0
 11
854.5101574431882
 21
1831.945878730051
 31
0.0
  0
LINE
  5
1F3
330
193
100
AcDbEntity
  8
P-SANR-FIXT
100
AcDbLine
 10
761.810157443175
 20
1854.19587873007
 30
0.0
 11
760.5101574431749
 21
1852.895878730069
 31
0.0
  0
LINE
  5
1F4
330
193
100
AcDbEntity
  8
P-SANR-FIXT
100
AcDbLine
 10
760.5101574431748
 20
1834.595878730041
 30
0.0
 11
761.810157443175
 21
1833.295878730042
 31
0.0
  0
LINE
  5
1F5
330
193
100
AcDbEntity
  8
P-SANR-FIXT
100
AcDbLine
 10
776.5101574431919
 20
1854.19587873007
 30
0.0
 11
761.810157443175
 21
1854.19587873007
 31
0.0
  0
LINE
  5
1F6
330
193
100
AcDbEntity
  8
P-SANR-FIXT
100
AcDbLine
 10
761.810157443175
 20
1833.295878730042
 30
0.0
 11
776.5101574431919
 21
1833.295878730042
 31
0.0
  0
LINE
  5
1F7
330
193
100
AcDbEntity
  8
P-SANR-FIXT
100
AcDbLine
 10
778.3539414565467
 20
1858.746094861191
 30
0.0
 11
776.5101574431922
 21
1855.545878730059
 31
0.0
  0
LINE
  5
1F8
330
193
100
AcDbEntity
  8
P-SANR-FIXT
100
AcDbLine
 10
776.5101574431918
 20
1831.945878730052
 30
0.0
 11
778.3539414566829
 21
1828.745662598683
 31
0.0
  0
LINE
  5
1F9
330
193
100
AcDbEntity
  8
P-SANR-FIXT
100
AcDbLine
 10
814.5101574431901
 20
1864.745878730057
 30
0.0
 11
814.5101574431901
 21
1859.996751880282
 31
0.0
  0
LINE
  5
1FA
330
193
100
AcDbEntity
  8
P-SANR-FIXT
100
AcDbLine
 10
814.5101574431901
 20
1859.202217787139
 30
0.0
 11
814.5101574431901
 21
1859.190375739685
 31
0.0
  0
LINE
  5
1FB
330
193
100
AcDbEntity
  8
P-SANR-FIXT
100
AcDbLine
 10
814.5101574431899
 20
1828.301381720424
 30
0.0
 11
814.5101574431899
 21
1828.289539672971
 31
0.0
  0
LINE
  5
1FC
330
193
100
AcDbEntity
  8
P-SANR-FIXT
100
AcDbLine
 10
834.51015744319
 20
1827.975395363641
 30
0.0
 11
834.51015744319
 21
1830.467607005166
 31
0.0
  0
LINE
  5
1FD
330
193
100
AcDbEntity
  8
P-SANR-FIXT
100
AcDbLine
 10
834.5101574431904
 20
1857.024150454945
 30
0.0
 11
834.51015744319
 21
1864.745878730057
 31
0.0
  0
LINE
  5
1FE
330
193
100
AcDbEntity
  8
P-SANR-FIXT
100
AcDbLine
 10
797.0101574431899
 20
1828.499521718853
 30
0.0
 11
797.0101574431899
 21
1817.745878730055
 31
0.0
  0
LINE
  5
1FF
330
193
100
AcDbEntity
  8
P-SANR-FIXT
100
AcDbLine
 10
814.01015744319
 20
1817.745878730055
 30
0.0
 11
814.01015744319
 21
1827.386032209233
 31
0.0
  0
LINE
  5
200
330
193
100
AcDbEntity
  8
P-SANR-FIXT
100
AcDbLine
 10
837.5101574431891
 20
1858.995878730055
 30
0.0
 11
837.5101574431889
 21
1843.745878730055
 31
0.0
  0
LINE
  5
201
330
193
100
AcDbEntity
  8
P-SANR-FIXT
100
AcDbLine
 10
837.5101574431889
 20
1843.745878730055
 30
0.0
 11
837.5101574431889
 21
1828.495878730055
 31
0.0
  0
SPLINE
  5
202
330
193
100
AcDbEntity
  8
P-SANR-FIXT
100
AcDbSpline
210
0.0
220
0.0
230
1.0
 70
     8
 71
     3
 72
    14
 73
    10
 74
     0
 42
0.000000001
 43
0.0000000001
 40
0.2364026618341689
 40
0.2364026618341689
 40
0.2364026618341689
 40
0.2364026618341689
 40
0.3333333333333333
 40
0.4444444444444445
 40
0.5138888888888889
 40
0.5833333333333333
 40
0.6527777777777777
 40
0.7222222222222223
 40
0.7545205963382516
 40
0.7545205963382516
 40
0.7545205963382516
 40
0.7545205963382516
 10
798.6382017545379
 20
1828.495640034195
 30
0.0
 10
799.0760982411866
 20
1828.495390111136
 30
0.0
 10
800.1864817075571
 20
1828.573640511024
 30
0.0
 10
802.0330414200035
 20
1828.758795956856
 30
0.0
 10
803.8860769505678
 20
1828.87697203211
 30
0.0
 10
805.4665887701101
 20
1828.914536455369
 30
0.0
 10
807.0805649284505
 20
1828.880490436322
 30
0.0
 10
808.3449544047946
 20
1828.798721460697
 30
0.0
 10
809.047218437951
 20
1828.743153030604
 30
0.0
 10
809.2671319339709
 20
1828.724575850503
 30
0.0
  0
LINE
  5
203
330
193
100
AcDbEntity
  8
P-SANR-FIXT
100
AcDbLine
 10
793.510157443189
 20
1858.995878730055
 30
0.0
 11
793.5101574431887
 21
1843.745878730055
 31
0.0
  0
LINE
  5
204
330
193
100
AcDbEntity
  8
P-SANR-FIXT
100
AcDbLine
 10
793.5101574431887
 20
1843.745878730055
 30
0.0
 11
793.5101574431886
 21
1828.495878730055
 31
0.0
  0
ARC
  5
205
330
193
100
AcDbEntity
  8
P-SANR-FIXT
100
AcDbCircle
 10
815.5101574431887
 20
1843.745878730055
 30
0.0
 40
18.47651676738062
100
AcDbArc
 50
93.10480479947209
 51
124.4566589781332
  0
ARC
  5
206
330
193
100
AcDbEntity
  8
P-SANR-FIXT
100
AcDbCircle
 10
815.5101574431887
 20
1843.745878730055
 30
0.0
 40
18.47651676738102
100
AcDbArc
 50
265.3376236240912
 51
280.9341424441147
  0
SPLINE
  5
207
330
193
100
AcDbEntity
  8
P-SANR-FIXT
100
AcDbSpline
210
0.0
220
0.0
230
1.0
 70
     8
 71
     3
 72
     8
 73
     4
 74
     0
 42
0.000000001
 43
0.0000000001
 40
0.0
 40
0.0
 40
0.0
 40
0.0
 40
0.5
 40
0.5
 40
0.5
 40
0.5
 10
813.7939347155006
 20
1827.407299913835
 30
0.0
 10
813.8658585441891
 20
1827.399744953833
 30
0.0
 10
813.9198727370107
 20
1827.394521478526
 30
0.0
 10
813.9559218070248
 20
1827.391095644604
 30
0.0
  0
SPLINE
  5
208
330
193
100
AcDbEntity
  8
P-SANR-FIXT
100
AcDbSpline
210
0.0
220
0.0
230
1.0
 70
     8
 71
     3
 72
     9
 73
     5
 74
     0
 42
0.000000001
 43
0.0000000001
 40
-0.3311415295896987
 40
-0.3311415295896987
 40
-0.3311415295896987
 40
-0.3311415295896987
 40
-0.2
 40
0.0
 40
0.0
 40
0.0
 40
0.0
 10
813.595508327449
 20
1827.561463617049
 30
0.0
 10
813.6244428358494
 20
1827.524028452297
 30
0.0
 10
813.695771610609
 20
1827.445377650022
 30
0.0
 10
813.7589356082926
 20
1827.411947270651
 30
0.0
 10
813.7939347155006
 20
1827.407299913835
 30
0.0
  0
LINE
  5
209
330
193
100
AcDbEntity
  8
P-SANR-FIXT
100
AcDbLine
 10
841.5101574431874
 20
1843.745878730054
 30
0.0
 11
841.5101574431874
 21
1845.292938280055
 31
0.0
  0
LINE
  5
20A
330
193
100
AcDbEntity
  8
P-SANR-FIXT
100
AcDbLine
 10
841.5101574431876
 20
1857.198819180143
 30
0.0
 11
841.5101574431874
 21
1845.292938280055
 31
0.0
  0
LINE
  5
20B
330
193
100
AcDbEntity
  8
P-SANR-FIXT
100
AcDbLine
 10
841.5101574431876
 20
1857.198819180143
 30
0.0
 11
841.5101574431876
 21
1858.745878729983
 31
0.0
  0
LINE
  5
20C
330
193
100
AcDbEntity
  8
P-SANR-FIXT
100
AcDbLine
 10
841.5101574431874
 20
1828.745878729982
 30
0.0
 11
841.5101574431874
 21
1830.29293828026
 31
0.0
  0
LINE
  5
20D
330
193
100
AcDbEntity
  8
P-SANR-FIXT
100
AcDbLine
 10
841.5101574431874
 20
1842.198819179993
 30
0.0
 11
841.5101574431874
 21
1830.29293828026
 31
0.0
  0
LINE
  5
20E
330
193
100
AcDbEntity
  8
P-SANR-FIXT
100
AcDbLine
 10
841.5101574431874
 20
1842.198819179993
 30
0.0
 11
841.5101574431874
 21
1843.745878730054
 31
0.0
  0
LINE
  5
20F
330
193
100
AcDbEntity
  8
P-SANR-FIXT
100
AcDbLine
 10
870.510157443204
 20
1852.895878730068
 30
0.0
 11
870.510157443204
 21
1843.745878730054
 31
0.0
  0
LINE
  5
210
330
193
100
AcDbEntity
  8
P-SANR-FIXT
100
AcDbLine
 10
870.510157443204
 20
1843.745878730054
 30
0.0
 11
870.510157443204
 21
1834.595878730041
 31
0.0
  0
LINE
  5
211
330
193
100
AcDbEntity
  8
P-SANR-FIXT
100
AcDbLine
 10
869.210157443204
 20
1854.195878730068
 30
0.0
 11
869.210157443204
 21
1843.745878730054
 31
0.0
  0
LINE
  5
212
330
193
100
AcDbEntity
  8
P-SANR-FIXT
100
AcDbLine
 10
869.210157443204
 20
1843.745878730054
 30
0.0
 11
869.210157443204
 21
1833.295878730041
 31
0.0
  0
LINE
  5
213
330
193
100
AcDbEntity
  8
P-SANR-FIXT
100
AcDbLine
 10
854.5101574431873
 20
1855.545878730058
 30
0.0
 11
854.5101574431871
 21
1843.745878730054
 31
0.0
  0
SPLINE
  5
214
330
193
100
AcDbEntity
  8
P-SANR-FIXT
100
AcDbSpline
210
0.0
220
0.0
230
1.0
 70
    24
 71
     3
 72
     9
 73
     5
 74
     0
 42
0.000000001
 43
0.0000000001
 40
0.0
 40
0.0
 40
0.0
 40
0.0
 40
0.5
 40
0.5043277434357285
 40
0.5043277434357285
 40
0.5043277434357285
 40
0.5043277434357285
 10
851.8022825660919
 20
1858.745878729983
 30
0.0
 10
852.378386302144
 20
1858.745878729967
 30
0.0
 10
852.6689313993323
 20
1858.745878729952
 30
0.0
 10
852.6664165900578
 20
1858.745878729936
 30
0.0
 10
852.6663734298331
 20
1858.745878729936
 30
0.0
  0
SPLINE
  5
215
330
193
100
AcDbEntity
  8
P-SANR-FIXT
100
AcDbSpline
210
0.0
220
0.0
230
1.0
 70
     8
 71
     3
 72
     9
 73
     5
 74
     0
 42
0.000000001
 43
0.0000000001
 40
0.0
 40
0.0
 40
0.0
 40
0.0
 40
0.5
 40
1.0
 40
1.0
 40
1.0
 40
1.0
 10
851.8022825660919
 20
1845.292938280055
 30
0.0
 10
852.3783863021318
 20
1847.245039466673
 30
0.0
 10
852.9544900381715
 20
1851.181454136639
 30
0.0
 10
852.3783863021318
 20
1855.182293400065
 30
0.0
 10
851.8022825660919
 20
1857.198819180143
 30
0.0
  0
LINE
  5
216
330
193
100
AcDbEntity
  8
P-SANR-FIXT
100
AcDbLine
 10
854.5101574431871
 20
1843.745878730054
 30
0.0
 11
854.5101574431869
 21
1831.945878730051
 31
0.0
  0
SPLINE
  5
217
330
193
100
AcDbEntity
  8
P-SANR-FIXT
100
AcDbSpline
210
0.0
220
0.0
230
1.0
 70
     8
 71
     3
 72
     9
 73
     5
 74
     0
 42
0.000000001
 43
0.0000000001
 40
0.0
 40
0.0
 40
0.0
 40
0.0
 40
0.5
 40
1.0
 40
1.0
 40
1.0
 40
1.0
 10
851.8022825660917
 20
1830.29293828026
 30
0.0
 10
852.3783863020861
 20
1832.245039466819
 30
0.0
 10
852.9544900380805
 20
1836.181454136666
 30
0.0
 10
852.3783863020863
 20
1840.182293399974
 30
0.0
 10
851.8022825660919
 20
1842.198819179993
 30
0.0
  0
SPLINE
  5
218
330
193
100
AcDbEntity
  8
P-SANR-FIXT
100
AcDbSpline
210
0.0
220
0.0
230
1.0
 70
    24
 71
     3
 72
     8
 73
     4
 74
     0
 42
0.000000001
 43
0.0000000001
 40
0.5
 40
0.5
 40
0.5
 40
0.5
 40
1.0
 40
1.0
 40
1.0
 40
1.0
 10
852.666438170033
 20
1828.745878729936
 30
0.0
 10
852.666438170033
 20
1828.745878729951
 30
0.0
 10
852.3783863020526
 20
1828.745878729966
 30
0.0
 10
851.8022825660917
 20
1828.745878729982
 30
0.0
  0
LINE
  5
219
330
193
100
AcDbEntity
  8
P-SANR-FIXT
100
AcDbLine
 10
851.8022825660919
 20
1857.198819180143
 30
0.0
 11
841.5101574431876
 21
1857.198819180143
 31
0.0
  0
LINE
  5
21A
330
193
100
AcDbEntity
  8
P-SANR-FIXT
100
AcDbLine
 10
851.8022825660919
 20
1858.745878729983
 30
0.0
 11
851.8022825660919
 21
1857.198819180143
 31
0.0
  0
LINE
  5
21B
330
193
100
AcDbEntity
  8
P-SANR-FIXT
100
AcDbLine
 10
841.5101574431876
 20
1858.745878729983
 30
0.0
 11
851.8022825660919
 21
1858.745878729983
 31
0.0
  0
LINE
  5
21C
330
193
100
AcDbEntity
  8
P-SANR-FIXT
100
AcDbLine
 10
851.8022825660919
 20
1845.292938280055
 30
0.0
 11
851.8022825660919
 21
1843.745878730054
 31
0.0
  0
LINE
  5
21D
330
193
100
AcDbEntity
  8
P-SANR-FIXT
100
AcDbLine
 10
841.5101574431874
 20
1845.292938280055
 30
0.0
 11
851.8022825660919
 21
1845.292938280055
 31
0.0
  0
LINE
  5
21E
330
193
100
AcDbEntity
  8
P-SANR-FIXT
100
AcDbLine
 10
851.8022825660917
 20
1828.745878729982
 30
0.0
 11
841.5101574431874
 21
1828.745878729982
 31
0.0
  0
LINE
  5
21F
330
193
100
AcDbEntity
  8
P-SANR-FIXT
100
AcDbLine
 10
851.8022825660917
 20
1830.29293828026
 30
0.0
 11
851.8022825660917
 21
1828.745878729982
 31
0.0
  0
LINE
  5
220
330
193
100
AcDbEntity
  8
P-SANR-FIXT
100
AcDbLine
 10
841.5101574431874
 20
1830.29293828026
 30
0.0
 11
851.8022825660917
 21
1830.29293828026
 31
0.0
  0
LINE
  5
221
330
193
100
AcDbEntity
  8
P-SANR-FIXT
100
AcDbLine
 10
851.8022825660919
 20
1842.198819179993
 30
0.0
 11
841.5101574431874
 21
1842.198819179993
 31
0.0
  0
LINE
  5
222
330
193
100
AcDbEntity
  8
P-SANR-FIXT
100
AcDbLine
 10
851.8022825660919
 20
1843.745878730054
 30
0.0
 11
851.8022825660919
 21
1842.198819179993
 31
0.0
  0
LINE
  5
223
330
193
100
AcDbEntity
  8
P-SANR-FIXT
100
AcDbLine
 10
789.5101574431913
 20
1857.198819180143
 30
0.0
 11
789.510157443191
 21
1845.292938280056
 31
0.0
  0
LINE
  5
224
330
193
100
AcDbEntity
  8
P-SANR-FIXT
100
AcDbLine
 10
789.510157443191
 20
1842.198819179994
 30
0.0
 11
789.510157443191
 21
1830.29293828026
 31
0.0
  0
LINE
  5
225
330
193
100
AcDbEntity
  8
P-SANR-FIXT
100
AcDbLine
 10
760.5101574431738
 20
1843.745878730055
 30
0.0
 11
760.5101574431738
 21
1852.895878730069
 31
0.0
  0
LINE
  5
226
330
193
100
AcDbEntity
  8
P-SANR-FIXT
100
AcDbLine
 10
760.5101574431738
 20
1834.595878730041
 30
0.0
 11
760.5101574431738
 21
1843.745878730055
 31
0.0
  0
LINE
  5
227
330
193
100
AcDbEntity
  8
P-SANR-FIXT
100
AcDbLine
 10
761.8101574431737
 20
1843.745878730055
 30
0.0
 11
761.8101574431737
 21
1854.195878730069
 31
0.0
  0
LINE
  5
228
330
193
100
AcDbEntity
  8
P-SANR-FIXT
100
AcDbLine
 10
761.8101574431737
 20
1833.295878730041
 30
0.0
 11
761.8101574431737
 21
1843.745878730055
 31
0.0
  0
LINE
  5
229
330
193
100
AcDbEntity
  8
P-SANR-FIXT
100
AcDbLine
 10
776.5101574431907
 20
1843.745878730055
 30
0.0
 11
776.5101574431909
 21
1855.545878730058
 31
0.0
  0
LINE
  5
22A
330
193
100
AcDbEntity
  8
P-SANR-FIXT
100
AcDbLine
 10
776.5101574431906
 20
1831.945878730051
 30
0.0
 11
776.5101574431907
 21
1843.745878730055
 31
0.0
  0
LINE
  5
22B
330
193
100
AcDbEntity
  8
P-SANR-FIXT
100
AcDbLine
 10
779.2180323202861
 20
1843.745878730055
 30
0.0
 11
779.2180323202861
 21
1845.292938280056
 31
0.0
  0
SPLINE
  5
22C
330
193
100
AcDbEntity
  8
P-SANR-FIXT
100
AcDbSpline
210
0.0
220
0.0
230
1.0
 70
     8
 71
     3
 72
     9
 73
     5
 74
     0
 42
0.000000001
 43
0.0000000001
 40
-1.0
 40
-1.0
 40
-1.0
 40
-1.0
 40
-0.5
 40
0.0
 40
0.0
 40
0.0
 40
0.0
 10
779.2180323202861
 20
1845.292938280056
 30
0.0
 10
778.6419285842461
 20
1847.309464060133
 30
0.0
 10
778.0658248482063
 20
1851.310303323559
 30
0.0
 10
778.6419285842463
 20
1855.246717993525
 30
0.0
 10
779.2180323202861
 20
1857.198819180143
 30
0.0
  0
LINE
  5
22D
330
193
100
AcDbEntity
  8
P-SANR-FIXT
100
AcDbLine
 10
779.2180323202861
 20
1857.198819180143
 30
0.0
 11
779.2180323202861
 21
1858.745878729983
 31
0.0
  0
SPLINE
  5
22E
330
193
100
AcDbEntity
  8
P-SANR-FIXT
100
AcDbSpline
210
0.0
220
0.0
230
1.0
 70
    24
 71
     3
 72
     8
 73
     4
 74
     0
 42
0.000000001
 43
0.0000000001
 40
-1.0
 40
-1.0
 40
-1.0
 40
-1.0
 40
-0.5
 40
-0.5
 40
-0.5
 40
-0.5
 10
779.2180323202861
 20
1858.745878729983
 30
0.0
 10
778.6419285842342
 20
1858.745878729967
 30
0.0
 10
778.3538767162081
 20
1858.745878729952
 30
0.0
 10
778.3538767162081
 20
1858.745878729936
 30
0.0
  0
SPLINE
  5
22F
330
193
100
AcDbEntity
  8
P-SANR-FIXT
100
AcDbSpline
210
0.0
220
0.0
230
1.0
 70
    24
 71
     3
 72
     9
 73
     5
 74
     0
 42
0.000000001
 43
0.0000000001
 40
-0.5043277434517812
 40
-0.5043277434517812
 40
-0.5043277434517812
 40
-0.5043277434517812
 40
-0.5
 40
0.0
 40
0.0
 40
0.0
 40
0.0
 10
778.3539414566817
 20
1828.745878729937
 30
0.0
 10
778.3538982964568
 20
1828.745878729937
 30
0.0
 10
778.3513834871738
 20
1828.745878729952
 30
0.0
 10
778.6419285842383
 20
1828.745878729964
 30
0.0
 10
779.2180323202858
 20
1828.745878729983
 30
0.0
  0
LINE
  5
230
330
193
100
AcDbEntity
  8
P-SANR-FIXT
100
AcDbLine
 10
779.2180323202858
 20
1828.745878729983
 30
0.0
 11
779.2180323202858
 21
1830.292938280261
 31
0.0
  0
SPLINE
  5
231
330
193
100
AcDbEntity
  8
P-SANR-FIXT
100
AcDbSpline
210
0.0
220
0.0
230
1.0
 70
     8
 71
     3
 72
     9
 73
     5
 74
     0
 42
0.000000001
 43
0.0000000001
 40
-1.0
 40
-1.0
 40
-1.0
 40
-1.0
 40
-0.5
 40
0.0
 40
0.0
 40
0.0
 40
0.0
 10
779.2180323202858
 20
1830.292938280261
 30
0.0
 10
778.6419285842916
 20
1832.30946406028
 30
0.0
 10
778.0658248482974
 20
1836.310303323587
 30
0.0
 10
778.6419285842916
 20
1840.246717993435
 30
0.0
 10
779.2180323202861
 20
1842.198819179994
 30
0.0
  0
LINE
  5
232
330
193
100
AcDbEntity
  8
P-SANR-FIXT
100
AcDbLine
 10
779.2180323202861
 20
1842.198819179994
 30
0.0
 11
779.2180323202861
 21
1843.745878730055
 31
0.0
  0
LINE
  5
233
330
193
100
AcDbEntity
  8
P-SANR-FIXT
100
AcDbLine
 10
779.2180323202861
 20
1857.198819180143
 30
0.0
 11
789.5101574431913
 21
1857.198819180143
 31
0.0
  0
LINE
  5
234
330
193
100
AcDbEntity
  8
P-SANR-FIXT
100
AcDbLine
 10
789.5101574431913
 20
1858.745878729983
 30
0.0
 11
789.5101574431913
 21
1857.198819180143
 31
0.0
  0
LINE
  5
235
330
193
100
AcDbEntity
  8
P-SANR-FIXT
100
AcDbLine
 10
789.5101574431913
 20
1858.745878729983
 30
0.0
 11
779.2180323202861
 21
1858.745878729983
 31
0.0
  0
LINE
  5
236
330
193
100
AcDbEntity
  8
P-SANR-FIXT
100
AcDbLine
 10
789.5101574431903
 20
1845.292938280056
 30
0.0
 11
789.5101574431903
 21
1843.745878730055
 31
0.0
  0
LINE
  5
237
330
193
100
AcDbEntity
  8
P-SANR-FIXT
100
AcDbLine
 10
789.510157443191
 20
1845.292938280056
 30
0.0
 11
779.2180323202861
 21
1845.292938280056
 31
0.0
  0
LINE
  5
238
330
193
100
AcDbEntity
  8
P-SANR-FIXT
100
AcDbLine
 10
779.2180323202858
 20
1828.745878729983
 30
0.0
 11
789.510157443191
 21
1828.745878729983
 31
0.0
  0
LINE
  5
239
330
193
100
AcDbEntity
  8
P-SANR-FIXT
100
AcDbLine
 10
789.510157443191
 20
1830.292938280261
 30
0.0
 11
789.510157443191
 21
1828.745878729983
 31
0.0
  0
LINE
  5
23A
330
193
100
AcDbEntity
  8
P-SANR-FIXT
100
AcDbLine
 10
789.510157443191
 20
1830.29293828026
 30
0.0
 11
779.2180323202858
 21
1830.29293828026
 31
0.0
  0
LINE
  5
23B
330
193
100
AcDbEntity
  8
P-SANR-FIXT
100
AcDbLine
 10
779.2180323202861
 20
1842.198819179994
 30
0.0
 11
789.510157443191
 21
1842.198819179994
 31
0.0
  0
LINE
  5
23C
330
193
100
AcDbEntity
  8
P-SANR-FIXT
100
AcDbLine
 10
789.510157443191
 20
1843.745878730055
 30
0.0
 11
789.510157443191
 21
1842.198819179994
 31
0.0
  0
LINE
  5
23D
330
193
100
AcDbEntity
  8
P-SANR-FIXT
100
AcDbLine
 10
834.5101574431886
 20
1827.97539536364
 30
0.0
 11
819.5523051974983
 21
1827.97539536364
 31
0.0
  0
LINE
  5
23E
330
193
100
AcDbEntity
  8
P-SANR-FIXT
100
AcDbLine
 10
832.7850746608245
 20
1868.745878730055
 30
0.0
 11
833.510157443189
 21
1868.745878730055
 31
0.0
  0
LINE
  5
23F
330
193
100
AcDbEntity
  8
P-SANR-FIXT
100
AcDbLine
 10
815.510157443189
 20
1868.745878730055
 30
0.0
 11
816.2352402255537
 21
1868.745878730055
 31
0.0
  0
LINE
  5
240
330
193
100
AcDbEntity
  8
P-SANR-FIXT
100
AcDbLine
 10
823.7850746608243
 20
1868.745878730055
 30
0.0
 11
816.2352402255537
 21
1868.745878730055
 31
0.0
  0
LINE
  5
241
330
193
100
AcDbEntity
  8
P-SANR-FIXT
100
AcDbLine
 10
823.7850746608243
 20
1868.745878730055
 30
0.0
 11
825.2352402255535
 21
1868.745878730055
 31
0.0
  0
LINE
  5
242
330
193
100
AcDbEntity
  8
P-SANR-FIXT
100
AcDbLine
 10
832.7850746608245
 20
1868.745878730055
 30
0.0
 11
825.2352402255535
 21
1868.745878730055
 31
0.0
  0
SPLINE
  5
243
330
193
100
AcDbEntity
  8
P-SANR-FIXT
100
AcDbSpline
210
0.0
220
0.0
230
1.0
 70
     8
 71
     3
 72
    15
 73
    11
 74
     0
 42
0.000000001
 43
0.0000000001
 40
-0.7707396077670298
 40
-0.7707396077670298
 40
-0.7707396077670298
 40
-0.7707396077670298
 40
-0.7
 40
-0.625
 40
-0.60625
 40
-0.5875
 40
-0.55
 40
-0.4
 40
-0.2
 40
0.0
 40
0.0
 40
0.0
 40
0.0
 10
831.3519687769389
 20
1840.025380157132
 30
0.0
 10
831.448212823204
 20
1839.658564673463
 30
0.0
 10
831.6760664305087
 20
1838.911499670842
 30
0.0
 10
831.9653561613089
 20
1838.096188294068
 30
0.0
 10
832.1639787691267
 20
1837.553833179896
 30
0.0
 10
832.2959341718615
 20
1837.196527954385
 30
0.0
 10
832.6689948493738
 20
1836.226680463835
 30
0.0
 10
833.3859847905022
 20
1834.504487679572
 30
0.0
 10
834.2295253197931
 20
1832.302095093527
 30
0.0
 10
834.5101574431886
 20
1831.031170672673
 30
0.0
 10
834.5101574431886
 20
1830.467607005165
 30
0.0
  0
SPLINE
  5
244
330
193
100
AcDbEntity
  8
P-SANR-FIXT
100
AcDbSpline
210
0.0
220
0.0
230
1.0
 70
     8
 71
     3
 72
    15
 73
    11
 74
     0
 42
0.000000001
 43
0.0000000001
 40
-1.0
 40
-1.0
 40
-1.0
 40
-1.0
 40
-0.8
 40
-0.6000000000000001
 40
-0.5
 40
-0.4
 40
-0.35
 40
-0.3
 40
-0.25
 40
-0.2292603922329363
 40
-0.2292603922329363
 40
-0.2292603922329363
 40
-0.2292603922329363
 10
834.510157443189
 20
1857.024150454944
 30
0.0
 10
834.510157443189
 20
1856.460586787436
 30
0.0
 10
834.2296138449558
 20
1855.18999145969
 30
0.0
 10
833.4624268489678
 20
1853.186582282313
 30
0.0
 10
832.7410627998673
 20
1851.436446994362
 30
0.0
 10
832.2836141275592
 20
1850.272433107351
 30
0.0
 10
831.9320630017617
 20
1849.303537068709
 30
0.0
 10
831.6725981546001
 20
1848.555455215911
 30
0.0
 10
831.4807114057135
 20
1847.939521230215
 30
0.0
 10
831.3805739478613
 20
1847.574026291603
 30
0.0
 10
831.3523395265759
 20
1847.466478511143
 30
0.0
  0
LINE
  5
245
330
193
100
AcDbEntity
  8
P-SANR-FIXT
100
AcDbLine
 10
833.510157443189
 20
1864.745878730056
 30
0.0
 11
834.510157443189
 21
1864.745878730056
 31
0.0
  0
LINE
  5
246
330
193
100
AcDbEntity
  8
P-SANR-FIXT
100
AcDbLine
 10
833.510157443189
 20
1868.745878730055
 30
0.0
 11
833.510157443189
 21
1864.745878730056
 31
0.0
  0
LINE
  5
247
330
193
100
AcDbEntity
  8
P-SANR-FIXT
100
AcDbLine
 10
832.7850746608245
 20
1864.745878730056
 30
0.0
 11
832.7850746608245
 21
1868.745878730055
 31
0.0
  0
LINE
  5
248
330
193
100
AcDbEntity
  8
P-SANR-FIXT
100
AcDbLine
 10
825.2352402255535
 20
1864.745878730056
 30
0.0
 11
832.7850746608245
 21
1864.745878730056
 31
0.0
  0
LINE
  5
249
330
193
100
AcDbEntity
  8
P-SANR-FIXT
100
AcDbLine
 10
825.2352402255535
 20
1868.745878730055
 30
0.0
 11
825.2352402255535
 21
1864.745878730056
 31
0.0
  0
LINE
  5
24A
330
193
100
AcDbEntity
  8
P-SANR-FIXT
100
AcDbLine
 10
823.7850746608243
 20
1864.745878730056
 30
0.0
 11
823.7850746608243
 21
1868.745878730055
 31
0.0
  0
LINE
  5
24B
330
193
100
AcDbEntity
  8
P-SANR-FIXT
100
AcDbLine
 10
816.2352402255535
 20
1864.745878730056
 30
0.0
 11
823.7850746608243
 21
1864.745878730056
 31
0.0
  0
LINE
  5
24C
330
193
100
AcDbEntity
  8
P-SANR-FIXT
100
AcDbLine
 10
816.2352402255537
 20
1868.745878730055
 30
0.0
 11
816.2352402255537
 21
1864.745878730056
 31
0.0
  0
LINE
  5
24D
330
193
100
AcDbEntity
  8
P-SANR-FIXT
100
AcDbLine
 10
815.510157443189
 20
1864.745878730056
 30
0.0
 11
815.510157443189
 21
1868.745878730055
 31
0.0
  0
LINE
  5
24E
330
193
100
AcDbEntity
  8
P-SANR-FIXT
100
AcDbLine
 10
814.5101574431889
 20
1864.745878730056
 30
0.0
 11
815.510157443189
 21
1864.745878730056
 31
0.0
  0
LINE
  5
24F
330
193
100
AcDbEntity
  8
P-SANR-FIXT
100
AcDbLine
 10
814.0101574431888
 20
1817.745878730055
 30
0.0
 11
797.0101574431886
 21
1817.745878730055
 31
0.0
  0
LINE
  5
250
330
193
100
AcDbEntity
  8
P-SANR-FIXT
100
AcDbLine
 10
819.0101574431899
 20
1827.710766017811
 30
0.0
 11
819.0101574431899
 21
1819.245878730055
 31
0.0
  0
LINE
  5
251
330
193
100
AcDbEntity
  8
P-SANR-FIXT
100
AcDbLine
 10
836.0101574431897
 20
1819.245878730055
 30
0.0
 11
836.0101574431897
 21
1828.498001129223
 31
0.0
  0
LINE
  5
252
330
193
100
AcDbEntity
  8
P-SANR-FIXT
100
AcDbLine
 10
836.0101574431887
 20
1819.245878730055
 30
0.0
 11
819.0101574431887
 21
1819.245878730055
 31
0.0
  0
ENDBLK
  5
254
330
193
100
AcDbEntity
  8
0
100
AcDbBlockEnd
  0
BLOCK
  5
303
330
256
100
AcDbEntity
  8
0
100
AcDbBlockBegin
  2
Automatic flow rate regulator valve_Caleffi_121 DN15 - 1_2__-V2-Est - Idraulica
 70
     0
 10
0.0
 20
0.0
 30
0.0
  3
Automatic flow rate regulator valve_Caleffi_121 DN15 - 1_2__-V2-Est - Idraulica
  1

  0
LINE
  5
257
330
256
100
AcDbEntity
  8
M-PIPE
100
AcDbLine
 10
991.6143539431059
 20
2028.812637871713
 30
0.0
 11
991.6143539431059
 21
2026.312637871713
 31
0.0
1001
REVIT
1002
{
1070
     3
1000
924079
1002
}
  0
LINE
  5
258
330
256
100
AcDbEntity
  8
M-PIPE
100
AcDbLine
 10
1022.614353943092
 20
2026.312637871712
 30
0.0
 11
1022.614353943092
 21
2028.812637871713
 31
0.0
1001
REVIT
1002
{
1070
     3
1000
924079
1002
}
  0
LWPOLYLINE
  5
259
330
256
100
AcDbEntity
  8
M-PIPE
100
AcDbPolyline
 90
       12
 70
   128
 43
0.0
 10
993.117388535844
 20
2037.042597824507
 10
993.2750413519546
 20
2037.207287407487
 10
993.4391538893981
 20
2037.365540825217
 10
993.6094636031242
 20
2037.517104905989
 10
993.7856980339212
 20
2037.661737179606
 10
993.9675752442948
 20
2037.79920626528
 10
994.1548042695067
 20
2037.929292241803
 10
994.3470855830565
 20
2038.051786999361
 10
994.5441115758606
 20
2038.166494572474
 10
994.7455670483602
 20
2038.273231453492
 10
994.9511297147747
 20
2038.371826886177
 10
994.9643539430988
 20
2038.377827107165
1001
REVIT
1002
{
1070
     3
1000
924079
1002
}
  0
LWPOLYLINE
  5
25A
330
256
100
AcDbEntity
  8
M-PIPE
100
AcDbPolyline
 90
       12
 70
   128
 43
0.0
 10
1019.264353943099
 20
2038.377827107164
 10
1019.470167132327
 20
2038.279755703028
 10
1019.671893882803
 20
2038.173532413151
 10
1019.869211474757
 20
2038.059327172137
 10
1020.061804242135
 20
2037.937322684009
 10
1020.249364077593
 20
2037.807714129922
 10
1020.431590925405
 20
2037.670708855913
 10
1020.608193261487
 20
2037.526526041196
 10
1020.778888559776
 20
2037.375396347516
 10
1020.943403744206
 20
2037.217561550144
 10
1021.101475625578
 20
2037.053274151086
 10
1021.111319350387
 20
2037.04259782447
1001
REVIT
1002
{
1070
     3
1000
924079
1002
}
  0
LINE
  5
25B
330
256
100
AcDbEntity
  8
M-PIPE
100
AcDbLine
 10
990.8143539431009
 20
2026.312637871713
 30
0.0
 11
990.8143539431007
 21
2020.312637871728
 31
0.0
1001
REVIT
1002
{
1070
     3
1000
924079
1002
}
  0
LINE
  5
25C
330
256
100
AcDbEntity
  8
M-PIPE
100
AcDbLine
 10
1023.414353943097
 20
2020.312637871728
 30
0.0
 11
1023.414353943097
 21
2026.312637871712
 31
0.0
1001
REVIT
1002
{
1070
     3
1000
924079
1002
}
  0
LWPOLYLINE
  5
25D
330
256
100
AcDbEntity
  8
M-PIPE
100
AcDbPolyline
 90
        4
 70
   128
 43
0.0
 10
994.9643539430988
 20
2038.377827107163
 10
995.4216430238449
 20
2044.480309638311
 10
996.1226005354076
 20
2050.559624148462
 10
996.8257841978983
 20
2055.207356397435
1001
REVIT
1002
{
1070
     3
1000
924079
1002
}
  0
LWPOLYLINE
  5
25E
330
256
100
AcDbEntity
  8
M-PIPE
100
AcDbPolyline
 90
        4
 70
   128
 43
0.0
 10
1017.4029236883
 20
2055.207356397435
 10
1018.290303389904
 20
2049.152444043691
 10
1018.934841368811
 20
2043.06688925057
 10
1019.264353943099
 20
2038.377827107163
1001
REVIT
1002
{
1070
     3
1000
924079
1002
}
  0
LWPOLYLINE
  5
25F
330
256
100
AcDbEntity
  8
M-PIPE
100
AcDbPolyline
 90
       37
 70
   128
 43
0.0
 10
996.8257841978983
 20
2055.207356397436
 10
996.8405397770629
 20
2055.285978401962
 10
996.8584275949512
 20
2055.363947451484
 10
996.879419034871
 20
2055.441138812156
 10
996.9034805149956
 20
2055.517428994265
 10
996.9305735420901
 20
2055.592695949797
 10
996.9606547730908
 20
2055.666819267678
 10
996.9936760844449
 20
2055.739680366412
 10
997.0295846490985
 20
2055.811162683782
 10
997.0683230210081
 20
2055.881151863331
 10
997.1098292270427
 20
2055.949535937302
 10
997.1540368661264
 20
2056.016205505763
 10
997.2008752154673
 20
2056.081053911628
 10
997.2502693436984
 20
2056.143977411279
 10
997.302140230751
 20
2056.204875340543
 10
997.3564048942712
 20
2056.263650275722
 10
997.4129765223731
 20
2056.320208189457
 10
997.4717646125197
 20
2056.374458601152
 10
997.5326751163079
 20
2056.426314721721
 10
997.5956105899243
 20
2056.475693592433
 10
997.6604703500377
 20
2056.522516217629
 10
997.7271506348673
 20
2056.566707691096
 10
997.795544770182
 20
2056.608197315904
 10
997.865543339955
 20
2056.646918717505
 10
997.9370343614071
 20
2056.682809949915
 10
998.0099034641549
 20
2056.715813594818
 10
998.0840340731781
 20
2056.745876853425
 10
998.1593075953158
 20
2056.772951630934
 10
998.2356036089905
 20
2056.796994613476
 10
998.3128000568559
 20
2056.817967337408
 10
998.3907734410628
 20
2056.835836250847
 10
998.4693990208302
 20
2056.850572767342
 10
998.548551012003
 20
2056.862153311611
 10
998.6281027882801
 20
2056.870559357253
 10
998.7079270837897
 20
2056.875777456389
 10
998.787896196687
 20
2056.877799261172
 10
998.7984500202957
 20
2056.877827107165
1001
REVIT
1002
{
1070
     3
1000
924079
1002
}
  0
LWPOLYLINE
  5
260
330
256
100
AcDbEntity
  8
M-PIPE
100
AcDbPolyline
 90
       41
 70
   128
 43
0.0
 10
1007.114353943099
 20
2056.877827107165
 10
1006.781806482066
 20
2056.877827107165
 10
1006.449791026031
 20
2056.877827107165
 10
1006.118838728897
 20
2056.877827107165
 10
1005.789479043742
 20
2056.877827107165
 10
1005.462238875799
 20
2056.877827107165
 10
1005.137641739533
 20
2056.877827107165
 10
1004.816206921116
 20
2056.877827107165
 10
1004.498448647688
 20
2056.877827107165
 10
1004.184875264704
 20
2056.877827107165
 10
1003.875988422683
 20
2056.877827107165
 10
1003.57228227468
 20
2056.877827107165
 10
1003.274242685744
 20
2056.877827107165
 10
1002.982346455641
 20
2056.877827107165
 10
1002.697060556069
 20
2056.877827107165
 10
1002.418841383612
 20
2056.877827107165
 10
1002.148134029593
 20
2056.877827107165
 10
1001.885371568032
 20
2056.877827107165
 10
1001.630974362815
 20
2056.877827107165
 10
1001.385349395201
 20
2056.877827107165
 10
1001.148889612741
 20
2056.877827107165
 10
1000.921973300645
 20
2056.877827107165
 10
1000.704963476606
 20
2056.877827107165
 10
1000.498207310049
 20
2056.877827107165
 10
1000.302035566737
 20
2056.877827107165
 10
1000.11676207961
 20
2056.877827107165
 10
999.9426832467237
 20
2056.877827107165
 10
999.7800775570773
 20
2056.877827107165
 10
999.6292051450863
 20
2056.877827107165
 10
999.4903073744254
 20
2056.877827107165
 10
999.363606451898
 20
2056.877827107165
 10
999.249305071952
 20
2056.877827107165
 10
999.1475860924118
 20
2056.877827107165
 10
999.0586122419466
 20
2056.877827107165
 10
998.9825258597365
 20
2056.877827107165
 10
998.9194486677622
 20
2056.877827107165
 10
998.8694815760755
 20
2056.877827107165
 10
998.8327045213637
 20
2056.877827107165
 10
998.8091763390688
 20
2056.877827107165
 10
998.7989346692639
 20
2056.877827107165
 10
998.7984500202957
 20
2056.877827107165
1001
REVIT
1002
{
1070
     3
1000
924079
1002
}
  0
LWPOLYLINE
  5
261
330
256
100
AcDbEntity
  8
M-PIPE
100
AcDbPolyline
 90
       41
 70
   128
 43
0.0
 10
998.7984500202957
 20
2056.877827107165
 10
998.8051018564513
 20
2056.877827107165
 10
998.8250467233998
 20
2056.877827107165
 10
998.8582527136086
 20
2056.877827107165
 10
998.9046667045769
 20
2056.877827107165
 10
998.9642144438205
 20
2056.877827107165
 10
999.0368006676591
 20
2056.877827107165
 10
999.122309253619
 20
2056.877827107165
 10
999.2206034062032
 20
2056.877827107165
 10
999.3315258757364
 20
2056.877827107165
 10
999.4548992099291
 20
2056.877827107165
 10
999.5905260377652
 20
2056.877827107165
 10
999.7381893852521
 20
2056.877827107165
 10
999.8976530225336
 20
2056.877827107165
 10
1000.068661841807
 20
2056.877827107165
 10
1000.250942265442
 20
2056.877827107165
 10
1000.444202683645
 20
2056.877827107165
 10
1000.648133920973
 20
2056.877827107165
 10
1000.86240973095
 20
2056.877827107165
 10
1001.086687317989
 20
2056.877827107165
 10
1001.320607885795
 20
2056.877827107165
 10
1001.56379721136
 20
2056.877827107165
 10
1001.815866243639
 20
2056.877827107165
 10
1002.076411725954
 20
2056.877827107165
 10
1002.345016841113
 20
2056.877827107165
 10
1002.62125187823
 20
2056.877827107165
 10
1002.904674920174
 20
2056.877827107165
 10
1003.194832550538
 20
2056.877827107165
 10
1003.49126057901
 20
2056.877827107165
 10
1003.793484783979
 20
2056.877827107165
 10
1004.101021671188
 20
2056.877827107165
 10
1004.413379247222
 20
2056.877827107165
 10
1004.730057806593
 20
2056.877827107165
 10
1005.05055073116
 20
2056.877827107165
 10
1005.37434530061
 20
2056.877827107165
 10
1005.700923512707
 20
2056.877827107165
 10
1006.029762911977
 20
2056.877827107165
 10
1006.360337425529
 20
2056.877827107165
 10
1006.692118204662
 20
2056.877827107165
 10
1007.024574470903
 20
2056.877827107165
 10
1007.114353943099
 20
2056.877827107165
1001
REVIT
1002
{
1070
     3
1000
924079
1002
}
  0
LWPOLYLINE
  5
262
330
256
100
AcDbEntity
  8
M-PIPE
100
AcDbPolyline
 90
       37
 70
   128
 43
0.0
 10
1015.430257865903
 20
2056.877827107165
 10
1015.510236534276
 20
2056.876227320486
 10
1015.590087253841
 20
2056.87143051977
 10
1015.669682280481
 20
2056.863444378872
 10
1015.748894279131
 20
2056.852281673915
 10
1015.827596527493
 20
2056.837960262847
 10
1015.905663118757
 20
2056.820503056869
 10
1015.982969163031
 20
2056.799937983786
 10
1016.059390987135
 20
2056.776297943329
 10
1016.134806332453
 20
2056.74962075452
 10
1016.20909455052
 20
2056.71994909517
 10
1016.282136796035
 20
2056.687330433604
 10
1016.353816216986
 20
2056.651816952722
 10
1016.42401814159
 20
2056.61346546652
 10
1016.492630261744
 20
2056.572337329191
 10
1016.559542812693
 20
2056.528498336984
 10
1016.624648748627
 20
2056.482018622933
 10
1016.68784391394
 20
2056.432972544666
 10
1016.749027209846
 20
2056.381438565446
 10
1016.808100756124
 20
2056.327499128646
 10
1016.864970047702
 20
2056.271240525859
 10
1016.919544105844
 20
2056.212752758847
 10
1016.971735623701
 20
2056.152129395562
 10
1017.021461105976
 20
2056.089467420451
 10
1017.068641002505
 20
2056.024867079309
 10
1017.113199835518
 20
2055.958431718901
 10
1017.155066320389
 20
2055.89026762163
 10
1017.194173479673
 20
2055.820483835511
 10
1017.230458750256
 20
2055.749191999718
 10
1017.263864083446
 20
2055.676506165977
 10
1017.294336037837
 20
2055.602542616117
 10
1017.321825864802
 20
2055.527419676042
 10
1017.346289586481
 20
2055.451257526428
 10
1017.367688066139
 20
2055.374178010469
 10
1017.385987070773
 20
2055.296304438947
 10
1017.401157325879
 20
2055.217761392964
 10
1017.402923688299
 20
2055.207356397435
1001
REVIT
1002
{
1070
     3
1000
924079
1002
}
  0
LWPOLYLINE
  5
263
330
256
100
AcDbEntity
  8
M-PIPE
100
AcDbPolyline
 90
       41
 70
   128
 43
0.0
 10
1007.114353943099
 20
2056.877827107165
 10
1007.446901404132
 20
2056.877827107165
 10
1007.778916860167
 20
2056.877827107165
 10
1008.1098691573
 20
2056.877827107165
 10
1008.439228842457
 20
2056.877827107165
 10
1008.766469010399
 20
2056.877827107165
 10
1009.091066146665
 20
2056.877827107165
 10
1009.412500965082
 20
2056.877827107165
 10
1009.73025923851
 20
2056.877827107165
 10
1010.043832621494
 20
2056.877827107165
 10
1010.352719463515
 20
2056.877827107165
 10
1010.656425611518
 20
2056.877827107165
 10
1010.954465200454
 20
2056.877827107165
 10
1011.246361430557
 20
2056.877827107165
 10
1011.531647330129
 20
2056.877827107165
 10
1011.809866502586
 20
2056.877827107165
 10
1012.080573856605
 20
2056.877827107165
 10
1012.343336318166
 20
2056.877827107165
 10
1012.597733523383
 20
2056.877827107165
 10
1012.843358490997
 20
2056.877827107165
 10
1013.079818273458
 20
2056.877827107165
 10
1013.306734585554
 20
2056.877827107165
 10
1013.523744409592
 20
2056.877827107165
 10
1013.730500576149
 20
2056.877827107165
 10
1013.926672319461
 20
2056.877827107165
 10
1014.111945806589
 20
2056.877827107165
 10
1014.286024639474
 20
2056.877827107165
 10
1014.448630329121
 20
2056.877827107165
 10
1014.599502741112
 20
2056.877827107165
 10
1014.738400511773
 20
2056.877827107165
 10
1014.8651014343
 20
2056.877827107165
 10
1014.979402814246
 20
2056.877827107165
 10
1015.081121793786
 20
2056.877827107165
 10
1015.170095644252
 20
2056.877827107165
 10
1015.246182026462
 20
2056.877827107165
 10
1015.309259218436
 20
2056.877827107165
 10
1015.359226310123
 20
2056.877827107165
 10
1015.396003364835
 20
2056.877827107165
 10
1015.419531547129
 20
2056.877827107165
 10
1015.429773216935
 20
2056.877827107165
 10
1015.430257865903
 20
2056.877827107165
1001
REVIT
1002
{
1070
     3
1000
924079
1002
}
  0
LWPOLYLINE
  5
264
330
256
100
AcDbEntity
  8
M-PIPE
100
AcDbPolyline
 90
       41
 70
   128
 43
0.0
 10
1015.430257865903
 20
2056.877827107165
 10
1015.423606029747
 20
2056.877827107165
 10
1015.403661162798
 20
2056.877827107165
 10
1015.37045517259
 20
2056.877827107165
 10
1015.324041181621
 20
2056.877827107165
 10
1015.264493442378
 20
2056.877827107165
 10
1015.191907218539
 20
2056.877827107165
 10
1015.106398632579
 20
2056.877827107165
 10
1015.008104479995
 20
2056.877827107165
 10
1014.897182010462
 20
2056.877827107165
 10
1014.773808676269
 20
2056.877827107165
 10
1014.638181848433
 20
2056.877827107165
 10
1014.490518500946
 20
2056.877827107165
 10
1014.331054863665
 20
2056.877827107165
 10
1014.160046044391
 20
2056.877827107165
 10
1013.977765620756
 20
2056.877827107165
 10
1013.784505202553
 20
2056.877827107165
 10
1013.580573965225
 20
2056.877827107165
 10
1013.366298155248
 20
2056.877827107165
 10
1013.142020568209
 20
2056.877827107165
 10
1012.908100000403
 20
2056.877827107165
 10
1012.664910674838
 20
2056.877827107165
 10
1012.412841642559
 20
2056.877827107165
 10
1012.152296160244
 20
2056.877827107165
 10
1011.883691045085
 20
2056.877827107165
 10
1011.607456007967
 20
2056.877827107165
 10
1011.324032966024
 20
2056.877827107165
 10
1011.03387533566
 20
2056.877827107165
 10
1010.737447307188
 20
2056.877827107165
 10
1010.435223102219
 20
2056.877827107165
 10
1010.12768621501
 20
2056.877827107165
 10
1009.815328638975
 20
2056.877827107165
 10
1009.498650079605
 20
2056.877827107165
 10
1009.178157155038
 20
2056.877827107165
 10
1008.854362585588
 20
2056.877827107165
 10
1008.527784373491
 20
2056.877827107165
 10
1008.198944974221
 20
2056.877827107165
 10
1007.868370460669
 20
2056.877827107165
 10
1007.536589681537
 20
2056.877827107165
 10
1007.204133415295
 20
2056.877827107165
 10
1007.114353943099
 20
2056.877827107165
1001
REVIT
1002
{
1070
     3
1000
924079
1002
}
  0
LINE
  5
265
330
256
100
AcDbEntity
  8
M-PIPE
100
AcDbLine
 10
1005.875213254028
 20
2028.812637871712
 30
0.0
 11
994.3534946321848
 21
2028.812637871712
 31
0.0
1001
REVIT
1002
{
1070
     3
1000
924079
1002
}
  0
LINE
  5
266
330
256
100
AcDbEntity
  8
M-PIPE
100
AcDbLine
 10
994.3534946321856
 20
2028.812637871712
 30
0.0
 11
994.3534946321856
 21
2033.312637871714
 31
0.0
1001
REVIT
1002
{
1070
     3
1000
924079
1002
}
  0
LINE
  5
267
330
256
100
AcDbEntity
  8
M-PIPE
100
AcDbLine
 10
994.3534946321857
 20
2033.312637871738
 30
0.0
 11
993.1143539431134
 21
2033.312637871738
 31
0.0
1001
REVIT
1002
{
1070
     3
1000
924079
1002
}
  0
LINE
  5
268
330
256
100
AcDbEntity
  8
M-PIPE
100
AcDbLine
 10
993.1143539431134
 20
2033.312637871714
 30
0.0
 11
993.1143539431131
 21
2028.812637871712
 31
0.0
1001
REVIT
1002
{
1070
     3
1000
924079
1002
}
  0
LINE
  5
269
330
256
100
AcDbEntity
  8
M-PIPE
100
AcDbLine
 10
993.1143539431138
 20
2028.812637871712
 30
0.0
 11
991.614353943104
 21
2028.812637871712
 31
0.0
1001
REVIT
1002
{
1070
     3
1000
924079
1002
}
  0
LINE
  5
26A
330
256
100
AcDbEntity
  8
M-PIPE
100
AcDbLine
 10
1007.114353943097
 20
2033.312637871738
 30
0.0
 11
1005.875213254026
 21
2033.312637871738
 31
0.0
1001
REVIT
1002
{
1070
     3
1000
924079
1002
}
  0
LINE
  5
26B
330
256
100
AcDbEntity
  8
M-PIPE
100
AcDbLine
 10
1005.875213254026
 20
2033.312637871714
 30
0.0
 11
1005.875213254026
 21
2028.812637871712
 31
0.0
1001
REVIT
1002
{
1070
     3
1000
924079
1002
}
  0
LINE
  5
26C
330
256
100
AcDbEntity
  8
M-PIPE
100
AcDbLine
 10
1022.61435394309
 20
2028.812637871712
 30
0.0
 11
1021.114353943114
 21
2028.812637871712
 31
0.0
1001
REVIT
1002
{
1070
     3
1000
924079
1002
}
  0
LINE
  5
26D
330
256
100
AcDbEntity
  8
M-PIPE
100
AcDbLine
 10
1021.114353943113
 20
2028.812637871712
 30
0.0
 11
1021.114353943113
 21
2033.312637871714
 31
0.0
1001
REVIT
1002
{
1070
     3
1000
924079
1002
}
  0
LINE
  5
26E
330
256
100
AcDbEntity
  8
M-PIPE
100
AcDbLine
 10
1021.114353943113
 20
2033.312637871737
 30
0.0
 11
1019.875213253987
 21
2033.312637871737
 31
0.0
1001
REVIT
1002
{
1070
     3
1000
924079
1002
}
  0
LINE
  5
26F
330
256
100
AcDbEntity
  8
M-PIPE
100
AcDbLine
 10
1019.875213253987
 20
2033.312637871714
 30
0.0
 11
1019.875213253987
 21
2028.812637871712
 31
0.0
1001
REVIT
1002
{
1070
     3
1000
924079
1002
}
  0
LINE
  5
270
330
256
100
AcDbEntity
  8
M-PIPE
100
AcDbLine
 10
1019.875213253987
 20
2028.812637871712
 30
0.0
 11
1008.353494632204
 21
2028.812637871712
 31
0.0
1001
REVIT
1002
{
1070
     3
1000
924079
1002
}
  0
LINE
  5
271
330
256
100
AcDbEntity
  8
M-PIPE
100
AcDbLine
 10
1008.353494632205
 20
2028.812637871712
 30
0.0
 11
1008.353494632205
 21
2033.312637871714
 31
0.0
1001
REVIT
1002
{
1070
     3
1000
924079
1002
}
  0
LINE
  5
272
330
256
100
AcDbEntity
  8
M-PIPE
100
AcDbLine
 10
1008.353494632205
 20
2033.312637871738
 30
0.0
 11
1007.114353943097
 21
2033.312637871738
 31
0.0
1001
REVIT
1002
{
1070
     3
1000
924079
1002
}
  0
SPLINE
  5
273
330
256
100
AcDbEntity
  8
M-PIPE
100
AcDbSpline
210
0.0
220
0.0
230
1.0
 70
    24
 71
     3
 72
    25
 73
    21
 74
     0
 42
0.000000001
 43
0.0000000001
 40
0.5238095238095238
 40
0.5238095238095238
 40
0.5238095238095238
 40
0.5238095238095238
 40
0.5357142857142857
 40
0.5714285714285714
 40
0.6071428571428572
 40
0.6428571428571428
 40
0.6785714285714287
 40
0.6964285714285714
 40
0.7142857142857144
 40
0.7321428571428572
 40
0.75
 40
0.7857142857142857
 40
0.8214285714285713
 40
0.8392857142857142
 40
0.8571428571428571
 40
0.875
 40
0.8928571428571427
 40
0.9285714285714286
 40
0.9642857142857142
 40
1.0
 40
1.0
 40
1.0
 40
1.0
 10
1021.114353943114
 20
2037.039908167713
 30
0.0
 10
1021.114353943114
 20
2037.037842260705
 30
0.0
 10
1021.114353943114
 20
2037.027278648035
 30
0.0
 10
1021.114353943114
 20
2036.99218334229
 30
0.0
 10
1021.114353943114
 20
2036.922118943806
 30
0.0
 10
1021.114353943114
 20
2036.826234235245
 30
0.0
 10
1021.114353943114
 20
2036.716027453173
 30
0.0
 10
1021.114353943114
 20
2036.606216483798
 30
0.0
 10
1021.114353943114
 20
2036.510896376281
 30
0.0
 10
1021.114353943114
 20
2036.405863314093
 30
0.0
 10
1021.114353943114
 20
2036.256561802378
 30
0.0
 10
1021.114353943114
 20
2036.046230464737
 30
0.0
 10
1021.114353943114
 20
2035.794863108192
 30
0.0
 10
1021.114353943114
 20
2035.563270702972
 30
0.0
 10
1021.114353943114
 20
2035.372226142862
 30
0.0
 10
1021.114353943114
 20
2035.16485036404
 30
0.0
 10
1021.114353943114
 20
2034.869942438266
 30
0.0
 10
1021.114353943114
 20
2034.46524353198
 30
0.0
 10
1021.114353943114
 20
2033.922389929879
 30
0.0
 10
1021.114353943114
 20
2033.522255618658
 30
0.0
 10
1021.114353943114
 20
2033.312637871714
 30
0.0
1001
REVIT
1002
{
1070
     3
1000
924079
1002
}
  0
SPLINE
  5
274
330
256
100
AcDbEntity
  8
M-PIPE
100
AcDbSpline
210
0.0
220
0.0
230
1.0
 70
     8
 71
     3
 72
    43
 73
    39
 74
     0
 42
0.000000001
 43
0.0000000001
 40
0.0
 40
0.0
 40
0.0
 40
0.0
 40
0.0357142857142857
 40
0.0714285714285714
 40
0.1071428571428571
 40
0.125
 40
0.1428571428571428
 40
0.1607142857142857
 40
0.1785714285714286
 40
0.2142857142857143
 40
0.25
 40
0.2678571428571428
 40
0.2857142857142857
 40
0.3035714285714286
 40
0.3214285714285714
 40
0.3571428571428571
 40
0.3928571428571428
 40
0.4285714285714286
 40
0.4642857142857144
 40
0.5
 40
0.5357142857142857
 40
0.5714285714285714
 40
0.6071428571428572
 40
0.6428571428571428
 40
0.6785714285714287
 40
0.6964285714285714
 40
0.7142857142857144
 40
0.7321428571428572
 40
0.75
 40
0.7857142857142857
 40
0.8214285714285713
 40
0.8392857142857142
 40
0.8571428571428571
 40
0.875
 40
0.8928571428571427
 40
0.9285714285714286
 40
0.9642857142857142
 40
1.0
 40
1.0
 40
1.0
 40
1.0
 10
1019.875213253987
 20
2033.312637871714
 30
0.0
 10
1019.832408840225
 20
2033.521731289464
 30
0.0
 10
1019.729193221982
 20
2033.920905925292
 30
0.0
 10
1019.52144256961
 20
2034.46258781727
 30
0.0
 10
1019.304478137261
 20
2034.86653133263
 30
0.0
 10
1019.104015567461
 20
2035.160972263081
 30
0.0
 10
1018.941719068106
 20
2035.368054498343
 30
0.0
 10
1018.761382384075
 20
2035.558910894926
 30
0.0
 10
1018.493600083609
 20
2035.790419352758
 30
0.0
 10
1018.120311809214
 20
2036.041891905498
 30
0.0
 10
1017.71913164155
 20
2036.252426068975
 30
0.0
 10
1017.395297240697
 20
2036.4018260969
 30
0.0
 10
1017.156588816186
 20
2036.506885614565
 30
0.0
 10
1016.917441400371
 20
2036.602102203376
 30
0.0
 10
1016.588692541273
 20
2036.711612406612
 30
0.0
 10
1016.16760108261
 20
2036.821316743651
 30
0.0
 10
1015.654022452767
 20
2036.916899263009
 30
0.0
 10
1015.145028702288
 20
2036.987353317407
 30
0.0
 10
1014.642487048339
 20
2037.03440157236
 30
0.0
 10
1014.137915339475
 20
2037.050396803051
 30
0.0
 10
1013.632200588469
 20
2037.037305878268
 30
0.0
 10
1013.12701660648
 20
2036.992183342311
 30
0.0
 10
1012.611520846897
 20
2036.922118943826
 30
0.0
 10
1012.088010794124
 20
2036.826234235265
 30
0.0
 10
1011.658602664192
 20
2036.716027453192
 30
0.0
 10
1011.324423895736
 20
2036.606216483818
 30
0.0
 10
1011.082257044801
 20
2036.510896376299
 30
0.0
 10
1010.841579647811
 20
2036.405863314111
 30
0.0
 10
1010.515880011434
 20
2036.256561802395
 30
0.0
 10
1010.113655582841
 20
2036.046230464752
 30
0.0
 10
1009.740041182495
 20
2035.794863108206
 30
0.0
 10
1009.471901953598
 20
2035.563270702985
 30
0.0
 10
1009.291050352686
 20
2035.372226142873
 30
0.0
 10
1009.128087596192
 20
2035.16485036405
 30
0.0
 10
1008.926848454529
 20
2034.869942438275
 30
0.0
 10
1008.708978476241
 20
2034.465243531987
 30
0.0
 10
1008.500290822365
 20
2033.922389929882
 30
0.0
 10
1008.396542054008
 20
2033.52225561866
 30
0.0
 10
1008.353494632205
 20
2033.312637871714
 30
0.0
1001
REVIT
1002
{
1070
     3
1000
924079
1002
}
  0
SPLINE
  5
275
330
256
100
AcDbEntity
  8
M-PIPE
100
AcDbSpline
210
0.0
220
0.0
230
1.0
 70
     8
 71
     3
 72
    43
 73
    39
 74
     0
 42
0.000000001
 43
0.0000000001
 40
0.0
 40
0.0
 40
0.0
 40
0.0
 40
0.0357142857142857
 40
0.0714285714285714
 40
0.1071428571428571
 40
0.125
 40
0.1428571428571428
 40
0.1607142857142857
 40
0.1785714285714286
 40
0.2142857142857143
 40
0.25
 40
0.2678571428571428
 40
0.2857142857142857
 40
0.3035714285714286
 40
0.3214285714285714
 40
0.3571428571428571
 40
0.3928571428571428
 40
0.4285714285714286
 40
0.4642857142857144
 40
0.5
 40
0.5357142857142857
 40
0.5714285714285714
 40
0.6071428571428572
 40
0.6428571428571428
 40
0.6785714285714287
 40
0.6964285714285714
 40
0.7142857142857144
 40
0.7321428571428572
 40
0.75
 40
0.7857142857142857
 40
0.8214285714285713
 40
0.8392857142857142
 40
0.8571428571428571
 40
0.875
 40
0.8928571428571427
 40
0.9285714285714286
 40
0.9642857142857142
 40
1.0
 40
1.0
 40
1.0
 40
1.0
 10
1005.875213254027
 20
2033.312637871714
 30
0.0
 10
1005.832408840264
 20
2033.521731289466
 30
0.0
 10
1005.729193222022
 20
2033.920905925295
 30
0.0
 10
1005.521442569649
 20
2034.462587817277
 30
0.0
 10
1005.304478137298
 20
2034.866531332639
 30
0.0
 10
1005.104015567498
 20
2035.160972263092
 30
0.0
 10
1004.941719068142
 20
2035.368054498355
 30
0.0
 10
1004.76138238411
 20
2035.558910894938
 30
0.0
 10
1004.493600083643
 20
2035.790419352771
 30
0.0
 10
1004.120311809246
 20
2036.041891905512
 30
0.0
 10
1003.719131641579
 20
2036.25242606899
 30
0.0
 10
1003.395297240725
 20
2036.401826096916
 30
0.0
 10
1003.156588816213
 20
2036.506885614582
 30
0.0
 10
1002.917441400397
 20
2036.602102203392
 30
0.0
 10
1002.588692541297
 20
2036.71161240663
 30
0.0
 10
1002.167601082631
 20
2036.821316743669
 30
0.0
 10
1001.654022452785
 20
2036.916899263027
 30
0.0
 10
1001.145028702303
 20
2036.987353317425
 30
0.0
 10
1000.642487048352
 20
2037.034401572379
 30
0.0
 10
1000.137915339486
 20
2037.05039680307
 30
0.0
 10
999.6322005884767
 20
2037.037305878286
 30
0.0
 10
999.1270166064861
 20
2036.992183342329
 30
0.0
 10
998.6115208469003
 20
2036.922118943844
 30
0.0
 10
998.0880107941235
 20
2036.826234235283
 30
0.0
 10
997.6586026641898
 20
2036.716027453209
 30
0.0
 10
997.3244238957315
 20
2036.606216483834
 30
0.0
 10
997.0822570447957
 20
2036.510896376316
 30
0.0
 10
996.8415796478039
 20
2036.405863314127
 30
0.0
 10
996.5158800114251
 20
2036.25656180241
 30
0.0
 10
996.1136555828298
 20
2036.046230464766
 30
0.0
 10
995.7400411824815
 20
2035.794863108219
 30
0.0
 10
995.4719019535836
 20
2035.563270702997
 30
0.0
 10
995.2910503526704
 20
2035.372226142884
 30
0.0
 10
995.1280875961757
 20
2035.16485036406
 30
0.0
 10
994.9268484545116
 20
2034.869942438283
 30
0.0
 10
994.7089784762233
 20
2034.465243531993
 30
0.0
 10
994.5002908223464
 20
2033.922389929885
 30
0.0
 10
994.3965420539894
 20
2033.52225561866
 30
0.0
 10
994.3534946321859
 20
2033.312637871714
 30
0.0
1001
REVIT
1002
{
1070
     3
1000
924079
1002
}
  0
SPLINE
  5
276
330
256
100
AcDbEntity
  8
M-PIPE
100
AcDbSpline
210
0.0
220
0.0
230
1.0
 70
    24
 71
     3
 72
    26
 73
    22
 74
     0
 42
0.000000001
 43
0.0000000001
 40
0.0
 40
0.0
 40
0.0
 40
0.0
 40
0.0357142857142857
 40
0.0714285714285714
 40
0.1071428571428571
 40
0.125
 40
0.1428571428571428
 40
0.1607142857142857
 40
0.1785714285714286
 40
0.2142857142857143
 40
0.25
 40
0.2678571428571428
 40
0.2857142857142857
 40
0.3035714285714286
 40
0.3214285714285714
 40
0.3571428571428571
 40
0.3928571428571428
 40
0.4285714285714286
 40
0.4642857142857144
 40
0.5
 40
0.5238095238095238
 40
0.5238095238095238
 40
0.5238095238095238
 40
0.5238095238095238
 10
993.1143539431138
 20
2033.312637871714
 30
0.0
 10
993.1143539431138
 20
2033.521731289466
 30
0.0
 10
993.1143539431138
 20
2033.920905925295
 30
0.0
 10
993.1143539431138
 20
2034.462587817276
 30
0.0
 10
993.1143539431138
 20
2034.866531332637
 30
0.0
 10
993.1143539431138
 20
2035.160972263091
 30
0.0
 10
993.1143539431138
 20
2035.368054498353
 30
0.0
 10
993.1143539431138
 20
2035.558910894936
 30
0.0
 10
993.1143539431138
 20
2035.79041935277
 30
0.0
 10
993.1143539431138
 20
2036.041891905511
 30
0.0
 10
993.1143539431138
 20
2036.252426068989
 30
0.0
 10
993.1143539431138
 20
2036.401826096915
 30
0.0
 10
993.1143539431138
 20
2036.50688561458
 30
0.0
 10
993.1143539431138
 20
2036.60210220339
 30
0.0
 10
993.1143539431138
 20
2036.711612406628
 30
0.0
 10
993.1143539431138
 20
2036.821316743667
 30
0.0
 10
993.1143539431138
 20
2036.916899263025
 30
0.0
 10
993.1143539431138
 20
2036.987353317423
 30
0.0
 10
993.1143539431138
 20
2037.034401572377
 30
0.0
 10
993.1143539431138
 20
2037.048619555213
 30
0.0
 10
993.1143539431138
 20
2037.044039981767
 30
0.0
 10
993.1143539431138
 20
2037.03990816775
 30
0.0
1001
REVIT
1002
{
1070
     3
1000
924079
1002
}
  0
LINE
  5
277
330
256
100
AcDbEntity
  8
M-PIPE
100
AcDbLine
 10
1007.114353943097
 20
2038.377827107163
 30
0.0
 11
994.9849098201012
 21
2038.377827107163
 31
0.0
1001
REVIT
1002
{
1070
     3
1000
924079
1002
}
  0
LINE
  5
278
330
256
100
AcDbEntity
  8
M-PIPE
100
AcDbLine
 10
1019.243798066093
 20
2038.377827107163
 30
0.0
 11
1007.114353943097
 21
2038.377827107163
 31
0.0
1001
REVIT
1002
{
1070
     3
1000
924079
1002
}
  0
LINE
  5
279
330
256
100
AcDbEntity
  8
M-PIPE
100
AcDbLine
 10
1007.114353943097
 20
2020.312637871727
 30
0.0
 11
990.8143539430991
 21
2020.312637871727
 31
0.0
1001
REVIT
1002
{
1070
     3
1000
924079
1002
}
  0
LINE
  5
27A
330
256
100
AcDbEntity
  8
M-PIPE
100
AcDbLine
 10
1023.414353943095
 20
2020.312637871727
 30
0.0
 11
1007.114353943097
 21
2020.312637871727
 31
0.0
1001
REVIT
1002
{
1070
     3
1000
924079
1002
}
  0
LINE
  5
27B
330
256
100
AcDbEntity
  8
M-PIPE
100
AcDbLine
 10
1007.114353943097
 20
2026.312637871712
 30
0.0
 11
990.8143539430991
 21
2026.312637871712
 31
0.0
1001
REVIT
1002
{
1070
     3
1000
924079
1002
}
  0
LINE
  5
27C
330
256
100
AcDbEntity
  8
M-PIPE
100
AcDbLine
 10
1023.414353943095
 20
2026.312637871711
 30
0.0
 11
1007.114353943097
 21
2026.312637871712
 31
0.0
1001
REVIT
1002
{
1070
     3
1000
924079
1002
}
  0
LINE
  5
27D
330
256
100
AcDbEntity
  8
M-PIPE
100
AcDbLine
 10
1027.114353943084
 20
1965.182558849924
 30
0.0
 11
1021.902033443636
 21
1965.182558849924
 31
0.0
1001
REVIT
1002
{
1070
     3
1000
790271
1002
}
  0
LINE
  5
27E
330
256
100
AcDbEntity
  8
M-PIPE
100
AcDbLine
 10
1021.902033443636
 20
1965.182558849924
 30
0.0
 11
1012.326674442533
 21
1965.182558849924
 31
0.0
1001
REVIT
1002
{
1070
     3
1000
790271
1002
}
  0
LINE
  5
27F
330
256
100
AcDbEntity
  8
M-PIPE
100
AcDbLine
 10
1012.326674442533
 20
1965.182558849924
 30
0.0
 11
1001.902033443636
 21
1965.182558849924
 31
0.0
1001
REVIT
1002
{
1070
     3
1000
790271
1002
}
  0
LINE
  5
280
330
256
100
AcDbEntity
  8
M-PIPE
100
AcDbLine
 10
1001.902033443636
 20
1965.182558849924
 30
0.0
 11
992.3266744425331
 21
1965.182558849924
 31
0.0
1001
REVIT
1002
{
1070
     3
1000
790271
1002
}
  0
LINE
  5
281
330
256
100
AcDbEntity
  8
M-PIPE
100
AcDbLine
 10
992.3266744425331
 20
1965.182558849924
 30
0.0
 11
987.1143539430844
 21
1965.182558849924
 31
0.0
1001
REVIT
1002
{
1070
     3
1000
790271
1002
}
  0
LINE
  5
282
330
256
100
AcDbEntity
  8
M-PIPE
100
AcDbLine
 10
987.1143539430844
 20
1976.182558849924
 30
0.0
 11
992.3266744425331
 21
1976.182558849924
 31
0.0
1001
REVIT
1002
{
1070
     3
1000
790271
1002
}
  0
LINE
  5
283
330
256
100
AcDbEntity
  8
M-PIPE
100
AcDbLine
 10
992.3266744425331
 20
1976.182558849924
 30
0.0
 11
994.2517294957209
 21
1976.182558849924
 31
0.0
1001
REVIT
1002
{
1070
     3
1000
790271
1002
}
  0
LINE
  5
284
330
256
100
AcDbEntity
  8
M-PIPE
100
AcDbLine
 10
999.8918133572711
 20
1976.182558849924
 30
0.0
 11
1001.902033443636
 21
1976.182558849924
 31
0.0
1001
REVIT
1002
{
1070
     3
1000
790271
1002
}
  0
LINE
  5
285
330
256
100
AcDbEntity
  8
M-PIPE
100
AcDbLine
 10
1001.902033443636
 20
1976.182558849924
 30
0.0
 11
1012.326674442533
 21
1976.182558849924
 31
0.0
1001
REVIT
1002
{
1070
     3
1000
790271
1002
}
  0
LINE
  5
286
330
256
100
AcDbEntity
  8
M-PIPE
100
AcDbLine
 10
1012.326674442533
 20
1976.182558849924
 30
0.0
 11
1014.336894528857
 21
1976.182558849924
 31
0.0
1001
REVIT
1002
{
1070
     3
1000
790271
1002
}
  0
LINE
  5
287
330
256
100
AcDbEntity
  8
M-PIPE
100
AcDbLine
 10
1019.976978390472
 20
1976.182558849924
 30
0.0
 11
1021.902033443636
 21
1976.182558849924
 31
0.0
1001
REVIT
1002
{
1070
     3
1000
790271
1002
}
  0
LINE
  5
288
330
256
100
AcDbEntity
  8
M-PIPE
100
AcDbLine
 10
1021.902033443636
 20
1976.182558849924
 30
0.0
 11
1027.114353943084
 21
1976.182558849924
 31
0.0
1001
REVIT
1002
{
1070
     3
1000
790271
1002
}
  0
LINE
  5
289
330
256
100
AcDbEntity
  8
M-PIPE
100
AcDbLine
 10
1027.114353943084
 20
1976.182558849924
 30
0.0
 11
1027.114353943084
 21
1965.182558849924
 31
0.0
1001
REVIT
1002
{
1070
     3
1000
790271
1002
}
  0
LINE
  5
28A
330
256
100
AcDbEntity
  8
M-PIPE
100
AcDbLine
 10
1021.902033443636
 20
1976.182558849924
 30
0.0
 11
1021.902033443636
 21
1965.182558849924
 31
0.0
1001
REVIT
1002
{
1070
     3
1000
790271
1002
}
  0
LINE
  5
28B
330
256
100
AcDbEntity
  8
M-PIPE
100
AcDbLine
 10
1012.326674442533
 20
1976.182558849924
 30
0.0
 11
1012.326674442533
 21
1965.182558849924
 31
0.0
1001
REVIT
1002
{
1070
     3
1000
790271
1002
}
  0
LINE
  5
28C
330
256
100
AcDbEntity
  8
M-PIPE
100
AcDbLine
 10
1001.902033443636
 20
1976.182558849924
 30
0.0
 11
1001.902033443636
 21
1965.182558849924
 31
0.0
1001
REVIT
1002
{
1070
     3
1000
790271
1002
}
  0
LINE
  5
28D
330
256
100
AcDbEntity
  8
M-PIPE
100
AcDbLine
 10
992.3266744425331
 20
1976.182558849924
 30
0.0
 11
992.3266744425331
 21
1965.182558849924
 31
0.0
1001
REVIT
1002
{
1070
     3
1000
790271
1002
}
  0
LINE
  5
28E
330
256
100
AcDbEntity
  8
M-PIPE
100
AcDbLine
 10
987.1143539430844
 20
1976.182558849924
 30
0.0
 11
987.1143539430844
 21
1965.182558849924
 31
0.0
1001
REVIT
1002
{
1070
     3
1000
790271
1002
}
  0
LINE
  5
28F
330
256
100
AcDbEntity
  8
M-PIPE
100
AcDbLine
 10
1026.114353943084
 20
1961.882558849923
 30
0.0
 11
1021.738561198846
 21
1961.882558849923
 31
0.0
1001
REVIT
1002
{
1070
     3
1000
790271
1002
}
  0
LINE
  5
290
330
256
100
AcDbEntity
  8
M-PIPE
100
AcDbLine
 10
1021.738561198846
 20
1961.882558849923
 30
0.0
 11
1011.490146687323
 21
1961.882558849923
 31
0.0
1001
REVIT
1002
{
1070
     3
1000
790271
1002
}
  0
LINE
  5
291
330
256
100
AcDbEntity
  8
M-PIPE
100
AcDbLine
 10
1011.490146687323
 20
1961.882558849923
 30
0.0
 11
1002.738561198846
 21
1961.882558849923
 31
0.0
1001
REVIT
1002
{
1070
     3
1000
790271
1002
}
  0
LINE
  5
292
330
256
100
AcDbEntity
  8
M-PIPE
100
AcDbLine
 10
1002.738561198846
 20
1961.882558849923
 30
0.0
 11
992.4901466873228
 21
1961.882558849923
 31
0.0
1001
REVIT
1002
{
1070
     3
1000
790271
1002
}
  0
LINE
  5
293
330
256
100
AcDbEntity
  8
M-PIPE
100
AcDbLine
 10
992.4901466873228
 20
1961.882558849923
 30
0.0
 11
988.1143539430844
 21
1961.882558849923
 31
0.0
1001
REVIT
1002
{
1070
     3
1000
790271
1002
}
  0
LINE
  5
294
330
256
100
AcDbEntity
  8
M-PIPE
100
AcDbLine
 10
1026.114353943084
 20
1965.182558849924
 30
0.0
 11
1026.114353943084
 21
1961.882558849923
 31
0.0
1001
REVIT
1002
{
1070
     3
1000
790271
1002
}
  0
LINE
  5
295
330
256
100
AcDbEntity
  8
M-PIPE
100
AcDbLine
 10
1021.738561198846
 20
1965.182558849924
 30
0.0
 11
1021.738561198846
 21
1961.882558849923
 31
0.0
1001
REVIT
1002
{
1070
     3
1000
790271
1002
}
  0
LINE
  5
296
330
256
100
AcDbEntity
  8
M-PIPE
100
AcDbLine
 10
1011.490146687323
 20
1965.182558849924
 30
0.0
 11
1011.490146687323
 21
1961.882558849923
 31
0.0
1001
REVIT
1002
{
1070
     3
1000
790271
1002
}
  0
LINE
  5
297
330
256
100
AcDbEntity
  8
M-PIPE
100
AcDbLine
 10
1002.738561198846
 20
1965.182558849924
 30
0.0
 11
1002.738561198846
 21
1961.882558849923
 31
0.0
1001
REVIT
1002
{
1070
     3
1000
790271
1002
}
  0
LINE
  5
298
330
256
100
AcDbEntity
  8
M-PIPE
100
AcDbLine
 10
992.4901466873228
 20
1965.182558849924
 30
0.0
 11
992.4901466873228
 21
1961.882558849923
 31
0.0
1001
REVIT
1002
{
1070
     3
1000
790271
1002
}
  0
LINE
  5
299
330
256
100
AcDbEntity
  8
M-PIPE
100
AcDbLine
 10
988.1143539430844
 20
1965.182558849924
 30
0.0
 11
988.1143539430844
 21
1961.882558849923
 31
0.0
1001
REVIT
1002
{
1070
     3
1000
790271
1002
}
  0
LINE
  5
29A
330
256
100
AcDbEntity
  8
P-SANR-FIXT
100
AcDbLine
 10
993.6143539430984
 20
2017.082558849923
 30
0.0
 11
993.6143539430984
 21
2009.939570379996
 31
0.0
  0
LINE
  5
29B
330
256
100
AcDbEntity
  8
P-SANR-FIXT
100
AcDbLine
 10
1020.614353943098
 20
2009.939570379997
 30
0.0
 11
1020.614353943098
 21
2017.082558849923
 31
0.0
  0
LINE
  5
29C
330
256
100
AcDbEntity
  8
P-SANR-FIXT
100
AcDbLine
 10
992.1143539430984
 20
2020.312637871728
 30
0.0
 11
992.1143539430984
 21
2017.082558849923
 31
0.0
  0
LINE
  5
29D
330
256
100
AcDbEntity
  8
P-SANR-FIXT
100
AcDbLine
 10
1022.114353943098
 20
2017.082558849923
 30
0.0
 11
1022.114353943098
 21
2020.312637871728
 31
0.0
  0
LINE
  5
29E
330
256
100
AcDbEntity
  8
P-SANR-FIXT
100
AcDbLine
 10
986.8388800872663
 20
1984.206400028107
 30
0.0
 11
986.8388800872663
 21
1976.182558849922
 31
0.0
  0
LINE
  5
29F
330
256
100
AcDbEntity
  8
P-SANR-FIXT
100
AcDbLine
 10
1027.389827798931
 20
1976.182558849922
 30
0.0
 11
1027.389827798931
 21
1984.206400028107
 31
0.0
  0
LWPOLYLINE
  5
2A0
330
256
100
AcDbEntity
  8
P-SANR-FIXT
100
AcDbPolyline
 90
       41
 70
   128
 43
0.0
 10
988.6378371757176
 20
1986.182619237593
 10
988.719737261181
 20
1986.184257457738
 10
988.8015063239791
 20
1986.189169497368
 10
988.883013551054
 20
1986.19734749827
 10
988.9641285482298
 20
1986.208778377385
 10
989.0447215488148
 20
1986.223443847745
 10
989.1246636212001
 20
1986.241320447726
 10
989.2038268751234
 20
1986.262379578583
 10
989.2820846662658
 20
1986.286587550198
 10
989.3593117988555
 20
1986.31390563498
 10
989.4353847259543
 20
1986.344290129822
 10
989.5101817471074
 20
1986.377692426013
 10
989.5835832030364
 20
1986.414059087004
 10
989.6554716670701
 20
1986.453331933897
 10
989.7257321330013
 20
1986.495448138513
 10
989.794252199073
 20
1986.540340323911
 10
989.8609222477958
 20
1986.587936672168
 10
989.9256356213143
 20
1986.638161039283
 10
989.9882887920355
 20
1986.69093307698
 10
990.0487815282515
 20
1986.746168361258
 10
990.1070170544889
 20
1986.803778527445
 10
990.1629022063287
 20
1986.863671411563
 10
990.2163475794493
 20
1986.925751197776
 10
990.2672676726547
 20
1986.989918571667
 10
990.3155810246586
 20
1987.056070879128
 10
990.3612103444034
 20
1987.124102290577
 10
990.404082634712
 20
1987.193903970269
 10
990.444129309065
 20
1987.265364250407
 10
990.4812863013264
 20
1987.338368809787
 10
990.5154941682351
 20
1987.412800856687
 10
990.5466981845011
 20
1987.488541315711
 10
990.5748484303551
 20
1987.56546901828
 10
990.5998998714085
 20
1987.643460896481
 10
990.6218124307001
 20
1987.722392179946
 10
990.6405510528093
 20
1987.80213659546
 10
990.6560857599377
 20
1987.882566568968
 10
990.6683916998682
 20
1987.963553429672
 10
990.6774491857218
 20
1988.044967615869
 10
990.6832437274536
 20
1988.12667888223
 10
990.6857660550329
 20
1988.208556508159
 10
990.6858854148133
 20
1988.230667476689
  0
LINE
  5
2A1
330
256
100
AcDbEntity
  8
P-SANR-FIXT
100
AcDbLine
 10
1025.526761369385
 20
1986.184032402027
 30
0.0
 11
1025.568759741949
 21
1986.182738597374
 31
0.0
  0
LINE
  5
2A2
330
256
100
AcDbEntity
  8
P-SANR-FIXT
100
AcDbLine
 10
990.6858854148133
 20
1994.987561239089
 30
0.0
 11
990.6858854148133
 21
1988.230667476689
 31
0.0
  0
LWPOLYLINE
  5
2A3
330
256
100
AcDbEntity
  8
P-SANR-FIXT
100
AcDbPolyline
 90
       31
 70
   128
 43
0.0
 10
990.6858854148133
 20
1994.987561239089
 10
990.6875070127851
 20
1995.068630326736
 10
990.6923692124895
 20
1995.149569721137
 10
990.7004642354445
 20
1995.230249936527
 10
990.7117791313398
 20
1995.310541901771
 10
990.7262957987562
 20
1995.390317166854
 10
990.7439910141221
 20
1995.46944810837
 10
990.7648364688677
 20
1995.547808133691
 10
990.7887988147127
 20
1995.625271883495
 10
990.8158397170149
 20
1995.701715432305
 10
990.8459159160994
 20
1995.77701648675
 10
990.8789792964629
 20
1995.851054581207
 10
990.914976963751
 20
1995.923711270519
 10
990.9538513293746
 20
1995.994870319482
 10
990.9955402026412
 20
1996.064417888798
 10
991.0399768902472
 20
1996.132242717192
 10
991.0870903029715
 20
1996.198236299406
 10
991.136805069404
 20
1996.262293059787
 10
991.189041656524
 20
1996.324310521183
 10
991.2437164969349
 20
1996.384189468885
 10
991.3007421225556
 20
1996.441834109352
 10
991.3600273045501
 20
1996.497152223455
 10
991.4214771992734
 20
1996.550055314011
 10
991.4849935000033
 20
1996.600458747362
 10
991.5504745942078
 20
1996.648281888766
 10
991.6178157261045
 20
1996.693448231399
 10
991.686909164248
 20
1996.735885518747
 10
991.7576443738763
 20
1996.775525860204
 10
991.8299081937433
 20
1996.812305839679
 10
991.903585017153
 20
1996.846166617051
 10
991.9141848155481
 20
1996.850747787351
  0
LWPOLYLINE
  5
2A4
330
256
100
AcDbEntity
  8
P-SANR-FIXT
100
AcDbPolyline
 90
       38
 70
   128
 43
0.0
 10
986.8388800872663
 20
1984.206400028107
 10
986.8404678376004
 20
1984.285776959528
 10
986.8452285485409
 20
1984.365026904792
 10
986.8531546039658
 20
1984.444023080892
 10
986.8642333238774
 20
1984.522639110798
 10
986.878446984687
 20
1984.600749225631
 10
986.8957728475693
 20
1984.678228465872
 10
986.9161831948401
 20
1984.754952881264
 10
986.9396453742972
 20
1984.83079972911
 10
986.966121851459
 20
1984.905647670633
 10
986.9955702696097
 20
1984.979376965091
 10
987.0279435175623
 20
1985.051869661344
 10
987.0631898050261
 20
1985.123009786541
 10
987.1012527454597
 20
1985.192683531657
 10
987.1420714462786
 20
1985.260779433563
 10
987.1855806062681
 20
1985.327188553344
 10
987.2317106200549
 20
1985.391804650572
 10
987.2803876894566
 20
1985.454524353277
 10
987.3315339415464
 20
1985.515247323315
 10
987.3850675532313
 20
1985.573876416885
 10
987.4409028821528
 20
1985.630317839947
 10
987.4989506036952
 20
1985.684481298262
 10
987.559117853887
 20
1985.736280141853
 10
987.6213083779632
 20
1985.785631503619
 10
987.6854226843517
 20
1985.832456431908
 10
987.7513582038393
 20
1985.876680016825
 10
987.81900945366
 20
1985.918231510067
 10
987.8882682062458
 20
1985.95704443811
 10
987.959023662367
 20
1985.993056708547
 10
988.0311626283877
 20
1986.026210709429
 10
988.1045696973506
 20
1986.056453401426
 10
988.1791274336052
 20
1986.083736402683
 10
988.254716560678
 20
1986.108016066218
 10
988.3312161520905
 20
1986.129253549748
 10
988.4085038248157
 20
1986.14741487783
 10
988.4864559350642
 20
1986.162470996214
 10
988.5649477760885
 20
1986.174397818322
 10
988.6378371757176
 20
1986.182619237593
  0
LWPOLYLINE
  5
2A5
330
256
100
AcDbEntity
  8
P-SANR-FIXT
100
AcDbPolyline
 90
        6
 70
   128
 43
0.0
 10
1027.353614862119
 20
1984.582732508277
 10
1027.36542813555
 20
1984.516672497392
 10
1027.376267491807
 20
1984.438023107382
 10
1027.383953040995
 20
1984.359003169856
 10
1027.388472487874
 20
1984.279739099856
 10
1027.389827798931
 20
1984.206400028107
  0
LINE
  5
2A6
330
256
100
AcDbEntity
  8
P-SANR-FIXT
100
AcDbLine
 10
982.1143539430986
 20
1995.582558849923
 30
0.0
 11
990.7946855297815
 21
1995.582558849923
 31
0.0
  0
LINE
  5
2A7
330
256
100
AcDbEntity
  8
P-SANR-FIXT
100
AcDbLine
 10
1022.884837309513
 20
2015.582558849922
 30
0.0
 11
1020.61432123867
 21
2015.582558849922
 31
0.0
  0
LINE
  5
2A8
330
256
100
AcDbEntity
  8
P-SANR-FIXT
100
AcDbLine
 10
993.6143866475269
 20
2015.582558849922
 30
0.0
 11
982.1143539430986
 21
2015.582558849922
 31
0.0
  0
LINE
  5
2A9
330
256
100
AcDbEntity
  8
P-SANR-FIXT
100
AcDbLine
 10
1024.712821461799
 20
1984.582558849923
 30
0.0
 11
1033.114353943098
 21
1984.582558849923
 31
0.0
  0
LINE
  5
2AA
330
256
100
AcDbEntity
  8
P-SANR-FIXT
100
AcDbLine
 10
1033.114353943098
 20
2001.582558849923
 30
0.0
 11
1022.114353943193
 21
2001.582558849923
 31
0.0
  0
SPLINE
  5
2AB
330
256
100
AcDbEntity
  8
P-SANR-FIXT
100
AcDbSpline
210
0.0
220
0.0
230
1.0
 70
     8
 71
     3
 72
     9
 73
     5
 74
     0
 42
0.000000001
 43
0.0000000001
 40
0.8333333333333332
 40
0.8333333333333332
 40
0.8333333333333332
 40
0.8333333333333332
 40
0.9
 40
0.9261119263206516
 40
0.9261119263206516
 40
0.9261119263206516
 40
0.9261119263206516
 10
993.6142970190513
 20
2010.066614891419
 30
0.0
 10
993.6129196711892
 20
2009.510206837697
 30
0.0
 10
993.6255725942912
 20
2008.710763360403
 30
0.0
 10
993.6327745747243
 20
2007.863832505461
 30
0.0
 10
993.6346172695358
 20
2007.623605829483
 30
0.0
  0
SPLINE
  5
2AC
330
256
100
AcDbEntity
  8
P-SANR-FIXT
100
AcDbSpline
210
0.0
220
0.0
230
1.0
 70
     8
 71
     3
 72
     9
 73
     5
 74
     0
 42
0.000000001
 43
0.0000000001
 40
0.4659623671098843
 40
0.4659623671098843
 40
0.4659623671098843
 40
0.4659623671098843
 40
0.4791666666666666
 40
0.5
 40
0.5
 40
0.5
 40
0.5
 10
997.2575472225214
 20
2009.723113561727
 30
0.0
 10
997.3147200389112
 20
2009.771740301417
 30
0.0
 10
997.4639166983408
 20
2009.896144542899
 30
0.0
 10
997.6180844128839
 20
2010.017291286084
 30
0.0
 10
997.7141405125816
 20
2010.090826312831
 30
0.0
  0
SPLINE
  5
2AD
330
256
100
AcDbEntity
  8
P-SANR-FIXT
100
AcDbSpline
210
0.0
220
0.0
230
1.0
 70
     8
 71
     3
 72
     8
 73
     4
 74
     0
 42
0.000000001
 43
0.0000000001
 40
0.5555555555555558
 40
0.5555555555555558
 40
0.5555555555555558
 40
0.5555555555555558
 40
0.5637161671092414
 40
0.5637161671092414
 40
0.5637161671092414
 40
0.5637161671092414
 10
998.515486346481
 20
2010.673005386471
 30
0.0
 10
998.5563072844662
 20
2010.701133011089
 30
0.0
 10
998.5973654457023
 20
2010.72916962161
 30
0.0
 10
998.6386619870453
 20
2010.757103581693
 30
0.0
  0
SPLINE
  5
2AE
330
256
100
AcDbEntity
  8
P-SANR-FIXT
100
AcDbSpline
210
0.0
220
0.0
230
1.0
 70
     8
 71
     3
 72
     9
 73
     5
 74
     0
 42
0.000000001
 43
0.0000000001
 40
0.6111111111111113
 40
0.6111111111111113
 40
0.6111111111111113
 40
0.6111111111111113
 40
0.625
 40
0.6666666666666666
 40
0.6666666666666666
 40
0.6666666666666666
 40
0.6666666666666666
 10
999.3826025654534
 20
2011.230709746972
 30
0.0
 10
999.4576990358741
 20
2011.275342315641
 30
0.0
 10
999.7609858723931
 20
2011.451484032686
 30
0.0
 10
1000.076124088266
 20
2011.616263280733
 30
0.0
 10
1000.319145777893
 20
2011.734944941428
 30
0.0
  0
SPLINE
  5
2AF
330
256
100
AcDbEntity
  8
P-SANR-FIXT
100
AcDbSpline
210
0.0
220
0.0
230
1.0
 70
     8
 71
     3
 72
     8
 73
     4
 74
     0
 42
0.000000001
 43
0.0000000001
 40
0.7197112136075127
 40
0.7197112136075127
 40
0.7197112136075127
 40
0.7197112136075127
 40
0.7222222222222224
 40
0.7222222222222224
 40
0.7222222222222224
 40
0.7222222222222224
 10
1001.27836182765
 20
2012.166689442026
 30
0.0
 10
1001.293963022949
 20
2012.173191565429
 30
0.0
 10
1001.309585969854
 20
2012.179676438953
 30
0.0
 10
1001.325230390261
 20
2012.18614379626
 30
0.0
  0
SPLINE
  5
2B0
330
256
100
AcDbEntity
  8
P-SANR-FIXT
100
AcDbSpline
210
0.0
220
0.0
230
1.0
 70
     8
 71
     3
 72
     8
 73
     4
 74
     0
 42
0.000000001
 43
0.0000000001
 40
0.2777777777777778
 40
0.2777777777777778
 40
0.2777777777777778
 40
0.2777777777777778
 40
0.2806566571138911
 40
0.2806566571138911
 40
0.2806566571138911
 40
0.2806566571138911
 10
1012.896797354751
 20
2012.18881469741
 30
0.0
 10
1012.914737554659
 20
2012.181406803596
 30
0.0
 10
1012.93265019667
 20
2012.173977211443
 30
0.0
 10
1012.950535100839
 20
2012.166526829302
 30
0.0
  0
SPLINE
  5
2B1
330
256
100
AcDbEntity
  8
P-SANR-FIXT
100
AcDbSpline
210
0.0
220
0.0
230
1.0
 70
     8
 71
     3
 72
     9
 73
     5
 74
     0
 42
0.000000001
 43
0.0000000001
 40
0.3333333333333333
 40
0.3333333333333333
 40
0.3333333333333333
 40
0.3333333333333333
 40
0.375
 40
0.3888888888888889
 40
0.3888888888888889
 40
0.3888888888888889
 40
0.3888888888888889
 10
1013.903106942212
 20
2011.738155970407
 30
0.0
 10
1014.146175984223
 20
2011.619634274364
 30
0.0
 10
1014.461308151892
 20
2011.454999825424
 30
0.0
 10
1014.764632096481
 20
2011.279039653882
 30
0.0
 10
1014.83973824853
 20
2011.234451203447
 30
0.0
  0
SPLINE
  5
2B2
330
256
100
AcDbEntity
  8
P-SANR-FIXT
100
AcDbSpline
210
0.0
220
0.0
230
1.0
 70
     8
 71
     3
 72
     8
 73
     4
 74
     0
 42
0.000000001
 43
0.0000000001
 40
0.4366824128609105
 40
0.4366824128609105
 40
0.4366824128609105
 40
0.4366824128609105
 40
0.4444444444444446
 40
0.4444444444444446
 40
0.4444444444444446
 40
0.4444444444444446
 10
1015.589856142087
 20
2010.757193689299
 30
0.0
 10
1015.629121632106
 20
2010.730637295695
 30
0.0
 10
1015.66817174975
 20
2010.703988331412
 30
0.0
 10
1015.707007574329
 20
2010.677256864187
 30
0.0
  0
SPLINE
  5
2B3
330
256
100
AcDbEntity
  8
P-SANR-FIXT
100
AcDbSpline
210
0.0
220
0.0
230
1.0
 70
     8
 71
     3
 72
     9
 73
     5
 74
     0
 42
0.000000001
 43
0.0000000001
 40
0.5
 40
0.5
 40
0.5
 40
0.5
 40
0.5208333333333333
 40
0.5344962402170327
 40
0.5344962402170327
 40
0.5344962402170327
 40
0.5344962402170327
 10
1016.508581839507
 20
2010.095509454594
 30
0.0
 10
1016.604673288213
 20
2010.022021043223
 30
0.0
 10
1016.760984154566
 20
2009.899313752085
 30
0.0
 10
1016.912203071135
 20
2009.773252529793
 30
0.0
 10
1016.971343981199
 20
2009.722934892332
 30
0.0
  0
SPLINE
  5
2B4
330
256
100
AcDbEntity
  8
P-SANR-FIXT
100
AcDbSpline
210
0.0
220
0.0
230
1.0
 70
     8
 71
     3
 72
     9
 73
     5
 74
     0
 42
0.000000001
 43
0.0000000001
 40
0.0738880736947692
 40
0.0738880736947692
 40
0.0738880736947692
 40
0.0738880736947692
 40
0.1
 40
0.1666666666666666
 40
0.1666666666666666
 40
0.1666666666666666
 40
0.1666666666666666
 10
1020.591648529826
 20
2007.635665771184
 30
0.0
 10
1020.594431117695
 20
2007.871241289375
 30
0.0
 10
1020.60504470204
 20
2008.701312293033
 30
0.0
 10
1020.615830209496
 20
2009.510172835946
 30
0.0
 10
1020.614448662185
 20
2010.066584289843
 30
0.0
  0
LINE
  5
2B5
330
256
100
AcDbEntity
  8
P-SANR-FIXT
100
AcDbLine
 10
1007.114353943096
 20
2017.082558849922
 30
0.0
 11
992.1143539430968
 21
2017.082558849922
 31
0.0
  0
LINE
  5
2B6
330
256
100
AcDbEntity
  8
P-SANR-FIXT
100
AcDbLine
 10
1022.114353943097
 20
2017.082558849922
 30
0.0
 11
1007.114353943096
 21
2017.082558849922
 31
0.0
  0
SPLINE
  5
2B7
330
256
100
AcDbEntity
  8
P-SANR-FIXT
100
AcDbSpline
210
0.0
220
0.0
230
1.0
 70
     8
 71
     3
 72
     8
 73
     4
 74
     0
 42
0.000000001
 43
0.0000000001
 40
0.0
 40
0.0
 40
0.0
 40
0.0
 40
0.0061470220804176
 40
0.0061470220804176
 40
0.0061470220804176
 40
0.0061470220804176
 10
1016.754902086246
 20
1986.266369468416
 30
0.0
 10
1016.766222389751
 20
1986.275605435055
 30
0.0
 10
1016.777543374868
 20
1986.284868880166
 30
0.0
 10
1016.788864895358
 20
1986.294159901582
 30
0.0
  0
SPLINE
  5
2B8
330
256
100
AcDbEntity
  8
P-SANR-FIXT
100
AcDbSpline
210
0.0
220
0.0
230
1.0
 70
     8
 71
     3
 72
     8
 73
     4
 74
     0
 42
0.000000001
 43
0.0000000001
 40
0.103282638414406
 40
0.103282638414406
 40
0.103282638414406
 40
0.103282638414406
 40
0.1111111111111111
 40
0.1111111111111111
 40
0.1111111111111111
 40
0.1111111111111111
 10
1022.118316290898
 20
1995.353116296514
 30
0.0
 10
1022.128522301389
 20
1995.40956361655
 30
0.0
 10
1022.138380319277
 20
1995.465944256293
 30
0.0
 10
1022.1478952596
 20
1995.522258968074
 30
0.0
  0
SPLINE
  5
2B9
330
256
100
AcDbEntity
  8
P-SANR-FIXT
100
AcDbSpline
210
0.0
220
0.0
230
1.0
 70
     8
 71
     3
 72
     8
 73
     4
 74
     0
 42
0.000000001
 43
0.0000000001
 40
0.1481481481481481
 40
0.1481481481481481
 40
0.1481481481481481
 40
0.1481481481481481
 40
0.1851851851851852
 40
0.1851851851851852
 40
0.1851851851851852
 40
0.1851851851851852
 10
1022.26051073778
 20
1996.314795677049
 30
0.0
 10
1022.290773805523
 20
1996.575951700769
 30
0.0
 10
1022.313963434463
 20
1996.833312822427
 30
0.0
 10
1022.330685195091
 20
1997.084557918775
 30
0.0
  0
SPLINE
  5
2BA
330
256
100
AcDbEntity
  8
P-SANR-FIXT
100
AcDbSpline
210
0.0
220
0.0
230
1.0
 70
     8
 71
     3
 72
     8
 73
     4
 74
     0
 42
0.000000001
 43
0.0000000001
 40
0.2222222222222222
 40
0.2222222222222222
 40
0.2222222222222222
 40
0.2222222222222222
 40
0.2592592592592593
 40
0.2592592592592593
 40
0.2592592592592593
 40
0.2592592592592593
 10
1022.362052442538
 20
1997.817624008642
 30
0.0
 10
1022.366444209502
 20
1998.054318177731
 30
0.0
 10
1022.364973736187
 20
1998.28257412172
 30
0.0
 10
1022.358955093704
 20
1998.50149641052
 30
0.0
  0
SPLINE
  5
2BB
330
256
100
AcDbEntity
  8
P-SANR-FIXT
100
AcDbSpline
210
0.0
220
0.0
230
1.0
 70
     8
 71
     3
 72
     8
 73
     4
 74
     0
 42
0.000000001
 43
0.0000000001
 40
0.2962962962962963
 40
0.2962962962962963
 40
0.2962962962962963
 40
0.2962962962962963
 40
0.3333333333333333
 40
0.3333333333333333
 40
0.3333333333333333
 40
0.3333333333333333
 10
1022.328569189562
 20
1999.129380173868
 30
0.0
 10
1022.314768279852
 20
1999.328739722202
 30
0.0
 10
1022.297733120067
 20
1999.517862424864
 30
0.0
 10
1022.278777777667
 20
1999.695862840342
 30
0.0
  0
ARC
  5
2BC
330
256
100
AcDbEntity
  8
P-SANR-FIXT
100
AcDbCircle
 10
1007.114353943096
 20
1998.082558849922
 30
0.0
 40
15.24999999999978
100
AcDbArc
 50
229.8004867637575
 51
250.009719713058
  0
ARC
  5
2BD
330
256
100
AcDbEntity
  8
P-SANR-FIXT
100
AcDbCircle
 10
1007.114353943096
 20
1998.082558849922
 30
0.0
 40
15.24999999999985
100
AcDbArc
 50
169.8521036951242
 51
190.1478963058058
  0
ARC
  5
2BE
330
256
100
AcDbEntity
  8
P-SANR-FIXT
100
AcDbCircle
 10
1007.114353943096
 20
1998.082558849922
 30
0.0
 40
15.24999999999989
100
AcDbArc
 50
109.9902802881512
 51
130.1995132365083
  0
ARC
  5
2BF
330
256
100
AcDbEntity
  8
P-SANR-FIXT
100
AcDbCircle
 10
1007.114353943096
 20
1998.082558849922
 30
0.0
 40
15.24999999999998
100
AcDbArc
 50
49.80048676624917
 51
70.00971971011518
  0
ARC
  5
2C0
330
256
100
AcDbEntity
  8
P-SANR-FIXT
100
AcDbCircle
 10
1007.114353943096
 20
1998.082558849922
 30
0.0
 40
15.25000000000003
100
AcDbArc
 50
349.8521037011916
 51
10.14789629973829
  0
ARC
  5
2C1
330
256
100
AcDbEntity
  8
P-SANR-FIXT
100
AcDbCircle
 10
1007.114353943096
 20
1998.082558849922
 30
0.0
 40
15.24999999999995
100
AcDbArc
 50
289.9902802901817
 51
310.1995132347876
  0
LINE
  5
2C2
330
256
100
AcDbEntity
  8
P-SANR-FIXT
100
AcDbLine
 10
986.8388800872644
 20
1976.182558849922
 30
0.0
 11
987.091359054312
 21
1976.182558849922
 31
0.0
  0
LINE
  5
2C3
330
256
100
AcDbEntity
  8
P-SANR-FIXT
100
AcDbLine
 10
994.2517294957209
 20
1976.182558849922
 30
0.0
 11
999.8849560191708
 21
1976.182558849922
 31
0.0
  0
SPLINE
  5
2C4
330
256
100
AcDbEntity
  8
P-SANR-FIXT
100
AcDbSpline
210
0.0
220
0.0
230
1.0
 70
     8
 71
     3
 72
     8
 73
     4
 74
     0
 42
0.000000001
 43
0.0000000001
 40
-1.0
 40
-1.0
 40
-1.0
 40
-1.0
 40
-0.8333333333333333
 40
-0.8333333333333333
 40
-0.8333333333333333
 40
-0.8333333333333333
 10
1000.78863529999
 20
1984.206400028106
 30
0.0
 10
1001.112316753394
 20
1984.05660817712
 30
0.0
 10
1001.44135765004
 20
1983.919060882982
 30
0.0
 10
1001.775408965346
 20
1983.793758145691
 30
0.0
  0
LINE
  5
2C5
330
256
100
AcDbEntity
  8
P-SANR-FIXT
100
AcDbLine
 10
1014.343751866958
 20
1976.182558849922
 30
0.0
 11
1019.976978390472
 21
1976.182558849922
 31
0.0
  0
LINE
  5
2C6
330
256
100
AcDbEntity
  8
P-SANR-FIXT
100
AcDbLine
 10
1027.137348831855
 20
1976.182558849922
 30
0.0
 11
1027.389827798929
 21
1976.182558849922
 31
0.0
  0
SPLINE
  5
2C7
330
256
100
AcDbEntity
  8
P-SANR-FIXT
100
AcDbSpline
210
0.0
220
0.0
230
1.0
 70
     8
 71
     3
 72
     8
 73
     4
 74
     0
 42
0.000000001
 43
0.0000000001
 40
-0.1666666666666667
 40
-0.1666666666666667
 40
-0.1666666666666667
 40
-0.1666666666666667
 40
0.0
 40
0.0
 40
0.0
 40
0.0
 10
1012.453298920847
 20
1983.793758145691
 30
0.0
 10
1012.787350236153
 20
1983.919060882982
 30
0.0
 10
1013.116391132799
 20
1984.05660817712
 30
0.0
 10
1013.440072586203
 20
1984.206400028106
 30
0.0
  0
LINE
  5
2C8
330
256
100
AcDbEntity
  8
P-SANR-FIXT
100
AcDbLine
 10
988.6378371757158
 20
1986.182619237592
 30
0.0
 11
997.5773765800678
 21
1986.182619237592
 31
0.0
  0
SPLINE
  5
2C9
330
256
100
AcDbEntity
  8
P-SANR-FIXT
100
AcDbSpline
210
0.0
220
0.0
230
1.0
 70
     8
 71
     3
 72
    13
 73
     9
 74
     0
 42
0.000000001
 43
0.0000000001
 40
0.7142857142857143
 40
0.7142857142857143
 40
0.7142857142857143
 40
0.7142857142857143
 40
0.71875
 40
0.7857142857142857
 40
0.8392857142857142
 40
0.8928571428571427
 40
0.9464285714285713
 40
1.0
 40
1.0
 40
1.0
 40
1.0
 10
997.2417613056656
 20
1986.459545508955
 30
0.0
 10
997.2445647344194
 20
1986.457164607175
 30
0.0
 10
997.2893238794425
 20
1986.419179830294
 30
0.0
 10
997.3654096043123
 20
1986.355385667174
 30
0.0
 10
997.4559492632849
 20
1986.280840820371
 30
0.0
 10
997.5154006164547
 20
1986.23249909819
 30
0.0
 10
997.5573577224448
 20
1986.198666397267
 30
0.0
 10
997.5727633837392
 20
1986.186316394922
 30
0.0
 10
997.5773765800678
 20
1986.182619237592
 30
0.0
  0
LINE
  5
2CA
330
256
100
AcDbEntity
  8
P-SANR-FIXT
100
AcDbLine
 10
1016.651331306125
 20
1986.182619237592
 30
0.0
 11
1017.310922685005
 21
1986.182619237592
 31
0.0
  0
SPLINE
  5
2CB
330
256
100
AcDbEntity
  8
P-SANR-FIXT
100
AcDbSpline
210
0.0
220
0.0
230
1.0
 70
     8
 71
     3
 72
     9
 73
     5
 74
     0
 42
0.000000001
 43
0.0000000001
 40
-0.7841738119700264
 40
-0.7841738119700264
 40
-0.7841738119700264
 40
-0.7841738119700264
 40
-0.5
 40
-0.0285662642879726
 40
-0.0285662642879726
 40
-0.0285662642879726
 40
-0.0285662642879726
 10
1017.690854078685
 20
1986.18930416593
 30
0.0
 10
1017.57646057542
 20
1986.193595404611
 30
0.0
 10
1017.273531837562
 20
1986.20958795189
 30
0.0
 10
1016.974272128261
 20
1986.239379430732
 30
0.0
 10
1016.7886358868
 20
1986.262178787459
 30
0.0
  0
SPLINE
  5
2CC
330
256
100
AcDbEntity
  8
P-SANR-FIXT
100
AcDbSpline
210
0.0
220
0.0
230
1.0
 70
     8
 71
     3
 72
     9
 73
     5
 74
     0
 42
0.000000001
 43
0.0000000001
 40
0.0
 40
0.0
 40
0.0
 40
0.0
 40
0.5
 40
1.0
 40
1.0
 40
1.0
 40
1.0
 10
1016.651331306125
 20
1986.182619237592
 30
0.0
 10
1016.653524466826
 20
1986.184376903988
 30
0.0
 10
1016.67305084496
 20
1986.200004241663
 30
0.0
 10
1016.722678352386
 20
1986.240078889652
 30
0.0
 10
1016.754902086246
 20
1986.266369468416
 30
0.0
  0
SPLINE
  5
2CD
330
256
100
AcDbEntity
  8
P-SANR-FIXT
100
AcDbSpline
210
0.0
220
0.0
230
1.0
 70
     8
 71
     3
 72
    19
 73
    15
 74
     0
 42
0.000000001
 43
0.0000000001
 40
0.0
 40
0.0
 40
0.0
 40
0.0
 40
0.1666666666666666
 40
0.25
 40
0.2916666666666666
 40
0.3333333333333333
 40
0.375
 40
0.4166666666666666
 40
0.4583333333333333
 40
0.5
 40
0.5416666666666666
 40
0.5833333333333333
 40
0.625
 40
0.6666666666666666
 40
0.6666666666666666
 40
0.6666666666666666
 40
0.6666666666666666
 10
991.9141848155467
 20
1996.85074778735
 30
0.0
 10
991.9140703535081
 20
1996.852160213654
 30
0.0
 10
991.9150084634766
 20
1996.840466519176
 30
0.0
 10
991.9176736157817
 20
1996.808337078777
 30
0.0
 10
991.9198247103373
 20
1996.782965898488
 30
0.0
 10
991.9219721055506
 20
1996.758065846372
 30
0.0
 10
991.9245140590181
 20
1996.729201926911
 30
0.0
 10
991.9274248324621
 20
1996.696887832573
 30
0.0
 10
991.9309762553716
 20
1996.658420496075
 30
0.0
 10
991.9355659898256
 20
1996.610211899709
 30
0.0
 10
991.9409714945368
 20
1996.555448495508
 30
0.0
 10
991.9471402669058
 20
1996.495265730762
 30
0.0
 10
991.9546627982029
 20
1996.424742562227
 30
0.0
 10
991.9611818951967
 20
1996.366504884022
 30
0.0
 10
991.9647493283202
 20
1996.335567145323
 30
0.0
  0
SPLINE
  5
2CE
330
256
100
AcDbEntity
  8
P-SANR-FIXT
100
AcDbSpline
210
0.0
220
0.0
230
1.0
 70
     8
 71
     3
 72
     8
 73
     4
 74
     0
 42
0.000000001
 43
0.0000000001
 40
0.9166666666666667
 40
0.9166666666666667
 40
0.9166666666666667
 40
0.9166666666666667
 40
0.9403194509945807
 40
0.9403194509945807
 40
0.9403194509945807
 40
0.9403194509945807
 10
992.0907976420174
 20
1995.464304456572
 30
0.0
 10
992.0978977975364
 20
1995.423562574428
 30
0.0
 10
992.1060476858519
 20
1995.379813912411
 30
0.0
 10
992.114716547106
 20
1995.334564194878
 30
0.0
  0
SPLINE
  5
2CF
330
256
100
AcDbEntity
  8
P-SANR-FIXT
100
AcDbSpline
210
0.0
220
0.0
230
1.0
 70
     8
 71
     3
 72
     9
 73
     5
 74
     0
 42
0.000000001
 43
0.0000000001
 40
0.4285714285714286
 40
0.4285714285714286
 40
0.4285714285714286
 40
0.4285714285714286
 40
0.5
 40
0.5714285714285714
 40
0.5714285714285714
 40
0.5714285714285714
 40
0.5714285714285714
 10
998.4722304641383
 20
1985.517679153942
 30
0.0
 10
998.548506102443
 20
1985.465217772522
 30
0.0
 10
998.7075733406996
 20
1985.357836091864
 30
0.0
 10
998.8789129949122
 20
1985.247067892176
 30
0.0
 10
998.9671865098426
 20
1985.191237629251
 30
0.0
  0
SPLINE
  5
2D0
330
256
100
AcDbEntity
  8
P-SANR-FIXT
100
AcDbSpline
210
0.0
220
0.0
230
1.0
 70
     8
 71
     3
 72
    10
 73
     6
 74
     0
 42
0.000000001
 43
0.0000000001
 40
0.7142857142857143
 40
0.7142857142857143
 40
0.7142857142857143
 40
0.7142857142857143
 40
0.7321428571428572
 40
0.7857142857142857
 40
0.8571428571428569
 40
0.8571428571428569
 40
0.8571428571428569
 40
0.8571428571428569
 10
999.526244164805
 20
1984.854439523115
 30
0.0
 10
999.5506519026172
 20
1984.840438821433
 30
0.0
 10
999.6489386503291
 20
1984.784512022016
 30
0.0
 10
999.8488174795536
 20
1984.672240971086
 30
0.0
 10
1000.034452126539
 20
1984.578243798138
 30
0.0
 10
1000.141999506549
 20
1984.525094862374
 30
0.0
  0
SPLINE
  5
2D1
330
256
100
AcDbEntity
  8
P-SANR-FIXT
100
AcDbSpline
210
0.0
220
0.0
230
1.0
 70
     8
 71
     3
 72
    22
 73
    18
 74
     0
 42
0.000000001
 43
0.0000000001
 40
-0.5925925925925926
 40
-0.5925925925925926
 40
-0.5925925925925926
 40
-0.5925925925925926
 40
-0.5833333333333333
 40
-0.5486111111111111
 40
-0.5138888888888889
 40
-0.4444444444444445
 40
-0.3888888888888888
 40
-0.3333333333333333
 40
-0.3055555555555556
 40
-0.2777777777777778
 40
-0.25
 40
-0.2222222222222222
 40
-0.1944444444444444
 40
-0.1666666666666666
 40
-0.1111111111111111
 40
-0.0555555555555556
 40
0.0
 40
0.0
 40
0.0
 40
0.0
 10
1024.674429582812
 20
1984.582822503898
 30
0.0
 10
1024.651273364133
 20
1984.583134357122
 30
0.0
 10
1024.540463841242
 20
1984.58594630677
 30
0.0
 10
1024.335915298853
 20
1984.602085008127
 30
0.0
 10
1023.956864183515
 20
1984.66001892396
 30
0.0
 10
1023.484245381435
 20
1984.773014493231
 30
0.0
 10
1022.903618173207
 20
1984.951274366785
 30
0.0
 10
1022.4221136555
 20
1985.114005350469
 30
0.0
 10
1022.012820145618
 20
1985.252335634426
 30
0.0
 10
1021.694858957856
 20
1985.36042386685
 30
0.0
 10
1021.365735704313
 20
1985.469754649074
 30
0.0
 10
1021.026128671896
 20
1985.576695332843
 30
0.0
 10
1020.674543861086
 20
1985.681319630581
 30
0.0
 10
1020.189797415615
 20
1985.818097986634
 30
0.0
 10
1019.560882114297
 20
1985.971113425398
 30
0.0
 10
1018.776993430236
 20
1986.105250122331
 30
0.0
 10
1018.230910397296
 20
1986.162883610623
 30
0.0
 10
1017.952332100094
 20
1986.182619237592
 30
0.0
  0
SPLINE
  5
2D2
330
256
100
AcDbEntity
  8
P-SANR-FIXT
100
AcDbSpline
210
0.0
220
0.0
230
1.0
 70
     8
 71
     3
 72
     8
 73
     4
 74
     0
 42
0.000000001
 43
0.0000000001
 40
0.1428571428571428
 40
0.1428571428571428
 40
0.1428571428571428
 40
0.1428571428571428
 40
0.2857142857142857
 40
0.2857142857142857
 40
0.2857142857142857
 40
0.2857142857142857
 10
1014.091805999841
 20
1984.522409042644
 30
0.0
 10
1014.302429489946
 20
1984.630804005965
 30
0.0
 10
1014.506721489927
 20
1984.742165278705
 30
0.0
 10
1014.702361092018
 20
1984.854382576984
 30
0.0
  0
SPLINE
  5
2D3
330
256
100
AcDbEntity
  8
P-SANR-FIXT
100
AcDbSpline
210
0.0
220
0.0
230
1.0
 70
     8
 71
     3
 72
     9
 73
     5
 74
     0
 42
0.000000001
 43
0.0000000001
 40
0.4285714285714286
 40
0.4285714285714286
 40
0.4285714285714286
 40
0.4285714285714286
 40
0.5
 40
0.5714285714285714
 40
0.5714285714285714
 40
0.5714285714285714
 40
0.5714285714285714
 10
1015.26152137635
 20
1985.191237629251
 30
0.0
 10
1015.349788717249
 20
1985.247020162155
 30
0.0
 10
1015.521095281168
 20
1985.357829821299
 30
0.0
 10
1015.680286486432
 20
1985.465278043673
 30
0.0
 10
1015.756477422055
 20
1985.517679153942
 30
0.0
  0
ARC
  5
2D4
330
256
100
AcDbEntity
  8
P-SANR-FIXT
100
AcDbCircle
 10
1007.114353943096
 20
1998.082558849966
 30
0.0
 40
9.150000000013733
100
AcDbArc
 50
90.0
 51
269.9999999999997
  0
ARC
  5
2D5
330
256
100
AcDbEntity
  8
P-SANR-FIXT
100
AcDbCircle
 10
1007.114353943096
 20
1998.082558849966
 30
0.0
 40
9.150000000013733
100
AcDbArc
 50
269.9999999999997
 51
90.0
  0
ARC
  5
2D6
330
256
100
AcDbEntity
  8
P-SANR-FIXT
100
AcDbCircle
 10
1007.114353943096
 20
1998.082558849966
 30
0.0
 40
10.45000000001369
100
AcDbArc
 50
90.0
 51
269.9999999999997
  0
ARC
  5
2D7
330
256
100
AcDbEntity
  8
P-SANR-FIXT
100
AcDbCircle
 10
1007.114353943096
 20
1998.082558849966
 30
0.0
 40
10.45000000001369
100
AcDbArc
 50
269.9999999999997
 51
90.0
  0
ARC
  5
2D8
330
256
100
AcDbEntity
  8
P-SANR-FIXT
100
AcDbCircle
 10
1007.114353943096
 20
1998.082558849966
 30
0.0
 40
11.8000000000037
100
AcDbArc
 50
90.0
 51
269.9999999999997
  0
ARC
  5
2D9
330
256
100
AcDbEntity
  8
P-SANR-FIXT
100
AcDbCircle
 10
1007.114353943096
 20
1998.082558849966
 30
0.0
 40
11.8000000000037
100
AcDbArc
 50
269.9999999999997
 51
89.99999999999944
  0
ARC
  5
2DA
330
256
100
AcDbEntity
  8
P-SANR-FIXT
100
AcDbCircle
 10
1007.114353943096
 20
1998.082558849966
 30
0.0
 40
16.50000000000364
100
AcDbArc
 50
90.0
 51
95.3800226709785
  0
SPLINE
  5
2DB
330
256
100
AcDbEntity
  8
P-SANR-FIXT
100
AcDbSpline
210
0.0
220
0.0
230
1.0
 70
    24
 71
     3
 72
     9
 73
     5
 74
     0
 42
0.000000001
 43
0.0000000001
 40
-1.0
 40
-1.0
 40
-1.0
 40
-1.0
 40
-0.5
 40
0.0
 40
0.0
 40
0.0
 40
0.0
 10
1005.567294393096
 20
2014.509871677963
 30
0.0
 10
1003.550768613018
 20
2013.34562997599
 30
0.0
 10
999.5499293495926
 20
2011.03574435023
 30
0.0
 10
995.6135146796263
 20
2008.763054280848
 30
0.0
 10
993.661413493008
 20
2007.63600813525
 30
0.0
  0
ARC
  5
2DC
330
256
100
AcDbEntity
  8
P-SANR-FIXT
100
AcDbCircle
 10
1007.114353943096
 20
1998.082558849966
 30
0.0
 40
16.50000000000377
100
AcDbArc
 50
144.6199773297963
 51
155.3800226707145
  0
SPLINE
  5
2DD
330
256
100
AcDbEntity
  8
P-SANR-FIXT
100
AcDbSpline
210
0.0
220
0.0
230
1.0
 70
    24
 71
     3
 72
     9
 73
     5
 74
     0
 42
0.000000001
 43
0.0000000001
 40
-1.0
 40
-1.0
 40
-1.0
 40
-1.0
 40
-0.5
 40
0.0
 40
0.0
 40
0.0
 40
0.0
 10
992.1143539431684
 20
2004.956422392566
 30
0.0
 10
992.1143539431842
 20
2002.627938988623
 30
0.0
 10
992.1143539432154
 20
1998.008167737112
 30
0.0
 10
992.1143539432462
 20
1993.462787598354
 30
0.0
 10
992.1143539432613
 20
1991.208695307163
 30
0.0
  0
ARC
  5
2DE
330
256
100
AcDbEntity
  8
P-SANR-FIXT
100
AcDbCircle
 10
1007.114353943096
 20
1998.082558849966
 30
0.0
 40
16.50000000000375
100
AcDbArc
 50
204.6199773300593
 51
215.3800226714377
  0
SPLINE
  5
2DF
330
256
100
AcDbEntity
  8
P-SANR-FIXT
100
AcDbSpline
210
0.0
220
0.0
230
1.0
 70
    24
 71
     3
 72
     9
 73
     5
 74
     0
 42
0.000000001
 43
0.0000000001
 40
-1.0
 40
-1.0
 40
-1.0
 40
-1.0
 40
-0.5
 40
0.0
 40
0.0
 40
0.0
 40
0.0
 10
993.6614134932138
 20
1988.529109564392
 30
0.0
 10
995.6779392732725
 20
1987.364867862465
 30
0.0
 10
999.6787785366599
 20
1985.0549822368
 30
0.0
 10
1003.615193206587
 20
1982.782292167511
 30
0.0
 10
1005.567294393186
 20
1981.655246021961
 30
0.0
  0
ARC
  5
2E0
330
256
100
AcDbEntity
  8
P-SANR-FIXT
100
AcDbCircle
 10
1007.114353943096
 20
1998.082558849966
 30
0.0
 40
16.50000000000369
100
AcDbArc
 50
264.6199773293364
 51
269.9999999999997
  0
ARC
  5
2E1
330
256
100
AcDbEntity
  8
P-SANR-FIXT
100
AcDbCircle
 10
1007.114353943096
 20
1998.082558849966
 30
0.0
 40
16.50000000000375
100
AcDbArc
 50
269.9999999999997
 51
275.3800226724255
  0
SPLINE
  5
2E2
330
256
100
AcDbEntity
  8
P-SANR-FIXT
100
AcDbSpline
210
0.0
220
0.0
230
1.0
 70
    24
 71
     3
 72
     9
 73
     5
 74
     0
 42
0.000000001
 43
0.0000000001
 40
-1.0
 40
-1.0
 40
-1.0
 40
-1.0
 40
-0.5
 40
0.0
 40
0.0
 40
0.0
 40
0.0
 10
1008.661413493512
 20
1981.655246022008
 30
0.0
 10
1010.67793927348
 20
1982.819487723919
 30
0.0
 10
1014.678778536687
 20
1985.129373349552
 30
0.0
 10
1018.615193206434
 20
1987.402063418808
 30
0.0
 10
1020.567294392943
 20
1988.529109564342
 30
0.0
  0
ARC
  5
2E3
330
256
100
AcDbEntity
  8
P-SANR-FIXT
100
AcDbCircle
 10
1007.114353943096
 20
1998.082558849966
 30
0.0
 40
16.50000000000373
100
AcDbArc
 50
324.6199773283487
 51
335.3800226726891
  0
SPLINE
  5
2E4
330
256
100
AcDbEntity
  8
P-SANR-FIXT
100
AcDbSpline
210
0.0
220
0.0
230
1.0
 70
    24
 71
     3
 72
     9
 73
     5
 74
     0
 42
0.000000001
 43
0.0000000001
 40
-1.0
 40
-1.0
 40
-1.0
 40
-1.0
 40
-0.5
 40
0.0
 40
0.0
 40
0.0
 40
0.0
 10
1022.114353943261
 20
1991.208695307883
 30
0.0
 10
1022.114353943246
 20
1993.537178711655
 30
0.0
 10
1022.114353943214
 20
1998.156949962821
 30
0.0
 10
1022.114353943184
 20
2002.702330101234
 30
0.0
 10
1022.114353943168
 20
2004.956422392252
 30
0.0
  0
ARC
  5
2E5
330
256
100
AcDbEntity
  8
P-SANR-FIXT
100
AcDbCircle
 10
1007.114353943096
 20
1998.082558849966
 30
0.0
 40
16.50000000000368
100
AcDbArc
 50
24.61997732808563
 51
35.38002267196644
  0
SPLINE
  5
2E6
330
256
100
AcDbEntity
  8
P-SANR-FIXT
100
AcDbSpline
210
0.0
220
0.0
230
1.0
 70
    24
 71
     3
 72
     9
 73
     5
 74
     0
 42
0.000000001
 43
0.0000000001
 40
-1.0
 40
-1.0
 40
-1.0
 40
-1.0
 40
-0.5
 40
0.0
 40
0.0
 40
0.0
 40
0.0
 10
1020.567294392891
 20
2007.636008135665
 30
0.0
 10
1018.550768612872
 20
2008.800249837568
 30
0.0
 10
1014.549929349564
 20
2011.110135463187
 30
0.0
 10
1010.613514679717
 20
2013.38282553243
 30
0.0
 10
1008.661413493157
 20
2014.509871677958
 30
0.0
  0
ARC
  5
2E7
330
256
100
AcDbEntity
  8
P-SANR-FIXT
100
AcDbCircle
 10
1007.114353943096
 20
1998.082558849966
 30
0.0
 40
16.50000000000372
100
AcDbArc
 50
84.61997732880897
 51
89.9999999999996
  0
LINE
  5
2E8
330
256
100
AcDbEntity
  8
P-SANR-FIXT
100
AcDbLine
 10
1022.884837309511
 20
2005.582558849922
 30
0.0
 11
1022.884837309511
 21
2001.576237641932
 31
0.0
  0
LINE
  5
2E9
330
256
100
AcDbEntity
  8
P-SANR-FIXT
100
AcDbLine
 10
1022.884837309511
 20
2015.582558849922
 30
0.0
 11
1022.884837309511
 21
2005.582558849922
 31
0.0
  0
LINE
  5
2EA
330
256
100
AcDbEntity
  8
P-SANR-FIXT
100
AcDbLine
 10
982.1143539430966
 20
1995.582558849921
 30
0.0
 11
982.1143539430966
 21
1995.608880744091
 31
0.0
  0
LINE
  5
2EB
330
256
100
AcDbEntity
  8
P-SANR-FIXT
100
AcDbLine
 10
982.1143539430966
 20
1999.967779687632
 30
0.0
 11
982.1143539430966
 21
1995.608880744091
 31
0.0
  0
LINE
  5
2EC
330
256
100
AcDbEntity
  8
P-SANR-FIXT
100
AcDbLine
 10
982.1143539430966
 20
1999.967779687632
 30
0.0
 11
982.1143539430966
 21
2001.223659906381
 31
0.0
  0
LINE
  5
2ED
330
256
100
AcDbEntity
  8
P-SANR-FIXT
100
AcDbLine
 10
982.1143539430966
 20
2009.941457793463
 30
0.0
 11
982.1143539430966
 21
2001.223659906381
 31
0.0
  0
LINE
  5
2EE
330
256
100
AcDbEntity
  8
P-SANR-FIXT
100
AcDbLine
 10
982.1143539430966
 20
2009.941457793463
 30
0.0
 11
982.1143539430966
 21
2011.197338012212
 31
0.0
  0
LINE
  5
2EF
330
256
100
AcDbEntity
  8
P-SANR-FIXT
100
AcDbLine
 10
982.1143539430966
 20
2015.556236955752
 30
0.0
 11
982.1143539430966
 21
2011.197338012212
 31
0.0
  0
LINE
  5
2F0
330
256
100
AcDbEntity
  8
P-SANR-FIXT
100
AcDbLine
 10
982.1143539430966
 20
2015.556236955752
 30
0.0
 11
982.1143539430966
 21
2015.582558849922
 31
0.0
  0
SPLINE
  5
2F1
330
256
100
AcDbEntity
  8
P-SANR-FIXT
100
AcDbSpline
210
0.0
220
0.0
230
1.0
 70
     8
 71
     3
 72
     8
 73
     4
 74
     0
 42
0.000000001
 43
0.0000000001
 40
-0.9284475260393529
 40
-0.9284475260393529
 40
-0.9284475260393529
 40
-0.9284475260393529
 40
-0.9259259259259259
 40
-0.9259259259259259
 40
-0.9259259259259259
 40
-0.9259259259259259
 10
991.9508637092599
 20
1999.574635253274
 30
0.0
 10
991.9488778847322
 20
1999.556425929051
 30
0.0
 10
991.9469202413054
 20
1999.538261992402
 30
0.0
 10
991.944990467703
 20
1999.52014391142
 30
0.0
  0
SPLINE
  5
2F2
330
256
100
AcDbEntity
  8
P-SANR-FIXT
100
AcDbSpline
210
0.0
220
0.0
230
1.0
 70
     8
 71
     3
 72
     8
 73
     4
 74
     0
 42
0.000000001
 43
0.0000000001
 40
-0.8534566331486788
 40
-0.8534566331486788
 40
-0.8534566331486788
 40
-0.8534566331486788
 40
-0.8518518518518519
 40
-0.8518518518518519
 40
-0.8518518518518519
 40
-0.8518518518518519
 10
991.860683749079
 20
1998.081062884751
 30
0.0
 10
991.8607402695593
 20
1998.071417999858
 30
0.0
 10
991.8608099162007
 20
1998.061796478741
 30
0.0
 10
991.86089221227
 20
1998.052198448955
 30
0.0
  0
SPLINE
  5
2F3
330
256
100
AcDbEntity
  8
P-SANR-FIXT
100
AcDbSpline
210
0.0
220
0.0
230
1.0
 70
     8
 71
     3
 72
     8
 73
     4
 74
     0
 42
0.000000001
 43
0.0000000001
 40
-0.7777777777777778
 40
-0.7777777777777778
 40
-0.7777777777777778
 40
-0.7777777777777778
 40
-0.7750024734427241
 40
-0.7750024734427241
 40
-0.7750024734427241
 40
-0.7750024734427241
 10
991.9114739354206
 20
1996.88466925893
 30
0.0
 10
991.9121878072784
 20
1996.872228688457
 30
0.0
 10
991.9129075404727
 20
1996.859871926752
 30
0.0
 10
991.9136374588454
 20
1996.847599152033
 30
0.0
  0
LINE
  5
2F4
330
256
100
AcDbEntity
  8
P-SANR-FIXT
100
AcDbLine
 10
986.1143539430948
 20
2001.223659906381
 30
0.0
 11
986.1143539430948
 21
2005.582558849922
 31
0.0
  0
LINE
  5
2F5
330
256
100
AcDbEntity
  8
P-SANR-FIXT
100
AcDbLine
 10
982.1143539430966
 20
2001.223659906381
 30
0.0
 11
986.1143539430948
 21
2001.223659906381
 31
0.0
  0
LINE
  5
2F6
330
256
100
AcDbEntity
  8
P-SANR-FIXT
100
AcDbLine
 10
986.1143539430948
 20
1999.967779687632
 30
0.0
 11
982.1143539430966
 21
1999.967779687632
 31
0.0
  0
LINE
  5
2F7
330
256
100
AcDbEntity
  8
P-SANR-FIXT
100
AcDbLine
 10
986.1143539430948
 20
1995.608880744091
 30
0.0
 11
986.1143539430948
 21
1999.967779687632
 31
0.0
  0
LINE
  5
2F8
330
256
100
AcDbEntity
  8
P-SANR-FIXT
100
AcDbLine
 10
982.1143539430966
 20
1995.608880744091
 30
0.0
 11
986.1143539430948
 21
1995.608880744091
 31
0.0
  0
LINE
  5
2F9
330
256
100
AcDbEntity
  8
P-SANR-FIXT
100
AcDbLine
 10
986.1143539430948
 20
2015.556236955752
 30
0.0
 11
982.1143539430966
 21
2015.556236955752
 31
0.0
  0
LINE
  5
2FA
330
256
100
AcDbEntity
  8
P-SANR-FIXT
100
AcDbLine
 10
986.1143539430948
 20
2011.197338012211
 30
0.0
 11
986.1143539430948
 21
2015.556236955752
 31
0.0
  0
LINE
  5
2FB
330
256
100
AcDbEntity
  8
P-SANR-FIXT
100
AcDbLine
 10
982.1143539430966
 20
2011.197338012212
 30
0.0
 11
986.1143539430948
 21
2011.197338012212
 31
0.0
  0
LINE
  5
2FC
330
256
100
AcDbEntity
  8
P-SANR-FIXT
100
AcDbLine
 10
986.1143539430948
 20
2009.941457793463
 30
0.0
 11
982.1143539430966
 21
2009.941457793463
 31
0.0
  0
LINE
  5
2FD
330
256
100
AcDbEntity
  8
P-SANR-FIXT
100
AcDbLine
 10
986.1143539430948
 20
2005.582558849922
 30
0.0
 11
986.1143539430948
 21
2009.941457793463
 31
0.0
  0
LINE
  5
2FE
330
256
100
AcDbEntity
  8
P-SANR-FIXT
100
AcDbLine
 10
1033.114353943096
 20
1993.082558849922
 30
0.0
 11
1033.114353943096
 21
1984.582558849922
 31
0.0
  0
LINE
  5
2FF
330
256
100
AcDbEntity
  8
P-SANR-FIXT
100
AcDbLine
 10
1033.114353943096
 20
2001.582558849922
 30
0.0
 11
1033.114353943096
 21
1993.082558849922
 31
0.0
  0
LINE
  5
300
330
256
100
AcDbEntity
  8
P-SANR-FIXT
100
AcDbLine
 10
1027.389827798931
 20
1980.082558849922
 30
0.0
 11
1031.614353943099
 21
1980.082558849922
 31
0.0
  0
LINE
  5
301
330
256
100
AcDbEntity
  8
P-SANR-FIXT
100
AcDbLine
 10
1022.329285785176
 20
1997.082558849922
 30
0.0
 11
1022.315227093329
 21
1997.082558849922
 31
0.0
  0
LINE
  5
302
330
256
100
AcDbEntity
  8
P-SANR-FIXT
100
AcDbLine
 10
1031.614353943096
 20
1984.576422181218
 30
0.0
 11
1031.614353943097
 21
1980.082558849922
 31
0.0
  0
ENDBLK
  5
304
330
256
100
AcDbEntity
  8
0
100
AcDbBlockEnd
  0
ENDSEC
  0
SECTION
  2
ENTITIES
  0
INSERT
  5
192
330
71
100
AcDbEntity
  8
P-SANR-FIXT
100
AcDbBlockReference
  2
Automatic flow rate regulator valve_Caleffi_121 DN15 - 1_2__-859151-Est - Idraulica
 10
0.0
 20
0.0
 30
0.0
1001
REVIT
1002
{
1070
     1
1000
863131
1002
}
1002
{
1070
     5
1000
859151
1002
}
1002
{
1070
     2
1000
-2001160
1002
}
  0
INSERT
  5
255
330
71
100
AcDbEntity
  8
P-SANR-FIXT
100
AcDbBlockReference
  2
Automatic flow rate regulator valve_Caleffi_121 DN15 - 1_2__-V1-Est - Idraulica
 10
0.0
 20
0.0
 30
0.0
1001
REVIT
1002
{
1070
     1
1000
863152
1002
}
1002
{
1070
     5
1000
859151
1002
}
1002
{
1070
     2
1000
-2001160
1002
}
  0
INSERT
  5
305
330
71
100
AcDbEntity
  8
P-SANR-FIXT
100
AcDbBlockReference
  2
Automatic flow rate regulator valve_Caleffi_121 DN15 - 1_2__-V2-Est - Idraulica
 10
0.0
 20
0.0
 30
0.0
1001
REVIT
1002
{
1070
     1
1000
863172
1002
}
1002
{
1070
     5
1000
859151
1002
}
1002
{
1070
     2
1000
-2001160
1002
}
  0
ENDSEC
  0
SECTION
  2
OBJECTS
  0
DICTIONARY
  5
C
330
0
100
AcDbDictionary
281
     1
  3
ACAD_CIP_PREVIOUS_PRODUCT_INFO
350
7A
  3
ACAD_COLOR
350
63
  3
ACAD_DETAILVIEWSTYLE
350
6B
  3
ACAD_GROUP
350
D
  3
ACAD_IMAGE_VARS
350
7B
  3
ACAD_LAYOUT
350
62
  3
ACAD_MATERIAL
350
10
  3
ACAD_MLEADERSTYLE
350
66
  3
ACAD_MLINESTYLE
350
5F
  3
ACAD_PLOTSETTINGS
350
61
  3
ACAD_PLOTSTYLENAME
350
E
  3
ACAD_SCALELIST
350
42
  3
ACAD_SECTIONVIEWSTYLE
350
68
  3
ACAD_TABLESTYLE
350
64
  3
ACAD_VISUALSTYLE
350
29
  3
ACDB_RECOMPOSE_DATA
350
310
  3
AcDbVariableDictionary
350
7C
  3
REVIT_DICTIONARY
350
307
  0
DICTIONARY
  5
30C
330
71
100
AcDbDictionary
280
     1
281
     1
  3
ACAD_SORTENTS
360
30D
  0
XRECORD
  5
7A
102
{ACAD_REACTORS
330
C
102
}
330
C
100
AcDbXrecord
280
     1
300
RVT
300
2013
300
RVT2013
  0
DICTIONARY
  5
63
102
{ACAD_REACTORS
330
C
102
}
330
C
100
AcDbDictionary
281
     1
  0
DICTIONARY
  5
6B
102
{ACAD_REACTORS
330
C
102
}
330
C
100
AcDbDictionary
281
     1
  3
Imperial24
350
6C
  0
DICTIONARY
  5
D
102
{ACAD_REACTORS
330
C
102
}
330
C
100
AcDbDictionary
281
     1
  0
RASTERVARIABLES
  5
7B
102
{ACAD_REACTORS
330
C
102
}
330
C
100
AcDbRasterVariables
 90
        0
 70
     0
 71
     1
 72
     1
  0
DICTIONARY
  5
62
102
{ACAD_REACTORS
330
C
102
}
330
C
100
AcDbDictionary
281
     1
  3
Layout1
350
70
  3
Layout2
350
78
  3
Model
350
74
  0
DICTIONARY
  5
10
102
{ACAD_REACTORS
330
C
102
}
330
C
100
AcDbDictionary
281
     1
  3
ByBlock
350
19
  3
ByLayer
350
11
  3
Global
350
21
  0
DICTIONARY
  5
66
102
{ACAD_REACTORS
330
C
102
}
330
C
100
AcDbDictionary
281
     1
  3
Standard
350
67
  0
DICTIONARY
  5
5F
102
{ACAD_REACTORS
330
C
102
}
330
C
100
AcDbDictionary
281
     1
  3
Standard
350
60
  0
DICTIONARY
  5
61
102
{ACAD_REACTORS
330
C
102
}
330
C
100
AcDbDictionary
281
     1
  0
ACDBDICTIONARYWDFLT
  5
E
102
{ACAD_REACTORS
330
C
102
}
330
C
100
AcDbDictionary
281
     1
  3
Normal
350
F
100
AcDbDictionaryWithDefault
340
F
  0
DICTIONARY
  5
42
102
{ACAD_REACTORS
330
C
102
}
330
C
100
AcDbDictionary
281
     1
  3
A0
350
43
  3
A1
350
44
  3
A2
350
45
  3
A3
350
46
  3
A4
350
47
  3
A5
350
48
  3
A6
350
49
  3
A7
350
4A
  3
A8
350
4B
  3
A9
350
4C
  3
B0
350
4D
  3
B1
350
4E
  3
B2
350
4F
  3
B3
350
50
  3
B4
350
51
  3
B5
350
52
  3
B6
350
53
  0
DICTIONARY
  5
68
102
{ACAD_REACTORS
330
C
102
}
330
C
100
AcDbDictionary
281
     1
  3
Imperial24
350
6A
  0
DICTIONARY
  5
64
102
{ACAD_REACTORS
330
C
102
}
330
C
100
AcDbDictionary
281
     1
  3
Standard
350
65
  0
DICTIONARY
  5
29
102
{ACAD_REACTORS
330
C
102
}
330
C
100
AcDbDictionary
281
     1
  3
2dWireframe
350
2F
  3
Basic
350
2E
  3
Brighten
350
35
  3
ColorChange
350
39
  3
Conceptual
350
32
  3
Dim
350
34
  3
EdgeColorOff
350
41
  3
Facepattern
350
38
  3
Flat
350
2A
  3
FlatWithEdges
350
2B
  3
Gouraud
350
2C
  3
GouraudWithEdges
350
2D
  3
Hidden
350
31
  3
JitterOff
350
3F
  3
Linepattern
350
37
  3
OverhangOff
350
40
  3
Realistic
350
33
  3
Shaded
350
3E
  3
Shaded with edges
350
3D
  3
Shades of Gray
350
3A
  3
Sketchy
350
3B
  3
Thicken
350
36
  3
Wireframe
350
30
  3
X-Ray
350
3C
  0
XRECORD
  5
310
102
{ACAD_REACTORS
330
C
102
}
330
C
100
AcDbXrecord
280
     1
 90
        1
330
65
  0
DICTIONARY
  5
7C
102
{ACAD_REACTORS
330
C
102
}
330
C
100
AcDbDictionary
281
     1
  3
CANNOSCALE
350
81
  3
CMLEADERSTYLE
350
7E
  3
CTABLESTYLE
350
7D
  3
CVIEWDETAILSTYLE
350
7F
  3
CVIEWSECTIONSTYLE
350
80
  0
DICTIONARY
  5
307
102
{ACAD_REACTORS
330
C
102
}
330
C
100
AcDbDictionary
281
     1
  3
DRAWING_TOOL
350
30B
  3
REVIT_CATEGORY_MAPPING
350
309
  3
REVIT_SUB_CATEGORY_MAPPING
350
30A
  3
REVIT_TYPE_MAPPING
350
308
  0
SORTENTSTABLE
  5
30D
102
{ACAD_REACTORS
330
30C
102
}
330
30C
100
AcDbSortentsTable
330
71
  0
ACDBDETAILVIEWSTYLE
  5
6C
102
{ACAD_REACTORS
330
6B
102
}
330
6B
100
AcDbModelDocViewStyle
 70
     0
  3
Imperial24
290
     1
100
AcDbDetailViewStyle
 70
     0
 71
     0
 90
        3
 71
     1
340
55
 62
   256
 40
0.24
340
0
 62
   256
 40
0.24
300

 40
0.36
280
     3
 71
     2
340
5D
 90
       25
 62
   256
 71
     3
340
55
 62
   256
 40
0.24
 90
        1
 40
0.75
 90
        1
300
%<\AcVar ViewType \f "%tc1">% %<\AcVar ViewDetailId>%\PSCALA %<\AcVar ViewScale \f "%sn">%
 71
     4
340
5D
 90
       25
 62
   256
340
5D
 90
       25
 62
   256
280
     0
  0
LAYOUT
  5
70
102
{ACAD_REACTORS
330
62
102
}
330
62
100
AcDbPlotSettings
  1

  2

  4

  6

 40
0.0
 41
0.0
 42
0.0
 43
0.0
 44
0.0
 45
0.0
 46
0.0
 47
0.0
 48
0.0
 49
0.0
140
0.0
141
0.0
142
1.0
143
1.0
 70
   688
 72
     0
 73
     0
 74
     5
  7

 75
    16
147
1.0
 76
     0
 77
     2
 78
   300
148
0.0
149
0.0
100
AcDbLayout
  1
Layout1
 70
     1
 71
     1
 10
0.0
 20
0.0
 11
12.0
 21
9.0
 12
0.0
 22
0.0
 32
0.0
 14
0.0
 24
0.0
 34
0.0
 15
0.0
 25
0.0
 35
0.0
146
0.0
 13
0.0
 23
0.0
 33
0.0
 16
1.0
 26
0.0
 36
0.0
 17
0.0
 27
1.0
 37
0.0
 76
     0
330
6D
  0
LAYOUT
  5
78
102
{ACAD_REACTORS
330
62
102
}
330
62
100
AcDbPlotSettings
  1

  2

  4

  6

 40
0.0
 41
0.0
 42
0.0
 43
0.0
 44
0.0
 45
0.0
 46
0.0
 47
0.0
 48
0.0
 49
0.0
140
0.0
141
0.0
142
1.0
143
1.0
 70
   688
 72
     0
 73
     0
 74
     5
  7

 75
    16
147
1.0
 76
     0
 77
     2
 78
   300
148
0.0
149
0.0
100
AcDbLayout
  1
Layout2
 70
     1
 71
     2
 10
0.0
 20
0.0
 11
12.0
 21
9.0
 12
0.0
 22
0.0
 32
0.0
 14
0.0
 24
0.0
 34
0.0
 15
0.0
 25
0.0
 35
0.0
146
0.0
 13
0.0
 23
0.0
 33
0.0
 16
1.0
 26
0.0
 36
0.0
 17
0.0
 27
1.0
 37
0.0
 76
     0
330
75
  0
LAYOUT
  5
74
102
{ACAD_REACTORS
330
62
102
}
330
62
100
AcDbPlotSettings
  1

  2

  4

  6

 40
0.0
 41
0.0
 42
0.0
 43
0.0
 44
0.0
 45
0.0
 46
0.0
 47
0.0
 48
0.0
 49
0.0
140
0.0
141
0.0
142
1.0
143
1.0
 70
  1712
 72
     0
 73
     0
 74
     0
  7

 75
     0
147
1.0
 76
     0
 77
     2
 78
   300
148
0.0
149
0.0
100
AcDbLayout
  1
Model
 70
     1
 71
     0
 10
0.0
 20
0.0
 11
12.0
 21
9.0
 12
0.0
 22
0.0
 32
0.0
 14
0.0
 24
0.0
 34
0.0
 15
0.0
 25
0.0
 35
0.0
146
0.0
 13
0.0
 23
0.0
 33
0.0
 16
1.0
 26
0.0
 36
0.0
 17
0.0
 27
1.0
 37
0.0
 76
     0
330
71
  0
MATERIAL
  5
19
102
{ACAD_XDICTIONARY
360
1A
102
}
102
{ACAD_REACTORS
330
10
102
}
330
10
100
AcDbMaterial
  1
ByBlock
 72
     0
 43
0.0208333333333333
 43
0.0
 43
0.0
 43
0.0
 43
0.0
 43
0.0208333333333333
 43
0.0
 43
0.0
 43
0.0
 43
0.0
 43
1.0
 43
0.0
 43
0.0
 43
0.0
 43
0.0
 43
1.0
 77
     0
 47
0.0208333333333333
 47
0.0
 47
0.0
 47
0.0
 47
0.0
 47
0.0208333333333333
 47
0.0
 47
0.0
 47
0.0
 47
0.0
 47
1.0
 47
0.0
 47
0.0
 47
0.0
 47
0.0
 47
1.0
171
     0
 49
0.0208333333333333
 49
0.0
 49
0.0
 49
0.0
 49
0.0
 49
0.0208333333333333
 49
0.0
 49
0.0
 49
0.0
 49
0.0
 49
1.0
 49
0.0
 49
0.0
 49
0.0
 49
0.0
 49
1.0
175
     0
142
0.0208333333333333
142
0.0
142
0.0
142
0.0
142
0.0
142
0.0208333333333333
142
0.0
142
0.0
142
0.0
142
0.0
142
1.0
142
0.0
142
0.0
142
0.0
142
0.0
142
1.0
179
     0
144
0.0208333333333333
144
0.0
144
0.0
144
0.0
144
0.0
144
0.0208333333333333
144
0.0
144
0.0
144
0.0
144
0.0
144
1.0
144
0.0
144
0.0
144
0.0
144
0.0
144
1.0
147
0.0208333333333333
147
0.0
147
0.0
147
0.0
147
0.0
147
0.0208333333333333
147
0.0
147
0.0
147
0.0
147
0.0
147
1.0
147
0.0
147
0.0
147
0.0
147
0.0
147
1.0
  0
MATERIAL
  5
11
102
{ACAD_XDICTIONARY
360
12
102
}
102
{ACAD_REACTORS
330
10
102
}
330
10
100
AcDbMaterial
  1
ByLayer
 72
     0
 43
0.0208333333333333
 43
0.0
 43
0.0
 43
0.0
 43
0.0
 43
0.0208333333333333
 43
0.0
 43
0.0
 43
0.0
 43
0.0
 43
1.0
 43
0.0
 43
0.0
 43
0.0
 43
0.0
 43
1.0
 77
     0
 47
0.0208333333333333
 47
0.0
 47
0.0
 47
0.0
 47
0.0
 47
0.0208333333333333
 47
0.0
 47
0.0
 47
0.0
 47
0.0
 47
1.0
 47
0.0
 47
0.0
 47
0.0
 47
0.0
 47
1.0
171
     0
 49
0.0208333333333333
 49
0.0
 49
0.0
 49
0.0
 49
0.0
 49
0.0208333333333333
 49
0.0
 49
0.0
 49
0.0
 49
0.0
 49
1.0
 49
0.0
 49
0.0
 49
0.0
 49
0.0
 49
1.0
175
     0
142
0.0208333333333333
142
0.0
142
0.0
142
0.0
142
0.0
142
0.0208333333333333
142
0.0
142
0.0
142
0.0
142
0.0
142
1.0
142
0.0
142
0.0
142
0.0
142
0.0
142
1.0
179
     0
144
0.0208333333333333
144
0.0
144
0.0
144
0.0
144
0.0
144
0.0208333333333333
144
0.0
144
0.0
144
0.0
144
0.0
144
1.0
144
0.0
144
0.0
144
0.0
144
0.0
144
1.0
147
0.0208333333333333
147
0.0
147
0.0
147
0.0
147
0.0
147
0.0208333333333333
147
0.0
147
0.0
147
0.0
147
0.0
147
1.0
147
0.0
147
0.0
147
0.0
147
0.0
147
1.0
  0
MATERIAL
  5
21
102
{ACAD_XDICTIONARY
360
22
102
}
102
{ACAD_REACTORS
330
10
102
}
330
10
100
AcDbMaterial
  1
Global
 72
     0
 43
0.0208333333333333
 43
0.0
 43
0.0
 43
0.0
 43
0.0
 43
0.0208333333333333
 43
0.0
 43
0.0
 43
0.0
 43
0.0
 43
1.0
 43
0.0
 43
0.0
 43
0.0
 43
0.0
 43
1.0
 77
     0
 47
0.0208333333333333
 47
0.0
 47
0.0
 47
0.0
 47
0.0
 47
0.0208333333333333
 47
0.0
 47
0.0
 47
0.0
 47
0.0
 47
1.0
 47
0.0
 47
0.0
 47
0.0
 47
0.0
 47
1.0
171
     0
 49
0.0208333333333333
 49
0.0
 49
0.0
 49
0.0
 49
0.0
 49
0.0208333333333333
 49
0.0
 49
0.0
 49
0.0
 49
0.0
 49
1.0
 49
0.0
 49
0.0
 49
0.0
 49
0.0
 49
1.0
175
     0
142
0.0208333333333333
142
0.0
142
0.0
142
0.0
142
0.0
142
0.0208333333333333
142
0.0
142
0.0
142
0.0
142
0.0
142
1.0
142
0.0
142
0.0
142
0.0
142
0.0
142
1.0
179
     0
144
0.0208333333333333
144
0.0
144
0.0
144
0.0
144
0.0
144
0.0208333333333333
144
0.0
144
0.0
144
0.0
144
0.0
144
1.0
144
0.0
144
0.0
144
0.0
144
0.0
144
1.0
147
0.0208333333333333
147
0.0
147
0.0
147
0.0
147
0.0
147
0.0208333333333333
147
0.0
147
0.0
147
0.0
147
0.0
147
1.0
147
0.0
147
0.0
147
0.0
147
0.0
147
1.0
  0
MLEADERSTYLE
  5
67
102
{ACAD_REACTORS
330
66
102
}
330
66
100
AcDbMLeaderStyle
179
     2
170
     2
171
     1
172
     0
 90
        2
 40
0.0
 41
0.0
173
     1
 91
-1056964608
340
5B
 92
       -2
290
     1
 42
0.09
291
     1
 43
0.36
  3
Standard
 44
0.18
300

342
55
174
     1
178
     6
175
     1
176
     0
 93
-1056964608
 45
0.18
292
     0
297
     0
 46
0.18
 94
-1056964608
 47
1.0
 49
1.0
140
1.0
293
     1
141
0.0
294
     1
177
     0
142
1.0
295
     1
296
     0
143
0.125
271
     0
272
     9
273
     9
298
     1
  0
MLINESTYLE
  5
60
102
{ACAD_REACTORS
330
5F
102
}
330
5F
100
AcDbMlineStyle
  2
STANDARD
 70
     0
  3

 62
   256
 51
90.0
 52
90.0
 71
     2
 49
0.5
 62
   256
  6
BYLAYER
 49
-0.5
 62
   256
  6
BYLAYER
  0
ACDBPLACEHOLDER
  5
F
102
{ACAD_REACTORS
330
E
102
}
330
E
  0
SCALE
  5
43
102
{ACAD_REACTORS
330
42
102
}
330
42
100
AcDbScale
 70
     0
300
1:1
140
1.0
141
1.0
290
     1
  0
SCALE
  5
44
102
{ACAD_REACTORS
330
42
102
}
330
42
100
AcDbScale
 70
     0
300
1/128" = 1'-0"
140
0.0078125
141
12.0
290
     0
  0
SCALE
  5
45
102
{ACAD_REACTORS
330
42
102
}
330
42
100
AcDbScale
 70
     0
300
1/64" = 1'-0"
140
0.015625
141
12.0
290
     0
  0
SCALE
  5
46
102
{ACAD_REACTORS
330
42
102
}
330
42
100
AcDbScale
 70
     0
300
1/32" = 1'-0"
140
0.03125
141
12.0
290
     0
  0
SCALE
  5
47
102
{ACAD_REACTORS
330
42
102
}
330
42
100
AcDbScale
 70
     0
300
1/16" = 1'-0"
140
0.0625
141
12.0
290
     0
  0
SCALE
  5
48
102
{ACAD_REACTORS
330
42
102
}
330
42
100
AcDbScale
 70
     0
300
3/32" = 1'-0"
140
0.09375
141
12.0
290
     0
  0
SCALE
  5
49
102
{ACAD_REACTORS
330
42
102
}
330
42
100
AcDbScale
 70
     0
300
1/8" = 1'-0"
140
0.125
141
12.0
290
     0
  0
SCALE
  5
4A
102
{ACAD_REACTORS
330
42
102
}
330
42
100
AcDbScale
 70
     0
300
3/16" = 1'-0"
140
0.1875
141
12.0
290
     0
  0
SCALE
  5
4B
102
{ACAD_REACTORS
330
42
102
}
330
42
100
AcDbScale
 70
     0
300
1/4" = 1'-0"
140
0.25
141
12.0
290
     0
  0
SCALE
  5
4C
102
{ACAD_REACTORS
330
42
102
}
330
42
100
AcDbScale
 70
     0
300
3/8" = 1'-0"
140
0.375
141
12.0
290
     0
  0
SCALE
  5
4D
102
{ACAD_REACTORS
330
42
102
}
330
42
100
AcDbScale
 70
     0
300
1/2" = 1'-0"
140
0.5
141
12.0
290
     0
  0
SCALE
  5
4E
102
{ACAD_REACTORS
330
42
102
}
330
42
100
AcDbScale
 70
     0
300
3/4" = 1'-0"
140
0.75
141
12.0
290
     0
  0
SCALE
  5
4F
102
{ACAD_REACTORS
330
42
102
}
330
42
100
AcDbScale
 70
     0
300
1" = 1'-0"
140
1.0
141
12.0
290
     0
  0
SCALE
  5
50
102
{ACAD_REACTORS
330
42
102
}
330
42
100
AcDbScale
 70
     0
300
1-1/2" = 1'-0"
140
1.5
141
12.0
290
     0
  0
SCALE
  5
51
102
{ACAD_REACTORS
330
42
102
}
330
42
100
AcDbScale
 70
     0
300
3" = 1'-0"
140
3.0
141
12.0
290
     0
  0
SCALE
  5
52
102
{ACAD_REACTORS
330
42
102
}
330
42
100
AcDbScale
 70
     0
300
6" = 1'-0"
140
6.0
141
12.0
290
     0
  0
SCALE
  5
53
102
{ACAD_REACTORS
330
42
102
}
330
42
100
AcDbScale
 70
     0
300
1'-0" = 1'-0"
140
12.0
141
12.0
290
     0
  0
ACDBSECTIONVIEWSTYLE
  5
6A
102
{ACAD_REACTORS
330
68
102
}
330
68
100
AcDbModelDocViewStyle
 70
     0
  3
Imperial24
290
     1
100
AcDbSectionViewStyle
 70
     0
 71
     0
 90
       78
 71
     1
340
55
 62
   256
 40
0.24
340
0
340
0
 62
   256
 40
0.24
300
I, O, Q, S, X, Z
 40
0.48
 90
        3
 40
0.18
 90
        1
 71
     2
340
69
 90
       25
 62
   256
340
5D
 90
       50
 62
   256
 40
0.24
 40
0.0
 40
0.24
 71
     3
340
55
 62
   256
 40
0.24
 90
        1
 40
0.75
 90
        1
300
%<\AcVar ViewType \f "%tc1">% %<\AcVar ViewSectionStartId>%-%<\AcVar ViewSectionEndId>%\PSCALA %<\AcVar ViewScale \f "%sn">%
 71
     4
 62
   256
 62
   257
300
ANSI31
 40
1.0
 90
        0
290
     0
290
     0
 90
        6
 40
0.0
 40
1.570796326794896
 40
0.2617993877991494
 40
1.308996938995747
 40
-0.2617993877991494
 40
1.832595714594046
  0
TABLESTYLE
  5
65
102
{ACAD_XDICTIONARY
360
30E
102
}
102
{ACAD_REACTORS
330
64
102
}
330
64
100
AcDbTableStyle
280
     0
  3
Standard
 70
     0
 71
     0
 40
0.06
 41
0.06
280
     0
281
     0
  7
Standard
140
0.18
170
     2
 62
     0
 63
     7
283
     0
 90
      512
 91
        0
  1

274
    -2
284
     1
 64
     0
275
    -2
285
     1
 65
     0
276
    -2
286
     1
 66
     0
277
    -2
287
     1
 67
     0
278
    -2
288
     1
 68
     0
279
    -2
289
     1
 69
     0
  7
Standard
140
0.25
170
     5
 62
     0
 63
     7
283
     0
 90
      512
 91
        0
  1

274
    -2
284
     1
 64
     0
275
    -2
285
     1
 65
     0
276
    -2
286
     1
 66
     0
277
    -2
287
     1
 67
     0
278
    -2
288
     1
 68
     0
279
    -2
289
     1
 69
     0
  7
Standard
140
0.18
170
     5
 62
     0
 63
     7
283
     0
 90
      512
 91
        0
  1

274
    -2
284
     1
 64
     0
275
    -2
285
     1
 65
     0
276
    -2
286
     1
 66
     0
277
    -2
287
     1
 67
     0
278
    -2
288
     1
 68
     0
279
    -2
289
     1
 69
     0
  0
VISUALSTYLE
  5
2F
102
{ACAD_REACTORS
330
29
102
}
330
29
100
AcDbVisualStyle
  2
2dWireframe
 70
     4
177
     3
291
     0
 70
    58
 90
        0
176
     1
 90
        2
176
     1
 90
        0
176
     1
 90
        0
176
     1
 40
0.6
176
     1
 40
30.0
176
     1
 62
     7
420
 16777215
176
     1
 90
        1
176
     1
 90
        4
176
     1
 62
     7
176
     1
 62
   257
176
     1
 90
        1
176
     1
 90
        1
176
     1
 40
1.0
176
     1
 90
        0
176
     1
 62
   257
176
     1
 40
1.0
176
     1
 90
        1
176
     1
 90
        6
176
     1
 90
        2
176
     1
 62
     7
176
     1
 90
        5
176
     1
 90
        0
176
     1
 90
        0
176
     1
290
     0
176
     1
 90
        1
176
     1
 40
0.0
176
     1
 90
        0
176
     1
290
     1
176
     1
290
     1
176
     1
290
     0
176
     1
290
     0
176
     1
290
     0
176
     1
290
     0
176
     1
290
     0
176
     1
290
     0
176
     1
290
     0
176
     1
 90
       50
176
     1
 40
0.0
176
     1
 40
1.0
176
     1
 90
        0
176
     1
 62
    18
420
        0
176
     1
 90
       50
176
     1
 90
        3
176
     1
 62
     5
420
      255
176
     1
290
     0
176
     1
 90
       50
176
     1
 90
       50
176
     1
 90
       50
176
     1
290
     0
176
     1
 90
       50
176
     1
 62
   256
176
     0
 40
1.0
176
     0
 90
        2
176
     1
  1
strokes_ogs.tif
176
     1
290
     0
176
     1
 40
1.0
176
     1
 40
1.0
176
     1
  0
VISUALSTYLE
  5
2E
102
{ACAD_REACTORS
330
29
102
}
330
29
100
AcDbVisualStyle
  2
Basic
 70
     7
177
     3
291
     1
 70
    58
 90
        1
176
     1
 90
        0
176
     1
 90
        1
176
     1
 90
        0
176
     1
 40
0.6
176
     1
 40
30.0
176
     1
 62
     7
420
 16777215
176
     1
 90
        0
176
     1
 90
        4
176
     1
 62
     7
176
     1
 62
   257
176
     1
 90
        1
176
     1
 90
        1
176
     1
 40
1.0
176
     1
 90
        8
176
     1
 62
     7
176
     1
 40
1.0
176
     1
 90
        1
176
     1
 90
        6
176
     1
 90
        2
176
     1
 62
     7
176
     1
 90
        5
176
     1
 90
        0
176
     1
 90
        0
176
     1
290
     0
176
     1
 90
        1
176
     1
 40
0.0
176
     1
 90
        0
176
     1
290
     0
176
     1
290
     1
176
     1
290
     1
176
     1
290
     0
176
     1
290
     0
176
     1
290
     0
176
     1
290
     0
176
     1
290
     0
176
     1
290
     0
176
     1
 90
       50
176
     1
 40
0.0
176
     1
 40
1.0
176
     1
 90
        0
176
     1
 62
    18
420
        0
176
     1
 90
       50
176
     1
 90
        3
176
     1
 62
     5
420
      255
176
     1
290
     0
176
     1
 90
       50
176
     1
 90
       50
176
     1
 90
       50
176
     1
290
     0
176
     1
 90
       50
176
     1
 62
   256
176
     0
 40
1.0
176
     0
 90
        2
176
     1
  1
strokes_ogs.tif
176
     1
290
     0
176
     1
 40
1.0
176
     1
 40
1.0
176
     1
  0
VISUALSTYLE
  5
35
102
{ACAD_REACTORS
330
29
102
}
330
29
100
AcDbVisualStyle
  2
Brighten
 70
    12
177
     3
291
     1
 70
    58
 90
        2
176
     1
 90
        2
176
     1
 90
        0
176
     1
 90
        0
176
     1
 40
0.6
176
     1
 40
30.0
176
     1
 62
     7
420
 16777215
176
     1
 90
        1
176
     1
 90
        4
176
     1
 62
     7
176
     1
 62
   257
176
     1
 90
        1
176
     1
 90
        1
176
     1
 40
1.0
176
     1
 90
        8
176
     1
 62
     7
176
     1
 40
1.0
176
     1
 90
        1
176
     1
 90
        6
176
     1
 90
        2
176
     1
 62
     7
176
     1
 90
        5
176
     1
 90
        0
176
     1
 90
        0
176
     1
290
     0
176
     1
 90
        1
176
     1
 40
50.0
176
     1
 90
        0
176
     1
290
     0
176
     1
290
     1
176
     1
290
     1
176
     1
290
     0
176
     1
290
     0
176
     1
290
     0
176
     1
290
     0
176
     1
290
     0
176
     1
290
     0
176
     1
 90
       50
176
     1
 40
0.0
176
     1
 40
1.0
176
     1
 90
        0
176
     1
 62
    18
420
        0
176
     1
 90
       50
176
     1
 90
        3
176
     1
 62
     5
420
      255
176
     1
290
     0
176
     1
 90
       50
176
     1
 90
       50
176
     1
 90
       50
176
     1
290
     0
176
     1
 90
       50
176
     1
 62
   256
176
     0
 40
1.0
176
     0
 90
        2
176
     1
  1
strokes_ogs.tif
176
     1
290
     0
176
     1
 40
1.0
176
     1
 40
1.0
176
     1
  0
VISUALSTYLE
  5
39
102
{ACAD_REACTORS
330
29
102
}
330
29
100
AcDbVisualStyle
  2
ColorChange
 70
    16
177
     3
291
     1
 70
    58
 90
        2
176
     1
 90
        2
176
     1
 90
        3
176
     1
 90
        0
176
     1
 40
0.6
176
     1
 40
30.0
176
     1
 62
     8
420
  8421504
176
     1
 90
        1
176
     1
 90
        4
176
     1
 62
     7
176
     1
 62
   257
176
     1
 90
        1
176
     1
 90
        1
176
     1
 40
1.0
176
     1
 90
        8
176
     1
 62
     8
420
  8421504
176
     1
 40
1.0
176
     1
 90
        1
176
     1
 90
        6
176
     1
 90
        2
176
     1
 62
     7
176
     1
 90
        5
176
     1
 90
        0
176
     1
 90
        0
176
     1
290
     0
176
     1
 90
        1
176
     1
 40
0.0
176
     1
 90
        0
176
     1
290
     0
176
     1
290
     1
176
     1
290
     1
176
     1
290
     0
176
     1
290
     0
176
     1
290
     0
176
     1
290
     0
176
     1
290
     0
176
     1
290
     0
176
     1
 90
       50
176
     1
 40
0.0
176
     1
 40
1.0
176
     1
 90
        0
176
     1
 62
    18
420
        0
176
     1
 90
       50
176
     1
 90
        3
176
     1
 62
     5
420
      255
176
     1
290
     0
176
     1
 90
       50
176
     1
 90
       50
176
     1
 90
       50
176
     1
290
     0
176
     1
 90
       50
176
     1
 62
   256
176
     0
 40
1.0
176
     0
 90
        2
176
     1
  1
strokes_ogs.tif
176
     1
290
     0
176
     1
 40
1.0
176
     1
 40
1.0
176
     1
  0
VISUALSTYLE
  5
32
102
{ACAD_REACTORS
330
29
102
}
330
29
100
AcDbVisualStyle
  2
Conceptual
 70
     9
177
     3
291
     0
 70
    58
 90
        3
176
     1
 90
        2
176
     1
 90
        0
176
     1
 90
        0
176
     1
 40
0.6
176
     1
 40
30.0
176
     1
 62
     7
420
 16777215
176
     1
 90
        2
176
     1
 90
        2
176
     1
 62
     7
176
     1
 62
   257
176
     1
 90
        1
176
     1
 90
        1
176
     1
 40
179.0
176
     1
 90
        8
176
     1
 62
     7
176
     1
 40
1.0
176
     1
 90
        1
176
     1
 90
        6
176
     1
 90
        2
176
     1
 62
     7
176
     1
 90
        3
176
     1
 90
        0
176
     1
 90
        0
176
     1
290
     0
176
     1
 90
        1
176
     1
 40
0.0
176
     1
 90
        0
176
     1
290
     0
176
     1
290
     1
176
     1
290
     1
176
     1
290
     0
176
     1
290
     0
176
     1
290
     0
176
     1
290
     0
176
     1
290
     0
176
     1
290
     0
176
     1
 90
       50
176
     1
 40
0.0
176
     1
 40
1.0
176
     1
 90
        0
176
     1
 62
    18
420
        0
176
     1
 90
       50
176
     1
 90
        3
176
     1
 62
     5
420
      255
176
     1
290
     0
176
     1
 90
       50
176
     1
 90
       50
176
     1
 90
       50
176
     1
290
     0
176
     1
 90
       50
176
     1
 62
   256
176
     0
 40
1.0
176
     0
 90
        2
176
     1
  1
strokes_ogs.tif
176
     1
290
     0
176
     1
 40
1.0
176
     1
 40
1.0
176
     1
  0
VISUALSTYLE
  5
34
102
{ACAD_REACTORS
330
29
102
}
330
29
100
AcDbVisualStyle
  2
Dim
 70
    11
177
     3
291
     1
 70
    58
 90
        2
176
     1
 90
        2
176
     1
 90
        0
176
     1
 90
        0
176
     1
 40
0.6
176
     1
 40
30.0
176
     1
 62
     7
420
 16777215
176
     1
 90
        1
176
     1
 90
        4
176
     1
 62
     7
176
     1
 62
   257
176
     1
 90
        1
176
     1
 90
        1
176
     1
 40
1.0
176
     1
 90
        8
176
     1
 62
     7
176
     1
 40
1.0
176
     1
 90
        1
176
     1
 90
        6
176
     1
 90
        2
176
     1
 62
     7
176
     1
 90
        5
176
     1
 90
        0
176
     1
 90
        0
176
     1
290
     0
176
     1
 90
        1
176
     1
 40
-50.0
176
     1
 90
        0
176
     1
290
     0
176
     1
290
     1
176
     1
290
     1
176
     1
290
     0
176
     1
290
     0
176
     1
290
     0
176
     1
290
     0
176
     1
290
     0
176
     1
290
     0
176
     1
 90
       50
176
     1
 40
0.0
176
     1
 40
1.0
176
     1
 90
        0
176
     1
 62
    18
420
        0
176
     1
 90
       50
176
     1
 90
        3
176
     1
 62
     5
420
      255
176
     1
290
     0
176
     1
 90
       50
176
     1
 90
       50
176
     1
 90
       50
176
     1
290
     0
176
     1
 90
       50
176
     1
 62
   256
176
     0
 40
1.0
176
     0
 90
        2
176
     1
  1
strokes_ogs.tif
176
     1
290
     0
176
     1
 40
1.0
176
     1
 40
1.0
176
     1
  0
VISUALSTYLE
  5
41
102
{ACAD_REACTORS
330
29
102
}
330
29
100
AcDbVisualStyle
  2
EdgeColorOff
 70
    22
177
     3
291
     1
 70
    58
 90
        2
176
     0
 90
        2
176
     0
 90
        0
176
     0
 90
        0
176
     0
 40
0.6
176
     0
 40
30.0
176
     0
 62
     7
420
 16777215
176
     0
 90
        1
176
     0
 90
        4
176
     0
 62
     7
176
     0
 62
   257
176
     0
 90
        1
176
     0
 90
        1
176
     0
 40
1.0
176
     0
 90
        8
176
     2
 62
     7
176
     0
 40
1.0
176
     0
 90
        1
176
     0
 90
        6
176
     0
 90
        2
176
     0
 62
     7
176
     0
 90
        5
176
     0
 90
        0
176
     0
 90
        0
176
     0
290
     0
176
     0
 90
        1
176
     0
 40
0.0
176
     0
 90
        0
176
     0
290
     0
176
     0
290
     1
176
     0
290
     1
176
     0
290
     0
176
     0
290
     0
176
     0
290
     0
176
     0
290
     0
176
     0
290
     0
176
     0
290
     0
176
     0
 90
       50
176
     0
 40
0.0
176
     0
 40
1.0
176
     0
 90
        0
176
     0
 62
    18
420
        0
176
     0
 90
       50
176
     0
 90
        3
176
     0
 62
     5
420
      255
176
     0
290
     0
176
     0
 90
       50
176
     0
 90
       50
176
     0
 90
       50
176
     0
290
     0
176
     0
 90
       50
176
     0
 62
   256
176
     0
 40
1.0
176
     0
 90
        2
176
     0
  1
strokes_ogs.tif
176
     0
290
     0
176
     0
 40
1.0
176
     0
 40
1.0
176
     0
  0
VISUALSTYLE
  5
38
102
{ACAD_REACTORS
330
29
102
}
330
29
100
AcDbVisualStyle
  2
Facepattern
 70
    15
177
     3
291
     1
 70
    58
 90
        2
176
     1
 90
        2
176
     1
 90
        0
176
     1
 90
        0
176
     1
 40
0.6
176
     1
 40
30.0
176
     1
 62
     7
420
 16777215
176
     1
 90
        1
176
     1
 90
        4
176
     1
 62
     7
176
     1
 62
   257
176
     1
 90
        1
176
     1
 90
        1
176
     1
 40
1.0
176
     1
 90
        8
176
     1
 62
     7
176
     1
 40
1.0
176
     1
 90
        1
176
     1
 90
        6
176
     1
 90
        2
176
     1
 62
     7
176
     1
 90
        5
176
     1
 90
        0
176
     1
 90
        0
176
     1
290
     0
176
     1
 90
        1
176
     1
 40
0.0
176
     1
 90
        0
176
     1
290
     0
176
     1
290
     1
176
     1
290
     1
176
     1
290
     0
176
     1
290
     0
176
     1
290
     0
176
     1
290
     0
176
     1
290
     0
176
     1
290
     0
176
     1
 90
       50
176
     1
 40
0.0
176
     1
 40
1.0
176
     1
 90
        0
176
     1
 62
    18
420
        0
176
     1
 90
       50
176
     1
 90
        3
176
     1
 62
     5
420
      255
176
     1
290
     0
176
     1
 90
       50
176
     1
 90
       50
176
     1
 90
       50
176
     1
290
     0
176
     1
 90
       50
176
     1
 62
   256
176
     0
 40
1.0
176
     0
 90
        2
176
     1
  1
strokes_ogs.tif
176
     1
290
     0
176
     1
 40
1.0
176
     1
 40
1.0
176
     1
  0
VISUALSTYLE
  5
2A
102
{ACAD_REACTORS
330
29
102
}
330
29
100
AcDbVisualStyle
  2
Flat
 70
     0
177
     3
291
     1
 70
    58
 90
        2
176
     1
 90
        1
176
     1
 90
        1
176
     1
 90
        2
176
     1
 40
0.6
176
     1
 40
30.0
176
     1
 62
     7
420
 16777215
176
     1
 90
        0
176
     1
 90
        0
176
     1
 62
     7
176
     1
 62
   257
176
     1
 90
        1
176
     1
 90
        1
176
     1
 40
1.0
176
     1
 90
        8
176
     1
 62
     7
176
     1
 40
1.0
176
     1
 90
        1
176
     1
 90
        6
176
     1
 90
        2
176
     1
 62
     7
176
     1
 90
        5
176
     1
 90
        0
176
     1
 90
        0
176
     1
290
     0
176
     1
 90
       13
176
     1
 40
0.0
176
     1
 90
        0
176
     1
290
     0
176
     1
290
     1
176
     1
290
     1
176
     1
290
     0
176
     1
290
     0
176
     1
290
     0
176
     1
290
     0
176
     1
290
     0
176
     1
290
     0
176
     1
 90
       50
176
     1
 40
0.0
176
     1
 40
1.0
176
     1
 90
        0
176
     1
 62
    18
420
        0
176
     1
 90
       50
176
     1
 90
        3
176
     1
 62
     5
420
      255
176
     1
290
     0
176
     1
 90
       50
176
     1
 90
       50
176
     1
 90
       50
176
     1
290
     0
176
     1
 90
       50
176
     1
 62
   256
176
     0
 40
1.0
176
     0
 90
        2
176
     1
  1
strokes_ogs.tif
176
     1
290
     0
176
     1
 40
1.0
176
     1
 40
1.0
176
     1
  0
VISUALSTYLE
  5
2B
102
{ACAD_REACTORS
330
29
102
}
330
29
100
AcDbVisualStyle
  2
FlatWithEdges
 70
     1
177
     3
291
     1
 70
    58
 90
        2
176
     1
 90
        1
176
     1
 90
        1
176
     1
 90
        2
176
     1
 40
0.6
176
     1
 40
30.0
176
     1
 62
     7
420
 16777215
176
     1
 90
        1
176
     1
 90
        0
176
     1
 62
     7
176
     1
 62
   257
176
     1
 90
        1
176
     1
 90
        1
176
     1
 40
1.0
176
     1
 90
        0
176
     1
 62
   257
176
     1
 40
1.0
176
     1
 90
        1
176
     1
 90
        6
176
     1
 90
        2
176
     1
 62
     7
176
     1
 90
        5
176
     1
 90
        0
176
     1
 90
        0
176
     1
290
     0
176
     1
 90
       13
176
     1
 40
0.0
176
     1
 90
        0
176
     1
290
     0
176
     1
290
     1
176
     1
290
     1
176
     1
290
     0
176
     1
290
     0
176
     1
290
     0
176
     1
290
     0
176
     1
290
     0
176
     1
290
     0
176
     1
 90
       50
176
     1
 40
0.0
176
     1
 40
1.0
176
     1
 90
        0
176
     1
 62
    18
420
        0
176
     1
 90
       50
176
     1
 90
        3
176
     1
 62
     5
420
      255
176
     1
290
     0
176
     1
 90
       50
176
     1
 90
       50
176
     1
 90
       50
176
     1
290
     0
176
     1
 90
       50
176
     1
 62
   256
176
     0
 40
1.0
176
     0
 90
        2
176
     1
  1
strokes_ogs.tif
176
     1
290
     0
176
     1
 40
1.0
176
     1
 40
1.0
176
     1
  0
VISUALSTYLE
  5
2C
102
{ACAD_REACTORS
330
29
102
}
330
29
100
AcDbVisualStyle
  2
Gouraud
 70
     2
177
     3
291
     1
 70
    58
 90
        2
176
     1
 90
        2
176
     1
 90
        1
176
     1
 90
        2
176
     1
 40
0.6
176
     1
 40
30.0
176
     1
 62
     7
420
 16777215
176
     1
 90
        0
176
     1
 90
        0
176
     1
 62
     7
176
     1
 62
   257
176
     1
 90
        1
176
     1
 90
        1
176
     1
 40
1.0
176
     1
 90
        0
176
     1
 62
     7
176
     1
 40
1.0
176
     1
 90
        1
176
     1
 90
        6
176
     1
 90
        2
176
     1
 62
     7
176
     1
 90
        5
176
     1
 90
        0
176
     1
 90
        0
176
     1
290
     0
176
     1
 90
       13
176
     1
 40
0.0
176
     1
 90
        0
176
     1
290
     0
176
     1
290
     1
176
     1
290
     1
176
     1
290
     0
176
     1
290
     0
176
     1
290
     0
176
     1
290
     0
176
     1
290
     0
176
     1
290
     0
176
     1
 90
       50
176
     1
 40
0.0
176
     1
 40
1.0
176
     1
 90
        0
176
     1
 62
    18
420
        0
176
     1
 90
       50
176
     1
 90
        3
176
     1
 62
     5
420
      255
176
     1
290
     0
176
     1
 90
       50
176
     1
 90
       50
176
     1
 90
       50
176
     1
290
     0
176
     1
 90
       50
176
     1
 62
   256
176
     0
 40
1.0
176
     0
 90
        2
176
     1
  1
strokes_ogs.tif
176
     1
290
     0
176
     1
 40
1.0
176
     1
 40
1.0
176
     1
  0
VISUALSTYLE
  5
2D
102
{ACAD_REACTORS
330
29
102
}
330
29
100
AcDbVisualStyle
  2
GouraudWithEdges
 70
     3
177
     3
291
     1
 70
    58
 90
        2
176
     1
 90
        2
176
     1
 90
        1
176
     1
 90
        2
176
     1
 40
0.6
176
     1
 40
30.0
176
     1
 62
     7
420
 16777215
176
     1
 90
        1
176
     1
 90
        0
176
     1
 62
     7
176
     1
 62
   257
176
     1
 90
        1
176
     1
 90
        1
176
     1
 40
1.0
176
     1
 90
        0
176
     1
 62
   257
176
     1
 40
1.0
176
     1
 90
        1
176
     1
 90
        6
176
     1
 90
        2
176
     1
 62
     7
176
     1
 90
        5
176
     1
 90
        0
176
     1
 90
        0
176
     1
290
     0
176
     1
 90
       13
176
     1
 40
0.0
176
     1
 90
        0
176
     1
290
     0
176
     1
290
     1
176
     1
290
     1
176
     1
290
     0
176
     1
290
     0
176
     1
290
     0
176
     1
290
     0
176
     1
290
     0
176
     1
290
     0
176
     1
 90
       50
176
     1
 40
0.0
176
     1
 40
1.0
176
     1
 90
        0
176
     1
 62
    18
420
        0
176
     1
 90
       50
176
     1
 90
        3
176
     1
 62
     5
420
      255
176
     1
290
     0
176
     1
 90
       50
176
     1
 90
       50
176
     1
 90
       50
176
     1
290
     0
176
     1
 90
       50
176
     1
 62
   256
176
     0
 40
1.0
176
     0
 90
        2
176
     1
  1
strokes_ogs.tif
176
     1
290
     0
176
     1
 40
1.0
176
     1
 40
1.0
176
     1
  0
VISUALSTYLE
  5
31
102
{ACAD_REACTORS
330
29
102
}
330
29
100
AcDbVisualStyle
  2
Hidden
 70
     6
177
     3
291
     0
 70
    58
 90
        1
176
     1
 90
        2
176
     1
 90
        2
176
     1
 90
        0
176
     1
 40
0.6
176
     1
 40
30.0
176
     1
 62
     7
420
 16777215
176
     1
 90
        2
176
     1
 90
        2
176
     1
 62
     7
176
     1
 62
   257
176
     1
 90
        2
176
     1
 90
        1
176
     1
 40
40.0
176
     1
 90
        0
176
     1
 62
   257
176
     1
 40
1.0
176
     1
 90
        1
176
     1
 90
        6
176
     1
 90
        2
176
     1
 62
     7
176
     1
 90
        3
176
     1
 90
        0
176
     1
 90
        0
176
     1
290
     0
176
     1
 90
        1
176
     1
 40
0.0
176
     1
 90
        0
176
     1
290
     0
176
     1
290
     1
176
     1
290
     1
176
     1
290
     0
176
     1
290
     0
176
     1
290
     0
176
     1
290
     0
176
     1
290
     0
176
     1
290
     0
176
     1
 90
       50
176
     1
 40
0.0
176
     1
 40
1.0
176
     1
 90
        0
176
     1
 62
    18
420
        0
176
     1
 90
       50
176
     1
 90
        3
176
     1
 62
     5
420
      255
176
     1
290
     0
176
     1
 90
       50
176
     1
 90
       50
176
     1
 90
       50
176
     1
290
     0
176
     1
 90
       50
176
     1
 62
   256
176
     0
 40
1.0
176
     0
 90
        2
176
     1
  1
strokes_ogs.tif
176
     1
290
     0
176
     1
 40
1.0
176
     1
 40
1.0
176
     1
  0
VISUALSTYLE
  5
3F
102
{ACAD_REACTORS
330
29
102
}
330
29
100
AcDbVisualStyle
  2
JitterOff
 70
    20
177
     3
291
     1
 70
    58
 90
        2
176
     0
 90
        2
176
     0
 90
        0
176
     0
 90
        0
176
     0
 40
0.6
176
     0
 40
30.0
176
     0
 62
     7
420
 16777215
176
     0
 90
        1
176
     0
 90
        4
176
     0
 62
     7
176
     0
 62
   257
176
     0
 90
        1
176
     0
 90
        1
176
     0
 40
1.0
176
     0
 90
       10
176
     2
 62
     7
176
     0
 40
1.0
176
     0
 90
        1
176
     0
 90
        6
176
     0
 90
        2
176
     0
 62
     7
176
     0
 90
        5
176
     0
 90
        0
176
     0
 90
        0
176
     0
290
     0
176
     0
 90
        1
176
     0
 40
0.0
176
     0
 90
        0
176
     0
290
     0
176
     0
290
     1
176
     0
290
     1
176
     0
290
     0
176
     0
290
     0
176
     0
290
     0
176
     0
290
     0
176
     0
290
     0
176
     0
290
     0
176
     0
 90
       50
176
     0
 40
0.0
176
     0
 40
1.0
176
     0
 90
        0
176
     0
 62
    18
420
        0
176
     0
 90
       50
176
     0
 90
        3
176
     0
 62
     5
420
      255
176
     0
290
     0
176
     0
 90
       50
176
     0
 90
       50
176
     0
 90
       50
176
     0
290
     0
176
     0
 90
       50
176
     0
 62
   256
176
     0
 40
1.0
176
     0
 90
        2
176
     0
  1
strokes_ogs.tif
176
     0
290
     0
176
     0
 40
1.0
176
     0
 40
1.0
176
     0
  0
VISUALSTYLE
  5
37
102
{ACAD_REACTORS
330
29
102
}
330
29
100
AcDbVisualStyle
  2
Linepattern
 70
    14
177
     3
291
     1
 70
    58
 90
        2
176
     1
 90
        2
176
     1
 90
        0
176
     1
 90
        0
176
     1
 40
0.6
176
     1
 40
30.0
176
     1
 62
     7
420
 16777215
176
     1
 90
        1
176
     1
 90
        4
176
     1
 62
     7
176
     1
 62
   257
176
     1
 90
        7
176
     1
 90
        7
176
     1
 40
1.0
176
     1
 90
        8
176
     1
 62
     7
176
     1
 40
1.0
176
     1
 90
        1
176
     1
 90
        6
176
     1
 90
        2
176
     1
 62
     7
176
     1
 90
        5
176
     1
 90
        0
176
     1
 90
        0
176
     1
290
     0
176
     1
 90
        1
176
     1
 40
0.0
176
     1
 90
        0
176
     1
290
     0
176
     1
290
     1
176
     1
290
     1
176
     1
290
     0
176
     1
290
     0
176
     1
290
     0
176
     1
290
     0
176
     1
290
     0
176
     1
290
     0
176
     1
 90
       50
176
     1
 40
0.0
176
     1
 40
1.0
176
     1
 90
        0
176
     1
 62
    18
420
        0
176
     1
 90
       50
176
     1
 90
        3
176
     1
 62
     5
420
      255
176
     1
290
     0
176
     1
 90
       50
176
     1
 90
       50
176
     1
 90
       50
176
     1
290
     0
176
     1
 90
       50
176
     1
 62
   256
176
     0
 40
1.0
176
     0
 90
        2
176
     1
  1
strokes_ogs.tif
176
     1
290
     0
176
     1
 40
1.0
176
     1
 40
1.0
176
     1
  0
VISUALSTYLE
  5
40
102
{ACAD_REACTORS
330
29
102
}
330
29
100
AcDbVisualStyle
  2
OverhangOff
 70
    21
177
     3
291
     1
 70
    58
 90
        2
176
     0
 90
        2
176
     0
 90
        0
176
     0
 90
        0
176
     0
 40
0.6
176
     0
 40
30.0
176
     0
 62
     7
420
 16777215
176
     0
 90
        1
176
     0
 90
        4
176
     0
 62
     7
176
     0
 62
   257
176
     0
 90
        1
176
     0
 90
        1
176
     0
 40
1.0
176
     0
 90
        9
176
     2
 62
     7
176
     0
 40
1.0
176
     0
 90
        1
176
     0
 90
        6
176
     0
 90
        2
176
     0
 62
     7
176
     0
 90
        5
176
     0
 90
        0
176
     0
 90
        0
176
     0
290
     0
176
     0
 90
        1
176
     0
 40
0.0
176
     0
 90
        0
176
     0
290
     0
176
     0
290
     1
176
     0
290
     1
176
     0
290
     0
176
     0
290
     0
176
     0
290
     0
176
     0
290
     0
176
     0
290
     0
176
     0
290
     0
176
     0
 90
       50
176
     0
 40
0.0
176
     0
 40
1.0
176
     0
 90
        0
176
     0
 62
    18
420
        0
176
     0
 90
       50
176
     0
 90
        3
176
     0
 62
     5
420
      255
176
     0
290
     0
176
     0
 90
       50
176
     0
 90
       50
176
     0
 90
       50
176
     0
290
     0
176
     0
 90
       50
176
     0
 62
   256
176
     0
 40
1.0
176
     0
 90
        2
176
     0
  1
strokes_ogs.tif
176
     0
290
     0
176
     0
 40
1.0
176
     0
 40
1.0
176
     0
  0
VISUALSTYLE
  5
33
102
{ACAD_REACTORS
330
29
102
}
330
29
100
AcDbVisualStyle
  2
Realistic
 70
     8
177
     3
291
     0
 70
    58
 90
        2
176
     1
 90
        3
176
     1
 90
        0
176
     1
 90
        2
176
     1
 40
0.6
176
     1
 40
30.0
176
     1
 62
     7
420
 16777215
176
     1
 90
        0
176
     1
 90
        0
176
     1
 62
     7
176
     1
 62
   257
176
     1
 90
        1
176
     1
 90
        1
176
     1
 40
1.0
176
     1
 90
        8
176
     1
 62
   257
176
     1
 40
1.0
176
     1
 90
        1
176
     1
 90
        6
176
     1
 90
        2
176
     1
 62
     7
176
     1
 90
        3
176
     1
 90
        0
176
     1
 90
        0
176
     1
290
     0
176
     1
 90
       13
176
     1
 40
0.0
176
     1
 90
        0
176
     1
290
     0
176
     1
290
     1
176
     1
290
     1
176
     1
290
     0
176
     1
290
     0
176
     1
290
     0
176
     1
290
     0
176
     1
290
     0
176
     1
290
     0
176
     1
 90
       50
176
     1
 40
0.0
176
     1
 40
1.0
176
     1
 90
        0
176
     1
 62
    18
420
        0
176
     1
 90
       50
176
     1
 90
        3
176
     1
 62
     5
420
      255
176
     1
290
     0
176
     1
 90
       50
176
     1
 90
       50
176
     1
 90
       50
176
     1
290
     0
176
     1
 90
       50
176
     1
 62
   256
176
     0
 40
1.0
176
     0
 90
        2
176
     1
  1
strokes_ogs.tif
176
     1
290
     0
176
     1
 40
1.0
176
     1
 40
1.0
176
     1
  0
VISUALSTYLE
  5
3E
102
{ACAD_REACTORS
330
29
102
}
330
29
100
AcDbVisualStyle
  2
Shaded
 70
    27
177
     3
291
     0
 70
    58
 90
        2
176
     1
 90
        2
176
     1
 90
        1
176
     1
 90
        2
176
     1
 40
0.6
176
     1
 40
30.0
176
     1
 62
     7
420
 16777215
176
     1
 90
        0
176
     1
 90
        4
176
     1
 62
     7
176
     1
 62
   257
176
     1
 90
        1
176
     1
 90
        1
176
     1
 40
1.0
176
     1
 90
        8
176
     1
 62
   257
176
     1
 40
1.0
176
     1
 90
        1
176
     1
 90
        6
176
     1
 90
        2
176
     1
 62
     8
420
  7895160
176
     1
 90
        3
176
     1
 90
        0
176
     1
 90
        0
176
     1
290
     0
176
     1
 90
        5
176
     1
 40
0.0
176
     1
 90
        0
176
     1
290
     0
176
     1
290
     1
176
     1
290
     1
176
     1
290
     0
176
     1
290
     0
176
     1
290
     0
176
     1
290
     0
176
     1
290
     0
176
     1
290
     0
176
     1
 90
       50
176
     1
 40
0.0
176
     1
 40
1.0
176
     1
 90
        0
176
     1
 62
    18
420
        0
176
     1
 90
       50
176
     1
 90
        3
176
     1
 62
     5
420
      255
176
     1
290
     0
176
     1
 90
       50
176
     1
 90
       50
176
     1
 90
       50
176
     1
290
     0
176
     1
 90
       50
176
     1
 62
   256
176
     0
 40
1.0
176
     0
 90
        2
176
     1
  1
strokes_ogs.tif
176
     1
290
     0
176
     1
 40
1.0
176
     1
 40
1.0
176
     1
  0
VISUALSTYLE
  5
3D
102
{ACAD_REACTORS
330
29
102
}
330
29
100
AcDbVisualStyle
  2
Shaded with edges
 70
    26
177
     3
291
     0
 70
    58
 90
        2
176
     1
 90
        2
176
     1
 90
        1
176
     1
 90
        2
176
     1
 40
0.6
176
     1
 40
30.0
176
     1
 62
     7
420
 16777215
176
     1
 90
        1
176
     1
 90
       10
176
     1
 62
     7
176
     1
 62
   257
176
     1
 90
        2
176
     1
 90
        1
176
     1
 40
1.0
176
     1
 90
        8
176
     1
 62
   257
176
     1
 40
1.0
176
     1
 90
        1
176
     1
 90
        6
176
     1
 90
        2
176
     1
 62
     7
176
     1
 90
        3
176
     1
 90
        0
176
     1
 90
        0
176
     1
290
     0
176
     1
 90
        5
176
     1
 40
0.0
176
     1
 90
        0
176
     1
290
     0
176
     1
290
     1
176
     1
290
     1
176
     1
290
     0
176
     1
290
     0
176
     1
290
     0
176
     1
290
     0
176
     1
290
     0
176
     1
290
     0
176
     1
 90
       50
176
     1
 40
0.0
176
     1
 40
1.0
176
     1
 90
        0
176
     1
 62
    18
420
        0
176
     1
 90
       50
176
     1
 90
        3
176
     1
 62
     5
420
      255
176
     1
290
     0
176
     1
 90
       50
176
     1
 90
       50
176
     1
 90
       50
176
     1
290
     0
176
     1
 90
       50
176
     1
 62
   256
176
     0
 40
1.0
176
     0
 90
        2
176
     1
  1
strokes_ogs.tif
176
     1
290
     0
176
     1
 40
1.0
176
     1
 40
1.0
176
     1
  0
VISUALSTYLE
  5
3A
102
{ACAD_REACTORS
330
29
102
}
330
29
100
AcDbVisualStyle
  2
Shades of Gray
 70
    23
177
     3
291
     0
 70
    58
 90
        2
176
     1
 90
        2
176
     1
 90
        3
176
     1
 90
        0
176
     1
 40
0.6
176
     1
 40
30.0
176
     1
 62
     7
420
 16777215
176
     1
 90
        2
176
     1
 90
        2
176
     1
 62
     7
176
     1
 62
     7
176
     1
 90
        1
176
     1
 90
        1
176
     1
 40
40.0
176
     1
 90
        8
176
     1
 62
     7
176
     1
 40
1.0
176
     1
 90
        1
176
     1
 90
        6
176
     1
 90
        2
176
     1
 62
     7
176
     1
 90
        3
176
     1
 90
        0
176
     1
 90
        0
176
     1
290
     0
176
     1
 90
        1
176
     1
 40
0.0
176
     1
 90
        0
176
     1
290
     0
176
     1
290
     1
176
     1
290
     1
176
     1
290
     0
176
     1
290
     0
176
     1
290
     0
176
     1
290
     0
176
     1
290
     0
176
     1
290
     0
176
     1
 90
       50
176
     1
 40
0.0
176
     1
 40
1.0
176
     1
 90
        0
176
     1
 62
    18
420
        0
176
     1
 90
       50
176
     1
 90
        3
176
     1
 62
     5
420
      255
176
     1
290
     0
176
     1
 90
       50
176
     1
 90
       50
176
     1
 90
       50
176
     1
290
     0
176
     1
 90
       50
176
     1
 62
   256
176
     0
 40
1.0
176
     0
 90
        2
176
     1
  1
strokes_ogs.tif
176
     1
290
     0
176
     1
 40
1.0
176
     1
 40
1.0
176
     1
  0
VISUALSTYLE
  5
3B
102
{ACAD_REACTORS
330
29
102
}
330
29
100
AcDbVisualStyle
  2
Sketchy
 70
    24
177
     3
291
     0
 70
    58
 90
        1
176
     1
 90
        2
176
     1
 90
        2
176
     1
 90
        0
176
     1
 40
0.6
176
     1
 40
30.0
176
     1
 62
     7
420
 16777215
176
     1
 90
        2
176
     1
 90
        2
176
     1
 62
     7
176
     1
 62
     7
176
     1
 90
        1
176
     1
 90
        1
176
     1
 40
40.0
176
     1
 90
       11
176
     1
 62
     7
176
     1
 40
1.0
176
     1
 90
        1
176
     1
 90
        6
176
     1
 90
        2
176
     1
 62
     7
176
     1
 90
        6
176
     1
 90
        0
176
     1
 90
        0
176
     1
290
     0
176
     1
 90
        1
176
     1
 40
0.0
176
     1
 90
        0
176
     1
290
     0
176
     1
290
     1
176
     1
290
     1
176
     1
290
     0
176
     1
290
     0
176
     1
290
     0
176
     1
290
     0
176
     1
290
     0
176
     1
290
     0
176
     1
 90
       50
176
     1
 40
0.0
176
     1
 40
1.0
176
     1
 90
        0
176
     1
 62
    18
420
        0
176
     1
 90
       50
176
     1
 90
        3
176
     1
 62
     5
420
      255
176
     1
290
     0
176
     1
 90
       50
176
     1
 90
       50
176
     1
 90
       50
176
     1
290
     0
176
     1
 90
       50
176
     1
 62
   256
176
     0
 40
1.0
176
     0
 90
        2
176
     1
  1
strokes_ogs.tif
176
     1
290
     0
176
     1
 40
1.0
176
     1
 40
1.0
176
     1
  0
VISUALSTYLE
  5
36
102
{ACAD_REACTORS
330
29
102
}
330
29
100
AcDbVisualStyle
  2
Thicken
 70
    13
177
     3
291
     1
 70
    58
 90
        2
176
     1
 90
        2
176
     1
 90
        0
176
     1
 90
        0
176
     1
 40
0.6
176
     1
 40
30.0
176
     1
 62
     7
420
 16777215
176
     1
 90
        1
176
     1
 90
        4
176
     1
 62
     7
176
     1
 62
   257
176
     1
 90
        1
176
     1
 90
        1
176
     1
 40
1.0
176
     1
 90
       12
176
     1
 62
     7
176
     1
 40
1.0
176
     1
 90
        1
176
     1
 90
        6
176
     1
 90
        2
176
     1
 62
     7
176
     1
 90
        5
176
     1
 90
        0
176
     1
 90
        0
176
     1
290
     0
176
     1
 90
        1
176
     1
 40
0.0
176
     1
 90
        0
176
     1
290
     0
176
     1
290
     1
176
     1
290
     1
176
     1
290
     0
176
     1
290
     0
176
     1
290
     0
176
     1
290
     0
176
     1
290
     0
176
     1
290
     0
176
     1
 90
       50
176
     1
 40
0.0
176
     1
 40
1.0
176
     1
 90
        0
176
     1
 62
    18
420
        0
176
     1
 90
       50
176
     1
 90
        3
176
     1
 62
     5
420
      255
176
     1
290
     0
176
     1
 90
       50
176
     1
 90
       50
176
     1
 90
       50
176
     1
290
     0
176
     1
 90
       50
176
     1
 62
   256
176
     0
 40
1.0
176
     0
 90
        2
176
     1
  1
strokes_ogs.tif
176
     1
290
     0
176
     1
 40
1.0
176
     1
 40
1.0
176
     1
  0
VISUALSTYLE
  5
30
102
{ACAD_REACTORS
330
29
102
}
330
29
100
AcDbVisualStyle
  2
Wireframe
 70
     5
177
     3
291
     0
 70
    58
 90
        0
176
     1
 90
        2
176
     1
 90
        0
176
     1
 90
        0
176
     1
 40
0.6
176
     1
 40
30.0
176
     1
 62
     7
420
 16777215
176
     1
 90
        1
176
     1
 90
        4
176
     1
 62
     7
176
     1
 62
   257
176
     1
 90
        1
176
     1
 90
        1
176
     1
 40
1.0
176
     1
 90
        0
176
     1
 62
   257
176
     1
 40
1.0
176
     1
 90
        1
176
     1
 90
        6
176
     1
 90
        2
176
     1
 62
     7
176
     1
 90
        3
176
     1
 90
        0
176
     1
 90
        0
176
     1
290
     0
176
     1
 90
        1
176
     1
 40
0.0
176
     1
 90
        0
176
     1
290
     0
176
     1
290
     1
176
     1
290
     1
176
     1
290
     0
176
     1
290
     0
176
     1
290
     0
176
     1
290
     0
176
     1
290
     0
176
     1
290
     0
176
     1
 90
       50
176
     1
 40
0.0
176
     1
 40
1.0
176
     1
 90
        0
176
     1
 62
    18
420
        0
176
     1
 90
       50
176
     1
 90
        3
176
     1
 62
     5
420
      255
176
     1
290
     0
176
     1
 90
       50
176
     1
 90
       50
176
     1
 90
       50
176
     1
290
     0
176
     1
 90
       50
176
     1
 62
   256
176
     0
 40
1.0
176
     0
 90
        2
176
     1
  1
strokes_ogs.tif
176
     1
290
     0
176
     1
 40
1.0
176
     1
 40
1.0
176
     1
  0
VISUALSTYLE
  5
3C
102
{ACAD_REACTORS
330
29
102
}
330
29
100
AcDbVisualStyle
  2
X-Ray
 70
    25
177
     3
291
     0
 70
    58
 90
        2
176
     1
 90
        2
176
     1
 90
        1
176
     1
 90
        1
176
     1
 40
0.5
176
     1
 40
30.0
176
     1
 62
     7
420
 16777215
176
     1
 90
        1
176
     1
 90
        0
176
     1
 62
     7
176
     1
 62
   257
176
     1
 90
        1
176
     1
 90
        1
176
     1
 40
1.0
176
     1
 90
        8
176
     1
 62
     7
176
     1
 40
1.0
176
     1
 90
        1
176
     1
 90
        6
176
     1
 90
        2
176
     1
 62
     7
176
     1
 90
        3
176
     1
 90
        0
176
     1
 90
        0
176
     1
290
     0
176
     1
 90
       13
176
     1
 40
0.0
176
     1
 90
        0
176
     1
290
     0
176
     1
290
     1
176
     1
290
     1
176
     1
290
     0
176
     1
290
     0
176
     1
290
     0
176
     1
290
     0
176
     1
290
     0
176
     1
290
     0
176
     1
 90
       50
176
     1
 40
0.0
176
     1
 40
1.0
176
     1
 90
        0
176
     1
 62
    18
420
        0
176
     1
 90
       50
176
     1
 90
        3
176
     1
 62
     5
420
      255
176
     1
290
     0
176
     1
 90
       50
176
     1
 90
       50
176
     1
 90
       50
176
     1
290
     0
176
     1
 90
       50
176
     1
 62
   256
176
     0
 40
1.0
176
     0
 90
        2
176
     1
  1
strokes_ogs.tif
176
     1
290
     0
176
     1
 40
1.0
176
     1
 40
1.0
176
     1
  0
DICTIONARYVAR
  5
81
102
{ACAD_REACTORS
330
7C
102
}
330
7C
100
DictionaryVariables
280
     0
  1
1:1
  0
DICTIONARYVAR
  5
7E
102
{ACAD_REACTORS
330
7C
102
}
330
7C
100
DictionaryVariables
280
     0
  1
STANDARD
  0
DICTIONARYVAR
  5
7D
102
{ACAD_REACTORS
330
7C
102
}
330
7C
100
DictionaryVariables
280
     0
  1
STANDARD
  0
DICTIONARYVAR
  5
7F
102
{ACAD_REACTORS
330
7C
102
}
330
7C
100
DictionaryVariables
280
     0
  1
Imperial24
  0
DICTIONARYVAR
  5
80
102
{ACAD_REACTORS
330
7C
102
}
330
7C
100
DictionaryVariables
280
     0
  1
Imperial24
  0
XRECORD
  5
30B
102
{ACAD_REACTORS
330
307
102
}
330
307
100
AcDbXrecord
280
     1
  1
BUILDING_ID
  1
Progetto per messa in tavola DXF, DWG
  1
FLOOR_ID
  1
694395
  0
XRECORD
  5
309
102
{ACAD_REACTORS
330
307
102
}
330
307
100
AcDbXrecord
280
     1
  1
-2001160
  1
Apparecchi idraulici
  0
XRECORD
  5
30A
102
{ACAD_REACTORS
330
307
102
}
330
307
100
AcDbXrecord
280
     1
  1
790271
  1
Body
  1
924079
  1
Handle
  0
XRECORD
  5
308
102
{ACAD_REACTORS
330
307
102
}
330
307
100
AcDbXrecord
280
     1
  1
859151
  1
Automatic flow rate regulator valve_Caleffi_121 DN15 : 1/2''
  0
DICTIONARY
  5
1A
330
19
100
AcDbDictionary
280
     1
281
     1
  3
BUMPTILE
360
1C
  3
DIFFUSETILE
360
1B
  3
OPACITYTILE
360
1F
  3
REFLECTIONTILE
360
1E
  3
REFRACTIONTILE
360
20
  3
SPECULARTILE
360
1D
  0
DICTIONARY
  5
12
330
11
100
AcDbDictionary
280
     1
281
     1
  3
BUMPTILE
360
14
  3
DIFFUSETILE
360
13
  3
OPACITYTILE
360
17
  3
REFLECTIONTILE
360
16
  3
REFRACTIONTILE
360
18
  3
SPECULARTILE
360
15
  0
DICTIONARY
  5
22
330
21
100
AcDbDictionary
280
     1
281
     1
  3
BUMPTILE
360
24
  3
DIFFUSETILE
360
23
  3
OPACITYTILE
360
27
  3
REFLECTIONTILE
360
26
  3
REFRACTIONTILE
360
28
  3
SPECULARTILE
360
25
  0
DICTIONARY
  5
30E
330
65
100
AcDbDictionary
280
     1
281
     1
  3
ACAD_ROUNDTRIP_2008_TABLESTYLE_CELLSTYLEMAP
360
30F
  0
XRECORD
  5
1C
102
{ACAD_REACTORS
330
1A
102
}
330
1A
100
AcDbXrecord
280
     1
270
     1
271
     1
  0
XRECORD
  5
1B
102
{ACAD_REACTORS
330
1A
102
}
330
1A
100
AcDbXrecord
280
     1
270
     1
271
     1
  0
XRECORD
  5
1F
102
{ACAD_REACTORS
330
1A
102
}
330
1A
100
AcDbXrecord
280
     1
270
     1
271
     1
  0
XRECORD
  5
1E
102
{ACAD_REACTORS
330
1A
102
}
330
1A
100
AcDbXrecord
280
     1
270
     1
271
     1
  0
XRECORD
  5
20
102
{ACAD_REACTORS
330
1A
102
}
330
1A
100
AcDbXrecord
280
     1
270
     1
271
     1
  0
XRECORD
  5
1D
102
{ACAD_REACTORS
330
1A
102
}
330
1A
100
AcDbXrecord
280
     1
270
     1
271
     1
  0
XRECORD
  5
14
102
{ACAD_REACTORS
330
12
102
}
330
12
100
AcDbXrecord
280
     1
270
     1
271
     1
  0
XRECORD
  5
13
102
{ACAD_REACTORS
330
12
102
}
330
12
100
AcDbXrecord
280
     1
270
     1
271
     1
  0
XRECORD
  5
17
102
{ACAD_REACTORS
330
12
102
}
330
12
100
AcDbXrecord
280
     1
270
     1
271
     1
  0
XRECORD
  5
16
102
{ACAD_REACTORS
330
12
102
}
330
12
100
AcDbXrecord
280
     1
270
     1
271
     1
  0
XRECORD
  5
18
102
{ACAD_REACTORS
330
12
102
}
330
12
100
AcDbXrecord
280
     1
270
     1
271
     1
  0
XRECORD
  5
15
102
{ACAD_REACTORS
330
12
102
}
330
12
100
AcDbXrecord
280
     1
270
     1
271
     1
  0
XRECORD
  5
24
102
{ACAD_REACTORS
330
22
102
}
330
22
100
AcDbXrecord
280
     1
270
     1
271
     1
  0
XRECORD
  5
23
102
{ACAD_REACTORS
330
22
102
}
330
22
100
AcDbXrecord
280
     1
270
     1
271
     1
  0
XRECORD
  5
27
102
{ACAD_REACTORS
330
22
102
}
330
22
100
AcDbXrecord
280
     1
270
     1
271
     1
  0
XRECORD
  5
26
102
{ACAD_REACTORS
330
22
102
}
330
22
100
AcDbXrecord
280
     1
270
     1
271
     1
  0
XRECORD
  5
28
102
{ACAD_REACTORS
330
22
102
}
330
22
100
AcDbXrecord
280
     1
270
     1
271
     1
  0
XRECORD
  5
25
102
{ACAD_REACTORS
330
22
102
}
330
22
100
AcDbXrecord
280
     1
270
     1
271
     1
  0
CELLSTYLEMAP
  5
30F
102
{ACAD_REACTORS
330
30E
102
}
330
30E
100
AcDbCellStyleMap
 90
        3
300
CELLSTYLE
  1
TABLEFORMAT_BEGIN
 90
        5
170
     1
 91
        0
 92
    32768
 62
   257
 93
        1
300
CONTENTFORMAT
  1
CONTENTFORMAT_BEGIN
 90
        0
 91
        0
 92
      512
 93
        0
300

 40
0.0
140
1.0
 94
        5
 62
     0
340
55
144
0.25
309
CONTENTFORMAT_END
171
     0
 94
        0
309
TABLEFORMAT_END
  1
CELLSTYLE_BEGIN
 90
        1
 91
        1
300
_TITLE
309
CELLSTYLE_END
300
CELLSTYLE
  1
TABLEFORMAT_BEGIN
 90
        5
170
     1
 91
        0
 92
        0
 62
   257
 93
        1
300
CONTENTFORMAT
  1
CONTENTFORMAT_BEGIN
 90
        0
 91
        0
 92
      512
 93
        0
300

 40
0.0
140
1.0
 94
        5
 62
     0
340
55
144
0.18
309
CONTENTFORMAT_END
171
     0
 94
        0
309
TABLEFORMAT_END
  1
CELLSTYLE_BEGIN
 90
        2
 91
        1
300
_HEADER
309
CELLSTYLE_END
300
CELLSTYLE
  1
TABLEFORMAT_BEGIN
 90
        5
170
     1
 91
        0
 92
        0
 62
   257
 93
        1
300
CONTENTFORMAT
  1
CONTENTFORMAT_BEGIN
 90
        0
 91
        0
 92
      512
 93
        0
300

 40
0.0
140
1.0
 94
        2
 62
     0
340
55
144
0.18
309
CONTENTFORMAT_END
171
     0
 94
        0
309
TABLEFORMAT_END
  1
CELLSTYLE_BEGIN
 90
        3
 91
        2
300
_DATA
309
CELLSTYLE_END
  0
ENDSEC
  0
EOF
